  0
SECTION
  2
HEADER
  9
$ACADVER
  1
AC1015
  9
$ACADMAINTVER
 70
     6
  9
$DWGCODEPAGE
  3
ANSI_932
  9
$INSBASE
 10
0.0
 20
0.0
 30
0.0
  9
$EXTMIN
 10
1.000000000000000E+20
 20
1.000000000000000E+20
 30
1.000000000000000E+20
  9
$EXTMAX
 10
-1.000000000000000E+20
 20
-1.000000000000000E+20
 30
-1.000000000000000E+20
  9
$LIMMIN
 10
0.0
 20
0.0
  9
$LIMMAX
 10
12.0
 20
9.0
  9
$ORTHOMODE
 70
     0
  9
$REGENMODE
 70
     1
  9
$FILLMODE
 70
     1
  9
$QTEXTMODE
 70
     0
  9
$MIRRTEXT
 70
     1
  9
$LTSCALE
 40
1.0
  9
$ATTMODE
 70
     1
  9
$TEXTSIZE
 40
0.2
  9
$TRACEWID
 40
0.05
  9
$TEXTSTYLE
  7
Standard
  9
$CLAYER
  8
0
  9
$CELTYPE
  6
ByLayer
  9
$CECOLOR
 62
   256
  9
$CELTSCALE
 40
1.0
  9
$DISPSILH
 70
     0
  9
$DIMSCALE
 40
1.0
  9
$DIMASZ
 40
0.18
  9
$DIMEXO
 40
0.0625
  9
$DIMDLI
 40
0.38
  9
$DIMRND
 40
0.0
  9
$DIMDLE
 40
0.0
  9
$DIMEXE
 40
0.18
  9
$DIMTP
 40
0.0
  9
$DIMTM
 40
0.0
  9
$DIMTXT
 40
0.18
  9
$DIMCEN
 40
0.09
  9
$DIMTSZ
 40
0.0
  9
$DIMTOL
 70
     0
  9
$DIMLIM
 70
     0
  9
$DIMTIH
 70
     1
  9
$DIMTOH
 70
     1
  9
$DIMSE1
 70
     0
  9
$DIMSE2
 70
     0
  9
$DIMTAD
 70
     0
  9
$DIMZIN
 70
     0
  9
$DIMBLK
  1

  9
$DIMASO
 70
     1
  9
$DIMSHO
 70
     1
  9
$DIMPOST
  1

  9
$DIMAPOST
  1

  9
$DIMALT
 70
     0
  9
$DIMALTD
 70
     2
  9
$DIMALTF
 40
25.4
  9
$DIMLFAC
 40
1.0
  9
$DIMTOFL
 70
     0
  9
$DIMTVP
 40
0.0
  9
$DIMTIX
 70
     0
  9
$DIMSOXD
 70
     0
  9
$DIMSAH
 70
     0
  9
$DIMBLK1
  1

  9
$DIMBLK2
  1

  9
$DIMSTYLE
  2
Standard
  9
$DIMCLRD
 70
     0
  9
$DIMCLRE
 70
     0
  9
$DIMCLRT
 70
     0
  9
$DIMTFAC
 40
1.0
  9
$DIMGAP
 40
0.09
  9
$DIMJUST
 70
     0
  9
$DIMSD1
 70
     0
  9
$DIMSD2
 70
     0
  9
$DIMTOLJ
 70
     1
  9
$DIMTZIN
 70
     0
  9
$DIMALTZ
 70
     0
  9
$DIMALTTZ
 70
     0
  9
$DIMUPT
 70
     0
  9
$DIMDEC
 70
     4
  9
$DIMTDEC
 70
     4
  9
$DIMALTU
 70
     2
  9
$DIMALTTD
 70
     2
  9
$DIMTXSTY
  7
Standard
  9
$DIMAUNIT
 70
     0
  9
$DIMADEC
 70
     0
  9
$DIMALTRND
 40
0.0
  9
$DIMAZIN
 70
     0
  9
$DIMDSEP
 70
    46
  9
$DIMATFIT
 70
     3
  9
$DIMFRAC
 70
     0
  9
$DIMLDRBLK
  1

  9
$DIMLUNIT
 70
     2
  9
$DIMLWD
 70
    -2
  9
$DIMLWE
 70
    -2
  9
$DIMTMOVE
 70
     0
  9
$LUNITS
 70
     2
  9
$LUPREC
 70
     4
  9
$SKETCHINC
 40
0.1
  9
$FILLETRAD
 40
0.5
  9
$AUNITS
 70
     0
  9
$AUPREC
 70
     0
  9
$MENU
  1
.
  9
$ELEVATION
 40
0.0
  9
$PELEVATION
 40
0.0
  9
$THICKNESS
 40
0.0
  9
$LIMCHECK
 70
     0
  9
$CHAMFERA
 40
0.5
  9
$CHAMFERB
 40
0.5
  9
$CHAMFERC
 40
1.0
  9
$CHAMFERD
 40
0.0
  9
$SKPOLY
 70
     0
  9
$TDCREATE
 40
2457240.66387206
  9
$TDUCREATE
 40
2457240.28887206
  9
$TDUPDATE
 40
2457240.663872072
  9
$TDUUPDATE
 40
2457240.288872072
  9
$TDINDWG
 40
0.0000000116
  9
$TDUSRTIMER
 40
0.0000000116
  9
$USRTIMER
 70
     1
  9
$ANGBASE
 50
0.0
  9
$ANGDIR
 70
     0
  9
$PDMODE
 70
     0
  9
$PDSIZE
 40
0.0
  9
$PLINEWID
 40
0.0
  9
$SPLFRAME
 70
     0
  9
$SPLINETYPE
 70
     6
  9
$SPLINESEGS
 70
     8
  9
$HANDSEED
  5
16A
  9
$SURFTAB1
 70
     6
  9
$SURFTAB2
 70
     6
  9
$SURFTYPE
 70
     6
  9
$SURFU
 70
     6
  9
$SURFV
 70
     6
  9
$UCSBASE
  2

  9
$UCSNAME
  2

  9
$UCSORG
 10
0.0
 20
0.0
 30
0.0
  9
$UCSXDIR
 10
1.0
 20
0.0
 30
0.0
  9
$UCSYDIR
 10
0.0
 20
1.0
 30
0.0
  9
$UCSORTHOREF
  2

  9
$UCSORTHOVIEW
 70
     0
  9
$UCSORGTOP
 10
0.0
 20
0.0
 30
0.0
  9
$UCSORGBOTTOM
 10
0.0
 20
0.0
 30
0.0
  9
$UCSORGLEFT
 10
0.0
 20
0.0
 30
0.0
  9
$UCSORGRIGHT
 10
0.0
 20
0.0
 30
0.0
  9
$UCSORGFRONT
 10
0.0
 20
0.0
 30
0.0
  9
$UCSORGBACK
 10
0.0
 20
0.0
 30
0.0
  9
$PUCSBASE
  2

  9
$PUCSNAME
  2

  9
$PUCSORG
 10
0.0
 20
0.0
 30
0.0
  9
$PUCSXDIR
 10
1.0
 20
0.0
 30
0.0
  9
$PUCSYDIR
 10
0.0
 20
1.0
 30
0.0
  9
$PUCSORTHOREF
  2

  9
$PUCSORTHOVIEW
 70
     0
  9
$PUCSORGTOP
 10
0.0
 20
0.0
 30
0.0
  9
$PUCSORGBOTTOM
 10
0.0
 20
0.0
 30
0.0
  9
$PUCSORGLEFT
 10
0.0
 20
0.0
 30
0.0
  9
$PUCSORGRIGHT
 10
0.0
 20
0.0
 30
0.0
  9
$PUCSORGFRONT
 10
0.0
 20
0.0
 30
0.0
  9
$PUCSORGBACK
 10
0.0
 20
0.0
 30
0.0
  9
$USERI1
 70
     0
  9
$USERI2
 70
     0
  9
$USERI3
 70
     0
  9
$USERI4
 70
     0
  9
$USERI5
 70
     0
  9
$USERR1
 40
0.0
  9
$USERR2
 40
0.0
  9
$USERR3
 40
0.0
  9
$USERR4
 40
0.0
  9
$USERR5
 40
0.0
  9
$WORLDVIEW
 70
     1
  9
$SHADEDGE
 70
     3
  9
$SHADEDIF
 70
    70
  9
$TILEMODE
 70
     1
  9
$MAXACTVP
 70
    64
  9
$PINSBASE
 10
0.0
 20
0.0
 30
0.0
  9
$PLIMCHECK
 70
     0
  9
$PEXTMIN
 10
1.000000000000000E+20
 20
1.000000000000000E+20
 30
1.000000000000000E+20
  9
$PEXTMAX
 10
-1.000000000000000E+20
 20
-1.000000000000000E+20
 30
-1.000000000000000E+20
  9
$PLIMMIN
 10
0.0
 20
0.0
  9
$PLIMMAX
 10
12.0
 20
9.0
  9
$UNITMODE
 70
     0
  9
$VISRETAIN
 70
     1
  9
$PLINEGEN
 70
     0
  9
$PSLTSCALE
 70
     1
  9
$TREEDEPTH
 70
  3020
  9
$CMLSTYLE
  2
Standard
  9
$CMLJUST
 70
     0
  9
$CMLSCALE
 40
1.0
  9
$PROXYGRAPHICS
 70
     1
  9
$MEASUREMENT
 70
     0
  9
$CELWEIGHT
370
    -1
  9
$ENDCAPS
280
     0
  9
$JOINSTYLE
280
     0
  9
$LWDISPLAY
290
     1
  9
$INSUNITS
 70
     1
  9
$HYPERLINKBASE
  1

  9
$STYLESHEET
  1

  9
$XEDIT
290
     1
  9
$CEPSNTYPE
380
     0
  9
$PSTYLEMODE
290
     1
  9
$FINGERPRINTGUID
  2
{B9E6C3A9-CE8A-424D-88D1-0E107FF1BFF5}
  9
$VERSIONGUID
  2
{FAEB1C32-E019-11D5-929B-00C0DF256EC4}
  9
$EXTNAMES
290
     1
  9
$PSVPSCALE
 40
0.0
  9
$OLESTARTUP
290
     0
  0
ENDSEC
  0
SECTION
  2
CLASSES
  0
CLASS
  1
ACDBDICTIONARYWDFLT
  2
AcDbDictionaryWithDefault
  3
ObjectDBX Classes
 90
        0
280
     0
281
     0
  0
CLASS
  1
VISUALSTYLE
  2
AcDbVisualStyle
  3
ObjectDBX Classes
 90
     4095
280
     0
281
     0
  0
CLASS
  1
ACDBPLACEHOLDER
  2
AcDbPlaceHolder
  3
ObjectDBX Classes
 90
        0
280
     0
281
     0
  0
CLASS
  1
LAYOUT
  2
AcDbLayout
  3
ObjectDBX Classes
 90
        0
280
     0
281
     0
  0
ENDSEC
  0
SECTION
  2
TABLES
  0
TABLE
  2
VPORT
  5
8
330
0
100
AcDbSymbolTable
 70
     1
  0
VPORT
  5
29
330
8
100
AcDbSymbolTableRecord
100
AcDbViewportTableRecord
  2
*Active
 70
     0
 10
0.0
 20
0.0
 11
1.0
 21
1.0
 12
0.0
 22
0.0
 13
0.0
 23
0.0
 14
0.5
 24
0.5
 15
0.5
 25
0.5
 16
0.0
 26
0.0
 36
1.0
 17
105.0008259828644
 27
-148.4999796178229
 37
0.0
 40
296.9999592356459
 41
0.7070763662937379
 42
50.0
 43
0.0
 44
0.0
 50
0.0
 51
0.0
 71
     0
 72
   100
 73
     1
 74
     3
 75
     0
 76
     0
 77
     0
 78
     0
281
     0
 65
     1
110
0.0
120
0.0
130
0.0
111
1.0
121
0.0
131
0.0
112
0.0
122
1.0
132
0.0
 79
     0
146
0.0
  0
ENDTAB
  0
TABLE
  2
LTYPE
  5
5
330
0
100
AcDbSymbolTable
 70
     1
  0
LTYPE
  5
14
330
5
100
AcDbSymbolTableRecord
100
AcDbLinetypeTableRecord
  2
ByBlock
 70
     0
  3

 72
    65
 73
     0
 40
0.0
  0
LTYPE
  5
15
330
5
100
AcDbSymbolTableRecord
100
AcDbLinetypeTableRecord
  2
ByLayer
 70
     0
  3

 72
    65
 73
     0
 40
0.0
  0
LTYPE
  5
16
330
5
100
AcDbSymbolTableRecord
100
AcDbLinetypeTableRecord
  2
Continuous
 70
     0
  3
Solid line
 72
    65
 73
     0
 40
0.0
  0
ENDTAB
  0
TABLE
  2
LAYER
  5
2
330
0
100
AcDbSymbolTable
 70
     2
  0
LAYER
  5
10
330
2
100
AcDbSymbolTableRecord
100
AcDbLayerTableRecord
  2
0
 70
     0
 62
     7
  6
Continuous
370
    -3
390
F
  0
LAYER
  5
3B
330
2
100
AcDbSymbolTableRecord
100
AcDbLayerTableRecord
  2
\U+30EC\U+30A4\U+30E4\U+30FC 1
 70
     0
 62
     7
  6
Continuous
370
    -3
390
F
  0
ENDTAB
  0
TABLE
  2
STYLE
  5
3
330
0
100
AcDbSymbolTable
 70
     1
  0
STYLE
  5
11
330
3
100
AcDbSymbolTableRecord
100
AcDbTextStyleTableRecord
  2
Standard
 70
     0
 40
0.0
 41
1.0
 50
0.0
 71
     0
 42
0.2
  3
txt
  4

  0
ENDTAB
  0
TABLE
  2
VIEW
  5
6
330
0
100
AcDbSymbolTable
 70
     0
  0
ENDTAB
  0
TABLE
  2
UCS
  5
7
330
0
100
AcDbSymbolTable
 70
     0
  0
ENDTAB
  0
TABLE
  2
APPID
  5
9
330
0
100
AcDbSymbolTable
 70
     1
  0
APPID
  5
12
330
9
100
AcDbSymbolTableRecord
100
AcDbRegAppTableRecord
  2
ACAD
 70
     0
  0
ENDTAB
  0
TABLE
  2
DIMSTYLE
  5
A
330
0
100
AcDbSymbolTable
 70
     1
100
AcDbDimStyleTable
  0
DIMSTYLE
105
27
330
A
100
AcDbSymbolTableRecord
100
AcDbDimStyleTableRecord
  2
Standard
 70
     0
340
11
  0
ENDTAB
  0
TABLE
  2
BLOCK_RECORD
  5
1
330
0
100
AcDbSymbolTable
 70
     7
  0
BLOCK_RECORD
  5
1F
330
1
100
AcDbSymbolTableRecord
100
AcDbBlockTableRecord
  2
*Model_Space
340
22
  0
BLOCK_RECORD
  5
1B
330
1
100
AcDbSymbolTableRecord
100
AcDbBlockTableRecord
  2
*Paper_Space
340
1E
  0
BLOCK_RECORD
  5
23
330
1
100
AcDbSymbolTableRecord
100
AcDbBlockTableRecord
  2
*Paper_Space0
340
26
  0
BLOCK_RECORD
  5
3C
330
1
100
AcDbSymbolTableRecord
100
AcDbBlockTableRecord
  2
block 2
340
0
102
{BLKREFS
331
3D
102
}
  0
BLOCK_RECORD
  5
5D
330
1
100
AcDbSymbolTableRecord
100
AcDbBlockTableRecord
  2
block 3
340
0
102
{BLKREFS
331
5E
102
}
  0
BLOCK_RECORD
  5
66
330
1
100
AcDbSymbolTableRecord
100
AcDbBlockTableRecord
  2
block 4
340
0
102
{BLKREFS
331
67
102
}
  0
BLOCK_RECORD
  5
6F
330
1
100
AcDbSymbolTableRecord
100
AcDbBlockTableRecord
  2
block 5
340
0
102
{BLKREFS
331
70
102
}
  0
BLOCK_RECORD
  5
78
330
1
100
AcDbSymbolTableRecord
100
AcDbBlockTableRecord
  2
block 6
340
0
102
{BLKREFS
331
79
102
}
  0
BLOCK_RECORD
  5
81
330
1
100
AcDbSymbolTableRecord
100
AcDbBlockTableRecord
  2
block 7
340
0
102
{BLKREFS
331
82
102
}
  0
ENDTAB
  0
ENDSEC
  0
SECTION
  2
BLOCKS
  0
BLOCK
  5
20
330
1F
100
AcDbEntity
  8
0
100
AcDbBlockBegin
  2
*Model_Space
 70
     0
 71
     0
 10
0.0
 20
0.0
 30
0.0
  3
*Model_Space
  1

  0
ENDBLK
  5
21
330
1F
100
AcDbEntity
  8
0
100
AcDbBlockEnd
  0
BLOCK
  5
1C
330
1B
100
AcDbEntity
 67
     1
  8
0
100
AcDbBlockBegin
  2
*Paper_Space
 70
     0
 71
     0
 10
0.0
 20
0.0
 30
0.0
  3
*Paper_Space
  1

  0
ENDBLK
  5
1D
330
1B
100
AcDbEntity
 67
     1
  8
0
100
AcDbBlockEnd
  0
BLOCK
  5
24
330
23
100
AcDbEntity
  8
0
100
AcDbBlockBegin
  2
*Paper_Space0
 70
     0
 71
     0
 10
0.0
 20
0.0
 30
0.0
  3
*Paper_Space0
  1

  0
ENDBLK
  5
25
330
23
100
AcDbEntity
  8
0
100
AcDbBlockEnd
  0
BLOCK
  5
3E
330
3C
100
AcDbEntity
  8
0
100
AcDbBlockBegin
  2
block 2
 70
     0
 71
     0
 10
0.0
 20
0.0
 30
0.0
  3
block 2
  1

  0
SPLINE
  5
40
330
3C
100
AcDbEntity
  8
\U+30EC\U+30A4\U+30E4\U+30FC 1
 62
     7
370
     9
100
AcDbSpline
210
0.0
220
0.0
230
1.0
 70
    11
 71
     3
 72
    29
 73
    25
 74
     0
 42
0.0000000001
 43
0.0000000001
 40
0.0
 40
0.0
 40
0.0
 40
0.0
 40
1.0
 40
1.0
 40
1.0
 40
2.0
 40
2.0
 40
2.0
 40
3.0
 40
3.0
 40
3.0
 40
4.0
 40
4.0
 40
4.0
 40
5.0
 40
5.0
 40
5.0
 40
6.0
 40
6.0
 40
6.0
 40
7.0
 40
7.0
 40
7.0
 40
8.0
 40
8.0
 40
8.0
 40
8.0
 10
97.33221568747251
 20
-173.6682969400899
 30
0.0
 10
97.33221568747251
 20
-173.6682969400899
 30
0.0
 10
128.2236978846107
 20
-182.1477104579353
 30
0.0
 10
128.2236978846107
 20
-182.1477104579353
 30
0.0
 10
128.2236978846107
 20
-182.1477104579353
 30
0.0
 10
130.881589051481
 20
-182.8763481530656
 30
0.0
 10
129.30993649111
 20
-184.5330945719223
 30
0.0
 10
127.9511908317275
 20
-185.9655652746892
 30
0.0
 10
112.8599500585906
 20
-198.5904621899357
 30
0.0
 10
112.8599500585906
 20
-198.5904621899357
 30
0.0
 10
112.8599500585906
 20
-198.5904621899357
 30
0.0
 10
111.1046739088558
 20
-199.5674912695526
 30
0.0
 10
108.9945529241403
 20
-199.1568358877108
 30
0.0
 10
107.0019096954718
 20
-198.7692626456202
 30
0.0
 10
88.35739743884815
 20
-194.6981933107004
 30
0.0
 10
81.55919051780465
 20
-192.8850395568135
 30
0.0
 10
80.84881182874614
 20
-192.6959038146732
 30
0.0
 10
78.6143228970131
 20
-191.9931043356823
 30
0.0
 10
79.68712563111988
 20
-190.6198892752617
 30
0.0
 10
80.60903318297275
 20
-189.4385660333695
 30
0.0
 10
92.75058320163875
 20
-174.7335204641291
 30
0.0
 10
92.75058320163875
 20
-174.7335204641291
 30
0.0
 10
92.75058320163875
 20
-174.7335204641291
 30
0.0
 10
94.16134980284856
 20
-173.0953775608928
 30
0.0
 10
97.33221568747251
 20
-173.6682969400899
 30
0.0
  0
SPLINE
  5
41
330
3C
100
AcDbEntity
  8
\U+30EC\U+30A4\U+30E4\U+30FC 1
 62
     7
370
     9
100
AcDbSpline
210
0.0
220
0.0
230
1.0
 70
     8
 71
     3
 72
    20
 73
    16
 74
     0
 42
0.0000000001
 43
0.0000000001
 40
0.0
 40
0.0
 40
0.0
 40
0.0
 40
1.0
 40
1.0
 40
1.0
 40
2.0
 40
2.0
 40
2.0
 40
3.0
 40
3.0
 40
3.0
 40
4.0
 40
4.0
 40
4.0
 40
5.0
 40
5.0
 40
5.0
 40
5.0
 10
129.6299858616897
 20
-183.012429424733
 30
0.0
 10
129.5951903972887
 20
-183.2666774715445
 30
0.0
 10
129.4498073678112
 20
-183.5546874541113
 30
0.0
 10
129.1425048505269
 20
-183.8785264297248
 30
0.0
 10
127.7834146815958
 20
-185.3109971324917
 30
0.0
 10
112.6925184180074
 20
-197.9362385572868
 30
0.0
 10
112.6925184180074
 20
-197.9362385572868
 30
0.0
 10
112.6925184180074
 20
-197.9362385572868
 30
0.0
 10
110.9368977587241
 20
-198.9129231273551
 30
0.0
 10
108.8271212835571
 20
-198.5022677455133
 30
0.0
 10
106.8341335453401
 20
-198.1146945034227
 30
0.0
 10
88.18962128871648
 20
-194.043625168503
 30
0.0
 10
81.3917588772215
 20
-192.2301269050675
 30
0.0
 10
80.94803057872133
 20
-192.1123046394719
 30
0.0
 10
79.90830076127293
 20
-191.7932887975378
 30
0.0
 10
79.4528591381229
 20
-191.2355278384759
 30
0.0
  0
SPLINE
  5
42
330
3C
100
AcDbEntity
  8
\U+30EC\U+30A4\U+30E4\U+30FC 1
 62
     7
370
     9
100
AcDbSpline
210
0.0
220
0.0
230
1.0
 70
    11
 71
     3
 72
    29
 73
    25
 74
     0
 42
0.0000000001
 43
0.0000000001
 40
0.0
 40
0.0
 40
0.0
 40
0.0
 40
1.0
 40
1.0
 40
1.0
 40
2.0
 40
2.0
 40
2.0
 40
3.0
 40
3.0
 40
3.0
 40
4.0
 40
4.0
 40
4.0
 40
5.0
 40
5.0
 40
5.0
 40
6.0
 40
6.0
 40
6.0
 40
7.0
 40
7.0
 40
7.0
 40
8.0
 40
8.0
 40
8.0
 40
8.0
 10
95.35955401261845
 20
-169.2124104394677
 30
0.0
 10
95.35955401261845
 20
-169.2124104394677
 30
0.0
 10
135.3726155260527
 20
-180.2146673811616
 30
0.0
 10
135.3726155260527
 20
-180.2146673811616
 30
0.0
 10
135.3726155260527
 20
-180.2146673811616
 30
0.0
 10
138.8152994444629
 20
-181.1603460918627
 30
0.0
 10
136.7792480126802
 20
-183.3100856746586
 30
0.0
 10
135.0188042197175
 20
-185.1690591984994
 30
0.0
 10
115.472021455507
 20
-201.5504882308624
 30
0.0
 10
115.472021455507
 20
-201.5504882308624
 30
0.0
 10
115.472021455507
 20
-201.5504882308624
 30
0.0
 10
113.1982584352421
 20
-202.8182833694343
 30
0.0
 10
110.4652641867934
 20
-202.2856716074147
 30
0.0
 10
107.8841986492442
 20
-201.7823431570197
 30
0.0
 10
83.73373478809435
 20
-196.4999782494861
 30
0.0
 10
74.92875974689281
 20
-194.1469780330605
 30
0.0
 10
74.00891925233111
 20
-193.9016872345107
 30
0.0
 10
71.11366100652714
 20
-192.9901149691136
 30
0.0
 10
72.5030680157284
 20
-191.2083115841424
 30
0.0
 10
73.69748262046453
 20
-189.6755886027547
 30
0.0
 10
89.42503252972708
 20
-170.5949272576985
 30
0.0
 10
89.42503252972708
 20
-170.5949272576985
 30
0.0
 10
89.42503252972708
 20
-170.5949272576985
 30
0.0
 10
91.2523111751036
 20
-168.4686143242023
 30
0.0
 10
95.35955401261845
 20
-169.2124104394677
 30
0.0
  0
SPLINE
  5
43
330
3C
100
AcDbEntity
  8
\U+30EC\U+30A4\U+30E4\U+30FC 1
 62
     7
370
     9
100
AcDbSpline
210
0.0
220
0.0
230
1.0
 70
     8
 71
     3
 72
    26
 73
    22
 74
     0
 42
0.0000000001
 43
0.0000000001
 40
0.0
 40
0.0
 40
0.0
 40
0.0
 40
1.0
 40
1.0
 40
1.0
 40
2.0
 40
2.0
 40
2.0
 40
3.0
 40
3.0
 40
3.0
 40
4.0
 40
4.0
 40
4.0
 40
5.0
 40
5.0
 40
5.0
 40
6.0
 40
6.0
 40
6.0
 40
7.0
 40
7.0
 40
7.0
 40
7.0
 10
72.46000432216277
 20
-191.265844678746
 30
0.0
 10
72.46000432216277
 20
-191.265844678746
 30
0.0
 10
72.43795571105719
 20
-190.795933654558
 30
0.0
 10
72.46000432216277
 20
-190.3594400565768
 30
0.0
 10
72.48205293326838
 20
-189.9229464585957
 30
0.0
 10
72.85274520748126
 20
-189.4203070272977
 30
0.0
 10
72.85274520748126
 20
-189.4203070272977
 30
0.0
 10
74.04715981221737
 20
-187.8879285554586
 30
0.0
 10
89.42503252972708
 20
-169.0839083778679
 30
0.0
 10
89.42503252972708
 20
-169.0839083778679
 30
0.0
 10
89.42503252972708
 20
-169.0839083778679
 30
0.0
 10
91.2523111751036
 20
-166.9582844634688
 30
0.0
 10
95.35955401261845
 20
-167.7020805787342
 30
0.0
 10
95.35955401261845
 20
-167.7020805787342
 30
0.0
 10
134.680495843066
 20
-178.5138237400938
 30
0.0
 10
134.680495843066
 20
-178.5138237400938
 30
0.0
 10
134.680495843066
 20
-178.5138237400938
 30
0.0
 10
137.2291774830538
 20
-179.2255804673464
 30
0.0
 10
137.3180609465733
 20
-180.5333387135472
 30
0.0
 10
137.4076334291898
 20
-181.840407940651
 30
0.0
 10
137.3993652000252
 20
-181.7994113043765
 30
0.0
 10
137.3993652000252
 20
-181.7994113043765
 30
0.0
  0
SPLINE
  5
44
330
3C
100
AcDbEntity
  8
\U+30EC\U+30A4\U+30E4\U+30FC 1
 62
     7
370
     9
100
AcDbSpline
210
0.0
220
0.0
230
1.0
 70
    11
 71
     3
 72
    29
 73
    25
 74
     0
 42
0.0000000001
 43
0.0000000001
 40
0.0
 40
0.0
 40
0.0
 40
0.0
 40
1.0
 40
1.0
 40
1.0
 40
2.0
 40
2.0
 40
2.0
 40
3.0
 40
3.0
 40
3.0
 40
4.0
 40
4.0
 40
4.0
 40
5.0
 40
5.0
 40
5.0
 40
6.0
 40
6.0
 40
6.0
 40
7.0
 40
7.0
 40
7.0
 40
8.0
 40
8.0
 40
8.0
 40
8.0
 10
95.42707788412935
 20
-169.7839517804707
 30
0.0
 10
95.42707788412935
 20
-169.7839517804707
 30
0.0
 10
134.6177951052344
 20
-180.4547905364835
 30
0.0
 10
134.6177951052344
 20
-180.4547905364835
 30
0.0
 10
134.6177951052344
 20
-180.4547905364835
 30
0.0
 10
137.9891655470999
 20
-181.371874954657
 30
0.0
 10
135.9958332993344
 20
-183.4561577232332
 30
0.0
 10
134.2712184994183
 20
-185.259320700213
 30
0.0
 10
115.1261338687879
 20
-201.1470675495396
 30
0.0
 10
115.1261338687879
 20
-201.1470675495396
 30
0.0
 10
115.1261338687879
 20
-201.1470675495396
 30
0.0
 10
112.8992241471224
 20
-202.3759331091283
 30
0.0
 10
110.2227294646318
 20
-201.8595132958893
 30
0.0
 10
107.6957519262011
 20
-201.3720322847265
 30
0.0
 10
84.04069279583011
 20
-196.2488307886114
 30
0.0
 10
75.41589624850714
 20
-193.9671440487304
 30
0.0
 10
74.51534828866284
 20
-193.7287434411512
 30
0.0
 10
71.68003470430222
 20
-192.844731939636
 30
0.0
 10
73.04015840187886
 20
-191.1163275346862
 30
0.0
 10
74.21114635731527
 20
-189.6297688328009
 30
0.0
 10
89.61451278141583
 20
-171.1247829433299
 30
0.0
 10
89.61451278141583
 20
-171.1247829433299
 30
0.0
 10
89.61451278141583
 20
-171.1247829433299
 30
0.0
 10
91.40458439555164
 20
-169.0625487858594
 30
0.0
 10
95.42707788412935
 20
-169.7839517804707
 30
0.0
  0
POLYLINE
  5
45
330
3C
100
AcDbEntity
  8
\U+30EC\U+30A4\U+30E4\U+30FC 1
 62
     7
370
     9
100
AcDb2dPolyline
 66
     1
 10
0.0
 20
0.0
 30
0.0
  0
VERTEX
  5
46
330
45
100
AcDbEntity
  8
\U+30EC\U+30A4\U+30E4\U+30FC 1
 62
     7
370
     9
100
AcDbVertex
100
AcDb2dVertex
 10
105.5456678338566
 20
-175.9227674256374
 30
0.0
  0
VERTEX
  5
47
330
45
100
AcDbEntity
  8
\U+30EC\U+30A4\U+30E4\U+30FC 1
 62
     7
370
     9
100
AcDbVertex
100
AcDb2dVertex
 10
88.64781898825471
 20
-194.0105522518446
 30
0.0
  0
SEQEND
  5
48
330
45
100
AcDbEntity
  8
\U+30EC\U+30A4\U+30E4\U+30FC 1
370
     9
  0
POLYLINE
  5
49
330
3C
100
AcDbEntity
  8
\U+30EC\U+30A4\U+30E4\U+30FC 1
 62
     7
370
     9
100
AcDb2dPolyline
 66
     1
 10
0.0
 20
0.0
 30
0.0
  0
VERTEX
  5
4A
330
49
100
AcDbEntity
  8
\U+30EC\U+30A4\U+30E4\U+30FC 1
 62
     7
370
     9
100
AcDbVertex
100
AcDb2dVertex
 10
113.349153617496
 20
-178.0645832888172
 30
0.0
  0
VERTEX
  5
4B
330
49
100
AcDbEntity
  8
\U+30EC\U+30A4\U+30E4\U+30FC 1
 62
     7
370
     9
100
AcDbVertex
100
AcDb2dVertex
 10
95.80121525382748
 20
-195.7496364527987
 30
0.0
  0
SEQEND
  5
4C
330
49
100
AcDbEntity
  8
\U+30EC\U+30A4\U+30E4\U+30FC 1
370
     9
  0
POLYLINE
  5
4D
330
3C
100
AcDbEntity
  8
\U+30EC\U+30A4\U+30E4\U+30FC 1
 62
     7
370
     9
100
AcDb2dPolyline
 66
     1
 10
0.0
 20
0.0
 30
0.0
  0
VERTEX
  5
4E
330
4D
100
AcDbEntity
  8
\U+30EC\U+30A4\U+30E4\U+30FC 1
 62
     7
370
     9
100
AcDbVertex
100
AcDb2dVertex
 10
120.8815103864463
 20
-180.1326741086127
 30
0.0
  0
VERTEX
  5
4F
330
4D
100
AcDbEntity
  8
\U+30EC\U+30A4\U+30E4\U+30FC 1
 62
     7
370
     9
100
AcDbVertex
100
AcDb2dVertex
 10
103.0086995185187
 20
-197.2537651416588
 30
0.0
  0
SEQEND
  5
50
330
4D
100
AcDbEntity
  8
\U+30EC\U+30A4\U+30E4\U+30FC 1
370
     9
  0
POLYLINE
  5
51
330
3C
100
AcDbEntity
  8
\U+30EC\U+30A4\U+30E4\U+30FC 1
 62
     7
370
     9
100
AcDb2dPolyline
 66
     1
 10
0.0
 20
0.0
 30
0.0
  0
VERTEX
  5
52
330
51
100
AcDbEntity
  8
\U+30EC\U+30A4\U+30E4\U+30FC 1
 62
     7
370
     9
100
AcDbVertex
100
AcDb2dVertex
 10
89.59246417031022
 20
-178.5613660577902
 30
0.0
  0
VERTEX
  5
53
330
51
100
AcDbEntity
  8
\U+30EC\U+30A4\U+30E4\U+30FC 1
 62
     7
370
     9
100
AcDbVertex
100
AcDb2dVertex
 10
124.8599066528128
 20
-187.6577961770439
 30
0.0
  0
SEQEND
  5
54
330
51
100
AcDbEntity
  8
\U+30EC\U+30A4\U+30E4\U+30FC 1
370
     9
  0
POLYLINE
  5
55
330
3C
100
AcDbEntity
  8
\U+30EC\U+30A4\U+30E4\U+30FC 1
 62
     7
370
     9
100
AcDb2dPolyline
 66
     1
 10
0.0
 20
0.0
 30
0.0
  0
VERTEX
  5
56
330
55
100
AcDbEntity
  8
\U+30EC\U+30A4\U+30E4\U+30FC 1
 62
     7
370
     9
100
AcDbVertex
100
AcDb2dVertex
 10
86.24314233955033
 20
-182.6234781444483
 30
0.0
  0
VERTEX
  5
57
330
55
100
AcDbEntity
  8
\U+30EC\U+30A4\U+30E4\U+30FC 1
 62
     7
370
     9
100
AcDbVertex
100
AcDb2dVertex
 10
120.6531005557742
 20
-191.2365613671214
 30
0.0
  0
SEQEND
  5
58
330
55
100
AcDbEntity
  8
\U+30EC\U+30A4\U+30E4\U+30FC 1
370
     9
  0
POLYLINE
  5
59
330
3C
100
AcDbEntity
  8
\U+30EC\U+30A4\U+30E4\U+30FC 1
 62
     7
370
     9
100
AcDb2dPolyline
 66
     1
 10
0.0
 20
0.0
 30
0.0
  0
VERTEX
  5
5A
330
59
100
AcDbEntity
  8
\U+30EC\U+30A4\U+30E4\U+30FC 1
 62
     7
370
     9
100
AcDbVertex
100
AcDb2dVertex
 10
82.94549694106918
 20
-186.6301241937939
 30
0.0
  0
VERTEX
  5
5B
330
59
100
AcDbEntity
  8
\U+30EC\U+30A4\U+30E4\U+30FC 1
 62
     7
370
     9
100
AcDbVertex
100
AcDb2dVertex
 10
116.4483615160268
 20
-194.7836316787347
 30
0.0
  0
SEQEND
  5
5C
330
59
100
AcDbEntity
  8
\U+30EC\U+30A4\U+30E4\U+30FC 1
370
     9
  0
INSERT
  5
5E
330
3C
100
AcDbEntity
  8
\U+30EC\U+30A4\U+30E4\U+30FC 1
100
AcDbBlockReference
  2
block 3
 10
0.0
 20
0.0
 30
0.0
  0
INSERT
  5
67
330
3C
100
AcDbEntity
  8
\U+30EC\U+30A4\U+30E4\U+30FC 1
100
AcDbBlockReference
  2
block 4
 10
0.0
 20
0.0
 30
0.0
  0
INSERT
  5
70
330
3C
100
AcDbEntity
  8
\U+30EC\U+30A4\U+30E4\U+30FC 1
100
AcDbBlockReference
  2
block 5
 10
0.0
 20
0.0
 30
0.0
  0
INSERT
  5
79
330
3C
100
AcDbEntity
  8
\U+30EC\U+30A4\U+30E4\U+30FC 1
100
AcDbBlockReference
  2
block 6
 10
0.0
 20
0.0
 30
0.0
  0
INSERT
  5
82
330
3C
100
AcDbEntity
  8
\U+30EC\U+30A4\U+30E4\U+30FC 1
100
AcDbBlockReference
  2
block 7
 10
0.0
 20
0.0
 30
0.0
  0
SPLINE
  5
89
330
3C
100
AcDbEntity
  8
\U+30EC\U+30A4\U+30E4\U+30FC 1
 62
     7
370
     9
100
AcDbSpline
210
0.0
220
0.0
230
1.0
 70
     8
 71
     3
 72
    14
 73
    10
 74
     0
 42
0.0000000001
 43
0.0000000001
 40
0.0
 40
0.0
 40
0.0
 40
0.0
 40
1.0
 40
1.0
 40
1.0
 40
2.0
 40
2.0
 40
2.0
 40
3.0
 40
3.0
 40
3.0
 40
3.0
 10
99.88434242294558
 20
-167.7534125014644
 30
0.0
 10
99.88434242294558
 20
-167.7534125014644
 30
0.0
 10
98.88388669402903
 20
-166.2479057744102
 30
0.0
 10
98.88388669402903
 20
-166.2479057744102
 30
0.0
 10
98.88388669402903
 20
-166.2479057744102
 30
0.0
 10
98.54626733647454
 20
-166.0715168855655
 30
0.0
 10
98.44291447191705
 20
-166.4535779748797
 30
0.0
 10
98.34025062645661
 20
-166.8356390641939
 30
0.0
 10
98.10598413345961
 20
-168.457245509101
 30
0.0
 10
98.10598413345961
 20
-168.457245509101
 30
0.0
  0
SPLINE
  5
8A
330
3C
100
AcDbEntity
  8
\U+30EC\U+30A4\U+30E4\U+30FC 1
 62
     7
370
     9
100
AcDbSpline
210
0.0
220
0.0
230
1.0
 70
     8
 71
     3
 72
    14
 73
    10
 74
     0
 42
0.0000000001
 43
0.0000000001
 40
0.0
 40
0.0
 40
0.0
 40
0.0
 40
1.0
 40
1.0
 40
1.0
 40
2.0
 40
2.0
 40
2.0
 40
3.0
 40
3.0
 40
3.0
 40
3.0
 10
97.41662052686112
 20
-168.2674207478637
 30
0.0
 10
97.41662052686112
 20
-168.2674207478637
 30
0.0
 10
97.82555336096028
 20
-166.3516031485163
 30
0.0
 10
97.82555336096028
 20
-166.3516031485163
 30
0.0
 10
97.82555336096028
 20
-166.3516031485163
 30
0.0
 10
97.88480900330659
 20
-166.0418890643923
 30
0.0
 10
98.39881724970586
 20
-166.0715168855655
 30
0.0
 10
98.91317000565365
 20
-166.1008001971901
 30
0.0
 10
98.88388669402903
 20
-166.2479057744102
 30
0.0
 10
98.88388669402903
 20
-166.2479057744102
 30
0.0
  0
SPLINE
  5
8B
330
3C
100
AcDbEntity
  8
\U+30EC\U+30A4\U+30E4\U+30FC 1
 62
     7
370
     9
100
AcDbSpline
210
0.0
220
0.0
230
1.0
 70
     8
 71
     3
 72
    14
 73
    10
 74
     0
 42
0.0000000001
 43
0.0000000001
 40
0.0
 40
0.0
 40
0.0
 40
0.0
 40
1.0
 40
1.0
 40
1.0
 40
2.0
 40
2.0
 40
2.0
 40
3.0
 40
3.0
 40
3.0
 40
3.0
 10
105.15017087215
 20
-168.6284667547179
 30
0.0
 10
105.15017087215
 20
-168.6284667547179
 30
0.0
 10
105.7175780985706
 20
-167.168435288069
 30
0.0
 10
105.7175780985706
 20
-167.168435288069
 30
0.0
 10
105.7175780985706
 20
-167.168435288069
 30
0.0
 10
105.8491807461072
 20
-166.9321017377809
 30
0.0
 10
105.8643391662423
 20
-167.3320773236184
 30
0.0
 10
105.8788085672803
 20
-167.7323974190044
 30
0.0
 10
105.9931857373906
 20
-170.6259331170658
 30
0.0
 10
105.9931857373906
 20
-170.6259331170658
 30
0.0
  0
SPLINE
  5
8C
330
3C
100
AcDbEntity
  8
\U+30EC\U+30A4\U+30E4\U+30FC 1
 62
     7
370
     9
100
AcDbSpline
210
0.0
220
0.0
230
1.0
 70
     8
 71
     3
 72
    14
 73
    10
 74
     0
 42
0.0000000001
 43
0.0000000001
 40
0.0
 40
0.0
 40
0.0
 40
0.0
 40
1.0
 40
1.0
 40
1.0
 40
2.0
 40
2.0
 40
2.0
 40
3.0
 40
3.0
 40
3.0
 40
3.0
 10
105.8491807461072
 20
-167.099533378364
 30
0.0
 10
105.8491807461072
 20
-167.099533378364
 30
0.0
 10
106.1888671609528
 20
-167.099533378364
 30
0.0
 10
106.1888671609528
 20
-167.099533378364
 30
0.0
 10
106.1888671609528
 20
-167.099533378364
 30
0.0
 10
106.3494086105654
 20
-167.1443196196723
 30
0.0
 10
106.3635335020549
 20
-167.5439506959612
 30
0.0
 10
106.3786919221901
 20
-167.9442707913473
 30
0.0
 10
106.6133029247356
 20
-170.8181694451427
 30
0.0
 10
106.6133029247356
 20
-170.8181694451427
 30
0.0
  0
POLYLINE
  5
8D
330
3C
100
AcDbEntity
  8
\U+30EC\U+30A4\U+30E4\U+30FC 1
 62
     7
370
     9
100
AcDb2dPolyline
 66
     1
 10
0.0
 20
0.0
 30
0.0
  0
VERTEX
  5
8E
330
8D
100
AcDbEntity
  8
\U+30EC\U+30A4\U+30E4\U+30FC 1
 62
     7
370
     9
100
AcDbVertex
100
AcDb2dVertex
 10
105.5456678338566
 20
-170.5029432082423
 30
0.0
  0
VERTEX
  5
8F
330
8D
100
AcDbEntity
  8
\U+30EC\U+30A4\U+30E4\U+30FC 1
 62
     7
370
     9
100
AcDbVertex
100
AcDb2dVertex
 10
105.3062336976318
 20
-168.6284667547179
 30
0.0
  0
VERTEX
  5
90
330
8D
100
AcDbEntity
  8
\U+30EC\U+30A4\U+30E4\U+30FC 1
 62
     7
370
     9
100
AcDbVertex
100
AcDb2dVertex
 10
103.1902560505913
 20
-168.6284667547179
 30
0.0
  0
SEQEND
  5
91
330
8D
100
AcDbEntity
  8
\U+30EC\U+30A4\U+30E4\U+30FC 1
370
     9
  0
SPLINE
  5
92
330
3C
100
AcDbEntity
  8
\U+30EC\U+30A4\U+30E4\U+30FC 1
 62
     7
370
     9
100
AcDbSpline
210
0.0
220
0.0
230
1.0
 70
     8
 71
     3
 72
    26
 73
    22
 74
     0
 42
0.0000000001
 43
0.0000000001
 40
0.0
 40
0.0
 40
0.0
 40
0.0
 40
1.0
 40
1.0
 40
1.0
 40
2.0
 40
2.0
 40
2.0
 40
3.0
 40
3.0
 40
3.0
 40
4.0
 40
4.0
 40
4.0
 40
5.0
 40
5.0
 40
5.0
 40
6.0
 40
6.0
 40
6.0
 40
7.0
 40
7.0
 40
7.0
 40
7.0
 10
106.4227891444012
 20
-168.409358681856
 30
0.0
 10
106.4227891444012
 20
-168.409358681856
 30
0.0
 10
107.9224392091305
 20
-166.9017848975107
 30
0.0
 10
107.9224392091305
 20
-166.9017848975107
 30
0.0
 10
107.9224392091305
 20
-166.9017848975107
 30
0.0
 10
108.5549587402224
 20
-166.312673569533
 30
0.0
 10
108.8043836533545
 20
-167.5439506959612
 30
0.0
 10
109.0538085664866
 20
-168.7759168414866
 30
0.0
 10
109.2164170733903
 20
-169.0546250662433
 30
0.0
 10
109.2164170733903
 20
-169.0546250662433
 30
0.0
 10
109.2164170733903
 20
-169.0546250662433
 30
0.0
 10
109.5388780108097
 20
-169.6423583560269
 30
0.0
 10
110.2447780757374
 20
-169.0546250662433
 30
0.0
 10
110.9499891215681
 20
-168.4672362860082
 30
0.0
 10
111.1704752326241
 20
-168.3645724405478
 30
0.0
 10
111.1704752326241
 20
-168.3645724405478
 30
0.0
 10
111.1704752326241
 20
-168.3645724405478
 30
0.0
 10
112.2870306793935
 20
-167.5036430787838
 30
0.0
 10
112.4634195682383
 20
-169.5135117848786
 30
0.0
 10
112.6398084570831
 20
-171.5237250005219
 30
0.0
 10
112.6759819596782
 20
-172.463547048898
 30
0.0
 10
112.6759819596782
 20
-172.463547048898
 30
0.0
  0
SPLINE
  5
93
330
3C
100
AcDbEntity
  8
\U+30EC\U+30A4\U+30E4\U+30FC 1
 62
     7
370
     9
100
AcDbSpline
210
0.0
220
0.0
230
1.0
 70
     8
 71
     3
 72
    17
 73
    13
 74
     0
 42
0.0000000001
 43
0.0000000001
 40
0.0
 40
0.0
 40
0.0
 40
0.0
 40
1.0
 40
1.0
 40
1.0
 40
2.0
 40
2.0
 40
2.0
 40
3.0
 40
3.0
 40
3.0
 40
4.0
 40
4.0
 40
4.0
 40
4.0
 10
109.8744303110731
 20
-169.278211763236
 30
0.0
 10
109.7001084795194
 20
-169.2058647580458
 30
0.0
 10
109.6160481496793
 20
-169.0546250662433
 30
0.0
 10
109.6160481496793
 20
-169.0546250662433
 30
0.0
 10
109.6160481496793
 20
-169.0546250662433
 30
0.0
 10
109.4548176809696
 20
-168.7759168414866
 30
0.0
 10
109.2040147296434
 20
-167.5439506959612
 30
0.0
 10
109.0768907062377
 20
-166.9148762603546
 30
0.0
 10
108.8491698946627
 20
-166.7608804921639
 30
0.0
 10
108.6576225856828
 20
-166.7612250017125
 30
0.0
 10
108.6576225856828
 20
-166.7612250017125
 30
0.0
 10
108.2621256239761
 20
-166.7612250017125
 30
0.0
 10
108.2621256239761
 20
-166.7612250017125
 30
0.0
  0
SPLINE
  5
94
330
3C
100
AcDbEntity
  8
\U+30EC\U+30A4\U+30E4\U+30FC 1
 62
     7
370
     9
100
AcDbSpline
210
0.0
220
0.0
230
1.0
 70
     8
 71
     3
 72
    14
 73
    10
 74
     0
 42
0.0000000001
 43
0.0000000001
 40
0.0
 40
0.0
 40
0.0
 40
0.0
 40
1.0
 40
1.0
 40
1.0
 40
2.0
 40
2.0
 40
2.0
 40
3.0
 40
3.0
 40
3.0
 40
3.0
 10
113.1576063085162
 20
-172.5961832250801
 30
0.0
 10
113.1576063085162
 20
-172.5961832250801
 30
0.0
 10
113.0404730620177
 20
-171.5237250005219
 30
0.0
 10
112.8640841731729
 20
-169.5135117848786
 30
0.0
 10
112.7703775759741
 20
-168.4472547321938
 30
0.0
 10
112.4117431359596
 20
-168.1888725708
 30
0.0
 10
112.0958278799622
 20
-168.1809488511839
 30
0.0
 10
112.0958278799622
 20
-168.1809488511839
 30
0.0
 10
111.6348741040357
 20
-168.1833604180236
 30
0.0
 10
111.6348741040357
 20
-168.1833604180236
 30
0.0
  0
SPLINE
  5
95
330
3C
100
AcDbEntity
  8
\U+30EC\U+30A4\U+30E4\U+30FC 1
 62
     7
370
     9
100
AcDbSpline
210
0.0
220
0.0
230
1.0
 70
     8
 71
     3
 72
    11
 73
     7
 74
     0
 42
0.0000000001
 43
0.0000000001
 40
0.0
 40
0.0
 40
0.0
 40
0.0
 40
1.0
 40
1.0
 40
1.0
 40
2.0
 40
2.0
 40
2.0
 40
2.0
 10
109.418988687923
 20
-168.4713704005905
 30
0.0
 10
109.418988687923
 20
-168.4713704005905
 30
0.0
 10
110.8321668559725
 20
-167.6586723756201
 30
0.0
 10
110.8321668559725
 20
-167.6586723756201
 30
0.0
 10
110.8321668559725
 20
-167.6586723756201
 30
0.0
 10
111.7692328279605
 20
-167.1687797976175
 30
0.0
 10
112.0958278799622
 20
-168.1809488511839
 30
0.0
  0
SPLINE
  5
96
330
3C
100
AcDbEntity
  8
\U+30EC\U+30A4\U+30E4\U+30FC 1
 62
     7
370
     9
100
AcDbSpline
210
0.0
220
0.0
230
1.0
 70
     8
 71
     3
 72
    14
 73
    10
 74
     0
 42
0.0000000001
 43
0.0000000001
 40
0.0
 40
0.0
 40
0.0
 40
0.0
 40
1.0
 40
1.0
 40
1.0
 40
2.0
 40
2.0
 40
2.0
 40
3.0
 40
3.0
 40
3.0
 40
3.0
 10
112.9309190255867
 20
-170.2869357213171
 30
0.0
 10
112.9309190255867
 20
-170.2869357213171
 30
0.0
 10
115.7407389033565
 20
-171.0827527784099
 30
0.0
 10
115.7407389033565
 20
-171.0827527784099
 30
0.0
 10
115.7407389033565
 20
-171.0827527784099
 30
0.0
 10
115.872341550893
 20
-171.0896429693804
 30
0.0
 10
115.9171277922013
 20
-171.3652506082004
 30
0.0
 10
115.9612250144125
 20
-171.6415472661174
 30
0.0
 10
116.1369248841602
 20
-173.3888996962361
 30
0.0
 10
116.1369248841602
 20
-173.3888996962361
 30
0.0
  0
SPLINE
  5
97
330
3C
100
AcDbEntity
  8
\U+30EC\U+30A4\U+30E4\U+30FC 1
 62
     7
370
     9
100
AcDbSpline
210
0.0
220
0.0
230
1.0
 70
     8
 71
     3
 72
    17
 73
    13
 74
     0
 42
0.0000000001
 43
0.0000000001
 40
0.0
 40
0.0
 40
0.0
 40
0.0
 40
1.0
 40
1.0
 40
1.0
 40
2.0
 40
2.0
 40
2.0
 40
3.0
 40
3.0
 40
3.0
 40
4.0
 40
4.0
 40
4.0
 40
4.0
 10
112.8964680707342
 20
-169.8897162118679
 30
0.0
 10
112.8964680707342
 20
-169.8897162118679
 30
0.0
 10
113.0514973675705
 20
-170.7892306430666
 30
0.0
 10
114.3592556137713
 20
-170.3630723315412
 30
0.0
 10
115.6663248408751
 20
-169.9369140200158
 30
0.0
 10
116.2836859518319
 20
-169.7729274749179
 30
0.0
 10
116.2836859518319
 20
-169.7729274749179
 30
0.0
 10
116.2836859518319
 20
-169.7729274749179
 30
0.0
 10
118.0386175920181
 20
-169.2103433821766
 30
0.0
 10
118.4423827828894
 20
-171.9206000004226
 30
0.0
 10
118.7727674399249
 20
-174.139586002472
 30
0.0
 10
118.7727674399249
 20
-174.139586002472
 30
0.0
 10
118.7727674399249
 20
-174.139586002472
 30
0.0
  0
SPLINE
  5
98
330
3C
100
AcDbEntity
  8
\U+30EC\U+30A4\U+30E4\U+30FC 1
 62
     7
370
     9
100
AcDbSpline
210
0.0
220
0.0
230
1.0
 70
     8
 71
     3
 72
    14
 73
    10
 74
     0
 42
0.0000000001
 43
0.0000000001
 40
0.0
 40
0.0
 40
0.0
 40
0.0
 40
1.0
 40
1.0
 40
1.0
 40
2.0
 40
2.0
 40
2.0
 40
3.0
 40
3.0
 40
3.0
 40
3.0
 10
119.312958412012
 20
-174.2884141274349
 30
0.0
 10
119.312958412012
 20
-174.2884141274349
 30
0.0
 10
119.312958412012
 20
-174.2305365232826
 30
0.0
 10
118.9832627740736
 20
-172.0115505212332
 30
0.0
 10
118.7317708036504
 20
-170.3175970711359
 30
0.0
 10
117.9518011857898
 20
-169.9021185556147
 30
0.0
 10
117.4012749272469
 20
-169.829427040876
 30
0.0
 10
117.4012749272469
 20
-169.829427040876
 30
0.0
 10
116.8280110385013
 20
-169.7246961381244
 30
0.0
 10
116.8280110385013
 20
-169.7246961381244
 30
0.0
  0
SPLINE
  5
99
330
3C
100
AcDbEntity
  8
\U+30EC\U+30A4\U+30E4\U+30FC 1
 62
     7
370
     9
100
AcDbSpline
210
0.0
220
0.0
230
1.0
 70
     8
 71
     3
 72
    14
 73
    10
 74
     0
 42
0.0000000001
 43
0.0000000001
 40
0.0
 40
0.0
 40
0.0
 40
0.0
 40
1.0
 40
1.0
 40
1.0
 40
2.0
 40
2.0
 40
2.0
 40
3.0
 40
3.0
 40
3.0
 40
3.0
 10
125.3435980589419
 20
-174.7545355465892
 30
0.0
 10
125.3435980589419
 20
-174.7545355465892
 30
0.0
 10
127.3197048292812
 20
-175.2974825950645
 30
0.0
 10
127.3197048292812
 20
-175.2974825950645
 30
0.0
 10
127.3197048292812
 20
-175.2974825950645
 30
0.0
 10
127.5264105583962
 20
-175.3891221349722
 30
0.0
 10
127.6001356017805
 20
-175.7274305116237
 30
0.0
 10
127.6855739698147
 20
-176.1194823778451
 30
0.0
 10
127.7958170253427
 20
-176.620743770949
 30
0.0
 10
127.7958170253427
 20
-176.620743770949
 30
0.0
  0
SPLINE
  5
9A
330
3C
100
AcDbEntity
  8
\U+30EC\U+30A4\U+30E4\U+30FC 1
 62
     7
370
     9
100
AcDbSpline
210
0.0
220
0.0
230
1.0
 70
     8
 71
     3
 72
    14
 73
    10
 74
     0
 42
0.0000000001
 43
0.0000000001
 40
0.0
 40
0.0
 40
0.0
 40
0.0
 40
1.0
 40
1.0
 40
1.0
 40
2.0
 40
2.0
 40
2.0
 40
3.0
 40
3.0
 40
3.0
 40
3.0
 10
119.1355359945217
 20
-173.0471462240993
 30
0.0
 10
119.1355359945217
 20
-173.0471462240993
 30
0.0
 10
120.7285481469012
 20
-173.4850178602746
 30
0.0
 10
120.7285481469012
 20
-173.4850178602746
 30
0.0
 10
120.7285481469012
 20
-173.4850178602746
 30
0.0
 10
121.0169026390166
 20
-173.6038736545157
 30
0.0
 10
121.1343803950636
 20
-173.9380479165849
 30
0.0
 10
121.2522026606592
 20
-174.2718776691057
 30
0.0
 10
121.4327256640863
 20
-174.8713242835391
 30
0.0
 10
121.4327256640863
 20
-174.8713242835391
 30
0.0
  0
POLYLINE
  5
9B
330
3C
100
AcDbEntity
  8
\U+30EC\U+30A4\U+30E4\U+30FC 1
 62
     7
370
     9
100
AcDb2dPolyline
 66
     1
 10
0.0
 20
0.0
 30
0.0
  0
VERTEX
  5
9C
330
9B
100
AcDbEntity
  8
\U+30EC\U+30A4\U+30E4\U+30FC 1
 62
     7
370
     9
100
AcDbVertex
100
AcDb2dVertex
 10
106.5140841747604
 20
-169.5765570322586
 30
0.0
  0
VERTEX
  5
9D
330
9B
100
AcDbEntity
  8
\U+30EC\U+30A4\U+30E4\U+30FC 1
 62
     7
370
     9
100
AcDbVertex
100
AcDb2dVertex
 10
110.9058918993569
 20
-170.8181694451427
 30
0.0
  0
VERTEX
  5
9E
330
9B
100
AcDbEntity
  8
\U+30EC\U+30A4\U+30E4\U+30FC 1
 62
     7
370
     9
100
AcDbVertex
100
AcDb2dVertex
 10
111.0195800503701
 20
-172.008105425748
 30
0.0
  0
SEQEND
  5
9F
330
9B
100
AcDbEntity
  8
\U+30EC\U+30A4\U+30E4\U+30FC 1
370
     9
  0
POLYLINE
  5
A0
330
3C
100
AcDbEntity
  8
\U+30EC\U+30A4\U+30E4\U+30FC 1
 62
     7
370
     9
100
AcDb2dPolyline
 66
     1
 10
0.0
 20
0.0
 30
0.0
  0
VERTEX
  5
A1
330
A0
100
AcDbEntity
  8
\U+30EC\U+30A4\U+30E4\U+30FC 1
 62
     7
370
     9
100
AcDbVertex
100
AcDb2dVertex
 10
98.28237302230441
 20
-167.3262206612935
 30
0.0
  0
VERTEX
  5
A2
330
A0
100
AcDbEntity
  8
\U+30EC\U+30A4\U+30E4\U+30FC 1
 62
     7
370
     9
100
AcDbVertex
100
AcDb2dVertex
 10
105.3875379510837
 20
-169.2664984385862
 30
0.0
  0
SEQEND
  5
A3
330
A0
100
AcDbEntity
  8
\U+30EC\U+30A4\U+30E4\U+30FC 1
370
     9
  0
SPLINE
  5
A4
330
3C
100
AcDbEntity
  8
\U+30EC\U+30A4\U+30E4\U+30FC 1
 62
     7
370
     9
100
AcDbSpline
210
0.0
220
0.0
230
1.0
 70
     8
 71
     3
 72
     8
 73
     4
 74
     0
 42
0.0000000001
 43
0.0000000001
 40
0.0
 40
0.0
 40
0.0
 40
0.0
 40
1.0
 40
1.0
 40
1.0
 40
1.0
 10
111.6348741040357
 20
-167.6007947714679
 30
0.0
 10
111.6348741040357
 20
-167.6007947714679
 30
0.0
 10
112.1592176368908
 20
-167.8243814684606
 30
0.0
 10
112.4479166385547
 20
-168.3211642374336
 30
0.0
  0
SPLINE
  5
A5
330
3C
100
AcDbEntity
  8
\U+30EC\U+30A4\U+30E4\U+30FC 1
 62
     7
370
     9
100
AcDbSpline
210
0.0
220
0.0
230
1.0
 70
     8
 71
     3
 72
     8
 73
     4
 74
     0
 42
0.0000000001
 43
0.0000000001
 40
0.0
 40
0.0
 40
0.0
 40
0.0
 40
1.0
 40
1.0
 40
1.0
 40
1.0
 10
112.7579752322272
 20
-168.8906385211454
 30
0.0
 10
112.7579752322272
 20
-168.8906385211454
 30
0.0
 10
114.8594834782296
 20
-168.6791096583511
 30
0.0
 10
115.4396375579456
 20
-170.0206298403074
 30
0.0
  0
SPLINE
  5
A6
330
3C
100
AcDbEntity
  8
\U+30EC\U+30A4\U+30E4\U+30FC 1
 62
     7
370
     9
100
AcDbSpline
210
0.0
220
0.0
230
1.0
 70
     8
 71
     3
 72
    14
 73
    10
 74
     0
 42
0.0000000001
 43
0.0000000001
 40
0.0
 40
0.0
 40
0.0
 40
0.0
 40
1.0
 40
1.0
 40
1.0
 40
2.0
 40
2.0
 40
2.0
 40
3.0
 40
3.0
 40
3.0
 40
3.0
 10
118.9832627740736
 20
-172.0115505212332
 30
0.0
 10
118.9832627740736
 20
-172.0115505212332
 30
0.0
 10
122.0893608635749
 20
-171.7590250221644
 30
0.0
 10
122.0893608635749
 20
-171.7590250221644
 30
0.0
 10
122.0893608635749
 20
-171.7590250221644
 30
0.0
 10
124.3224717571138
 20
-171.8420518233589
 30
0.0
 10
124.7637884887743
 20
-173.8753471787534
 30
0.0
 10
125.2057942395319
 20
-175.9086425341478
 30
0.0
 10
125.1000298081347
 20
-175.8797037320718
 30
0.0
 10
125.1000298081347
 20
-175.8797037320718
 30
0.0
  0
SPLINE
  5
A7
330
3C
100
AcDbEntity
  8
\U+30EC\U+30A4\U+30E4\U+30FC 1
 62
     7
370
     9
100
AcDbSpline
210
0.0
220
0.0
230
1.0
 70
     8
 71
     3
 72
    11
 73
     7
 74
     0
 42
0.0000000001
 43
0.0000000001
 40
0.0
 40
0.0
 40
0.0
 40
0.0
 40
1.0
 40
1.0
 40
1.0
 40
2.0
 40
2.0
 40
2.0
 40
2.0
 10
122.7284260760887
 20
-171.8675455299498
 30
0.0
 10
123.4481065229574
 20
-171.9833007382542
 30
0.0
 10
124.7407063490232
 20
-172.3912000437078
 30
0.0
 10
125.1110541136875
 20
-173.8195366318923
 30
0.0
 10
125.634364117897
 20
-175.8335394525694
 30
0.0
 10
125.5689073036772
 20
-176.0085503032201
 30
0.0
 10
125.5689073036772
 20
-176.0085503032201
 30
0.0
  0
SPLINE
  5
A8
330
3C
100
AcDbEntity
  8
\U+30EC\U+30A4\U+30E4\U+30FC 1
 62
     7
370
     9
100
AcDbSpline
210
0.0
220
0.0
230
1.0
 70
     8
 71
     3
 72
    11
 73
     7
 74
     0
 42
0.0000000001
 43
0.0000000001
 40
0.0
 40
0.0
 40
0.0
 40
0.0
 40
1.0
 40
1.0
 40
1.0
 40
2.0
 40
2.0
 40
2.0
 40
2.0
 10
125.2839979070471
 20
-174.5057996525541
 30
0.0
 10
125.2839979070471
 20
-174.5057996525541
 30
0.0
 10
129.0105576934418
 20
-174.7424777123908
 30
0.0
 10
129.0105576934418
 20
-174.7424777123908
 30
0.0
 10
129.0105576934418
 20
-174.7424777123908
 30
0.0
 10
132.2882215381085
 20
-174.7424777123908
 30
0.0
 10
133.3548231003419
 20
-178.1493326377544
 30
0.0
  0
SPLINE
  5
A9
330
3C
100
AcDbEntity
  8
\U+30EC\U+30A4\U+30E4\U+30FC 1
 62
     7
370
     9
100
AcDbSpline
210
0.0
220
0.0
230
1.0
 70
     8
 71
     3
 72
    17
 73
    13
 74
     0
 42
0.0000000001
 43
0.0000000001
 40
0.0
 40
0.0
 40
0.0
 40
0.0
 40
1.0
 40
1.0
 40
1.0
 40
2.0
 40
2.0
 40
2.0
 40
3.0
 40
3.0
 40
3.0
 40
4.0
 40
4.0
 40
4.0
 40
4.0
 10
101.0491292065086
 20
-168.0738063815927
 30
0.0
 10
101.0491292065086
 20
-168.0738063815927
 30
0.0
 10
101.1834879304333
 20
-166.7612250017125
 30
0.0
 10
101.1834879304333
 20
-166.7612250017125
 30
0.0
 10
101.1834879304333
 20
-166.7612250017125
 30
0.0
 10
101.2203504521255
 20
-166.1721136737348
 30
0.0
 10
101.55796980968
 20
-166.6589056658005
 30
0.0
 10
101.8949001481374
 20
-167.1456976578664
 30
0.0
 10
101.876296632517
 20
-167.2766112863059
 30
0.0
 10
101.876296632517
 20
-167.4454209650831
 30
0.0
 10
101.876296632517
 20
-167.6142306438603
 30
0.0
 10
101.8766411420656
 20
-168.3011826836191
 30
0.0
 10
101.8766411420656
 20
-168.3011826836191
 30
0.0
  0
SPLINE
  5
AA
330
3C
100
AcDbEntity
  8
\U+30EC\U+30A4\U+30E4\U+30FC 1
 62
     7
370
     9
100
AcDbSpline
210
0.0
220
0.0
230
1.0
 70
     8
 71
     3
 72
    11
 73
     7
 74
     0
 42
0.0000000001
 43
0.0000000001
 40
0.0
 40
0.0
 40
0.0
 40
0.0
 40
1.0
 40
1.0
 40
1.0
 40
2.0
 40
2.0
 40
2.0
 40
2.0
 10
100.8024603697647
 20
-168.0059380005332
 30
0.0
 10
100.8024603697647
 20
-168.0059380005332
 30
0.0
 10
100.9774712204154
 20
-166.7612250017125
 30
0.0
 10
100.9774712204154
 20
-166.7612250017125
 30
0.0
 10
100.9774712204154
 20
-166.7612250017125
 30
0.0
 10
101.1094183775004
 20
-166.1803819028994
 30
0.0
 10
101.3698675961853
 20
-166.4735595286941
 30
0.0
  0
SPLINE
  5
AB
330
3C
100
AcDbEntity
  8
\U+30EC\U+30A4\U+30E4\U+30FC 1
 62
     7
370
     9
100
AcDbSpline
210
0.0
220
0.0
230
1.0
 70
     8
 71
     3
 72
    14
 73
    10
 74
     0
 42
0.0000000001
 43
0.0000000001
 40
0.0
 40
0.0
 40
0.0
 40
0.0
 40
1.0
 40
1.0
 40
1.0
 40
2.0
 40
2.0
 40
2.0
 40
3.0
 40
3.0
 40
3.0
 40
3.0
 10
101.876296632517
 20
-167.6007947714679
 30
0.0
 10
101.876296632517
 20
-167.6007947714679
 30
0.0
 10
102.1005723486068
 20
-167.168435288069
 30
0.0
 10
102.7382595229266
 20
-167.168435288069
 30
0.0
 10
103.1902560505913
 20
-167.168435288069
 30
0.0
 10
103.5065158161373
 20
-167.3320773236184
 30
0.0
 10
103.5619818534498
 20
-167.7637477879202
 30
0.0
 10
103.6357068968341
 20
-168.3259873711129
 30
0.0
 10
103.6374294445768
 20
-168.6284667547179
 30
0.0
 10
103.6374294445768
 20
-168.6284667547179
 30
0.0
  0
SPLINE
  5
AC
330
3C
100
AcDbEntity
  8
\U+30EC\U+30A4\U+30E4\U+30FC 1
 62
     7
370
     9
100
AcDbSpline
210
0.0
220
0.0
230
1.0
 70
     8
 71
     3
 72
     8
 73
     4
 74
     0
 42
0.0000000001
 43
0.0000000001
 40
0.0
 40
0.0
 40
0.0
 40
0.0
 40
1.0
 40
1.0
 40
1.0
 40
1.0
 10
94.06557614835862
 20
-167.5535969633199
 30
0.0
 10
94.06557614835862
 20
-167.5535969633199
 30
0.0
 10
96.03548174682447
 20
-167.0640488948659
 30
0.0
 10
97.64503035753319
 20
-167.1987521283392
 30
0.0
  0
SPLINE
  5
AD
330
3C
100
AcDbEntity
  8
\U+30EC\U+30A4\U+30E4\U+30FC 1
 62
     7
370
     9
100
AcDbSpline
210
0.0
220
0.0
230
1.0
 70
     8
 71
     3
 72
     8
 73
     4
 74
     0
 42
0.0000000001
 43
0.0000000001
 40
0.0
 40
0.0
 40
0.0
 40
0.0
 40
1.0
 40
1.0
 40
1.0
 40
1.0
 10
91.80352645274357
 20
-167.7778726794097
 30
0.0
 10
91.80352645274357
 20
-167.7778726794097
 30
0.0
 10
90.02826874919432
 20
-166.5269585087155
 30
0.0
 10
89.42503252972708
 20
-169.0839083778679
 30
0.0
  0
SPLINE
  5
AE
330
3C
100
AcDbEntity
  8
\U+30EC\U+30A4\U+30E4\U+30FC 1
 62
     7
370
     9
100
AcDbSpline
210
0.0
220
0.0
230
1.0
 70
     8
 71
     3
 72
     8
 73
     4
 74
     0
 42
0.0000000001
 43
0.0000000001
 40
0.0
 40
0.0
 40
0.0
 40
0.0
 40
1.0
 40
1.0
 40
1.0
 40
1.0
 10
89.09981551591949
 20
-169.4814723968657
 30
0.0
 10
89.09981551591949
 20
-169.4814723968657
 30
0.0
 10
89.38024628841883
 20
-167.5425726577672
 30
0.0
 10
90.78653426549782
 20
-167.4750487862563
 30
0.0
  0
SPLINE
  5
AF
330
3C
100
AcDbEntity
  8
\U+30EC\U+30A4\U+30E4\U+30FC 1
 62
     7
370
     9
100
AcDbSpline
210
0.0
220
0.0
230
1.0
 70
     8
 71
     3
 72
     8
 73
     4
 74
     0
 42
0.0000000001
 43
0.0000000001
 40
0.0
 40
0.0
 40
0.0
 40
0.0
 40
1.0
 40
1.0
 40
1.0
 40
1.0
 10
88.21787107169554
 20
-170.559787283749
 30
0.0
 10
88.21787107169554
 20
-170.559787283749
 30
0.0
 10
86.1032714628492
 20
-169.7591470929769
 30
0.0
 10
85.48556584234389
 20
-173.9029079426354
 30
0.0
  0
SPLINE
  5
B0
330
3C
100
AcDbEntity
  8
\U+30EC\U+30A4\U+30E4\U+30FC 1
 62
     7
370
     9
100
AcDbSpline
210
0.0
220
0.0
230
1.0
 70
     8
 71
     3
 72
     8
 73
     4
 74
     0
 42
0.0000000001
 43
0.0000000001
 40
0.0
 40
0.0
 40
0.0
 40
0.0
 40
1.0
 40
1.0
 40
1.0
 40
1.0
 10
85.19721135022849
 20
-174.256374739422
 30
0.0
 10
85.19721135022849
 20
-174.256374739422
 30
0.0
 10
85.28127168006857
 20
-170.740310287176
 30
0.0
 10
87.71626516904315
 20
-170.4977755650145
 30
0.0
  0
SPLINE
  5
B1
330
3C
100
AcDbEntity
  8
\U+30EC\U+30A4\U+30E4\U+30FC 1
 62
     7
370
     9
100
AcDbSpline
210
0.0
220
0.0
230
1.0
 70
     8
 71
     3
 72
     8
 73
     4
 74
     0
 42
0.0000000001
 43
0.0000000001
 40
0.0
 40
0.0
 40
0.0
 40
0.0
 40
1.0
 40
1.0
 40
1.0
 40
1.0
 10
85.33157007415322
 20
-173.2276692275264
 30
0.0
 10
85.33157007415322
 20
-173.2276692275264
 30
0.0
 10
82.92964950183703
 20
-173.0113172310527
 30
0.0
 10
82.59788680660748
 20
-177.4396429677929
 30
0.0
  0
SPLINE
  5
B2
330
3C
100
AcDbEntity
  8
\U+30EC\U+30A4\U+30E4\U+30FC 1
 62
     7
370
     9
100
AcDbSpline
210
0.0
220
0.0
230
1.0
 70
     8
 71
     3
 72
     8
 73
     4
 74
     0
 42
0.0000000001
 43
0.0000000001
 40
0.0
 40
0.0
 40
0.0
 40
0.0
 40
1.0
 40
1.0
 40
1.0
 40
1.0
 10
82.25716686311627
 20
-177.8564995215081
 30
0.0
 10
82.25716686311627
 20
-177.8564995215081
 30
0.0
 10
82.4797200314634
 20
-173.7761284287782
 30
0.0
 10
84.84512259163594
 20
-173.2889919271639
 30
0.0
  0
SPLINE
  5
B3
330
3C
100
AcDbEntity
  8
\U+30EC\U+30A4\U+30E4\U+30FC 1
 62
     7
370
     9
100
AcDbSpline
210
0.0
220
0.0
230
1.0
 70
     8
 71
     3
 72
     8
 73
     4
 74
     0
 42
0.0000000001
 43
0.0000000001
 40
0.0
 40
0.0
 40
0.0
 40
0.0
 40
1.0
 40
1.0
 40
1.0
 40
1.0
 10
82.51348196721885
 20
-176.2824353942975
 30
0.0
 10
82.51348196721885
 20
-176.2824353942975
 30
0.0
 10
80.44676918561748
 20
-176.5873263447421
 30
0.0
 10
80.04472654248882
 20
-180.5671006493027
 30
0.0
  0
SPLINE
  5
B4
330
3C
100
AcDbEntity
  8
\U+30EC\U+30A4\U+30E4\U+30FC 1
 62
     7
370
     9
100
AcDbSpline
210
0.0
220
0.0
230
1.0
 70
     8
 71
     3
 72
     8
 73
     4
 74
     0
 42
0.0000000001
 43
0.0000000001
 40
0.0
 40
0.0
 40
0.0
 40
0.0
 40
1.0
 40
1.0
 40
1.0
 40
1.0
 10
79.69504935073596
 20
-180.9956705276678
 30
0.0
 10
79.69504935073596
 20
-180.9956705276678
 30
0.0
 10
79.83836532292236
 20
-177.5705565962324
 30
0.0
 10
82.08835718433903
 20
-176.4388427293278
 30
0.0
  0
SPLINE
  5
B5
330
3C
100
AcDbEntity
  8
\U+30EC\U+30A4\U+30E4\U+30FC 1
 62
     7
370
     9
100
AcDbSpline
210
0.0
220
0.0
230
1.0
 70
     8
 71
     3
 72
     8
 73
     4
 74
     0
 42
0.0000000001
 43
0.0000000001
 40
0.0
 40
0.0
 40
0.0
 40
0.0
 40
1.0
 40
1.0
 40
1.0
 40
1.0
 10
79.85455727170303
 20
-179.8725693994763
 30
0.0
 10
79.85455727170303
 20
-179.8725693994763
 30
0.0
 10
77.57803817504994
 20
-180.516802255218
 30
0.0
 10
77.29037270203158
 20
-183.9457057916872
 30
0.0
  0
SPLINE
  5
B6
330
3C
100
AcDbEntity
  8
\U+30EC\U+30A4\U+30E4\U+30FC 1
 62
     7
370
     9
100
AcDbSpline
210
0.0
220
0.0
230
1.0
 70
     8
 71
     3
 72
     8
 73
     4
 74
     0
 42
0.0000000001
 43
0.0000000001
 40
0.0
 40
0.0
 40
0.0
 40
0.0
 40
1.0
 40
1.0
 40
1.0
 40
1.0
 10
76.54554305812056
 20
-184.8593451143755
 30
0.0
 10
76.54554305812056
 20
-184.8593451143755
 30
0.0
 10
75.03417966874146
 20
-185.5611110647208
 30
0.0
 10
74.172905797429
 20
-187.7790635381247
 30
0.0
  0
POLYLINE
  5
B7
330
3C
100
AcDbEntity
  8
\U+30EC\U+30A4\U+30E4\U+30FC 1
 62
     7
370
     9
100
AcDb2dPolyline
 66
     1
 10
0.0
 20
0.0
 30
0.0
  0
VERTEX
  5
B8
330
B7
100
AcDbEntity
  8
\U+30EC\U+30A4\U+30E4\U+30FC 1
 62
     7
370
     9
100
AcDbVertex
100
AcDb2dVertex
 10
103.61331377618
 20
-168.2247015638466
 30
0.0
  0
VERTEX
  5
B9
330
B7
100
AcDbEntity
  8
\U+30EC\U+30A4\U+30E4\U+30FC 1
 62
     7
370
     9
100
AcDbVertex
100
AcDb2dVertex
 10
104.3026773827785
 20
-168.2963595499398
 30
0.0
  0
VERTEX
  5
BA
330
B7
100
AcDbEntity
  8
\U+30EC\U+30A4\U+30E4\U+30FC 1
 62
     7
370
     9
100
AcDbVertex
100
AcDb2dVertex
 10
104.7777560501945
 20
-168.4114257391471
 30
0.0
  0
VERTEX
  5
BB
330
B7
100
AcDbEntity
  8
\U+30EC\U+30A4\U+30E4\U+30FC 1
 62
     7
370
     9
100
AcDbVertex
100
AcDb2dVertex
 10
104.8528591317729
 20
-168.6284667547179
 30
0.0
  0
SEQEND
  5
BC
330
B7
100
AcDbEntity
  8
\U+30EC\U+30A4\U+30E4\U+30FC 1
370
     9
  0
POLYLINE
  5
BD
330
3C
100
AcDbEntity
  8
\U+30EC\U+30A4\U+30E4\U+30FC 1
 62
     7
370
     9
100
AcDb2dPolyline
 66
     1
 10
0.0
 20
0.0
 30
0.0
  0
VERTEX
  5
BE
330
BD
100
AcDbEntity
  8
\U+30EC\U+30A4\U+30E4\U+30FC 1
 62
     7
370
     9
100
AcDbVertex
100
AcDb2dVertex
 10
104.3026773827785
 20
-168.2963595499398
 30
0.0
  0
VERTEX
  5
BF
330
BD
100
AcDbEntity
  8
\U+30EC\U+30A4\U+30E4\U+30FC 1
 62
     7
370
     9
100
AcDbVertex
100
AcDb2dVertex
 10
104.3677896874497
 20
-168.6284667547179
 30
0.0
  0
SEQEND
  5
C0
330
BD
100
AcDbEntity
  8
\U+30EC\U+30A4\U+30E4\U+30FC 1
370
     9
  0
SPLINE
  5
C1
330
3C
100
AcDbEntity
  8
\U+30EC\U+30A4\U+30E4\U+30FC 1
 62
     7
370
     9
100
AcDbSpline
210
0.0
220
0.0
230
1.0
 70
     8
 71
     3
 72
    14
 73
    10
 74
     0
 42
0.0000000001
 43
0.0000000001
 40
0.0
 40
0.0
 40
0.0
 40
0.0
 40
1.0
 40
1.0
 40
1.0
 40
2.0
 40
2.0
 40
2.0
 40
3.0
 40
3.0
 40
3.0
 40
3.0
 10
104.233430963525
 20
-168.2894693589693
 30
0.0
 10
104.233430963525
 20
-168.2894693589693
 30
0.0
 10
104.6943847394514
 20
-166.5186902795509
 30
0.0
 10
104.6943847394514
 20
-166.5186902795509
 30
0.0
 10
104.6943847394514
 20
-166.5186902795509
 30
0.0
 10
104.894889296693
 20
-165.996413803987
 30
0.0
 10
104.9252061369632
 20
-166.8542425798142
 30
0.0
 10
104.9555229772333
 20
-167.7117268460929
 30
0.0
 10
105.0292480206177
 20
-168.6284667547179
 30
0.0
 10
105.0292480206177
 20
-168.6284667547179
 30
0.0
  0
SPLINE
  5
C2
330
3C
100
AcDbEntity
  8
\U+30EC\U+30A4\U+30E4\U+30FC 1
 62
     7
370
     9
100
AcDbSpline
210
0.0
220
0.0
230
1.0
 70
     8
 71
     3
 72
    14
 73
    10
 74
     0
 42
0.0000000001
 43
0.0000000001
 40
0.0
 40
0.0
 40
0.0
 40
0.0
 40
1.0
 40
1.0
 40
1.0
 40
2.0
 40
2.0
 40
2.0
 40
3.0
 40
3.0
 40
3.0
 40
3.0
 10
105.3561875821679
 20
-168.0993000881835
 30
0.0
 10
105.3561875821679
 20
-168.0993000881835
 30
0.0
 10
105.15017087215
 20
-166.5717447500237
 30
0.0
 10
105.15017087215
 20
-166.5717447500237
 30
0.0
 10
105.15017087215
 20
-166.5717447500237
 30
0.0
 10
105.1270887323988
 20
-166.2761555573893
 30
0.0
 10
104.9713704164655
 20
-166.3188747414064
 30
0.0
 10
104.8821424433975
 20
-166.3436794289002
 30
0.0
 10
104.799115642203
 20
-166.3643500018117
 30
0.0
 10
104.799115642203
 20
-166.3643500018117
 30
0.0
  0
SPLINE
  5
C3
330
3C
100
AcDbEntity
  8
\U+30EC\U+30A4\U+30E4\U+30FC 1
 62
     7
370
     9
100
AcDbSpline
210
0.0
220
0.0
230
1.0
 70
     8
 71
     3
 72
    20
 73
    16
 74
     0
 42
0.0000000001
 43
0.0000000001
 40
0.0
 40
0.0
 40
0.0
 40
0.0
 40
1.0
 40
1.0
 40
1.0
 40
2.0
 40
2.0
 40
2.0
 40
3.0
 40
3.0
 40
3.0
 40
4.0
 40
4.0
 40
4.0
 40
5.0
 40
5.0
 40
5.0
 40
5.0
 10
97.86344941129803
 20
-158.2401258284955
 30
0.0
 10
97.86344941129803
 20
-158.2401258284955
 30
0.0
 10
97.78145613874908
 20
-158.0706271306212
 30
0.0
 10
97.70428599987949
 20
-158.0265299084101
 30
0.0
 10
97.6271158610099
 20
-157.9831217052959
 30
0.0
 10
97.24402124305011
 20
-157.8074218355482
 30
0.0
 10
96.94843205041568
 20
-158.4213378510197
 30
0.0
 10
96.65284285778124
 20
-159.0349093569427
 30
0.0
 10
95.89078773644397
 20
-160.8811360274881
 30
0.0
 10
95.89078773644397
 20
-160.8811360274881
 30
0.0
 10
95.89078773644397
 20
-160.8811360274881
 30
0.0
 10
95.60897892575053
 20
-161.5171006540652
 30
0.0
 10
96.12505422944096
 20
-161.7909857451425
 30
0.0
 10
96.12505422944096
 20
-161.7909857451425
 30
0.0
 10
96.14779185964362
 20
-161.8419731583242
 30
0.0
 10
96.3668999325055
 20
-161.8640217694298
 30
0.0
  0
SPLINE
  5
C4
330
3C
100
AcDbEntity
  8
\U+30EC\U+30A4\U+30E4\U+30FC 1
 62
     7
370
     9
100
AcDbSpline
210
0.0
220
0.0
230
1.0
 70
     8
 71
     3
 72
    20
 73
    16
 74
     0
 42
0.0000000001
 43
0.0000000001
 40
0.0
 40
0.0
 40
0.0
 40
0.0
 40
1.0
 40
1.0
 40
1.0
 40
2.0
 40
2.0
 40
2.0
 40
3.0
 40
3.0
 40
3.0
 40
4.0
 40
4.0
 40
4.0
 40
5.0
 40
5.0
 40
5.0
 40
5.0
 10
97.26021319183079
 20
-158.4154811886947
 30
0.0
 10
97.26021319183079
 20
-158.4154811886947
 30
0.0
 10
97.22197263194451
 20
-158.481282512463
 30
0.0
 10
97.4576171631356
 20
-158.5581081417841
 30
0.0
 10
97.6932616943267
 20
-158.6349337711052
 30
0.0
 10
98.23069659002566
 20
-158.5470838362313
 30
0.0
 10
98.5152614771073
 20
-157.9004394136499
 30
0.0
 10
98.79982636418893
 20
-157.254139500617
 30
0.0
 10
99.44681529631886
 20
-155.6873100739254
 30
0.0
 10
99.44681529631886
 20
-155.6873100739254
 30
0.0
 10
99.44681529631886
 20
-155.6873100739254
 30
0.0
 10
99.72104489694475
 20
-155.1664116365556
 30
0.0
 10
99.14571395090802
 20
-154.8653102911448
 30
0.0
 10
99.14571395090802
 20
-154.8653102911448
 30
0.0
 10
99.03581540492856
 20
-154.8432616800392
 30
0.0
 10
98.95898977560748
 20
-154.8653102911448
 30
0.0
  0
SPLINE
  5
C5
330
3C
100
AcDbEntity
  8
\U+30EC\U+30A4\U+30E4\U+30FC 1
 62
     7
370
     9
100
AcDbSpline
210
0.0
220
0.0
230
1.0
 70
     8
 71
     3
 72
    56
 73
    52
 74
     0
 42
0.0000000001
 43
0.0000000001
 40
0.0
 40
0.0
 40
0.0
 40
0.0
 40
1.0
 40
1.0
 40
1.0
 40
2.0
 40
2.0
 40
2.0
 40
3.0
 40
3.0
 40
3.0
 40
4.0
 40
4.0
 40
4.0
 40
5.0
 40
5.0
 40
5.0
 40
6.0
 40
6.0
 40
6.0
 40
7.0
 40
7.0
 40
7.0
 40
8.0
 40
8.0
 40
8.0
 40
9.0
 40
9.0
 40
9.0
 40
10.0
 40
10.0
 40
10.0
 40
11.0
 40
11.0
 40
11.0
 40
12.0
 40
12.0
 40
12.0
 40
13.0
 40
13.0
 40
13.0
 40
14.0
 40
14.0
 40
14.0
 40
15.0
 40
15.0
 40
15.0
 40
16.0
 40
16.0
 40
16.0
 40
17.0
 40
17.0
 40
17.0
 40
17.0
 10
93.28560653049804
 20
-167.5535969633199
 30
0.0
 10
93.23082951228257
 20
-167.4161376534585
 30
0.0
 10
93.36691078394995
 20
-167.168435288069
 30
0.0
 10
93.36691078394995
 20
-167.168435288069
 30
0.0
 10
93.36691078394995
 20
-167.168435288069
 30
0.0
 10
94.05041772822351
 20
-165.5647433396852
 30
0.0
 10
94.28227265438082
 20
-165.099999958725
 30
0.0
 10
94.51481659963518
 20
-164.6349120682163
 30
0.0
 10
94.74012584437052
 20
-164.762036091622
 30
0.0
 10
94.74012584437052
 20
-164.762036091622
 30
0.0
 10
95.12735457691261
 20
-164.8884710959307
 30
0.0
 10
95.40881887805752
 20
-164.2831678191723
 30
0.0
 10
95.40881887805752
 20
-164.2831678191723
 30
0.0
 10
95.40881887805752
 20
-164.2831678191723
 30
0.0
 10
96.00034177287492
 20
-162.8613769124097
 30
0.0
 10
96.2607909915598
 20
-162.2557291261028
 30
0.0
 10
96.5212402102447
 20
-161.6500813397958
 30
0.0
 10
96.22978513219256
 20
-161.4847167565038
 30
0.0
 10
96.22978513219256
 20
-161.4847167565038
 30
0.0
 10
96.03341468953332
 20
-161.3730956627817
 30
0.0
 10
96.17363007578298
 20
-160.8422064485047
 30
0.0
 10
96.17363007578298
 20
-160.8422064485047
 30
0.0
 10
96.17363007578298
 20
-160.8422064485047
 30
0.0
 10
96.73208005394198
 20
-159.5144666484894
 30
0.0
 10
97.01251082644131
 20
-158.8299261755703
 30
0.0
 10
97.29121905119803
 20
-158.1453857026512
 30
0.0
 10
97.57096080460032
 20
-158.3269422347238
 30
0.0
 10
97.57096080460032
 20
-158.3269422347238
 30
0.0
 10
97.84312334793506
 20
-158.4023898258508
 30
0.0
 10
98.11528589126979
 20
-158.080962417077
 30
0.0
 10
98.22518443724927
 20
-157.8783908025443
 30
0.0
 10
98.3347384736802
 20
-157.6758191880116
 30
0.0
 10
98.95898977560748
 20
-156.2736653255149
 30
0.0
 10
99.16156139014016
 20
-155.7472547353688
 30
0.0
 10
99.3648220237699
 20
-155.2211886547711
 30
0.0
 10
99.03581540492856
 20
-155.075461115745
 30
0.0
 10
99.03581540492856
 20
-155.075461115745
 30
0.0
 10
99.03581540492856
 20
-155.075461115745
 30
0.0
 10
98.80189342148009
 20
-154.9018283032884
 30
0.0
 10
99.05476343009742
 20
-154.3292534336399
 30
0.0
 10
99.30797794826329
 20
-153.7566785639914
 30
0.0
 10
99.94773217987418
 20
-152.2973361164396
 30
0.0
 10
99.94773217987418
 20
-152.2973361164396
 30
0.0
 10
99.94773217987418
 20
-152.2973361164396
 30
0.0
 10
100.1337673360777
 20
-151.8580864420702
 30
0.0
 10
100.3470187466146
 20
-151.9645398925644
 30
0.0
 10
100.3470187466146
 20
-151.9645398925644
 30
0.0
 10
100.7273572881862
 20
-152.0448106173708
 30
0.0
 10
100.9599012334406
 20
-151.544927262461
 30
0.0
 10
101.1934787073405
 20
-151.0453884170998
 30
0.0
 10
101.8129068755884
 20
-149.7200601839241
 30
0.0
 10
101.8129068755884
 20
-149.7200601839241
 30
0.0
  0
SPLINE
  5
C6
330
3C
100
AcDbEntity
  8
\U+30EC\U+30A4\U+30E4\U+30FC 1
 62
     7
370
     9
100
AcDbSpline
210
0.0
220
0.0
230
1.0
 70
     8
 71
     3
 72
    14
 73
    10
 74
     0
 42
0.0000000001
 43
0.0000000001
 40
0.0
 40
0.0
 40
0.0
 40
0.0
 40
1.0
 40
1.0
 40
1.0
 40
2.0
 40
2.0
 40
2.0
 40
3.0
 40
3.0
 40
3.0
 40
3.0
 10
98.78397892495678
 20
-155.2322129603239
 30
0.0
 10
98.78397892495678
 20
-155.2322129603239
 30
0.0
 10
98.61379120798544
 20
-155.2652858769823
 30
0.0
 10
98.44394800056263
 20
-155.5777560374945
 30
0.0
 10
98.27410479313981
 20
-155.8898816884581
 30
0.0
 10
97.4962022325704
 20
-157.6647948824588
 30
0.0
 10
97.4962022325704
 20
-157.6647948824588
 30
0.0
 10
97.4962022325704
 20
-157.6647948824588
 30
0.0
 10
97.41972111279784
 20
-157.9073296046204
 30
0.0
 10
97.46381833500905
 20
-157.9700303424519
 30
0.0
  0
SPLINE
  5
C7
330
3C
100
AcDbEntity
  8
\U+30EC\U+30A4\U+30E4\U+30FC 1
 62
     7
370
     9
100
AcDbSpline
210
0.0
220
0.0
230
1.0
 70
     8
 71
     3
 72
    14
 73
    10
 74
     0
 42
0.0000000001
 43
0.0000000001
 40
0.0
 40
0.0
 40
0.0
 40
0.0
 40
1.0
 40
1.0
 40
1.0
 40
2.0
 40
2.0
 40
2.0
 40
3.0
 40
3.0
 40
3.0
 40
3.0
 10
98.64135197186745
 20
-154.9528157164701
 30
0.0
 10
98.64135197186745
 20
-154.9528157164701
 30
0.0
 10
98.37263452401795
 20
-155.0237846834663
 30
0.0
 10
98.19211152059087
 20
-155.4351290844051
 30
0.0
 10
98.01158851716377
 20
-155.8457844662469
 30
0.0
 10
97.18958873438316
 20
-157.7416205117799
 30
0.0
 10
97.18958873438316
 20
-157.7416205117799
 30
0.0
 10
97.18958873438316
 20
-157.7416205117799
 30
0.0
 10
97.08761390801976
 20
-158.0182616792455
 30
0.0
 10
97.14962562675426
 20
-158.1240261106426
 30
0.0
  0
SPLINE
  5
C8
330
3C
100
AcDbEntity
  8
\U+30EC\U+30A4\U+30E4\U+30FC 1
 62
     7
370
     9
100
AcDbSpline
210
0.0
220
0.0
230
1.0
 70
     8
 71
     3
 72
    14
 73
    10
 74
     0
 42
0.0000000001
 43
0.0000000001
 40
0.0
 40
0.0
 40
0.0
 40
0.0
 40
1.0
 40
1.0
 40
1.0
 40
2.0
 40
2.0
 40
2.0
 40
3.0
 40
3.0
 40
3.0
 40
3.0
 10
97.67603621690044
 20
-158.5787787146956
 30
0.0
 10
97.67603621690044
 20
-158.5787787146956
 30
0.0
 10
97.77456594777858
 20
-158.6866102033839
 30
0.0
 10
97.60575626900135
 20
-159.1723686668041
 30
0.0
 10
97.43660208067557
 20
-159.6581271302244
 30
0.0
 10
96.69694007999243
 20
-161.2418375247937
 30
0.0
 10
96.69694007999243
 20
-161.2418375247937
 30
0.0
 10
96.69694007999243
 20
-161.2418375247937
 30
0.0
 10
96.66180010604289
 20
-161.3262423641823
 30
0.0
 10
96.58394094807625
 20
-161.4109917131195
 30
0.0
  0
SPLINE
  5
C9
330
3C
100
AcDbEntity
  8
\U+30EC\U+30A4\U+30E4\U+30FC 1
 62
     7
370
     9
100
AcDbSpline
210
0.0
220
0.0
230
1.0
 70
     8
 71
     3
 72
    14
 73
    10
 74
     0
 42
0.0000000001
 43
0.0000000001
 40
0.0
 40
0.0
 40
0.0
 40
0.0
 40
1.0
 40
1.0
 40
1.0
 40
2.0
 40
2.0
 40
2.0
 40
3.0
 40
3.0
 40
3.0
 40
3.0
 10
97.95887855623945
 20
-158.5047091617627
 30
0.0
 10
97.95887855623945
 20
-158.5047091617627
 30
0.0
 10
98.08393552235403
 20
-158.6301106374258
 30
0.0
 10
97.91478133402825
 20
-159.115869100846
 30
0.0
 10
97.74562714570249
 20
-159.6016275642663
 30
0.0
 10
96.98563908165637
 20
-161.3476019561909
 30
0.0
 10
96.95049910770682
 20
-161.4109917131195
 30
0.0
 10
96.91535913375728
 20
-161.4743814700481
 30
0.0
 10
96.88710935077823
 20
-161.5729112009262
 30
0.0
 10
96.69694007999243
 20
-161.7065809057539
 30
0.0
  0
SPLINE
  5
CA
330
3C
100
AcDbEntity
  8
\U+30EC\U+30A4\U+30E4\U+30FC 1
 62
     7
370
     9
100
AcDbSpline
210
0.0
220
0.0
230
1.0
 70
     8
 71
     3
 72
    20
 73
    16
 74
     0
 42
0.0000000001
 43
0.0000000001
 40
0.0
 40
0.0
 40
0.0
 40
0.0
 40
1.0
 40
1.0
 40
1.0
 40
2.0
 40
2.0
 40
2.0
 40
3.0
 40
3.0
 40
3.0
 40
4.0
 40
4.0
 40
4.0
 40
5.0
 40
5.0
 40
5.0
 40
5.0
 10
96.12918834402326
 20
-161.2787000464859
 30
0.0
 10
96.12918834402326
 20
-161.2787000464859
 30
0.0
 10
96.27491588304933
 20
-161.1791367869622
 30
0.0
 10
96.4440700713751
 20
-161.2787000464859
 30
0.0
 10
96.61287975015235
 20
-161.3786078155581
 30
0.0
 10
96.76722002789154
 20
-161.734830688733
 30
0.0
 10
96.58394094807625
 20
-162.1992295601447
 30
0.0
 10
96.40203990645504
 20
-162.6643174506534
 30
0.0
 10
95.64825301428239
 20
-164.4592121984685
 30
0.0
 10
95.64825301428239
 20
-164.4592121984685
 30
0.0
 10
95.64825301428239
 20
-164.4592121984685
 30
0.0
 10
95.20486922533073
 20
-165.3532144768909
 30
0.0
 10
94.62058103103236
 20
-165.0297200108259
 30
0.0
 10
94.62058103103236
 20
-165.0297200108259
 30
0.0
 10
94.4514268427066
 20
-164.9518608528593
 30
0.0
 10
94.4307562697951
 20
-164.8957057964497
 30
0.0
  0
SPLINE
  5
CB
330
3C
100
AcDbEntity
  8
\U+30EC\U+30A4\U+30E4\U+30FC 1
 62
     7
370
     9
100
AcDbSpline
210
0.0
220
0.0
230
1.0
 70
     8
 71
     3
 72
    14
 73
    10
 74
     0
 42
0.0000000001
 43
0.0000000001
 40
0.0
 40
0.0
 40
0.0
 40
0.0
 40
1.0
 40
1.0
 40
1.0
 40
2.0
 40
2.0
 40
2.0
 40
3.0
 40
3.0
 40
3.0
 40
3.0
 10
95.95004337879027
 20
-161.6542154543781
 30
0.0
 10
95.95004337879027
 20
-161.6542154543781
 30
0.0
 10
95.75160587883988
 20
-161.7913302546911
 30
0.0
 10
95.54868975475867
 20
-162.2205891521532
 30
0.0
 10
95.34577363067746
 20
-162.6498480496153
 30
0.0
 10
94.74012584437052
 20
-164.1353732228551
 30
0.0
 10
94.74012584437052
 20
-164.1353732228551
 30
0.0
 10
94.74012584437052
 20
-164.1353732228551
 30
0.0
 10
94.65537649543339
 20
-164.3537922766199
 30
0.0
 10
94.67019040601996
 20
-164.4592121984685
 30
0.0
  0
SPLINE
  5
CC
330
3C
100
AcDbEntity
  8
\U+30EC\U+30A4\U+30E4\U+30FC 1
 62
     7
370
     9
100
AcDbSpline
210
0.0
220
0.0
230
1.0
 70
     8
 71
     3
 72
    14
 73
    10
 74
     0
 42
0.0000000001
 43
0.0000000001
 40
0.0
 40
0.0
 40
0.0
 40
0.0
 40
1.0
 40
1.0
 40
1.0
 40
2.0
 40
2.0
 40
2.0
 40
3.0
 40
3.0
 40
3.0
 40
3.0
 10
95.81361759757438
 20
-161.4109917131195
 30
0.0
 10
95.81361759757438
 20
-161.4109917131195
 30
0.0
 10
95.62758244137089
 20
-161.425116604609
 30
0.0
 10
95.34577363067746
 20
-162.0235296903969
 30
0.0
 10
95.06396481998401
 20
-162.6219427761848
 30
0.0
 10
94.4307562697951
 20
-164.0864528669645
 30
0.0
 10
94.4307562697951
 20
-164.0864528669645
 30
0.0
 10
94.4307562697951
 20
-164.0864528669645
 30
0.0
 10
94.32533634794645
 20
-164.3606824675904
 30
0.0
 10
94.3384277107904
 20
-164.5791015213552
 30
0.0
  0
SPLINE
  5
CD
330
3C
100
AcDbEntity
  8
\U+30EC\U+30A4\U+30E4\U+30FC 1
 62
     7
370
     9
100
AcDbSpline
210
0.0
220
0.0
230
1.0
 70
     8
 71
     3
 72
    17
 73
    13
 74
     0
 42
0.0000000001
 43
0.0000000001
 40
0.0
 40
0.0
 40
0.0
 40
0.0
 40
1.0
 40
1.0
 40
1.0
 40
2.0
 40
2.0
 40
2.0
 40
3.0
 40
3.0
 40
3.0
 40
4.0
 40
4.0
 40
4.0
 40
4.0
 10
95.05156247623711
 20
-164.7162163216682
 30
0.0
 10
95.05156247623711
 20
-164.7162163216682
 30
0.0
 10
95.00815427312297
 20
-164.5722113303847
 30
0.0
 10
94.88757593113922
 20
-164.5088215734561
 30
0.0
 10
94.76837562734957
 20
-164.4454318165275
 30
0.0
 10
94.2543673809503
 20
-164.4309624154895
 30
0.0
 10
94.01527775427397
 20
-164.9945800368764
 30
0.0
 10
93.77549910850057
 20
-165.5575086391662
 30
0.0
 10
93.07132159131551
 20
-167.1277831613431
 30
0.0
 10
93.07132159131551
 20
-167.1277831613431
 30
0.0
 10
93.07132159131551
 20
-167.1277831613431
 30
0.0
 10
92.95281030662291
 20
-167.4078694242939
 30
0.0
 10
92.98037107050492
 20
-167.5742675362314
 30
0.0
  0
SPLINE
  5
CE
330
3C
100
AcDbEntity
  8
\U+30EC\U+30A4\U+30E4\U+30FC 1
 62
     7
370
     9
100
AcDbSpline
210
0.0
220
0.0
230
1.0
 70
     8
 71
     3
 72
    14
 73
    10
 74
     0
 42
0.0000000001
 43
0.0000000001
 40
0.0
 40
0.0
 40
0.0
 40
0.0
 40
1.0
 40
1.0
 40
1.0
 40
2.0
 40
2.0
 40
2.0
 40
3.0
 40
3.0
 40
3.0
 40
3.0
 10
94.87379554919822
 20
-165.099999958725
 30
0.0
 10
94.87379554919822
 20
-165.099999958725
 30
0.0
 10
94.93718530612682
 20
-165.2481390645908
 30
0.0
 10
94.81040579226962
 20
-165.6208983960948
 30
0.0
 10
94.68362627841243
 20
-165.9943467466959
 30
0.0
 10
94.06557614835862
 20
-167.3641167116312
 30
0.0
 10
94.06557614835862
 20
-167.3641167116312
 30
0.0
 10
94.06557614835862
 20
-167.3641167116312
 30
0.0
 10
94.04283851815596
 20
-167.4371527359185
 30
0.0
 10
93.90916881332826
 20
-167.5535969633199
 30
0.0
  0
SPLINE
  5
CF
330
3C
100
AcDbEntity
  8
\U+30EC\U+30A4\U+30E4\U+30FC 1
 62
     7
370
     9
100
AcDbSpline
210
0.0
220
0.0
230
1.0
 70
     8
 71
     3
 72
    14
 73
    10
 74
     0
 42
0.0000000001
 43
0.0000000001
 40
0.0
 40
0.0
 40
0.0
 40
0.0
 40
1.0
 40
1.0
 40
1.0
 40
2.0
 40
2.0
 40
2.0
 40
3.0
 40
3.0
 40
3.0
 40
3.0
 10
95.15732690763429
 20
-165.0186957052731
 30
0.0
 10
95.15732690763429
 20
-165.0186957052731
 30
0.0
 10
95.2858289692341
 20
-165.1213595507336
 30
0.0
 10
95.05156247623711
 20
-165.733897528011
 30
0.0
 10
94.81798500233718
 20
-166.3464355052884
 30
0.0
 10
94.39975041042784
 20
-167.3641167116312
 30
0.0
 10
94.39975041042784
 20
-167.3641167116312
 30
0.0
 10
94.39975041042784
 20
-167.3641167116312
 30
0.0
 10
94.31534557103922
 20
-167.4970973973618
 30
0.0
 10
94.28675127851164
 20
-167.5032985692353
 30
0.0
  0
SPLINE
  5
D0
330
3C
100
AcDbEntity
  8
\U+30EC\U+30A4\U+30E4\U+30FC 1
 62
     7
370
     9
100
AcDbSpline
210
0.0
220
0.0
230
1.0
 70
     8
 71
     3
 72
    20
 73
    16
 74
     0
 42
0.0000000001
 43
0.0000000001
 40
0.0
 40
0.0
 40
0.0
 40
0.0
 40
1.0
 40
1.0
 40
1.0
 40
2.0
 40
2.0
 40
2.0
 40
3.0
 40
3.0
 40
3.0
 40
4.0
 40
4.0
 40
4.0
 40
5.0
 40
5.0
 40
5.0
 40
5.0
 10
100.6401963724094
 20
-151.9045952311211
 30
0.0
 10
100.6401963724094
 20
-151.9045952311211
 30
0.0
 10
100.6271050095655
 20
-151.7512884820275
 30
0.0
 10
100.4803439418938
 20
-151.6847981391622
 30
0.0
 10
100.3342718933192
 20
-151.6179632867483
 30
0.0
 10
99.94773217987418
 20
-151.558018625305
 30
0.0
 10
99.68108178931584
 20
-152.12439232308
 30
0.0
 10
99.41443139875751
 20
-152.6907660208551
 30
0.0
 10
98.64135197186745
 20
-154.5356146532064
 30
0.0
 10
98.64135197186745
 20
-154.5356146532064
 30
0.0
 10
98.64135197186745
 20
-154.5356146532064
 30
0.0
 10
98.46909719760495
 20
-154.9862331426771
 30
0.0
 10
98.92798391624024
 20
-155.4082573396202
 30
0.0
 10
98.92798391624024
 20
-155.4082573396202
 30
0.0
 10
99.05683048738858
 20
-155.5136772614688
 30
0.0
 10
99.22564016616582
 20
-155.4812933639075
 30
0.0
  0
SPLINE
  5
D1
330
3C
100
AcDbEntity
  8
\U+30EC\U+30A4\U+30E4\U+30FC 1
 62
     7
370
     9
100
AcDbSpline
210
0.0
220
0.0
230
1.0
 70
     8
 71
     3
 72
    14
 73
    10
 74
     0
 42
0.0000000001
 43
0.0000000001
 40
0.0
 40
0.0
 40
0.0
 40
0.0
 40
1.0
 40
1.0
 40
1.0
 40
2.0
 40
2.0
 40
2.0
 40
3.0
 40
3.0
 40
3.0
 40
3.0
 10
100.4086859558006
 20
-152.2601290851989
 30
0.0
 10
100.4086859558006
 20
-152.2601290851989
 30
0.0
 10
100.4334906432944
 20
-152.5440049531834
 30
0.0
 10
100.2543456780614
 20
-152.943980539021
 30
0.0
 10
100.0738226746343
 20
-153.3432671057614
 30
0.0
 10
99.44130314354246
 20
-154.7819389804017
 30
0.0
 10
99.44130314354246
 20
-154.7819389804017
 30
0.0
 10
99.44130314354246
 20
-154.7819389804017
 30
0.0
 10
99.34897458453776
 20
-154.9479925827908
 30
0.0
 10
99.25836857327569
 20
-154.9349012199468
 30
0.0
  0
SPLINE
  5
D2
330
3C
100
AcDbEntity
  8
\U+30EC\U+30A4\U+30E4\U+30FC 1
 62
     7
370
     9
100
AcDbSpline
210
0.0
220
0.0
230
1.0
 70
     8
 71
     3
 72
    14
 73
    10
 74
     0
 42
0.0000000001
 43
0.0000000001
 40
0.0
 40
0.0
 40
0.0
 40
0.0
 40
1.0
 40
1.0
 40
1.0
 40
2.0
 40
2.0
 40
2.0
 40
3.0
 40
3.0
 40
3.0
 40
3.0
 10
100.6870496710088
 20
-152.1908826659453
 30
0.0
 10
100.6870496710088
 20
-152.1908826659453
 30
0.0
 10
100.7735215676886
 20
-152.3038817978615
 30
0.0
 10
100.5141058776493
 20
-152.9966904999453
 30
0.0
 10
100.2543456780614
 20
-153.6898437115775
 30
0.0
 10
99.68797198028635
 20
-154.9355902390439
 30
0.0
 10
99.68797198028635
 20
-154.9355902390439
 30
0.0
 10
99.68797198028635
 20
-154.9355902390439
 30
0.0
 10
99.5839300966318
 20
-155.150908706872
 30
0.0
 10
99.46610783103625
 20
-155.1798475089481
 30
0.0
  0
SPLINE
  5
D3
330
3C
100
AcDbEntity
  8
\U+30EC\U+30A4\U+30E4\U+30FC 1
 62
     7
370
     9
100
AcDbSpline
210
0.0
220
0.0
230
1.0
 70
     8
 71
     3
 72
    14
 73
    10
 74
     0
 42
0.0000000001
 43
0.0000000001
 40
0.0
 40
0.0
 40
0.0
 40
0.0
 40
1.0
 40
1.0
 40
1.0
 40
2.0
 40
2.0
 40
2.0
 40
3.0
 40
3.0
 40
3.0
 40
3.0
 10
100.0338595670054
 20
-152.1395507432151
 30
0.0
 10
100.0338595670054
 20
-152.1395507432151
 30
0.0
 10
100.0738226746343
 20
-152.2311902831228
 30
0.0
 10
100.2943087856903
 20
-152.2577175183592
 30
0.0
 10
100.5141058776493
 20
-152.2845892631441
 30
0.0
 10
101.0660101743863
 20
-152.0982095973921
 30
0.0
 10
101.3326605649446
 20
-151.4918727919882
 30
0.0
 10
101.5989664459544
 20
-150.8858804961327
 30
0.0
 10
101.8129068755884
 20
-150.4128688860079
 30
0.0
 10
101.8129068755884
 20
-150.4128688860079
 30
0.0
  0
SPLINE
  5
D4
330
3C
100
AcDbEntity
  8
\U+30EC\U+30A4\U+30E4\U+30FC 1
 62
     7
370
     9
100
AcDbSpline
210
0.0
220
0.0
230
1.0
 70
     8
 71
     3
 72
    14
 73
    10
 74
     0
 42
0.0000000001
 43
0.0000000001
 40
0.0
 40
0.0
 40
0.0
 40
0.0
 40
1.0
 40
1.0
 40
1.0
 40
2.0
 40
2.0
 40
2.0
 40
3.0
 40
3.0
 40
3.0
 40
3.0
 10
101.3305935076535
 20
-149.0868516337353
 30
0.0
 10
101.3305935076535
 20
-149.0868516337353
 30
0.0
 10
101.2200059425769
 20
-149.1071776970982
 30
0.0
 10
101.0329372577279
 20
-149.5136989643577
 30
0.0
 10
100.8465575919759
 20
-149.9198757220686
 30
0.0
 10
100.2071478699135
 20
-151.365093278131
 30
0.0
 10
100.2071478699135
 20
-151.365093278131
 30
0.0
 10
100.2071478699135
 20
-151.365093278131
 30
0.0
 10
100.1137857822632
 20
-151.572488026343
 30
0.0
 10
100.2071478699135
 20
-151.648624636567
 30
0.0
  0
SPLINE
  5
D5
330
3C
100
AcDbEntity
  8
\U+30EC\U+30A4\U+30E4\U+30FC 1
 62
     7
370
     9
100
AcDbSpline
210
0.0
220
0.0
230
1.0
 70
     8
 71
     3
 72
    14
 73
    10
 74
     0
 42
0.0000000001
 43
0.0000000001
 40
0.0
 40
0.0
 40
0.0
 40
0.0
 40
1.0
 40
1.0
 40
1.0
 40
2.0
 40
2.0
 40
2.0
 40
3.0
 40
3.0
 40
3.0
 40
3.0
 10
101.3305935076535
 20
-148.7127142640371
 30
0.0
 10
101.3305935076535
 20
-148.7127142640371
 30
0.0
 10
101.1393907082221
 20
-148.7606010912821
 30
0.0
 10
100.8668836553388
 20
-149.2735758090358
 30
0.0
 10
100.5929985642615
 20
-149.7865505267895
 30
0.0
 10
99.87435164603836
 20
-151.3361544760548
 30
0.0
 10
99.87435164603836
 20
-151.3361544760548
 30
0.0
 10
99.87435164603836
 20
-151.3361544760548
 30
0.0
 10
99.71415470597424
 20
-151.7213161513058
 30
0.0
 10
99.83404402886094
 20
-151.876345448142
 30
0.0
  0
SPLINE
  5
D6
330
3C
100
AcDbEntity
  8
\U+30EC\U+30A4\U+30E4\U+30FC 1
 62
     7
370
     9
100
AcDbSpline
210
0.0
220
0.0
230
1.0
 70
     8
 71
     3
 72
    17
 73
    13
 74
     0
 42
0.0000000001
 43
0.0000000001
 40
0.0
 40
0.0
 40
0.0
 40
0.0
 40
1.0
 40
1.0
 40
1.0
 40
2.0
 40
2.0
 40
2.0
 40
3.0
 40
3.0
 40
3.0
 40
4.0
 40
4.0
 40
4.0
 40
4.0
 10
104.5572699391385
 20
-163.7233398028192
 30
0.0
 10
104.5572699391385
 20
-163.7233398028192
 30
0.0
 10
104.5104166405391
 20
-163.5014756535691
 30
0.0
 10
104.310256592846
 20
-163.5083658445396
 30
0.0
 10
104.110096545153
 20
-163.5149115259616
 30
0.0
 10
103.9771158594224
 20
-163.6544378931142
 30
0.0
 10
103.9571343056079
 20
-164.0947210961291
 30
0.0
 10
103.9371527517935
 20
-164.534315280047
 30
0.0
 10
103.9571343056079
 20
-166.9383029096543
 30
0.0
 10
103.9571343056079
 20
-166.9383029096543
 30
0.0
 10
103.9571343056079
 20
-166.9383029096543
 30
0.0
 10
103.9278509939833
 20
-167.6851996108565
 30
0.0
 10
104.3619330251248
 20
-167.7513454441733
 30
0.0
  0
SPLINE
  5
D7
330
3C
100
AcDbEntity
  8
\U+30EC\U+30A4\U+30E4\U+30FC 1
 62
     7
370
     9
100
AcDbSpline
210
0.0
220
0.0
230
1.0
 70
     8
 71
     3
 72
     8
 73
     4
 74
     0
 42
0.0000000001
 43
0.0000000001
 40
0.0
 40
0.0
 40
0.0
 40
0.0
 40
1.0
 40
1.0
 40
1.0
 40
1.0
 10
104.6316840016199
 20
-164.0478677975297
 30
0.0
 10
104.6316840016199
 20
-164.0478677975297
 30
0.0
 10
104.8053168140764
 20
-165.6222764342889
 30
0.0
 10
104.7377929425656
 20
-166.4304958351285
 30
0.0
  0
SPLINE
  5
D8
330
3C
100
AcDbEntity
  8
\U+30EC\U+30A4\U+30E4\U+30FC 1
 62
     7
370
     9
100
AcDbSpline
210
0.0
220
0.0
230
1.0
 70
     8
 71
     3
 72
    14
 73
    10
 74
     0
 42
0.0000000001
 43
0.0000000001
 40
0.0
 40
0.0
 40
0.0
 40
0.0
 40
1.0
 40
1.0
 40
1.0
 40
2.0
 40
2.0
 40
2.0
 40
3.0
 40
3.0
 40
3.0
 40
3.0
 10
103.9481770573463
 20
-160.4263834234351
 30
0.0
 10
103.9481770573463
 20
-160.4263834234351
 30
0.0
 10
103.8375894922698
 20
-160.4167371560764
 30
0.0
 10
103.8176079384553
 20
-160.9031846385936
 30
0.0
 10
103.7976263846409
 20
-161.3896321211109
 30
0.0
 10
103.7903916841219
 20
-162.7280517171305
 30
0.0
 10
103.8176079384553
 20
-163.0277750243472
 30
0.0
 10
103.8448241927888
 20
-163.327498331564
 30
0.0
 10
103.9068359115233
 20
-163.6902668861608
 30
0.0
 10
104.0122558333719
 20
-163.7519340953467
 30
0.0
  0
SPLINE
  5
D9
330
3C
100
AcDbEntity
  8
\U+30EC\U+30A4\U+30E4\U+30FC 1
 62
     7
370
     9
100
AcDbSpline
210
0.0
220
0.0
230
1.0
 70
     8
 71
     3
 72
    14
 73
    10
 74
     0
 42
0.0000000001
 43
0.0000000001
 40
0.0
 40
0.0
 40
0.0
 40
0.0
 40
1.0
 40
1.0
 40
1.0
 40
2.0
 40
2.0
 40
2.0
 40
3.0
 40
3.0
 40
3.0
 40
3.0
 10
104.2527234982424
 20
-164.1257269554964
 30
0.0
 10
104.2527234982424
 20
-164.1257269554964
 30
0.0
 10
105.0630099563731
 20
-164.0871418860615
 30
0.0
 10
105.0495740839807
 20
-163.2541177977282
 30
0.0
 10
105.0364827211367
 20
-162.4217827284918
 30
0.0
 10
105.0564642749512
 20
-161.2029079458104
 30
0.0
 10
105.0223578296472
 20
-160.8832030847792
 30
0.0
 10
104.9892849129888
 20
-160.563498223748
 30
0.0
 10
104.8900661630136
 20
-159.9299451640106
 30
0.0
 10
104.1634955251744
 20
-159.9771429721585
 30
0.0
  0
SPLINE
  5
DA
330
3C
100
AcDbEntity
  8
\U+30EC\U+30A4\U+30E4\U+30FC 1
 62
     7
370
     9
100
AcDbSpline
210
0.0
220
0.0
230
1.0
 70
     8
 71
     3
 72
    11
 73
     7
 74
     0
 42
0.0000000001
 43
0.0000000001
 40
0.0
 40
0.0
 40
0.0
 40
0.0
 40
1.0
 40
1.0
 40
1.0
 40
2.0
 40
2.0
 40
2.0
 40
2.0
 10
103.8000379514805
 20
-160.1156358106655
 30
0.0
 10
103.8000379514805
 20
-160.1156358106655
 30
0.0
 10
103.5113389498166
 20
-160.2699760884047
 30
0.0
 10
103.4979030774241
 20
-160.8697672123867
 30
0.0
 10
103.4848117145802
 20
-161.4692138268202
 30
0.0
 10
103.4979030774241
 20
-162.135150784119
 30
0.0
 10
103.4979030774241
 20
-162.135150784119
 30
0.0
  0
SPLINE
  5
DB
330
3C
100
AcDbEntity
  8
\U+30EC\U+30A4\U+30E4\U+30FC 1
 62
     7
370
     9
100
AcDbSpline
210
0.0
220
0.0
230
1.0
 70
     8
 71
     3
 72
     8
 73
     4
 74
     0
 42
0.0000000001
 43
0.0000000001
 40
0.0
 40
0.0
 40
0.0
 40
0.0
 40
1.0
 40
1.0
 40
1.0
 40
1.0
 10
103.5767957640364
 20
-163.5941487221223
 30
0.0
 10
103.5767957640364
 20
-163.5941487221223
 30
0.0
 10
103.7239013412565
 20
-164.0216850718418
 30
0.0
 10
103.9571343056079
 20
-164.0947210961291
 30
0.0
  0
SPLINE
  5
DC
330
3C
100
AcDbEntity
  8
\U+30EC\U+30A4\U+30E4\U+30FC 1
 62
     7
370
     9
100
AcDbSpline
210
0.0
220
0.0
230
1.0
 70
     8
 71
     3
 72
    11
 73
     7
 74
     0
 42
0.0000000001
 43
0.0000000001
 40
0.0
 40
0.0
 40
0.0
 40
0.0
 40
1.0
 40
1.0
 40
1.0
 40
2.0
 40
2.0
 40
2.0
 40
2.0
 10
104.2106933333223
 20
-156.992312243738
 30
0.0
 10
104.2106933333223
 20
-156.992312243738
 30
0.0
 10
104.2968207204536
 20
-157.4987412800698
 30
0.0
 10
104.2968207204536
 20
-158.4247829465049
 30
0.0
 10
104.2968207204536
 20
-159.3508246129401
 30
0.0
 10
104.2968207204536
 20
-159.9747314053188
 30
0.0
 10
104.2968207204536
 20
-159.9747314053188
 30
0.0
  0
SPLINE
  5
DD
330
3C
100
AcDbEntity
  8
\U+30EC\U+30A4\U+30E4\U+30FC 1
 62
     7
370
     9
100
AcDbSpline
210
0.0
220
0.0
230
1.0
 70
     8
 71
     3
 72
    20
 73
    16
 74
     0
 42
0.0000000001
 43
0.0000000001
 40
0.0
 40
0.0
 40
0.0
 40
0.0
 40
1.0
 40
1.0
 40
1.0
 40
2.0
 40
2.0
 40
2.0
 40
3.0
 40
3.0
 40
3.0
 40
4.0
 40
4.0
 40
4.0
 40
5.0
 40
5.0
 40
5.0
 40
5.0
 10
104.3898382985553
 20
-156.5258463150352
 30
0.0
 10
104.3898382985553
 20
-156.5258463150352
 30
0.0
 10
104.3037109114241
 20
-156.3129394140468
 30
0.0
 10
104.130422608516
 20
-156.3194850954687
 30
0.0
 10
103.9571343056079
 20
-156.3263752864393
 30
0.0
 10
103.6973741060201
 20
-156.4324842273849
 30
0.0
 10
103.6973741060201
 20
-157.1521646742536
 30
0.0
 10
103.6973741060201
 20
-157.8715006115738
 30
0.0
 10
103.7304470226785
 20
-159.6367675382158
 30
0.0
 10
103.7442274046195
 20
-159.7166937534736
 30
0.0
 10
103.7573187674635
 20
-159.7969644782799
 30
0.0
 10
103.8234646007803
 20
-160.5827907584654
 30
0.0
 10
104.2034586328033
 20
-160.5896809494359
 30
0.0
 10
104.5834526648264
 20
-160.5965711404064
 30
0.0
 10
104.5765624738559
 20
-160.3967556022619
 30
0.0
 10
104.5765624738559
 20
-160.3967556022619
 30
0.0
  0
SPLINE
  5
DE
330
3C
100
AcDbEntity
  8
\U+30EC\U+30A4\U+30E4\U+30FC 1
 62
     7
370
     9
100
AcDbSpline
210
0.0
220
0.0
230
1.0
 70
     8
 71
     3
 72
    11
 73
     7
 74
     0
 42
0.0000000001
 43
0.0000000001
 40
0.0
 40
0.0
 40
0.0
 40
0.0
 40
1.0
 40
1.0
 40
1.0
 40
2.0
 40
2.0
 40
2.0
 40
2.0
 10
104.6065348045775
 20
-160.0577582065133
 30
0.0
 10
104.6065348045775
 20
-160.0577582065133
 30
0.0
 10
104.6082573523202
 20
-157.2858343790813
 30
0.0
 10
104.5765624738559
 20
-157.1525091838022
 30
0.0
 10
104.5434895571975
 20
-157.019183988523
 30
0.0
 10
104.57794051205
 20
-157.0322753513669
 30
0.0
 10
104.5049044877627
 20
-156.8593315580074
 30
0.0
  0
SPLINE
  5
DF
330
3C
100
AcDbEntity
  8
\U+30EC\U+30A4\U+30E4\U+30FC 1
 62
     7
370
     9
100
AcDbSpline
210
0.0
220
0.0
230
1.0
 70
     8
 71
     3
 72
    17
 73
    13
 74
     0
 42
0.0000000001
 43
0.0000000001
 40
0.0
 40
0.0
 40
0.0
 40
0.0
 40
1.0
 40
1.0
 40
1.0
 40
2.0
 40
2.0
 40
2.0
 40
3.0
 40
3.0
 40
3.0
 40
4.0
 40
4.0
 40
4.0
 40
4.0
 10
103.9640244965784
 20
-152.7954969236067
 30
0.0
 10
103.9640244965784
 20
-152.7954969236067
 30
0.0
 10
103.9902072222663
 20
-152.7755153697922
 30
0.0
 10
104.136968289938
 20
-152.7954969236067
 30
0.0
 10
104.2830403385126
 20
-152.8154784774211
 30
0.0
 10
104.8159966100807
 20
-152.875767648413
 30
0.0
 10
104.8432128644142
 20
-153.7019015457759
 30
0.0
 10
104.8700846091992
 20
-154.5276909335903
 30
0.0
 10
104.8900661630136
 20
-156.0531792144589
 30
0.0
 10
104.8766302906211
 20
-156.1661783463751
 30
0.0
 10
104.8631944182286
 20
-156.2795219878398
 30
0.0
 10
104.7936034894266
 20
-156.9599283461767
 30
0.0
 10
104.0122558333719
 20
-157.0260741794935
 30
0.0
  0
SPLINE
  5
E0
330
3C
100
AcDbEntity
  8
\U+30EC\U+30A4\U+30E4\U+30FC 1
 62
     7
370
     9
100
AcDbSpline
210
0.0
220
0.0
230
1.0
 70
     8
 71
     3
 72
    14
 73
    10
 74
     0
 42
0.0000000001
 43
0.0000000001
 40
0.0
 40
0.0
 40
0.0
 40
0.0
 40
1.0
 40
1.0
 40
1.0
 40
2.0
 40
2.0
 40
2.0
 40
3.0
 40
3.0
 40
3.0
 40
3.0
 10
103.8375894922698
 20
-153.1954725094442
 30
0.0
 10
103.8375894922698
 20
-153.1954725094442
 30
0.0
 10
103.5967773178508
 20
-153.1909938853134
 30
0.0
 10
103.5971218273993
 20
-154.1948947097152
 30
0.0
 10
103.598844375142
 20
-155.3207519142948
 30
0.0
 10
103.6377739541253
 20
-155.8065103777151
 30
0.0
 10
103.6377739541253
 20
-155.8065103777151
 30
0.0
 10
103.6377739541253
 20
-155.8065103777151
 30
0.0
 10
103.6022894706272
 20
-156.3246527386966
 30
0.0
 10
103.8375894922698
 20
-156.4858832074063
 30
0.0
  0
SPLINE
  5
E1
330
3C
100
AcDbEntity
  8
\U+30EC\U+30A4\U+30E4\U+30FC 1
 62
     7
370
     9
100
AcDbSpline
210
0.0
220
0.0
230
1.0
 70
     8
 71
     3
 72
    11
 73
     7
 74
     0
 42
0.0000000001
 43
0.0000000001
 40
0.0
 40
0.0
 40
0.0
 40
0.0
 40
1.0
 40
1.0
 40
1.0
 40
2.0
 40
2.0
 40
2.0
 40
2.0
 10
103.6973741060201
 20
-152.9091850746199
 30
0.0
 10
103.6973741060201
 20
-152.9091850746199
 30
0.0
 10
103.3380506469085
 20
-152.9891112898777
 30
0.0
 10
103.3445963283305
 20
-153.854863785321
 30
0.0
 10
103.350797500204
 20
-154.7206162807643
 30
0.0
 10
103.3445963283305
 20
-155.2001735723111
 30
0.0
 10
103.3445963283305
 20
-155.2001735723111
 30
0.0
  0
SPLINE
  5
E2
330
3C
100
AcDbEntity
  8
\U+30EC\U+30A4\U+30E4\U+30FC 1
 62
     7
370
     9
100
AcDbSpline
210
0.0
220
0.0
230
1.0
 70
     8
 71
     3
 72
     8
 73
     4
 74
     0
 42
0.0000000001
 43
0.0000000001
 40
0.0
 40
0.0
 40
0.0
 40
0.0
 40
1.0
 40
1.0
 40
1.0
 40
1.0
 10
103.7111544879611
 20
-156.8858587932438
 30
0.0
 10
103.7111544879611
 20
-156.8858587932438
 30
0.0
 10
103.4817111286435
 20
-156.7856065146231
 30
0.0
 10
103.455183893407
 20
-156.5189561240647
 30
0.0
  0
SPLINE
  5
E3
330
3C
100
AcDbEntity
  8
\U+30EC\U+30A4\U+30E4\U+30FC 1
 62
     7
370
     9
100
AcDbSpline
210
0.0
220
0.0
230
1.0
 70
     8
 71
     3
 72
    74
 73
    70
 74
     0
 42
0.0000000001
 43
0.0000000001
 40
0.0
 40
0.0
 40
0.0
 40
0.0
 40
1.0
 40
1.0
 40
1.0
 40
2.0
 40
2.0
 40
2.0
 40
3.0
 40
3.0
 40
3.0
 40
4.0
 40
4.0
 40
4.0
 40
5.0
 40
5.0
 40
5.0
 40
6.0
 40
6.0
 40
6.0
 40
7.0
 40
7.0
 40
7.0
 40
8.0
 40
8.0
 40
8.0
 40
9.0
 40
9.0
 40
9.0
 40
10.0
 40
10.0
 40
10.0
 40
11.0
 40
11.0
 40
11.0
 40
12.0
 40
12.0
 40
12.0
 40
13.0
 40
13.0
 40
13.0
 40
14.0
 40
14.0
 40
14.0
 40
15.0
 40
15.0
 40
15.0
 40
16.0
 40
16.0
 40
16.0
 40
17.0
 40
17.0
 40
17.0
 40
18.0
 40
18.0
 40
18.0
 40
19.0
 40
19.0
 40
19.0
 40
20.0
 40
20.0
 40
20.0
 40
21.0
 40
21.0
 40
21.0
 40
22.0
 40
22.0
 40
22.0
 40
23.0
 40
23.0
 40
23.0
 40
23.0
 10
104.3357502994369
 20
-153.1954725094442
 30
0.0
 10
104.3216254079474
 20
-153.4228488114707
 30
0.0
 10
104.0639322656507
 20
-153.4180256777913
 30
0.0
 10
104.0639322656507
 20
-153.4180256777913
 30
0.0
 10
103.8448241927888
 20
-153.4114799963694
 30
0.0
 10
103.6643011893617
 20
-152.8092773055477
 30
0.0
 10
103.6574109983912
 20
-152.5291910425969
 30
0.0
 10
103.6512098265178
 20
-152.2494492891946
 30
0.0
 10
103.6171033812138
 20
-151.2503715984721
 30
0.0
 10
103.5971218273993
 20
-150.1978949277283
 30
0.0
 10
103.5767957640364
 20
-149.1454182569845
 30
0.0
 10
103.8730739757679
 20
-149.2119085998498
 30
0.0
 10
103.8730739757679
 20
-149.2119085998498
 30
0.0
 10
103.8730739757679
 20
-149.2119085998498
 30
0.0
 10
104.054285998292
 20
-149.2456705356053
 30
0.0
 10
103.9640244965784
 20
-149.4516872456232
 30
0.0
 10
103.9640244965784
 20
-149.4516872456232
 30
0.0
 10
103.8503363455652
 20
-149.4189588385133
 30
0.0
 10
103.8772080903502
 20
-150.3515461863705
 30
0.0
 10
103.9040798351351
 20
-151.2837890246791
 30
0.0
 10
103.8999457205528
 20
-152.3497015678154
 30
0.0
 10
103.9188937457217
 20
-152.476136572124
 30
0.0
 10
103.9371527517935
 20
-152.6025715764327
 30
0.0
 10
103.9812499740047
 20
-153.0456108558358
 30
0.0
 10
104.1042398828281
 20
-153.0690375051355
 30
0.0
 10
104.4704535329102
 20
-153.1379394148405
 30
0.0
 10
104.5104166405391
 20
-153.6216308209696
 30
0.0
 10
104.5104166405391
 20
-153.6216308209696
 30
0.0
 10
104.5104166405391
 20
-153.6216308209696
 30
0.0
 10
104.5565809200414
 20
-154.8205240498365
 30
0.0
 10
104.5765624738559
 20
-155.7396755253012
 30
0.0
 10
104.5955104990247
 20
-156.6588270007659
 30
0.0
 10
104.1634955251744
 20
-156.5930256769976
 30
0.0
 10
104.1634955251744
 20
-156.5930256769976
 30
0.0
 10
103.9771158594224
 20
-156.5995713584196
 30
0.0
 10
104.0122558333719
 20
-157.0260741794935
 30
0.0
 10
104.0122558333719
 20
-157.0260741794935
 30
0.0
 10
104.0122558333719
 20
-157.0260741794935
 30
0.0
 10
104.0436062022877
 20
-158.0182616792455
 30
0.0
 10
104.0570420746802
 20
-159.184081991454
 30
0.0
 10
104.0711669661697
 20
-160.349557794114
 30
0.0
 10
104.2627142751496
 20
-160.2699760884047
 30
0.0
 10
104.2627142751496
 20
-160.2699760884047
 30
0.0
 10
104.2627142751496
 20
-160.2699760884047
 30
0.0
 10
104.7167778601055
 20
-160.0167615702389
 30
0.0
 10
104.7536403817977
 20
-161.2824896515197
 30
0.0
 10
104.7898138843928
 20
-162.548562242349
 30
0.0
 10
104.7536403817977
 20
-163.2207003715212
 30
0.0
 10
104.7536403817977
 20
-163.2207003715212
 30
0.0
 10
104.7536403817977
 20
-163.2207003715212
 30
0.0
 10
104.7563964581859
 20
-163.8018879798829
 30
0.0
 10
104.3236924652385
 20
-163.8011989607858
 30
0.0
 10
104.3236924652385
 20
-163.8011989607858
 30
0.0
 10
104.2420437022381
 20
-163.5614203150124
 30
0.0
 10
104.233430963525
 20
-164.8736571853441
 30
0.0
 10
104.2237846961663
 20
-166.1858940556758
 30
0.0
 10
104.2396321353984
 20
-166.5655435781503
 30
0.0
 10
104.2789062239303
 20
-166.898684311574
 30
0.0
 10
104.316802274268
 20
-167.2318250449976
 30
0.0
 10
104.3898382985553
 20
-167.2518065988121
 30
0.0
 10
104.4170545528888
 20
-167.2518065988121
 30
0.0
 10
104.4435817881252
 20
-167.2518065988121
 30
0.0
 10
104.4704535329102
 20
-167.278678343597
 30
0.0
 10
104.4904350867246
 20
-166.5524522153063
 30
0.0
 10
104.5104166405391
 20
-165.8262260870157
 30
0.0
 10
104.4435817881252
 20
-164.2345919728303
 30
0.0
 10
104.4435817881252
 20
-164.2345919728303
 30
0.0
 10
104.4435817881252
 20
-164.2345919728303
 30
0.0
 10
104.4170545528888
 20
-164.1343396942095
 30
0.0
 10
104.4170545528888
 20
-164.1343396942095
 30
0.0
  0
SPLINE
  5
E4
330
3C
100
AcDbEntity
  8
\U+30EC\U+30A4\U+30E4\U+30FC 1
 62
     7
370
     9
100
AcDbSpline
210
0.0
220
0.0
230
1.0
 70
     8
 71
     3
 72
     8
 73
     4
 74
     0
 42
0.0000000001
 43
0.0000000001
 40
0.0
 40
0.0
 40
0.0
 40
0.0
 40
1.0
 40
1.0
 40
1.0
 40
1.0
 10
104.0439507118362
 20
-149.9856770458369
 30
0.0
 10
104.0439507118362
 20
-149.9856770458369
 30
0.0
 10
104.1569498437524
 20
-151.8322482259308
 30
0.0
 10
104.1569498437524
 20
-152.786539675345
 30
0.0
  0
SPLINE
  5
E5
330
3C
100
AcDbEntity
  8
\U+30EC\U+30A4\U+30E4\U+30FC 1
 62
     7
370
     9
100
AcDbSpline
210
0.0
220
0.0
230
1.0
 70
     8
 71
     3
 72
    11
 73
     7
 74
     0
 42
0.0000000001
 43
0.0000000001
 40
0.0
 40
0.0
 40
0.0
 40
0.0
 40
1.0
 40
1.0
 40
1.0
 40
2.0
 40
2.0
 40
2.0
 40
2.0
 10
104.2968207204536
 20
-149.779660335819
 30
0.0
 10
104.2968207204536
 20
-149.779660335819
 30
0.0
 10
104.4146429860491
 20
-150.9571939726774
 30
0.0
 10
104.4222221961167
 20
-151.5566405871108
 30
0.0
 10
104.4298014061842
 20
-152.1560872015443
 30
0.0
 10
104.3939724131376
 20
-152.489227934968
 30
0.0
 10
104.4222221961167
 20
-152.8754231388645
 30
0.0
  0
SPLINE
  5
E6
330
3C
100
AcDbEntity
  8
\U+30EC\U+30A4\U+30E4\U+30FC 1
 62
     7
370
     9
100
AcDbSpline
210
0.0
220
0.0
230
1.0
 70
     8
 71
     3
 72
    14
 73
    10
 74
     0
 42
0.0000000001
 43
0.0000000001
 40
0.0
 40
0.0
 40
0.0
 40
0.0
 40
1.0
 40
1.0
 40
1.0
 40
2.0
 40
2.0
 40
2.0
 40
3.0
 40
3.0
 40
3.0
 40
3.0
 10
102.4791883424358
 20
-147.173790110776
 30
0.0
 10
102.4791883424358
 20
-147.173790110776
 30
0.0
 10
102.4791883424358
 20
-148.021628109696
 30
0.0
 10
102.4791883424358
 20
-148.021628109696
 30
0.0
 10
102.4791883424358
 20
-148.021628109696
 30
0.0
 10
102.468164036883
 20
-148.3728555944172
 30
0.0
 10
102.5315537938116
 20
-148.5061807896964
 30
0.0
 10
102.6590223267658
 20
-148.7693860847695
 30
0.0
 10
102.745149713897
 20
-148.939057037418
 30
0.0
 10
102.745149713897
 20
-148.939057037418
 30
0.0
  0
SPLINE
  5
E7
330
3C
100
AcDbEntity
  8
\U+30EC\U+30A4\U+30E4\U+30FC 1
 62
     7
370
     9
100
AcDbSpline
210
0.0
220
0.0
230
1.0
 70
     8
 71
     3
 72
    35
 73
    31
 74
     0
 42
0.0000000001
 43
0.0000000001
 40
0.0
 40
0.0
 40
0.0
 40
0.0
 40
1.0
 40
1.0
 40
1.0
 40
2.0
 40
2.0
 40
2.0
 40
3.0
 40
3.0
 40
3.0
 40
4.0
 40
4.0
 40
4.0
 40
5.0
 40
5.0
 40
5.0
 40
6.0
 40
6.0
 40
6.0
 40
7.0
 40
7.0
 40
7.0
 40
8.0
 40
8.0
 40
8.0
 40
9.0
 40
9.0
 40
9.0
 40
10.0
 40
10.0
 40
10.0
 40
10.0
 10
102.9315293796491
 20
-149.0038248325407
 30
0.0
 10
102.9315293796491
 20
-149.0038248325407
 30
0.0
 10
102.9315293796491
 20
-149.0789279141192
 30
0.0
 10
102.9315293796491
 20
-149.1257812127186
 30
0.0
 10
102.9315293796491
 20
-149.1722900017694
 30
0.0
 10
102.9315293796491
 20
-149.2656520894197
 30
0.0
 10
102.8123290758594
 20
-149.3455783046775
 30
0.0
 10
102.6920952434242
 20
-149.4255045199353
 30
0.0
 10
102.6114800090694
 20
-149.3455783046775
 30
0.0
 10
102.6114800090694
 20
-149.3455783046775
 30
0.0
 10
102.6114800090694
 20
-149.3455783046775
 30
0.0
 10
102.385481745237
 20
-148.9928005269879
 30
0.0
 10
102.2717935942237
 20
-148.6608655769841
 30
0.0
 10
102.1587944623075
 20
-148.3292751365288
 30
0.0
 10
102.1587944623075
 20
-148.0863959048187
 30
0.0
 10
102.1587944623075
 20
-148.0863959048187
 30
0.0
 10
102.1587944623075
 20
-148.0863959048187
 30
0.0
 10
102.1315782079741
 20
-147.3470784136841
 30
0.0
 10
102.1315782079741
 20
-147.2473428993861
 30
0.0
 10
102.1315782079741
 20
-147.1472628755396
 30
0.0
 10
102.0795572661468
 20
-147.0137654254862
 30
0.0
 10
102.2587022313798
 20
-146.9209201021587
 30
0.0
 10
102.4385362157098
 20
-146.8275580145084
 30
0.0
 10
102.5253526219381
 20
-147.0272012978786
 30
0.0
 10
102.5253526219381
 20
-147.0272012978786
 30
0.0
 10
102.5253526219381
 20
-147.0272012978786
 30
0.0
 10
102.745149713897
 20
-147.4738579275413
 30
0.0
 10
102.745149713897
 20
-147.4738579275413
 30
0.0
 10
102.745149713897
 20
-147.4738579275413
 30
0.0
 10
102.6187147095884
 20
-147.6068386132719
 30
0.0
 10
102.4791883424358
 20
-147.6133842946939
 30
0.0
  0
SPLINE
  5
E8
330
3C
100
AcDbEntity
  8
\U+30EC\U+30A4\U+30E4\U+30FC 1
 62
     7
370
     9
100
AcDbSpline
210
0.0
220
0.0
230
1.0
 70
     8
 71
     3
 72
    11
 73
     7
 74
     0
 42
0.0000000001
 43
0.0000000001
 40
0.0
 40
0.0
 40
0.0
 40
0.0
 40
1.0
 40
1.0
 40
1.0
 40
2.0
 40
2.0
 40
2.0
 40
2.0
 10
102.4791883424358
 20
-147.7599731075913
 30
0.0
 10
102.4791883424358
 20
-147.7599731075913
 30
0.0
 10
102.6039007990018
 20
-147.963922760318
 30
0.0
 10
102.6114800090694
 20
-148.1385891014202
 30
0.0
 10
102.6187147095884
 20
-148.3127386781996
 30
0.0
 10
102.6114800090694
 20
-148.6608655769841
 30
0.0
 10
102.6114800090694
 20
-148.6608655769841
 30
0.0
  0
SPLINE
  5
E9
330
3C
100
AcDbEntity
  8
\U+30EC\U+30A4\U+30E4\U+30FC 1
 62
     7
370
     9
100
AcDbSpline
210
0.0
220
0.0
230
1.0
 70
     8
 71
     3
 72
    11
 73
     7
 74
     0
 42
0.0000000001
 43
0.0000000001
 40
0.0
 40
0.0
 40
0.0
 40
0.0
 40
1.0
 40
1.0
 40
1.0
 40
2.0
 40
2.0
 40
2.0
 40
2.0
 10
102.0389051394208
 20
-146.9941283812202
 30
0.0
 10
102.0389051394208
 20
-146.9941283812202
 30
0.0
 10
101.972070287007
 20
-147.4867770356109
 30
0.0
 10
101.972070287007
 20
-147.5735934418393
 30
0.0
 10
101.972070287007
 20
-147.6602375932933
 30
0.0
 10
101.9762044015893
 20
-147.7599731075913
 30
0.0
 10
102.1477701567547
 20
-147.7599731075913
 30
0.0
  0
SPLINE
  5
EA
330
3C
100
AcDbEntity
  8
\U+30EC\U+30A4\U+30E4\U+30FC 1
 62
     7
370
     9
100
AcDbSpline
210
0.0
220
0.0
230
1.0
 70
     8
 71
     3
 72
    23
 73
    19
 74
     0
 42
0.0000000001
 43
0.0000000001
 40
0.0
 40
0.0
 40
0.0
 40
0.0
 40
1.0
 40
1.0
 40
1.0
 40
2.0
 40
2.0
 40
2.0
 40
3.0
 40
3.0
 40
3.0
 40
4.0
 40
4.0
 40
4.0
 40
5.0
 40
5.0
 40
5.0
 40
6.0
 40
6.0
 40
6.0
 40
6.0
 10
102.4774657946931
 20
-147.7269001909329
 30
0.0
 10
102.4774657946931
 20
-147.7269001909329
 30
0.0
 10
102.6920952434242
 20
-147.7334458723548
 30
0.0
 10
102.8712402086572
 20
-147.4602498003745
 30
0.0
 10
103.0517632120843
 20
-147.1873982379427
 30
0.0
 10
103.2178168144733
 20
-146.4611721096521
 30
0.0
 10
103.2178168144733
 20
-146.4611721096521
 30
0.0
 10
103.2178168144733
 20
-146.4611721096521
 30
0.0
 10
103.7442274046195
 20
-146.3145832967547
 30
0.0
 10
104.1107855642501
 20
-146.6277424763639
 30
0.0
 10
104.1107855642501
 20
-146.6277424763639
 30
0.0
 10
104.6396077212359
 20
-147.9399793466956
 30
0.0
 10
104.6396077212359
 20
-147.9399793466956
 30
0.0
 10
104.6396077212359
 20
-147.9399793466956
 30
0.0
 10
105.0165011673223
 20
-148.4328002558606
 30
0.0
 10
105.0292480206177
 20
-148.4596720006455
 30
0.0
 10
105.0292480206177
 20
-148.4596720006455
 30
0.0
 10
104.9417425952924
 20
-147.8466172590453
 30
0.0
 10
104.9417425952924
 20
-147.8466172590453
 30
0.0
  0
SPLINE
  5
EB
330
3C
100
AcDbEntity
  8
\U+30EC\U+30A4\U+30E4\U+30FC 1
 62
     7
370
     9
100
AcDbSpline
210
0.0
220
0.0
230
1.0
 70
     8
 71
     3
 72
    29
 73
    25
 74
     0
 42
0.0000000001
 43
0.0000000001
 40
0.0
 40
0.0
 40
0.0
 40
0.0
 40
1.0
 40
1.0
 40
1.0
 40
2.0
 40
2.0
 40
2.0
 40
3.0
 40
3.0
 40
3.0
 40
4.0
 40
4.0
 40
4.0
 40
5.0
 40
5.0
 40
5.0
 40
6.0
 40
6.0
 40
6.0
 40
7.0
 40
7.0
 40
7.0
 40
8.0
 40
8.0
 40
8.0
 40
8.0
 10
104.9052245831487
 20
-147.5906466644912
 30
0.0
 10
104.9052245831487
 20
-147.5906466644912
 30
0.0
 10
104.7963595658148
 20
-147.2202988998269
 30
0.0
 10
104.7963595658148
 20
-147.2202988998269
 30
0.0
 10
104.7963595658148
 20
-147.2202988998269
 30
0.0
 10
104.4370361067032
 20
-146.6277424763639
 30
0.0
 10
104.1569498437524
 20
-146.4944172810847
 30
0.0
 10
103.8778971094472
 20
-146.3612643405798
 30
0.0
 10
103.7304470226785
 20
-146.2679022529296
 30
0.0
 10
103.2312526868658
 20
-146.3145832967547
 30
0.0
 10
102.731369331956
 20
-146.3612643405798
 30
0.0
 10
102.5122612590942
 20
-146.4411905558376
 30
0.0
 10
102.2125379518774
 20
-146.6876871378072
 30
0.0
 10
101.9128146446607
 20
-146.9340114650026
 30
0.0
 10
101.8790527089052
 20
-146.9340114650026
 30
0.0
 10
101.8459797922468
 20
-147.3770507444058
 30
0.0
 10
101.8459797922468
 20
-147.3770507444058
 30
0.0
 10
101.3864040545145
 20
-148.5397704706776
 30
0.0
 10
101.3864040545145
 20
-148.5397704706776
 30
0.0
 10
101.3864040545145
 20
-148.5397704706776
 30
0.0
 10
101.14455835145
 20
-149.0472330356549
 30
0.0
 10
101.5214517975363
 20
-149.3810627881756
 30
0.0
 10
101.5214517975363
 20
-149.3810627881756
 30
0.0
 10
101.627560738482
 20
-149.4950954487373
 30
0.0
 10
101.806705703715
 20
-149.3410996805467
 30
0.0
  0
SPLINE
  5
EC
330
3C
100
AcDbEntity
  8
\U+30EC\U+30A4\U+30E4\U+30FC 1
 62
     7
370
     9
100
AcDbSpline
210
0.0
220
0.0
230
1.0
 70
     8
 71
     3
 72
    11
 73
     7
 74
     0
 42
0.0000000001
 43
0.0000000001
 40
0.0
 40
0.0
 40
0.0
 40
0.0
 40
1.0
 40
1.0
 40
1.0
 40
2.0
 40
2.0
 40
2.0
 40
2.0
 10
102.7861463501715
 20
-147.5680812890629
 30
0.0
 10
102.7861463501715
 20
-147.5680812890629
 30
0.0
 10
102.8784749091762
 20
-147.8216403167772
 30
0.0
 10
102.8912217624716
 20
-148.2105915970619
 30
0.0
 10
102.9050021444126
 20
-148.5993706225724
 30
0.0
 10
102.9315293796491
 20
-148.6608655769841
 30
0.0
 10
102.9315293796491
 20
-148.6608655769841
 30
0.0
  0
SPLINE
  5
ED
330
3C
100
AcDbEntity
  8
\U+30EC\U+30A4\U+30E4\U+30FC 1
 62
     7
370
     9
100
AcDbSpline
210
0.0
220
0.0
230
1.0
 70
     8
 71
     3
 72
    56
 73
    52
 74
     0
 42
0.0000000001
 43
0.0000000001
 40
0.0
 40
0.0
 40
0.0
 40
0.0
 40
1.0
 40
1.0
 40
1.0
 40
2.0
 40
2.0
 40
2.0
 40
3.0
 40
3.0
 40
3.0
 40
4.0
 40
4.0
 40
4.0
 40
5.0
 40
5.0
 40
5.0
 40
6.0
 40
6.0
 40
6.0
 40
7.0
 40
7.0
 40
7.0
 40
8.0
 40
8.0
 40
8.0
 40
9.0
 40
9.0
 40
9.0
 40
10.0
 40
10.0
 40
10.0
 40
11.0
 40
11.0
 40
11.0
 40
12.0
 40
12.0
 40
12.0
 40
13.0
 40
13.0
 40
13.0
 40
14.0
 40
14.0
 40
14.0
 40
15.0
 40
15.0
 40
15.0
 40
16.0
 40
16.0
 40
16.0
 40
17.0
 40
17.0
 40
17.0
 40
17.0
 10
102.745149713897
 20
-148.939057037418
 30
0.0
 10
102.745149713897
 20
-148.939057037418
 30
0.0
 10
103.0455620402108
 20
-148.8749782613924
 30
0.0
 10
103.0579643839577
 20
-149.2112195807528
 30
0.0
 10
103.0717447658987
 20
-149.5915581223243
 30
0.0
 10
103.0579643839577
 20
-149.9119520024526
 30
0.0
 10
103.0579643839577
 20
-149.9119520024526
 30
0.0
 10
103.0579643839577
 20
-149.9119520024526
 30
0.0
 10
103.0772569186751
 20
-150.1854925839814
 30
0.0
 10
102.6149251045546
 20
-150.2685193851759
 30
0.0
 10
102.6149251045546
 20
-150.2685193851759
 30
0.0
 10
102.5511908380775
 20
-150.6247422583508
 30
0.0
 10
102.5887423788667
 20
-151.2059298667124
 30
0.0
 10
102.6266384292045
 20
-151.7874619846226
 30
0.0
 10
102.7286132555679
 20
-152.0568684515691
 30
0.0
 10
102.7286132555679
 20
-152.0568684515691
 30
0.0
 10
102.7286132555679
 20
-152.0568684515691
 30
0.0
 10
103.0841471096456
 20
-151.9762532172143
 30
0.0
 10
103.117220026304
 20
-152.3421223577478
 30
0.0
 10
103.1489149047683
 20
-152.7086805173784
 30
0.0
 10
103.1213541408863
 20
-153.020806168342
 30
0.0
 10
103.117220026304
 20
-153.117268841929
 30
0.0
 10
103.1110188544306
 20
-153.2144205346131
 30
0.0
 10
103.0731228040928
 20
-153.3005479217443
 30
0.0
 10
102.9573675957884
 20
-153.3598035640906
 30
0.0
 10
102.8423014065811
 20
-153.4187146968884
 30
0.0
 10
102.6318060724323
 20
-153.4514431039983
 30
0.0
 10
102.6318060724323
 20
-153.4514431039983
 30
0.0
 10
102.6318060724323
 20
-153.4514431039983
 30
0.0
 10
102.6266384292045
 20
-154.3933322096656
 30
0.0
 10
102.6266384292045
 20
-154.3933322096656
 30
0.0
 10
102.6266384292045
 20
-154.3933322096656
 30
0.0
 10
102.7017415107829
 20
-155.1416069490618
 30
0.0
 10
102.7348144274413
 20
-155.2763101825351
 30
0.0
 10
102.7348144274413
 20
-155.2763101825351
 30
0.0
 10
103.0937933770043
 20
-155.1956949481803
 30
0.0
 10
103.1320339368906
 20
-155.5777560374945
 30
0.0
 10
103.1702744967769
 20
-155.9601616363572
 30
0.0
 10
103.1868109551061
 20
-156.2560953385401
 30
0.0
 10
103.1868109551061
 20
-156.2560953385401
 30
0.0
 10
103.1868109551061
 20
-156.2560953385401
 30
0.0
 10
103.2212619099586
 20
-156.5251572959382
 30
0.0
 10
102.9869954169616
 20
-156.6291991795927
 30
0.0
 10
102.7716769491335
 20
-156.7256618531797
 30
0.0
 10
102.6459309639219
 20
-156.777682795007
 30
0.0
 10
102.6459309639219
 20
-156.777682795007
 30
0.0
 10
102.6459309639219
 20
-156.777682795007
 30
0.0
 10
102.690028186133
 20
-157.5483506550574
 30
0.0
 10
102.690028186133
 20
-157.5483506550574
 30
0.0
 10
102.690028186133
 20
-157.5483506550574
 30
0.0
 10
102.7017415107829
 20
-158.0327310802835
 30
0.0
 10
102.7389485420236
 20
-158.2752658024451
 30
0.0
  0
SPLINE
  5
EE
330
3C
100
AcDbEntity
  8
\U+30EC\U+30A4\U+30E4\U+30FC 1
 62
     7
370
     9
100
AcDbSpline
210
0.0
220
0.0
230
1.0
 70
     8
 71
     3
 72
    20
 73
    16
 74
     0
 42
0.0000000001
 43
0.0000000001
 40
0.0
 40
0.0
 40
0.0
 40
0.0
 40
1.0
 40
1.0
 40
1.0
 40
2.0
 40
2.0
 40
2.0
 40
3.0
 40
3.0
 40
3.0
 40
4.0
 40
4.0
 40
4.0
 40
5.0
 40
5.0
 40
5.0
 40
5.0
 10
102.6149251045546
 20
-148.676540761442
 30
0.0
 10
102.6149251045546
 20
-148.676540761442
 30
0.0
 10
103.0118001044554
 20
-148.676540761442
 30
0.0
 10
103.0118001044554
 20
-148.676540761442
 30
0.0
 10
103.0118001044554
 20
-148.676540761442
 30
0.0
 10
103.3380506469085
 20
-148.6439846091064
 30
0.0
 10
103.3380506469085
 20
-149.2112195807528
 30
0.0
 10
103.3380506469085
 20
-149.7782822976249
 30
0.0
 10
103.3380506469085
 20
-149.945024919111
 30
0.0
 10
103.3380506469085
 20
-149.945024919111
 30
0.0
 10
103.3380506469085
 20
-149.945024919111
 30
0.0
 10
103.3728461113096
 20
-150.4245822106577
 30
0.0
 10
102.7861463501715
 20
-150.5775444502029
 30
0.0
 10
102.7861463501715
 20
-150.5775444502029
 30
0.0
 10
102.5766845446683
 20
-150.6416232262285
 30
0.0
 10
102.5766845446683
 20
-150.6416232262285
 30
0.0
  0
SPLINE
  5
EF
330
3C
100
AcDbEntity
  8
\U+30EC\U+30A4\U+30E4\U+30FC 1
 62
     7
370
     9
100
AcDbSpline
210
0.0
220
0.0
230
1.0
 70
     8
 71
     3
 72
    14
 73
    10
 74
     0
 42
0.0000000001
 43
0.0000000001
 40
0.0
 40
0.0
 40
0.0
 40
0.0
 40
1.0
 40
1.0
 40
1.0
 40
2.0
 40
2.0
 40
2.0
 40
3.0
 40
3.0
 40
3.0
 40
3.0
 10
102.4302679865452
 20
-149.0262179531948
 30
0.0
 10
102.4302679865452
 20
-149.0262179531948
 30
0.0
 10
102.0609537505264
 20
-149.0434434306211
 30
0.0
 10
102.0599202218809
 20
-149.3810627881756
 30
0.0
 10
102.0588866932353
 20
-149.7183376361815
 30
0.0
 10
102.0599202218809
 20
-150.151730648226
 30
0.0
 10
102.0599202218809
 20
-150.151730648226
 30
0.0
 10
102.0599202218809
 20
-150.151730648226
 30
0.0
 10
102.0444172921972
 20
-150.2981472063491
 30
0.0
 10
102.2449218494388
 20
-150.3515461863705
 30
0.0
  0
SPLINE
  5
F0
330
3C
100
AcDbEntity
  8
\U+30EC\U+30A4\U+30E4\U+30FC 1
 62
     7
370
     9
100
AcDbSpline
210
0.0
220
0.0
230
1.0
 70
     8
 71
     3
 72
    14
 73
    10
 74
     0
 42
0.0000000001
 43
0.0000000001
 40
0.0
 40
0.0
 40
0.0
 40
0.0
 40
1.0
 40
1.0
 40
1.0
 40
2.0
 40
2.0
 40
2.0
 40
3.0
 40
3.0
 40
3.0
 40
3.0
 10
102.3062445490762
 20
-148.7518160977947
 30
0.0
 10
102.3062445490762
 20
-148.7518160977947
 30
0.0
 10
101.8259982384324
 20
-148.8124497783351
 30
0.0
 10
101.8129068755884
 20
-149.4186143289648
 30
0.0
 10
101.7991264936474
 20
-150.0249511343688
 30
0.0
 10
101.8129068755884
 20
-150.317784250615
 30
0.0
 10
101.8129068755884
 20
-150.317784250615
 30
0.0
 10
101.8129068755884
 20
-150.317784250615
 30
0.0
 10
101.8528699832173
 20
-150.6643608564311
 30
0.0
 10
102.2717935942237
 20
-150.6912326012161
 30
0.0
  0
SPLINE
  5
F1
330
3C
100
AcDbEntity
  8
\U+30EC\U+30A4\U+30E4\U+30FC 1
 62
     7
370
     9
100
AcDbSpline
210
0.0
220
0.0
230
1.0
 70
     8
 71
     3
 72
    29
 73
    25
 74
     0
 42
0.0000000001
 43
0.0000000001
 40
0.0
 40
0.0
 40
0.0
 40
0.0
 40
1.0
 40
1.0
 40
1.0
 40
2.0
 40
2.0
 40
2.0
 40
3.0
 40
3.0
 40
3.0
 40
4.0
 40
4.0
 40
4.0
 40
5.0
 40
5.0
 40
5.0
 40
6.0
 40
6.0
 40
6.0
 40
7.0
 40
7.0
 40
7.0
 40
8.0
 40
8.0
 40
8.0
 40
8.0
 10
102.7127658163357
 20
-150.2457817549733
 30
0.0
 10
102.7127658163357
 20
-150.2457817549733
 30
0.0
 10
102.674869765998
 20
-149.9625949060857
 30
0.0
 10
102.674869765998
 20
-149.9625949060857
 30
0.0
 10
102.674869765998
 20
-149.9625949060857
 30
0.0
 10
102.6011447226136
 20
-149.7421087950298
 30
0.0
 10
102.4302679865452
 20
-149.7851724885954
 30
0.0
 10
102.2604247791224
 20
-149.8278916726125
 30
0.0
 10
102.2821288806795
 20
-149.9842990076428
 30
0.0
 10
102.2769612374516
 20
-150.1941053226945
 30
0.0
 10
102.2711045751267
 20
-150.4042561472948
 30
0.0
 10
102.2769612374516
 20
-151.1632106826953
 30
0.0
 10
102.2769612374516
 20
-151.1632106826953
 30
0.0
 10
102.2769612374516
 20
-151.1632106826953
 30
0.0
 10
102.2883300525529
 20
-151.8632540852981
 30
0.0
 10
102.4302679865452
 20
-152.1540201442532
 30
0.0
 10
102.5728949396346
 20
-152.4444416936597
 30
0.0
 10
102.5766845446683
 20
-152.4661457952168
 30
0.0
 10
102.5766845446683
 20
-152.4661457952168
 30
0.0
 10
102.5766845446683
 20
-152.4661457952168
 30
0.0
 10
102.6590223267658
 20
-152.5736327743566
 30
0.0
 10
102.7661647963571
 20
-152.5092094887824
 30
0.0
 10
102.8739962850454
 20
-152.4444416936597
 30
0.0
 10
102.868484132269
 20
-152.0568684515691
 30
0.0
 10
102.868484132269
 20
-152.0568684515691
 30
0.0
  0
SPLINE
  5
F2
330
3C
100
AcDbEntity
  8
\U+30EC\U+30A4\U+30E4\U+30FC 1
 62
     7
370
     9
100
AcDbSpline
210
0.0
220
0.0
230
1.0
 70
     8
 71
     3
 72
     8
 73
     4
 74
     0
 42
0.0000000001
 43
0.0000000001
 40
0.0
 40
0.0
 40
0.0
 40
0.0
 40
1.0
 40
1.0
 40
1.0
 40
1.0
 10
102.7561740194498
 20
-150.5947699276291
 30
0.0
 10
102.7561740194498
 20
-150.5947699276291
 30
0.0
 10
102.8705511895601
 20
-151.3085937121729
 30
0.0
 10
102.868484132269
 20
-151.7285508518248
 30
0.0
  0
SPLINE
  5
F3
330
3C
100
AcDbEntity
  8
\U+30EC\U+30A4\U+30E4\U+30FC 1
 62
     7
370
     9
100
AcDbSpline
210
0.0
220
0.0
230
1.0
 70
     8
 71
     3
 72
    14
 73
    10
 74
     0
 42
0.0000000001
 43
0.0000000001
 40
0.0
 40
0.0
 40
0.0
 40
0.0
 40
1.0
 40
1.0
 40
1.0
 40
2.0
 40
2.0
 40
2.0
 40
3.0
 40
3.0
 40
3.0
 40
3.0
 10
102.4061523181485
 20
-152.096831559198
 30
0.0
 10
102.4061523181485
 20
-152.096831559198
 30
0.0
 10
102.0292588720621
 20
-152.1464409341856
 30
0.0
 10
102.0234022097372
 20
-152.5295355521454
 30
0.0
 10
102.0182345665093
 20
-152.9126301701052
 30
0.0
 10
102.0234022097372
 20
-153.1658446882711
 30
0.0
 10
102.0234022097372
 20
-153.1658446882711
 30
0.0
 10
102.0234022097372
 20
-153.1658446882711
 30
0.0
 10
102.0444172921972
 20
-153.4459309512219
 30
0.0
 10
102.330360217473
 20
-153.4783148487832
 30
0.0
  0
SPLINE
  5
F4
330
3C
100
AcDbEntity
  8
\U+30EC\U+30A4\U+30E4\U+30FC 1
 62
     7
370
     9
100
AcDbSpline
210
0.0
220
0.0
230
1.0
 70
     8
 71
     3
 72
    17
 73
    13
 74
     0
 42
0.0000000001
 43
0.0000000001
 40
0.0
 40
0.0
 40
0.0
 40
0.0
 40
1.0
 40
1.0
 40
1.0
 40
2.0
 40
2.0
 40
2.0
 40
3.0
 40
3.0
 40
3.0
 40
4.0
 40
4.0
 40
4.0
 40
4.0
 10
102.3262261028907
 20
-151.7595567111921
 30
0.0
 10
102.3262261028907
 20
-151.7595567111921
 30
0.0
 10
102.082313342535
 20
-151.7984862901754
 30
0.0
 10
101.9262505170532
 20
-152.0086371147756
 30
0.0
 10
101.7708767106684
 20
-152.2180989202788
 30
0.0
 10
101.7708767106684
 20
-152.2294677353801
 30
0.0
 10
101.7598524051156
 20
-152.6115288246943
 30
0.0
 10
101.7488280995628
 20
-152.9939344235571
 30
0.0
 10
101.7598524051156
 20
-153.2571397186302
 30
0.0
 10
101.7598524051156
 20
-153.2571397186302
 30
0.0
 10
101.7598524051156
 20
-153.2571397186302
 30
0.0
 10
101.7546847618877
 20
-153.6853650874467
 30
0.0
 10
102.3262261028907
 20
-153.8173122445318
 30
0.0
  0
SPLINE
  5
F5
330
3C
100
AcDbEntity
  8
\U+30EC\U+30A4\U+30E4\U+30FC 1
 62
     7
370
     9
100
AcDbSpline
210
0.0
220
0.0
230
1.0
 70
     8
 71
     3
 72
    17
 73
    13
 74
     0
 42
0.0000000001
 43
0.0000000001
 40
0.0
 40
0.0
 40
0.0
 40
0.0
 40
1.0
 40
1.0
 40
1.0
 40
2.0
 40
2.0
 40
2.0
 40
3.0
 40
3.0
 40
3.0
 40
4.0
 40
4.0
 40
4.0
 40
4.0
 10
102.6548882121835
 20
-151.7595567111921
 30
0.0
 10
102.6548882121835
 20
-151.7595567111921
 30
0.0
 10
103.3635443534994
 20
-151.6531032606978
 30
0.0
 10
103.3966172701578
 20
-152.3045708169586
 30
0.0
 10
103.4286566581706
 20
-152.9560383732193
 30
0.0
 10
103.3966172701578
 20
-153.0745496579119
 30
0.0
 10
103.3966172701578
 20
-153.0745496579119
 30
0.0
 10
103.3966172701578
 20
-153.0745496579119
 30
0.0
 10
103.2994655774738
 20
-153.5802896751466
 30
0.0
 10
103.0328151869154
 20
-153.6502251134972
 30
0.0
 10
102.7661647963571
 20
-153.7205050613963
 30
0.0
 10
102.6266384292045
 20
-153.7687363981898
 30
0.0
 10
102.6266384292045
 20
-153.7687363981898
 30
0.0
  0
SPLINE
  5
F6
330
3C
100
AcDbEntity
  8
\U+30EC\U+30A4\U+30E4\U+30FC 1
 62
     7
370
     9
100
AcDbSpline
210
0.0
220
0.0
230
1.0
 70
     8
 71
     3
 72
    29
 73
    25
 74
     0
 42
0.0000000001
 43
0.0000000001
 40
0.0
 40
0.0
 40
0.0
 40
0.0
 40
1.0
 40
1.0
 40
1.0
 40
2.0
 40
2.0
 40
2.0
 40
3.0
 40
3.0
 40
3.0
 40
4.0
 40
4.0
 40
4.0
 40
5.0
 40
5.0
 40
5.0
 40
6.0
 40
6.0
 40
6.0
 40
7.0
 40
7.0
 40
7.0
 40
8.0
 40
8.0
 40
8.0
 40
8.0
 10
102.729991293762
 20
-153.4321505692809
 30
0.0
 10
102.729991293762
 20
-153.4321505692809
 30
0.0
 10
102.6803819187744
 20
-153.1121011987011
 30
0.0
 10
102.6803819187744
 20
-153.1121011987011
 30
0.0
 10
102.6803819187744
 20
-153.1121011987011
 30
0.0
 10
102.6156141236517
 20
-152.9181423228816
 30
0.0
 10
102.4974473485076
 20
-152.9450140676665
 30
0.0
 10
102.3785915542665
 20
-152.972230322
 30
0.0
 10
102.3462076567051
 20
-153.0528455563548
 30
0.0
 10
102.3462076567051
 20
-153.1875487898281
 30
0.0
 10
102.3462076567051
 20
-153.3219075137529
 30
0.0
 10
102.3262261028907
 20
-154.6734184726164
 30
0.0
 10
102.3262261028907
 20
-154.6734184726164
 30
0.0
 10
102.3262261028907
 20
-154.6734184726164
 30
0.0
 10
102.3210584596628
 20
-154.9407578822718
 30
0.0
 10
102.4061523181485
 20
-155.2404811894885
 30
0.0
 10
102.4915906861827
 20
-155.5398599871567
 30
0.0
 10
102.5287977174234
 20
-155.6211642406086
 30
0.0
 10
102.5287977174234
 20
-155.6211642406086
 30
0.0
 10
102.5287977174234
 20
-155.6211642406086
 30
0.0
 10
102.5911539457064
 20
-155.7606906077612
 30
0.0
 10
102.729991293762
 20
-155.6852430166342
 30
0.0
 10
102.868484132269
 20
-155.6101399350558
 30
0.0
 10
102.8543592407795
 20
-155.2763101825351
 30
0.0
 10
102.8543592407795
 20
-155.2763101825351
 30
0.0
  0
SPLINE
  5
F7
330
3C
100
AcDbEntity
  8
\U+30EC\U+30A4\U+30E4\U+30FC 1
 62
     7
370
     9
100
AcDbSpline
210
0.0
220
0.0
230
1.0
 70
     8
 71
     3
 72
    11
 73
     7
 74
     0
 42
0.0000000001
 43
0.0000000001
 40
0.0
 40
0.0
 40
0.0
 40
0.0
 40
1.0
 40
1.0
 40
1.0
 40
2.0
 40
2.0
 40
2.0
 40
2.0
 10
102.7382595229266
 20
-153.7332519146917
 30
0.0
 10
102.7382595229266
 20
-153.7332519146917
 30
0.0
 10
102.8454019925178
 20
-153.8765678868781
 30
0.0
 10
102.8543592407795
 20
-154.1942056906181
 30
0.0
 10
102.8633164890411
 20
-154.5118434943581
 30
0.0
 10
102.854703750328
 20
-154.9748643275757
 30
0.0
 10
102.854703750328
 20
-154.9748643275757
 30
0.0
  0
SPLINE
  5
F8
330
3C
100
AcDbEntity
  8
\U+30EC\U+30A4\U+30E4\U+30FC 1
 62
     7
370
     9
100
AcDbSpline
210
0.0
220
0.0
230
1.0
 70
     8
 71
     3
 72
    17
 73
    13
 74
     0
 42
0.0000000001
 43
0.0000000001
 40
0.0
 40
0.0
 40
0.0
 40
0.0
 40
1.0
 40
1.0
 40
1.0
 40
2.0
 40
2.0
 40
2.0
 40
3.0
 40
3.0
 40
3.0
 40
4.0
 40
4.0
 40
4.0
 40
4.0
 10
102.690028186133
 20
-154.9748643275757
 30
0.0
 10
102.690028186133
 20
-154.9748643275757
 30
0.0
 10
103.3745686590522
 20
-154.8511853996553
 30
0.0
 10
103.4176323526178
 20
-155.4485649567976
 30
0.0
 10
103.4606960461834
 20
-156.0459445139399
 30
0.0
 10
103.4717203517362
 20
-156.2829670833251
 30
0.0
 10
103.4717203517362
 20
-156.2829670833251
 30
0.0
 10
103.4717203517362
 20
-156.2829670833251
 30
0.0
 10
103.5364881468589
 20
-156.8245360936064
 30
0.0
 10
103.0304036200757
 20
-156.992312243738
 30
0.0
 10
103.0304036200757
 20
-156.992312243738
 30
0.0
 10
102.7382595229266
 20
-157.074305516287
 30
0.0
 10
102.7382595229266
 20
-157.074305516287
 30
0.0
  0
SPLINE
  5
F9
330
3C
100
AcDbEntity
  8
\U+30EC\U+30A4\U+30E4\U+30FC 1
 62
     7
370
     9
100
AcDbSpline
210
0.0
220
0.0
230
1.0
 70
     8
 71
     3
 72
    17
 73
    13
 74
     0
 42
0.0000000001
 43
0.0000000001
 40
0.0
 40
0.0
 40
0.0
 40
0.0
 40
1.0
 40
1.0
 40
1.0
 40
2.0
 40
2.0
 40
2.0
 40
3.0
 40
3.0
 40
3.0
 40
4.0
 40
4.0
 40
4.0
 40
4.0
 10
102.4061523181485
 20
-155.2404811894885
 30
0.0
 10
102.4061523181485
 20
-155.2404811894885
 30
0.0
 10
102.05544159775
 20
-155.330053672105
 30
0.0
 10
102.0292588720621
 20
-155.5887803430473
 30
0.0
 10
102.0016981081801
 20
-155.847162504441
 30
0.0
 10
102.0072102609565
 20
-156.4858832074063
 30
0.0
 10
102.0072102609565
 20
-156.4858832074063
 30
0.0
 10
102.0072102609565
 20
-156.4858832074063
 30
0.0
 10
101.9913628217244
 20
-156.6981010892977
 30
0.0
 10
102.1739528824426
 20
-156.7459879165427
 30
0.0
 10
102.3572319622579
 20
-156.7942192533362
 30
0.0
 10
102.4061523181485
 20
-156.7728596613276
 30
0.0
 10
102.4061523181485
 20
-156.7728596613276
 30
0.0
  0
SPLINE
  5
FA
330
3C
100
AcDbEntity
  8
\U+30EC\U+30A4\U+30E4\U+30FC 1
 62
     7
370
     9
100
AcDbSpline
210
0.0
220
0.0
230
1.0
 70
     8
 71
     3
 72
    17
 73
    13
 74
     0
 42
0.0000000001
 43
0.0000000001
 40
0.0
 40
0.0
 40
0.0
 40
0.0
 40
1.0
 40
1.0
 40
1.0
 40
2.0
 40
2.0
 40
2.0
 40
3.0
 40
3.0
 40
3.0
 40
4.0
 40
4.0
 40
4.0
 40
4.0
 10
102.3482747139963
 20
-154.9641845315714
 30
0.0
 10
102.3482747139963
 20
-154.9641845315714
 30
0.0
 10
101.7974039459048
 20
-155.0554795619306
 30
0.0
 10
101.7598524051156
 20
-155.5240125479246
 30
0.0
 10
101.7226453738749
 20
-155.99220102437
 30
0.0
 10
101.7598524051156
 20
-156.5189561240647
 30
0.0
 10
101.7598524051156
 20
-156.5189561240647
 30
0.0
 10
101.7598524051156
 20
-156.5189561240647
 30
0.0
 10
101.7536512332422
 20
-156.9936902819321
 30
0.0
 10
102.1260660551977
 20
-157.0260741794935
 30
0.0
 10
102.4974473485076
 20
-157.0581135675063
 30
0.0
 10
102.4385362157098
 20
-157.074305516287
 30
0.0
 10
102.4385362157098
 20
-157.074305516287
 30
0.0
  0
SPLINE
  5
FB
330
3C
100
AcDbEntity
  8
\U+30EC\U+30A4\U+30E4\U+30FC 1
 62
     7
370
     9
100
AcDbSpline
210
0.0
220
0.0
230
1.0
 70
     8
 71
     3
 72
    29
 73
    25
 74
     0
 42
0.0000000001
 43
0.0000000001
 40
0.0
 40
0.0
 40
0.0
 40
0.0
 40
1.0
 40
1.0
 40
1.0
 40
2.0
 40
2.0
 40
2.0
 40
3.0
 40
3.0
 40
3.0
 40
4.0
 40
4.0
 40
4.0
 40
5.0
 40
5.0
 40
5.0
 40
6.0
 40
6.0
 40
6.0
 40
7.0
 40
7.0
 40
7.0
 40
8.0
 40
8.0
 40
8.0
 40
8.0
 10
102.7768445923613
 20
-156.7222167576944
 30
0.0
 10
102.7768445923613
 20
-156.7222167576944
 30
0.0
 10
102.690028186133
 20
-156.3529025216757
 30
0.0
 10
102.690028186133
 20
-156.3529025216757
 30
0.0
 10
102.690028186133
 20
-156.3529025216757
 30
0.0
 10
102.6528211548924
 20
-156.2023518489703
 30
0.0
 10
102.5129502781912
 20
-156.2023518489703
 30
0.0
 10
102.4061523181485
 20
-156.2023518489703
 30
0.0
 10
102.4054632990514
 20
-156.3746066232328
 30
0.0
 10
102.4061523181485
 20
-156.412158164022
 30
0.0
 10
102.4061523181485
 20
-156.412158164022
 30
0.0
 10
102.441292292098
 20
-158.1891384153138
 30
0.0
 10
102.441292292098
 20
-158.1891384153138
 30
0.0
 10
102.441292292098
 20
-158.1891384153138
 30
0.0
 10
102.5436116280099
 20
-158.8778130028153
 30
0.0
 10
102.5766845446683
 20
-158.9801323387272
 30
0.0
 10
102.6097574613267
 20
-159.0824516746391
 30
0.0
 10
102.6424858684366
 20
-159.1527316225382
 30
0.0
 10
102.7389485420236
 20
-159.1203477249769
 30
0.0
 10
102.8361002347076
 20
-159.0879638274155
 30
0.0
 10
102.9001790107333
 20
-158.9801323387272
 30
0.0
 10
102.8815754951129
 20
-158.7920301252325
 30
0.0
 10
102.8633164890411
 20
-158.6032388926409
 30
0.0
 10
102.8147406426991
 20
-157.074305516287
 30
0.0
 10
102.8147406426991
 20
-157.074305516287
 30
0.0
  0
SPLINE
  5
FC
330
3C
100
AcDbEntity
  8
\U+30EC\U+30A4\U+30E4\U+30FC 1
 62
     7
370
     9
100
AcDbSpline
210
0.0
220
0.0
230
1.0
 70
     8
 71
     3
 72
    20
 73
    16
 74
     0
 42
0.0000000001
 43
0.0000000001
 40
0.0
 40
0.0
 40
0.0
 40
0.0
 40
1.0
 40
1.0
 40
1.0
 40
2.0
 40
2.0
 40
2.0
 40
3.0
 40
3.0
 40
3.0
 40
4.0
 40
4.0
 40
4.0
 40
5.0
 40
5.0
 40
5.0
 40
5.0
 10
102.5115722399971
 20
-158.6366563188478
 30
0.0
 10
102.5115722399971
 20
-158.6366563188478
 30
0.0
 10
102.2438883207932
 20
-158.7003905853249
 30
0.0
 10
102.2438883207932
 20
-158.7003905853249
 30
0.0
 10
102.2438883207932
 20
-158.7003905853249
 30
0.0
 10
102.0768011897586
 20
-158.7644693613506
 30
0.0
 10
102.0664659033028
 20
-159.1282714445929
 30
0.0
 10
102.05544159775
 20
-159.4913845087383
 30
0.0
 10
102.0664659033028
 20
-159.8899820563817
 30
0.0
 10
102.0664659033028
 20
-159.8899820563817
 30
0.0
 10
102.0664659033028
 20
-159.8899820563817
 30
0.0
 10
102.0874809857629
 20
-160.0894530849776
 30
0.0
 10
102.2438883207932
 20
-160.1590440137797
 30
0.0
 10
102.4002956558235
 20
-160.2293239616788
 30
0.0
 10
102.4061523181485
 20
-160.191427911341
 30
0.0
 10
102.4061523181485
 20
-160.191427911341
 30
0.0
  0
SPLINE
  5
FD
330
3C
100
AcDbEntity
  8
\U+30EC\U+30A4\U+30E4\U+30FC 1
 62
     7
370
     9
100
AcDbSpline
210
0.0
220
0.0
230
1.0
 70
     8
 71
     3
 72
    17
 73
    13
 74
     0
 42
0.0000000001
 43
0.0000000001
 40
0.0
 40
0.0
 40
0.0
 40
0.0
 40
1.0
 40
1.0
 40
1.0
 40
2.0
 40
2.0
 40
2.0
 40
3.0
 40
3.0
 40
3.0
 40
4.0
 40
4.0
 40
4.0
 40
4.0
 10
102.8850205905982
 20
-158.6624945349872
 30
0.0
 10
102.8850205905982
 20
-158.6624945349872
 30
0.0
 10
103.1971462415618
 20
-158.695222942097
 30
0.0
 10
103.213682699891
 20
-159.1578992657661
 30
0.0
 10
103.2291856295747
 20
-159.6209200989837
 30
0.0
 10
103.213682699891
 20
-159.9330457499473
 30
0.0
 10
103.213682699891
 20
-159.9330457499473
 30
0.0
 10
103.213682699891
 20
-159.9330457499473
 30
0.0
 10
103.1489149047683
 20
-160.2010741786997
 30
0.0
 10
102.965635824953
 20
-160.2017631977968
 30
0.0
 10
102.7823567451377
 20
-160.2021077073453
 30
0.0
 10
102.8044053562434
 20
-160.1755804721089
 30
0.0
 10
102.8044053562434
 20
-160.1755804721089
 30
0.0
  0
SPLINE
  5
FE
330
3C
100
AcDbEntity
  8
\U+30EC\U+30A4\U+30E4\U+30FC 1
 62
     7
370
     9
100
AcDbSpline
210
0.0
220
0.0
230
1.0
 70
     8
 71
     3
 72
    14
 73
    10
 74
     0
 42
0.0000000001
 43
0.0000000001
 40
0.0
 40
0.0
 40
0.0
 40
0.0
 40
1.0
 40
1.0
 40
1.0
 40
2.0
 40
2.0
 40
2.0
 40
3.0
 40
3.0
 40
3.0
 40
3.0
 10
102.4592067886213
 20
-158.3083387191035
 30
0.0
 10
102.4592067886213
 20
-158.3083387191035
 30
0.0
 10
101.7756998443477
 20
-158.3234971392386
 30
0.0
 10
101.7598524051156
 20
-158.9050292571488
 30
0.0
 10
101.7436604563349
 20
-159.4862168655104
 30
0.0
 10
101.7598524051156
 20
-160.0301974426313
 30
0.0
 10
101.7598524051156
 20
-160.0301974426313
 30
0.0
 10
101.7598524051156
 20
-160.0301974426313
 30
0.0
 10
101.7991264936474
 20
-160.5145778678575
 30
0.0
 10
102.4061523181485
 20
-160.5252576638617
 30
0.0
  0
SPLINE
  5
FF
330
3C
100
AcDbEntity
  8
\U+30EC\U+30A4\U+30E4\U+30FC 1
 62
     7
370
     9
100
AcDbSpline
210
0.0
220
0.0
230
1.0
 70
     8
 71
     3
 72
    14
 73
    10
 74
     0
 42
0.0000000001
 43
0.0000000001
 40
0.0
 40
0.0
 40
0.0
 40
0.0
 40
1.0
 40
1.0
 40
1.0
 40
2.0
 40
2.0
 40
2.0
 40
3.0
 40
3.0
 40
3.0
 40
3.0
 10
102.8598713935559
 20
-158.3517469222176
 30
0.0
 10
102.8598713935559
 20
-158.3517469222176
 30
0.0
 10
103.5037597397491
 20
-158.3827527815849
 30
0.0
 10
103.5254638413061
 20
-159.0235405418414
 30
0.0
 10
103.5471679428632
 20
-159.6639837925493
 30
0.0
 10
103.5254638413061
 20
-159.9220214443945
 30
0.0
 10
103.5254638413061
 20
-159.9220214443945
 30
0.0
 10
103.5254638413061
 20
-159.9220214443945
 30
0.0
 10
103.516162083496
 20
-160.5180229633427
 30
0.0
 10
102.8002712416611
 20
-160.5559190136805
 30
0.0
  0
SPLINE
  5
100
330
3C
100
AcDbEntity
  8
\U+30EC\U+30A4\U+30E4\U+30FC 1
 62
     7
370
     9
100
AcDbSpline
210
0.0
220
0.0
230
1.0
 70
     8
 71
     3
 72
    26
 73
    22
 74
     0
 42
0.0000000001
 43
0.0000000001
 40
0.0
 40
0.0
 40
0.0
 40
0.0
 40
1.0
 40
1.0
 40
1.0
 40
2.0
 40
2.0
 40
2.0
 40
3.0
 40
3.0
 40
3.0
 40
4.0
 40
4.0
 40
4.0
 40
5.0
 40
5.0
 40
5.0
 40
6.0
 40
6.0
 40
6.0
 40
7.0
 40
7.0
 40
7.0
 40
7.0
 10
102.5839192451874
 20
-162.6622503933622
 30
0.0
 10
102.5129502781912
 20
-162.6677625461386
 30
0.0
 10
102.5115722399971
 20
-162.479660332644
 30
0.0
 10
102.5115722399971
 20
-162.479660332644
 30
0.0
 10
102.5115722399971
 20
-162.479660332644
 30
0.0
 10
102.4223442669291
 20
-159.8524305155925
 30
0.0
 10
102.4223442669291
 20
-159.8524305155925
 30
0.0
 10
102.4223442669291
 20
-159.8524305155925
 30
0.0
 10
102.427511910157
 20
-159.68017574133
 30
0.0
 10
102.5839192451874
 20
-159.6694959453257
 30
0.0
 10
102.7389485420236
 20
-159.6588161493214
 30
0.0
 10
102.7609971531292
 20
-159.7394313836762
 30
0.0
 10
102.7716769491335
 20
-159.8524305155925
 30
0.0
 10
102.7823567451377
 20
-159.9654296475086
 30
0.0
 10
102.8471245402605
 20
-161.913975653966
 30
0.0
 10
102.8471245402605
 20
-161.913975653966
 30
0.0
 10
102.8471245402605
 20
-161.913975653966
 30
0.0
 10
102.8471245402605
 20
-162.479660332644
 30
0.0
 10
102.8471245402605
 20
-162.479660332644
 30
0.0
 10
102.8471245402605
 20
-162.479660332644
 30
0.0
 10
102.8850205905982
 20
-162.6467474636786
 30
0.0
 10
102.7716769491335
 20
-162.6629394124593
 30
0.0
  0
SPLINE
  5
101
330
3C
100
AcDbEntity
  8
\U+30EC\U+30A4\U+30E4\U+30FC 1
 62
     7
370
     9
100
AcDbSpline
210
0.0
220
0.0
230
1.0
 70
     8
 71
     3
 72
    17
 73
    13
 74
     0
 42
0.0000000001
 43
0.0000000001
 40
0.0
 40
0.0
 40
0.0
 40
0.0
 40
1.0
 40
1.0
 40
1.0
 40
2.0
 40
2.0
 40
2.0
 40
3.0
 40
3.0
 40
3.0
 40
4.0
 40
4.0
 40
4.0
 40
4.0
 10
102.3289821792789
 20
-166.8022216379869
 30
0.0
 10
102.3289821792789
 20
-166.8022216379869
 30
0.0
 10
102.2869520143588
 20
-163.2527397595341
 30
0.0
 10
102.2869520143588
 20
-163.2527397595341
 30
0.0
 10
102.2869520143588
 20
-163.2527397595341
 30
0.0
 10
102.2587022313798
 20
-162.6629394124593
 30
0.0
 10
102.6790038805803
 20
-162.6629394124593
 30
0.0
 10
103.0841471096456
 20
-162.6629394124593
 30
0.0
 10
103.0066324612275
 20
-163.0219183620223
 30
0.0
 10
103.020757352717
 20
-163.2248344861035
 30
0.0
 10
103.034537734658
 20
-163.4270615910877
 30
0.0
 10
102.9856173787675
 20
-166.8022216379869
 30
0.0
 10
102.9856173787675
 20
-166.8022216379869
 30
0.0
  0
POLYLINE
  5
102
330
3C
100
AcDbEntity
  8
\U+30EC\U+30A4\U+30E4\U+30FC 1
 62
     7
370
     9
100
AcDb2dPolyline
 66
     1
 10
0.0
 20
0.0
 30
0.0
  0
VERTEX
  5
103
330
102
100
AcDbEntity
  8
\U+30EC\U+30A4\U+30E4\U+30FC 1
 62
     7
370
     9
100
AcDbVertex
100
AcDb2dVertex
 10
103.4107421616473
 20
-167.4030462906145
 30
0.0
  0
VERTEX
  5
104
330
102
100
AcDbEntity
  8
\U+30EC\U+30A4\U+30E4\U+30FC 1
 62
     7
370
     9
100
AcDbVertex
100
AcDb2dVertex
 10
103.4107421616473
 20
-167.0189181440092
 30
0.0
  0
VERTEX
  5
105
330
102
100
AcDbEntity
  8
\U+30EC\U+30A4\U+30E4\U+30FC 1
 62
     7
370
     9
100
AcDbVertex
100
AcDb2dVertex
 10
102.8250759291548
 20
-166.6902560347163
 30
0.0
  0
VERTEX
  5
106
330
102
100
AcDbEntity
  8
\U+30EC\U+30A4\U+30E4\U+30FC 1
 62
     7
370
     9
100
AcDbVertex
100
AcDb2dVertex
 10
102.0285698529651
 20
-166.8859374582785
 30
0.0
  0
VERTEX
  5
107
330
102
100
AcDbEntity
  8
\U+30EC\U+30A4\U+30E4\U+30FC 1
 62
     7
370
     9
100
AcDbVertex
100
AcDb2dVertex
 10
101.8542480214114
 20
-167.2070203575038
 30
0.0
  0
SEQEND
  5
108
330
102
100
AcDbEntity
  8
\U+30EC\U+30A4\U+30E4\U+30FC 1
370
     9
  0
POLYLINE
  5
109
330
3C
100
AcDbEntity
  8
\U+30EC\U+30A4\U+30E4\U+30FC 1
 62
     7
370
     9
100
AcDb2dPolyline
 66
     1
 10
0.0
 20
0.0
 30
0.0
  0
VERTEX
  5
10A
330
109
100
AcDbEntity
  8
\U+30EC\U+30A4\U+30E4\U+30FC 1
 62
     7
370
     9
100
AcDbVertex
100
AcDb2dVertex
 10
102.7971706557243
 20
-166.6971462256868
 30
0.0
  0
VERTEX
  5
10B
330
109
100
AcDbEntity
  8
\U+30EC\U+30A4\U+30E4\U+30FC 1
 62
     7
370
     9
100
AcDbVertex
100
AcDb2dVertex
 10
102.7971706557243
 20
-167.168435288069
 30
0.0
  0
SEQEND
  5
10C
330
109
100
AcDbEntity
  8
\U+30EC\U+30A4\U+30E4\U+30FC 1
370
     9
  0
POLYLINE
  5
10D
330
3C
100
AcDbEntity
  8
\U+30EC\U+30A4\U+30E4\U+30FC 1
 62
     7
370
     9
100
AcDb2dPolyline
 66
     1
 10
0.0
 20
0.0
 30
0.0
  0
VERTEX
  5
10E
330
10D
100
AcDbEntity
  8
\U+30EC\U+30A4\U+30E4\U+30FC 1
 62
     7
370
     9
100
AcDbVertex
100
AcDb2dVertex
 10
102.0285698529651
 20
-166.8859374582785
 30
0.0
  0
VERTEX
  5
10F
330
10D
100
AcDbEntity
  8
\U+30EC\U+30A4\U+30E4\U+30FC 1
 62
     7
370
     9
100
AcDbVertex
100
AcDb2dVertex
 10
102.0285698529651
 20
-167.4185492202982
 30
0.0
  0
SEQEND
  5
110
330
10D
100
AcDbEntity
  8
\U+30EC\U+30A4\U+30E4\U+30FC 1
370
     9
  0
SPLINE
  5
111
330
3C
100
AcDbEntity
  8
\U+30EC\U+30A4\U+30E4\U+30FC 1
 62
     7
370
     9
100
AcDbSpline
210
0.0
220
0.0
230
1.0
 70
     8
 71
     3
 72
    14
 73
    10
 74
     0
 42
0.0000000001
 43
0.0000000001
 40
0.0
 40
0.0
 40
0.0
 40
0.0
 40
1.0
 40
1.0
 40
1.0
 40
2.0
 40
2.0
 40
2.0
 40
3.0
 40
3.0
 40
3.0
 40
3.0
 10
102.5026149917355
 20
-162.2285128717693
 30
0.0
 10
102.5026149917355
 20
-162.2285128717693
 30
0.0
 10
102.0816243234379
 20
-162.1740803631023
 30
0.0
 10
102.0420057253576
 20
-162.6112629801805
 30
0.0
 10
102.0016981081801
 20
-163.0481010877102
 30
0.0
 10
102.0420057253576
 20
-163.3102728541377
 30
0.0
 10
102.0420057253576
 20
-163.3102728541377
 30
0.0
 10
102.0420057253576
 20
-163.3102728541377
 30
0.0
 10
102.0399386680664
 20
-163.6565049504053
 30
0.0
 10
102.2931531862323
 20
-163.7519340953467
 30
0.0
  0
SPLINE
  5
112
330
3C
100
AcDbEntity
  8
\U+30EC\U+30A4\U+30E4\U+30FC 1
 62
     7
370
     9
100
AcDbSpline
210
0.0
220
0.0
230
1.0
 70
     8
 71
     3
 72
    14
 73
    10
 74
     0
 42
0.0000000001
 43
0.0000000001
 40
0.0
 40
0.0
 40
0.0
 40
0.0
 40
1.0
 40
1.0
 40
1.0
 40
2.0
 40
2.0
 40
2.0
 40
3.0
 40
3.0
 40
3.0
 40
3.0
 10
102.4915906861827
 20
-161.8981282147338
 30
0.0
 10
102.4915906861827
 20
-161.8981282147338
 30
0.0
 10
101.7457275136261
 20
-161.8984727242823
 30
0.0
 10
101.7529622141451
 20
-162.5775010444251
 30
0.0
 10
101.7598524051156
 20
-163.2561848550193
 30
0.0
 10
101.77983395893
 20
-163.5941487221223
 30
0.0
 10
101.77983395893
 20
-163.5941487221223
 30
0.0
 10
101.77983395893
 20
-163.5941487221223
 30
0.0
 10
101.77983395893
 20
-164.0478677975297
 30
0.0
 10
102.2869520143588
 20
-164.0478677975297
 30
0.0
  0
SPLINE
  5
113
330
3C
100
AcDbEntity
  8
\U+30EC\U+30A4\U+30E4\U+30FC 1
 62
     7
370
     9
100
AcDbSpline
210
0.0
220
0.0
230
1.0
 70
     8
 71
     3
 72
    14
 73
    10
 74
     0
 42
0.0000000001
 43
0.0000000001
 40
0.0
 40
0.0
 40
0.0
 40
0.0
 40
1.0
 40
1.0
 40
1.0
 40
2.0
 40
2.0
 40
2.0
 40
3.0
 40
3.0
 40
3.0
 40
3.0
 10
102.8533257121339
 20
-162.2261013049296
 30
0.0
 10
102.8533257121339
 20
-162.2261013049296
 30
0.0
 10
103.2040364325323
 20
-162.2009521078873
 30
0.0
 10
103.2312526868658
 20
-162.60437278921
 30
0.0
 10
103.2588134507478
 20
-163.0077934705328
 30
0.0
 10
103.2653591321698
 20
-163.4112141518555
 30
0.0
 10
103.2653591321698
 20
-163.4112141518555
 30
0.0
 10
103.2653591321698
 20
-163.4112141518555
 30
0.0
 10
103.2853406859842
 20
-163.7943087698153
 30
0.0
 10
103.0231689195567
 20
-163.8074001326593
 30
0.0
  0
SPLINE
  5
114
330
3C
100
AcDbEntity
  8
\U+30EC\U+30A4\U+30E4\U+30FC 1
 62
     7
370
     9
100
AcDbSpline
210
0.0
220
0.0
230
1.0
 70
     8
 71
     3
 72
    17
 73
    13
 74
     0
 42
0.0000000001
 43
0.0000000001
 40
0.0
 40
0.0
 40
0.0
 40
0.0
 40
1.0
 40
1.0
 40
1.0
 40
2.0
 40
2.0
 40
2.0
 40
3.0
 40
3.0
 40
3.0
 40
4.0
 40
4.0
 40
4.0
 40
4.0
 10
102.8454019925178
 20
-161.8512749161344
 30
0.0
 10
102.8454019925178
 20
-161.8512749161344
 30
0.0
 10
103.2653591321698
 20
-161.9387803414598
 30
0.0
 10
103.2653591321698
 20
-161.9387803414598
 30
0.0
 10
103.2653591321698
 20
-161.9387803414598
 30
0.0
 10
103.5347655991163
 20
-162.0504014351818
 30
0.0
 10
103.5767957640364
 20
-162.5775010444251
 30
0.0
 10
103.6181369098594
 20
-163.0797959661745
 30
0.0
 10
103.5767957640364
 20
-163.5941487221223
 30
0.0
 10
103.5767957640364
 20
-163.5941487221223
 30
0.0
 10
103.5767957640364
 20
-163.5941487221223
 30
0.0
 10
103.5767957640364
 20
-164.0947210961291
 30
0.0
 10
103.0197238240715
 20
-164.0947210961291
 30
0.0
  0
SPLINE
  5
115
330
3C
100
AcDbEntity
  8
\U+30EC\U+30A4\U+30E4\U+30FC 1
 62
     7
370
     9
100
AcDbSpline
210
0.0
220
0.0
230
1.0
 70
     8
 71
     3
 72
     8
 73
     4
 74
     0
 42
0.0000000001
 43
0.0000000001
 40
0.0
 40
0.0
 40
0.0
 40
0.0
 40
1.0
 40
1.0
 40
1.0
 40
1.0
 10
102.0795572661468
 20
-148.8472452427361
 30
0.0
 10
102.0795572661468
 20
-148.8472452427361
 30
0.0
 10
102.0044541845683
 20
-148.6439846091064
 30
0.0
 10
101.6995632341237
 20
-148.6191799216126
 30
0.0
  0
SPLINE
  5
116
330
3C
100
AcDbEntity
  8
\U+30EC\U+30A4\U+30E4\U+30FC 1
 62
     7
370
     9
100
AcDbSpline
210
0.0
220
0.0
230
1.0
 70
     8
 71
     3
 72
    11
 73
     7
 74
     0
 42
0.0000000001
 43
0.0000000001
 40
0.0
 40
0.0
 40
0.0
 40
0.0
 40
1.0
 40
1.0
 40
1.0
 40
2.0
 40
2.0
 40
2.0
 40
2.0
 10
101.6995632341237
 20
-148.6191799216126
 30
0.0
 10
101.6995632341237
 20
-148.6191799216126
 30
0.0
 10
101.5786403825915
 20
-148.6836032071867
 30
0.0
 10
101.6496093495876
 20
-148.8472452427361
 30
0.0
 10
101.6496093495876
 20
-148.8472452427361
 30
0.0
 10
101.9293511029899
 20
-148.9693738776882
 30
0.0
 10
101.8890434858125
 20
-149.0710041945031
 30
0.0
  0
POLYLINE
  5
117
330
3C
100
AcDbEntity
  8
\U+30EC\U+30A4\U+30E4\U+30FC 1
 62
     7
370
     9
100
AcDb2dPolyline
 66
     1
 10
0.0
 20
0.0
 30
0.0
  0
VERTEX
  5
118
330
117
100
AcDbEntity
  8
\U+30EC\U+30A4\U+30E4\U+30FC 1
 62
     7
370
     9
100
AcDbVertex
100
AcDb2dVertex
 10
102.220806181042
 20
-148.4880940383988
 30
0.0
  0
VERTEX
  5
119
330
117
100
AcDbEntity
  8
\U+30EC\U+30A4\U+30E4\U+30FC 1
 62
     7
370
     9
100
AcDbVertex
100
AcDb2dVertex
 10
102.1250325265521
 20
-148.5309854771902
 30
0.0
  0
VERTEX
  5
11A
330
117
100
AcDbEntity
  8
\U+30EC\U+30A4\U+30E4\U+30FC 1
 62
     7
370
     9
100
AcDbVertex
100
AcDb2dVertex
 10
102.0564751263956
 20
-148.8057318421388
 30
0.0
  0
SEQEND
  5
11B
330
117
100
AcDbEntity
  8
\U+30EC\U+30A4\U+30E4\U+30FC 1
370
     9
  0
POLYLINE
  5
11C
330
3C
100
AcDbEntity
  8
\U+30EC\U+30A4\U+30E4\U+30FC 1
 62
     7
370
     9
100
AcDb2dPolyline
 66
     1
 10
0.0
 20
0.0
 30
0.0
  0
VERTEX
  5
11D
330
11C
100
AcDbEntity
  8
\U+30EC\U+30A4\U+30E4\U+30FC 1
 62
     7
370
     9
100
AcDbVertex
100
AcDb2dVertex
 10
102.8939778388598
 20
-148.2724310610222
 30
0.0
  0
VERTEX
  5
11E
330
11C
100
AcDbEntity
  8
\U+30EC\U+30A4\U+30E4\U+30FC 1
 62
     7
370
     9
100
AcDbVertex
100
AcDb2dVertex
 10
103.1881889933002
 20
-148.3072265254232
 30
0.0
  0
VERTEX
  5
11F
330
11C
100
AcDbEntity
  8
\U+30EC\U+30A4\U+30E4\U+30FC 1
 62
     7
370
     9
100
AcDbVertex
100
AcDb2dVertex
 10
103.3194471312882
 20
-149.0038248325407
 30
0.0
  0
SEQEND
  5
120
330
11C
100
AcDbEntity
  8
\U+30EC\U+30A4\U+30E4\U+30FC 1
370
     9
  0
SPLINE
  5
121
330
3C
100
AcDbEntity
  8
\U+30EC\U+30A4\U+30E4\U+30FC 1
 62
     7
370
     9
100
AcDbSpline
210
0.0
220
0.0
230
1.0
 70
     8
 71
     3
 72
     8
 73
     4
 74
     0
 42
0.0000000001
 43
0.0000000001
 40
0.0
 40
0.0
 40
0.0
 40
0.0
 40
1.0
 40
1.0
 40
1.0
 40
1.0
 10
103.3383951564571
 20
-149.3410996805467
 30
0.0
 10
103.3383951564571
 20
-149.3410996805467
 30
0.0
 10
103.4672417276054
 20
-149.890592410444
 30
0.0
 10
103.5971218273993
 20
-150.0380424972127
 30
0.0
  0
SPLINE
  5
122
330
3C
100
AcDbEntity
  8
\U+30EC\U+30A4\U+30E4\U+30FC 1
 62
     7
370
     9
100
AcDbSpline
210
0.0
220
0.0
230
1.0
 70
     8
 71
     3
 72
    11
 73
     7
 74
     0
 42
0.0000000001
 43
0.0000000001
 40
0.0
 40
0.0
 40
0.0
 40
0.0
 40
1.0
 40
1.0
 40
1.0
 40
2.0
 40
2.0
 40
2.0
 40
2.0
 10
103.8737629948649
 20
-150.0380424972127
 30
0.0
 10
103.8737629948649
 20
-150.0380424972127
 30
0.0
 10
104.3546983246058
 20
-149.9701741161533
 30
0.0
 10
104.3726128211291
 20
-149.5302354226869
 30
0.0
 10
104.3898382985553
 20
-149.089952219672
 30
0.0
 10
104.3829481075848
 20
-148.4880940383988
 30
0.0
 10
104.3829481075848
 20
-148.4880940383988
 30
0.0
  0
SPLINE
  5
123
330
3C
100
AcDbEntity
  8
\U+30EC\U+30A4\U+30E4\U+30FC 1
 62
     7
370
     9
100
AcDbSpline
210
0.0
220
0.0
230
1.0
 70
     8
 71
     3
 72
    20
 73
    16
 74
     0
 42
0.0000000001
 43
0.0000000001
 40
0.0
 40
0.0
 40
0.0
 40
0.0
 40
1.0
 40
1.0
 40
1.0
 40
2.0
 40
2.0
 40
2.0
 40
3.0
 40
3.0
 40
3.0
 40
4.0
 40
4.0
 40
4.0
 40
5.0
 40
5.0
 40
5.0
 40
5.0
 10
103.1881889933002
 20
-147.2804158160445
 30
0.0
 10
103.1881889933002
 20
-147.2804158160445
 30
0.0
 10
103.3004991061193
 20
-147.4549099023724
 30
0.0
 10
103.3383951564571
 20
-147.5181274045267
 30
0.0
 10
103.3762912067948
 20
-147.5810003971325
 30
0.0
 10
103.5237412935635
 20
-147.8600531314378
 30
0.0
 10
103.7535291624297
 20
-147.7274169552556
 30
0.0
 10
103.9840060503929
 20
-147.5946085242993
 30
0.0
 10
103.7535291624297
 20
-147.3770507444058
 30
0.0
 10
103.7535291624297
 20
-147.3770507444058
 30
0.0
 10
103.7535291624297
 20
-147.3770507444058
 30
0.0
 10
103.3907606078329
 20
-146.7004339911027
 30
0.0
 10
103.3907606078329
 20
-146.7004339911027
 30
0.0
 10
103.3907606078329
 20
-146.7004339911027
 30
0.0
 10
103.1571831339329
 20
-146.7004339911027
 30
0.0
 10
103.1571831339329
 20
-146.7004339911027
 30
0.0
  0
SPLINE
  5
124
330
3C
100
AcDbEntity
  8
\U+30EC\U+30A4\U+30E4\U+30FC 1
 62
     7
370
     9
100
AcDbSpline
210
0.0
220
0.0
230
1.0
 70
     8
 71
     3
 72
    11
 73
     7
 74
     0
 42
0.0000000001
 43
0.0000000001
 40
0.0
 40
0.0
 40
0.0
 40
0.0
 40
1.0
 40
1.0
 40
1.0
 40
2.0
 40
2.0
 40
2.0
 40
2.0
 10
103.0434949829197
 20
-147.073365577381
 30
0.0
 10
103.0434949829197
 20
-147.073365577381
 30
0.0
 10
103.088970243325
 20
-147.3548298785259
 30
0.0
 10
103.3976507988034
 20
-147.3222737261903
 30
0.0
 10
103.7073648829273
 20
-147.2895453190804
 30
0.0
 10
103.5971218273993
 20
-147.0843898829338
 30
0.0
 10
103.5971218273993
 20
-147.0843898829338
 30
0.0
  0
SPLINE
  5
125
330
3C
100
AcDbEntity
  8
\U+30EC\U+30A4\U+30E4\U+30FC 1
 62
     7
370
     9
100
AcDbSpline
210
0.0
220
0.0
230
1.0
 70
     8
 71
     3
 72
    20
 73
    16
 74
     0
 42
0.0000000001
 43
0.0000000001
 40
0.0
 40
0.0
 40
0.0
 40
0.0
 40
1.0
 40
1.0
 40
1.0
 40
2.0
 40
2.0
 40
2.0
 40
3.0
 40
3.0
 40
3.0
 40
4.0
 40
4.0
 40
4.0
 40
5.0
 40
5.0
 40
5.0
 40
5.0
 10
103.1668294012916
 20
-141.341243454248
 30
0.0
 10
103.1668294012916
 20
-141.341243454248
 30
0.0
 10
103.4538058552129
 20
-141.3551960909633
 30
0.0
 10
103.4817111286435
 20
-141.8862575600145
 30
0.0
 10
103.5099609116225
 20
-142.4174912838401
 30
0.0
 10
103.4817111286435
 20
-143.5490328959704
 30
0.0
 10
103.4817111286435
 20
-143.5490328959704
 30
0.0
 10
103.4817111286435
 20
-143.5490328959704
 30
0.0
 10
103.4575954602467
 20
-143.9054280239195
 30
0.0
 10
103.0434949829197
 20
-143.9683010165253
 30
0.0
 10
103.0434949829197
 20
-143.9683010165253
 30
0.0
 10
102.9298068319064
 20
-143.9335055521243
 30
0.0
 10
102.9856173787675
 20
-144.8207898943504
 30
0.0
 10
103.0417724351771
 20
-145.7082464913507
 30
0.0
 10
103.1075737589453
 20
-146.3276746595986
 30
0.0
 10
103.1075737589453
 20
-146.3276746595986
 30
0.0
  0
SPLINE
  5
126
330
3C
100
AcDbEntity
  8
\U+30EC\U+30A4\U+30E4\U+30FC 1
 62
     7
370
     9
100
AcDbSpline
210
0.0
220
0.0
230
1.0
 70
     8
 71
     3
 72
    17
 73
    13
 74
     0
 42
0.0000000001
 43
0.0000000001
 40
0.0
 40
0.0
 40
0.0
 40
0.0
 40
1.0
 40
1.0
 40
1.0
 40
2.0
 40
2.0
 40
2.0
 40
3.0
 40
3.0
 40
3.0
 40
4.0
 40
4.0
 40
4.0
 40
4.0
 10
103.2743163804314
 20
-143.8844129414595
 30
0.0
 10
103.2743163804314
 20
-143.8844129414595
 30
0.0
 10
103.1372015801185
 20
-143.5908908061162
 30
0.0
 10
102.9704589586324
 20
-143.6050156976057
 30
0.0
 10
102.8044053562434
 20
-143.6193128438695
 30
0.0
 10
102.6500650785042
 20
-143.5771104241752
 30
0.0
 10
102.6576442885717
 20
-144.2476982603791
 30
0.0
 10
102.6645344795422
 20
-144.9186306061315
 30
0.0
 10
102.7410155993147
 20
-145.9320054431177
 30
0.0
 10
102.745149713897
 20
-146.0644693645256
 30
0.0
 10
102.7479057902852
 20
-146.1972777954819
 30
0.0
 10
102.7861463501715
 20
-146.3838297160082
 30
0.0
 10
102.7861463501715
 20
-146.3838297160082
 30
0.0
  0
SPLINE
  5
127
330
3C
100
AcDbEntity
  8
\U+30EC\U+30A4\U+30E4\U+30FC 1
 62
     7
370
     9
100
AcDbSpline
210
0.0
220
0.0
230
1.0
 70
     8
 71
     3
 72
    14
 73
    10
 74
     0
 42
0.0000000001
 43
0.0000000001
 40
0.0
 40
0.0
 40
0.0
 40
0.0
 40
1.0
 40
1.0
 40
1.0
 40
2.0
 40
2.0
 40
2.0
 40
3.0
 40
3.0
 40
3.0
 40
3.0
 10
103.2322862155114
 20
-141.005863408759
 30
0.0
 10
103.2322862155114
 20
-141.005863408759
 30
0.0
 10
103.7332030990667
 20
-140.9991454725627
 30
0.0
 10
103.7824679645058
 20
-141.7534491290582
 30
0.0
 10
103.8317328299449
 20
-142.5080972951021
 30
0.0
 10
103.8317328299449
 20
-143.4792697123941
 30
0.0
 10
103.8317328299449
 20
-143.4792697123941
 30
0.0
 10
103.8317328299449
 20
-143.4792697123941
 30
0.0
 10
103.9257839366922
 20
-144.3178059535039
 30
0.0
 10
102.9704589586324
 20
-144.3875691370802
 30
0.0
  0
SPLINE
  5
128
330
3C
100
AcDbEntity
  8
\U+30EC\U+30A4\U+30E4\U+30FC 1
 62
     7
370
     9
100
AcDbSpline
210
0.0
220
0.0
230
1.0
 70
     8
 71
     3
 72
    14
 73
    10
 74
     0
 42
0.0000000001
 43
0.0000000001
 40
0.0
 40
0.0
 40
0.0
 40
0.0
 40
1.0
 40
1.0
 40
1.0
 40
2.0
 40
2.0
 40
2.0
 40
3.0
 40
3.0
 40
3.0
 40
3.0
 10
102.8106065281168
 20
-140.9848483262989
 30
0.0
 10
102.8106065281168
 20
-140.9848483262989
 30
0.0
 10
102.1191758642272
 20
-141.005863408759
 30
0.0
 10
102.1191758642272
 20
-141.7744642115182
 30
0.0
 10
102.1195203737757
 20
-142.6899983367233
 30
0.0
 10
102.1191758642272
 20
-143.1928100227956
 30
0.0
 10
102.2593912504768
 20
-143.7097466003573
 30
0.0
 10
102.3985731080809
 20
-144.2268554326933
 30
0.0
 10
102.5801296401536
 20
-144.2339178784381
 30
0.0
 10
102.6569552694747
 20
-144.3386487811896
 30
0.0
  0
SPLINE
  5
129
330
3C
100
AcDbEntity
  8
\U+30EC\U+30A4\U+30E4\U+30FC 1
 62
     7
370
     9
100
AcDbSpline
210
0.0
220
0.0
230
1.0
 70
     8
 71
     3
 72
    11
 73
     7
 74
     0
 42
0.0000000001
 43
0.0000000001
 40
0.0
 40
0.0
 40
0.0
 40
0.0
 40
1.0
 40
1.0
 40
1.0
 40
2.0
 40
2.0
 40
2.0
 40
2.0
 10
103.1075737589453
 20
-144.3875691370802
 30
0.0
 10
103.1075737589453
 20
-144.3875691370802
 30
0.0
 10
103.2743163804314
 20
-144.5474215675958
 30
0.0
 10
103.2743163804314
 20
-145.5545952327086
 30
0.0
 10
103.2743163804314
 20
-146.3111382012694
 30
0.0
 10
103.2743163804314
 20
-146.3111382012694
 30
0.0
 10
103.2743163804314
 20
-146.3111382012694
 30
0.0
  0
SPLINE
  5
12A
330
3C
100
AcDbEntity
  8
\U+30EC\U+30A4\U+30E4\U+30FC 1
 62
     7
370
     9
100
AcDbSpline
210
0.0
220
0.0
230
1.0
 70
     8
 71
     3
 72
    11
 73
     7
 74
     0
 42
0.0000000001
 43
0.0000000001
 40
0.0
 40
0.0
 40
0.0
 40
0.0
 40
1.0
 40
1.0
 40
1.0
 40
2.0
 40
2.0
 40
2.0
 40
2.0
 10
103.4221109767486
 20
-144.2687133428391
 30
0.0
 10
103.4221109767486
 20
-144.2687133428391
 30
0.0
 10
103.5895426173318
 20
-144.5413926504966
 30
0.0
 10
103.6160698525682
 20
-145.6241861615106
 30
0.0
 10
103.6422525782561
 20
-146.7073241820732
 30
0.0
 10
103.6160698525682
 20
-146.3025254625563
 30
0.0
 10
103.6160698525682
 20
-146.3025254625563
 30
0.0
  0
SPLINE
  5
12B
330
3C
100
AcDbEntity
  8
\U+30EC\U+30A4\U+30E4\U+30FC 1
 62
     7
370
     9
100
AcDbSpline
210
0.0
220
0.0
230
1.0
 70
     8
 71
     3
 72
    20
 73
    16
 74
     0
 42
0.0000000001
 43
0.0000000001
 40
0.0
 40
0.0
 40
0.0
 40
0.0
 40
1.0
 40
1.0
 40
1.0
 40
2.0
 40
2.0
 40
2.0
 40
3.0
 40
3.0
 40
3.0
 40
4.0
 40
4.0
 40
4.0
 40
5.0
 40
5.0
 40
5.0
 40
5.0
 10
102.6924397529727
 20
-138.3509005730512
 30
0.0
 10
102.6924397529727
 20
-138.3509005730512
 30
0.0
 10
102.7761555732643
 20
-138.0711588196489
 30
0.0
 10
102.9298068319064
 20
-138.0782212653936
 30
0.0
 10
103.0841471096456
 20
-138.0852837111384
 30
0.0
 10
103.1606282294182
 20
-138.1970770596348
 30
0.0
 10
103.1812988023297
 20
-138.4907714497523
 30
0.0
 10
103.2026583943382
 20
-138.7839490755471
 30
0.0
 10
103.2322862155114
 20
-140.73352861065
 30
0.0
 10
103.2322862155114
 20
-140.73352861065
 30
0.0
 10
103.2322862155114
 20
-140.73352861065
 30
0.0
 10
103.1950791842707
 20
-141.6907483912266
 30
0.0
 10
102.923605660033
 20
-141.6907483912266
 30
0.0
 10
102.6500650785042
 20
-141.6907483912266
 30
0.0
 10
102.674869765998
 20
-141.499373337021
 30
0.0
 10
102.6624674222511
 20
-141.3434827663134
 30
0.0
  0
SPLINE
  5
12C
330
3C
100
AcDbEntity
  8
\U+30EC\U+30A4\U+30E4\U+30FC 1
 62
     7
370
     9
100
AcDbSpline
210
0.0
220
0.0
230
1.0
 70
     8
 71
     3
 72
     8
 73
     4
 74
     0
 42
0.0000000001
 43
0.0000000001
 40
0.0
 40
0.0
 40
0.0
 40
0.0
 40
1.0
 40
1.0
 40
1.0
 40
1.0
 10
102.6021782512592
 20
-141.0286010389616
 30
0.0
 10
102.6021782512592
 20
-141.0286010389616
 30
0.0
 10
102.4922797052797
 20
-138.9725680533645
 30
0.0
 10
102.5487792712378
 20
-138.672327981825
 30
0.0
  0
SPLINE
  5
12D
330
3C
100
AcDbEntity
  8
\U+30EC\U+30A4\U+30E4\U+30FC 1
 62
     7
370
     9
100
AcDbSpline
210
0.0
220
0.0
230
1.0
 70
     8
 71
     3
 72
    17
 73
    13
 74
     0
 42
0.0000000001
 43
0.0000000001
 40
0.0
 40
0.0
 40
0.0
 40
0.0
 40
1.0
 40
1.0
 40
1.0
 40
2.0
 40
2.0
 40
2.0
 40
3.0
 40
3.0
 40
3.0
 40
4.0
 40
4.0
 40
4.0
 40
4.0
 10
102.978727187797
 20
-135.6049872165328
 30
0.0
 10
102.978727187797
 20
-135.6049872165328
 30
0.0
 10
102.6624674222511
 20
-135.5071465047517
 30
0.0
 10
102.6624674222511
 20
-135.5071465047517
 30
0.0
 10
102.6624674222511
 20
-135.5071465047517
 30
0.0
 10
102.1746419015397
 20
-135.33937035462
 30
0.0
 10
102.1546603477252
 20
-136.1010809664088
 30
0.0
 10
102.1336452652652
 20
-136.8626193234232
 30
0.0
 10
102.1891113025777
 20
-137.8896022875762
 30
0.0
 10
102.1891113025777
 20
-137.8896022875762
 30
0.0
 10
102.1891113025777
 20
-137.8896022875762
 30
0.0
 10
102.2531900786034
 20
-138.6645765169832
 30
0.0
 10
102.8743407945939
 20
-138.8606024500939
 30
0.0
  0
SPLINE
  5
12E
330
3C
100
AcDbEntity
  8
\U+30EC\U+30A4\U+30E4\U+30FC 1
 62
     7
370
     9
100
AcDbSpline
210
0.0
220
0.0
230
1.0
 70
     8
 71
     3
 72
    20
 73
    16
 74
     0
 42
0.0000000001
 43
0.0000000001
 40
0.0
 40
0.0
 40
0.0
 40
0.0
 40
1.0
 40
1.0
 40
1.0
 40
2.0
 40
2.0
 40
2.0
 40
3.0
 40
3.0
 40
3.0
 40
4.0
 40
4.0
 40
4.0
 40
5.0
 40
5.0
 40
5.0
 40
5.0
 10
102.7089762113019
 20
-132.9651828009601
 30
0.0
 10
102.7089762113019
 20
-132.9651828009601
 30
0.0
 10
102.8512586548428
 20
-132.8973144199007
 30
0.0
 10
102.8512586548428
 20
-132.8973144199007
 30
0.0
 10
102.8512586548428
 20
-132.8973144199007
 30
0.0
 10
103.2863742146298
 20
-132.7131740662141
 30
0.0
 10
103.3445963283305
 20
-133.3686034822829
 30
0.0
 10
103.4038519706768
 20
-134.0247219174487
 30
0.0
 10
103.447949192888
 20
-135.2480753242609
 30
0.0
 10
103.447949192888
 20
-135.2480753242609
 30
0.0
 10
103.447949192888
 20
-135.2480753242609
 30
0.0
 10
103.4775770140612
 20
-135.9555256821569
 30
0.0
 10
102.6814154474199
 20
-136.2650675115067
 30
0.0
 10
102.6814154474199
 20
-136.2650675115067
 30
0.0
 10
102.5170843927735
 20
-136.3165716890111
 30
0.0
 10
102.440603273001
 20
-136.2133910792279
 30
0.0
  0
SPLINE
  5
12F
330
3C
100
AcDbEntity
  8
\U+30EC\U+30A4\U+30E4\U+30FC 1
 62
     7
370
     9
100
AcDbSpline
210
0.0
220
0.0
230
1.0
 70
     8
 71
     3
 72
    14
 73
    10
 74
     0
 42
0.0000000001
 43
0.0000000001
 40
0.0
 40
0.0
 40
0.0
 40
0.0
 40
1.0
 40
1.0
 40
1.0
 40
2.0
 40
2.0
 40
2.0
 40
3.0
 40
3.0
 40
3.0
 40
3.0
 10
102.978727187797
 20
-136.1076266478307
 30
0.0
 10
102.978727187797
 20
-136.1076266478307
 30
0.0
 10
103.1943901651736
 20
-136.1026312593771
 30
0.0
 10
103.2322862155114
 20
-136.6037203977067
 30
0.0
 10
103.2715603040432
 20
-137.1049817908106
 30
0.0
 10
103.3445963283305
 20
-138.0187933682731
 30
0.0
 10
103.3445963283305
 20
-138.0187933682731
 30
0.0
 10
103.3445963283305
 20
-138.0187933682731
 30
0.0
 10
103.3687119967273
 20
-138.4897379211068
 30
0.0
 10
103.1837103691694
 20
-138.5267726975732
 30
0.0
  0
SPLINE
  5
130
330
3C
100
AcDbEntity
  8
\U+30EC\U+30A4\U+30E4\U+30FC 1
 62
     7
370
     9
100
AcDbSpline
210
0.0
220
0.0
230
1.0
 70
     8
 71
     3
 72
    14
 73
    10
 74
     0
 42
0.0000000001
 43
0.0000000001
 40
0.0
 40
0.0
 40
0.0
 40
0.0
 40
1.0
 40
1.0
 40
1.0
 40
2.0
 40
2.0
 40
2.0
 40
3.0
 40
3.0
 40
3.0
 40
3.0
 10
103.2322862155114
 20
-135.8650919256692
 30
0.0
 10
103.2322862155114
 20
-135.8650919256692
 30
0.0
 10
103.4996256251668
 20
-136.0068576048872
 30
0.0
 10
103.5513020574455
 20
-136.5301676090966
 30
0.0
 10
103.6022894706272
 20
-137.0533053585318
 30
0.0
 10
103.6543104124545
 20
-138.2399684984261
 30
0.0
 10
103.6543104124545
 20
-138.2399684984261
 30
0.0
 10
103.6543104124545
 20
-138.2399684984261
 30
0.0
 10
103.6470757119355
 20
-138.8445827560875
 30
0.0
 10
103.1971462415618
 20
-138.9327772005099
 30
0.0
  0
SPLINE
  5
131
330
3C
100
AcDbEntity
  8
\U+30EC\U+30A4\U+30E4\U+30FC 1
 62
     7
370
     9
100
AcDbSpline
210
0.0
220
0.0
230
1.0
 70
     8
 71
     3
 72
    59
 73
    55
 74
     0
 42
0.0000000001
 43
0.0000000001
 40
0.0
 40
0.0
 40
0.0
 40
0.0
 40
1.0
 40
1.0
 40
1.0
 40
2.0
 40
2.0
 40
2.0
 40
3.0
 40
3.0
 40
3.0
 40
4.0
 40
4.0
 40
4.0
 40
5.0
 40
5.0
 40
5.0
 40
6.0
 40
6.0
 40
6.0
 40
7.0
 40
7.0
 40
7.0
 40
8.0
 40
8.0
 40
8.0
 40
9.0
 40
9.0
 40
9.0
 40
10.0
 40
10.0
 40
10.0
 40
11.0
 40
11.0
 40
11.0
 40
12.0
 40
12.0
 40
12.0
 40
13.0
 40
13.0
 40
13.0
 40
14.0
 40
14.0
 40
14.0
 40
15.0
 40
15.0
 40
15.0
 40
16.0
 40
16.0
 40
16.0
 40
17.0
 40
17.0
 40
17.0
 40
18.0
 40
18.0
 40
18.0
 40
18.0
 10
102.6728027087068
 20
-143.9157633103752
 30
0.0
 10
102.5825412069933
 20
-143.7931179111003
 30
0.0
 10
102.5456786853011
 20
-143.6332654805848
 30
0.0
 10
102.5456786853011
 20
-143.6332654805848
 30
0.0
 10
102.5456786853011
 20
-143.6332654805848
 30
0.0
 10
102.44783797352
 20
-142.9065225879713
 30
0.0
 10
102.440603273001
 20
-142.074876537832
 30
0.0
 10
102.4337130820305
 20
-141.2434027424669
 30
0.0
 10
102.8106065281168
 20
-141.299213289328
 30
0.0
 10
102.8106065281168
 20
-141.299213289328
 30
0.0
 10
102.9022460680244
 20
-141.285432907387
 30
0.0
 10
102.8808864760159
 20
-140.5166598498535
 30
0.0
 10
102.8808864760159
 20
-140.5166598498535
 30
0.0
 10
102.8808864760159
 20
-140.5166598498535
 30
0.0
 10
102.8884656860834
 20
-139.7831990210438
 30
0.0
 10
102.8808864760159
 20
-139.1124389300657
 30
0.0
 10
102.8739962850454
 20
-138.4415065843132
 30
0.0
 10
102.8106065281168
 20
-138.427553947598
 30
0.0
 10
102.8106065281168
 20
-138.427553947598
 30
0.0
 10
102.8106065281168
 20
-138.427553947598
 30
0.0
 10
102.4895236288915
 20
-138.3856960374522
 30
0.0
 10
102.46885305598
 20
-137.7499036656493
 30
0.0
 10
102.44783797352
 20
-137.1142835486207
 30
0.0
 10
102.440603273001
 20
-136.0871283296935
 30
0.0
 10
102.440603273001
 20
-136.0871283296935
 30
0.0
 10
102.440603273001
 20
-136.0871283296935
 30
0.0
 10
102.4564507122331
 20
-135.8650919256692
 30
0.0
 10
102.6624674222511
 20
-135.8425265502408
 30
0.0
 10
103.0931043579073
 20
-135.7958455064156
 30
0.0
 10
103.1089517971394
 20
-135.1004529827179
 30
0.0
 10
103.1089517971394
 20
-135.1004529827179
 30
0.0
 10
103.1089517971394
 20
-135.1004529827179
 30
0.0
 10
103.0944823961014
 20
-134.260538703414
 30
0.0
 10
103.0579643839577
 20
-133.7225870433923
 30
0.0
 10
103.020757352717
 20
-133.1844631285963
 30
0.0
 10
102.8292100437371
 20
-133.2363118156493
 30
0.0
 10
102.8292100437371
 20
-133.2363118156493
 30
0.0
 10
102.7348144274413
 20
-133.1997938035056
 30
0.0
 10
102.6228488241707
 20
-132.5803656352577
 30
0.0
 10
102.6228488241707
 20
-132.5803656352577
 30
0.0
 10
102.6228488241707
 20
-132.5803656352577
 30
0.0
 10
102.5635931818244
 20
-132.108732063327
 30
0.0
 10
102.5708278823434
 20
-131.4160956160175
 30
0.0
 10
102.5787516019595
 20
-130.723459168708
 30
0.0
 10
102.6228488241707
 20
-130.6864243922416
 30
0.0
 10
102.6228488241707
 20
-130.6864243922416
 30
0.0
 10
102.6228488241707
 20
-130.6864243922416
 30
0.0
 10
103.1089517971394
 20
-130.5978854382707
 30
0.0
 10
103.1089517971394
 20
-130.0158365560377
 30
0.0
 10
103.1089517971394
 20
-129.4336154190305
 30
0.0
 10
103.0527967407299
 20
-128.681895584149
 30
0.0
 10
103.0527967407299
 20
-128.681895584149
 30
0.0
 10
103.0527967407299
 20
-128.681895584149
 30
0.0
 10
102.9766601305058
 20
-128.2767523550836
 30
0.0
 10
102.7110432685931
 20
-128.2912217561216
 30
0.0
  0
SPLINE
  5
132
330
3C
100
AcDbEntity
  8
\U+30EC\U+30A4\U+30E4\U+30FC 1
 62
     7
370
     9
100
AcDbSpline
210
0.0
220
0.0
230
1.0
 70
     8
 71
     3
 72
    20
 73
    16
 74
     0
 42
0.0000000001
 43
0.0000000001
 40
0.0
 40
0.0
 40
0.0
 40
0.0
 40
1.0
 40
1.0
 40
1.0
 40
2.0
 40
2.0
 40
2.0
 40
3.0
 40
3.0
 40
3.0
 40
4.0
 40
4.0
 40
4.0
 40
5.0
 40
5.0
 40
5.0
 40
5.0
 10
102.8433349352267
 20
-130.5861721136208
 30
0.0
 10
102.8433349352267
 20
-130.5861721136208
 30
0.0
 10
102.7920030124965
 20
-130.2959228189885
 30
0.0
 10
102.5415445707188
 20
-130.2959228189885
 30
0.0
 10
102.2903971098441
 20
-130.2959228189885
 30
0.0
 10
102.275927708806
 20
-130.4506076062762
 30
0.0
 10
102.2545681167975
 20
-131.3053357961667
 30
0.0
 10
102.2318304865948
 20
-132.1604084956057
 30
0.0
 10
102.2545681167975
 20
-132.7572712884253
 30
0.0
 10
102.2545681167975
 20
-132.7572712884253
 30
0.0
 10
102.2545681167975
 20
-132.7572712884253
 30
0.0
 10
102.3062445490762
 20
-133.3985758130045
 30
0.0
 10
102.6373182252087
 20
-133.5971855677292
 30
0.0
 10
102.9690809204383
 20
-133.7964843415509
 30
0.0
 10
103.0527967407299
 20
-133.6628146367232
 30
0.0
 10
103.0527967407299
 20
-133.6628146367232
 30
0.0
  0
SPLINE
  5
133
330
3C
100
AcDbEntity
  8
\U+30EC\U+30A4\U+30E4\U+30FC 1
 62
     7
370
     9
100
AcDbSpline
210
0.0
220
0.0
230
1.0
 70
     8
 71
     3
 72
    11
 73
     7
 74
     0
 42
0.0000000001
 43
0.0000000001
 40
0.0
 40
0.0
 40
0.0
 40
0.0
 40
1.0
 40
1.0
 40
1.0
 40
2.0
 40
2.0
 40
2.0
 40
2.0
 10
102.5467122139467
 20
-133.5258720911845
 30
0.0
 10
102.5467122139467
 20
-133.5258720911845
 30
0.0
 10
102.4164876046042
 20
-133.4423285256672
 30
0.0
 10
102.4092529040852
 20
-134.1277302724577
 30
0.0
 10
102.4013291844691
 20
-134.8131320192481
 30
0.0
 10
102.440603273001
 20
-135.5093858168171
 30
0.0
 10
102.440603273001
 20
-135.5093858168171
 30
0.0
  0
SPLINE
  5
134
330
3C
100
AcDbEntity
  8
\U+30EC\U+30A4\U+30E4\U+30FC 1
 62
     7
370
     9
100
AcDbSpline
210
0.0
220
0.0
230
1.0
 70
     8
 71
     3
 72
    14
 73
    10
 74
     0
 42
0.0000000001
 43
0.0000000001
 40
0.0
 40
0.0
 40
0.0
 40
0.0
 40
1.0
 40
1.0
 40
1.0
 40
2.0
 40
2.0
 40
2.0
 40
3.0
 40
3.0
 40
3.0
 40
3.0
 10
102.3482747139963
 20
-133.1848076381448
 30
0.0
 10
102.3482747139963
 20
-133.1848076381448
 30
0.0
 10
102.1064290109317
 20
-133.2802367830862
 30
0.0
 10
102.1140082209993
 20
-133.9584038293576
 30
0.0
 10
102.1208984119698
 20
-134.6363986208548
 30
0.0
 10
102.1140082209993
 20
-135.2553100247799
 30
0.0
 10
102.1140082209993
 20
-135.2553100247799
 30
0.0
 10
102.1140082209993
 20
-135.2553100247799
 30
0.0
 10
102.1284776220373
 20
-135.7970512898355
 30
0.0
 10
102.1808430734131
 20
-135.8650919256692
 30
0.0
  0
SPLINE
  5
135
330
3C
100
AcDbEntity
  8
\U+30EC\U+30A4\U+30E4\U+30FC 1
 62
     7
370
     9
100
AcDbSpline
210
0.0
220
0.0
230
1.0
 70
     8
 71
     3
 72
    14
 73
    10
 74
     0
 42
0.0000000001
 43
0.0000000001
 40
0.0
 40
0.0
 40
0.0
 40
0.0
 40
1.0
 40
1.0
 40
1.0
 40
2.0
 40
2.0
 40
2.0
 40
3.0
 40
3.0
 40
3.0
 40
3.0
 10
102.440603273001
 20
-127.930520258816
 30
0.0
 10
102.440603273001
 20
-127.930520258816
 30
0.0
 10
101.8118733469429
 20
-127.8936577371238
 30
0.0
 10
101.7970594363563
 20
-128.7483859270143
 30
0.0
 10
101.7825900353183
 20
-129.6034586264533
 30
0.0
 10
101.7677761247317
 20
-129.9348768121343
 30
0.0
 10
101.841501168116
 20
-130.3844617729594
 30
0.0
 10
101.9152262115004
 20
-130.8340467337846
 30
0.0
 10
102.1315782079741
 20
-130.988559266298
 30
0.0
 10
102.2449218494388
 20
-131.0106078774036
 30
0.0
  0
SPLINE
  5
136
330
3C
100
AcDbEntity
  8
\U+30EC\U+30A4\U+30E4\U+30FC 1
 62
     7
370
     9
100
AcDbSpline
210
0.0
220
0.0
230
1.0
 70
     8
 71
     3
 72
    14
 73
    10
 74
     0
 42
0.0000000001
 43
0.0000000001
 40
0.0
 40
0.0
 40
0.0
 40
0.0
 40
1.0
 40
1.0
 40
1.0
 40
2.0
 40
2.0
 40
2.0
 40
3.0
 40
3.0
 40
3.0
 40
3.0
 10
102.7479057902852
 20
-127.9301757492675
 30
0.0
 10
102.7479057902852
 20
-127.9301757492675
 30
0.0
 10
103.2863742146298
 20
-127.9598035704406
 30
0.0
 10
103.3597547484656
 20
-128.681895584149
 30
0.0
 10
103.43347979185
 20
-129.4043321074059
 30
0.0
 10
103.4927354341963
 20
-129.8096475912455
 30
0.0
 10
103.4186658812634
 20
-130.2516533420031
 30
0.0
 10
103.3445963283305
 20
-130.6941758570834
 30
0.0
 10
103.2092040757602
 20
-130.9070827580719
 30
0.0
 10
102.5804741497021
 20
-131.0474703990958
 30
0.0
  0
SPLINE
  5
137
330
3C
100
AcDbEntity
  8
\U+30EC\U+30A4\U+30E4\U+30FC 1
 62
     7
370
     9
100
AcDbSpline
210
0.0
220
0.0
230
1.0
 70
     8
 71
     3
 72
    20
 73
    16
 74
     0
 42
0.0000000001
 43
0.0000000001
 40
0.0
 40
0.0
 40
0.0
 40
0.0
 40
1.0
 40
1.0
 40
1.0
 40
2.0
 40
2.0
 40
2.0
 40
3.0
 40
3.0
 40
3.0
 40
4.0
 40
4.0
 40
4.0
 40
5.0
 40
5.0
 40
5.0
 40
5.0
 10
102.2738606515149
 20
-125.5573662338016
 30
0.0
 10
102.2738606515149
 20
-125.5573662338016
 30
0.0
 10
102.2917751480382
 20
-125.414567025938
 30
0.0
 10
102.2917751480382
 20
-125.414567025938
 30
0.0
 10
102.2917751480382
 20
-125.414567025938
 30
0.0
 10
102.5019259726384
 20
-124.8278672648
 30
0.0
 10
102.6824489760655
 20
-125.5050007824258
 30
0.0
 10
102.8013047703066
 20
-125.9478678070547
 30
0.0
 10
102.8233533814122
 20
-127.1050753805501
 30
0.0
 10
102.7747775350702
 20
-127.6652479064518
 30
0.0
 10
102.7255126696311
 20
-128.2254204323534
 30
0.0
 10
102.7589300958381
 20
-128.6365925785179
 30
0.0
 10
102.4654079604948
 20
-128.6381428714863
 30
0.0
 10
102.2738606515149
 20
-128.6388318905834
 30
0.0
 10
102.2738606515149
 20
-128.323605653683
 30
0.0
 10
102.2738606515149
 20
-128.323605653683
 30
0.0
  0
SPLINE
  5
138
330
3C
100
AcDbEntity
  8
\U+30EC\U+30A4\U+30E4\U+30FC 1
 62
     7
370
     9
100
AcDbSpline
210
0.0
220
0.0
230
1.0
 70
     8
 71
     3
 72
     8
 73
     4
 74
     0
 42
0.0000000001
 43
0.0000000001
 40
0.0
 40
0.0
 40
0.0
 40
0.0
 40
1.0
 40
1.0
 40
1.0
 40
1.0
 10
102.2084038372951
 20
-125.9084214637486
 30
0.0
 10
102.2084038372951
 20
-125.9084214637486
 30
0.0
 10
102.1856662070925
 20
-127.3191880649584
 30
0.0
 10
102.2669704605444
 20
-127.9560139654068
 30
0.0
  0
SPLINE
  5
139
330
3C
100
AcDbEntity
  8
\U+30EC\U+30A4\U+30E4\U+30FC 1
 62
     7
370
     9
100
AcDbSpline
210
0.0
220
0.0
230
1.0
 70
     8
 71
     3
 72
    17
 73
    13
 74
     0
 42
0.0000000001
 43
0.0000000001
 40
0.0
 40
0.0
 40
0.0
 40
0.0
 40
1.0
 40
1.0
 40
1.0
 40
2.0
 40
2.0
 40
2.0
 40
3.0
 40
3.0
 40
3.0
 40
4.0
 40
4.0
 40
4.0
 40
4.0
 10
102.4919351957312
 20
-122.9918036259361
 30
0.0
 10
102.4919351957312
 20
-122.9918036259361
 30
0.0
 10
102.3847927261399
 20
-122.9416774866257
 30
0.0
 10
102.1908338503203
 20
-122.9487399323705
 30
0.0
 10
101.9961859554037
 20
-122.956319142438
 30
0.0
 10
101.6571885596552
 20
-123.0150580204615
 30
0.0
 10
101.6055121273764
 20
-123.4718776818057
 30
0.0
 10
101.5538356950977
 20
-123.9290418526983
 30
0.0
 10
101.6571885596552
 20
-125.1964924817217
 30
0.0
 10
101.6868163808283
 20
-125.2774522256251
 30
0.0
 10
101.7160996924529
 20
-125.3584119695285
 30
0.0
 10
101.8583821359937
 20
-125.9104885210397
 30
0.0
 10
102.4392252348069
 20
-125.962509462867
 30
0.0
  0
SPLINE
  5
13A
330
3C
100
AcDbEntity
  8
\U+30EC\U+30A4\U+30E4\U+30FC 1
 62
     7
370
     9
100
AcDbSpline
210
0.0
220
0.0
230
1.0
 70
     8
 71
     3
 72
    53
 73
    49
 74
     0
 42
0.0000000001
 43
0.0000000001
 40
0.0
 40
0.0
 40
0.0
 40
0.0
 40
1.0
 40
1.0
 40
1.0
 40
2.0
 40
2.0
 40
2.0
 40
3.0
 40
3.0
 40
3.0
 40
4.0
 40
4.0
 40
4.0
 40
5.0
 40
5.0
 40
5.0
 40
6.0
 40
6.0
 40
6.0
 40
7.0
 40
7.0
 40
7.0
 40
8.0
 40
8.0
 40
8.0
 40
9.0
 40
9.0
 40
9.0
 40
10.0
 40
10.0
 40
10.0
 40
11.0
 40
11.0
 40
11.0
 40
12.0
 40
12.0
 40
12.0
 40
13.0
 40
13.0
 40
13.0
 40
14.0
 40
14.0
 40
14.0
 40
15.0
 40
15.0
 40
15.0
 40
16.0
 40
16.0
 40
16.0
 40
16.0
 10
102.2883300525529
 20
-130.6083929795007
 30
0.0
 10
102.2883300525529
 20
-130.6083929795007
 30
0.0
 10
102.2166720664597
 20
-130.5906507377516
 30
0.0
 10
102.1436360421724
 20
-130.2370116861908
 30
0.0
 10
102.0699109987881
 20
-129.8835448894041
 30
0.0
 10
102.0726670751763
 20
-129.4484293296171
 30
0.0
 10
102.0995388199612
 20
-128.800062359293
 30
0.0
 10
102.1208984119698
 20
-128.2788194123748
 30
0.0
 10
102.3648111723255
 20
-128.2912217561216
 30
0.0
 10
102.3648111723255
 20
-128.2912217561216
 30
0.0
 10
102.5270751696807
 20
-128.1859740890472
 30
0.0
 10
102.4464599353259
 20
-126.4563639006776
 30
0.0
 10
102.440603273001
 20
-126.01435814992
 30
0.0
 10
102.4354356297731
 20
-125.5723523991625
 30
0.0
 10
102.3648111723255
 20
-125.6312635319602
 30
0.0
 10
102.3648111723255
 20
-125.6312635319602
 30
0.0
 10
102.3648111723255
 20
-125.6312635319602
 30
0.0
 10
101.9892957644332
 20
-125.4691717893792
 30
0.0
 10
101.9741373442981
 20
-124.9975382174485
 30
0.0
 10
101.9593234337116
 20
-124.5259046455178
 30
0.0
 10
101.9152262115004
 20
-123.597451412243
 30
0.0
 10
101.9152262115004
 20
-123.597451412243
 30
0.0
 10
101.9152262115004
 20
-123.597451412243
 30
0.0
 10
101.945198542222
 20
-123.3604288428578
 30
0.0
 10
102.1908338503203
 20
-123.2880818376676
 30
0.0
 10
102.5398220229762
 20
-123.1845567183358
 30
0.0
 10
102.5708278823434
 20
-122.6764051342615
 30
0.0
 10
102.5708278823434
 20
-122.6764051342615
 30
0.0
 10
102.5708278823434
 20
-122.6764051342615
 30
0.0
 10
102.6297390151412
 20
-122.0278659091632
 30
0.0
 10
102.5708278823434
 20
-121.3789821745164
 30
0.0
 10
102.5122612590942
 20
-120.7307874589666
 30
0.0
 10
102.3648111723255
 20
-120.826216603908
 30
0.0
 10
102.3648111723255
 20
-120.826216603908
 30
0.0
 10
102.3648111723255
 20
-120.826216603908
 30
0.0
 10
102.1367458512019
 20
-120.7307874589666
 30
0.0
 10
102.0768011897586
 20
-119.7875203151052
 30
0.0
 10
102.0182345665093
 20
-118.8440809164695
 30
0.0
 10
101.9813720448172
 20
-118.4830349096154
 30
0.0
 10
102.1064290109317
 20
-118.4830349096154
 30
0.0
 10
102.1064290109317
 20
-118.4830349096154
 30
0.0
 10
102.6087239326812
 20
-118.4758002090963
 30
0.0
 10
102.5970106080313
 20
-117.8124470734115
 30
0.0
 10
102.58564179293
 20
-117.1494384472751
 30
0.0
 10
102.5494682903349
 20
-116.4640367004847
 30
0.0
 10
102.5494682903349
 20
-116.4640367004847
 30
0.0
 10
102.5494682903349
 20
-116.4640367004847
 30
0.0
 10
102.5494682903349
 20
-116.2502685256249
 30
0.0
 10
102.2903971098441
 20
-116.2502685256249
 30
0.0
  0
SPLINE
  5
13B
330
3C
100
AcDbEntity
  8
\U+30EC\U+30A4\U+30E4\U+30FC 1
 62
     7
370
     9
100
AcDbSpline
210
0.0
220
0.0
230
1.0
 70
     8
 71
     3
 72
    14
 73
    10
 74
     0
 42
0.0000000001
 43
0.0000000001
 40
0.0
 40
0.0
 40
0.0
 40
0.0
 40
1.0
 40
1.0
 40
1.0
 40
2.0
 40
2.0
 40
2.0
 40
3.0
 40
3.0
 40
3.0
 40
3.0
 10
102.2559461549916
 20
-120.5836818817464
 30
0.0
 10
102.2559461549916
 20
-120.5836818817464
 30
0.0
 10
102.7255126696311
 20
-120.3771484074057
 30
0.0
 10
102.7992377130155
 20
-120.7896985917644
 30
0.0
 10
102.8733072659483
 20
-121.2024210308973
 30
0.0
 10
102.9615017103707
 20
-122.3077799173397
 30
0.0
 10
102.92429467913
 20
-122.794227399857
 30
0.0
 10
102.8884656860834
 20
-123.2805026276
 30
0.0
 10
102.4919351957312
 20
-123.7080389773195
 30
0.0
 10
101.9152262115004
 20
-123.597451412243
 30
0.0
  0
SPLINE
  5
13C
330
3C
100
AcDbEntity
  8
\U+30EC\U+30A4\U+30E4\U+30FC 1
 62
     7
370
     9
100
AcDbSpline
210
0.0
220
0.0
230
1.0
 70
     8
 71
     3
 72
    14
 73
    10
 74
     0
 42
0.0000000001
 43
0.0000000001
 40
0.0
 40
0.0
 40
0.0
 40
0.0
 40
1.0
 40
1.0
 40
1.0
 40
2.0
 40
2.0
 40
2.0
 40
3.0
 40
3.0
 40
3.0
 40
3.0
 10
102.5970106080313
 20
-123.4469007395376
 30
0.0
 10
102.5970106080313
 20
-123.4469007395376
 30
0.0
 10
102.7255126696311
 20
-123.5828097564307
 30
0.0
 10
102.7630642104204
 20
-124.1428100275581
 30
0.0
 10
102.7992377130155
 20
-124.7028102986854
 30
0.0
 10
102.8292100437371
 20
-125.2922661362117
 30
0.0
 10
102.8292100437371
 20
-125.2922661362117
 30
0.0
 10
102.8292100437371
 20
-125.2922661362117
 30
0.0
 10
102.8181857381844
 20
-125.6016357107871
 30
0.0
 10
102.7127658163357
 20
-125.6016357107871
 30
0.0
  0
SPLINE
  5
13D
330
3C
100
AcDbEntity
  8
\U+30EC\U+30A4\U+30E4\U+30FC 1
 62
     7
370
     9
100
AcDbSpline
210
0.0
220
0.0
230
1.0
 70
     8
 71
     3
 72
    14
 73
    10
 74
     0
 42
0.0000000001
 43
0.0000000001
 40
0.0
 40
0.0
 40
0.0
 40
0.0
 40
1.0
 40
1.0
 40
1.0
 40
2.0
 40
2.0
 40
2.0
 40
3.0
 40
3.0
 40
3.0
 40
3.0
 10
102.7992377130155
 20
-123.2022989600848
 30
0.0
 10
102.7992377130155
 20
-123.2022989600848
 30
0.0
 10
103.0124891235524
 20
-123.3321790598788
 30
0.0
 10
103.0648545749282
 20
-124.0398016725491
 30
0.0
 10
103.117220026304
 20
-124.7469075208966
 30
0.0
 10
103.1385796183126
 20
-125.4765787446725
 30
0.0
 10
103.1385796183126
 20
-125.4765787446725
 30
0.0
 10
103.1385796183126
 20
-125.4765787446725
 30
0.0
 10
103.1385796183126
 20
-125.962509462867
 30
0.0
 10
102.7589300958381
 20
-126.0078124684981
 30
0.0
  0
SPLINE
  5
13E
330
3C
100
AcDbEntity
  8
\U+30EC\U+30A4\U+30E4\U+30FC 1
 62
     7
370
     9
100
AcDbSpline
210
0.0
220
0.0
230
1.0
 70
     8
 71
     3
 72
    20
 73
    16
 74
     0
 42
0.0000000001
 43
0.0000000001
 40
0.0
 40
0.0
 40
0.0
 40
0.0
 40
1.0
 40
1.0
 40
1.0
 40
2.0
 40
2.0
 40
2.0
 40
3.0
 40
3.0
 40
3.0
 40
4.0
 40
4.0
 40
4.0
 40
5.0
 40
5.0
 40
5.0
 40
5.0
 10
102.5494682903349
 20
-121.1963921137981
 30
0.0
 10
102.5494682903349
 20
-121.1963921137981
 30
0.0
 10
102.3427625612199
 20
-121.3352294618537
 30
0.0
 10
102.0850694189232
 20
-121.0110459766917
 30
0.0
 10
101.8266872575294
 20
-120.6866902367554
 30
0.0
 10
101.7970594363563
 20
-120.4801567624147
 30
0.0
 10
101.7898247358373
 20
-120.2222913653437
 30
0.0
 10
101.7825900353183
 20
-119.9644259682728
 30
0.0
 10
101.7088649919339
 20
-118.623250295865
 30
0.0
 10
101.7088649919339
 20
-118.623250295865
 30
0.0
 10
101.7088649919339
 20
-118.623250295865
 30
0.0
 10
101.6720024702417
 20
-118.1073472469489
 30
0.0
 10
102.0254692670284
 20
-118.0928778459108
 30
0.0
 10
102.0254692670284
 20
-118.0928778459108
 30
0.0
 10
102.2559461549916
 20
-118.0847818715205
 30
0.0
 10
102.4244113242203
 20
-118.3727918540874
 30
0.0
  0
SPLINE
  5
13F
330
3C
100
AcDbEntity
  8
\U+30EC\U+30A4\U+30E4\U+30FC 1
 62
     7
370
     9
100
AcDbSpline
210
0.0
220
0.0
230
1.0
 70
     8
 71
     3
 72
    17
 73
    13
 74
     0
 42
0.0000000001
 43
0.0000000001
 40
0.0
 40
0.0
 40
0.0
 40
0.0
 40
1.0
 40
1.0
 40
1.0
 40
2.0
 40
2.0
 40
2.0
 40
3.0
 40
3.0
 40
3.0
 40
4.0
 40
4.0
 40
4.0
 40
4.0
 10
102.3427625612199
 20
-115.9555406068618
 30
0.0
 10
102.3427625612199
 20
-115.9555406068618
 30
0.0
 10
102.7479057902852
 20
-115.9334919957562
 30
0.0
 10
102.814051623602
 20
-116.4419880893791
 30
0.0
 10
102.8801974569189
 20
-116.9503119282277
 30
0.0
 10
102.8884656860834
 20
-117.9307861033298
 30
0.0
 10
102.8884656860834
 20
-117.9307861033298
 30
0.0
 10
102.8884656860834
 20
-117.9307861033298
 30
0.0
 10
102.9325629082946
 20
-118.6676920276248
 30
0.0
 10
102.1877332643836
 20
-118.7924044841908
 30
0.0
 10
102.1877332643836
 20
-118.7924044841908
 30
0.0
 10
102.0234022097372
 20
-118.7924044841908
 30
0.0
 10
102.0234022097372
 20
-118.7924044841908
 30
0.0
  0
SPLINE
  5
140
330
3C
100
AcDbEntity
  8
\U+30EC\U+30A4\U+30E4\U+30FC 1
 62
     7
370
     9
100
AcDbSpline
210
0.0
220
0.0
230
1.0
 70
     8
 71
     3
 72
     8
 73
     4
 74
     0
 42
0.0000000001
 43
0.0000000001
 40
0.0
 40
0.0
 40
0.0
 40
0.0
 40
1.0
 40
1.0
 40
1.0
 40
1.0
 10
102.2559461549916
 20
-118.7924044841908
 30
0.0
 10
102.2559461549916
 20
-118.7924044841908
 30
0.0
 10
102.475398737402
 20
-120.0526204126952
 30
0.0
 10
102.372390382393
 20
-120.5318331946934
 30
0.0
  0
SPLINE
  5
141
330
3C
100
AcDbEntity
  8
\U+30EC\U+30A4\U+30E4\U+30FC 1
 62
     7
370
     9
100
AcDbSpline
210
0.0
220
0.0
230
1.0
 70
     8
 71
     3
 72
     8
 73
     4
 74
     0
 42
0.0000000001
 43
0.0000000001
 40
0.0
 40
0.0
 40
0.0
 40
0.0
 40
1.0
 40
1.0
 40
1.0
 40
1.0
 10
102.5494682903349
 20
-118.6527058622639
 30
0.0
 10
102.5494682903349
 20
-118.6527058622639
 30
0.0
 10
102.813362604505
 20
-119.8013006970462
 30
0.0
 10
102.6924397529727
 20
-120.5903998179427
 30
0.0
  0
SPLINE
  5
142
330
3C
100
AcDbEntity
  8
\U+30EC\U+30A4\U+30E4\U+30FC 1
 62
     7
370
     9
100
AcDbSpline
210
0.0
220
0.0
230
1.0
 70
     8
 71
     3
 72
    14
 73
    10
 74
     0
 42
0.0000000001
 43
0.0000000001
 40
0.0
 40
0.0
 40
0.0
 40
0.0
 40
1.0
 40
1.0
 40
1.0
 40
2.0
 40
2.0
 40
2.0
 40
3.0
 40
3.0
 40
3.0
 40
3.0
 10
102.0234022097372
 20
-115.9553683520875
 30
0.0
 10
102.0234022097372
 20
-115.9553683520875
 30
0.0
 10
101.4139648183965
 20
-115.9040364293573
 30
0.0
 10
101.3767577871558
 20
-116.6702256652769
 30
0.0
 10
101.3402397750122
 20
-117.436759410745
 30
0.0
 10
101.3767577871558
 20
-118.1664306345209
 30
0.0
 10
101.3767577871558
 20
-118.1664306345209
 30
0.0
 10
101.3767577871558
 20
-118.1664306345209
 30
0.0
 10
101.3609103479237
 20
-118.5865600289471
 30
0.0
 10
101.7074869537398
 20
-118.7338378609415
 30
0.0
  0
SPLINE
  5
143
330
3C
100
AcDbEntity
  8
\U+30EC\U+30A4\U+30E4\U+30FC 1
 62
     7
370
     9
100
AcDbSpline
210
0.0
220
0.0
230
1.0
 70
     8
 71
     3
 72
    20
 73
    16
 74
     0
 42
0.0000000001
 43
0.0000000001
 40
0.0
 40
0.0
 40
0.0
 40
0.0
 40
1.0
 40
1.0
 40
1.0
 40
2.0
 40
2.0
 40
2.0
 40
3.0
 40
3.0
 40
3.0
 40
4.0
 40
4.0
 40
4.0
 40
5.0
 40
5.0
 40
5.0
 40
5.0
 10
101.8780191802597
 20
-116.3009114292581
 30
0.0
 10
101.8780191802597
 20
-116.3009114292581
 30
0.0
 10
101.8855983903272
 20
-116.6040798319601
 30
0.0
 10
102.0699109987881
 20
-116.6040798319601
 30
0.0
 10
102.2545681167975
 20
-116.6040798319601
 30
0.0
 10
102.3351833511523
 20
-116.2357991245869
 30
0.0
 10
102.3351833511523
 20
-115.7569308521372
 30
0.0
 10
102.3351833511523
 20
-115.2777180701389
 30
0.0
 10
102.2986653390087
 20
-113.7081325670591
 30
0.0
 10
102.2986653390087
 20
-113.7081325670591
 30
0.0
 10
102.2986653390087
 20
-113.7081325670591
 30
0.0
 10
102.3083116063674
 20
-113.4354532594016
 30
0.0
 10
102.089548043054
 20
-113.4354532594016
 30
0.0
 10
101.8046386464238
 20
-113.4354532594016
 30
0.0
 10
101.8466688113439
 20
-113.7522297892703
 30
0.0
 10
101.8466688113439
 20
-113.7522297892703
 30
0.0
  0
SPLINE
  5
144
330
3C
100
AcDbEntity
  8
\U+30EC\U+30A4\U+30E4\U+30FC 1
 62
     7
370
     9
100
AcDbSpline
210
0.0
220
0.0
230
1.0
 70
     8
 71
     3
 72
     8
 73
     4
 74
     0
 42
0.0000000001
 43
0.0000000001
 40
0.0
 40
0.0
 40
0.0
 40
0.0
 40
1.0
 40
1.0
 40
1.0
 40
1.0
 10
101.7963704172592
 20
-114.0467854532591
 30
0.0
 10
101.7963704172592
 20
-114.0467854532591
 30
0.0
 10
101.7991264936474
 20
-115.5571153139927
 30
0.0
 10
101.8439127349557
 20
-115.975349905902
 30
0.0
  0
SPLINE
  5
145
330
3C
100
AcDbEntity
  8
\U+30EC\U+30A4\U+30E4\U+30FC 1
 62
     7
370
     9
100
AcDbSpline
210
0.0
220
0.0
230
1.0
 70
     8
 71
     3
 72
    17
 73
    13
 74
     0
 42
0.0000000001
 43
0.0000000001
 40
0.0
 40
0.0
 40
0.0
 40
0.0
 40
1.0
 40
1.0
 40
1.0
 40
2.0
 40
2.0
 40
2.0
 40
3.0
 40
3.0
 40
3.0
 40
4.0
 40
4.0
 40
4.0
 40
4.0
 10
102.089548043054
 20
-111.4224839673701
 30
0.0
 10
102.089548043054
 20
-111.4224839673701
 30
0.0
 10
101.8301323530147
 20
-111.2440280212341
 30
0.0
 10
101.55796980968
 20
-111.4224839673701
 30
0.0
 10
101.3547091760502
 20
-111.556325926972
 30
0.0
 10
101.3257703739741
 20
-111.7036037589665
 30
0.0
 10
101.3188801830036
 20
-112.145609509724
 30
0.0
 10
101.3085448965479
 20
-112.7087103667881
 30
0.0
 10
101.3037217628685
 20
-113.4354532594016
 30
0.0
 10
101.3037217628685
 20
-113.4354532594016
 30
0.0
 10
101.3037217628685
 20
-113.4354532594016
 30
0.0
 10
101.3116454824846
 20
-113.9441216077987
 30
0.0
 10
102.0182345665093
 20
-114.0913994397931
 30
0.0
  0
SPLINE
  5
146
330
3C
100
AcDbEntity
  8
\U+30EC\U+30A4\U+30E4\U+30FC 1
 62
     7
370
     9
100
AcDbSpline
210
0.0
220
0.0
230
1.0
 70
     8
 71
     3
 72
    14
 73
    10
 74
     0
 42
0.0000000001
 43
0.0000000001
 40
0.0
 40
0.0
 40
0.0
 40
0.0
 40
1.0
 40
1.0
 40
1.0
 40
2.0
 40
2.0
 40
2.0
 40
3.0
 40
3.0
 40
3.0
 40
3.0
 10
102.3000433772028
 20
-113.7820298652177
 30
0.0
 10
102.3000433772028
 20
-113.7820298652177
 30
0.0
 10
102.4464599353259
 20
-113.7670436998569
 30
0.0
 10
102.4313015151908
 20
-113.1407253406384
 30
0.0
 10
102.4164876046042
 20
-112.5140624718715
 30
0.0
 10
102.3820366497517
 20
-112.1676581208296
 30
0.0
 10
102.3661892105196
 20
-112.145609509724
 30
0.0
 10
102.3503417712874
 20
-112.1237331533927
 30
0.0
 10
102.330360217473
 20
-111.9273627107334
 30
0.0
 10
102.2270073529155
 20
-111.8905001890413
 30
0.0
  0
SPLINE
  5
147
330
3C
100
AcDbEntity
  8
\U+30EC\U+30A4\U+30E4\U+30FC 1
 62
     7
370
     9
100
AcDbSpline
210
0.0
220
0.0
230
1.0
 70
     8
 71
     3
 72
    20
 73
    16
 74
     0
 42
0.0000000001
 43
0.0000000001
 40
0.0
 40
0.0
 40
0.0
 40
0.0
 40
1.0
 40
1.0
 40
1.0
 40
2.0
 40
2.0
 40
2.0
 40
3.0
 40
3.0
 40
3.0
 40
4.0
 40
4.0
 40
4.0
 40
5.0
 40
5.0
 40
5.0
 40
5.0
 10
101.8559705691541
 20
-109.1904066024767
 30
0.0
 10
101.8559705691541
 20
-109.1904066024767
 30
0.0
 10
102.1408799657842
 20
-109.0581149358431
 30
0.0
 10
102.2270073529155
 20
-109.1390746797465
 30
0.0
 10
102.3131347400467
 20
-109.2202066784241
 30
0.0
 10
102.5346543797483
 20
-109.2202066784241
 30
0.0
 10
102.5346543797483
 20
-109.7362819821145
 30
0.0
 10
102.5346543797483
 20
-110.2520127762564
 30
0.0
 10
102.5346543797483
 20
-111.2836466193145
 30
0.0
 10
102.5346543797483
 20
-111.2836466193145
 30
0.0
 10
102.5346543797483
 20
-111.2836466193145
 30
0.0
 10
102.5346543797483
 20
-111.976283066624
 30
0.0
 10
101.8194525570104
 20
-112.0205525436095
 30
0.0
 10
101.8194525570104
 20
-112.0205525436095
 30
0.0
 10
101.696462648187
 20
-112.0393283140041
 30
0.0
 10
101.5972438982118
 20
-111.9473442645479
 30
0.0
  0
SPLINE
  5
148
330
3C
100
AcDbEntity
  8
\U+30EC\U+30A4\U+30E4\U+30FC 1
 62
     7
370
     9
100
AcDbSpline
210
0.0
220
0.0
230
1.0
 70
     8
 71
     3
 72
    14
 73
    10
 74
     0
 42
0.0000000001
 43
0.0000000001
 40
0.0
 40
0.0
 40
0.0
 40
0.0
 40
1.0
 40
1.0
 40
1.0
 40
2.0
 40
2.0
 40
2.0
 40
3.0
 40
3.0
 40
3.0
 40
3.0
 10
102.4323350438364
 20
-111.6595065367553
 30
0.0
 10
102.4323350438364
 20
-111.6595065367553
 30
0.0
 10
102.6004557035166
 20
-111.8066121139754
 30
0.0
 10
102.6448974352763
 20
-112.3445637739972
 30
0.0
 10
102.6889946574875
 20
-112.8826876887932
 30
0.0
 10
102.7330918796987
 20
-113.4575018705072
 30
0.0
 10
102.6814154474199
 20
-113.6786770006602
 30
0.0
 10
102.6297390151412
 20
-113.899679876039
 30
0.0
 10
102.5966660984828
 20
-114.1575452731099
 30
0.0
 10
102.3083116063674
 20
-114.1430758720719
 30
0.0
  0
SPLINE
  5
149
330
3C
100
AcDbEntity
  8
\U+30EC\U+30A4\U+30E4\U+30FC 1
 62
     7
370
     9
100
AcDbSpline
210
0.0
220
0.0
230
1.0
 70
     8
 71
     3
 72
    20
 73
    16
 74
     0
 42
0.0000000001
 43
0.0000000001
 40
0.0
 40
0.0
 40
0.0
 40
0.0
 40
1.0
 40
1.0
 40
1.0
 40
2.0
 40
2.0
 40
2.0
 40
3.0
 40
3.0
 40
3.0
 40
4.0
 40
4.0
 40
4.0
 40
5.0
 40
5.0
 40
5.0
 40
5.0
 10
101.951744223644
 20
-107.0609930830438
 30
0.0
 10
101.951744223644
 20
-107.0609930830438
 30
0.0
 10
101.8780191802597
 20
-106.8770249841314
 30
0.0
 10
101.6647677697227
 20
-106.8770249841314
 30
0.0
 10
101.4511718496372
 20
-106.8770249841314
 30
0.0
 10
101.3988063982614
 20
-107.0756347388561
 30
0.0
 10
101.3988063982614
 20
-107.2895751684901
 30
0.0
 10
101.3988063982614
 20
-107.5029988338013
 30
0.0
 10
101.3988063982614
 20
-108.7339314506811
 30
0.0
 10
101.3988063982614
 20
-108.7339314506811
 30
0.0
 10
101.3988063982614
 20
-108.7339314506811
 30
0.0
 10
101.4360134295021
 20
-109.1759372014387
 30
0.0
 10
101.6757920752755
 20
-109.5001206866007
 30
0.0
 10
101.9152262115004
 20
-109.8244764265369
 30
0.0
 10
101.9152262115004
 20
-109.8244764265369
 30
0.0
 10
102.2108154041348
 20
-109.8685736487481
 30
0.0
  0
SPLINE
  5
14A
330
3C
100
AcDbEntity
  8
\U+30EC\U+30A4\U+30E4\U+30FC 1
 62
     7
370
     9
100
AcDbSpline
210
0.0
220
0.0
230
1.0
 70
     8
 71
     3
 72
    11
 73
     7
 74
     0
 42
0.0000000001
 43
0.0000000001
 40
0.0
 40
0.0
 40
0.0
 40
0.0
 40
1.0
 40
1.0
 40
1.0
 40
2.0
 40
2.0
 40
2.0
 40
2.0
 10
101.5972438982118
 20
-109.3786810707456
 30
0.0
 10
101.5972438982118
 20
-109.3786810707456
 30
0.0
 10
101.3402397750122
 20
-109.470837374976
 30
0.0
 10
101.3478189850797
 20
-110.1045626894878
 30
0.0
 10
101.3547091760502
 20
-110.738632513548
 30
0.0
 10
101.4139648183965
 20
-111.5618380797484
 30
0.0
 10
101.4139648183965
 20
-111.5618380797484
 30
0.0
  0
SPLINE
  5
14B
330
3C
100
AcDbEntity
  8
\U+30EC\U+30A4\U+30E4\U+30FC 1
 62
     7
370
     9
100
AcDbSpline
210
0.0
220
0.0
230
1.0
 70
     8
 71
     3
 72
    11
 73
     7
 74
     0
 42
0.0000000001
 43
0.0000000001
 40
0.0
 40
0.0
 40
0.0
 40
0.0
 40
1.0
 40
1.0
 40
1.0
 40
2.0
 40
2.0
 40
2.0
 40
2.0
 10
101.7343586985247
 20
-109.5791856279872
 30
0.0
 10
101.7343586985247
 20
-109.5791856279872
 30
0.0
 10
101.6124023183469
 20
-109.8172417260179
 30
0.0
 10
101.6354844580981
 20
-110.2079155540452
 30
0.0
 10
101.6571885596552
 20
-110.598244872524
 30
0.0
 10
101.5965548791147
 20
-111.0297430820516
 30
0.0
 10
101.696462648187
 20
-111.3596109747643
 30
0.0
  0
SPLINE
  5
14C
330
3C
100
AcDbEntity
  8
\U+30EC\U+30A4\U+30E4\U+30FC 1
 62
     7
370
     9
100
AcDbSpline
210
0.0
220
0.0
230
1.0
 70
     8
 71
     3
 72
    17
 73
    13
 74
     0
 42
0.0000000001
 43
0.0000000001
 40
0.0
 40
0.0
 40
0.0
 40
0.0
 40
1.0
 40
1.0
 40
1.0
 40
2.0
 40
2.0
 40
2.0
 40
3.0
 40
3.0
 40
3.0
 40
4.0
 40
4.0
 40
4.0
 40
4.0
 10
101.3988063982614
 20
-107.2895751684901
 30
0.0
 10
101.3988063982614
 20
-107.2895751684901
 30
0.0
 10
101.1121744538886
 20
-107.2675265573845
 30
0.0
 10
101.296142552801
 20
-106.9507500275158
 30
0.0
 10
101.4807996708104
 20
-106.6336289880985
 30
0.0
 10
101.2734049225983
 20
-106.3909220111627
 30
0.0
 10
101.1783202872054
 20
-106.0736287169712
 30
0.0
 10
101.0825466327155
 20
-105.7566799323282
 30
0.0
 10
100.6994520147557
 20
-104.7324530445634
 30
0.0
 10
100.6994520147557
 20
-104.7324530445634
 30
0.0
 10
100.6994520147557
 20
-104.7324530445634
 30
0.0
 10
100.3969726311508
 20
-104.0690999088786
 30
0.0
 10
101.200368898311
 20
-103.4870510266456
 30
0.0
  0
SPLINE
  5
14D
330
3C
100
AcDbEntity
  8
\U+30EC\U+30A4\U+30E4\U+30FC 1
 62
     7
370
     9
100
AcDbSpline
210
0.0
220
0.0
230
1.0
 70
     8
 71
     3
 72
    17
 73
    13
 74
     0
 42
0.0000000001
 43
0.0000000001
 40
0.0
 40
0.0
 40
0.0
 40
0.0
 40
1.0
 40
1.0
 40
1.0
 40
2.0
 40
2.0
 40
2.0
 40
3.0
 40
3.0
 40
3.0
 40
4.0
 40
4.0
 40
4.0
 40
4.0
 10
101.1042507342726
 20
-102.5952880602887
 30
0.0
 10
101.1042507342726
 20
-102.5952880602887
 30
0.0
 10
99.490223499433
 20
-103.472237116059
 30
0.0
 10
99.96151256181518
 20
-104.8945447871444
 30
0.0
 10
100.4341796623915
 20
-106.3166802034556
 30
0.0
 10
100.5216850877168
 20
-106.5083997672097
 30
0.0
 10
100.5216850877168
 20
-106.5083997672097
 30
0.0
 10
100.5216850877168
 20
-106.5083997672097
 30
0.0
 10
100.6333061814389
 20
-106.6556775992041
 30
0.0
 10
100.5595811380546
 20
-106.9872680396594
 30
0.0
 10
100.4858560946702
 20
-107.319030734889
 30
0.0
 10
100.5216850877168
 20
-107.9379421388141
 30
0.0
 10
101.3988063982614
 20
-107.9675699599873
 30
0.0
  0
SPLINE
  5
14E
330
3C
100
AcDbEntity
  8
\U+30EC\U+30A4\U+30E4\U+30FC 1
 62
     7
370
     9
100
AcDbSpline
210
0.0
220
0.0
230
1.0
 70
     8
 71
     3
 72
    20
 73
    16
 74
     0
 42
0.0000000001
 43
0.0000000001
 40
0.0
 40
0.0
 40
0.0
 40
0.0
 40
1.0
 40
1.0
 40
1.0
 40
2.0
 40
2.0
 40
2.0
 40
3.0
 40
3.0
 40
3.0
 40
4.0
 40
4.0
 40
4.0
 40
5.0
 40
5.0
 40
5.0
 40
5.0
 10
101.7677761247317
 20
-107.9675699599873
 30
0.0
 10
101.7677761247317
 20
-107.9675699599873
 30
0.0
 10
102.661089384057
 20
-107.9835896539937
 30
0.0
 10
102.9766601305058
 20
-106.8770249841314
 30
0.0
 10
103.1048176825571
 20
-106.4274400233063
 30
0.0
 10
102.9690809204383
 20
-106.3387288145612
 30
0.0
 10
102.9391085897166
 20
-106.3239149039746
 30
0.0
 10
102.9094807685435
 20
-106.3094455029365
 30
0.0
 10
102.8292100437371
 20
-106.3244316682974
 30
0.0
 10
102.9325629082946
 20
-105.9483994960823
 30
0.0
 10
102.9325629082946
 20
-105.9483994960823
 30
0.0
 10
103.43347979185
 20
-103.4133259832613
 30
0.0
 10
103.43347979185
 20
-103.4133259832613
 30
0.0
 10
103.43347979185
 20
-103.4133259832613
 30
0.0
 10
103.7352701563579
 20
-102.0351155343871
 30
0.0
 10
101.9813720448172
 20
-102.2859184857133
 30
0.0
  0
SPLINE
  5
14F
330
3C
100
AcDbEntity
  8
\U+30EC\U+30A4\U+30E4\U+30FC 1
 62
     7
370
     9
100
AcDbSpline
210
0.0
220
0.0
230
1.0
 70
     8
 71
     3
 72
    80
 73
    76
 74
     0
 42
0.0000000001
 43
0.0000000001
 40
0.0
 40
0.0
 40
0.0
 40
0.0
 40
1.0
 40
1.0
 40
1.0
 40
2.0
 40
2.0
 40
2.0
 40
3.0
 40
3.0
 40
3.0
 40
4.0
 40
4.0
 40
4.0
 40
5.0
 40
5.0
 40
5.0
 40
6.0
 40
6.0
 40
6.0
 40
7.0
 40
7.0
 40
7.0
 40
8.0
 40
8.0
 40
8.0
 40
9.0
 40
9.0
 40
9.0
 40
10.0
 40
10.0
 40
10.0
 40
11.0
 40
11.0
 40
11.0
 40
12.0
 40
12.0
 40
12.0
 40
13.0
 40
13.0
 40
13.0
 40
14.0
 40
14.0
 40
14.0
 40
15.0
 40
15.0
 40
15.0
 40
16.0
 40
16.0
 40
16.0
 40
17.0
 40
17.0
 40
17.0
 40
18.0
 40
18.0
 40
18.0
 40
19.0
 40
19.0
 40
19.0
 40
20.0
 40
20.0
 40
20.0
 40
21.0
 40
21.0
 40
21.0
 40
22.0
 40
22.0
 40
22.0
 40
23.0
 40
23.0
 40
23.0
 40
24.0
 40
24.0
 40
24.0
 40
25.0
 40
25.0
 40
25.0
 40
25.0
 10
102.4123534900219
 20
-102.979416206894
 30
0.0
 10
102.4123534900219
 20
-102.979416206894
 30
0.0
 10
102.4123534900219
 20
-103.2925753865032
 30
0.0
 10
102.4123534900219
 20
-103.5843749741039
 30
0.0
 10
102.4123534900219
 20
-103.8756577973818
 30
0.0
 10
102.4354356297731
 20
-104.1674573849824
 30
0.0
 10
102.027191814771
 20
-104.3774359548084
 30
0.0
 10
101.6192925093174
 20
-104.5872422698601
 30
0.0
 10
101.351264080565
 20
-104.1438584809085
 30
0.0
 10
101.2809841326659
 20
-103.8172634289068
 30
0.0
 10
101.2110486943153
 20
-103.4910128864536
 30
0.0
 10
100.9426757560143
 20
-101.5081881799181
 30
0.0
 10
100.9426757560143
 20
-101.099944364916
 30
0.0
 10
100.9426757560143
 20
-100.6917005499139
 30
0.0
 10
101.0215684426266
 20
-99.63043888568268
 30
0.0
 10
101.0215684426266
 20
-99.63043888568268
 30
0.0
 10
101.0653211552892
 20
-99.11746416792897
 30
0.0
 10
101.4952690718484
 20
-99.12917749257882
 30
0.0
 10
101.4952690718484
 20
-99.12917749257882
 30
0.0
 10
102.0203016238005
 20
-99.12917749257882
 30
0.0
 10
101.9458875613191
 20
-99.57238902675621
 30
0.0
 10
101.9458875613191
 20
-99.57238902675621
 30
0.0
 10
101.9458875613191
 20
-99.57238902675621
 30
0.0
 10
101.8876654476184
 20
-99.65386553498237
 30
0.0
 10
101.8876654476184
 20
-100.855170330689
 30
0.0
 10
101.8876654476184
 20
-102.0564751263956
 30
0.0
 10
102.0995388199612
 20
-103.0743285875127
 30
0.0
 10
102.0995388199612
 20
-103.0743285875127
 30
0.0
 10
102.814051623602
 20
-102.764786758163
 30
0.0
 10
102.7330918796987
 20
-103.2732828517859
 30
0.0
 10
102.7330918796987
 20
-103.2732828517859
 30
0.0
 10
102.7330918796987
 20
-103.2732828517859
 30
0.0
 10
102.3200249310172
 20
-105.4767659241516
 30
0.0
 10
102.2607692886709
 20
-105.8450466315249
 30
0.0
 10
102.2028916845187
 20
-106.2136718484466
 30
0.0
 10
102.1725748442485
 20
-105.9999036735868
 30
0.0
 10
102.3062445490762
 20
-106.456723334931
 30
0.0
 10
102.4385362157098
 20
-106.9135429962751
 30
0.0
 10
101.7316026221365
 20
-107.1789876034136
 30
0.0
 10
101.7316026221365
 20
-107.1789876034136
 30
0.0
 10
101.7316026221365
 20
-107.1789876034136
 30
0.0
 10
101.7316026221365
 20
-108.704303629508
 30
0.0
 10
101.7316026221365
 20
-108.704303629508
 30
0.0
 10
101.7316026221365
 20
-108.704303629508
 30
0.0
 10
101.7860351308035
 20
-109.2861802569667
 30
0.0
 10
102.0347710248385
 20
-109.4854790307884
 30
0.0
 10
102.0347710248385
 20
-109.4854790307884
 30
0.0
 10
102.2256293147214
 20
-109.566611029466
 30
0.0
 10
102.2249402956243
 20
-110.0969834794202
 30
0.0
 10
102.2228732383332
 20
-110.7679158251726
 30
0.0
 10
102.2841959379706
 20
-111.5118841952123
 30
0.0
 10
101.7970594363563
 20
-111.6887898483799
 30
0.0
 10
101.7970594363563
 20
-111.6887898483799
 30
0.0
 10
101.5683050961357
 20
-111.7625148917642
 30
0.0
 10
101.5617594147137
 20
-112.1972859420028
 30
0.0
 10
101.5538356950977
 20
-112.6320569922413
 30
0.0
 10
101.5617594147137
 20
-113.2880031726329
 30
0.0
 10
101.5617594147137
 20
-113.2880031726329
 30
0.0
 10
101.5617594147137
 20
-113.2880031726329
 30
0.0
 10
101.5683050961357
 20
-113.7077880575106
 30
0.0
 10
101.9813720448172
 20
-113.8183756225871
 30
0.0
 10
101.9813720448172
 20
-113.8183756225871
 30
0.0
 10
102.0203016238005
 20
-113.6271728231557
 30
0.0
 10
102.0234022097372
 20
-114.4302245807674
 30
0.0
 10
102.0234022097372
 20
-114.4302245807674
 30
0.0
 10
102.0599202218809
 20
-116.1252115595104
 30
0.0
 10
102.0023871272772
 20
-116.2502685256249
 30
0.0
 10
102.0023871272772
 20
-116.2502685256249
 30
0.0
 10
101.6795816803093
 20
-116.3019449579037
 30
0.0
 10
101.6647677697227
 20
-116.69985348645
 30
0.0
 10
101.6496093495876
 20
-117.0981065245449
 30
0.0
 10
101.6647677697227
 20
-118.0928778459108
 30
0.0
 10
101.6647677697227
 20
-118.0928778459108
 30
0.0
 10
101.6647677697227
 20
-118.0928778459108
 30
0.0
 10
101.6664903174653
 20
-118.25772566488
 30
0.0
 10
101.7364257558159
 20
-118.3595282364691
 30
0.0
  0
SPLINE
  5
150
330
3C
100
AcDbEntity
  8
\U+30EC\U+30A4\U+30E4\U+30FC 1
 62
     7
370
     9
100
AcDbSpline
210
0.0
220
0.0
230
1.0
 70
     8
 71
     3
 72
     8
 73
     4
 74
     0
 42
0.0000000001
 43
0.0000000001
 40
0.0
 40
0.0
 40
0.0
 40
0.0
 40
1.0
 40
1.0
 40
1.0
 40
1.0
 10
101.9610459814542
 20
-102.147942411529
 30
0.0
 10
101.9610459814542
 20
-102.147942411529
 30
0.0
 10
102.2366536202742
 20
-102.0592312027838
 30
0.0
 10
102.3537868667727
 20
-102.2561184097658
 30
0.0
  0
SPLINE
  5
151
330
3C
100
AcDbEntity
  8
\U+30EC\U+30A4\U+30E4\U+30FC 1
 62
     7
370
     9
100
AcDbSpline
210
0.0
220
0.0
230
1.0
 70
     8
 71
     3
 72
    17
 73
    13
 74
     0
 42
0.0000000001
 43
0.0000000001
 40
0.0
 40
0.0
 40
0.0
 40
0.0
 40
1.0
 40
1.0
 40
1.0
 40
2.0
 40
2.0
 40
2.0
 40
3.0
 40
3.0
 40
3.0
 40
4.0
 40
4.0
 40
4.0
 40
4.0
 10
100.9667914244111
 20
-101.4613348813187
 30
0.0
 10
100.8103840893807
 20
-101.6702799224991
 30
0.0
 10
100.5120388203581
 20
-101.8115288373943
 30
0.0
 10
100.1675292718331
 20
-101.8115288373943
 30
0.0
 10
99.66178925459845
 20
-101.8115288373943
 30
0.0
 10
99.25182289185372
 20
-101.506121122627
 30
0.0
 10
99.25182289185372
 20
-101.1292276765406
 30
0.0
 10
99.25182289185372
 20
-100.7523342304543
 30
0.0
 10
99.66178925459845
 20
-100.4469265156869
 30
0.0
 10
100.1675292718331
 20
-100.4469265156869
 30
0.0
 10
100.4996364766112
 20
-100.4469265156869
 30
0.0
 10
100.7914360642119
 20
-100.5792181823205
 30
0.0
 10
100.951633004276
 20
-100.7771389179481
 30
0.0
  0
SPLINE
  5
152
330
3C
100
AcDbEntity
  8
\U+30EC\U+30A4\U+30E4\U+30FC 1
 62
     7
370
     9
100
AcDbSpline
210
0.0
220
0.0
230
1.0
 70
     8
 71
     3
 72
    11
 73
     7
 74
     0
 42
0.0000000001
 43
0.0000000001
 40
0.0
 40
0.0
 40
0.0
 40
0.0
 40
1.0
 40
1.0
 40
1.0
 40
2.0
 40
2.0
 40
2.0
 40
2.0
 10
100.9474988896937
 20
-101.2177666305115
 30
0.0
 10
100.786268420984
 20
-101.4132757992995
 30
0.0
 10
100.4975694193201
 20
-101.5435004086419
 30
0.0
 10
100.1675292718331
 20
-101.5435004086419
 30
0.0
 10
99.72517901152705
 20
-101.5435004086419
 30
0.0
 10
99.35517575641121
 20
-101.3094061704192
 30
0.0
 10
99.27042640747406
 20
-100.9984863028754
 30
0.0
  0
SPLINE
  5
153
330
3C
100
AcDbEntity
  8
\U+30EC\U+30A4\U+30E4\U+30FC 1
 62
     7
370
     9
100
AcDbSpline
210
0.0
220
0.0
230
1.0
 70
    11
 71
     3
 72
    17
 73
    13
 74
     0
 42
0.0000000001
 43
0.0000000001
 40
0.0
 40
0.0
 40
0.0
 40
0.0
 40
1.0
 40
1.0
 40
1.0
 40
2.0
 40
2.0
 40
2.0
 40
3.0
 40
3.0
 40
3.0
 40
4.0
 40
4.0
 40
4.0
 40
4.0
 10
104.0918375390812
 20
-100.8723958081152
 30
0.0
 10
104.0918375390812
 20
-101.2430880823281
 30
0.0
 10
103.7021972396995
 20
-101.5435004086419
 30
0.0
 10
103.2226399481527
 20
-101.5435004086419
 30
0.0
 10
102.7430826566059
 20
-101.5435004086419
 30
0.0
 10
102.3537868667727
 20
-101.2430880823281
 30
0.0
 10
102.3537868667727
 20
-100.8723958081152
 30
0.0
 10
102.3537868667727
 20
-100.5023925529994
 30
0.0
 10
102.7430826566059
 20
-100.2018079719114
 30
0.0
 10
103.2226399481527
 20
-100.2018079719114
 30
0.0
 10
103.7021972396995
 20
-100.2018079719114
 30
0.0
 10
104.0918375390812
 20
-100.5023925529994
 30
0.0
 10
104.0918375390812
 20
-100.8723958081152
 30
0.0
  0
SPLINE
  5
154
330
3C
100
AcDbEntity
  8
\U+30EC\U+30A4\U+30E4\U+30FC 1
 62
     7
370
     9
100
AcDbSpline
210
0.0
220
0.0
230
1.0
 70
     8
 71
     3
 72
    11
 73
     7
 74
     0
 42
0.0000000001
 43
0.0000000001
 40
0.0
 40
0.0
 40
0.0
 40
0.0
 40
1.0
 40
1.0
 40
1.0
 40
2.0
 40
2.0
 40
2.0
 40
2.0
 10
104.0150119097601
 20
-100.5960991501982
 30
0.0
 10
104.0150119097601
 20
-100.9664469148626
 30
0.0
 10
103.6250271008299
 20
-101.2665147316278
 30
0.0
 10
103.144780790186
 20
-101.2665147316278
 30
0.0
 10
102.7933810506905
 20
-101.2665147316278
 30
0.0
 10
102.4895236288915
 20
-101.1047674985953
 30
0.0
 10
102.3530978476756
 20
-100.872223553341
 30
0.0
  0
SPLINE
  5
155
330
3C
100
AcDbEntity
  8
\U+30EC\U+30A4\U+30E4\U+30FC 1
 62
     7
370
     9
100
AcDbSpline
210
0.0
220
0.0
230
1.0
 70
    11
 71
     3
 72
    23
 73
    19
 74
     0
 42
0.0000000001
 43
0.0000000001
 40
0.0
 40
0.0
 40
0.0
 40
0.0
 40
1.0
 40
1.0
 40
1.0
 40
2.0
 40
2.0
 40
2.0
 40
3.0
 40
3.0
 40
3.0
 40
4.0
 40
4.0
 40
4.0
 40
5.0
 40
5.0
 40
5.0
 40
6.0
 40
6.0
 40
6.0
 40
6.0
 10
101.5655490197475
 20
-96.56327037516475
 30
0.0
 10
101.585530573562
 20
-96.81062823100568
 30
0.0
 10
101.3230142975859
 20
-97.08382430298599
 30
0.0
 10
100.979193768158
 20
-97.11190183119078
 30
0.0
 10
100.6360622578271
 20
-97.13997935939557
 30
0.0
 10
100.4031738030242
 20
-96.90915796188382
 30
0.0
 10
100.3211805304753
 20
-96.71519908606426
 30
0.0
 10
100.3211805304753
 20
-96.71519908606426
 30
0.0
 10
100.1630506477023
 20
-95.92885604155599
 30
0.0
 10
100.1630506477023
 20
-95.92885604155599
 30
0.0
 10
100.1430690938878
 20
-95.68167044048931
 30
0.0
 10
100.4055853698639
 20
-95.45842825304511
 30
0.0
 10
100.7483723706463
 20
-95.43035072484034
 30
0.0
 10
101.0928819191712
 20
-95.40227319663555
 30
0.0
 10
101.3278374312653
 20
-95.56040307940852
 30
0.0
 10
101.407074627426
 20
-95.82705346996686
 30
0.0
 10
101.407074627426
 20
-95.82705346996686
 30
0.0
 10
101.5655490197475
 20
-96.56327037516475
 30
0.0
 10
101.5655490197475
 20
-96.56327037516475
 30
0.0
  0
SPLINE
  5
156
330
3C
100
AcDbEntity
  8
\U+30EC\U+30A4\U+30E4\U+30FC 1
 62
     7
370
     9
100
AcDbSpline
210
0.0
220
0.0
230
1.0
 70
     8
 71
     3
 72
    11
 73
     7
 74
     0
 42
0.0000000001
 43
0.0000000001
 40
0.0
 40
0.0
 40
0.0
 40
0.0
 40
1.0
 40
1.0
 40
1.0
 40
2.0
 40
2.0
 40
2.0
 40
2.0
 10
101.530409045798
 20
-96.3412339711404
 30
0.0
 10
101.5503905996124
 20
-96.58841957220707
 30
0.0
 10
101.2864962854423
 20
-96.86178789896164
 30
0.0
 10
100.9440537942084
 20
-96.88986542716643
 30
0.0
 10
100.5995442456834
 20
-96.91759844582269
 30
0.0
 10
100.3670003004291
 20
-96.68712155785947
 30
0.0
 10
100.2853515374287
 20
-96.49316268203991
 30
0.0
  0
SPLINE
  5
157
330
3C
100
AcDbEntity
  8
\U+30EC\U+30A4\U+30E4\U+30FC 1
 62
     7
370
     9
100
AcDbSpline
210
0.0
220
0.0
230
1.0
 70
     8
 71
     3
 72
    11
 73
     7
 74
     0
 42
0.0000000001
 43
0.0000000001
 40
0.0
 40
0.0
 40
0.0
 40
0.0
 40
1.0
 40
1.0
 40
1.0
 40
2.0
 40
2.0
 40
2.0
 40
2.0
 10
103.0779459377722
 20
-105.2145941577241
 30
0.0
 10
103.0848361287427
 20
-105.232853163796
 30
0.0
 10
103.0917263197132
 20
-105.2518011889648
 30
0.0
 10
103.0979274915866
 20
-105.2712659784565
 30
0.0
 10
103.0979274915866
 20
-105.2712659784565
 30
0.0
 10
103.2529567884229
 20
-105.9926689730678
 30
0.0
 10
103.2529567884229
 20
-105.9926689730678
 30
0.0
  0
SPLINE
  5
158
330
3C
100
AcDbEntity
  8
\U+30EC\U+30A4\U+30E4\U+30FC 1
 62
     7
370
     9
100
AcDbSpline
210
0.0
220
0.0
230
1.0
 70
     8
 71
     3
 72
    14
 73
    10
 74
     0
 42
0.0000000001
 43
0.0000000001
 40
0.0
 40
0.0
 40
0.0
 40
0.0
 40
1.0
 40
1.0
 40
1.0
 40
2.0
 40
2.0
 40
2.0
 40
3.0
 40
3.0
 40
3.0
 40
3.0
 10
102.2821288806795
 20
-106.43243541176
 30
0.0
 10
102.1601725005016
 20
-106.3542317442448
 30
0.0
 10
102.0761121706615
 20
-106.2427829052969
 30
0.0
 10
102.0327039675474
 20
-106.1413248432563
 30
0.0
 10
102.0327039675474
 20
-106.1413248432563
 30
0.0
 10
101.8790527089052
 20
-105.3706569832059
 30
0.0
 10
101.8790527089052
 20
-105.3706569832059
 30
0.0
 10
101.8583821359937
 20
-105.1284667705929
 30
0.0
 10
102.0974717626701
 20
-104.9098754620538
 30
0.0
 10
102.4344021011275
 20
-104.8823146981718
 30
0.0
  0
SPLINE
  5
159
330
3C
100
AcDbEntity
  8
\U+30EC\U+30A4\U+30E4\U+30FC 1
 62
     7
370
     9
100
AcDbSpline
210
0.0
220
0.0
230
1.0
 70
     8
 71
     3
 72
     8
 73
     4
 74
     0
 42
0.0000000001
 43
0.0000000001
 40
0.0
 40
0.0
 40
0.0
 40
0.0
 40
1.0
 40
1.0
 40
1.0
 40
1.0
 10
103.2529567884229
 20
-105.9926689730678
 30
0.0
 10
103.2653591321698
 20
-106.1440809196445
 30
0.0
 10
103.1695854776798
 20
-106.3054836431285
 30
0.0
 10
103.0124891235524
 20
-106.4119370936227
 30
0.0
  0
SPLINE
  5
15A
330
3C
100
AcDbEntity
  8
\U+30EC\U+30A4\U+30E4\U+30FC 1
 62
     7
370
     9
100
AcDbSpline
210
0.0
220
0.0
230
1.0
 70
     8
 71
     3
 72
     8
 73
     4
 74
     0
 42
0.0000000001
 43
0.0000000001
 40
0.0
 40
0.0
 40
0.0
 40
0.0
 40
1.0
 40
1.0
 40
1.0
 40
1.0
 10
102.2294189197551
 20
-106.2033365619908
 30
0.0
 10
102.1174533164845
 20
-106.1261664231212
 30
0.0
 10
102.0382161203238
 20
-106.0202297369498
 30
0.0
 10
101.9975639935978
 20
-105.9237670633628
 30
0.0
  0
SPLINE
  5
15B
330
3C
100
AcDbEntity
  8
\U+30EC\U+30A4\U+30E4\U+30FC 1
 62
     7
370
     9
100
AcDbSpline
210
0.0
220
0.0
230
1.0
 70
     8
 71
     3
 72
     8
 73
     4
 74
     0
 42
0.0000000001
 43
0.0000000001
 40
0.0
 40
0.0
 40
0.0
 40
0.0
 40
1.0
 40
1.0
 40
1.0
 40
1.0
 10
103.2178168144733
 20
-105.7749389384
 30
0.0
 10
103.2329752346084
 20
-105.9552896870529
 30
0.0
 10
103.0934488674558
 20
-106.1497653271952
 30
0.0
 10
102.882953533307
 20
-106.2488118223961
 30
0.0
  0
SPLINE
  5
15C
330
3C
100
AcDbEntity
  8
\U+30EC\U+30A4\U+30E4\U+30FC 1
 62
     7
370
     9
100
AcDbSpline
210
0.0
220
0.0
230
1.0
 70
    11
 71
     3
 72
    23
 73
    19
 74
     0
 42
0.0000000001
 43
0.0000000001
 40
0.0
 40
0.0
 40
0.0
 40
0.0
 40
1.0
 40
1.0
 40
1.0
 40
2.0
 40
2.0
 40
2.0
 40
3.0
 40
3.0
 40
3.0
 40
4.0
 40
4.0
 40
4.0
 40
5.0
 40
5.0
 40
5.0
 40
6.0
 40
6.0
 40
6.0
 40
6.0
 10
96.29489743686378
 20
-102.123654488358
 30
0.0
 10
96.55982527967949
 20
-102.0879977500856
 30
0.0
 10
96.74517141678594
 20
-101.8377115630822
 30
0.0
 10
96.70796438554524
 20
-101.5639987267791
 30
0.0
 10
96.6714463734016
 20
-101.2909749095731
 30
0.0
 10
96.42718910349737
 20
-101.0982218171734
 30
0.0
 10
96.16260577023019
 20
-101.1335340458972
 30
0.0
 10
96.16260577023019
 20
-101.1335340458972
 30
0.0
 10
94.85863712906313
 20
-101.2665147316278
 30
0.0
 10
94.85863712906313
 20
-101.2665147316278
 30
0.0
 10
94.59336477669889
 20
-101.3021714699002
 30
0.0
 10
94.40939667778655
 20
-101.5528021664521
 30
0.0
 10
94.44557018038167
 20
-101.8261704932067
 30
0.0
 10
94.48277721162236
 20
-102.099366565187
 30
0.0
 10
94.72634546242953
 20
-102.292291912361
 30
0.0
 10
94.99092879569672
 20
-102.2566351740886
 30
0.0
 10
94.99092879569672
 20
-102.2566351740886
 30
0.0
 10
96.29489743686378
 20
-102.123654488358
 30
0.0
 10
96.29489743686378
 20
-102.123654488358
 30
0.0
  0
SPLINE
  5
15D
330
3C
100
AcDbEntity
  8
\U+30EC\U+30A4\U+30E4\U+30FC 1
 62
     7
370
     9
100
AcDbSpline
210
0.0
220
0.0
230
1.0
 70
     8
 71
     3
 72
    14
 73
    10
 74
     0
 42
0.0000000001
 43
0.0000000001
 40
0.0
 40
0.0
 40
0.0
 40
0.0
 40
1.0
 40
1.0
 40
1.0
 40
2.0
 40
2.0
 40
2.0
 40
3.0
 40
3.0
 40
3.0
 40
3.0
 10
94.45866154322562
 20
-101.6234266238997
 30
0.0
 10
94.52101777150864
 20
-101.8630330148988
 30
0.0
 10
94.74736054488956
 20
-102.0240912288343
 30
0.0
 10
94.99092879569672
 20
-101.9915350764986
 30
0.0
 10
94.99092879569672
 20
-101.9915350764986
 30
0.0
 10
96.29489743686378
 20
-101.8582098812195
 30
0.0
 10
96.29489743686378
 20
-101.8582098812195
 30
0.0
 10
96.49195689862007
 20
-101.8318549007573
 30
0.0
 10
96.64457462861664
 20
-101.6862996165055
 30
0.0
 10
96.69487302270129
 20
-101.5014702437219
 30
0.0
  0
SPLINE
  5
15E
330
3C
100
AcDbEntity
  8
\U+30EC\U+30A4\U+30E4\U+30FC 1
 62
     7
370
     9
100
AcDbSpline
210
0.0
220
0.0
230
1.0
 70
    11
 71
     3
 72
    23
 73
    19
 74
     0
 42
0.0000000001
 43
0.0000000001
 40
0.0
 40
0.0
 40
0.0
 40
0.0
 40
1.0
 40
1.0
 40
1.0
 40
2.0
 40
2.0
 40
2.0
 40
3.0
 40
3.0
 40
3.0
 40
4.0
 40
4.0
 40
4.0
 40
5.0
 40
5.0
 40
5.0
 40
6.0
 40
6.0
 40
6.0
 40
6.0
 10
108.5439344346696
 20
-100.9252780238138
 30
0.0
 10
108.8085177679368
 20
-100.8896212855415
 30
0.0
 10
108.9931748859462
 20
-100.6391628437638
 30
0.0
 10
108.9559678547055
 20
-100.3657945170092
 30
0.0
 10
108.9201388616589
 20
-100.0925984450289
 30
0.0
 10
108.6755370822061
 20
-99.89967309785494
 30
0.0
 10
108.4102647298419
 20
-99.93532983612728
 30
0.0
 10
108.4102647298419
 20
-99.93532983612728
 30
0.0
 10
107.1062960886748
 20
-100.0684827766322
 30
0.0
 10
107.1062960886748
 20
-100.0684827766322
 30
0.0
 10
106.8420572649562
 20
-100.1036227505817
 30
0.0
 10
106.6574001469468
 20
-100.3542534471337
 30
0.0
 10
106.6946071781875
 20
-100.6276217738882
 30
0.0
 10
106.7304361712341
 20
-100.9013346101913
 30
0.0
 10
106.9750379506868
 20
-101.0937431930425
 30
0.0
 10
107.239621283954
 20
-101.0580864547702
 30
0.0
 10
107.239621283954
 20
-101.0580864547702
 30
0.0
 10
108.5439344346696
 20
-100.9252780238138
 30
0.0
 10
108.5439344346696
 20
-100.9252780238138
 30
0.0
  0
SPLINE
  5
15F
330
3C
100
AcDbEntity
  8
\U+30EC\U+30A4\U+30E4\U+30FC 1
 62
     7
370
     9
100
AcDbSpline
210
0.0
220
0.0
230
1.0
 70
     8
 71
     3
 72
    14
 73
    10
 74
     0
 42
0.0000000001
 43
0.0000000001
 40
0.0
 40
0.0
 40
0.0
 40
0.0
 40
1.0
 40
1.0
 40
1.0
 40
2.0
 40
2.0
 40
2.0
 40
3.0
 40
3.0
 40
3.0
 40
3.0
 10
106.7063205028373
 20
-100.4252224141298
 30
0.0
 10
106.7690212406689
 20
-100.6646565503547
 30
0.0
 10
106.9960530331468
 20
-100.8258870190644
 30
0.0
 10
107.239621283954
 20
-100.7931586119545
 30
0.0
 10
107.239621283954
 20
-100.7931586119545
 30
0.0
 10
108.5439344346696
 20
-100.6601779262239
 30
0.0
 10
108.5439344346696
 20
-100.6601779262239
 30
0.0
 10
108.7406493868773
 20
-100.6338229457617
 30
0.0
 10
108.8936116264224
 20
-100.4882676615099
 30
0.0
 10
108.9435655109586
 20
-100.3030937791777
 30
0.0
  0
SPLINE
  5
160
330
3C
100
AcDbEntity
  8
\U+30EC\U+30A4\U+30E4\U+30FC 1
 62
     7
370
     9
100
AcDbSpline
210
0.0
220
0.0
230
1.0
 70
    11
 71
     3
 72
    29
 73
    25
 74
     0
 42
0.0000000001
 43
0.0000000001
 40
0.0
 40
0.0
 40
0.0
 40
0.0
 40
1.0
 40
1.0
 40
1.0
 40
2.0
 40
2.0
 40
2.0
 40
3.0
 40
3.0
 40
3.0
 40
4.0
 40
4.0
 40
4.0
 40
5.0
 40
5.0
 40
5.0
 40
6.0
 40
6.0
 40
6.0
 40
7.0
 40
7.0
 40
7.0
 40
8.0
 40
8.0
 40
8.0
 40
8.0
 10
93.13333331005
 20
-95.71629365011607
 30
0.0
 10
93.13333331005
 20
-95.71629365011607
 30
0.0
 10
107.6647460668338
 20
-94.28520098554328
 30
0.0
 10
107.6647460668338
 20
-94.28520098554328
 30
0.0
 10
107.6647460668338
 20
-94.28520098554328
 30
0.0
 10
108.2710828722378
 20
-94.1579047073633
 30
0.0
 10
108.3988959147406
 20
-95.00057506305542
 30
0.0
 10
108.5260199381463
 20
-95.84358992829605
 30
0.0
 10
109.8758083492672
 20
-105.1560275344749
 30
0.0
 10
109.8758083492672
 20
-105.1560275344749
 30
0.0
 10
109.8758083492672
 20
-105.1560275344749
 30
0.0
 10
110.0039659013185
 20
-106.0495130485744
 30
0.0
 10
109.1750759275673
 20
-106.1876613775329
 30
0.0
 10
108.411642768036
 20
-106.3146131461644
 30
0.0
 10
95.56832679902459
 20
-107.4683756241746
 30
0.0
 10
95.56832679902459
 20
-107.4683756241746
 30
0.0
 10
95.56832679902459
 20
-107.4683756241746
 30
0.0
 10
95.2362195942465
 20
-107.5193630373563
 30
0.0
 10
95.10599498490406
 20
-106.9815836321088
 30
0.0
 10
94.91375865682711
 20
-106.1930012755351
 30
0.0
 10
92.81569550630996
 20
-96.44613712866625
 30
0.0
 10
92.81569550630996
 20
-96.44613712866625
 30
0.0
 10
92.81569550630996
 20
-96.44613712866625
 30
0.0
 10
92.55214570168836
 20
-95.77365448994549
 30
0.0
 10
93.13333331005
 20
-95.71629365011607
 30
0.0
  0
POLYLINE
  5
161
330
3C
100
AcDbEntity
  8
\U+30EC\U+30A4\U+30E4\U+30FC 1
 62
     7
370
     9
100
AcDb2dPolyline
 66
     1
 10
0.0
 20
0.0
 30
0.0
  0
VERTEX
  5
162
330
161
100
AcDbEntity
  8
\U+30EC\U+30A4\U+30E4\U+30FC 1
 62
     7
370
     9
100
AcDbVertex
100
AcDb2dVertex
 10
92.78468964694272
 20
-95.95331621950126
 30
0.0
  0
VERTEX
  5
163
330
161
100
AcDbEntity
  8
\U+30EC\U+30A4\U+30E4\U+30FC 1
 62
     7
370
     9
100
AcDbVertex
100
AcDb2dVertex
 10
92.90664602712056
 20
-95.66013859370649
 30
0.0
  0
SEQEND
  5
164
330
161
100
AcDbEntity
  8
\U+30EC\U+30A4\U+30E4\U+30FC 1
370
     9
  0
SPLINE
  5
165
330
3C
100
AcDbEntity
  8
\U+30EC\U+30A4\U+30E4\U+30FC 1
 62
     7
370
     9
100
AcDbSpline
210
0.0
220
0.0
230
1.0
 70
     8
 71
     3
 72
    20
 73
    16
 74
     0
 42
0.0000000001
 43
0.0000000001
 40
0.0
 40
0.0
 40
0.0
 40
0.0
 40
1.0
 40
1.0
 40
1.0
 40
2.0
 40
2.0
 40
2.0
 40
3.0
 40
3.0
 40
3.0
 40
4.0
 40
4.0
 40
4.0
 40
5.0
 40
5.0
 40
5.0
 40
5.0
 10
92.90595700802352
 20
-95.66013859370649
 30
0.0
 10
92.96314559307866
 20
-95.58796384329051
 30
0.0
 10
93.05581866163189
 20
-95.53456486326914
 30
0.0
 10
93.20292423885205
 20
-95.5200954622311
 30
0.0
 10
93.20292423885205
 20
-95.5200954622311
 30
0.0
 10
107.7336479765388
 20
-94.08934730720684
 30
0.0
 10
107.7336479765388
 20
-94.08934730720684
 30
0.0
 10
107.7336479765388
 20
-94.08934730720684
 30
0.0
 10
108.3399847819428
 20
-93.96170651947833
 30
0.0
 10
108.467453314897
 20
-94.80472138471896
 30
0.0
 10
108.5949218478513
 20
-95.64721948563681
 30
0.0
 10
109.9450547685207
 20
-104.9598293465899
 30
0.0
 10
109.9450547685207
 20
-104.9598293465899
 30
0.0
 10
109.9450547685207
 20
-104.9598293465899
 30
0.0
 10
109.9908745384745
 20
-105.2767781312329
 30
0.0
 10
109.8523816999675
 20
-105.5623765469601
 30
0.0
  0
SPLINE
  5
166
330
3C
100
AcDbEntity
  8
\U+30EC\U+30A4\U+30E4\U+30FC 1
 62
     7
370
     9
100
AcDbSpline
210
0.0
220
0.0
230
1.0
 70
     8
 71
     3
 72
    20
 73
    16
 74
     0
 42
0.0000000001
 43
0.0000000001
 40
0.0
 40
0.0
 40
0.0
 40
0.0
 40
1.0
 40
1.0
 40
1.0
 40
2.0
 40
2.0
 40
2.0
 40
3.0
 40
3.0
 40
3.0
 40
4.0
 40
4.0
 40
4.0
 40
5.0
 40
5.0
 40
5.0
 40
5.0
 10
121.719357608459
 20
-169.1724473318388
 30
0.0
 10
121.719357608459
 20
-169.1724473318388
 30
0.0
 10
122.5647840405394
 20
-169.0205186209393
 30
0.0
 10
122.3959743617621
 20
-169.7246961381244
 30
0.0
 10
122.2268201734364
 20
-170.4288736553094
 30
0.0
 10
121.719357608459
 20
-170.7771728088682
 30
0.0
 10
121.719357608459
 20
-170.7771728088682
 30
0.0
 10
121.719357608459
 20
-170.7771728088682
 30
0.0
 10
122.0473306986548
 20
-171.2505289285415
 30
0.0
 10
122.0473306986548
 20
-171.2505289285415
 30
0.0
 10
122.0473306986548
 20
-171.2505289285415
 30
0.0
 10
122.5427354294338
 20
-171.139252344368
 30
0.0
 10
123.0078233199425
 20
-170.0595594192907
 30
0.0
 10
123.4405273128899
 20
-169.0546250662433
 30
0.0
 10
122.1107204555834
 20
-168.1916286471882
 30
0.0
 10
121.2928547873851
 20
-168.6560275185999
 30
0.0
  0
SPLINE
  5
167
330
3C
100
AcDbEntity
  8
\U+30EC\U+30A4\U+30E4\U+30FC 1
 62
     7
370
     9
100
AcDbSpline
210
0.0
220
0.0
230
1.0
 70
     8
 71
     3
 72
    14
 73
    10
 74
     0
 42
0.0000000001
 43
0.0000000001
 40
0.0
 40
0.0
 40
0.0
 40
0.0
 40
1.0
 40
1.0
 40
1.0
 40
2.0
 40
2.0
 40
2.0
 40
3.0
 40
3.0
 40
3.0
 40
3.0
 10
121.3920735373603
 20
-169.2706325531685
 30
0.0
 10
121.3920735373603
 20
-169.2706325531685
 30
0.0
 10
120.8446478647541
 20
-169.6792208777191
 30
0.0
 10
120.8022731902855
 20
-170.1222601571222
 30
0.0
 10
120.7774685027917
 20
-170.374785656191
 30
0.0
 10
120.6961642493399
 20
-170.5129339851495
 30
0.0
 10
121.2246418967772
 20
-170.7981878913282
 30
0.0
 10
121.7517415060204
 20
-171.0827527784099
 30
0.0
 10
122.0053005337348
 20
-171.3590494363269
 30
0.0
 10
122.0473306986548
 20
-171.7590250221644
 30
0.0
  0
SPLINE
  5
168
330
3C
100
AcDbEntity
  8
\U+30EC\U+30A4\U+30E4\U+30FC 1
 62
     7
370
     9
100
AcDbSpline
210
0.0
220
0.0
230
1.0
 70
     8
 71
     3
 72
    14
 73
    10
 74
     0
 42
0.0000000001
 43
0.0000000001
 40
0.0
 40
0.0
 40
0.0
 40
0.0
 40
1.0
 40
1.0
 40
1.0
 40
2.0
 40
2.0
 40
2.0
 40
3.0
 40
3.0
 40
3.0
 40
3.0
 10
120.9893418751346
 20
-168.7762613510351
 30
0.0
 10
120.9893418751346
 20
-168.7762613510351
 30
0.0
 10
120.1583848440924
 20
-169.3943114810889
 30
0.0
 10
120.1366807425353
 20
-170.0381998272821
 30
0.0
 10
120.1160101696238
 20
-170.6817436639268
 30
0.0
 10
120.2248751869577
 20
-170.9773328565612
 30
0.0
 10
120.7822916364711
 20
-171.3152967236642
 30
0.0
 10
121.3397080859845
 20
-171.6525715716702
 30
0.0
 10
121.3097357552628
 20
-171.4999538416736
 30
0.0
 10
121.3517659201829
 20
-171.8189696836078
 30
0.0
  0
ENDBLK
  5
3F
330
3C
100
AcDbEntity
  8
0
100
AcDbBlockEnd
  0
BLOCK
  5
5F
330
5D
100
AcDbEntity
  8
0
100
AcDbBlockBegin
  2
block 3
 70
     0
 71
     0
 10
0.0
 20
0.0
 30
0.0
  3
block 3
  1

  0
SPLINE
  5
61
330
5D
100
AcDbEntity
  8
\U+30EC\U+30A4\U+30E4\U+30FC 1
 62
     7
370
     9
100
AcDbSpline
210
0.0
220
0.0
230
1.0
 70
     8
 71
     3
 72
    14
 73
    10
 74
     0
 42
0.0000000001
 43
0.0000000001
 40
0.0
 40
0.0
 40
0.0
 40
0.0
 40
1.0
 40
1.0
 40
1.0
 40
2.0
 40
2.0
 40
2.0
 40
3.0
 40
3.0
 40
3.0
 40
3.0
 10
117.7409613420925
 20
-164.672808118554
 30
0.0
 10
117.7409613420925
 20
-164.672808118554
 30
0.0
 10
117.5252983647159
 20
-164.8609103320487
 30
0.0
 10
117.7409613420925
 20
-165.2105875238015
 30
0.0
 10
117.9559353003721
 20
-165.5602647155544
 30
0.0
 10
118.8799099095161
 20
-166.7085150407881
 30
0.0
 10
118.8799099095161
 20
-166.7085150407881
 30
0.0
 10
118.8799099095161
 20
-166.7085150407881
 30
0.0
 10
119.0859266195341
 20
-167.0313204877561
 30
0.0
 10
119.4090765760505
 20
-166.8425292551644
 30
0.0
  0
SPLINE
  5
62
330
5D
100
AcDbEntity
  8
\U+30EC\U+30A4\U+30E4\U+30FC 1
 62
     7
370
     9
100
AcDbSpline
210
0.0
220
0.0
230
1.0
 70
     8
 71
     3
 72
    14
 73
    10
 74
     0
 42
0.0000000001
 43
0.0000000001
 40
0.0
 40
0.0
 40
0.0
 40
0.0
 40
1.0
 40
1.0
 40
1.0
 40
2.0
 40
2.0
 40
2.0
 40
3.0
 40
3.0
 40
3.0
 40
3.0
 10
117.5528591285979
 20
-164.4123588998691
 30
0.0
 10
117.3916286598882
 20
-164.582891126389
 30
0.0
 10
117.140136689465
 20
-164.9325683181419
 30
0.0
 10
117.4419270539729
 20
-165.3559705532791
 30
0.0
 10
117.6906629480079
 20
-165.7056477450319
 30
0.0
 10
118.2494574357154
 20
-166.4325628924196
 30
0.0
 10
118.6328965632237
 20
-166.9221109608737
 30
0.0
 10
118.8885226482293
 20
-167.2490505224239
 30
0.0
 10
119.2457790500497
 20
-167.291769706441
 30
0.0
 10
119.5833984076042
 20
-167.0947102446847
 30
0.0
  0
SPLINE
  5
63
330
5D
100
AcDbEntity
  8
\U+30EC\U+30A4\U+30E4\U+30FC 1
 62
     7
370
     9
100
AcDbSpline
210
0.0
220
0.0
230
1.0
 70
     8
 71
     3
 72
    14
 73
    10
 74
     0
 42
0.0000000001
 43
0.0000000001
 40
0.0
 40
0.0
 40
0.0
 40
0.0
 40
1.0
 40
1.0
 40
1.0
 40
2.0
 40
2.0
 40
2.0
 40
3.0
 40
3.0
 40
3.0
 40
3.0
 10
119.7208577174656
 20
-166.6420246979228
 30
0.0
 10
119.7208577174656
 20
-166.6420246979228
 30
0.0
 10
119.9354871661967
 20
-166.4535779748797
 30
0.0
 10
119.7208577174656
 20
-166.1035562735783
 30
0.0
 10
119.5055392496375
 20
-165.7538790818254
 30
0.0
 10
118.581220130945
 20
-164.6059732661402
 30
0.0
 10
118.581220130945
 20
-164.6059732661402
 30
0.0
 10
118.581220130945
 20
-164.6059732661402
 30
0.0
 10
118.3755479304756
 20
-164.2831678191723
 30
0.0
 10
118.0520534644106
 20
-164.4716145422154
 30
0.0
  0
SPLINE
  5
64
330
5D
100
AcDbEntity
  8
\U+30EC\U+30A4\U+30E4\U+30FC 1
 62
     7
370
     9
100
AcDbSpline
210
0.0
220
0.0
230
1.0
 70
     8
 71
     3
 72
    14
 73
    10
 74
     0
 42
0.0000000001
 43
0.0000000001
 40
0.0
 40
0.0
 40
0.0
 40
0.0
 40
1.0
 40
1.0
 40
1.0
 40
2.0
 40
2.0
 40
2.0
 40
3.0
 40
3.0
 40
3.0
 40
3.0
 10
119.9086154214117
 20
-166.9017848975107
 30
0.0
 10
120.0705349092185
 20
-166.7315971805393
 30
0.0
 10
120.3213378605447
 20
-166.3815754792379
 30
0.0
 10
120.0195474960368
 20
-165.9585177536493
 30
0.0
 10
119.7701225829047
 20
-165.6084960523479
 30
0.0
 10
119.2116726047457
 20
-164.8815809049602
 30
0.0
 10
118.8282334772374
 20
-164.3923773460547
 30
0.0
 10
118.5722628826833
 20
-164.0654377845045
 30
0.0
 10
118.2153509904115
 20
-164.0230631100359
 30
0.0
 10
117.8773871233084
 20
-164.2197780622437
 30
0.0
  0
SPLINE
  5
65
330
5D
100
AcDbEntity
  8
\U+30EC\U+30A4\U+30E4\U+30FC 1
 62
     7
370
     9
100
AcDbSpline
210
0.0
220
0.0
230
1.0
 70
    11
 71
     3
 72
    23
 73
    19
 74
     0
 42
0.0000000001
 43
0.0000000001
 40
0.0
 40
0.0
 40
0.0
 40
0.0
 40
1.0
 40
1.0
 40
1.0
 40
2.0
 40
2.0
 40
2.0
 40
3.0
 40
3.0
 40
3.0
 40
4.0
 40
4.0
 40
4.0
 40
5.0
 40
5.0
 40
5.0
 40
6.0
 40
6.0
 40
6.0
 40
6.0
 10
121.4251464540187
 20
-169.3105956607974
 30
0.0
 10
121.4251464540187
 20
-169.3105956607974
 30
0.0
 10
119.2829860812904
 20
-166.6812987864547
 30
0.0
 10
119.2829860812904
 20
-166.6812987864547
 30
0.0
 10
119.2829860812904
 20
-166.6812987864547
 30
0.0
 10
119.1827338026696
 20
-166.5772569028001
 30
0.0
 10
119.3167480170458
 20
-166.4563340512679
 30
0.0
 10
119.443527530903
 20
-166.3429904098031
 30
0.0
 10
119.5833984076042
 20
-166.5286810564581
 30
0.0
 10
119.5833984076042
 20
-166.5286810564581
 30
0.0
 10
119.5833984076042
 20
-166.5286810564581
 30
0.0
 10
121.6573458897246
 20
-169.1100911035558
 30
0.0
 10
121.6573458897246
 20
-169.1100911035558
 30
0.0
 10
121.6573458897246
 20
-169.1100911035558
 30
0.0
 10
121.9198621657006
 20
-169.3360893673882
 30
0.0
 10
121.7765461935142
 20
-169.4701035817644
 30
0.0
 10
121.6332302213278
 20
-169.6048068152377
 30
0.0
 10
121.5085177647618
 20
-169.3898328569581
 30
0.0
 10
121.4251464540187
 20
-169.3105956607974
 30
0.0
  0
ENDBLK
  5
60
330
5D
100
AcDbEntity
  8
0
100
AcDbBlockEnd
  0
BLOCK
  5
68
330
66
100
AcDbEntity
  8
0
100
AcDbBlockBegin
  2
block 4
 70
     0
 71
     0
 10
0.0
 20
0.0
 30
0.0
  3
block 4
  1

  0
SPLINE
  5
6A
330
66
100
AcDbEntity
  8
\U+30EC\U+30A4\U+30E4\U+30FC 1
 62
     7
370
     9
100
AcDbSpline
210
0.0
220
0.0
230
1.0
 70
     8
 71
     3
 72
    14
 73
    10
 74
     0
 42
0.0000000001
 43
0.0000000001
 40
0.0
 40
0.0
 40
0.0
 40
0.0
 40
1.0
 40
1.0
 40
1.0
 40
2.0
 40
2.0
 40
2.0
 40
3.0
 40
3.0
 40
3.0
 40
3.0
 10
114.2703721502519
 20
-160.2406927767801
 30
0.0
 10
114.2703721502519
 20
-160.2406927767801
 30
0.0
 10
114.0547091728752
 20
-160.4291394998233
 30
0.0
 10
114.2703721502519
 20
-160.7788166915761
 30
0.0
 10
114.48569061808
 20
-161.128493883329
 30
0.0
 10
115.4093207176755
 20
-162.2763996990142
 30
0.0
 10
115.4093207176755
 20
-162.2763996990142
 30
0.0
 10
115.4093207176755
 20
-162.2763996990142
 30
0.0
 10
115.6146484085963
 20
-162.5992051459822
 30
0.0
 10
115.9381428746613
 20
-162.410758422939
 30
0.0
  0
SPLINE
  5
6B
330
66
100
AcDbEntity
  8
\U+30EC\U+30A4\U+30E4\U+30FC 1
 62
     7
370
     9
100
AcDbSpline
210
0.0
220
0.0
230
1.0
 70
     8
 71
     3
 72
    14
 73
    10
 74
     0
 42
0.0000000001
 43
0.0000000001
 40
0.0
 40
0.0
 40
0.0
 40
0.0
 40
1.0
 40
1.0
 40
1.0
 40
2.0
 40
2.0
 40
2.0
 40
3.0
 40
3.0
 40
3.0
 40
3.0
 10
114.0815809176602
 20
-159.9805880676437
 30
0.0
 10
113.9203504489505
 20
-160.1507757846151
 30
0.0
 10
113.6692029880758
 20
-160.5007974859165
 30
0.0
 10
113.9709933525836
 20
-160.9241997210537
 30
0.0
 10
114.2207627752643
 20
-161.2738769128065
 30
0.0
 10
114.7788682438747
 20
-162.0007920601942
 30
0.0
 10
115.1619628618345
 20
-162.4903401286483
 30
0.0
 10
115.4175889468401
 20
-162.8165906711014
 30
0.0
 10
115.775189858209
 20
-162.8596543646671
 30
0.0
 10
116.112464706215
 20
-162.6629394124593
 30
0.0
  0
SPLINE
  5
6C
330
66
100
AcDbEntity
  8
\U+30EC\U+30A4\U+30E4\U+30FC 1
 62
     7
370
     9
100
AcDbSpline
210
0.0
220
0.0
230
1.0
 70
     8
 71
     3
 72
    14
 73
    10
 74
     0
 42
0.0000000001
 43
0.0000000001
 40
0.0
 40
0.0
 40
0.0
 40
0.0
 40
1.0
 40
1.0
 40
1.0
 40
2.0
 40
2.0
 40
2.0
 40
3.0
 40
3.0
 40
3.0
 40
3.0
 10
116.2499240160764
 20
-162.2099093561489
 30
0.0
 10
116.2499240160764
 20
-162.2099093561489
 30
0.0
 10
116.464897974356
 20
-162.0214626331058
 30
0.0
 10
116.2499240160764
 20
-161.6717854413529
 30
0.0
 10
116.0342610386998
 20
-161.3221082496
 30
0.0
 10
115.1102864295558
 20
-160.1742024339148
 30
0.0
 10
115.1102864295558
 20
-160.1742024339148
 30
0.0
 10
115.1102864295558
 20
-160.1742024339148
 30
0.0
 10
114.9046142290863
 20
-159.8513969869469
 30
0.0
 10
114.5811197630214
 20
-160.0394992004415
 30
0.0
  0
SPLINE
  5
6D
330
66
100
AcDbEntity
  8
\U+30EC\U+30A4\U+30E4\U+30FC 1
 62
     7
370
     9
100
AcDbSpline
210
0.0
220
0.0
230
1.0
 70
     8
 71
     3
 72
    14
 73
    10
 74
     0
 42
0.0000000001
 43
0.0000000001
 40
0.0
 40
0.0
 40
0.0
 40
0.0
 40
1.0
 40
1.0
 40
1.0
 40
2.0
 40
2.0
 40
2.0
 40
3.0
 40
3.0
 40
3.0
 40
3.0
 10
116.4380262295711
 20
-162.4700140652853
 30
0.0
 10
116.5996012078293
 20
-162.2998263483139
 30
0.0
 10
116.8500596496069
 20
-161.9498046470126
 30
0.0
 10
116.5482692850991
 20
-161.5267469214239
 30
0.0
 10
116.298844371967
 20
-161.1767252201225
 30
0.0
 10
115.7407389033565
 20
-160.4498100727348
 30
0.0
 10
115.3569552662997
 20
-159.9602620042808
 30
0.0
 10
115.1020182003912
 20
-159.6336669522791
 30
0.0
 10
114.7444172890222
 20
-159.590947768262
 30
0.0
 10
114.4067979314678
 20
-159.7880072300183
 30
0.0
  0
SPLINE
  5
6E
330
66
100
AcDbEntity
  8
\U+30EC\U+30A4\U+30E4\U+30FC 1
 62
     7
370
     9
100
AcDbSpline
210
0.0
220
0.0
230
1.0
 70
    11
 71
     3
 72
    23
 73
    19
 74
     0
 42
0.0000000001
 43
0.0000000001
 40
0.0
 40
0.0
 40
0.0
 40
0.0
 40
1.0
 40
1.0
 40
1.0
 40
2.0
 40
2.0
 40
2.0
 40
3.0
 40
3.0
 40
3.0
 40
4.0
 40
4.0
 40
4.0
 40
5.0
 40
5.0
 40
5.0
 40
6.0
 40
6.0
 40
6.0
 40
6.0
 10
117.7671440677804
 20
-164.6504149978999
 30
0.0
 10
117.7671440677804
 20
-164.6504149978999
 30
0.0
 10
115.8127413989982
 20
-162.2491834446808
 30
0.0
 10
115.8127413989982
 20
-162.2491834446808
 30
0.0
 10
115.8127413989982
 20
-162.2491834446808
 30
0.0
 10
115.7114555917319
 20
-162.1451415610262
 30
0.0
 10
115.8458143156566
 20
-162.024218709494
 30
0.0
 10
115.9725938295138
 20
-161.9108750680292
 30
0.0
 10
116.112464706215
 20
-162.0969102242327
 30
0.0
 10
116.112464706215
 20
-162.0969102242327
 30
0.0
 10
116.112464706215
 20
-162.0969102242327
 30
0.0
 10
118.0520534644106
 20
-164.4716145422154
 30
0.0
 10
118.0520534644106
 20
-164.4716145422154
 30
0.0
 10
118.0520534644106
 20
-164.4716145422154
 30
0.0
 10
118.257036645783
 20
-164.6907226150773
 30
0.0
 10
118.1130316544995
 20
-164.8250813390021
 30
0.0
 10
117.9697156823131
 20
-164.9594400629268
 30
0.0
 10
117.8515489071691
 20
-164.7293076845121
 30
0.0
 10
117.7671440677804
 20
-164.6504149978999
 30
0.0
  0
ENDBLK
  5
69
330
66
100
AcDbEntity
  8
0
100
AcDbBlockEnd
  0
BLOCK
  5
71
330
6F
100
AcDbEntity
  8
0
100
AcDbBlockBegin
  2
block 5
 70
     0
 71
     0
 10
0.0
 20
0.0
 30
0.0
  3
block 5
  1

  0
SPLINE
  5
73
330
6F
100
AcDbEntity
  8
\U+30EC\U+30A4\U+30E4\U+30FC 1
 62
     7
370
     9
100
AcDbSpline
210
0.0
220
0.0
230
1.0
 70
     8
 71
     3
 72
    14
 73
    10
 74
     0
 42
0.0000000001
 43
0.0000000001
 40
0.0
 40
0.0
 40
0.0
 40
0.0
 40
1.0
 40
1.0
 40
1.0
 40
2.0
 40
2.0
 40
2.0
 40
3.0
 40
3.0
 40
3.0
 40
3.0
 10
110.949300102471
 20
-156.0159721832182
 30
0.0
 10
110.949300102471
 20
-156.0159721832182
 30
0.0
 10
110.749829073875
 20
-156.1902940147719
 30
0.0
 10
110.949300102471
 20
-156.5144774999339
 30
0.0
 10
111.148771131067
 20
-156.8386609850959
 30
0.0
 10
112.0048773591516
 20
-157.9028509804896
 30
0.0
 10
112.0048773591516
 20
-157.9028509804896
 30
0.0
 10
112.0048773591516
 20
-157.9028509804896
 30
0.0
 10
112.1964246681315
 20
-158.2022297781578
 30
0.0
 10
112.4961479753482
 20
-158.0275634370556
 30
0.0
  0
SPLINE
  5
74
330
6F
100
AcDbEntity
  8
\U+30EC\U+30A4\U+30E4\U+30FC 1
 62
     7
370
     9
100
AcDbSpline
210
0.0
220
0.0
230
1.0
 70
     8
 71
     3
 72
    14
 73
    10
 74
     0
 42
0.0000000001
 43
0.0000000001
 40
0.0
 40
0.0
 40
0.0
 40
0.0
 40
1.0
 40
1.0
 40
1.0
 40
2.0
 40
2.0
 40
2.0
 40
3.0
 40
3.0
 40
3.0
 40
3.0
 10
110.7742892518203
 20
-155.7748154992507
 30
0.0
 10
110.6247721077605
 20
-155.9326008724752
 30
0.0
 10
110.3918836529576
 20
-156.2571288671857
 30
0.0
 10
110.6716254063599
 20
-156.6491807334071
 30
0.0
 10
110.9031358229687
 20
-156.9737087281177
 30
0.0
 10
111.4212781839502
 20
-157.6475694050326
 30
0.0
 10
111.776123018931
 20
-158.10128848044
 30
0.0
 10
112.0131455883162
 20
-158.4041123735934
 30
0.0
 10
112.3445637739972
 20
-158.4433864621253
 30
0.0
 10
112.6573784440579
 20
-158.2611409109556
 30
0.0
  0
SPLINE
  5
75
330
6F
100
AcDbEntity
  8
\U+30EC\U+30A4\U+30E4\U+30FC 1
 62
     7
370
     9
100
AcDbSpline
210
0.0
220
0.0
230
1.0
 70
     8
 71
     3
 72
    14
 73
    10
 74
     0
 42
0.0000000001
 43
0.0000000001
 40
0.0
 40
0.0
 40
0.0
 40
0.0
 40
1.0
 40
1.0
 40
1.0
 40
2.0
 40
2.0
 40
2.0
 40
3.0
 40
3.0
 40
3.0
 40
3.0
 10
112.7848469770121
 20
-157.8411837713036
 30
0.0
 10
112.7848469770121
 20
-157.8411837713036
 30
0.0
 10
112.983628986511
 20
-157.66686193975
 30
0.0
 10
112.7848469770121
 20
-157.3423339450394
 30
0.0
 10
112.5846869293191
 20
-157.0181504598774
 30
0.0
 10
111.7285807012345
 20
-155.9539604644837
 30
0.0
 10
111.7285807012345
 20
-155.9539604644837
 30
0.0
 10
111.7285807012345
 20
-155.9539604644837
 30
0.0
 10
111.5377224113517
 20
-155.6549261763641
 30
0.0
 10
111.2379991041349
 20
-155.8292480079177
 30
0.0
  0
SPLINE
  5
76
330
6F
100
AcDbEntity
  8
\U+30EC\U+30A4\U+30E4\U+30FC 1
 62
     7
370
     9
100
AcDbSpline
210
0.0
220
0.0
230
1.0
 70
     8
 71
     3
 72
    14
 73
    10
 74
     0
 42
0.0000000001
 43
0.0000000001
 40
0.0
 40
0.0
 40
0.0
 40
0.0
 40
1.0
 40
1.0
 40
1.0
 40
2.0
 40
2.0
 40
2.0
 40
3.0
 40
3.0
 40
3.0
 40
3.0
 10
112.9591688085658
 20
-158.0823404552711
 30
0.0
 10
113.1086859526256
 20
-157.9245550820467
 30
0.0
 10
113.3408853883314
 20
-157.6003715968846
 30
0.0
 10
113.0618326540262
 20
-157.2076307115662
 30
0.0
 10
112.8310112565145
 20
-156.8834472264041
 30
0.0
 10
112.3125243859844
 20
-156.2095865494893
 30
0.0
 10
111.9576795510036
 20
-155.7562119836304
 30
0.0
 10
111.7206569816184
 20
-155.4526990713799
 30
0.0
 10
111.3895833054859
 20
-155.413424982848
 30
0.0
 10
111.0760796163282
 20
-155.5963595531148
 30
0.0
  0
SPLINE
  5
77
330
6F
100
AcDbEntity
  8
\U+30EC\U+30A4\U+30E4\U+30FC 1
 62
     7
370
     9
100
AcDbSpline
210
0.0
220
0.0
230
1.0
 70
    11
 71
     3
 72
    23
 73
    19
 74
     0
 42
0.0000000001
 43
0.0000000001
 40
0.0
 40
0.0
 40
0.0
 40
0.0
 40
1.0
 40
1.0
 40
1.0
 40
2.0
 40
2.0
 40
2.0
 40
3.0
 40
3.0
 40
3.0
 40
4.0
 40
4.0
 40
4.0
 40
5.0
 40
5.0
 40
5.0
 40
6.0
 40
6.0
 40
6.0
 40
6.0
 10
114.1914794636396
 20
-160.1039224860157
 30
0.0
 10
114.1914794636396
 20
-160.1039224860157
 30
0.0
 10
112.3790147288497
 20
-157.8777017834472
 30
0.0
 10
112.3790147288497
 20
-157.8777017834472
 30
0.0
 10
112.3790147288497
 20
-157.8777017834472
 30
0.0
 10
112.2859971507479
 20
-157.7812391098603
 30
0.0
 10
112.4103650977655
 20
-157.6692735065896
 30
0.0
 10
112.5271538347154
 20
-157.5641980942895
 30
0.0
 10
112.6573784440579
 20
-157.736452868552
 30
0.0
 10
112.6573784440579
 20
-157.736452868552
 30
0.0
 10
112.6573784440579
 20
-157.736452868552
 30
0.0
 10
114.4557182873583
 20
-159.9378688836267
 30
0.0
 10
114.4557182873583
 20
-159.9378688836267
 30
0.0
 10
114.4557182873583
 20
-159.9378688836267
 30
0.0
 10
114.645198539047
 20
-160.1407850077079
 30
0.0
 10
114.5115288342193
 20
-160.2651529547254
 30
0.0
 10
114.3792371675858
 20
-160.39020992084
 30
0.0
 10
114.2703721502519
 20
-160.1766140007545
 30
0.0
 10
114.1914794636396
 20
-160.1039224860157
 30
0.0
  0
ENDBLK
  5
72
330
6F
100
AcDbEntity
  8
0
100
AcDbBlockEnd
  0
BLOCK
  5
7A
330
78
100
AcDbEntity
  8
0
100
AcDbBlockBegin
  2
block 6
 70
     0
 71
     0
 10
0.0
 20
0.0
 30
0.0
  3
block 6
  1

  0
SPLINE
  5
7C
330
78
100
AcDbEntity
  8
\U+30EC\U+30A4\U+30E4\U+30FC 1
 62
     7
370
     9
100
AcDbSpline
210
0.0
220
0.0
230
1.0
 70
     8
 71
     3
 72
    14
 73
    10
 74
     0
 42
0.0000000001
 43
0.0000000001
 40
0.0
 40
0.0
 40
0.0
 40
0.0
 40
1.0
 40
1.0
 40
1.0
 40
2.0
 40
2.0
 40
2.0
 40
3.0
 40
3.0
 40
3.0
 40
3.0
 10
107.7598307022267
 20
-151.959027739788
 30
0.0
 10
107.7598307022267
 20
-151.959027739788
 30
0.0
 10
107.5603596736307
 20
-152.1336940808902
 30
0.0
 10
107.7598307022267
 20
-152.4578775660522
 30
0.0
 10
107.9593017308227
 20
-152.7820610512142
 30
0.0
 10
108.8154079589073
 20
-153.8462510466079
 30
0.0
 10
108.8154079589073
 20
-153.8462510466079
 30
0.0
 10
108.8154079589073
 20
-153.8462510466079
 30
0.0
 10
109.0055772296931
 20
-154.1452853347276
 30
0.0
 10
109.3059895560068
 20
-153.9709635031739
 30
0.0
  0
SPLINE
  5
7D
330
78
100
AcDbEntity
  8
\U+30EC\U+30A4\U+30E4\U+30FC 1
 62
     7
370
     9
100
AcDbSpline
210
0.0
220
0.0
230
1.0
 70
     8
 71
     3
 72
    14
 73
    10
 74
     0
 42
0.0000000001
 43
0.0000000001
 40
0.0
 40
0.0
 40
0.0
 40
0.0
 40
1.0
 40
1.0
 40
1.0
 40
2.0
 40
2.0
 40
2.0
 40
3.0
 40
3.0
 40
3.0
 40
3.0
 10
107.584819851576
 20
-151.7178710558206
 30
0.0
 10
107.4353027075162
 20
-151.875656429045
 30
0.0
 10
107.2024142527133
 20
-152.2001844237555
 30
0.0
 10
107.4821560061156
 20
-152.5925807995255
 30
0.0
 10
107.7136664227244
 20
-152.9167642846875
 30
0.0
 10
108.2311197646089
 20
-153.5906249616023
 30
0.0
 10
108.5863091091382
 20
-154.0439995274612
 30
0.0
 10
108.8233316785233
 20
-154.3475124397117
 30
0.0
 10
109.1540608451073
 20
-154.386442018695
 30
0.0
 10
109.4679090438136
 20
-154.2045409770739
 30
0.0
  0
SPLINE
  5
7E
330
78
100
AcDbEntity
  8
\U+30EC\U+30A4\U+30E4\U+30FC 1
 62
     7
370
     9
100
AcDbSpline
210
0.0
220
0.0
230
1.0
 70
     8
 71
     3
 72
    14
 73
    10
 74
     0
 42
0.0000000001
 43
0.0000000001
 40
0.0
 40
0.0
 40
0.0
 40
0.0
 40
1.0
 40
1.0
 40
1.0
 40
2.0
 40
2.0
 40
2.0
 40
3.0
 40
3.0
 40
3.0
 40
3.0
 10
109.5953775767678
 20
-153.7845838374219
 30
0.0
 10
109.5953775767678
 20
-153.7845838374219
 30
0.0
 10
109.7938150767182
 20
-153.6099174963198
 30
0.0
 10
109.5953775767678
 20
-153.2857340111577
 30
0.0
 10
109.3952175290748
 20
-152.9615505259957
 30
0.0
 10
108.5387667914417
 20
-151.8970160210535
 30
0.0
 10
108.5387667914417
 20
-151.8970160210535
 30
0.0
 10
108.5387667914417
 20
-151.8970160210535
 30
0.0
 10
108.3475639920103
 20
-151.5979817329338
 30
0.0
 10
108.0478406847936
 20
-151.772648074036
 30
0.0
  0
SPLINE
  5
7F
330
78
100
AcDbEntity
  8
\U+30EC\U+30A4\U+30E4\U+30FC 1
 62
     7
370
     9
100
AcDbSpline
210
0.0
220
0.0
230
1.0
 70
     8
 71
     3
 72
    14
 73
    10
 74
     0
 42
0.0000000001
 43
0.0000000001
 40
0.0
 40
0.0
 40
0.0
 40
0.0
 40
1.0
 40
1.0
 40
1.0
 40
2.0
 40
2.0
 40
2.0
 40
3.0
 40
3.0
 40
3.0
 40
3.0
 10
109.7696994083215
 20
-154.0257405213894
 30
0.0
 10
109.9188720428328
 20
-153.8676106386164
 30
0.0
 10
110.1514159880872
 20
-153.543771663003
 30
0.0
 10
109.8716742346849
 20
-153.1510307776845
 30
0.0
 10
109.6401638180761
 20
-152.8265027829739
 30
0.0
 10
109.1227104761915
 20
-152.1529866156076
 30
0.0
 10
108.7682101507593
 20
-151.6992675402002
 30
0.0
 10
108.5308430718256
 20
-151.3960991374982
 30
0.0
 10
108.1994248861446
 20
-151.3568250489664
 30
0.0
 10
107.8859211969869
 20
-151.5394151096846
 30
0.0
  0
SPLINE
  5
80
330
78
100
AcDbEntity
  8
\U+30EC\U+30A4\U+30E4\U+30FC 1
 62
     7
370
     9
100
AcDbSpline
210
0.0
220
0.0
230
1.0
 70
    11
 71
     3
 72
    23
 73
    19
 74
     0
 42
0.0000000001
 43
0.0000000001
 40
0.0
 40
0.0
 40
0.0
 40
0.0
 40
1.0
 40
1.0
 40
1.0
 40
2.0
 40
2.0
 40
2.0
 40
3.0
 40
3.0
 40
3.0
 40
4.0
 40
4.0
 40
4.0
 40
5.0
 40
5.0
 40
5.0
 40
6.0
 40
6.0
 40
6.0
 40
6.0
 10
111.0020100633953
 20
-156.0469780425855
 30
0.0
 10
111.0020100633953
 20
-156.0469780425855
 30
0.0
 10
109.1892008190569
 20
-153.8214463591141
 30
0.0
 10
109.1892008190569
 20
-153.8214463591141
 30
0.0
 10
109.1892008190569
 20
-153.8214463591141
 30
0.0
 10
109.0958387314066
 20
-153.72429466643
 30
0.0
 10
109.2205511879726
 20
-153.6119845536109
 30
0.0
 10
109.3376844344711
 20
-153.5072536508593
 30
0.0
 10
109.4679090438136
 20
-153.6795084251218
 30
0.0
 10
109.4679090438136
 20
-153.6795084251218
 30
0.0
 10
109.4679090438136
 20
-153.6795084251218
 30
0.0
 10
111.266248887114
 20
-155.8809244401965
 30
0.0
 10
111.266248887114
 20
-155.8809244401965
 30
0.0
 10
111.266248887114
 20
-155.8809244401965
 30
0.0
 10
111.4557291388027
 20
-156.0841850738262
 30
0.0
 10
111.322059433975
 20
-156.2088975303922
 30
0.0
 10
111.1894232577929
 20
-156.3329209678612
 30
0.0
 10
111.0795247118135
 20
-156.1200140668728
 30
0.0
 10
111.0020100633953
 20
-156.0469780425855
 30
0.0
  0
ENDBLK
  5
7B
330
78
100
AcDbEntity
  8
0
100
AcDbBlockEnd
  0
BLOCK
  5
83
330
81
100
AcDbEntity
  8
0
100
AcDbBlockBegin
  2
block 7
 70
     0
 71
     0
 10
0.0
 20
0.0
 30
0.0
  3
block 7
  1

  0
SPLINE
  5
85
330
81
100
AcDbEntity
  8
\U+30EC\U+30A4\U+30E4\U+30FC 1
 62
     7
370
     9
100
AcDbSpline
210
0.0
220
0.0
230
1.0
 70
     8
 71
     3
 72
    14
 73
    10
 74
     0
 42
0.0000000001
 43
0.0000000001
 40
0.0
 40
0.0
 40
0.0
 40
0.0
 40
1.0
 40
1.0
 40
1.0
 40
2.0
 40
2.0
 40
2.0
 40
3.0
 40
3.0
 40
3.0
 40
3.0
 10
104.723668051076
 20
-148.021628109696
 30
0.0
 10
104.723668051076
 20
-148.021628109696
 30
0.0
 10
104.5345323089358
 20
-148.1871649477623
 30
0.0
 10
104.723668051076
 20
-148.4956732484664
 30
0.0
 10
104.9131483027648
 20
-148.8036647848477
 30
0.0
 10
105.7272243659293
 20
-149.8148003097685
 30
0.0
 10
105.7272243659293
 20
-149.8148003097685
 30
0.0
 10
105.7272243659293
 20
-149.8148003097685
 30
0.0
 10
105.9084363884535
 20
-150.0993651968502
 30
0.0
 10
106.1936902946321
 20
-149.9336561040097
 30
0.0
  0
SPLINE
  5
86
330
81
100
AcDbEntity
  8
\U+30EC\U+30A4\U+30E4\U+30FC 1
 62
     7
370
     9
100
AcDbSpline
210
0.0
220
0.0
230
1.0
 70
     8
 71
     3
 72
    14
 73
    10
 74
     0
 42
0.0000000001
 43
0.0000000001
 40
0.0
 40
0.0
 40
0.0
 40
0.0
 40
1.0
 40
1.0
 40
1.0
 40
2.0
 40
2.0
 40
2.0
 40
3.0
 40
3.0
 40
3.0
 40
3.0
 10
104.5572699391385
 20
-147.7923570051526
 30
0.0
 10
104.4153320051462
 20
-147.9423909135352
 30
0.0
 10
104.1945013845417
 20
-148.2505547046908
 30
0.0
 10
104.4601182464544
 20
-148.6234862909691
 30
0.0
 10
104.6795708288648
 20
-148.9314778273505
 30
0.0
 10
105.171874973707
 20
-149.5722655876069
 30
0.0
 10
105.5094943312615
 20
-150.0032470328117
 30
0.0
 10
105.7351480855454
 20
-150.2916015249271
 30
0.0
 10
106.0496853033487
 20
-150.3288085561678
 30
0.0
 10
106.3473415532743
 20
-150.1555202532597
 30
0.0
  0
SPLINE
  5
87
330
81
100
AcDbEntity
  8
\U+30EC\U+30A4\U+30E4\U+30FC 1
 62
     7
370
     9
100
AcDbSpline
210
0.0
220
0.0
230
1.0
 70
     8
 71
     3
 72
    26
 73
    22
 74
     0
 42
0.0000000001
 43
0.0000000001
 40
0.0
 40
0.0
 40
0.0
 40
0.0
 40
1.0
 40
1.0
 40
1.0
 40
2.0
 40
2.0
 40
2.0
 40
3.0
 40
3.0
 40
3.0
 40
4.0
 40
4.0
 40
4.0
 40
5.0
 40
5.0
 40
5.0
 40
6.0
 40
6.0
 40
6.0
 40
7.0
 40
7.0
 40
7.0
 40
7.0
 10
106.63328447855
 20
-149.9856770458369
 30
0.0
 10
106.7755669220908
 20
-149.83547088268
 30
0.0
 10
106.9970865617924
 20
-149.5271348367502
 30
0.0
 10
106.7314696998796
 20
-149.1540309956976
 30
0.0
 10
106.5109835888236
 20
-148.8460394593163
 30
0.0
 10
106.019712972627
 20
-148.2057684633826
 30
0.0
 10
105.681749105524
 20
-147.774270253855
 30
0.0
 10
105.4564398607887
 20
-147.4862602712882
 30
0.0
 10
105.1415581334368
 20
-147.4490532400475
 30
0.0
 10
104.8452799217054
 20
-147.6226860525041
 30
0.0
 10
104.8452799217054
 20
-147.6226860525041
 30
0.0
 10
104.8008381899456
 20
-147.883824290286
 30
0.0
 10
104.9982421612504
 20
-147.8442056922056
 30
0.0
 10
105.2559353035471
 20
-147.7923570051526
 30
0.0
 10
105.4647080899533
 20
-147.9628892316725
 30
0.0
 10
105.4647080899533
 20
-147.9628892316725
 30
0.0
 10
105.4647080899533
 20
-147.9628892316725
 30
0.0
 10
106.2777506244722
 20
-148.9741970113676
 30
0.0
 10
106.467919895258
 20
-149.2821885477489
 30
0.0
 10
106.6574001469468
 20
-149.5901800841303
 30
0.0
 10
106.467919895258
 20
-149.7562336865193
 30
0.0
 10
106.467919895258
 20
-149.7562336865193
 30
0.0
  0
SPLINE
  5
88
330
81
100
AcDbEntity
  8
\U+30EC\U+30A4\U+30E4\U+30FC 1
 62
     7
370
     9
100
AcDbSpline
210
0.0
220
0.0
230
1.0
 70
    11
 71
     3
 72
    23
 73
    19
 74
     0
 42
0.0000000001
 43
0.0000000001
 40
0.0
 40
0.0
 40
0.0
 40
0.0
 40
1.0
 40
1.0
 40
1.0
 40
2.0
 40
2.0
 40
2.0
 40
3.0
 40
3.0
 40
3.0
 40
4.0
 40
4.0
 40
4.0
 40
5.0
 40
5.0
 40
5.0
 40
6.0
 40
6.0
 40
6.0
 40
6.0
 10
107.8049614530835
 20
-151.9066622884122
 30
0.0
 10
107.8049614530835
 20
-151.9066622884122
 30
0.0
 10
106.0827582200071
 20
-149.7910291509203
 30
0.0
 10
106.0827582200071
 20
-149.7910291509203
 30
0.0
 10
106.0827582200071
 20
-149.7910291509203
 30
0.0
 10
105.9945637755847
 20
-149.6990451014641
 30
0.0
 10
106.1120415316317
 20
-149.5929361605184
 30
0.0
 10
106.2233181158053
 20
-149.4933729009947
 30
0.0
 10
106.3473415532743
 20
-149.6566704269956
 30
0.0
 10
106.3473415532743
 20
-149.6566704269956
 30
0.0
 10
106.3473415532743
 20
-149.6566704269956
 30
0.0
 10
108.0561089139582
 20
-151.7488769151878
 30
0.0
 10
108.0561089139582
 20
-151.7488769151878
 30
0.0
 10
108.0561089139582
 20
-151.7488769151878
 30
0.0
 10
108.2359428982882
 20
-151.9418022623618
 30
0.0
 10
108.1098524035281
 20
-152.0606580566029
 30
0.0
 10
107.9834173992194
 20
-152.178824831747
 30
0.0
 10
107.8797200251134
 20
-151.9762532172143
 30
0.0
 10
107.8049614530835
 20
-151.9066622884122
 30
0.0
  0
ENDBLK
  5
84
330
81
100
AcDbEntity
  8
0
100
AcDbBlockEnd
  0
ENDSEC
  0
SECTION
  2
ENTITIES
  0
INSERT
  5
3D
330
1F
100
AcDbEntity
  8
\U+30EC\U+30A4\U+30E4\U+30FC 1
100
AcDbBlockReference
  2
block 2
 10
0.0
 20
0.0
 30
0.0
  0
ENDSEC
  0
SECTION
  2
OBJECTS
  0
DICTIONARY
  5
C
330
0
100
AcDbDictionary
281
     1
  3
ACAD_GROUP
350
D
  3
ACAD_LAYOUT
350
1A
  3
ACAD_MLINESTYLE
350
17
  3
ACAD_PLOTSETTINGS
350
19
  3
ACAD_PLOTSTYLENAME
350
E
  3
ACAD_TABLESTYLE
350
169
  3
ACAD_VISUALSTYLE
350
2A
  0
DICTIONARY
  5
D
102
{ACAD_REACTORS
330
C
102
}
330
C
100
AcDbDictionary
281
     1
  0
DICTIONARY
  5
1A
102
{ACAD_REACTORS
330
C
102
}
330
C
100
AcDbDictionary
281
     1
  3
Layout1
350
1E
  3
Layout2
350
26
  3
Model
350
22
  0
DICTIONARY
  5
17
102
{ACAD_REACTORS
330
C
102
}
330
C
100
AcDbDictionary
281
     1
  3
Standard
350
18
  0
DICTIONARY
  5
19
102
{ACAD_REACTORS
330
C
102
}
330
C
100
AcDbDictionary
281
     1
  0
ACDBDICTIONARYWDFLT
  5
E
102
{ACAD_REACTORS
330
C
102
}
330
C
100
AcDbDictionary
281
     1
  3
Normal
350
F
100
AcDbDictionaryWithDefault
340
F
  0
DICTIONARY
  5
169
102
{ACAD_REACTORS
330
C
102
}
330
C
100
AcDbDictionary
281
     1
  0
DICTIONARY
  5
2A
102
{ACAD_REACTORS
330
C
102
}
330
C
100
AcDbDictionary
281
     1
  3
2dWireframe
350
2F
  3
3D Hidden
350
31
  3
3dWireframe
350
30
  3
Basic
350
32
  3
Brighten
350
36
  3
ColorChange
350
3A
  3
Conceptual
350
34
  3
Dim
350
35
  3
Facepattern
350
39
  3
Flat
350
2B
  3
FlatWithEdges
350
2C
  3
Gouraud
350
2D
  3
GouraudWithEdges
350
2E
  3
Linepattern
350
38
  3
Realistic
350
33
  3
Thicken
350
37
  0
LAYOUT
  5
1E
102
{ACAD_REACTORS
330
1A
102
}
330
1A
100
AcDbPlotSettings
  1

  2
none_device
  4

  6

 40
0.0
 41
0.0
 42
0.0
 43
0.0
 44
0.0
 45
0.0
 46
0.0
 47
0.0
 48
0.0
 49
0.0
140
0.0
141
0.0
142
1.0
143
1.0
 70
   688
 72
     0
 73
     0
 74
     5
  7

 75
    16
147
1.0
148
0.0
149
0.0
100
AcDbLayout
  1
Layout1
 70
     1
 71
     1
 10
0.0
 20
0.0
 11
12.0
 21
9.0
 12
0.0
 22
0.0
 32
0.0
 14
1.000000000000000E+20
 24
1.000000000000000E+20
 34
1.000000000000000E+20
 15
-1.000000000000000E+20
 25
-1.000000000000000E+20
 35
-1.000000000000000E+20
146
0.0
 13
0.0
 23
0.0
 33
0.0
 16
1.0
 26
0.0
 36
0.0
 17
0.0
 27
1.0
 37
0.0
 76
     0
330
1B
  0
LAYOUT
  5
26
102
{ACAD_REACTORS
330
1A
102
}
330
1A
100
AcDbPlotSettings
  1

  2
none_device
  4

  6

 40
0.0
 41
0.0
 42
0.0
 43
0.0
 44
0.0
 45
0.0
 46
0.0
 47
0.0
 48
0.0
 49
0.0
140
0.0
141
0.0
142
1.0
143
1.0
 70
   688
 72
     0
 73
     0
 74
     5
  7

 75
    16
147
1.0
148
0.0
149
0.0
100
AcDbLayout
  1
Layout2
 70
     1
 71
     2
 10
0.0
 20
0.0
 11
0.0
 21
0.0
 12
0.0
 22
0.0
 32
0.0
 14
0.0
 24
0.0
 34
0.0
 15
0.0
 25
0.0
 35
0.0
146
0.0
 13
0.0
 23
0.0
 33
0.0
 16
1.0
 26
0.0
 36
0.0
 17
0.0
 27
1.0
 37
0.0
 76
     0
330
23
  0
LAYOUT
  5
22
102
{ACAD_REACTORS
330
1A
102
}
330
1A
100
AcDbPlotSettings
  1

  2
none_device
  4

  6

 40
0.0
 41
0.0
 42
0.0
 43
0.0
 44
0.0
 45
0.0
 46
0.0
 47
0.0
 48
0.0
 49
0.0
140
0.0
141
0.0
142
1.0
143
1.0
 70
  1712
 72
     0
 73
     0
 74
     0
  7

 75
     0
147
1.0
148
0.0
149
0.0
100
AcDbLayout
  1
Model
 70
     1
 71
     0
 10
0.0
 20
0.0
 11
12.0
 21
9.0
 12
0.0
 22
0.0
 32
0.0
 14
1.000000000000000E+20
 24
1.000000000000000E+20
 34
1.000000000000000E+20
 15
-1.000000000000000E+20
 25
-1.000000000000000E+20
 35
-1.000000000000000E+20
146
0.0
 13
0.0
 23
0.0
 33
0.0
 16
1.0
 26
0.0
 36
0.0
 17
0.0
 27
1.0
 37
0.0
 76
     0
330
1F
331
29
  0
MLINESTYLE
  5
18
102
{ACAD_REACTORS
330
17
102
}
330
17
100
AcDbMlineStyle
  2
Standard
 70
     0
  3

 62
   256
 51
90.0
 52
90.0
 71
     2
 49
0.5
 62
   256
  6
BYLAYER
 49
-0.5
 62
   256
  6
BYLAYER
  0
ACDBPLACEHOLDER
  5
F
102
{ACAD_REACTORS
330
E
102
}
330
E
  0
VISUALSTYLE
  5
2F
102
{ACAD_REACTORS
330
2A
102
}
330
2A
100
AcDbVisualStyle
  2
2dWireframe
 70
     4
 71
     0
 72
     2
 73
     0
 90
        0
 40
-0.6
 41
-30.0
 62
     5
 63
     7
 74
     1
 91
        4
 64
     7
 65
   257
 75
     1
175
     1
 42
1.0
 92
        0
 66
   257
 43
1.0
 76
     1
 77
     6
 78
     2
 67
     7
 79
     5
170
     0
171
     0
290
     0
174
     0
 93
        1
 44
0.0
173
     0
291
     0
 45
0.0
1001
ACAD
1000
AcDbSavedByObjectVersion
1070
     0
  0
VISUALSTYLE
  5
31
102
{ACAD_REACTORS
330
2A
102
}
330
2A
100
AcDbVisualStyle
  2
3D Hidden
 70
     6
 71
     1
 72
     2
 73
     2
 90
        0
 40
-0.6
 41
-30.0
 62
     5
 63
     7
 74
     2
 91
        2
 64
     7
 65
   257
 75
     2
175
     1
 42
40.0
 92
        0
 66
   257
 43
1.0
 76
     1
 77
     6
 78
     2
 67
     7
 79
     3
170
     0
171
     0
290
     0
174
     0
 93
        1
 44
0.0
173
     0
291
     0
 45
0.0
1001
ACAD
1000
AcDbSavedByObjectVersion
1070
     0
  0
VISUALSTYLE
  5
30
102
{ACAD_REACTORS
330
2A
102
}
330
2A
100
AcDbVisualStyle
  2
3dWireframe
 70
     5
 71
     0
 72
     2
 73
     0
 90
        0
 40
-0.6
 41
-30.0
 62
     5
 63
     7
 74
     1
 91
        4
 64
     7
 65
   257
 75
     1
175
     1
 42
1.0
 92
        0
 66
   257
 43
1.0
 76
     1
 77
     6
 78
     2
 67
     7
 79
     5
170
     0
171
     0
290
     0
174
     0
 93
        1
 44
0.0
173
     0
291
     0
 45
0.0
1001
ACAD
1000
AcDbSavedByObjectVersion
1070
     0
  0
VISUALSTYLE
  5
32
102
{ACAD_REACTORS
330
2A
102
}
330
2A
100
AcDbVisualStyle
  2
Basic
 70
     7
 71
     1
 72
     0
 73
     1
 90
        0
 40
-0.6
 41
-30.0
 62
     5
 63
     7
 74
     0
 91
        4
 64
     7
 65
   257
 75
     1
175
     1
 42
1.0
 92
        8
 66
     7
 43
1.0
 76
     1
 77
     6
 78
     2
 67
     7
 79
     5
170
     0
171
     0
290
     0
174
     0
 93
        1
 44
0.0
173
     0
291
     1
 45
0.0
1001
ACAD
1000
AcDbSavedByObjectVersion
1070
     0
  0
VISUALSTYLE
  5
36
102
{ACAD_REACTORS
330
2A
102
}
330
2A
100
AcDbVisualStyle
  2
Brighten
 70
    12
 71
     2
 72
     2
 73
     0
 90
        0
 40
-0.6
 41
-30.0
 62
     5
 63
     7
 74
     1
 91
        4
 64
     7
 65
   257
 75
     1
175
     1
 42
1.0
 92
        8
 66
     7
 43
1.0
 76
     1
 77
     6
 78
     2
 67
     7
 79
     5
170
     0
171
     0
290
     0
174
     0
 93
        1
 44
50.0
173
     0
291
     1
 45
0.0
1001
ACAD
1000
AcDbSavedByObjectVersion
1070
     0
  0
VISUALSTYLE
  5
3A
102
{ACAD_REACTORS
330
2A
102
}
330
2A
100
AcDbVisualStyle
  2
ColorChange
 70
    16
 71
     2
 72
     2
 73
     3
 90
        0
 40
-0.6
 41
-30.0
 62
     5
 63
     8
 74
     1
 91
        4
 64
     7
 65
   257
 75
     1
175
     1
 42
1.0
 92
        8
 66
     8
 43
1.0
 76
     1
 77
     6
 78
     2
 67
     7
 79
     5
170
     0
171
     0
290
     0
174
     0
 93
        1
 44
0.0
173
     0
291
     1
 45
0.0
1001
ACAD
1000
AcDbSavedByObjectVersion
1070
     0
  0
VISUALSTYLE
  5
34
102
{ACAD_REACTORS
330
2A
102
}
330
2A
100
AcDbVisualStyle
  2
Conceptual
 70
     9
 71
     3
 72
     2
 73
     0
 90
        0
 40
-0.6
 41
-30.0
 62
     5
 63
     7
 74
     2
 91
        2
 64
     7
 65
   257
 75
     1
175
     1
 42
40.0
 92
        8
 66
     7
 43
1.0
 76
     1
 77
     6
 78
     2
 67
     7
 79
     3
170
     0
171
     0
290
     0
174
     0
 93
        1
 44
0.0
173
     0
291
     0
 45
0.0
1001
ACAD
1000
AcDbSavedByObjectVersion
1070
     0
  0
VISUALSTYLE
  5
35
102
{ACAD_REACTORS
330
2A
102
}
330
2A
100
AcDbVisualStyle
  2
Dim
 70
    11
 71
     2
 72
     2
 73
     0
 90
        0
 40
-0.6
 41
-30.0
 62
     5
 63
     7
 74
     1
 91
        4
 64
     7
 65
   257
 75
     1
175
     1
 42
1.0
 92
        8
 66
     7
 43
1.0
 76
     1
 77
     6
 78
     2
 67
     7
 79
     5
170
     0
171
     0
290
     0
174
     0
 93
        1
 44
-50.0
173
     0
291
     1
 45
0.0
1001
ACAD
1000
AcDbSavedByObjectVersion
1070
     0
  0
VISUALSTYLE
  5
39
102
{ACAD_REACTORS
330
2A
102
}
330
2A
100
AcDbVisualStyle
  2
Facepattern
 70
    15
 71
     2
 72
     2
 73
     0
 90
        0
 40
-0.6
 41
-30.0
 62
     5
 63
     7
 74
     1
 91
        4
 64
     7
 65
   257
 75
     1
175
     1
 42
1.0
 92
        8
 66
     7
 43
1.0
 76
     1
 77
     6
 78
     2
 67
     7
 79
     5
170
     0
171
     0
290
     0
174
     0
 93
        1
 44
0.0
173
     0
291
     1
 45
0.0
1001
ACAD
1000
AcDbSavedByObjectVersion
1070
     0
  0
VISUALSTYLE
  5
2B
102
{ACAD_REACTORS
330
2A
102
}
330
2A
100
AcDbVisualStyle
  2
Flat
 70
     0
 71
     2
 72
     1
 73
     1
 90
        2
 40
-0.6
 41
30.0
 62
     5
 63
     7
 74
     0
 91
        4
 64
     7
 65
   257
 75
     1
175
     1
 42
1.0
 92
        8
 66
     7
 43
1.0
 76
     1
 77
     6
 78
     2
 67
     7
 79
     5
170
     0
171
     0
290
     0
174
     0
 93
       13
 44
0.0
173
     0
291
     1
 45
0.0
1001
ACAD
1000
AcDbSavedByObjectVersion
1070
     0
  0
VISUALSTYLE
  5
2C
102
{ACAD_REACTORS
330
2A
102
}
330
2A
100
AcDbVisualStyle
  2
FlatWithEdges
 70
     1
 71
     2
 72
     1
 73
     1
 90
        2
 40
-0.6
 41
30.0
 62
     5
 63
     7
 74
     1
 91
        4
 64
     7
 65
   257
 75
     1
175
     1
 42
1.0
 92
        0
 66
   257
 43
1.0
 76
     1
 77
     6
 78
     2
 67
     7
 79
     5
170
     0
171
     0
290
     0
174
     0
 93
       13
 44
0.0
173
     0
291
     1
 45
0.0
1001
ACAD
1000
AcDbSavedByObjectVersion
1070
     0
  0
VISUALSTYLE
  5
2D
102
{ACAD_REACTORS
330
2A
102
}
330
2A
100
AcDbVisualStyle
  2
Gouraud
 70
     2
 71
     2
 72
     2
 73
     1
 90
        2
 40
-0.6
 41
30.0
 62
     5
 63
     7
 74
     0
 91
        4
 64
     7
 65
   257
 75
     1
175
     1
 42
1.0
 92
        0
 66
     7
 43
1.0
 76
     1
 77
     6
 78
     2
 67
     7
 79
     5
170
     0
171
     0
290
     0
174
     0
 93
       13
 44
0.0
173
     0
291
     1
 45
0.0
1001
ACAD
1000
AcDbSavedByObjectVersion
1070
     0
  0
VISUALSTYLE
  5
2E
102
{ACAD_REACTORS
330
2A
102
}
330
2A
100
AcDbVisualStyle
  2
GouraudWithEdges
 70
     3
 71
     2
 72
     2
 73
     1
 90
        2
 40
-0.6
 41
30.0
 62
     5
 63
     7
 74
     1
 91
        4
 64
     7
 65
   257
 75
     1
175
     1
 42
1.0
 92
        0
 66
   257
 43
1.0
 76
     1
 77
     6
 78
     2
 67
     7
 79
     5
170
     0
171
     0
290
     0
174
     0
 93
       13
 44
0.0
173
     0
291
     1
 45
0.0
1001
ACAD
1000
AcDbSavedByObjectVersion
1070
     0
  0
VISUALSTYLE
  5
38
102
{ACAD_REACTORS
330
2A
102
}
330
2A
100
AcDbVisualStyle
  2
Linepattern
 70
    14
 71
     2
 72
     2
 73
     0
 90
        0
 40
-0.6
 41
-30.0
 62
     5
 63
     7
 74
     1
 91
        4
 64
     7
 65
   257
 75
     7
175
     7
 42
1.0
 92
        8
 66
     7
 43
1.0
 76
     1
 77
     6
 78
     2
 67
     7
 79
     5
170
     0
171
     0
290
     0
174
     0
 93
        1
 44
0.0
173
     0
291
     1
 45
0.0
1001
ACAD
1000
AcDbSavedByObjectVersion
1070
     0
  0
VISUALSTYLE
  5
33
102
{ACAD_REACTORS
330
2A
102
}
330
2A
100
AcDbVisualStyle
  2
Realistic
 70
     8
 71
     2
 72
     2
 73
     0
 90
        0
 40
-0.6
 41
-30.0
 62
     5
 63
     7
 74
     1
 91
        0
 64
     7
 65
   257
 75
     1
175
     1
 42
1.0
 92
        8
 66
     8
 43
1.0
 76
     1
 77
     6
 78
     2
 67
     7
 79
     5
170
     0
171
     0
290
     0
174
     0
 93
       13
 44
0.0
173
     0
291
     0
 45
0.0
1001
ACAD
1000
AcDbSavedByObjectVersion
1070
     0
  0
VISUALSTYLE
  5
37
102
{ACAD_REACTORS
330
2A
102
}
330
2A
100
AcDbVisualStyle
  2
Thicken
 70
    13
 71
     2
 72
     2
 73
     0
 90
        0
 40
-0.6
 41
-30.0
 62
     5
 63
     7
 74
     1
 91
        4
 64
     7
 65
   257
 75
     1
175
     1
 42
1.0
 92
       12
 66
     7
 43
1.0
 76
     1
 77
     6
 78
     2
 67
     7
 79
     5
170
     0
171
     0
290
     0
174
     0
 93
        1
 44
0.0
173
     0
291
     1
 45
0.0
1001
ACAD
1000
AcDbSavedByObjectVersion
1070
     0
  0
ENDSEC
  0
EOF
