  0
SECTION
  2
HEADER
  9
$ACADVER
  1
AC1015
  9
$ACADMAINTVER
 70
    20
  9
$DWGCODEPAGE
  3
ANSI_932
  9
$INSBASE
 10
0.0
 20
0.0
 30
0.0
  9
$EXTMIN
 10
0.9482187170107465
 20
1.021827020372267
 30
0.0
  9
$EXTMAX
 10
411.5773635152999
 20
284.8521970706
 30
0.0
  9
$LIMMIN
 10
0.0
 20
0.0
  9
$LIMMAX
 10
420.0
 20
297.0
  9
$ORTHOMODE
 70
     0
  9
$REGENMODE
 70
     1
  9
$FILLMODE
 70
     1
  9
$QTEXTMODE
 70
     0
  9
$MIRRTEXT
 70
     1
  9
$LTSCALE
 40
1.0
  9
$ATTMODE
 70
     1
  9
$TEXTSIZE
 40
3.5
  9
$TRACEWID
 40
1.0
  9
$TEXTSTYLE
  7
Standard
  9
$CLAYER
  8
0
  9
$CELTYPE
  6
ByLayer
  9
$CECOLOR
 62
   256
  9
$CELTSCALE
 40
1.0
  9
$DISPSILH
 70
     0
  9
$DIMSCALE
 40
1.0
  9
$DIMASZ
 40
2.0
  9
$DIMEXO
 40
1.0
  9
$DIMDLI
 40
3.75
  9
$DIMRND
 40
0.0
  9
$DIMDLE
 40
0.0
  9
$DIMEXE
 40
1.0
  9
$DIMTP
 40
0.0
  9
$DIMTM
 40
0.0
  9
$DIMTXT
 40
3.5
  9
$DIMCEN
 40
2.5
  9
$DIMTSZ
 40
0.0
  9
$DIMTOL
 70
     0
  9
$DIMLIM
 70
     0
  9
$DIMTIH
 70
     1
  9
$DIMTOH
 70
     1
  9
$DIMSE1
 70
     0
  9
$DIMSE2
 70
     0
  9
$DIMTAD
 70
     1
  9
$DIMZIN
 70
     0
  9
$DIMBLK
  1

  9
$DIMASO
 70
     1
  9
$DIMSHO
 70
     1
  9
$DIMPOST
  1

  9
$DIMAPOST
  1

  9
$DIMALT
 70
     0
  9
$DIMALTD
 70
     3
  9
$DIMALTF
 40
0.0393700787
  9
$DIMLFAC
 40
5.0
  9
$DIMTOFL
 70
     1
  9
$DIMTVP
 40
0.0
  9
$DIMTIX
 70
     0
  9
$DIMSOXD
 70
     0
  9
$DIMSAH
 70
     0
  9
$DIMBLK1
  1

  9
$DIMBLK2
  1

  9
$DIMSTYLE
  2
ISO-25
  9
$DIMCLRD
 70
     0
  9
$DIMCLRE
 70
     0
  9
$DIMCLRT
 70
     0
  9
$DIMTFAC
 40
1.0
  9
$DIMGAP
 40
1.524
  9
$DIMJUST
 70
     0
  9
$DIMSD1
 70
     0
  9
$DIMSD2
 70
     0
  9
$DIMTOLJ
 70
     0
  9
$DIMTZIN
 70
     0
  9
$DIMALTZ
 70
     0
  9
$DIMALTTZ
 70
     0
  9
$DIMUPT
 70
     0
  9
$DIMDEC
 70
     1
  9
$DIMTDEC
 70
     1
  9
$DIMALTU
 70
     2
  9
$DIMALTTD
 70
     3
  9
$DIMTXSTY
  7
Standard
  9
$DIMAUNIT
 70
     0
  9
$DIMADEC
 70
     1
  9
$DIMALTRND
 40
0.0
  9
$DIMAZIN
 70
     0
  9
$DIMDSEP
 70
    44
  9
$DIMATFIT
 70
     3
  9
$DIMFRAC
 70
     0
  9
$DIMLDRBLK
  1

  9
$DIMLUNIT
 70
     2
  9
$DIMLWD
 70
    -2
  9
$DIMLWE
 70
    -2
  9
$DIMTMOVE
 70
     0
  9
$LUNITS
 70
     2
  9
$LUPREC
 70
     1
  9
$SKETCHINC
 40
1.0
  9
$FILLETRAD
 40
10.0
  9
$AUNITS
 70
     0
  9
$AUPREC
 70
     1
  9
$MENU
  1
.
  9
$ELEVATION
 40
0.0
  9
$PELEVATION
 40
0.0
  9
$THICKNESS
 40
0.0
  9
$LIMCHECK
 70
     0
  9
$CHAMFERA
 40
0.0
  9
$CHAMFERB
 40
0.0
  9
$CHAMFERC
 40
0.0
  9
$CHAMFERD
 40
0.0
  9
$SKPOLY
 70
     0
  9
$TDCREATE
 40
2458044.510310046
  9
$TDUCREATE
 40
2458044.135310046
  9
$TDUPDATE
 40
2458044.523668518
  9
$TDUUPDATE
 40
2458044.148668518
  9
$TDINDWG
 40
0.0101937731
  9
$TDUSRTIMER
 40
0.0101936806
  9
$USRTIMER
 70
     1
  9
$ANGBASE
 50
0.0
  9
$ANGDIR
 70
     0
  9
$PDMODE
 70
     0
  9
$PDSIZE
 40
-1.0
  9
$PLINEWID
 40
0.0
  9
$SPLFRAME
 70
     0
  9
$SPLINETYPE
 70
     6
  9
$SPLINESEGS
 70
     8
  9
$HANDSEED
  5
DCD
  9
$SURFTAB1
 70
     6
  9
$SURFTAB2
 70
     6
  9
$SURFTYPE
 70
     6
  9
$SURFU
 70
     6
  9
$SURFV
 70
     6
  9
$UCSBASE
  2

  9
$UCSNAME
  2

  9
$UCSORG
 10
0.0
 20
0.0
 30
0.0
  9
$UCSXDIR
 10
1.0
 20
0.0
 30
0.0
  9
$UCSYDIR
 10
0.0
 20
1.0
 30
0.0
  9
$UCSORTHOREF
  2

  9
$UCSORTHOVIEW
 70
     0
  9
$UCSORGTOP
 10
0.0
 20
0.0
 30
0.0
  9
$UCSORGBOTTOM
 10
0.0
 20
0.0
 30
0.0
  9
$UCSORGLEFT
 10
0.0
 20
0.0
 30
0.0
  9
$UCSORGRIGHT
 10
0.0
 20
0.0
 30
0.0
  9
$UCSORGFRONT
 10
0.0
 20
0.0
 30
0.0
  9
$UCSORGBACK
 10
0.0
 20
0.0
 30
0.0
  9
$PUCSBASE
  2

  9
$PUCSNAME
  2

  9
$PUCSORG
 10
0.0
 20
0.0
 30
0.0
  9
$PUCSXDIR
 10
1.0
 20
0.0
 30
0.0
  9
$PUCSYDIR
 10
0.0
 20
1.0
 30
0.0
  9
$PUCSORTHOREF
  2

  9
$PUCSORTHOVIEW
 70
     0
  9
$PUCSORGTOP
 10
0.0
 20
0.0
 30
0.0
  9
$PUCSORGBOTTOM
 10
0.0
 20
0.0
 30
0.0
  9
$PUCSORGLEFT
 10
0.0
 20
0.0
 30
0.0
  9
$PUCSORGRIGHT
 10
0.0
 20
0.0
 30
0.0
  9
$PUCSORGFRONT
 10
0.0
 20
0.0
 30
0.0
  9
$PUCSORGBACK
 10
0.0
 20
0.0
 30
0.0
  9
$USERI1
 70
     0
  9
$USERI2
 70
     0
  9
$USERI3
 70
     0
  9
$USERI4
 70
     0
  9
$USERI5
 70
     0
  9
$USERR1
 40
0.0
  9
$USERR2
 40
0.0
  9
$USERR3
 40
0.0
  9
$USERR4
 40
0.0
  9
$USERR5
 40
0.0
  9
$WORLDVIEW
 70
     1
  9
$SHADEDGE
 70
     3
  9
$SHADEDIF
 70
    70
  9
$TILEMODE
 70
     1
  9
$MAXACTVP
 70
    64
  9
$PINSBASE
 10
0.0
 20
0.0
 30
0.0
  9
$PLIMCHECK
 70
     0
  9
$PEXTMIN
 10
1.000000000000000E+20
 20
1.000000000000000E+20
 30
1.000000000000000E+20
  9
$PEXTMAX
 10
-1.000000000000000E+20
 20
-1.000000000000000E+20
 30
-1.000000000000000E+20
  9
$PLIMMIN
 10
0.0
 20
0.0
  9
$PLIMMAX
 10
420.0
 20
297.0
  9
$UNITMODE
 70
     0
  9
$VISRETAIN
 70
     1
  9
$PLINEGEN
 70
     0
  9
$PSLTSCALE
 70
     1
  9
$TREEDEPTH
 70
  3020
  9
$CMLSTYLE
  2
Standard
  9
$CMLJUST
 70
     0
  9
$CMLSCALE
 40
20.0
  9
$PROXYGRAPHICS
 70
     1
  9
$MEASUREMENT
 70
     1
  9
$CELWEIGHT
370
    -1
  9
$ENDCAPS
280
     0
  9
$JOINSTYLE
280
     0
  9
$LWDISPLAY
290
     1
  9
$INSUNITS
 70
     4
  9
$HYPERLINKBASE
  1

  9
$STYLESHEET
  1

  9
$XEDIT
290
     1
  9
$CEPSNTYPE
380
     0
  9
$PSTYLEMODE
290
     1
  9
$FINGERPRINTGUID
  2
{7F0CCDB3-09D5-4BE0-86DF-1A76581823F7}
  9
$VERSIONGUID
  2
{492E7468-5EB3-41EB-B791-2BE3F6E088D1}
  9
$EXTNAMES
290
     1
  9
$PSVPSCALE
 40
0.0
  9
$OLESTARTUP
290
     0
  0
ENDSEC
  0
SECTION
  2
CLASSES
  0
CLASS
  1
ACDBDICTIONARYWDFLT
  2
AcDbDictionaryWithDefault
  3
ObjectDBX Classes
 90
        0
280
     0
281
     0
  0
CLASS
  1
VISUALSTYLE
  2
AcDbVisualStyle
  3
ObjectDBX Classes
 90
     4095
280
     0
281
     0
  0
CLASS
  1
MATERIAL
  2
AcDbMaterial
  3
ObjectDBX Classes
 90
     1153
280
     0
281
     0
  0
CLASS
  1
SCALE
  2
AcDbScale
  3
ObjectDBX Classes
 90
     1153
280
     0
281
     0
  0
CLASS
  1
TABLESTYLE
  2
AcDbTableStyle
  3
ObjectDBX Classes
 90
     4095
280
     0
281
     0
  0
CLASS
  1
MLEADERSTYLE
  2
AcDbMLeaderStyle
  3
ACDB_MLEADERSTYLE_CLASS
 90
     4095
280
     0
281
     0
  0
CLASS
  1
SUN
  2
AcDbSun
  3
SCENEOE
 90
    33921
280
     0
281
     0
  0
CLASS
  1
ACDBPLACEHOLDER
  2
AcDbPlaceHolder
  3
ObjectDBX Classes
 90
        0
280
     0
281
     0
  0
CLASS
  1
LAYOUT
  2
AcDbLayout
  3
ObjectDBX Classes
 90
        0
280
     0
281
     0
  0
CLASS
  1
ACDBSECTIONVIEWSTYLE
  2
AcDbSectionViewStyle
  3
ObjectDBX Classes
 90
     1025
280
     0
281
     0
  0
CLASS
  1
ACDBDETAILVIEWSTYLE
  2
AcDbDetailViewStyle
  3
ObjectDBX Classes
 90
     1025
280
     0
281
     0
  0
CLASS
  1
DICTIONARYVAR
  2
AcDbDictionaryVar
  3
ObjectDBX Classes
 90
        0
280
     0
281
     0
  0
CLASS
  1
CELLSTYLEMAP
  2
AcDbCellStyleMap
  3
ObjectDBX Classes
 90
     1152
280
     0
281
     0
  0
ENDSEC
  0
SECTION
  2
TABLES
  0
TABLE
  2
VPORT
  5
8
330
0
100
AcDbSymbolTable
 70
     1
  0
VPORT
  5
29
330
8
100
AcDbSymbolTableRecord
100
AcDbViewportTableRecord
  2
*Active
 70
     0
 10
0.0
 20
0.0
 11
1.0
 21
1.0
 12
9.000822330578216
 22
11.90087233883753
 13
0.0
 23
0.0
 14
10.0
 24
10.0
 15
10.0
 25
10.0
 16
0.0
 26
0.0
 36
1.0
 17
0.0
 27
0.0
 37
0.0
 40
6.218017103797368
 41
2.232941176470588
 42
50.0
 43
0.0
 44
0.0
 50
0.0
 51
0.0
 71
     0
 72
  2000
 73
     1
 74
     3
 75
     0
 76
     0
 77
     0
 78
     0
281
     0
 65
     1
110
0.0
120
0.0
130
0.0
111
1.0
121
0.0
131
0.0
112
0.0
122
1.0
132
0.0
 79
     0
146
0.0
1001
ACAD_NAV_VCDISPLAY
1070
     3
  0
ENDTAB
  0
TABLE
  2
LTYPE
  5
5
330
0
100
AcDbSymbolTable
 70
     7
  0
LTYPE
  5
14
330
5
100
AcDbSymbolTableRecord
100
AcDbLinetypeTableRecord
  2
ByBlock
 70
     0
  3

 72
    65
 73
     0
 40
0.0
  0
LTYPE
  5
15
330
5
100
AcDbSymbolTableRecord
100
AcDbLinetypeTableRecord
  2
ByLayer
 70
     0
  3

 72
    65
 73
     0
 40
0.0
  0
LTYPE
  5
16
330
5
100
AcDbSymbolTableRecord
100
AcDbLinetypeTableRecord
  2
Continuous
 70
     0
  3
Solid line
 72
    65
 73
     0
 40
0.0
  0
LTYPE
  5
6E
330
5
100
AcDbSymbolTableRecord
100
AcDbLinetypeTableRecord
  2
HIDDEN
 70
     0
  3
Hidden __ __ __ __ __ __ __ __ __ __ __ __ __ __
 72
    65
 73
     2
 40
1.905
 49
1.27
 74
     0
 49
-0.635
 74
     0
  0
LTYPE
  5
6F
330
5
100
AcDbSymbolTableRecord
100
AcDbLinetypeTableRecord
  2
PHANTOM
 70
     0
  3
Phantom ______  __  __  ______  __  __  ______
 72
    65
 73
     6
 40
12.7
 49
6.349999999999999
 74
     0
 49
-1.27
 74
     0
 49
1.27
 74
     0
 49
-1.27
 74
     0
 49
1.27
 74
     0
 49
-1.27
 74
     0
  0
LTYPE
  5
70
330
5
100
AcDbSymbolTableRecord
100
AcDbLinetypeTableRecord
  2
CENTER
 70
     0
  3
Center ____ _ ____ _ ____ _ ____ _ ____ _ ____
 72
    65
 73
     4
 40
10.16
 49
6.349999999999999
 74
     0
 49
-1.27
 74
     0
 49
1.27
 74
     0
 49
-1.27
 74
     0
  0
LTYPE
  5
71
330
5
100
AcDbSymbolTableRecord
100
AcDbLinetypeTableRecord
  2
CENTERX2
 70
     0
  3
Center (2x) ________  __  ________  __  _____
 72
    65
 73
     4
 40
20.32
 49
12.7
 74
     0
 49
-2.54
 74
     0
 49
2.54
 74
     0
 49
-2.54
 74
     0
  0
LTYPE
  5
72
330
5
100
AcDbSymbolTableRecord
100
AcDbLinetypeTableRecord
  2
DOT2
 70
     0
  3
Dot (.5x) ........................................
 72
    65
 73
     2
 40
0.635
 49
0.0
 74
     0
 49
-0.635
 74
     0
  0
ENDTAB
  0
TABLE
  2
LAYER
  5
2
330
0
100
AcDbSymbolTable
 70
     4
  0
LAYER
  5
10
102
{ACAD_XDICTIONARY
360
CB6
102
}
330
2
100
AcDbSymbolTableRecord
100
AcDbLayerTableRecord
  2
0
 70
     0
 62
     7
  6
Continuous
370
    -3
390
F
  0
LAYER
  5
73
102
{ACAD_XDICTIONARY
360
CB8
102
}
330
2
100
AcDbSymbolTableRecord
100
AcDbLayerTableRecord
  2
FORMAT
 70
     0
 62
     7
  6
Continuous
370
    -3
390
F
  0
LAYER
  5
74
102
{ACAD_XDICTIONARY
360
CBA
102
}
330
2
100
AcDbSymbolTableRecord
100
AcDbLayerTableRecord
  2
図枠
 70
     0
 62
     7
  6
Continuous
370
    25
390
F
  0
LAYER
  5
75
102
{ACAD_XDICTIONARY
360
CBC
102
}
330
2
100
AcDbSymbolTableRecord
100
AcDbLayerTableRecord
  2
ﾚｲﾔｰ2
 70
     0
 62
     7
  6
Continuous
370
    -3
390
F
  0
ENDTAB
  0
TABLE
  2
STYLE
  5
3
330
0
100
AcDbSymbolTable
 70
     2
  0
STYLE
  5
11
330
3
100
AcDbSymbolTableRecord
100
AcDbTextStyleTableRecord
  2
Standard
 70
     0
 40
0.0
 41
1.0
 50
0.0
 71
     0
 42
3.5
  3
txt
  4
bigfont
  0
STYLE
  5
7C
330
3
100
AcDbSymbolTableRecord
100
AcDbTextStyleTableRecord
  2
SLDTEXTSTYLE0
 70
     0
 40
0.0
 41
0.7
 50
0.0
 71
     0
 42
3.5
  3
TXT
  4
bigfont
  0
ENDTAB
  0
TABLE
  2
VIEW
  5
6
330
0
100
AcDbSymbolTable
 70
     0
  0
ENDTAB
  0
TABLE
  2
UCS
  5
7
330
0
100
AcDbSymbolTable
 70
     0
  0
ENDTAB
  0
TABLE
  2
APPID
  5
9
330
0
100
AcDbSymbolTable
 70
     4
  0
APPID
  5
12
330
9
100
AcDbSymbolTableRecord
100
AcDbRegAppTableRecord
  2
ACAD
 70
     0
  0
APPID
  5
CC8
330
9
100
AcDbSymbolTableRecord
100
AcDbRegAppTableRecord
  2
ACAD_NAV_VCDISPLAY
 70
     0
  0
APPID
  5
D47
330
9
100
AcDbSymbolTableRecord
100
AcDbRegAppTableRecord
  2
ACAD_EXEMPT_FROM_CAD_STANDARDS
 70
     0
  0
APPID
  5
DCC
330
9
100
AcDbSymbolTableRecord
100
AcDbRegAppTableRecord
  2
ACAD_MLEADERVER
 70
     0
  0
ENDTAB
  0
TABLE
  2
DIMSTYLE
  5
A
330
0
100
AcDbSymbolTable
 70
     2
100
AcDbDimStyleTable
 71
     1
340
27
  0
DIMSTYLE
105
27
330
A
100
AcDbSymbolTableRecord
100
AcDbDimStyleTableRecord
  2
ISO-25
 70
     0
 41
2.5
 42
0.625
 43
3.75
 44
1.25
 73
     0
 74
     0
 77
     1
 78
     8
140
2.5
141
2.5
143
0.0393700787
147
0.625
171
     3
172
     1
271
     2
272
     2
274
     3
278
    44
283
     0
284
     8
340
11
  0
ENDTAB
  0
TABLE
  2
BLOCK_RECORD
  5
1
330
0
100
AcDbSymbolTable
 70
     8
  0
BLOCK_RECORD
  5
1F
330
1
100
AcDbSymbolTableRecord
100
AcDbBlockTableRecord
  2
*Model_Space
340
22
  0
BLOCK_RECORD
  5
1B
330
1
100
AcDbSymbolTableRecord
100
AcDbBlockTableRecord
  2
*Paper_Space
340
1E
  0
BLOCK_RECORD
  5
23
330
1
100
AcDbSymbolTableRecord
100
AcDbBlockTableRecord
  2
*Paper_Space0
340
26
  0
BLOCK_RECORD
  5
76
330
1
100
AcDbSymbolTableRecord
100
AcDbBlockTableRecord
  2
三角１
340
0
  0
BLOCK_RECORD
  5
7E
330
1
100
AcDbSymbolTableRecord
100
AcDbBlockTableRecord
  2
三角２
340
0
  0
BLOCK_RECORD
  5
85
330
1
100
AcDbSymbolTableRecord
100
AcDbBlockTableRecord
  2
三角３
340
0
  0
BLOCK_RECORD
  5
8C
330
1
100
AcDbSymbolTableRecord
100
AcDbBlockTableRecord
  2
三角４
340
0
  0
BLOCK_RECORD
  5
93
330
1
100
AcDbSymbolTableRecord
100
AcDbBlockTableRecord
  2
三角５
340
0
  0
BLOCK_RECORD
  5
9A
330
1
100
AcDbSymbolTableRecord
100
AcDbBlockTableRecord
  2
三角６
340
0
  0
ENDTAB
  0
ENDSEC
  0
SECTION
  2
BLOCKS
  0
BLOCK
  5
20
330
1F
100
AcDbEntity
  8
0
100
AcDbBlockBegin
  2
*Model_Space
 70
     0
 10
0.0
 20
0.0
 30
0.0
  3
*Model_Space
  1

  0
ENDBLK
  5
21
330
1F
100
AcDbEntity
  8
0
100
AcDbBlockEnd
  0
BLOCK
  5
1C
330
1B
100
AcDbEntity
 67
     1
  8
0
100
AcDbBlockBegin
  2
*Paper_Space
 70
     0
 10
0.0
 20
0.0
 30
0.0
  3
*Paper_Space
  1

  0
ENDBLK
  5
1D
330
1B
100
AcDbEntity
 67
     1
  8
0
100
AcDbBlockEnd
  0
BLOCK
  5
24
330
23
100
AcDbEntity
 67
     1
  8
0
100
AcDbBlockBegin
  2
*Paper_Space0
 70
     0
 10
0.0
 20
0.0
 30
0.0
  3
*Paper_Space0
  1

  0
ENDBLK
  5
25
330
23
100
AcDbEntity
 67
     1
  8
0
100
AcDbBlockEnd
  0
BLOCK
  5
77
330
76
100
AcDbEntity
  8
0
100
AcDbBlockBegin
  2
三角１
 70
     0
 10
0.0
 20
0.0
 30
0.0
  3
三角１
  1

  0
LINE
  5
79
330
76
100
AcDbEntity
  8
FORMAT
370
    18
100
AcDbLine
 10
0.0
 20
0.0
 30
0.0
 11
-1.75
 21
-3.5
 31
0.0
  0
LINE
  5
7A
330
76
100
AcDbEntity
  8
FORMAT
370
    18
100
AcDbLine
 10
-1.75
 20
-3.5
 30
0.0
 11
1.75
 21
-3.5
 31
0.0
  0
LINE
  5
7B
330
76
100
AcDbEntity
  8
FORMAT
370
    18
100
AcDbLine
 10
1.75
 20
-3.5
 30
0.0
 11
0.0
 21
0.0
 31
0.0
  0
MTEXT
  5
7D
330
76
100
AcDbEntity
  8
FORMAT
 62
     7
100
AcDbMText
 10
-0.6943926639
 20
-0.9380245362
 30
0.0
 40
2.1166666667
 41
0.0
 71
     1
 72
     1
  1
1
  7
SLDTEXTSTYLE0
 73
     1
 44
1.0
1001
ACAD
1000
MTEXTBEGIN
1070
    73
1070
     1
1070
    44
1040
1.0
1070
    74
1070
     0
1000
MTEXTEND
  0
ENDBLK
  5
78
330
76
100
AcDbEntity
  8
0
100
AcDbBlockEnd
  0
BLOCK
  5
7F
330
7E
100
AcDbEntity
  8
0
100
AcDbBlockBegin
  2
三角２
 70
     0
 10
0.0
 20
0.0
 30
0.0
  3
三角２
  1

  0
LINE
  5
81
330
7E
100
AcDbEntity
  8
FORMAT
370
    18
100
AcDbLine
 10
0.0
 20
0.0
 30
0.0
 11
-1.75
 21
-3.5
 31
0.0
  0
LINE
  5
82
330
7E
100
AcDbEntity
  8
FORMAT
370
    18
100
AcDbLine
 10
-1.75
 20
-3.5
 30
0.0
 11
1.75
 21
-3.5
 31
0.0
  0
LINE
  5
83
330
7E
100
AcDbEntity
  8
FORMAT
370
    18
100
AcDbLine
 10
1.75
 20
-3.5
 30
0.0
 11
0.0
 21
0.0
 31
0.0
  0
MTEXT
  5
84
330
7E
100
AcDbEntity
  8
FORMAT
 62
     7
100
AcDbMText
 10
-0.6943926639
 20
-0.9380245362
 30
0.0
 40
2.1166666667
 41
0.0
 71
     1
 72
     1
  1
2
  7
SLDTEXTSTYLE0
 73
     1
 44
1.0
1001
ACAD
1000
MTEXTBEGIN
1070
    73
1070
     1
1070
    44
1040
1.0
1070
    74
1070
     0
1000
MTEXTEND
  0
ENDBLK
  5
80
330
7E
100
AcDbEntity
  8
0
100
AcDbBlockEnd
  0
BLOCK
  5
86
330
85
100
AcDbEntity
  8
0
100
AcDbBlockBegin
  2
三角３
 70
     0
 10
0.0
 20
0.0
 30
0.0
  3
三角３
  1

  0
LINE
  5
88
330
85
100
AcDbEntity
  8
FORMAT
370
    18
100
AcDbLine
 10
0.0
 20
0.0
 30
0.0
 11
-1.75
 21
-3.5
 31
0.0
  0
LINE
  5
89
330
85
100
AcDbEntity
  8
FORMAT
370
    18
100
AcDbLine
 10
-1.75
 20
-3.5
 30
0.0
 11
1.75
 21
-3.5
 31
0.0
  0
LINE
  5
8A
330
85
100
AcDbEntity
  8
FORMAT
370
    18
100
AcDbLine
 10
1.75
 20
-3.5
 30
0.0
 11
0.0
 21
0.0
 31
0.0
  0
MTEXT
  5
8B
330
85
100
AcDbEntity
  8
FORMAT
 62
     7
100
AcDbMText
 10
-0.6943926639
 20
-0.9380245362
 30
0.0
 40
2.1166666667
 41
0.0
 71
     1
 72
     1
  1
3
  7
SLDTEXTSTYLE0
 73
     1
 44
1.0
1001
ACAD
1000
MTEXTBEGIN
1070
    73
1070
     1
1070
    44
1040
1.0
1070
    74
1070
     0
1000
MTEXTEND
  0
ENDBLK
  5
87
330
85
100
AcDbEntity
  8
0
100
AcDbBlockEnd
  0
BLOCK
  5
8D
330
8C
100
AcDbEntity
  8
0
100
AcDbBlockBegin
  2
三角４
 70
     0
 10
0.0
 20
0.0
 30
0.0
  3
三角４
  1

  0
LINE
  5
8F
330
8C
100
AcDbEntity
  8
FORMAT
370
    18
100
AcDbLine
 10
0.0
 20
0.0
 30
0.0
 11
-1.75
 21
-3.5
 31
0.0
  0
LINE
  5
90
330
8C
100
AcDbEntity
  8
FORMAT
370
    18
100
AcDbLine
 10
-1.75
 20
-3.5
 30
0.0
 11
1.75
 21
-3.5
 31
0.0
  0
LINE
  5
91
330
8C
100
AcDbEntity
  8
FORMAT
370
    18
100
AcDbLine
 10
1.75
 20
-3.5
 30
0.0
 11
0.0
 21
0.0
 31
0.0
  0
MTEXT
  5
92
330
8C
100
AcDbEntity
  8
FORMAT
 62
     7
100
AcDbMText
 10
-0.6943926639
 20
-0.9380245362
 30
0.0
 40
2.1166666667
 41
0.0
 71
     1
 72
     1
  1
4
  7
SLDTEXTSTYLE0
 73
     1
 44
1.0
1001
ACAD
1000
MTEXTBEGIN
1070
    73
1070
     1
1070
    44
1040
1.0
1070
    74
1070
     0
1000
MTEXTEND
  0
ENDBLK
  5
8E
330
8C
100
AcDbEntity
  8
0
100
AcDbBlockEnd
  0
BLOCK
  5
94
330
93
100
AcDbEntity
  8
0
100
AcDbBlockBegin
  2
三角５
 70
     0
 10
0.0
 20
0.0
 30
0.0
  3
三角５
  1

  0
LINE
  5
96
330
93
100
AcDbEntity
  8
FORMAT
370
    18
100
AcDbLine
 10
0.0
 20
0.0
 30
0.0
 11
-1.75
 21
-3.5
 31
0.0
  0
LINE
  5
97
330
93
100
AcDbEntity
  8
FORMAT
370
    18
100
AcDbLine
 10
-1.75
 20
-3.5
 30
0.0
 11
1.75
 21
-3.5
 31
0.0
  0
LINE
  5
98
330
93
100
AcDbEntity
  8
FORMAT
370
    18
100
AcDbLine
 10
1.75
 20
-3.5
 30
0.0
 11
0.0
 21
0.0
 31
0.0
  0
MTEXT
  5
99
330
93
100
AcDbEntity
  8
FORMAT
 62
     7
100
AcDbMText
 10
-0.6943926639
 20
-0.9380245362
 30
0.0
 40
2.1166666667
 41
0.0
 71
     1
 72
     1
  1
5
  7
SLDTEXTSTYLE0
 73
     1
 44
1.0
1001
ACAD
1000
MTEXTBEGIN
1070
    73
1070
     1
1070
    44
1040
1.0
1070
    74
1070
     0
1000
MTEXTEND
  0
ENDBLK
  5
95
330
93
100
AcDbEntity
  8
0
100
AcDbBlockEnd
  0
BLOCK
  5
9B
330
9A
100
AcDbEntity
  8
0
100
AcDbBlockBegin
  2
三角６
 70
     0
 10
0.0
 20
0.0
 30
0.0
  3
三角６
  1

  0
LINE
  5
9D
330
9A
100
AcDbEntity
  8
FORMAT
370
    18
100
AcDbLine
 10
0.0
 20
0.0
 30
0.0
 11
-1.75
 21
-3.5
 31
0.0
  0
LINE
  5
9E
330
9A
100
AcDbEntity
  8
FORMAT
370
    18
100
AcDbLine
 10
-1.75
 20
-3.5
 30
0.0
 11
1.75
 21
-3.5
 31
0.0
  0
LINE
  5
9F
330
9A
100
AcDbEntity
  8
FORMAT
370
    18
100
AcDbLine
 10
1.75
 20
-3.5
 30
0.0
 11
0.0
 21
0.0
 31
0.0
  0
MTEXT
  5
A0
330
9A
100
AcDbEntity
  8
FORMAT
 62
     7
100
AcDbMText
 10
-0.6943926639
 20
-0.9380245362
 30
0.0
 40
2.1166666667
 41
0.0
 71
     1
 72
     1
  1
6
  7
SLDTEXTSTYLE0
 73
     1
 44
1.0
1001
ACAD
1000
MTEXTBEGIN
1070
    73
1070
     1
1070
    44
1040
1.0
1070
    74
1070
     0
1000
MTEXTEND
  0
ENDBLK
  5
9C
330
9A
100
AcDbEntity
  8
0
100
AcDbBlockEnd
  0
ENDSEC
  0
SECTION
  2
ENTITIES
  0
LINE
  5
EA
330
1F
100
AcDbEntity
  8
0
  6
Continuous
 62
     7
370
    25
100
AcDbLine
 10
8.983014786410763
 20
5.419432414618285
 30
0.0
 11
8.463214437370766
 21
10.90863068709828
 31
0.0
  0
LINE
  5
EB
330
1F
100
AcDbEntity
  8
0
  6
Continuous
 62
     7
370
    25
100
AcDbLine
 10
8.899995926210749
 20
5.219541435578264
 30
0.0
 11
8.797655791570747
 21
5.246029011498279
 31
0.0
  0
SPLINE
  5
EC
330
1F
100
AcDbEntity
  8
0
  6
Continuous
 62
     7
370
    25
100
AcDbSpline
210
0.0
220
0.0
230
1.0
 70
     8
 71
     3
 72
    10
 73
     6
 74
     0
 42
0.000000001
 43
0.0000000001
 40
0.0
 40
0.0
 40
0.0
 40
0.0
 40
0.1954641400168581
 40
0.6460056718428186
 40
1.0
 40
1.0
 40
1.0
 40
1.0
 10
8.446982974772481
 20
10.96076536099204
 30
0.0
 10
8.444295519284082
 20
10.96717895830846
 30
0.0
 10
8.435413524416986
 20
10.98837578880102
 30
0.0
 10
8.410359199378206
 20
11.01337117151359
 30
0.0
 10
8.386380526660673
 20
11.02283424820328
 30
0.0
 10
8.375829953888313
 20
11.02699798488885
 30
0.0
  0
SPLINE
  5
ED
330
1F
100
AcDbEntity
  8
0
  6
Continuous
 62
     7
370
    25
100
AcDbSpline
210
0.0
220
0.0
230
1.0
 70
     8
 71
     3
 72
     9
 73
     5
 74
     0
 42
0.000000001
 43
0.0000000001
 40
0.0
 40
0.0
 40
0.0
 40
0.0
 40
0.5472245820412126
 40
1.0
 40
1.0
 40
1.0
 40
1.0
 10
8.463214437362069
 20
10.90863068707921
 30
0.0
 10
8.461926153579895
 20
10.9187137625816
 30
0.0
 10
8.459571939561499
 20
10.93713960789876
 30
0.0
 10
8.450906481271516
 20
10.95340210298314
 30
0.0
 10
8.446982974772481
 20
10.96076536099204
 30
0.0
  0
LINE
  5
EE
330
1F
100
AcDbEntity
  8
0
  6
Continuous
 62
     7
370
    25
100
AcDbLine
 10
8.375829953890757
 20
11.02699798489829
 30
0.0
 11
7.448046214610769
 21
11.26712608633829
 31
0.0
  0
SPLINE
  5
EF
330
1F
100
AcDbEntity
  8
0
  6
Continuous
 62
     7
370
    25
100
AcDbSpline
210
0.0
220
0.0
230
1.0
 70
     8
 71
     3
 72
    10
 73
     6
 74
     0
 42
0.000000001
 43
0.0000000001
 40
0.0
 40
0.0
 40
0.0
 40
0.0
 40
0.3363116696695959
 40
0.4331558659338775
 40
1.0
 40
1.0
 40
1.0
 40
1.0
 10
9.037772551532214
 20
5.177107637950314
 30
0.0
 10
9.029731334121663
 20
5.203145198181061
 30
0.0
 10
9.01937457042672
 20
5.236680525574314
 30
0.0
 10
8.994304463523405
 20
5.313414055222494
 30
0.0
 10
8.98821537025816
 20
5.37059511299293
 30
0.0
 10
8.983014786427702
 20
5.419432414623202
 30
0.0
  0
LINE
  5
F0
330
1F
100
AcDbEntity
  8
0
  6
Continuous
 62
     7
370
    25
100
AcDbLine
 10
3.288003093090765
 20
11.64981398317826
 30
0.0
 11
2.89145775173074
 21
7.585599734978274
 31
0.0
  0
LINE
  5
F1
330
1F
100
AcDbEntity
  8
0
  6
Continuous
 62
     7
370
    25
100
AcDbLine
 10
7.798704042970769
 20
3.356038988498283
 30
0.0
 11
8.437238913170745
 21
3.190774003138301
 31
0.0
  0
LINE
  5
F2
330
1F
100
AcDbEntity
  8
0
  6
Continuous
 62
     7
370
    25
100
AcDbLine
 10
4.189576155090747
 20
1.021827020378282
 30
0.0
 11
5.572712549050777
 21
1.487834653698257
 31
0.0
  0
LINE
  5
F3
330
1F
100
AcDbEntity
  8
0
  6
Continuous
 62
     7
370
    25
100
AcDbLine
 10
3.944465573090752
 20
7.778898113778268
 30
0.0
 11
2.508921416930746
 21
7.515377985738268
 31
0.0
  0
LINE
  5
F4
330
1F
100
AcDbEntity
  8
0
  6
Continuous
 62
     7
370
    25
100
AcDbLine
 10
5.628096036810745
 20
1.506494739338279
 30
0.0
 11
6.107501371130751
 21
1.668017197098265
 31
0.0
  0
LINE
  5
F5
330
1F
100
AcDbEntity
  8
0
  6
Continuous
 62
     7
370
    25
100
AcDbLine
 10
4.499517809690757
 20
7.880788359698271
 30
0.0
 11
4.001947552450758
 21
7.789449890178275
 31
0.0
  0
SPLINE
  5
F6
330
1F
100
AcDbEntity
  8
0
  6
Continuous
 62
     7
370
    25
100
AcDbSpline
210
0.0
220
0.0
230
1.0
 70
     8
 71
     3
 72
    10
 73
     6
 74
     0
 42
0.000000001
 43
0.0000000001
 40
0.0
 40
0.0
 40
0.0
 40
0.0
 40
0.0954083060750069
 40
0.57346662924391
 40
1.0
 40
1.0
 40
1.0
 40
1.0
 10
4.97190737959778
 20
7.907042819627747
 30
0.0
 10
4.956824977735152
 20
7.908591870315774
 30
0.0
 10
4.866169829217028
 20
7.917902683106802
 30
0.0
 10
4.70715668911103
 20
7.911663783971334
 30
0.0
 10
4.566013127656077
 20
7.889900467951207
 30
0.0
 10
4.499461069493008
 20
7.879638622078402
 30
0.0
  0
LINE
  5
F7
330
1F
100
AcDbEntity
  8
0
  6
Continuous
 62
     7
370
    25
100
AcDbLine
 10
6.51995722681076
 20
1.863357081738286
 30
0.0
 11
7.006038062170773
 21
2.166772515698255
 31
0.0
  0
LINE
  5
F8
330
1F
100
AcDbEntity
  8
0
  6
Continuous
 62
     7
370
    25
100
AcDbLine
 10
5.427165361930747
 20
7.885730779058292
 30
0.0
 11
4.954951781450745
 21
7.910073954858262
 31
0.0
  0
SPLINE
  5
F9
330
1F
100
AcDbEntity
  8
0
  6
Continuous
 62
     7
370
    25
100
AcDbSpline
210
0.0
220
0.0
230
1.0
 70
     8
 71
     3
 72
    11
 73
     7
 74
     0
 42
0.000000001
 43
0.0000000001
 40
0.0
 40
0.0
 40
0.0
 40
0.0
 40
0.1480742489101844
 40
0.484400380908814
 40
0.8275865227706081
 40
1.0
 40
1.0
 40
1.0
 40
1.0
 10
7.363368138348846
 20
4.306091678739079
 30
0.0
 10
7.364637371362903
 20
4.329706714658954
 30
0.0
 10
7.368789456955028
 20
4.406959393493821
 30
0.0
 10
7.38634117602146
 20
4.539613212338565
 30
0.0
 10
7.409148081249099
 20
4.674214733222953
 30
0.0
 10
7.429694062350449
 20
4.750569224953096
 30
0.0
 10
7.436564517474153
 20
4.776101717479917
 30
0.0
  0
SPLINE
  5
FA
330
1F
100
AcDbEntity
  8
0
  6
Continuous
 62
     7
370
    25
100
AcDbSpline
210
0.0
220
0.0
230
1.0
 70
     8
 71
     3
 72
    13
 73
     9
 74
     0
 42
0.000000001
 43
0.0000000001
 40
0.0
 40
0.0
 40
0.0
 40
0.0
 40
0.0852455051533941
 40
0.2898321375622312
 40
0.4925242354685614
 40
0.6912580037869982
 40
0.8900887218585483
 40
1.0
 40
1.0
 40
1.0
 40
1.0
 10
7.430943550338923
 20
3.597478329537636
 30
0.0
 10
7.4253730899174
 20
3.612258091617093
 30
0.0
 10
7.406433693074433
 20
3.662508835377025
 30
0.0
 10
7.384477219368193
 20
3.767331582752319
 30
0.0
 10
7.364861968300886
 20
3.906942331414541
 30
0.0
 10
7.356205991027934
 20
4.05835601323713
 30
0.0
 10
7.355326779477991
 20
4.192418329213751
 30
0.0
 10
7.361256997494024
 20
4.276248407702382
 30
0.0
 10
7.363368138348846
 20
4.306091678739079
 30
0.0
  0
LINE
  5
FB
330
1F
100
AcDbEntity
  8
0
  6
Continuous
 62
     7
370
    25
100
AcDbLine
 10
7.435442199570729
 20
3.584882677458267
 30
0.0
 11
7.430943550330766
 21
3.597478329538262
 31
0.0
  0
SPLINE
  5
FC
330
1F
100
AcDbEntity
  8
0
  6
Continuous
 62
     7
370
    25
100
AcDbSpline
210
0.0
220
0.0
230
1.0
 70
     8
 71
     3
 72
     9
 73
     5
 74
     0
 42
0.000000001
 43
0.0000000001
 40
0.0
 40
0.0
 40
0.0
 40
0.0
 40
0.7888489173346385
 40
1.0
 40
1.0
 40
1.0
 40
1.0
 10
7.46314716703273
 20
4.882227086558259
 30
0.0
 10
7.469447824466101
 20
4.905412828845641
 30
0.0
 10
7.477434978019829
 20
4.934804695625047
 30
0.0
 10
7.483998871978769
 20
4.960767859360316
 30
0.0
 10
7.485384845294731
 20
4.966250009492455
 30
0.0
  0
SPLINE
  5
FD
330
1F
100
AcDbEntity
  8
0
  6
Continuous
 62
     7
370
    25
100
AcDbSpline
210
0.0
220
0.0
230
1.0
 70
     8
 71
     3
 72
     9
 73
     5
 74
     0
 42
0.000000001
 43
0.0000000001
 40
0.0
 40
0.0
 40
0.0
 40
0.0
 40
0.2781949063320066
 40
1.0
 40
1.0
 40
1.0
 40
1.0
 10
7.435382351057
 20
4.776940643935859
 30
0.0
 10
7.437957179164129
 20
4.787100535706315
 30
0.0
 10
7.44721266173596
 20
4.823621304200713
 30
0.0
 10
7.456467196616415
 20
4.857658712135616
 30
0.0
 10
7.46314716703273
 20
4.882227086558259
 30
0.0
  0
SPLINE
  5
FE
330
1F
100
AcDbEntity
  8
0
  6
Continuous
 62
     7
370
    25
100
AcDbSpline
210
0.0
220
0.0
230
1.0
 70
     8
 71
     3
 72
     9
 73
     5
 74
     0
 42
0.000000001
 43
0.0000000001
 40
0.0
 40
0.0
 40
0.0
 40
0.0
 40
0.9074547877611387
 40
1.0
 40
1.0
 40
1.0
 40
1.0
 10
7.507851960463284
 20
5.040040431174844
 30
0.0
 10
7.518272088724131
 20
5.075898124971473
 30
0.0
 10
7.529754895803193
 20
5.115412703857657
 30
0.0
 10
7.54453750044621
 20
5.148238096057752
 30
0.0
 10
7.545905559730357
 20
5.15127592894575
 30
0.0
  0
SPLINE
  5
FF
330
1F
100
AcDbEntity
  8
0
  6
Continuous
 62
     7
370
    25
100
AcDbSpline
210
0.0
220
0.0
230
1.0
 70
     8
 71
     3
 72
     9
 73
     5
 74
     0
 42
0.000000001
 43
0.0000000001
 40
0.0
 40
0.0
 40
0.0
 40
0.0
 40
0.527159749904601
 40
1.0
 40
1.0
 40
1.0
 40
1.0
 10
7.486022632479773
 20
4.966418713019322
 30
0.0
 10
7.489448206774397
 20
4.980098860286602
 30
0.0
 10
7.495946377955391
 20
5.006049527555404
 30
0.0
 10
7.504029795357325
 20
5.029128000334253
 30
0.0
 10
7.507851960463284
 20
5.040040431174844
 30
0.0
  0
SPLINE
  5
100
330
1F
100
AcDbEntity
  8
0
  6
Continuous
 62
     7
370
    25
100
AcDbSpline
210
0.0
220
0.0
230
1.0
 70
     8
 71
     3
 72
    10
 73
     6
 74
     0
 42
0.000000001
 43
0.0000000001
 40
0.0
 40
0.0
 40
0.0
 40
0.0
 40
0.3973957426479915
 40
0.8875537402267356
 40
1.0
 40
1.0
 40
1.0
 40
1.0
 10
6.115064148925767
 20
1.672628049340289
 30
0.0
 10
6.17099212723258
 20
1.692888017066252
 30
0.0
 10
6.295903093814189
 20
1.738137143320756
 30
0.0
 10
6.430897746469923
 20
1.805384542039064
 30
0.0
 10
6.505959780224912
 20
1.856381293952523
 30
0.0
 10
6.519966393758977
 20
1.865897313700656
 30
0.0
  0
LINE
  5
105
330
1F
100
AcDbEntity
  8
0
  6
Continuous
 62
     7
370
    25
100
AcDbLine
 10
7.978813542450751
 20
2.774825507538281
 30
0.0
 11
9.879435738610766
 21
3.415186111538275
 31
0.0
  0
LINE
  5
106
330
1F
100
AcDbEntity
  8
0
  6
Continuous
 62
     7
370
    25
100
AcDbLine
 10
7.451068933930741
 20
7.963663336658271
 30
0.0
 11
6.663511500170756
 21
7.81909334061828
 31
0.0
  0
SPLINE
  5
107
330
1F
100
AcDbEntity
  8
0
  6
Continuous
 62
     7
370
    25
100
AcDbSpline
210
0.0
220
0.0
230
1.0
 70
     8
 71
     3
 72
    31
 73
    27
 74
     0
 42
0.000000001
 43
0.0000000001
 40
0.0
 40
0.0
 40
0.0
 40
0.0
 40
0.0127014239207673
 40
0.0568111787252645
 40
0.1010695323741223
 40
0.1454406661006652
 40
0.1898856578551009
 40
0.2343719651153121
 40
0.2788759078580306
 40
0.3233796271861657
 40
0.3678771228972146
 40
0.4123671820719366
 40
0.4568512434233716
 40
0.5013327885022059
 40
0.5458163311569118
 40
0.5903057669468195
 40
0.6348052638895482
 40
0.6793193136837634
 40
0.7238514168394639
 40
0.7684030354113026
 40
0.8129726692061813
 40
0.8575529920780578
 40
0.9021244596700764
 40
0.9466602822703443
 40
0.9911229807117145
 40
1.0
 40
1.0
 40
1.0
 40
1.0
 10
10.43275879537162
 20
3.790694449673026
 30
0.0
 10
10.44529501994918
 20
3.803604055259938
 30
0.0
 10
10.50136729180298
 20
3.861346393036228
 30
0.0
 10
10.58758076523796
 20
3.984162898192806
 30
0.0
 10
10.68970346349832
 20
4.157816267115151
 30
0.0
 10
10.77529727628285
 20
4.349769647336557
 30
0.0
 10
10.84471296599531
 20
4.556071550924457
 30
0.0
 10
10.89688918484648
 20
4.7750670652307
 30
0.0
 10
10.93139702918023
 20
5.004309720464959
 30
0.0
 10
10.9478916825451
 20
5.241446455540938
 30
0.0
 10
10.94624743230872
 20
5.484018704530228
 30
0.0
 10
10.92651410505129
 20
5.7295516264507
 30
0.0
 10
10.88891654128781
 20
5.975547496511296
 30
0.0
 10
10.83385009197496
 20
6.219511111059659
 30
0.0
 10
10.76187688161755
 20
6.458968636361703
 30
0.0
 10
10.6737185156403
 20
6.691489722483709
 30
0.0
 10
10.57025029962668
 20
6.914711847470869
 30
0.0
 10
10.45248891322836
 20
7.126360745649378
 30
0.0
 10
10.32158606193195
 20
7.324276329502993
 30
0.0
 10
10.17881499792139
 20
7.506403999136864
 30
0.0
 10
10.02557247198399
 20
7.670897186932734
 30
0.0
 10
9.863355863141322
 20
7.81580713267644
 30
0.0
 10
9.693837762835187
 20
7.940285346365641
 30
0.0
 10
9.518591738133181
 20
8.040213537131705
 30
0.0
 10
9.38758357885041
 20
8.102167114464549
 30
0.0
 10
9.315194201055135
 20
8.122909197440606
 30
0.0
 10
9.30314685753126
 20
8.126361181787245
 30
0.0
  0
LINE
  5
108
330
1F
100
AcDbEntity
  8
0
  6
Continuous
 62
     7
370
    25
100
AcDbLine
 10
5.96289848417075
 20
14.98036319337828
 30
0.0
 11
6.613041650090735
 21
14.84268818757829
 31
0.0
  0
SPLINE
  5
109
330
1F
100
AcDbEntity
  8
0
  6
Continuous
 62
     7
370
    25
100
AcDbSpline
210
0.0
220
0.0
230
1.0
 70
     8
 71
     3
 72
    11
 73
     7
 74
     0
 42
0.000000001
 43
0.0000000001
 40
0.0
 40
0.0
 40
0.0
 40
0.0
 40
0.0409530576498191
 40
0.3656117988194302
 40
0.7033984382657378
 40
1.0
 40
1.0
 40
1.0
 40
1.0
 10
4.431357873592475
 20
15.42321808190087
 30
0.0
 10
4.433629942398084
 20
15.42262350182031
 30
0.0
 10
4.453914023995992
 20
15.41731533912713
 30
0.0
 10
4.500813742759788
 20
15.41221297839882
 30
0.0
 10
4.570992583251722
 20
15.40998219296949
 30
0.0
 10
4.615025492153222
 20
15.41433580997017
 30
0.0
 10
4.635612617707579
 20
15.41637129801859
 30
0.0
  0
SPLINE
  5
10A
330
1F
100
AcDbEntity
  8
0
  6
Continuous
 62
     7
370
    25
100
AcDbSpline
210
0.0
220
0.0
230
1.0
 70
     8
 71
     3
 72
    12
 73
     8
 74
     0
 42
0.000000001
 43
0.0000000001
 40
0.0
 40
0.0
 40
0.0
 40
0.0
 40
0.1202302561357527
 40
0.3506355950688131
 40
0.5827340412673827
 40
0.8180875866620523
 40
1.0
 40
1.0
 40
1.0
 40
1.0
 10
4.635890365439252
 20
15.41621255606012
 30
0.0
 10
4.660540625408145
 20
15.41946725068928
 30
0.0
 10
4.732429839076814
 20
15.42895913588316
 30
0.0
 10
4.84307428249366
 20
15.44904255166346
 30
0.0
 10
4.960218596865473
 20
15.47815904908197
 30
0.0
 10
5.053465644378348
 20
15.50951497849368
 30
0.0
 10
5.100906621276351
 20
15.53343992246701
 30
0.0
 10
5.121589119855514
 20
15.54387030674843
 30
0.0
  0
LINE
  5
10B
330
1F
100
AcDbEntity
  8
0
  6
Continuous
 62
     7
370
    25
100
AcDbLine
 10
7.113801370090754
 20
14.8493242473383
 30
0.0
 11
7.256503855650748
 21
14.88625836837826
 31
0.0
  0
LINE
  5
10C
330
1F
100
AcDbEntity
  8
0
  6
Continuous
 62
     7
370
    25
100
AcDbLine
 10
4.085738819530746
 20
15.50119785021826
 30
0.0
 11
4.431053678730734
 21
15.42300798093828
 31
0.0
  0
LINE
  5
10D
330
1F
100
AcDbEntity
  8
0
  6
Continuous
 62
     7
370
    25
100
AcDbLine
 10
4.765180406730735
 20
15.83708749093827
 30
0.0
 11
4.764621328770743
 21
15.89897266521825
 31
0.0
  0
LINE
  5
10E
330
1F
100
AcDbEntity
  8
0
  6
Continuous
 62
     7
370
    25
100
AcDbLine
 10
4.763291938130748
 20
16.04611454033829
 30
0.0
 11
4.76280672253074
 21
16.09981787625827
 31
0.0
  0
LINE
  5
10F
330
1F
100
AcDbEntity
  8
0
  6
Continuous
 62
     7
370
    25
100
AcDbLine
 10
3.728953221370744
 20
16.09981786265825
 30
0.0
 11
3.726579484530759
 21
15.83708747729827
 31
0.0
  0
LINE
  5
110
330
1F
100
AcDbEntity
  8
0
  6
Continuous
 62
     7
370
    25
100
AcDbLine
 10
3.725879899530752
 20
15.62660523945828
 30
0.0
 11
3.725879899530752
 21
15.43647598073829
 31
0.0
  0
LINE
  5
111
330
1F
100
AcDbEntity
  8
0
  6
Continuous
 62
     7
370
    25
100
AcDbLine
 10
7.119392465650776
 20
14.85077128617828
 30
0.0
 11
7.126134275530773
 21
14.58696489945828
 31
0.0
  0
LINE
  5
112
330
1F
100
AcDbEntity
  8
0
  6
Continuous
 62
     7
370
    25
100
AcDbLine
 10
7.475028284610743
 20
14.60160591117829
 30
0.0
 11
7.48887642193074
 21
15.14347781485827
 31
0.0
  0
ARC
  5
113
330
1F
100
AcDbEntity
  8
0
  6
Continuous
 62
     7
370
    25
100
AcDbCircle
 10
7.272297000930734
 20
14.54784919489827
 30
0.0
 40
0.0400000000000085
100
AcDbArc
 50
255.4891813008989
 51
284.510818699101
  0
LINE
  5
114
330
1F
100
AcDbEntity
  8
0
  6
Continuous
 62
     7
370
    25
100
AcDbLine
 10
7.282319590610768
 20
14.50912515841827
 30
0.0
 11
7.409921545250767
 21
14.54215097445828
 31
0.0
  0
LINE
  5
115
330
1F
100
AcDbEntity
  8
0
  6
Continuous
 62
     7
370
    25
100
AcDbLine
 10
7.191241093930756
 20
14.5275099695383
 30
0.0
 11
7.262274549450751
 21
14.50912515841827
 31
0.0
  0
SPLINE
  5
116
330
1F
100
AcDbEntity
  8
0
  6
Continuous
 62
     7
370
    25
100
AcDbSpline
210
0.0
220
0.0
230
1.0
 70
     8
 71
     3
 72
    12
 73
     8
 74
     0
 42
0.000000001
 43
0.0000000001
 40
0.0
 40
0.0
 40
0.0
 40
0.0
 40
0.1705385360556428
 40
0.3541944111558991
 40
0.5629670847197597
 40
0.8946264934863211
 40
1.0
 40
1.0
 40
1.0
 40
1.0
 10
7.127037324440266
 20
14.58556129098662
 30
0.0
 10
7.12770616910808
 20
14.57957777865096
 30
0.0
 10
7.129095304072734
 20
14.56715051923277
 30
0.0
 10
7.140597232462198
 20
14.55206959081477
 30
0.0
 10
7.157317832904936
 20
14.53923064372304
 30
0.0
 10
7.174445936224117
 20
14.5321361411037
 30
0.0
 10
7.187978292099757
 20
14.52840869769886
 30
0.0
 10
7.19124109391663
 20
14.52750996955234
 30
0.0
  0
SPLINE
  5
117
330
1F
100
AcDbEntity
  8
0
  6
Continuous
 62
     7
370
    25
100
AcDbSpline
210
0.0
220
0.0
230
1.0
 70
     8
 71
     3
 72
    12
 73
     8
 74
     0
 42
0.000000001
 43
0.0000000001
 40
0.0
 40
0.0
 40
0.0
 40
0.0
 40
0.2531981578370564
 40
0.5452145749286475
 40
0.7785025524526216
 40
0.9783391784487346
 40
1.0
 40
1.0
 40
1.0
 40
1.0
 10
7.40992154523866
 20
14.54215097446808
 30
0.0
 10
7.41776217466463
 20
14.54448453079183
 30
0.0
 10
7.434645494338752
 20
14.54950940510372
 30
0.0
 10
7.454570591714457
 20
14.56039461968078
 30
0.0
 10
7.469659721288905
 20
14.57819900906634
 30
0.0
 10
7.4763897559572
 20
14.59475307470907
 30
0.0
 10
7.474728953775723
 20
14.6024453430764
 30
0.0
 10
7.474566539535373
 20
14.60319759035633
 30
0.0
  0
SPLINE
  5
118
330
1F
100
AcDbEntity
  8
0
  6
Continuous
 62
     7
370
    25
100
AcDbSpline
210
0.0
220
0.0
230
1.0
 70
     8
 71
     3
 72
    12
 73
     8
 74
     0
 42
0.000000001
 43
0.0000000001
 40
0.0
 40
0.0
 40
0.0
 40
0.0
 40
0.1183868985623319
 40
0.312423447137515
 40
0.490664826205769
 40
0.703775874988634
 40
1.0
 40
1.0
 40
1.0
 40
1.0
 10
5.174773068953072
 20
15.67935039754314
 30
0.0
 10
5.174914099200464
 20
15.68635125167361
 30
0.0
 10
5.175286278525902
 20
15.70482653066895
 30
0.0
 10
5.161500869528822
 20
15.73114161149081
 30
0.0
 10
5.139954058984983
 20
15.75417410145212
 30
0.0
 10
5.111064409851621
 20
15.77223465439692
 30
0.0
 10
5.086478528677787
 20
15.77970513968688
 30
0.0
 10
5.07217963177635
 20
15.78404989748543
 30
0.0
  0
LINE
  5
119
330
1F
100
AcDbEntity
  8
0
  6
Continuous
 62
     7
370
    25
100
AcDbLine
 10
5.393116766970763
 20
15.12781626205827
 30
0.0
 11
5.962167657810766
 21
14.98053505385826
 31
0.0
  0
SPLINE
  5
11A
330
1F
100
AcDbEntity
  8
0
  6
Continuous
 62
     7
370
    25
100
AcDbSpline
210
0.0
220
0.0
230
1.0
 70
     8
 71
     3
 72
    11
 73
     7
 74
     0
 42
0.000000001
 43
0.0000000001
 40
0.0
 40
0.0
 40
0.0
 40
0.0
 40
0.0822461860108526
 40
0.4761054842469031
 40
0.7893575342844276
 40
1.0
 40
1.0
 40
1.0
 40
1.0
 10
5.121326018153695
 20
15.54441274681806
 30
0.0
 10
5.123690715491562
 20
15.54552431728183
 30
0.0
 10
5.13737943986581
 20
15.55195895965931
 30
0.0
 10
5.157809842833614
 20
15.57105882353949
 30
0.0
 10
5.175613067675556
 20
15.60241159057534
 30
0.0
 10
5.175564549063722
 20
15.62296921876117
 30
0.0
 10
5.175545041167112
 20
15.63123483208619
 30
0.0
  0
LINE
  5
11B
330
1F
100
AcDbEntity
  8
0
  6
Continuous
 62
     7
370
    25
100
AcDbLine
 10
5.177056005690758
 20
15.63128925365828
 30
0.0
 11
5.176539074570769
 21
15.67921387589828
 31
0.0
  0
LINE
  5
11C
330
1F
100
AcDbEntity
  8
0
  6
Continuous
 62
     7
370
    25
100
AcDbLine
 10
3.417113825890737
 20
15.68543645657826
 30
0.0
 11
3.753138492330748
 21
15.58719343697828
 31
0.0
  0
LINE
  5
11D
330
1F
100
AcDbEntity
  8
0
  6
Continuous
 62
     7
370
    25
100
AcDbLine
 10
5.072370873090733
 20
15.78424893349827
 30
0.0
 11
4.764913301050768
 21
15.86665226781827
 31
0.0
  0
SPLINE
  5
11E
330
1F
100
AcDbEntity
  8
0
  6
Continuous
 62
     7
370
    25
100
AcDbSpline
210
0.0
220
0.0
230
1.0
 70
     8
 71
     3
 72
     9
 73
     5
 74
     0
 42
0.000000001
 43
0.0000000001
 40
0.0
 40
0.0
 40
0.0
 40
0.0
 40
0.4509647321844983
 40
1.0
 40
1.0
 40
1.0
 40
1.0
 10
5.392855298444089
 20
15.1279287418152
 30
0.0
 10
5.39280329052309
 20
15.12791001589625
 30
0.0
 10
5.392687964606636
 20
15.12786849176439
 30
0.0
 10
5.392789085012282
 20
15.12790424592862
 30
0.0
 10
5.392844603681282
 20
15.12792387622568
 30
0.0
  0
SPLINE
  5
11F
330
1F
100
AcDbEntity
  8
0
  6
Continuous
 62
     7
370
    25
100
AcDbSpline
210
0.0
220
0.0
230
1.0
 70
     8
 71
     3
 72
    11
 73
     7
 74
     0
 42
0.000000001
 43
0.0000000001
 40
0.0
 40
0.0
 40
0.0
 40
0.0
 40
0.179969980750736
 40
0.5564787455640205
 40
0.8814200642292941
 40
1.0
 40
1.0
 40
1.0
 40
1.0
 10
3.370337409478167
 20
15.92620613421624
 30
0.0
 10
3.365243393078912
 20
15.92366107546911
 30
0.0
 10
3.349492367025021
 20
15.91579159027452
 30
0.0
 10
3.328712119247086
 20
15.89207526767336
 30
0.0
 10
3.314985071390765
 20
15.86288621815873
 30
0.0
 10
3.316499563061682
 20
15.84606511747432
 30
0.0
 10
3.316904477872981
 20
15.84156782446124
 30
0.0
  0
LINE
  5
120
330
1F
100
AcDbEntity
  8
0
  6
Continuous
 62
     7
370
    25
100
AcDbLine
 10
3.315219815650749
 20
15.84177930773828
 30
0.0
 11
3.314704517730746
 21
15.79381872365826
 31
0.0
  0
SPLINE
  5
121
330
1F
100
AcDbEntity
  8
0
  6
Continuous
 62
     7
370
    25
100
AcDbSpline
210
0.0
220
0.0
230
1.0
 70
     8
 71
     3
 72
    13
 73
     9
 74
     0
 42
0.000000001
 43
0.0000000001
 40
0.0
 40
0.0
 40
0.0
 40
0.0
 40
0.0869577971200574
 40
0.2899745599400327
 40
0.4714740946396315
 40
0.6838680492086234
 40
0.9883218837902244
 40
1.0
 40
1.0
 40
1.0
 40
1.0
 10
3.316495231973931
 20
15.79377197144924
 30
0.0
 10
3.31599792231475
 20
15.78865882068618
 30
0.0
 10
3.314339564417423
 20
15.77160820887764
 30
0.0
 10
3.326241289850798
 20
15.74509377734955
 30
0.0
 10
3.346770074068729
 20
15.71980826046595
 30
0.0
 10
3.376405852793794
 20
15.69988193467486
 30
0.0
 10
3.399958603403177
 20
15.68993169498975
 30
0.0
 10
3.416574162290544
 20
15.68563867511659
 30
0.0
 10
3.417187951649992
 20
15.68548008822006
 30
0.0
  0
SPLINE
  5
122
330
1F
100
AcDbEntity
  8
0
  6
Continuous
 62
     7
370
    25
100
AcDbSpline
210
0.0
220
0.0
230
1.0
 70
     8
 71
     3
 72
    11
 73
     7
 74
     0
 42
0.000000001
 43
0.0000000001
 40
0.0
 40
0.0
 40
0.0
 40
0.0
 40
0.1721276443323086
 40
0.4686011545657955
 40
0.769337312036188
 40
1.0
 40
1.0
 40
1.0
 40
1.0
 10
3.728378206642503
 20
16.03617148019748
 30
0.0
 10
3.702337331925207
 20
16.03184998210702
 30
0.0
 10
3.631443525147176
 20
16.02008511422372
 30
0.0
 10
3.531823324754384
 20
15.99418776342728
 30
0.0
 10
3.438024119654556
 20
15.96264826075139
 30
0.0
 10
3.390570991156835
 20
15.93810759787624
 30
0.0
 10
3.36997315533992
 20
15.92745530664189
 30
0.0
  0
LINE
  5
123
330
1F
100
AcDbEntity
  8
0
  6
Continuous
 62
     7
370
    25
100
AcDbLine
 10
3.615959021970752
 20
16.20345623169828
 30
0.0
 11
3.615959021970752
 21
16.15709179881827
 31
0.0
  0
LINE
  5
124
330
1F
100
AcDbEntity
  8
0
  6
Continuous
 62
     7
370
    25
100
AcDbLine
 10
4.87580092193076
 20
15.94918936813826
 30
0.0
 11
4.87580092193076
 21
15.99555380097828
 31
0.0
  0
LINE
  5
125
330
1F
100
AcDbEntity
  8
0
  6
Continuous
 62
     7
370
    25
100
AcDbLine
 10
4.413482657570739
 20
15.98309127609826
 30
0.0
 11
4.383513508730743
 21
15.97533468961828
 31
0.0
  0
LINE
  5
126
330
1F
100
AcDbEntity
  8
0
  6
Continuous
 62
     7
370
    25
100
AcDbLine
 10
4.720249073970762
 20
16.3263401829783
 30
0.0
 11
4.644433992610743
 21
16.55648941393826
 31
0.0
  0
LINE
  5
127
330
1F
100
AcDbEntity
  8
0
  6
Continuous
 62
     7
370
    25
100
AcDbLine
 10
3.84732596449075
 20
16.55648943097827
 30
0.0
 11
3.771511028010763
 21
16.32634019661827
 31
0.0
  0
LINE
  5
128
330
1F
100
AcDbEntity
  8
0
  6
Continuous
 62
     7
370
    25
100
AcDbLine
 10
4.72587470361077
 20
16.10008605945828
 30
0.0
 11
4.721964872170758
 21
16.31644871213825
 31
0.0
  0
LINE
  5
129
330
1F
100
AcDbEntity
  8
0
  6
Continuous
 62
     7
370
    25
100
AcDbLine
 10
3.769795098090753
 20
16.31644870529828
 30
0.0
 11
3.76588529301074
 21
16.10008608673826
 31
0.0
  0
ARC
  5
12A
330
1F
100
AcDbEntity
  8
0
  6
Continuous
 62
     7
370
    25
100
AcDbCircle
 10
7.526855442130738
 20
17.04521971673827
 30
0.0
 40
0.3480588235294077
100
AcDbArc
 50
102.6371311623009
 51
127.7001948742009
  0
ARC
  5
12B
330
1F
100
AcDbEntity
  8
0
  6
Continuous
 62
     7
370
    25
100
AcDbCircle
 10
7.526855442130738
 20
17.04521971673827
 30
0.0
 40
0.3480588235293975
100
AcDbArc
 50
84.54179024119872
 51
95.45820975880124
  0
ARC
  5
12C
330
1F
100
AcDbEntity
  8
0
  6
Continuous
 62
     7
370
    25
100
AcDbCircle
 10
7.526855442130738
 20
17.04521971673827
 30
0.0
 40
0.3480588235294106
100
AcDbArc
 50
54.14035386030001
 51
77.36286883769904
  0
LINE
  5
12D
330
1F
100
AcDbEntity
  8
0
  6
Continuous
 62
     7
370
    25
100
AcDbLine
 10
8.026440666650756
 20
15.20414666565827
 30
0.0
 11
8.035633394810759
 21
14.84443385081829
 31
0.0
  0
LINE
  5
12E
330
1F
100
AcDbEntity
  8
0
  6
Continuous
 62
     7
370
    25
100
AcDbLine
 10
7.916758024210764
 20
15.22906907089828
 30
0.0
 11
8.026529701890751
 21
15.20065807009826
 31
0.0
  0
LINE
  5
12F
330
1F
100
AcDbEntity
  8
0
  6
Continuous
 62
     7
370
    25
100
AcDbLine
 10
8.065597881170759
 20
14.80673173685827
 30
0.0
 11
8.13909987761076
 21
14.78770802029828
 31
0.0
  0
LINE
  5
130
330
1F
100
AcDbEntity
  8
0
  6
Continuous
 62
     7
370
    25
100
AcDbLine
 10
8.328824732770726
 20
14.78770801349827
 30
0.0
 11
8.458895175650752
 21
14.82137272129827
 31
0.0
  0
LINE
  5
131
330
1F
100
AcDbEntity
  8
0
  6
Continuous
 62
     7
370
    25
100
AcDbLine
 10
8.488859424890762
 20
14.85907486937827
 30
0.0
 11
8.498052390130737
 21
15.21878767741827
 31
0.0
  0
LINE
  5
132
330
1F
100
AcDbEntity
  8
0
  6
Continuous
 62
     7
370
    25
100
AcDbLine
 10
8.497963144170739
 20
15.21529908185829
 30
0.0
 11
8.634818650130739
 21
15.25071989321827
 31
0.0
  0
LINE
  5
133
330
1F
100
AcDbEntity
  8
0
  6
Continuous
 62
     7
370
    25
100
AcDbLine
 10
7.847677284810743
 20
15.44402557009829
 30
0.0
 11
7.851651284850731
 21
15.28852397233828
 31
0.0
  0
ARC
  5
134
330
1F
100
AcDbEntity
  8
0
  6
Continuous
 62
     7
370
    25
100
AcDbCircle
 10
8.075620400010734
 20
14.84545575561827
 30
0.0
 40
0.0400000000000113
100
AcDbArc
 50
181.4639316502989
 51
255.4891813008989
  0
SPLINE
  5
135
330
1F
100
AcDbEntity
  8
0
  6
Continuous
 62
     7
370
    25
100
AcDbSpline
210
0.0
220
0.0
230
1.0
 70
     8
 71
     3
 72
    12
 73
     8
 74
     0
 42
0.000000001
 43
0.0000000001
 40
0.0
 40
0.0
 40
0.0
 40
0.0
 40
0.1705385619626988
 40
0.3541937812700389
 40
0.5629677606641585
 40
0.8946263462258945
 40
1.0
 40
1.0
 40
1.0
 40
1.0
 10
7.852554307403408
 20
15.28712035255745
 30
0.0
 10
7.853223172684948
 20
15.28113685318988
 30
0.0
 10
7.854612347781227
 20
15.26870964469324
 30
0.0
 10
7.866114094952393
 20
15.25362857593899
 30
0.0
 10
7.882834849089789
 20
15.24078980385803
 30
0.0
 10
7.899962849558903
 20
15.2336952523774
 30
0.0
 10
7.913495211347367
 20
15.22996780311103
 30
0.0
 10
7.916758024196155
 20
15.22906907090524
 30
0.0
  0
ARC
  5
136
330
1F
100
AcDbEntity
  8
0
  6
Continuous
 62
     7
370
    25
100
AcDbCircle
 10
8.448872589130758
 20
14.86009677173825
 30
0.0
 40
0.0400000000000046
100
AcDbArc
 50
284.510818699101
 51
358.5360683496994
  0
LINE
  5
137
330
1F
100
AcDbEntity
  8
0
  6
Continuous
 62
     7
370
    25
100
AcDbLine
 10
8.77020923701076
 20
15.35375706521827
 30
0.0
 11
8.773993497170749
 21
15.50916477529827
 31
0.0
  0
SPLINE
  5
138
330
1F
100
AcDbEntity
  8
0
  6
Continuous
 62
     7
370
    25
100
AcDbSpline
210
0.0
220
0.0
230
1.0
 70
     8
 71
     3
 72
    12
 73
     8
 74
     0
 42
0.000000001
 43
0.0000000001
 40
0.0
 40
0.0
 40
0.0
 40
0.0
 40
0.1610353467625392
 40
0.4834283520815295
 40
0.7277679225966595
 40
0.9397657779480979
 40
1.0
 40
1.0
 40
1.0
 40
1.0
 10
8.634818650138527
 20
15.25071989320952
 30
0.0
 10
8.646972265933698
 20
15.25413967805633
 30
0.0
 10
8.683457438747211
 20
15.26440587728655
 30
0.0
 10
8.726026232012941
 20
15.28416077995706
 30
0.0
 10
8.757652403971178
 20
15.31199042896474
 30
0.0
 10
8.773855733924449
 20
15.34381534916207
 30
0.0
 10
8.768462749153144
 20
15.35952066497862
 30
0.0
 10
8.767269494319521
 20
15.36299563196013
 30
0.0
  0
LINE
  5
139
330
1F
100
AcDbEntity
  8
0
  6
Continuous
 62
     7
370
    25
100
AcDbLine
 10
7.111075469970757
 20
15.55472319501825
 30
0.0
 11
7.849734077370754
 21
15.36354427957826
 31
0.0
  0
LINE
  5
13A
330
1F
100
AcDbEntity
  8
0
  6
Continuous
 62
     7
370
    25
100
AcDbLine
 10
8.04327780581076
 20
16.70975946653828
 30
0.0
 11
8.036435581050767
 21
17.08839413181829
 31
0.0
  0
LINE
  5
13B
330
1F
100
AcDbEntity
  8
0
  6
Continuous
 62
     7
370
    25
100
AcDbLine
 10
7.017275366890771
 20
17.08839410453828
 30
0.0
 11
7.010433063090772
 21
16.70975945969829
 31
0.0
  0
LINE
  5
13C
330
1F
100
AcDbEntity
  8
0
  6
Continuous
 62
     7
370
    25
100
AcDbLine
 10
7.972436171090748
 20
17.08831664121828
 30
0.0
 11
7.966850541450753
 21
17.39740616921827
 31
0.0
  0
LINE
  5
13D
330
1F
100
AcDbEntity
  8
0
  6
Continuous
 62
     7
370
    25
100
AcDbLine
 10
7.086860261570734
 20
17.39740619989828
 30
0.0
 11
7.081274724130764
 21
17.08831665485826
 31
0.0
  0
LINE
  5
13E
330
1F
100
AcDbEntity
  8
0
  6
Continuous
 62
     7
370
    25
100
AcDbLine
 10
8.038518004170754
 20
16.02782889817828
 30
0.0
 11
8.04351572477077
 21
16.30440082357828
 31
0.0
  0
SPLINE
  5
13F
330
1F
100
AcDbEntity
  8
0
  6
Continuous
 62
     7
370
    25
100
AcDbSpline
210
0.0
220
0.0
230
1.0
 70
     8
 71
     3
 72
    14
 73
    10
 74
     0
 42
0.000000001
 43
0.0000000001
 40
0.0
 40
0.0
 40
0.0
 40
0.0
 40
0.0879777561710855
 40
0.2646113891430116
 40
0.4425903101679702
 40
0.6236195121248849
 40
0.8120506578003844
 40
0.9426612140283918
 40
1.0
 40
1.0
 40
1.0
 40
1.0
 10
7.654765969862836
 20
15.87238573304495
 30
0.0
 10
7.672896957653051
 20
15.87351761785265
 30
0.0
 10
7.727429672222172
 20
15.87692199669072
 30
0.0
 10
7.809753854169173
 20
15.88957173005323
 30
0.0
 10
7.896164747403304
 20
15.90939488288228
 30
0.0
 10
7.966177896735587
 20
15.93562093862488
 30
0.0
 10
8.009988311630394
 20
15.96513226505033
 30
0.0
 10
8.036341720199743
 20
15.99767718041477
 30
0.0
 10
8.035674215702556
 20
16.01839744925081
 30
0.0
 10
8.035470576269432
 20
16.02471870074424
 30
0.0
  0
SPLINE
  5
140
330
1F
100
AcDbEntity
  8
0
  6
Continuous
 62
     7
370
    25
100
AcDbSpline
210
0.0
220
0.0
230
1.0
 70
     8
 71
     3
 72
    12
 73
     8
 74
     0
 42
0.000000001
 43
0.0000000001
 40
0.0
 40
0.0
 40
0.0
 40
0.0
 40
0.1179609921013619
 40
0.3032613869287333
 40
0.4842064484964569
 40
0.699068963801593
 40
1.0
 40
1.0
 40
1.0
 40
1.0
 10
8.457174319818363
 20
16.55686296192493
 30
0.0
 10
8.457219024077431
 20
16.56395987817544
 30
0.0
 10
8.457333952541119
 20
16.58220506776487
 30
0.0
 10
8.443666396342564
 20
16.60808253707489
 30
0.0
 10
8.421853262952765
 20
16.63139361516977
 30
0.0
 10
8.392148672447888
 20
16.64951285386752
 30
0.0
 10
8.366840372905443
 20
16.65713445948609
 30
0.0
 10
8.352074672978574
 20
16.66158115656014
 30
0.0
  0
LINE
  5
141
330
1F
100
AcDbEntity
  8
0
  6
Continuous
 62
     7
370
    25
100
AcDbLine
 10
8.45992340069074
 20
16.50896987981826
 30
0.0
 11
8.458916723210734
 21
16.55684419037828
 31
0.0
  0
SPLINE
  5
142
330
1F
100
AcDbEntity
  8
0
  6
Continuous
 62
     7
370
    25
100
AcDbSpline
210
0.0
220
0.0
230
1.0
 70
     8
 71
     3
 72
     9
 73
     5
 74
     0
 42
0.000000001
 43
0.0000000001
 40
0.0
 40
0.0
 40
0.0
 40
0.0
 40
0.5000017513876274
 40
1.0
 40
1.0
 40
1.0
 40
1.0
 10
8.375759463284168
 20
16.41615831964219
 30
0.0
 10
8.389112083941768
 20
16.4286171056724
 30
0.0
 10
8.415817231714754
 20
16.45353459045248
 30
0.0
 10
8.442532617360882
 20
16.47846630936624
 30
0.0
 10
8.455890263394962
 20
16.49093212515805
 30
0.0
  0
LINE
  5
143
330
1F
100
AcDbEntity
  8
0
  6
Continuous
 62
     7
370
    25
100
AcDbLine
 10
8.459795116210756
 20
16.50165606893827
 30
0.0
 11
8.459933884730759
 21
16.50825071777828
 31
0.0
  0
LINE
  5
144
330
1F
100
AcDbEntity
  8
0
  6
Continuous
 62
     7
370
    25
100
AcDbLine
 10
6.860772501610767
 20
16.27722877265827
 30
0.0
 11
6.664667114090775
 21
16.2264729635383
 31
0.0
  0
LINE
  5
145
330
1F
100
AcDbEntity
  8
0
  6
Continuous
 62
     7
370
    25
100
AcDbLine
 10
8.352135891290743
 20
16.66163812977828
 30
0.0
 11
8.042700143730769
 21
16.74172599449827
 31
0.0
  0
SPLINE
  5
146
330
1F
100
AcDbEntity
  8
0
  6
Continuous
 62
     7
370
    25
100
AcDbSpline
210
0.0
220
0.0
230
1.0
 70
     8
 71
     3
 72
    11
 73
     7
 74
     0
 42
0.000000001
 43
0.0000000001
 40
0.0
 40
0.0
 40
0.0
 40
0.0
 40
0.1226803277746073
 40
0.5231664955890285
 40
0.888265936981711
 40
1.0
 40
1.0
 40
1.0
 40
1.0
 10
6.640629870766304
 20
16.78878763674655
 30
0.0
 10
6.637631893037763
 20
16.78709079837023
 30
0.0
 10
6.624847108952508
 20
16.77985468315091
 30
0.0
 10
6.607291819516717
 20
16.7579062822914
 30
0.0
 10
6.594399060740954
 20
16.73029923345314
 30
0.0
 10
6.595957883100226
 20
16.71438732148615
 30
0.0
 10
6.596323154319918
 20
16.710658760976
 30
0.0
  0
LINE
  5
147
330
1F
100
AcDbEntity
  8
0
  6
Continuous
 62
     7
370
    25
100
AcDbLine
 10
6.594786322170762
 20
16.71072627317829
 30
0.0
 11
6.593777010530743
 21
16.66274091125828
 31
0.0
  0
LINE
  5
148
330
1F
100
AcDbEntity
  8
0
  6
Continuous
 62
     7
370
    25
100
AcDbLine
 10
6.593786493570746
 20
16.66202208029827
 30
0.0
 11
6.593924840570764
 21
16.65544428877828
 31
0.0
  0
SPLINE
  5
149
330
1F
100
AcDbEntity
  8
0
  6
Continuous
 62
     7
370
    25
100
AcDbSpline
210
0.0
220
0.0
230
1.0
 70
     8
 71
     3
 72
     9
 73
     5
 74
     0
 42
0.000000001
 43
0.0000000001
 40
0.0
 40
0.0
 40
0.0
 40
0.0
 40
0.4999994187221386
 40
1.0
 40
1.0
 40
1.0
 40
1.0
 10
6.602777575384436
 20
16.63905342750192
 30
0.0
 10
6.615849550975326
 20
16.62693102593709
 30
0.0
 10
6.641993532550912
 20
16.60268619462135
 30
0.0
 10
6.668132997533803
 20
16.57844566615125
 30
0.0
 10
6.681202745219536
 20
16.56632538782577
 30
0.0
  0
SPLINE
  5
14A
330
1F
100
AcDbEntity
  8
0
  6
Continuous
 62
     7
370
    25
100
AcDbSpline
210
0.0
220
0.0
230
1.0
 70
     8
 71
     3
 72
    12
 73
     8
 74
     0
 42
0.000000001
 43
0.0000000001
 40
0.0
 40
0.0
 40
0.0
 40
0.0
 40
0.1059517016882858
 40
0.3735535850869982
 40
0.6448337924611052
 40
0.9231799206220799
 40
1.0
 40
1.0
 40
1.0
 40
1.0
 10
7.014032403959504
 20
16.90892950992077
 30
0.0
 10
6.996524290406028
 20
16.90632809068805
 30
0.0
 10
6.934795988908518
 20
16.89715627499072
 30
0.0
 10
6.842619058655373
 20
16.87511313948465
 30
0.0
 10
6.74045682015847
 20
16.84284667694192
 30
0.0
 10
6.67706381977814
 20
16.81351021831693
 30
0.0
 10
6.646962945336383
 20
16.79404322828119
 30
0.0
 10
6.64045232716694
 20
16.78983264831038
 30
0.0
  0
SPLINE
  5
14B
330
1F
100
AcDbEntity
  8
0
  6
Continuous
 62
     7
370
    25
100
AcDbSpline
210
0.0
220
0.0
230
1.0
 70
     8
 71
     3
 72
     9
 73
     5
 74
     0
 42
0.000000001
 43
0.0000000001
 40
0.0
 40
0.0
 40
0.0
 40
0.0
 40
0.4944269114750234
 40
1.0
 40
1.0
 40
1.0
 40
1.0
 10
7.808339299865167
 20
17.33937610706641
 30
0.0
 10
7.792631568910394
 20
17.33874946664241
 30
0.0
 10
7.760861997735673
 20
17.33748205904501
 30
0.0
 10
7.727487241694575
 20
17.33678537795714
 30
0.0
 10
7.710613863204116
 20
17.33643315474785
 30
0.0
  0
LINE
  5
14C
330
1F
100
AcDbEntity
  8
0
  6
Continuous
 62
     7
370
    25
100
AcDbLine
 10
7.120974763690753
 20
15.47744043277828
 30
0.0
 11
7.077058274370756
 21
15.82029136045827
 31
0.0
  0
ARC
  5
14D
330
1F
100
AcDbEntity
  8
0
  6
Continuous
 62
     7
370
    25
100
AcDbCircle
 10
7.053252735210747
 20
15.81724206209827
 30
0.0
 40
0.0240000000000141
100
AcDbArc
 50
7.299399037799706
 51
75.48918130089906
  0
LINE
  5
14E
330
1F
100
AcDbEntity
  8
0
  6
Continuous
 62
     7
370
    25
100
AcDbLine
 10
7.059266245690764
 20
15.84047645621825
 30
0.0
 11
6.700557895130771
 21
15.93331700897829
 31
0.0
  0
LINE
  5
14F
330
1F
100
AcDbEntity
  8
0
  6
Continuous
 62
     7
370
    25
100
AcDbLine
 10
5.992708634010739
 20
16.50599031285827
 30
0.0
 11
5.358667157890749
 21
16.34188830341827
 31
0.0
  0
LINE
  5
150
330
1F
100
AcDbEntity
  8
0
  6
Continuous
 62
     7
370
    25
100
AcDbLine
 10
6.702275115810778
 20
15.93287257769828
 30
0.0
 11
6.658203578770752
 21
16.27693327205827
 31
0.0
  0
LINE
  5
151
330
1F
100
AcDbEntity
  8
0
  6
Continuous
 62
     7
370
    25
100
AcDbLine
 10
5.312521745650769
 20
16.28165344205828
 30
0.0
 11
5.268350952770731
 21
15.93681780617828
 31
0.0
  0
LINE
  5
152
330
1F
100
AcDbEntity
  8
0
  6
Continuous
 62
     7
370
    25
100
AcDbLine
 10
6.597801850170753
 20
16.35588702861827
 30
0.0
 11
6.018542360410748
 21
16.50581041661829
 31
0.0
  0
LINE
  5
157
330
1F
100
AcDbEntity
  8
0
  6
Continuous
 62
     7
370
    25
100
AcDbLine
 10
9.304520535290748
 20
16.15971178545828
 30
0.0
 11
9.260603940610764
 21
16.50256271313827
 31
0.0
  0
ARC
  5
158
330
1F
100
AcDbEntity
  8
0
  6
Continuous
 62
     7
370
    25
100
AcDbCircle
 10
9.236798475530747
 20
16.49951341473826
 30
0.0
 40
0.0240000000000028
100
AcDbArc
 50
7.299399037799706
 51
75.48918130089906
  0
LINE
  5
159
330
1F
100
AcDbEntity
  8
0
  6
Continuous
 62
     7
370
    25
100
AcDbLine
 10
9.242811911930743
 20
16.52274780889826
 30
0.0
 11
9.110377768410728
 21
16.55702428745826
 31
0.0
  0
LINE
  5
15A
330
1F
100
AcDbEntity
  8
0
  6
Continuous
 62
     7
370
    25
100
AcDbLine
 10
9.112095094450751
 20
16.55657988345828
 30
0.0
 11
9.068023478410736
 21
16.9006405573383
 31
0.0
  0
LINE
  5
15B
330
1F
100
AcDbEntity
  8
0
  6
Continuous
 62
     7
370
    25
100
AcDbLine
 10
9.007621670770731
 20
16.97959429345826
 30
0.0
 11
8.428362181010754
 21
17.12951768145828
 31
0.0
  0
LINE
  5
15C
330
1F
100
AcDbEntity
  8
0
  6
Continuous
 62
     7
370
    25
100
AcDbLine
 10
8.402528507290753
 20
17.12969759129828
 30
0.0
 11
8.045672826810744
 21
17.03733654485828
 31
0.0
  0
LINE
  5
15D
330
1F
100
AcDbEntity
  8
0
  6
Continuous
 62
     7
370
    25
100
AcDbLine
 10
3.924852115690754
 20
14.76735114213826
 30
0.0
 11
3.880935521010741
 21
15.11020206981828
 31
0.0
  0
ARC
  5
15E
330
1F
100
AcDbEntity
  8
0
  6
Continuous
 62
     7
370
    25
100
AcDbCircle
 10
3.857130084250741
 20
15.10715277873828
 30
0.0
 40
0.0240000000000042
100
AcDbArc
 50
7.299399037899894
 51
75.48918130089906
  0
LINE
  5
15F
330
1F
100
AcDbEntity
  8
0
  6
Continuous
 62
     7
370
    25
100
AcDbLine
 10
3.863143492330749
 20
15.13038716557827
 30
0.0
 11
3.730709348850751
 21
15.16466364413827
 31
0.0
  0
LINE
  5
160
330
1F
100
AcDbEntity
  8
0
  6
Continuous
 62
     7
370
    25
100
AcDbLine
 10
3.732426674850728
 20
15.16421924013826
 30
0.0
 11
3.688355058810742
 21
15.50827991401826
 31
0.0
  0
LINE
  5
161
330
1F
100
AcDbEntity
  8
0
  6
Continuous
 62
     7
370
    25
100
AcDbLine
 10
3.62795346189074
 20
15.58723370465827
 30
0.0
 11
3.048693972130735
 21
15.73715709265826
 31
0.0
  0
LINE
  5
162
330
1F
100
AcDbEntity
  8
0
  6
Continuous
 62
     7
370
    25
100
AcDbLine
 10
3.022860087690759
 20
15.73733694797829
 30
0.0
 11
2.750857392930754
 21
15.66693747025829
 31
0.0
  0
LINE
  5
163
330
1F
100
AcDbEntity
  8
0
  6
Continuous
 62
     7
370
    25
100
AcDbLine
 10
2.704711914850747
 20
15.60670259185826
 30
0.0
 11
2.660541148330764
 21
15.2618669627783
 31
0.0
  0
LINE
  5
164
330
1F
100
AcDbEntity
  8
0
  6
Continuous
 62
     7
370
    25
100
AcDbLine
 10
2.427278651330766
 20
15.30639169385827
 30
0.0
 11
2.383362056650753
 21
14.96354076617828
 31
0.0
  0
ARC
  5
166
330
1F
100
AcDbEntity
  8
0
  6
Continuous
 62
     7
370
    25
100
AcDbCircle
 10
2.451084130330741
 20
15.30334239517827
 30
0.0
 40
0.0239999999999929
100
AcDbArc
 50
104.5108186991009
 51
172.7006009621001
  0
LINE
  5
167
330
1F
100
AcDbEntity
  8
0
  6
Continuous
 62
     7
370
    25
100
AcDbLine
 10
2.676502607650746
 20
15.38647580741826
 30
0.0
 11
2.445070680010758
 21
15.32657681689829
 31
0.0
  0
LINE
  5
169
330
1F
100
AcDbEntity
  8
0
  6
Continuous
 62
     7
370
    25
100
AcDbLine
 10
4.863644559090744
 20
16.02575486425826
 30
0.0
 11
4.848251739770745
 21
16.02177090945827
 31
0.0
  0
LINE
  5
16A
330
1F
100
AcDbEntity
  8
0
  6
Continuous
 62
     7
370
    25
100
AcDbLine
 10
1.659024368850737
 20
12.07142485105828
 30
0.0
 11
4.37735638101077
 21
11.36786875541827
 31
0.0
  0
LINE
  5
16B
330
1F
100
AcDbEntity
  8
0
  6
Continuous
 62
     7
370
    25
100
AcDbLine
 10
4.510383319930753
 20
11.36786872813826
 30
0.0
 11
10.11371115609074
 21
12.81811668809825
 31
0.0
  0
LINE
  5
16C
330
1F
100
AcDbEntity
  8
0
  6
Continuous
 62
     7
370
    25
100
AcDbLine
 10
1.371336724410753
 20
15.17648035837828
 30
0.0
 11
1.605761710530742
 21
12.12129952873829
 31
0.0
  0
LINE
  5
16D
330
1F
100
AcDbEntity
  8
0
  6
Continuous
 62
     7
370
    25
100
AcDbLine
 10
7.562070193210729
 20
11.63998784985827
 30
0.0
 11
7.590562569170742
 21
12.16507760029827
 31
0.0
  0
SPLINE
  5
16E
330
1F
100
AcDbEntity
  8
0
  6
Continuous
 62
     7
370
    25
100
AcDbSpline
210
0.0
220
0.0
230
1.0
 70
     8
 71
     3
 72
     9
 73
     5
 74
     0
 42
0.000000001
 43
0.0000000001
 40
0.0
 40
0.0
 40
0.0
 40
0.0
 40
0.3902429974291351
 40
1.0
 40
1.0
 40
1.0
 40
1.0
 10
4.525552747779101
 20
11.371794667469
 30
0.0
 10
4.547915044219081
 20
11.3630850806831
 30
0.0
 10
4.605218561738411
 20
11.34076671278603
 30
0.0
 10
4.676257072533246
 20
11.3216431261126
 30
0.0
 10
4.719573301942546
 20
11.3099823852242
 30
0.0
  0
SPLINE
  5
16F
330
1F
100
AcDbEntity
  8
0
  6
Continuous
 62
     7
370
    25
100
AcDbSpline
210
0.0
220
0.0
230
1.0
 70
     8
 71
     3
 72
    10
 73
     6
 74
     0
 42
0.000000001
 43
0.0000000001
 40
0.0
 40
0.0
 40
0.0
 40
0.0
 40
0.3385232899685513
 40
0.7866537893266665
 40
1.0
 40
1.0
 40
1.0
 40
1.0
 10
7.498107082251948
 20
11.51722457683564
 30
0.0
 10
7.510438512233918
 20
11.52969920989449
 30
0.0
 10
7.539094047644937
 20
11.55868751780994
 30
0.0
 10
7.55979399031446
 20
11.60155003061268
 30
0.0
 10
7.558955421962821
 20
11.63137934806656
 30
0.0
 10
7.558684958350909
 20
11.64100020356949
 30
0.0
  0
SPLINE
  5
170
330
1F
100
AcDbEntity
  8
0
  6
Continuous
 62
     7
370
    25
100
AcDbSpline
210
0.0
220
0.0
230
1.0
 70
     8
 71
     3
 72
    12
 73
     8
 74
     0
 42
0.000000001
 43
0.0000000001
 40
0.0
 40
0.0
 40
0.0
 40
0.0
 40
0.2053714978483341
 40
0.3916971298538201
 40
0.5943491862715766
 40
0.8844695050722458
 40
1.0
 40
1.0
 40
1.0
 40
1.0
 10
1.605981611696023
 20
12.1197703946479
 30
0.0
 10
1.607262957829874
 20
12.11403499166584
 30
0.0
 10
1.609706819846906
 20
12.103096078963
 30
0.0
 10
1.619961242921135
 20
12.09033181726295
 30
0.0
 10
1.633403043778571
 20
12.08040425531504
 30
0.0
 10
1.646447712919837
 20
12.07491864965106
 30
0.0
 10
1.656236495878403
 20
12.07219932296129
 30
0.0
 10
1.659024368851078
 20
12.07142485105663
 30
0.0
  0
LINE
  5
171
330
1F
100
AcDbEntity
  8
0
  6
Continuous
 62
     7
370
    25
100
AcDbLine
 10
10.16697381445075
 20
12.86799136577826
 30
0.0
 11
10.40139880053075
 21
15.92317219541829
 31
0.0
  0
SPLINE
  5
172
330
1F
100
AcDbEntity
  8
0
  6
Continuous
 62
     7
370
    25
100
AcDbSpline
210
0.0
220
0.0
230
1.0
 70
     8
 71
     3
 72
    11
 73
     7
 74
     0
 42
0.000000001
 43
0.0000000001
 40
0.0
 40
0.0
 40
0.0
 40
0.0
 40
0.296168445881782
 40
0.6694902626593896
 40
0.8879867613969972
 40
1.0
 40
1.0
 40
1.0
 40
1.0
 10
10.11371115609475
 20
12.81811668808515
 30
0.0
 10
10.12071072599695
 20
12.8202142016278
 30
0.0
 10
10.13653328899266
 20
12.82495564154862
 30
0.0
 10
10.1544483252141
 20
12.83736947553149
 30
0.0
 10
10.16552312427996
 20
12.85484999937006
 30
0.0
 10
10.16590865350838
 20
12.8644106075273
 30
0.0
 10
10.16603931343331
 20
12.86765079854655
 30
0.0
  0
LINE
  5
173
330
1F
100
AcDbEntity
  8
0
  6
Continuous
 62
     7
370
    25
100
AcDbLine
 10
8.494372285370758
 20
3.179588575858275
 30
0.0
 11
8.718733578690773
 21
3.149422764018282
 31
0.0
  0
LINE
  5
174
330
1F
100
AcDbEntity
  8
0
  6
Continuous
 62
     7
370
    25
100
AcDbLine
 10
9.224620331130751
 20
5.104019025138285
 30
0.0
 11
9.013795841610772
 21
5.186486707218278
 31
0.0
  0
LINE
  5
175
330
1F
100
AcDbEntity
  8
0
  6
Continuous
 62
     7
370
    25
100
AcDbLine
 10
8.778098428970764
 20
3.431828553138302
 30
0.0
 11
8.795165782130766
 21
3.4286949944983
 31
0.0
  0
LINE
  5
176
330
1F
100
AcDbEntity
  8
0
  6
Continuous
 62
     7
370
    25
100
AcDbLine
 10
9.155968857410755
 20
4.822731293818264
 30
0.0
 11
9.139524579570746
 21
4.828271489178291
 31
0.0
  0
LINE
  5
178
330
1F
100
AcDbEntity
  8
0
  6
Continuous
 62
     7
370
    25
100
AcDbLine
 10
4.533884929490739
 20
1.806435525698276
 30
0.0
 11
4.963715191290759
 21
1.885339576218285
 31
0.0
  0
ELLIPSE
  5
2C1
330
1F
100
AcDbEntity
  8
0
  6
Continuous
 62
     7
370
    25
100
AcDbEllipse
 10
8.609347817010757
 20
4.220498051618278
 30
0.0
 11
0.1156559087762844
 21
1.038920282637889
 31
0.0
210
0.0
220
0.0
230
1.0
 40
0.7029807219
 41
6.182741530752585
 42
7.286061308204152
  0
LINE
  5
2C2
330
1F
100
AcDbEntity
  8
0
  6
Continuous
 62
     7
370
    25
100
AcDbLine
 10
7.566245734170763
 20
5.920433374898266
 30
0.0
 11
7.562316330810745
 21
5.300559907978254
 31
0.0
  0
LINE
  5
2C3
330
1F
100
AcDbEntity
  8
0
  6
Continuous
 62
     7
370
    25
100
AcDbLine
 10
7.352236497130746
 20
9.716944711738278
 30
0.0
 11
7.566245734170763
 21
5.920433374898266
 31
0.0
  0
ELLIPSE
  5
2C4
330
1F
100
AcDbEntity
  8
0
  6
Continuous
 62
     7
370
    25
100
AcDbEllipse
 10
7.070169021530773
 20
9.749161990898301
 30
0.0
 11
-0.0869957838811274
 21
0.3905500210515698
 31
0.0
210
0.0
220
0.0
230
1.0
 40
0.6893696647
 41
4.478394505546585
 42
5.944471077221837
  0
LINE
  5
2C5
330
1F
100
AcDbEntity
  8
0
  6
Continuous
 62
     7
370
    25
100
AcDbLine
 10
6.717702179450753
 20
10.2305911754583
 30
0.0
 11
7.077575468890756
 21
10.13744911429828
 31
0.0
  0
SPLINE
  5
2C8
330
1F
100
AcDbEntity
  8
0
  6
Continuous
 62
     7
370
    25
100
AcDbSpline
210
0.0
220
0.0
230
1.0
 70
     8
 71
     3
 72
     9
 73
     5
 74
     0
 42
0.000000001
 43
0.0000000001
 40
0.0
 40
0.0
 40
0.0
 40
0.0
 40
0.9521927099079672
 40
1.0
 40
1.0
 40
1.0
 40
1.0
 10
7.438023694053157
 20
11.26703911241594
 30
0.0
 10
7.341773684898726
 20
11.29204631237761
 30
0.0
 10
7.240691195867952
 20
11.31830906329077
 30
0.0
 10
7.169594983984836
 20
11.35006340107946
 30
0.0
 10
7.166196066758857
 20
11.3515814899178
 30
0.0
  0
SPLINE
  5
2C9
330
1F
100
AcDbEntity
  8
0
  6
Continuous
 62
     7
370
    25
100
AcDbSpline
210
0.0
220
0.0
230
1.0
 70
     8
 71
     3
 72
     9
 73
     5
 74
     0
 42
0.000000001
 43
0.0000000001
 40
0.0
 40
0.0
 40
0.0
 40
0.0
 40
0.2488660779531448
 40
1.0
 40
1.0
 40
1.0
 40
1.0
 10
8.960492774988921
 20
5.198569423159256
 30
0.0
 10
8.948357257837812
 20
5.203575222261349
 30
0.0
 10
8.89959401436613
 20
5.223689651448722
 30
0.0
 10
8.846971834329679
 20
5.229678111952466
 30
0.0
 10
8.807445529852259
 20
5.234176247777639
 30
0.0
  0
LINE
  5
2CA
330
1F
100
AcDbEntity
  8
0
  6
Continuous
 62
     7
370
    25
100
AcDbLine
 10
8.807445529850753
 20
5.234176247778293
 30
0.0
 11
8.865767706610768
 21
5.219081357698257
 31
0.0
  0
LWPOLYLINE
  5
2CB
330
1F
100
AcDbEntity
  8
0
  6
Continuous
 62
     7
370
    25
100
AcDbPolyline
 90
       11
 70
   128
 43
0.0
 10
8.865767706610768
 20
5.219081357698257
 10
8.73478848881075
 20
5.210458583818279
 10
8.602613268530774
 20
5.169063926018282
 10
8.473518656930764
 20
5.096237426098298
 10
8.351681627290759
 20
4.99433369369828
 10
8.241044279650736
 20
4.866651209418279
 10
8.145186330330773
 20
4.717322173698278
 10
8.067209392250759
 20
4.551176045178294
 10
8.009636428410743
 20
4.373590309818268
 10
7.974330224130767
 20
4.190310476418289
 10
7.962433169770747
 20
4.007265224778279
  0
LINE
  5
2CC
330
1F
100
AcDbEntity
  8
0
  6
Continuous
 62
     7
370
    25
100
AcDbLine
 10
7.962433169770747
 20
4.007265224778279
 30
0.0
 11
7.357723885090763
 21
4.163775504418282
 31
0.0
  0
SPLINE
  5
2CD
330
1F
100
AcDbEntity
  8
0
  6
Continuous
 62
     7
370
    25
100
AcDbSpline
210
0.0
220
0.0
230
1.0
 70
     8
 71
     3
 72
    10
 73
     6
 74
     0
 42
0.000000001
 43
0.0000000001
 40
0.0
 40
0.0
 40
0.0
 40
0.0
 40
0.4234276615060809
 40
0.9936537817135576
 40
1.0
 40
1.0
 40
1.0
 40
1.0
 10
8.055863724048151
 20
4.847853426693461
 30
0.0
 10
8.041887315003179
 20
4.826357755653077
 30
0.0
 10
8.009089005008775
 20
4.775914062995553
 30
0.0
 10
7.970724067865887
 20
4.724923980833011
 30
0.0
 10
7.950117553670878
 20
4.694793114527101
 30
0.0
 10
7.949890741823537
 20
4.694461470010026
 30
0.0
  0
LWPOLYLINE
  5
2CE
330
1F
100
AcDbEntity
  8
0
  6
Continuous
 62
     7
370
    25
100
AcDbPolyline
 90
        3
 70
   128
 43
0.0
 10
8.375829953890757
 20
11.02699798489829
 10
8.371234630330775
 20
11.02759772929829
 10
8.365807433330758
 20
11.02691101097827
  0
SPLINE
  5
2CF
330
1F
100
AcDbEntity
  8
0
  6
Continuous
 62
     7
370
    25
100
AcDbSpline
210
0.0
220
0.0
230
1.0
 70
     8
 71
     3
 72
    10
 73
     6
 74
     0
 42
0.000000001
 43
0.0000000001
 40
0.0
 40
0.0
 40
0.0
 40
0.0
 40
0.3127272560003762
 40
0.6505936436678846
 40
1.0
 40
1.0
 40
1.0
 40
1.0
 10
6.717702179447798
 20
10.23059117544216
 30
0.0
 10
6.619992479929521
 20
10.2534647692122
 30
0.0
 10
6.416718514480237
 20
10.30105069090314
 30
0.0
 10
6.04984098105649
 20
10.35667937998852
 30
0.0
 10
5.773840918485234
 20
10.37948140655067
 30
0.0
 10
5.633523734292481
 20
10.39107385378162
 30
0.0
  0
LWPOLYLINE
  5
2D0
330
1F
100
AcDbEntity
  8
0
  6
Continuous
 62
     7
370
    25
100
AcDbPolyline
 90
        3
 70
   128
 43
0.0
 10
7.448046214610769
 20
11.26712608633829
 10
7.443450891050758
 20
11.2677258307383
 10
7.438023694050741
 20
11.26703911241827
  0
ELLIPSE
  5
2D1
330
1F
100
AcDbEntity
  8
0
  6
Continuous
 62
     7
370
    25
100
AcDbEllipse
 10
6.996566354650752
 20
5.174495034178278
 30
0.0
 11
0.1829217885921594
 21
0.7789172551146181
 31
0.0
210
0.0
220
0.0
230
1.0
 40
0.6873451752
 41
4.410645813563061
 42
5.032891661272633
  0
LWPOLYLINE
  5
2D2
330
1F
100
AcDbEntity
  8
0
  6
Continuous
 62
     7
370
    25
100
AcDbPolyline
 90
        9
 70
   128
 43
0.0
 10
5.633523734290747
 20
10.39107385377826
 10
5.506457808570758
 20
10.40197585897829
 10
5.386096458610779
 20
10.41714090717829
 10
5.274563786810745
 20
10.43630135889827
 10
5.173828136610779
 20
10.45911908589829
 10
5.085667209410758
 20
10.48519139069827
 10
5.011636908770753
 20
10.51405817029825
 10
4.953043661930735
 20
10.54520997997826
 10
4.910921548330748
 20
10.5780970615383
  0
SPLINE
  5
2D8
330
1F
100
AcDbEntity
  8
0
  6
Continuous
 62
     7
370
    25
100
AcDbSpline
210
0.0
220
0.0
230
1.0
 70
     8
 71
     3
 72
    10
 73
     6
 74
     0
 42
0.000000001
 43
0.0000000001
 40
0.0
 40
0.0
 40
0.0
 40
0.0
 40
0.3127272560003762
 40
0.6505936436678846
 40
1.0
 40
1.0
 40
1.0
 40
1.0
 10
4.290864093626538
 20
10.8587030914328
 30
0.0
 10
4.379240873476788
 20
10.83341396030624
 30
0.0
 10
4.563098756393003
 20
10.78080278667443
 30
0.0
 10
4.778031506273578
 20
10.68584789380418
 30
0.0
 10
4.866131771666005
 20
10.61441382116123
 30
0.0
 10
4.910921548347062
 20
10.57809706153693
 30
0.0
  0
ELLIPSE
  5
2D9
330
1F
100
AcDbEntity
  8
0
  6
Continuous
 62
     7
370
    25
100
AcDbEllipse
 10
3.923584280010743
 20
10.5635580490183
 30
0.0
 11
-0.0869957838811274
 21
0.3905500210515811
 31
0.0
210
0.0
220
0.0
230
1.0
 40
0.6893696647000001
 41
5.944471077221816
 42
7.410547648897103
  0
LINE
  5
2DA
330
1F
100
AcDbEntity
  8
0
  6
Continuous
 62
     7
370
    25
100
AcDbLine
 10
3.64306516173076
 20
10.67694889489826
 30
0.0
 11
3.349648733250745
 21
7.669708833258283
 31
0.0
  0
LINE
  5
2DB
330
1F
100
AcDbEntity
  8
0
  6
Continuous
 62
     7
370
    25
100
AcDbLine
 10
4.290864093610764
 20
10.85870309141828
 30
0.0
 11
3.930990804170761
 21
10.9518451525783
 31
0.0
  0
LINE
  5
2DF
330
1F
100
AcDbEntity
  8
0
  6
Continuous
 62
     7
370
    25
100
AcDbLine
 10
4.299700443850753
 20
10.84689861157829
 30
0.0
 11
4.100042551130741
 21
7.807456949698291
 31
0.0
  0
LINE
  5
2E2
330
1F
100
AcDbEntity
  8
0
  6
Continuous
 62
     7
370
    25
100
AcDbLine
 10
4.417059133770749
 20
10.82010369633826
 30
0.0
 11
4.240095000890761
 21
7.833166556338255
 31
0.0
  0
LWPOLYLINE
  5
2E3
330
1F
100
AcDbEntity
  8
0
  6
Continuous
 62
     7
370
    25
100
AcDbPolyline
 90
        9
 70
   128
 43
0.0
 10
7.962433169770747
 20
4.007265224778279
 10
7.972462960690762
 20
3.84451531501827
 10
8.002278695010772
 20
3.691396705178277
 10
8.051067096570761
 20
3.552086017298279
 10
8.117497378690757
 20
3.430384122338296
 10
8.199757437610742
 20
3.32960805753828
 10
8.295603454090752
 20
3.252509443618293
 10
8.402421006490754
 20
3.201191275018288
 10
8.494372285370758
 20
3.179588575858275
  0
ELLIPSE
  5
2E4
330
1F
100
AcDbEntity
  8
0
  6
Continuous
 62
     7
370
    25
100
AcDbEllipse
 10
8.047286033090756
 20
4.365970345818283
 30
0.0
 11
0.2377983251697969
 21
1.012592431649
 31
0.0
210
0.0
220
0.0
230
1.0
 40
0.6873451752000001
 41
2.321318567296163
 42
3.126057128045966
  0
ELLIPSE
  5
2E5
330
1F
100
AcDbEntity
  8
0
  6
Continuous
 62
     7
370
    25
100
AcDbEllipse
 10
4.05312744225074
 20
10.59708628653828
 30
0.0
 11
-0.0914608942960627
 21
0.3894586275573148
 31
0.0
210
0.0
220
0.0
230
1.0
 40
0.6873451752
 41
0.2565414705343577
 42
1.11939395200746
  0
LINE
  5
2E6
330
1F
100
AcDbEntity
  8
0
  6
Continuous
 62
     7
370
    25
100
AcDbLine
 10
3.772350198090748
 20
10.71041032453826
 30
0.0
 11
3.497407154770741
 21
7.696832367138284
 31
0.0
  0
LINE
  5
2EA
330
1F
100
AcDbEntity
  8
0
  6
Continuous
 62
     7
370
    25
100
AcDbLine
 10
7.260170526090746
 20
7.107470801218283
 30
0.0
 11
7.500268214610741
 21
7.090871455978287
 31
0.0
  0
LINE
  5
2EB
330
1F
100
AcDbEntity
  8
0
  6
Continuous
 62
     7
370
    25
100
AcDbLine
 10
7.412302684130736
 20
7.107683388578266
 30
0.0
 11
7.499660983890748
 21
7.1016435727783
 31
0.0
  0
LINE
  5
2EC
330
1F
100
AcDbEntity
  8
0
  6
Continuous
 62
     7
370
    25
100
AcDbLine
 10
2.954443898770733
 20
2.316029036698296
 30
0.0
 11
3.062203380530746
 21
2.364701585978281
 31
0.0
  0
LWPOLYLINE
  5
2ED
330
1F
100
AcDbEntity
  8
0
  6
Continuous
 62
     7
370
    25
100
AcDbPolyline
 90
       22
 70
   128
 43
0.0
 10
2.976571204970753
 20
7.097470621418267
 10
2.821228247330765
 20
7.002613699138294
 10
2.662798770610748
 20
6.875046601818269
 10
2.517349574930733
 20
6.723543708178283
 10
2.386306698890763
 20
6.549590955778285
 10
2.270954883850748
 20
6.354893361058259
 10
2.172424929690748
 20
6.141359292738286
 10
2.091682947610763
 20
5.91108310253827
 10
2.029520350010756
 20
5.666322383498282
 10
1.986546791050756
 20
5.409475040578286
 10
1.963183528530748
 20
5.143061433538264
 10
1.95965941977073
 20
4.869692596338268
 10
1.97600902525076
 20
4.592048274298292
 10
2.01207239765074
 20
4.312849343178299
 10
2.067495714170746
 20
4.034835767738286
 10
2.141735491210738
 20
3.760732117978278
 10
2.23406416881076
 20
3.493224245898261
 10
2.343576432650763
 20
3.23493577121826
 10
2.469198591730759
 20
2.988400321818289
 10
2.60969911521073
 20
2.756032322818271
 10
2.763700644010754
 20
2.540111221338293
 10
2.92969316197076
 20
2.342753896898273
  0
ARC
  5
2EE
330
1F
100
AcDbEntity
  8
0
  6
Continuous
 62
     7
370
    25
100
AcDbCircle
 10
3.798448179370751
 20
5.883059685618263
 30
0.0
 40
1.35436384441514
100
AcDbArc
 50
115.7635645149012
 51
117.2011111966013
  0
LINE
  5
2EF
330
1F
100
AcDbEntity
  8
0
  6
Continuous
 62
     7
370
    25
100
AcDbLine
 10
3.209762447450742
 20
7.10279348121827
 30
0.0
 11
3.016342340970766
 21
7.117577716698292
 31
0.0
  0
LWPOLYLINE
  5
2F0
330
1F
100
AcDbEntity
  8
0
  6
Continuous
 62
     7
370
    25
100
AcDbPolyline
 90
        3
 70
   128
 43
0.0
 10
3.361691879130745
 20
7.231062399138295
 10
3.197221178530753
 20
7.18993686237826
 10
3.016342340970766
 20
7.117577716698292
  0
LWPOLYLINE
  5
2F1
330
1F
100
AcDbEntity
  8
0
  6
Continuous
 62
     7
370
    25
100
AcDbPolyline
 90
       11
 70
   128
 43
0.0
 10
2.954443898770733
 20
2.316029036698296
 10
3.132149921530753
 20
2.142264400138287
 10
3.318234737770751
 20
1.990963489378259
 10
3.510874126530751
 20
1.863610592618272
 10
3.708179355850745
 20
1.761453370578294
 10
3.90821613553075
 20
1.685493345298255
 10
4.109023293810764
 20
1.636476460338258
 10
4.308632151290737
 20
1.61488115765826
 10
4.505085777170762
 20
1.620921453978269
 10
4.696458126290735
 20
1.654537381938268
 10
4.797337029690766
 20
1.684155854538289
  0
LINE
  5
2F2
330
1F
100
AcDbEntity
  8
0
  6
Continuous
 62
     7
370
    25
100
AcDbLine
 10
3.368530257970746
 20
7.063024084618291
 30
0.0
 11
3.336406456890756
 21
7.045435943938286
 31
0.0
  0
LWPOLYLINE
  5
2F3
330
1F
100
AcDbEntity
  8
0
  6
Continuous
 62
     7
370
    25
100
AcDbPolyline
 90
        3
 70
   128
 43
0.0
 10
4.685171648090772
 20
1.834207693098278
 10
4.757244102450755
 20
1.835568878458275
 10
4.943318750770743
 20
1.857615695138292
  0
LWPOLYLINE
  5
2F4
330
1F
100
AcDbEntity
  8
0
  6
Continuous
 62
     7
370
    25
100
AcDbPolyline
 90
        3
 70
   128
 43
0.0
 10
3.573495966730746
 20
7.150204354618267
 10
3.542995872970749
 20
7.139808933338258
 10
3.368530257970746
 20
7.063024084618291
  0
LINE
  5
2F5
330
1F
100
AcDbEntity
  8
0
  6
Continuous
 62
     7
370
    25
100
AcDbLine
 10
3.016342340970766
 20
7.117577716698292
 30
0.0
 11
2.96022223169075
 21
7.270434916498288
 31
0.0
  0
LINE
  5
2F6
330
1F
100
AcDbEntity
  8
0
  6
Continuous
 62
     7
370
    25
100
AcDbLine
 10
3.028896833490733
 20
7.301648326618305
 30
0.0
 11
2.96022223169075
 21
7.270434916498288
 31
0.0
  0
ARC
  5
2F7
330
1F
100
AcDbEntity
  8
0
  6
Continuous
 62
     7
370
    25
100
AcDbCircle
 10
4.408723652610774
 20
3.255787527458267
 30
0.0
 40
1.79964269905425
100
AcDbArc
 50
232.8255035994008
 51
274.201487765201
  0
LINE
  5
2F8
330
1F
100
AcDbEntity
  8
0
  6
Continuous
 62
     7
370
    25
100
AcDbLine
 10
2.96022223169075
 20
7.270434916498288
 30
0.0
 11
2.942560700170758
 21
7.26709030361826
 31
0.0
  0
ARC
  5
2F9
330
1F
100
AcDbEntity
  8
0
  6
Continuous
 62
     7
370
    25
100
AcDbCircle
 10
3.58180058753075
 20
5.952997229418258
 30
0.0
 40
1.461324139678034
100
AcDbArc
 50
115.9405807411008
 51
117.0242915946998
  0
ARC
  5
2FA
330
1F
100
AcDbEntity
  8
0
  6
Continuous
 62
     7
370
    25
100
AcDbCircle
 10
3.620610326610744
 20
5.916230468898277
 30
0.0
 40
1.506679206787976
100
AcDbArc
 50
117.7272929922988
 51
123.6688946566999
  0
LINE
  5
2FB
330
1F
100
AcDbEntity
  8
0
  6
Continuous
 62
     7
370
    25
100
AcDbLine
 10
2.894804738330748
 20
2.195907591258276
 30
0.0
 11
2.954443898770733
 21
2.316029036698296
 31
0.0
  0
LINE
  5
2FC
330
1F
100
AcDbEntity
  8
0
  6
Continuous
 62
     7
370
    25
100
AcDbLine
 10
3.32129944585074
 20
1.821834097658268
 30
0.0
 11
3.333546055650742
 21
1.873383605218293
 31
0.0
  0
ARC
  5
2FD
330
1F
100
AcDbEntity
  8
0
  6
Continuous
 62
     7
370
    25
100
AcDbCircle
 10
3.30216488241075
 20
1.880327717098282
 30
0.0
 40
0.0321402975029863
100
AcDbArc
 50
347.5224979893015
 51
47.99190041520052
  0
LINE
  5
2FE
330
1F
100
AcDbEntity
  8
0
  6
Continuous
 62
     7
370
    25
100
AcDbLine
 10
3.323674315410755
 20
1.904209572458285
 30
0.0
 11
3.090263803970742
 21
2.093442886738273
 31
0.0
  0
ARC
  5
2FF
330
1F
100
AcDbEntity
  8
0
  6
Continuous
 62
     7
370
    25
100
AcDbCircle
 10
3.081201457490749
 20
2.084081726258261
 30
0.0
 40
0.0130291000718976
100
AcDbArc
 50
45.92920858599994
 51
162.3518038240004
  0
LINE
  5
300
330
1F
100
AcDbEntity
  8
0
  6
Continuous
 62
     7
370
    25
100
AcDbLine
 10
3.068785559210738
 20
2.088031779258301
 30
0.0
 11
3.049769217290759
 21
2.041972089698276
 31
0.0
  0
ARC
  5
301
330
1F
100
AcDbEntity
  8
0
  6
Continuous
 62
     7
370
    25
100
AcDbCircle
 10
5.086669336850746
 20
4.247455726858277
 30
0.0
 40
3.002185898807644
100
AcDbArc
 50
223.1060968260986
 51
227.2756179472002
  0
LWPOLYLINE
  5
305
330
1F
100
AcDbEntity
  8
0
  6
Continuous
 62
     7
370
    25
100
AcDbPolyline
 90
       20
 70
   128
 43
0.0
 10
2.554545643890747
 20
6.983606676698286
 10
2.405312609490749
 20
6.820329969858278
 10
2.271258130410728
 20
6.63414618069828
 10
2.153668949930761
 20
6.426842713578281
 10
2.053673444490755
 20
6.200408591818302
 10
1.972231403210741
 20
5.957016952178264
 10
1.910124439450754
 20
5.699004496818275
 10
1.867948931090751
 20
5.428846836858269
 10
1.846109487850753
 20
5.149137729338292
 10
1.844815579610752
 20
4.862561162978295
 10
1.864079850410746
 20
4.571867037978279
 10
1.903717064810734
 20
4.279847257698293
 10
1.963347269050757
 20
3.989301517778301
 10
2.042397687370737
 20
3.70302184625828
 10
2.140110098010751
 20
3.423752695778262
 10
2.255546206770759
 20
3.154176886778259
 10
2.387598394450748
 20
2.896880584338276
 10
2.534999199930751
 20
2.654333571898291
 10
2.696333858930756
 20
2.428862976538283
 10
2.860732172330756
 20
2.232860167738294
  0
LINE
  5
306
330
1F
100
AcDbEntity
  8
0
  6
Continuous
 62
     7
370
    25
100
AcDbLine
 10
2.554545643890747
 20
6.983606676698286
 30
0.0
 11
2.583112672450738
 21
6.934365566698261
 31
0.0
  0
LWPOLYLINE
  5
307
330
1F
100
AcDbEntity
  8
0
  6
Continuous
 62
     7
370
    25
100
AcDbPolyline
 90
        9
 70
   128
 43
0.0
 10
2.605972280130743
 20
6.925991820818296
 10
2.603327354650758
 20
6.924357886378288
 10
2.600415007410731
 20
6.923499018938287
 10
2.597334810370739
 20
6.923445293818275
 10
2.594192657450747
 20
6.924197514738295
 10
2.591096023090756
 20
6.925730743978277
 10
2.588151328170738
 20
6.927991529618282
 10
2.585459408970763
 20
6.930903684218264
 10
2.583112672450738
 20
6.934365566698261
  0
LINE
  5
308
330
1F
100
AcDbEntity
  8
0
  6
Continuous
 62
     7
370
    25
100
AcDbLine
 10
2.605972280130743
 20
6.925991820818296
 30
0.0
 11
2.80434717009075
 21
7.086365413778281
 31
0.0
  0
ARC
  5
309
330
1F
100
AcDbEntity
  8
0
  6
Continuous
 62
     7
370
    25
100
AcDbCircle
 10
2.784652627490743
 20
7.104053448978277
 30
0.0
 40
0.0264715242795253
100
AcDbArc
 50
318.0723989561993
 51
27.50660827869937
  0
LINE
  5
30A
330
1F
100
AcDbEntity
  8
0
  6
Continuous
 62
     7
370
    25
100
AcDbLine
 10
2.808131746370747
 20
7.116279346658274
 30
0.0
 11
2.785318394810758
 21
7.170172102658284
 31
0.0
  0
LINE
  5
30B
330
1F
100
AcDbEntity
  8
0
  6
Continuous
 62
     7
370
    25
100
AcDbLine
 10
3.20976251009074
 20
7.102793751018282
 30
0.0
 11
3.209317289370744
 21
7.102677013778276
 31
0.0
  0
SPLINE
  5
30F
330
1F
100
AcDbEntity
  8
0
  6
Continuous
 62
     7
370
    25
100
AcDbSpline
210
0.0
220
0.0
230
1.0
 70
     8
 71
     3
 72
    12
 73
     8
 74
     0
 42
0.000000001
 43
0.0000000001
 40
0.0
 40
0.0
 40
0.0
 40
0.0
 40
0.2412148996259424
 40
0.48243061356084
 40
0.7236432451905911
 40
0.9648227586464688
 40
1.0
 40
1.0
 40
1.0
 40
1.0
 10
2.995719888009546
 20
7.083843895862202
 30
0.0
 10
2.993651858014999
 20
7.084055642137172
 30
0.0
 10
2.98951579104451
 20
7.08447913540192
 30
0.0
 10
2.983258419606187
 20
7.088304451784608
 30
0.0
 10
2.977870198326911
 20
7.094009019186501
 30
0.0
 10
2.974991510989667
 20
7.099158939054404
 30
0.0
 10
2.973903553115803
 20
7.10202366670569
 30
0.0
 10
2.973765067784597
 20
7.102388315711891
 30
0.0
  0
LINE
  5
310
330
1F
100
AcDbEntity
  8
0
  6
Continuous
 62
     7
370
    25
100
AcDbLine
 10
2.917821343050746
 20
7.254765182658275
 30
0.0
 11
2.973765067770727
 21
7.102388315698277
 31
0.0
  0
ARC
  5
311
330
1F
100
AcDbEntity
  8
0
  6
Continuous
 62
     7
370
    25
100
AcDbCircle
 10
3.798410130250744
 20
5.882170176378281
 30
0.0
 40
1.355237122889379
100
AcDbArc
 50
115.7648577794994
 51
117.2008524454992
  0
LINE
  5
312
330
1F
100
AcDbEntity
  8
0
  6
Continuous
 62
     7
370
    25
100
AcDbLine
 10
3.178916117330743
 20
7.087531046458281
 30
0.0
 11
2.995719888010739
 21
7.083843895858279
 31
0.0
  0
LINE
  5
313
330
1F
100
AcDbEntity
  8
0
  6
Continuous
 62
     7
370
    25
100
AcDbLine
 10
3.17934790785074
 20
7.087640912218262
 30
0.0
 11
3.17891607637074
 21
7.087530845658278
 31
0.0
  0
LINE
  5
314
330
1F
100
AcDbEntity
  8
0
  6
Continuous
 62
     7
370
    25
100
AcDbLine
 10
2.671727264370758
 20
7.005917585578288
 30
0.0
 11
2.682298115450748
 21
6.987696634858281
 31
0.0
  0
LINE
  5
315
330
1F
100
AcDbEntity
  8
0
  6
Continuous
 62
     7
370
    25
100
AcDbLine
 10
2.554545643890747
 20
6.983606676698286
 30
0.0
 11
2.671727264370758
 21
7.005917585578288
 31
0.0
  0
ARC
  5
316
330
1F
100
AcDbEntity
  8
0
  6
Continuous
 62
     7
370
    25
100
AcDbCircle
 10
4.580407164570772
 20
3.4392030181383
 30
0.0
 40
1.876066782471783
100
AcDbArc
 50
242.2307314079986
 51
253.8078333517012
  0
LINE
  5
317
330
1F
100
AcDbEntity
  8
0
  6
Continuous
 62
     7
370
    25
100
AcDbLine
 10
3.125049705370742
 20
2.065241436458279
 30
0.0
 11
3.049769217290759
 21
2.041972089698276
 31
0.0
  0
LINE
  5
31B
330
1F
100
AcDbEntity
  8
0
  6
Continuous
 62
     7
370
    25
100
AcDbLine
 10
2.894804738330748
 20
2.195907591258276
 30
0.0
 11
2.877121290490748
 21
2.190865045938267
 31
0.0
  0
LINE
  5
31C
330
1F
100
AcDbEntity
  8
0
  6
Continuous
 62
     7
370
    25
100
AcDbLine
 10
2.934797461410738
 20
2.358001844618286
 30
0.0
 11
3.028240712410735
 21
2.39760698713826
 31
0.0
  0
SPLINE
  5
31D
330
1F
100
AcDbEntity
  8
0
  6
Continuous
 62
     7
370
    25
100
AcDbSpline
210
0.0
220
0.0
230
1.0
 70
     8
 71
     3
 72
    12
 73
     8
 74
     0
 42
0.000000001
 43
0.0000000001
 40
0.0
 40
0.0
 40
0.0
 40
0.0
 40
0.2411384113883774
 40
0.4822678256496342
 40
0.7234489192329953
 40
0.9646562742707883
 40
1.0
 40
1.0
 40
1.0
 40
1.0
 10
2.912330030154066
 20
2.336785569246785
 30
0.0
 10
2.913497702167717
 20
2.338816901714778
 30
0.0
 10
2.915833002627891
 20
2.342879490859559
 30
0.0
 10
2.921333481576425
 20
2.34895615614954
 30
0.0
 10
2.927558142883952
 20
2.354138821461503
 30
0.0
 10
2.932184641542335
 20
2.356861655788293
 30
0.0
 10
2.934501378298023
 20
2.357872639142669
 30
0.0
 10
2.934797461423983
 20
2.358001844634429
 30
0.0
  0
LINE
  5
31E
330
1F
100
AcDbEntity
  8
0
  6
Continuous
 62
     7
370
    25
100
AcDbLine
 10
2.91233003017075
 20
2.336785569258267
 30
0.0
 11
2.852878317850752
 21
2.217041653778267
 31
0.0
  0
ARC
  5
31F
330
1F
100
AcDbEntity
  8
0
  6
Continuous
 62
     7
370
    25
100
AcDbCircle
 10
5.156418119970766
 20
4.326107294658271
 30
0.0
 40
3.123212048136325
100
AcDbArc
 50
222.4764698869
 51
223.1309958757013
  0
ARC
  5
321
330
1F
100
AcDbEntity
  8
0
  6
Continuous
 62
     7
370
    25
100
AcDbCircle
 10
3.577582531050751
 20
2.731639522538273
 30
0.0
 40
1.81603826732939
100
AcDbArc
 50
289.6938251643991
 51
327.6303147758013
  0
LWPOLYLINE
  5
322
330
1F
100
AcDbEntity
  8
0
  6
Continuous
 62
     7
370
    25
100
AcDbPolyline
 90
       35
 70
   128
 43
0.0
 10
1.369500491570761
 20
6.721585680178293
 10
1.512308449650731
 20
6.911841035698273
 10
1.66990931933077
 20
7.079378935658269
 10
1.84090930433075
 20
7.222695310138277
 10
2.02384970229076
 20
7.340568302578276
 10
2.217169604570756
 20
7.431992502578282
 10
2.419219699730746
 20
7.496187463538262
 10
2.628276128930735
 20
7.532605055778276
 10
2.842555342930751
 20
7.54093540869826
 10
3.060229169450735
 20
7.521107041138293
 10
3.279440489970738
 20
7.473289137338269
 10
3.498319080850734
 20
7.397889749458272
 10
3.714997530530752
 20
7.295552253978257
 10
3.927627222250748
 20
7.167149487818278
 10
4.13439412925075
 20
7.013776781258286
 10
4.333534089890747
 20
6.836743399058264
 10
4.523348111970761
 20
6.637558791378296
 10
4.702216913610755
 20
6.417923073258293
 10
4.868614252050747
 20
6.17971033293827
 10
5.021120726770732
 20
5.9249518172183
 10
5.158434948490764
 20
5.655822101818273
 10
5.279385445530749
 20
5.374616434778261
 10
5.382940463050772
 20
5.083734382498278
 10
5.468216392410738
 20
4.785658072938304
 10
5.534485778930729
 20
4.482929972458293
 10
5.581183222650736
 20
4.178132359098299
 10
5.607910225170769
 20
3.873867644738282
 10
5.614438772010771
 20
3.572729236578283
 10
5.600713229330779
 20
3.277287804458296
 10
5.566850554610766
 20
2.99006359101827
 10
5.513139875290733
 20
2.713508096978273
 10
5.44003932757073
 20
2.4499784155783
 10
5.348172684810776
 20
2.201725438978257
 10
5.238323456890753
 20
1.970865447218272
 10
5.111428989810747
 20
1.759368968978265
  0
LWPOLYLINE
  5
323
330
1F
100
AcDbEntity
  8
0
  6
Continuous
 62
     7
370
    25
100
AcDbPolyline
 90
       29
 70
   128
 43
0.0
 10
6.465819441850754
 20
2.202378553898284
 10
6.590469167810738
 20
2.410484582418291
 10
6.698093885010734
 20
2.637886708898292
 10
6.787747607490757
 20
2.882584399578263
 10
6.85864282137075
 20
3.14242786649828
 10
6.910156385490751
 20
3.415134964178264
 10
6.941835221250755
 20
3.698308140258291
 10
6.953401370130734
 20
3.989458458978276
 10
6.94475304757077
 20
4.286027206578296
 10
6.915966117850757
 20
4.585409690378298
 10
6.867293883490731
 20
4.884973716738272
 10
6.799163713610766
 20
5.182085796458295
 10
6.712174514890762
 20
5.474136555658276
 10
6.607090831170751
 20
5.758558959538277
 10
6.484836099890742
 20
6.032853662698272
 10
6.346484538890763
 20
6.29460953285826
 10
6.193252084690755
 20
6.541526146738277
 10
6.026485434490751
 20
6.771434474138288
 10
5.847650034250762
 20
6.982313804538279
 10
5.658317539890759
 20
7.172310537218265
 10
5.460151750970766
 20
7.33975506389828
 10
5.254894227970765
 20
7.483175854418277
 10
5.044348803290745
 20
7.601312677498299
 10
4.830365697250755
 20
7.69312762061827
 10
4.614825423250749
 20
7.757813285778297
 10
4.399622139610755
 20
7.794801704258304
 10
4.186647107170756
 20
7.803767466698275
 10
3.977771909410733
 20
7.784631490218259
 10
3.944465573090752
 20
7.778898113778268
  0
ARC
  5
324
330
1F
100
AcDbEntity
  8
0
  6
Continuous
 62
     7
370
    25
100
AcDbCircle
 10
4.980872388490752
 20
3.142992552498299
 30
0.0
 40
1.757789078843285
100
AcDbArc
 50
289.6756903346004
 51
327.6484938984987
  0
LWPOLYLINE
  5
325
330
1F
100
AcDbEntity
  8
0
  6
Continuous
 62
     7
370
    25
100
AcDbPolyline
 90
       68
 70
   128
 43
0.0
 10
1.427794429970759
 20
6.596971720538277
 10
1.566065385130741
 20
6.780883369538287
 10
1.718789126890754
 20
6.942402797338274
 10
1.884623804890736
 20
7.080108637378259
 10
2.062111770370734
 20
7.192792578178284
 10
2.249693379290761
 20
7.279462699618278
 10
2.445720110250761
 20
7.339358501458264
 10
2.648469316250753
 20
7.371953418338279
 10
2.856159212930748
 20
7.376960152338256
 10
3.066964604650763
 20
7.354335814578291
 10
3.279032939810747
 20
7.304278345378293
 10
3.49050055069074
 20
7.227228644458278
 10
3.699509037850759
 20
7.123862875698279
 10
3.904221654810754
 20
6.995089953818279
 10
4.102839415970748
 20
6.842041042058269
 10
4.293616704290741
 20
6.666061482698296
 10
4.474877128850749
 20
6.4686980565383
 10
4.645027749530754
 20
6.251684938258279
 10
4.80257309073076
 20
6.016929130138294
 10
4.946128944610762
 20
5.766493647778275
 10
5.074433539850758
 20
5.502579660218259
 10
5.186359342970774
 20
5.227506163378279
 10
5.280922751850766
 20
4.943690774778275
 10
5.357292630610743
 20
4.653627373978281
 10
5.414798001450776
 20
4.359865112178283
 10
5.452933734370759
 20
4.064985637658281
 10
5.471364129770734
 20
3.771580290338278
 10
5.469927554450748
 20
3.482227599618283
 10
5.448636652450772
 20
3.199471352018292
 10
5.407678555810775
 20
2.925794052498275
 10
5.347412987850759
 20
2.663603597858298
 10
5.268369734490761
 20
2.415201689938271
 10
5.171243375770757
 20
2.18277253285828
 10
5.056887596090746
 20
1.968358973418276
 10
4.926307176370755
 20
1.77384384697828
 10
4.780649669890749
 20
1.600938314378282
 10
4.621195181810776
 20
1.451161477658274
 10
4.449344989490754
 20
1.325828356138288
 10
4.266609319890761
 20
1.226041535218286
 10
4.07459412593073
 20
1.152678468218283
 10
3.874986756770738
 20
1.106382519058286
 10
3.669541416850734
 20
1.08756096817828
 10
3.460063519170745
 20
1.096378699258281
 10
3.248394015010745
 20
1.132759951658272
 10
3.036393032450746
 20
1.196383343658283
 10
2.825923643330753
 20
1.286690679538281
 10
2.618835498290764
 20
1.402887730818292
 10
2.416948406090739
 20
1.543953092018284
 10
2.22203661729074
 20
1.708649157418278
 10
2.035813085210747
 20
1.895525042858281
 10
1.859914266650747
 20
2.102941246378293
 10
1.695886002570745
 20
2.329074453858282
 10
1.545169715210761
 20
2.571937232178299
 10
1.409090080050759
 20
2.829395037658287
 10
1.288842592450748
 20
3.09918555453828
 10
1.185484400730757
 20
3.378937188378273
 10
1.099923769410736
 20
3.666192519418274
 10
1.032912387650753
 20
3.958426414298287
 10
0.985039257530758
 20
4.253070637018282
 10
0.9567250047307425
 20
4.5475371995783
 10
0.9482187170107465
 20
4.839236452378258
 10
0.9595949943707466
 20
5.1256066343783
 10
0.9907537380107385
 20
5.404128897098274
 10
1.041421204130756
 20
5.672358121378294
 10
1.11115232205077
 20
5.927934983898296
 10
1.199334065850734
 20
6.168615022618268
 10
1.305191565730751
 20
6.392282599978273
 10
1.427794429970759
 20
6.596971720538277
  0
LWPOLYLINE
  5
326
330
1F
100
AcDbEntity
  8
0
  6
Continuous
 62
     7
370
    25
100
AcDbPolyline
 90
       41
 70
   128
 43
0.0
 10
1.53453364189076
 20
6.550041169658271
 10
1.413479885090737
 20
6.347586257258285
 10
1.309242510050751
 20
6.126119538258279
 10
1.222765395570746
 20
5.887645546178276
 10
1.154831840730764
 20
5.634324947298296
 10
1.106056768090752
 20
5.368450074578277
 10
1.076882298090765
 20
5.092431104178274
 10
1.067572269970753
 20
4.808765231938281
 10
1.07821118821073
 20
4.520023704418292
 10
1.10870274725076
 20
4.228821110818273
 10
1.158770674450749
 20
3.937792135378288
 10
1.227961469770747
 20
3.649575879098279
 10
1.315648831050765
 20
3.366779018698281
 10
1.421038290170741
 20
3.09196539509827
 10
1.543175747810749
 20
2.827622714378264
 10
1.680954954650758
 20
2.576144491138279
 10
1.833128153170747
 20
2.339808870458284
 10
1.998317246810756
 20
2.120756162098274
 10
2.175026338570745
 20
1.920969474778274
 10
2.361655007210742
 20
1.742257462138297
 10
2.556513164130734
 20
1.58624126589828
 10
2.757836120770747
 20
1.454331040898296
 10
2.963800762530752
 20
1.347721769258271
 10
3.172541722570741
 20
1.267381013618262
 10
3.382168662050759
 20
1.214034081778265
 10
3.590783155210743
 20
1.188165413578303
 10
3.796495995890751
 20
1.190008344498266
 10
3.997444161690765
 20
1.219546472298276
 10
4.191807830730738
 20
1.276512707098277
 10
4.377826845210734
 20
1.360390767818273
 10
4.553816700970742
 20
1.470421406898282
 10
4.718183298890778
 20
1.605607804218266
 10
4.86943843369076
 20
1.764726527458265
 10
5.006212122050783
 20
1.94633470445828
 10
5.127265878890739
 20
2.148789616818277
 10
5.231503253890764
 20
2.3702563358583
 10
5.317980368410758
 20
2.608730327938303
 10
5.38591392321075
 20
2.862051502538292
 10
5.434688995850763
 20
3.127925223778277
 10
5.463863465890767
 20
3.403945345658257
 10
5.473156003050746
 20
3.662718588858297
  0
LWPOLYLINE
  5
327
330
1F
100
AcDbEntity
  8
0
  6
Continuous
 62
     7
370
    25
100
AcDbPolyline
 90
       20
 70
   128
 43
0.0
 10
4.912532216490745
 20
5.828801758578265
 10
4.859790809330775
 20
5.920230807218274
 10
4.707617610810757
 20
6.156567003658267
 10
4.542428517130758
 20
6.375619711978288
 10
4.365719425410759
 20
6.575406975058285
 10
4.179090756730744
 20
6.754117836218284
 10
3.984232599810752
 20
6.91013518393828
 10
3.782909643170739
 20
7.042044833178294
 10
3.576945001410734
 20
7.148653529098282
 10
3.368204041370745
 20
7.228994860458271
 10
3.158577101890756
 20
7.282341792338286
 10
2.949962608730743
 20
7.308210460538276
 10
2.744249768050764
 20
7.306367529578267
 10
2.54330160225075
 20
7.276829401818275
 10
2.348937933250738
 20
7.219863166978257
 10
2.162918918770742
 20
7.13598453053828
 10
1.986929062970745
 20
7.02595446717828
 10
1.822562465090754
 20
6.890767494138287
 10
1.671307330290744
 20
6.731649922378267
 10
1.53453364189076
 20
6.550041169658271
  0
LWPOLYLINE
  5
32A
330
1F
100
AcDbEntity
  8
0
  6
Continuous
 62
     7
370
    25
100
AcDbPolyline
 90
       14
 70
   128
 43
0.0
 10
7.007057996170772
 20
4.026134669178276
 10
6.996963615210745
 20
3.734882085418291
 10
6.966768980730762
 20
3.451414584738273
 10
6.916739617850737
 20
3.178223169298291
 10
6.847314907530744
 20
2.917708936778296
 10
6.759105136090738
 20
2.672159662658259
 10
6.652885594810754
 20
2.443735207138274
 10
6.529589625610753
 20
2.234441679458257
 10
6.390300718690753
 20
2.046119665618277
 10
6.236243029210754
 20
1.880422501698262
 10
6.06877031393077
 20
1.738807622818285
 10
5.889354551570761
 20
1.622519933138278
 10
5.699572244970738
 20
1.532579230658257
 10
5.600333802330766
 20
1.497437451778296
  0
LWPOLYLINE
  5
32B
330
1F
100
AcDbEntity
  8
0
  6
Continuous
 62
     7
370
    25
100
AcDbPolyline
 90
       22
 70
   128
 43
0.0
 10
3.973277000690757
 20
7.783901906778282
 10
4.020352765090763
 20
7.792712039618265
 10
4.22859154545074
 20
7.813846454258282
 10
4.441058682010748
 20
7.80691956053829
 10
4.655887023330762
 20
7.771992597738289
 10
4.871188634250756
 20
7.709371690978287
 10
5.085071457130766
 20
7.61960756885827
 10
5.295655867610776
 20
7.503489551458301
 10
5.501091250330773
 20
7.362037805738282
 10
5.699572244970738
 20
7.196495110618286
 10
5.889354551570761
 20
7.008316433138276
 10
6.06877031393077
 20
6.79915515945828
 10
6.236243029210754
 20
6.570850024058273
 10
6.390300718690753
 20
6.325407307738259
 10
6.529589625610753
 20
6.064983474338276
 10
6.652885594810754
 20
5.791867832378272
 10
6.759105136090738
 20
5.508459520658277
 10
6.847314907530744
 20
5.217250660378283
 10
6.916739617850737
 20
4.920798401898281
 10
6.966768980730762
 20
4.621709882658279
 10
6.996963615210745
 20
4.322612489018297
 10
7.007057996170772
 20
4.026134669178276
  0
LWPOLYLINE
  5
330
330
1F
100
AcDbEntity
  8
0
  6
Continuous
 62
     7
370
    25
100
AcDbPolyline
 90
        3
 70
   128
 43
0.0
 10
4.954951781450745
 20
7.910073954858262
 10
4.965256870330762
 20
7.909509391858279
 10
4.968523119370757
 20
7.909316909778283
  0
SPLINE
  5
331
330
1F
100
AcDbEntity
  8
0
  6
Continuous
 62
     7
370
    25
100
AcDbSpline
210
0.0
220
0.0
230
1.0
 70
     8
 71
     3
 72
    14
 73
    10
 74
     0
 42
0.000000001
 43
0.0000000001
 40
0.0
 40
0.0
 40
0.0
 40
0.0
 40
0.2478658621520207
 40
0.3764087509371561
 40
0.4798622227700994
 40
0.5840243115076249
 40
0.6973846212977179
 40
0.8866167925637581
 40
1.0
 40
1.0
 40
1.0
 40
1.0
 10
7.417159634267704
 20
5.274143044476801
 30
0.0
 10
7.415887313305432
 20
5.275234706188371
 30
0.0
 10
7.413955168475013
 20
5.276892502133762
 30
0.0
 10
7.41176718195939
 20
5.279999190191063
 30
0.0
 10
7.410571839751298
 20
5.282674847463226
 30
0.0
 10
7.410007090330623
 20
5.285531709599524
 30
0.0
 10
7.410136086138891
 20
5.288931453274244
 30
0.0
 10
7.410965924798006
 20
5.291852431290919
 30
0.0
 10
7.411792364130747
 20
5.29364207213436
 30
0.0
 10
7.412102012446382
 20
5.294312610491886
 30
0.0
  0
LWPOLYLINE
  5
332
330
1F
100
AcDbEntity
  8
0
  6
Continuous
 62
     7
370
    25
100
AcDbPolyline
 90
        3
 70
   128
 43
0.0
 10
5.427165361930747
 20
7.885730779058292
 10
5.445880775410728
 20
7.884651039858283
 10
5.469181291810741
 20
7.882987960738262
  0
LINE
  5
333
330
1F
100
AcDbEntity
  8
0
  6
Continuous
 62
     7
370
    25
100
AcDbLine
 10
5.469181291810741
 20
7.882987960738262
 30
0.0
 11
6.919837635130761
 21
7.805379820178302
 31
0.0
  0
ARC
  5
334
330
1F
100
AcDbEntity
  8
0
  6
Continuous
 62
     7
370
    25
100
AcDbCircle
 10
6.730900094490749
 20
6.320515167858275
 30
0.0
 40
1.49683680804037
100
AcDbArc
 50
68.22983963369949
 51
82.74852296820068
  0
LINE
  5
335
330
1F
100
AcDbEntity
  8
0
  6
Continuous
 62
     7
370
    25
100
AcDbLine
 10
6.032025110890742
 20
7.737313260938265
 30
0.0
 11
7.286053261370739
 21
7.71059624145829
 31
0.0
  0
ARC
  5
336
330
1F
100
AcDbEntity
  8
0
  6
Continuous
 62
     7
370
    25
100
AcDbCircle
 10
5.184411145690773
 20
5.809399629218262
 30
0.0
 40
2.10601529087614
100
AcDbArc
 50
60.63130482569953
 51
66.26714076279973
  0
LINE
  5
337
330
1F
100
AcDbEntity
  8
0
  6
Continuous
 62
     7
370
    25
100
AcDbLine
 10
6.217259324730775
 20
7.644753830578281
 30
0.0
 11
7.472821080490746
 21
7.577782904978278
 31
0.0
  0
LINE
  5
338
330
1F
100
AcDbEntity
  8
0
  6
Continuous
 62
     7
370
    25
100
AcDbLine
 10
6.746159494490768
 20
7.244899554058292
 30
0.0
 11
7.48912906593074
 21
7.288479316898303
 31
0.0
  0
ARC
  5
339
330
1F
100
AcDbEntity
  8
0
  6
Continuous
 62
     7
370
    25
100
AcDbCircle
 10
4.577541673330756
 20
5.011543170138281
 30
0.0
 40
3.113002407928247
100
AcDbArc
 50
41.49974556450071
 51
45.84257173199882
  0
LINE
  5
33A
330
1F
100
AcDbEntity
  8
0
  6
Continuous
 62
     7
370
    25
100
AcDbLine
 10
6.909051795610764
 20
7.074270622178289
 30
0.0
 11
7.501606113610762
 21
7.067136743538299
 31
0.0
  0
LINE
  5
33B
330
1F
100
AcDbEntity
  8
0
  6
Continuous
 62
     7
370
    25
100
AcDbLine
 10
7.340215109570749
 20
6.468464422418264
 30
0.0
 11
7.533384060290757
 21
6.503399071498279
 31
0.0
  0
ARC
  5
33C
330
1F
100
AcDbEntity
  8
0
  6
Continuous
 62
     7
370
    25
100
AcDbCircle
 10
3.797156752530753
 20
4.444536301018274
 30
0.0
 40
4.080385712379221
100
AcDbArc
 50
26.11076851169893
 51
29.73663176200019
  0
LINE
  5
33D
330
1F
100
AcDbEntity
  8
0
  6
Continuous
 62
     7
370
    25
100
AcDbLine
 10
7.461118191410747
 20
6.240346462578287
 30
0.0
 11
7.547846119170742
 21
6.246843257018269
 31
0.0
  0
LINE
  5
33E
330
1F
100
AcDbEntity
  8
0
  6
Continuous
 62
     7
370
    25
100
AcDbLine
 10
7.461118191410747
 20
2.654462808858284
 30
0.0
 11
8.350913632650758
 21
3.213760616018277
 31
0.0
  0
ARC
  5
33F
330
1F
100
AcDbEntity
  8
0
  6
Continuous
 62
     7
370
    25
100
AcDbCircle
 10
5.752424348450745
 20
3.775543221298278
 30
0.0
 40
2.043637918031679
100
AcDbArc
 50
320.9815513786999
 51
326.7309700821991
  0
LINE
  5
340
330
1F
100
AcDbEntity
  8
0
  6
Continuous
 62
     7
370
    25
100
AcDbLine
 10
7.340215109570749
 20
2.488928889418275
 30
0.0
 11
8.428000113210771
 21
3.129170911338292
 31
0.0
  0
ARC
  5
341
330
1F
100
AcDbEntity
  8
0
  6
Continuous
 62
     7
370
    25
100
AcDbCircle
 10
7.32716082037075
 20
4.08713647881828
 30
0.0
 40
1.459296123877962
100
AcDbArc
 50
304.2026473588001
 51
318.9697586077004
  0
LINE
  5
342
330
1F
100
AcDbEntity
  8
0
  6
Continuous
 62
     7
370
    25
100
AcDbLine
 10
6.998042241970779
 20
2.161921370978291
 30
0.0
 11
8.14746268165075
 21
2.880218903538263
 31
0.0
  0
LINE
  5
344
330
1F
100
AcDbEntity
  8
0
  6
Continuous
 62
     7
370
    25
100
AcDbLine
 10
7.479203851890758
 20
5.334257947858276
 30
0.0
 11
7.562695784170756
 21
5.360421259458291
 31
0.0
  0
SPLINE
  5
345
330
1F
100
AcDbEntity
  8
0
  6
Continuous
 62
     7
370
    25
100
AcDbSpline
210
0.0
220
0.0
230
1.0
 70
     8
 71
     3
 72
    10
 73
     6
 74
     0
 42
0.000000001
 43
0.0000000001
 40
0.0
 40
0.0
 40
0.0
 40
0.0
 40
0.1498409900772919
 40
0.8294926068611866
 40
1.0
 40
1.0
 40
1.0
 40
1.0
 10
7.412102012446382
 20
5.294312610491886
 30
0.0
 10
7.414774170328001
 20
5.297923933405854
 30
0.0
 10
7.42956675282511
 20
5.317915563577116
 30
0.0
 10
7.454619699499744
 20
5.325909648067948
 30
0.0
 10
7.475096947119624
 20
5.332863322917148
 30
0.0
 10
7.479203851909915
 20
5.334257947872515
 30
0.0
  0
LINE
  5
346
330
1F
100
AcDbEntity
  8
0
  6
Continuous
 62
     7
370
    25
100
AcDbLine
 10
7.435086954330756
 20
4.776597194978279
 30
0.0
 11
7.435238261530741
 21
4.776968571458269
 31
0.0
  0
LINE
  5
347
330
1F
100
AcDbEntity
  8
0
  6
Continuous
 62
     7
370
    25
100
AcDbLine
 10
7.499313693850751
 20
7.107805124418291
 30
0.0
 11
6.931613385570756
 21
7.107011853058281
 31
0.0
  0
SPLINE
  5
349
330
1F
100
AcDbEntity
  8
0
  6
Continuous
 62
     7
370
    25
100
AcDbSpline
210
0.0
220
0.0
230
1.0
 70
     8
 71
     3
 72
    12
 73
     8
 74
     0
 42
0.000000001
 43
0.0000000001
 40
0.0
 40
0.0
 40
0.0
 40
0.0
 40
0.1073594558898596
 40
0.214977965228823
 40
0.347571367777406
 40
0.5683122249593496
 40
1.0
 40
1.0
 40
1.0
 40
1.0
 10
7.548393119413049
 20
5.19171344123805
 30
0.0
 10
7.549274821888189
 20
5.190950802462481
 30
0.0
 10
7.551040354346184
 20
5.189423684698965
 30
0.0
 10
7.552648417898126
 20
5.185131744410881
 30
0.0
 10
7.553116068721976
 20
5.178482625232277
 30
0.0
 10
7.551284254718268
 20
5.166591335835079
 30
0.0
 10
7.547432331272204
 20
5.157590757915244
 30
0.0
 10
7.544883656704627
 20
5.151635410058872
 30
0.0
  0
LINE
  5
34A
330
1F
100
AcDbEntity
  8
0
  6
Continuous
 62
     7
370
    25
100
AcDbLine
 10
7.548393119410746
 20
5.191713441218269
 30
0.0
 11
7.421138770930753
 21
5.271441414578276
 31
0.0
  0
LINE
  5
34B
330
1F
100
AcDbEntity
  8
0
  6
Continuous
 62
     7
370
    25
100
AcDbLine
 10
7.421138770930753
 20
5.271441414578276
 30
0.0
 11
7.417159634250765
 21
5.274143044458298
 31
0.0
  0
LINE
  5
350
330
1F
100
AcDbEntity
  8
0
  6
Continuous
 62
     7
370
    25
100
AcDbLine
 10
7.384011322290746
 20
6.385830530338296
 30
0.0
 11
7.537759706610756
 21
6.425774866138283
 31
0.0
  0
SPLINE
  5
352
330
1F
100
AcDbEntity
  8
0
  6
Continuous
 62
     7
370
    25
100
AcDbSpline
210
0.0
220
0.0
230
1.0
 70
     8
 71
     3
 72
     9
 73
     5
 74
     0
 42
0.000000001
 43
0.0000000001
 40
0.0
 40
0.0
 40
0.0
 40
0.0
 40
0.4380352369343216
 40
1.0
 40
1.0
 40
1.0
 40
1.0
 10
6.886276547481003
 20
7.09812788754624
 30
0.0
 10
6.974913584376906
 20
7.115508529321061
 30
0.0
 10
7.177264969430524
 20
7.155187167725785
 30
0.0
 10
7.379511783365558
 20
7.194658518340077
 30
0.0
 10
7.493167366239362
 20
7.216840026535919
 30
0.0
  0
LWPOLYLINE
  5
353
330
1F
100
AcDbEntity
  8
0
  6
Continuous
 62
     7
370
    25
100
AcDbPolyline
 90
        3
 70
   128
 43
0.0
 10
8.164362935690746
 20
3.049237723098258
 10
8.29401380669077
 20
3.088531934498291
 10
8.428000113210771
 20
3.129170911338292
  0
ARC
  5
355
330
1F
100
AcDbEntity
  8
0
  6
Continuous
 62
     7
370
    25
100
AcDbCircle
 10
6.361528799730763
 20
6.031544453098263
 30
0.0
 40
1.748036024380343
100
AcDbArc
 50
63.93330833589961
 51
67.97367400599978
  0
LINE
  5
356
330
1F
100
AcDbEntity
  8
0
  6
Continuous
 62
     7
370
    25
100
AcDbLine
 10
7.017099245730776
 20
7.651994184778288
 30
0.0
 11
7.286053261370739
 21
7.71059624145829
 31
0.0
  0
ARC
  5
357
330
1F
100
AcDbEntity
  8
0
  6
Continuous
 62
     7
370
    25
100
AcDbCircle
 10
8.856778249050762
 20
6.895038930218277
 30
0.0
 40
1.30625007054288
100
AcDbArc
 50
70.93478456830037
 51
95.99885237950015
  0
ARC
  5
358
330
1F
100
AcDbEntity
  8
0
  6
Continuous
 62
     7
370
    25
100
AcDbCircle
 10
9.461414888850754
 20
4.615624372538263
 30
0.0
 40
1.271138642840164
100
AcDbArc
 50
289.1993197054008
 51
318.7704279006999
  0
LINE
  5
359
330
1F
100
AcDbEntity
  8
0
  6
Continuous
 62
     7
370
    25
100
AcDbLine
 10
7.970024923570747
 20
2.974345878818269
 30
0.0
 11
8.164362935690746
 21
3.049237723098258
 31
0.0
  0
LINE
  5
35A
330
1F
100
AcDbEntity
  8
0
  6
Continuous
 62
     7
370
    25
100
AcDbLine
 10
6.76276295569076
 20
7.615656765698275
 30
0.0
 11
7.017099245730776
 21
7.651994184778288
 31
0.0
  0
LINE
  5
35C
330
1F
100
AcDbEntity
  8
0
  6
Continuous
 62
     7
370
    25
100
AcDbLine
 10
7.010954195690771
 20
7.602418348258282
 30
0.0
 11
7.014915248730744
 21
7.652874372738267
 31
0.0
  0
ARC
  5
35D
330
1F
100
AcDbEntity
  8
0
  6
Continuous
 62
     7
370
    25
100
AcDbCircle
 10
7.73845806421076
 20
5.407045232258269
 30
0.0
 40
3.223960047260755
100
AcDbArc
 50
344.2578070499993
 51
43.22509832370123
  0
ARC
  5
35E
330
1F
100
AcDbEntity
  8
0
  6
Continuous
 62
     7
370
    25
100
AcDbCircle
 10
8.200129633050778
 20
5.343959783298259
 30
0.0
 40
2.763529768802289
100
AcDbArc
 50
345.0413667551005
 51
0.4181292150988538
  0
ARC
  5
35F
330
1F
100
AcDbEntity
  8
0
  6
Continuous
 62
     7
370
    25
100
AcDbCircle
 10
7.733480065970752
 20
5.3965802558983
 30
0.0
 40
3.230268773410819
100
AcDbArc
 50
359.4243636890005
 51
45.57737493930103
  0
LINE
  5
360
330
1F
100
AcDbEntity
  8
0
  6
Continuous
 62
     7
370
    25
100
AcDbLine
 10
5.943104111370757
 20
15.15193690565826
 30
0.0
 11
5.375765436250759
 21
15.30549251425827
 31
0.0
  0
ELLIPSE
  5
361
330
1F
100
AcDbEntity
  8
0
  6
Continuous
 62
     7
370
    25
100
AcDbEllipse
 10
5.34748544473075
 20
15.29816854729827
 30
0.0
 11
0.0399999431503034
 21
-0.0002546681366312
 31
0.0
210
0.0
220
0.0
230
1.0
 40
0.2648099463999999
 41
0.7872364238337604
 42
2.357728164134178
  0
LINE
  5
362
330
1F
100
AcDbEntity
  8
0
  6
Continuous
 62
     7
370
    25
100
AcDbLine
 10
5.319205471930757
 20
15.30582734021828
 30
0.0
 11
5.252699957690765
 21
15.2886144465383
 31
0.0
  0
ELLIPSE
  5
364
330
1F
100
AcDbEntity
  8
0
  6
Continuous
 62
     7
370
    25
100
AcDbEllipse
 10
6.849414567690757
 20
15.0871006786183
 30
0.0
 11
0.3999968109260521
 21
-0.0025497987290009
 31
0.0
210
0.0
220
0.0
230
1.0
 40
0.2648060924
 41
4.028491859476712
 42
4.969053113544738
  0
LINE
  5
365
330
1F
100
AcDbEntity
  8
0
  6
Continuous
 62
     7
370
    25
100
AcDbLine
 10
6.596165841210734
 20
15.00661011249826
 30
0.0
 11
5.943104111370757
 21
15.15193690565826
 31
0.0
  0
ELLIPSE
  5
366
330
1F
100
AcDbEntity
  8
0
  6
Continuous
 62
     7
370
    25
100
AcDbEllipse
 10
6.864439216730772
 20
27.38458860917828
 30
0.0
 11
0.3116900156569841
 21
24.38133647582568
 31
0.0
210
0.0
220
0.0
230
1.0
 40
0.0116390895
 41
4.178968383426008
 42
4.18008053759083
  0
ELLIPSE
  5
367
330
1F
100
AcDbEntity
  8
0
  6
Continuous
 62
     7
370
    25
100
AcDbEllipse
 10
6.849439534210773
 20
15.10753547093827
 30
0.0
 11
0.4000002750441809
 21
-0.0000030596454849
 31
0.0
210
0.0
220
0.0
230
1.0
 40
0.2588903994999999
 41
4.968486468015326
 42
5.497665083298223
  0
LWPOLYLINE
  5
368
330
1F
100
AcDbEntity
  8
0
  6
Continuous
 62
     7
370
    25
100
AcDbPolyline
 90
        3
 70
   128
 43
0.0
 10
7.113801370090754
 20
14.8493242473383
 10
7.109236444930729
 20
14.84872474561828
 10
7.103778849490765
 20
14.84941122969829
  0
LWPOLYLINE
  5
369
330
1F
100
AcDbEntity
  8
0
  6
Continuous
 62
     7
370
    25
100
AcDbPolyline
 90
        3
 70
   128
 43
0.0
 10
6.613041650090735
 20
14.84268818757829
 10
6.61644110953074
 20
14.84236338529825
 10
6.621328352690767
 20
14.84318336101827
  0
ELLIPSE
  5
36A
330
1F
100
AcDbEntity
  8
0
  6
Continuous
 62
     7
370
    25
100
AcDbEllipse
 10
6.849251902210767
 20
14.91532398249825
 30
0.0
 11
0.3600002475397787
 21
-0.0000027536809398
 31
0.0
210
0.0
220
0.0
230
1.0
 40
0.2588903995
 41
4.026813059782592
 42
5.497665083298185
  0
ELLIPSE
  5
36B
330
1F
100
AcDbEntity
  8
0
  6
Continuous
 62
     7
370
    25
100
AcDbEllipse
 10
6.876317203450753
 20
15.26088870373826
 30
0.0
 11
0.1599999999999909
 21
0.0
 31
0.0
210
0.0
220
0.0
230
1.0
 40
0.2588978899
 41
3.927143110234867
 42
5.497634850534518
  0
LINE
  5
36C
330
1F
100
AcDbEntity
  8
0
  6
Continuous
 62
     7
370
    25
100
AcDbLine
 10
6.989437031010766
 20
15.23159328881826
 30
0.0
 11
6.989471486050774
 21
15.23160220645826
 31
0.0
  0
ELLIPSE
  5
36D
330
1F
100
AcDbEntity
  8
0
  6
Continuous
 62
     7
370
    25
100
AcDbEllipse
 10
7.102591373410746
 20
15.20230679721828
 30
0.0
 11
0.1600000000000023
 21
0.0
 31
0.0
210
0.0
220
0.0
230
1.0
 40
0.2588978899
 41
0.7855504566449453
 42
2.356042196944798
  0
LINE
  5
36E
330
1F
100
AcDbEntity
  8
0
  6
Continuous
 62
     7
370
    25
100
AcDbLine
 10
7.215711185370764
 20
15.23160222009829
 30
0.0
 11
7.442019952850728
 21
15.1730292009783
 31
0.0
  0
ELLIPSE
  5
36F
330
1F
100
AcDbEntity
  8
0
  6
Continuous
 62
     7
370
    25
100
AcDbEllipse
 10
7.328831075490768
 20
15.14375165357828
 30
0.0
 11
0.1600487412625739
 21
0.0
 31
0.0
210
0.0
220
0.0
230
1.0
 40
0.2587402243
 41
5.497939437029633
 42
7.068431177329371
  0
LINE
  5
370
330
1F
100
AcDbEntity
  8
0
  6
Continuous
 62
     7
370
    25
100
AcDbLine
 10
7.442019900170748
 20
15.1144740580583
 30
0.0
 11
7.132247412490755
 21
15.0342990385783
 31
0.0
  0
LINE
  5
371
330
1F
100
AcDbEntity
  8
0
  6
Continuous
 62
     7
370
    25
100
AcDbLine
 10
6.950761607650747
 20
15.00735587305829
 30
0.0
 11
5.030894732410729
 21
15.50425398441828
 31
0.0
  0
LINE
  5
372
330
1F
100
AcDbEntity
  8
0
  6
Continuous
 62
     7
370
    25
100
AcDbLine
 10
5.176938916490769
 20
15.6421471907783
 30
0.0
 11
6.763197384330766
 21
15.23159328881826
 31
0.0
  0
LWPOLYLINE
  5
373
330
1F
100
AcDbEntity
  8
0
  6
Continuous
 62
     7
370
    25
100
AcDbPolyline
 90
       17
 70
   128
 43
0.0
 10
7.357149871330761
 20
15.15107215241829
 10
7.331195947410748
 20
15.15556055289829
 10
7.300581214210751
 20
15.15713668133827
 10
7.269966665410748
 20
15.15556054605827
 10
7.244012636090758
 20
15.15107217289829
 10
7.226670946490742
 20
15.14435478941829
 10
7.220581201050777
 20
15.13643115433828
 10
7.226670893810762
 20
15.12850747833829
 10
7.244012794170771
 20
15.12179012213829
 10
7.269966665410748
 20
15.11730170805828
 10
7.300581187850752
 20
15.11572563413827
 10
7.331195973730757
 20
15.11730172169828
 10
7.357149739650765
 20
15.12179013577827
 10
7.374491692650735
 20
15.12850747833829
 10
7.380581201050745
 20
15.13643116113826
 10
7.374491719010734
 20
15.14435478261828
 10
7.357149871330761
 20
15.15107215241829
  0
ELLIPSE
  5
376
330
1F
100
AcDbEntity
  8
0
  6
Continuous
 62
     7
370
    25
100
AcDbEllipse
 10
4.245707624770744
 20
15.44272417233827
 30
0.0
 11
0.7999952045511009
 21
-0.0102918631221883
 31
0.0
210
0.0
220
0.0
230
1.0
 40
0.2706995574
 41
0.127732047212602
 42
0.294153015529613
  0
ELLIPSE
  5
377
330
1F
100
AcDbEntity
  8
0
  6
Continuous
 62
     7
370
    25
100
AcDbEllipse
 10
4.246052330090748
 20
15.44263495605827
 30
0.0
 11
0.7999961267317869
 21
0.0101566034124062
 31
0.0
210
0.0
220
0.0
230
1.0
 40
0.2468596494
 41
2.275530163257079
 42
2.403941699239115
  0
ELLIPSE
  5
378
330
1F
100
AcDbEntity
  8
0
  6
Continuous
 62
     7
370
    25
100
AcDbEllipse
 10
4.245707624770744
 20
15.44272417233827
 30
0.0
 11
0.7999952045511009
 21
-0.0102918631221883
 31
0.0
210
0.0
220
0.0
230
1.0
 40
0.2706995574
 41
3.993472607186502
 42
5.50126967727575
  0
ARC
  5
379
330
1F
100
AcDbEntity
  8
0
  6
Continuous
 62
     7
370
    25
100
AcDbCircle
 10
4.238447226970748
 20
17.60525486917828
 30
0.0
 40
2.678240966494927
100
AcDbArc
 50
262.776345061901
 51
282.2698266233002
  0
LINE
  5
37A
330
1F
100
AcDbEntity
  8
0
  6
Continuous
 62
     7
370
    25
100
AcDbLine
 10
5.03954050641073
 20
15.46010246345827
 30
0.0
 11
5.254070362450761
 21
15.39739904029829
 31
0.0
  0
LINE
  5
37B
330
1F
100
AcDbEntity
  8
0
  6
Continuous
 62
     7
370
    25
100
AcDbLine
 10
5.254070362450761
 20
15.39739904029829
 30
0.0
 11
4.811393161690773
 21
15.2828257499383
 31
0.0
  0
LINE
  5
37C
330
1F
100
AcDbEntity
  8
0
  6
Continuous
 62
     7
370
    25
100
AcDbLine
 10
3.714379183610759
 20
15.30511292821828
 30
0.0
 11
3.878184385450765
 21
15.34750883417828
 31
0.0
  0
ELLIPSE
  5
37D
330
1F
100
AcDbEntity
  8
0
  6
Continuous
 62
     7
370
    25
100
AcDbEllipse
 10
4.245879977450755
 20
15.44267545461827
 30
0.0
 11
0.5199968467615804
 21
-0.0066897035126658
 31
0.0
210
0.0
220
0.0
230
1.0
 40
0.2706995574
 41
3.930473323604053
 42
6.286667813796333
  0
LWPOLYLINE
  5
37E
330
1F
100
AcDbEntity
  8
0
  6
Continuous
 62
     7
370
    25
100
AcDbPolyline
 90
        9
 70
   128
 43
0.0
 10
4.14109397669074
 20
15.70513266969828
 10
4.268704439730754
 20
15.70249787349826
 10
4.394927902650749
 20
15.70802298853829
 10
4.512093744410748
 20
15.72137222669829
 10
4.613081887130761
 20
15.74173438433829
 10
4.69175511753076
 20
15.76787201173829
 10
4.743332613130746
 20
15.79819676301827
 10
4.764680018250771
 20
15.83086579913828
 10
4.765180406730735
 20
15.83708749093827
  0
ELLIPSE
  5
37F
330
1F
100
AcDbEntity
  8
0
  6
Continuous
 62
     7
370
    25
100
AcDbEllipse
 10
7.272297000930734
 20
14.93166392653828
 30
0.0
 11
0.0334045088745029
 21
0.0431509363310511
 31
0.0
210
0.0
220
0.0
230
1.0
 40
0.5099113922000001
 41
3.724051307530513
 42
4.915176196593919
  0
SPLINE
  5
380
330
1F
100
AcDbEntity
  8
0
  6
Continuous
 62
     7
370
    25
100
AcDbSpline
210
0.0
220
0.0
230
1.0
 70
     8
 71
     3
 72
    13
 73
     9
 74
     0
 42
0.000000001
 43
0.0000000001
 40
0.0
 40
0.0
 40
0.0
 40
0.0
 40
0.0079196170396075
 40
0.0187621807736785
 40
0.0473950363201649
 40
0.1743946693680644
 40
0.6829299770084774
 40
1.0
 40
1.0
 40
1.0
 40
1.0
 10
3.912382937627711
 20
15.65691355493567
 30
0.0
 10
3.912452381566112
 20
15.6575971780347
 30
0.0
 10
3.912616899587476
 20
15.65921673363971
 30
0.0
 10
3.914501411205037
 20
15.66239790068889
 30
0.0
 10
3.923855929686965
 20
15.66944285207967
 30
0.0
 10
3.968251925444718
 20
15.68367022065854
 30
0.0
 10
4.040565219958466
 20
15.70300069054207
 30
0.0
 10
4.113199216290865
 20
15.70454108726235
 30
0.0
 10
4.141093976695856
 20
15.70513266971153
 30
0.0
  0
ELLIPSE
  5
381
330
1F
100
AcDbEntity
  8
0
  6
Continuous
 62
     7
370
    25
100
AcDbEllipse
 10
4.245879977450755
 20
73.17615681757826
 30
0.0
 11
0.3606303631374317
 21
57.66140783748436
 31
0.0
210
0.0
220
0.0
230
1.0
 40
0.0064970226
 41
3.19510525537529
 42
3.211701790269251
  0
LINE
  5
382
330
1F
100
AcDbEntity
  8
0
  6
Continuous
 62
     7
370
    25
100
AcDbLine
 10
3.912382937610743
 20
15.65691355493828
 30
0.0
 11
3.912378749290752
 21
15.65623808861829
 31
0.0
  0
SPLINE
  5
383
330
1F
100
AcDbEntity
  8
0
  6
Continuous
 62
     7
370
    25
100
AcDbSpline
210
0.0
220
0.0
230
1.0
 70
     8
 71
     3
 72
    20
 73
    16
 74
     0
 42
0.000000001
 43
0.0000000001
 40
0.0
 40
0.0
 40
0.0
 40
0.0
 40
0.2114843032153556
 40
0.4630608268428098
 40
0.6366113328934335
 40
0.7546211308773309
 40
0.8341096661931054
 40
0.8874838339264684
 40
0.9234318507308035
 40
0.9478744823609384
 40
0.9703640653960404
 40
0.9823123119453823
 40
0.9909314645205704
 40
0.9977722877653999
 40
1.0
 40
1.0
 40
1.0
 40
1.0
 10
4.086498397932757
 20
15.50490832609901
 30
0.0
 10
4.071375723060953
 20
15.50744360255447
 30
0.0
 10
4.038263486248354
 20
15.51299478150201
 30
0.0
 10
3.99799989872028
 20
15.53244320425949
 30
0.0
 10
3.965140003650162
 20
15.54966401752747
 30
0.0
 10
3.943854301828196
 20
15.56273415052789
 30
0.0
 10
3.929989351650021
 20
15.57208147360779
 30
0.0
 10
3.920967168471065
 20
15.5787650173612
 30
0.0
 10
3.915086798422862
 20
15.58359332407673
 30
0.0
 10
3.910987188727347
 20
15.5874293387767
 30
0.0
 10
3.908260521131154
 20
15.59048674204962
 30
0.0
 10
3.906591739784744
 20
15.59313033023926
 30
0.0
 10
3.905867563027186
 20
15.59505868421087
 30
0.0
 10
3.905724978734667
 20
15.59637717034411
 30
0.0
 10
3.905788081146425
 20
15.59700845742367
 30
0.0
 10
3.905803582438238
 20
15.59716353493911
 30
0.0
  0
LINE
  5
384
330
1F
100
AcDbEntity
  8
0
  6
Continuous
 62
     7
370
    25
100
AcDbLine
 10
3.846909955330744
 20
15.67318265933829
 30
0.0
 11
3.846914617810739
 21
15.67385800293829
 31
0.0
  0
SPLINE
  5
385
330
1F
100
AcDbEntity
  8
0
  6
Continuous
 62
     7
370
    25
100
AcDbSpline
210
0.0
220
0.0
230
1.0
 70
     8
 71
     3
 72
    18
 73
    14
 74
     0
 42
0.000000001
 43
0.0000000001
 40
0.0
 40
0.0
 40
0.0
 40
0.0
 40
0.3841620385502475
 40
0.5846503026564984
 40
0.7241326711621962
 40
0.8183014665388716
 40
0.8808167327578948
 40
0.9221496834786467
 40
0.9496558116467143
 40
0.976240372916153
 40
0.9870879897492049
 40
0.995739776387132
 40
1.0
 40
1.0
 40
1.0
 40
1.0
 10
3.73725999642167
 20
15.80965259486601
 30
0.0
 10
3.746235090257016
 20
15.7975950895493
 30
0.0
 10
3.759894147635549
 20
15.7792449575079
 30
0.0
 10
3.787966707079192
 20
15.74536914325728
 30
0.0
 10
3.806869037344029
 20
15.72430817523542
 30
0.0
 10
3.820839495310963
 20
15.709264639271
 30
0.0
 10
3.830530129528
 20
15.69878570176303
 30
0.0
 10
3.837034503072345
 20
15.69142687520988
 30
0.0
 10
3.841655282165675
 20
15.68564960066985
 30
0.0
 10
3.844660834954538
 20
15.68123736197293
 30
0.0
 10
3.846313694845065
 20
15.67753006278354
 30
0.0
 10
3.84686215135548
 20
15.6753889865592
 30
0.0
 10
3.846901601521636
 20
15.67423782147699
 30
0.0
 10
3.846914617816281
 20
15.67385800295372
 30
0.0
  0
LINE
  5
386
330
1F
100
AcDbEntity
  8
0
  6
Continuous
 62
     7
370
    25
100
AcDbLine
 10
3.726579484530759
 20
15.83708747729827
 30
0.0
 11
3.737259996410728
 21
15.80965259485828
 31
0.0
  0
LINE
  5
387
330
1F
100
AcDbEntity
  8
0
  6
Continuous
 62
     7
370
    25
100
AcDbLine
 10
3.977155195650738
 20
15.98521314921828
 30
0.0
 11
3.975249407370739
 21
15.85378403393827
 31
0.0
  0
ARC
  5
388
330
1F
100
AcDbEntity
  8
0
  6
Continuous
 62
     7
370
    25
100
AcDbCircle
 10
4.24674558105076
 20
17.8196220129783
 30
0.0
 40
1.85411295646871
100
AcDbArc
 50
261.6394832572005
 51
274.0252165453003
  0
ELLIPSE
  5
389
330
1F
100
AcDbEntity
  8
0
  6
Continuous
 62
     7
370
    25
100
AcDbEllipse
 10
4.551024402530742
 20
-22.14217688158172
 30
0.0
 11
-0.6119266942934249
 21
47.60679384167284
 31
0.0
210
0.0
220
0.0
230
1.0
 40
0.0110643076
 41
5.638316680815647
 42
5.640481654437798
  0
LWPOLYLINE
  5
38A
330
1F
100
AcDbEntity
  8
0
  6
Continuous
 62
     7
370
    25
100
AcDbPolyline
 90
        3
 70
   128
 43
0.0
 10
4.378603190130746
 20
15.90823045269826
 10
4.443044035650757
 20
15.91385264569828
 10
4.463820956810764
 20
15.91620777077827
  0
ELLIPSE
  5
38B
330
1F
100
AcDbEntity
  8
0
  6
Continuous
 62
     7
370
    25
100
AcDbEllipse
 10
3.94073555233075
 20
-22.30013125902173
 30
0.0
 11
0.60889844190159
 21
47.92272536946011
 31
0.0
210
0.0
220
0.0
230
1.0
 40
0.0110643522
 41
5.640261402195933
 42
5.640783399190534
  0
LWPOLYLINE
  5
38C
330
1F
100
AcDbEntity
  8
0
  6
Continuous
 62
     7
370
    25
100
AcDbPolyline
 90
        4
 70
   128
 43
0.0
 10
4.724977370850751
 20
16.1497455532583
 10
4.744820818370754
 20
16.13449132541828
 10
4.762803666890761
 20
16.10006225185827
 10
4.745929464890764
 20
16.06559557841828
  0
LWPOLYLINE
  5
38D
330
1F
100
AcDbEntity
  8
0
  6
Continuous
 62
     7
370
    25
100
AcDbPolyline
 90
        9
 70
   128
 43
0.0
 10
3.804290107210761
 20
16.02995392633829
 10
3.779587035890756
 20
16.04175561265828
 10
3.759576976610759
 20
16.05413850913828
 10
3.744461483530756
 20
16.06697801789829
 10
3.734392601450736
 20
16.08014490157828
 10
3.729471548570757
 20
16.09350660601828
 10
3.729748163610764
 20
16.10692871233829
 10
3.735219614810745
 20
16.12027614377828
 10
3.745830479050766
 20
16.13341445425828
  0
LINE
  5
38E
330
1F
100
AcDbEntity
  8
0
  6
Continuous
 62
     7
370
    25
100
AcDbLine
 10
3.804062843490754
 20
15.89809037693828
 30
0.0
 11
3.804290107210761
 21
16.02995392633829
 31
0.0
  0
SPLINE
  5
38F
330
1F
100
AcDbEntity
  8
0
  6
Continuous
 62
     7
370
    25
100
AcDbSpline
210
0.0
220
0.0
230
1.0
 70
     8
 71
     3
 72
    17
 73
    13
 74
     0
 42
0.000000001
 43
0.0000000001
 40
0.0
 40
0.0
 40
0.0
 40
0.0
 40
0.0718500814629745
 40
0.1809460051454002
 40
0.2884944761223129
 40
0.3942141113226919
 40
0.5000033194457626
 40
0.570935348296776
 40
0.6799556594270618
 40
0.7878947438194233
 40
0.8939091400979226
 40
1.0
 40
1.0
 40
1.0
 40
1.0
 10
3.804062843507665
 20
15.89809037692333
 30
0.0
 10
3.804372733880086
 20
15.88916709927321
 30
0.0
 10
3.805153156445783
 20
15.86669487083969
 30
0.0
 10
3.813159006186197
 20
15.83044291793135
 30
0.0
 10
3.828914231697069
 20
15.7952338747487
 30
0.0
 10
3.851156401360015
 20
15.76910932536941
 30
0.0
 10
3.875423235394379
 20
15.75650494862151
 30
0.0
 10
3.901591948208533
 20
15.7539745458678
 30
0.0
 10
3.928084591951545
 20
15.76196791561611
 30
0.0
 10
3.953260181985029
 20
15.78389110021712
 30
0.0
 10
3.97123246291639
 20
15.81544411497765
 30
0.0
 10
3.97391010411502
 20
15.84100098987665
 30
0.0
 10
3.975249407357154
 20
15.85378403393344
 30
0.0
  0
LINE
  5
390
330
1F
100
AcDbEntity
  8
0
  6
Continuous
 62
     7
370
    25
100
AcDbLine
 10
4.376895979370772
 20
15.97008268409826
 30
0.0
 11
4.346237887610755
 21
15.97801758209829
 31
0.0
  0
LINE
  5
391
330
1F
100
AcDbEntity
  8
0
  6
Continuous
 62
     7
370
    25
100
AcDbLine
 10
3.977155195650738
 20
15.98521314921828
 30
0.0
 11
4.004090825050752
 21
15.99218460309828
 31
0.0
  0
ELLIPSE
  5
392
330
1F
100
AcDbEntity
  8
0
  6
Continuous
 62
     7
370
    25
100
AcDbEllipse
 10
4.245879977450755
 20
15.44267545461827
 30
0.0
 11
0.51999744616744
 21
0.0066017981039977
 31
0.0
210
0.0
220
0.0
230
1.0
 40
0.2468596494
 41
3.138458576218658
 42
3.923856739616173
  0
SPLINE
  5
393
330
1F
100
AcDbEntity
  8
0
  6
Continuous
 62
     7
370
    25
100
AcDbSpline
210
0.0
220
0.0
230
1.0
 70
     8
 71
     3
 72
    13
 73
     9
 74
     0
 42
0.000000001
 43
0.0000000001
 40
0.0
 40
0.0
 40
0.0
 40
0.0
 40
0.0072620567786641
 40
0.0144957860080401
 40
0.0275869162400698
 40
0.0802585052891854
 40
0.2878216194110986
 40
1.0
 40
1.0
 40
1.0
 40
1.0
 10
3.852499728849352
 20
15.61095958742527
 30
0.0
 10
3.852517921231083
 20
15.61044163130191
 30
0.0
 10
3.852554235030282
 20
15.60940773947828
 30
0.0
 10
3.852049643455359
 20
15.60772790297193
 30
0.0
 10
3.84980754879848
 20
15.60445645413159
 30
0.0
 10
3.838438469963278
 20
15.59860287139946
 30
0.0
 10
3.798270738557818
 20
15.58675492195465
 30
0.0
 10
3.773393240339828
 20
15.58791675215451
 30
0.0
 10
3.754129983766233
 20
15.58881638575264
 30
0.0
  0
ELLIPSE
  5
394
330
1F
100
AcDbEntity
  8
0
  6
Continuous
 62
     7
370
    25
100
AcDbEllipse
 10
4.245879977450755
 20
73.17615681757826
 30
0.0
 11
0.3734645930316447
 21
57.65809142490364
 31
0.0
210
0.0
220
0.0
230
1.0
 40
0.0062755197
 41
3.068264326849901
 42
3.084860861743893
  0
LINE
  5
395
330
1F
100
AcDbEntity
  8
0
  6
Continuous
 62
     7
370
    25
100
AcDbLine
 10
4.417036848610763
 20
15.92831638897829
 30
0.0
 11
4.378325705850755
 21
15.9182972079783
 31
0.0
  0
LINE
  5
396
330
1F
100
AcDbEntity
  8
0
  6
Continuous
 62
     7
370
    25
100
AcDbLine
 10
5.254070362450761
 20
15.39739904029829
 30
0.0
 11
5.252699957690765
 21
15.2886144465383
 31
0.0
  0
LINE
  5
397
330
1F
100
AcDbEntity
  8
0
  6
Continuous
 62
     7
370
    25
100
AcDbLine
 10
5.326578799650746
 20
15.12250879165828
 30
0.0
 11
4.807615803090754
 21
14.98819128445828
 31
0.0
  0
LINE
  5
398
330
1F
100
AcDbEntity
  8
0
  6
Continuous
 62
     7
370
    25
100
AcDbLine
 10
3.831225736650736
 20
16.03692538021829
 30
0.0
 11
3.804290107210761
 21
16.02995392633829
 31
0.0
  0
LINE
  5
399
330
1F
100
AcDbEntity
  8
0
  6
Continuous
 62
     7
370
    25
100
AcDbLine
 10
3.766391344930752
 20
16.12809291057829
 30
0.0
 11
3.745830479050766
 21
16.13341445425828
 31
0.0
  0
LINE
  5
39A
330
1F
100
AcDbEntity
  8
0
  6
Continuous
 62
     7
370
    25
100
AcDbLine
 10
4.715271373130747
 20
16.0735304764583
 30
0.0
 11
4.745929464890764
 21
16.06559557841828
 31
0.0
  0
SPLINE
  5
39B
330
1F
100
AcDbEntity
  8
0
  6
Continuous
 62
     7
370
    25
100
AcDbSpline
210
0.0
220
0.0
230
1.0
 70
     8
 71
     3
 72
    10
 73
     6
 74
     0
 42
0.000000001
 43
0.0000000001
 40
0.0
 40
0.0
 40
0.0
 40
0.0
 40
0.3210654330398269
 40
0.7141554978127675
 40
1.0
 40
1.0
 40
1.0
 40
1.0
 10
5.392856931634412
 20
15.12779694197601
 30
0.0
 10
5.385268160649388
 20
15.12777011641122
 30
0.0
 10
5.368388229137309
 20
15.1277104475007
 30
0.0
 10
5.344614104253025
 20
15.12621717424005
 30
0.0
 10
5.331922295197472
 20
15.12360751032668
 30
0.0
 10
5.326578799641538
 20
15.12250879166004
 30
0.0
  0
LINE
  5
39C
330
1F
100
AcDbEntity
  8
0
  6
Continuous
 62
     7
370
    25
100
AcDbLine
 10
3.729606471170768
 20
16.10623638229828
 30
0.0
 11
3.67453763597075
 21
16.12048924561827
 31
0.0
  0
LINE
  5
39D
330
1F
100
AcDbEntity
  8
0
  6
Continuous
 62
     7
370
    25
100
AcDbLine
 10
3.765047308290746
 20
16.14342805153828
 30
0.0
 11
3.67453763597075
 21
16.16685367849828
 31
0.0
  0
LWPOLYLINE
  5
39E
330
1F
100
AcDbEntity
  8
0
  6
Continuous
 62
     7
370
    25
100
AcDbPolyline
 90
        9
 70
   128
 43
0.0
 10
3.674537715010757
 20
16.24005877805828
 10
3.649665121130738
 20
16.23221466525828
 10
3.631183148570755
 20
16.22326539445828
 10
3.619801971650758
 20
16.21355485317826
 10
3.615959021970752
 20
16.20345623169828
 10
3.619801971650758
 20
16.19335761021827
 10
3.631183201250763
 20
16.18364708257826
 10
3.649665121130738
 20
16.17469779813825
 10
3.67453763597075
 20
16.16685367849828
  0
LINE
  5
39F
330
1F
100
AcDbEntity
  8
0
  6
Continuous
 62
     7
370
    25
100
AcDbLine
 10
3.674537715010757
 20
16.24005877805828
 30
0.0
 11
3.768855829210735
 21
16.26447010233829
 31
0.0
  0
LWPOLYLINE
  5
3A0
330
1F
100
AcDbEntity
  8
0
  6
Continuous
 62
     7
370
    25
100
AcDbPolyline
 90
        5
 70
   128
 43
0.0
 10
3.615959021970752
 20
16.15709179881827
 10
3.619801971650758
 20
16.14699317733829
 10
3.631183201250763
 20
16.13728264969831
 10
3.649665121130738
 20
16.1283333652583
 10
3.67453763597075
 20
16.12048924561827
  0
ARC
  5
3A1
330
1F
100
AcDbEntity
  8
0
  6
Continuous
 62
     7
370
    25
100
AcDbCircle
 10
4.399079386930736
 20
15.9154109393383
 30
0.0
 40
0.0618872379405394
100
AcDbArc
 50
74.53120635099981
 51
115.5453008268
  0
LINE
  5
3A2
330
1F
100
AcDbEntity
  8
0
  6
Continuous
 62
     7
370
    25
100
AcDbLine
 10
4.41558554825076
 20
15.97505636545827
 30
0.0
 11
4.647516573610744
 21
15.91502819897829
 31
0.0
  0
LINE
  5
3A3
330
1F
100
AcDbEntity
  8
0
  6
Continuous
 62
     7
370
    25
100
AcDbLine
 10
4.647516573610744
 20
15.91502819897829
 30
0.0
 11
4.647516573610744
 21
15.86866376609828
 31
0.0
  0
LINE
  5
3A4
330
1F
100
AcDbEntity
  8
0
  6
Continuous
 62
     7
370
    25
100
AcDbLine
 10
4.41558554825076
 20
15.92869193261828
 30
0.0
 11
4.647516573610744
 21
15.86866376609828
 31
0.0
  0
ARC
  5
3A5
330
1F
100
AcDbEntity
  8
0
  6
Continuous
 62
     7
370
    25
100
AcDbCircle
 10
4.405308373650768
 20
15.89114121345829
 30
0.0
 40
0.0389316943740371
100
AcDbArc
 50
74.69366846900053
 51
133.9241698731997
  0
LINE
  5
3A6
330
1F
100
AcDbEntity
  8
0
  6
Continuous
 62
     7
370
    25
100
AcDbLine
 10
4.817222228890756
 20
15.95895125461828
 30
0.0
 11
4.647516573610744
 21
15.91502819897829
 31
0.0
  0
LINE
  5
3A7
330
1F
100
AcDbEntity
  8
0
  6
Continuous
 62
     7
370
    25
100
AcDbLine
 10
4.817222228890756
 20
15.91258682173827
 30
0.0
 11
4.647516573610744
 21
15.86866376609828
 31
0.0
  0
LWPOLYLINE
  5
3A8
330
1F
100
AcDbEntity
  8
0
  6
Continuous
 62
     7
370
    25
100
AcDbPolyline
 90
        9
 70
   128
 43
0.0
 10
4.817222228890756
 20
15.95895125461828
 10
4.842094822770746
 20
15.96679536741828
 10
4.860576795370775
 20
15.97574463821826
 10
4.871957972290772
 20
15.98545517949827
 10
4.87580092193076
 20
15.99555380097828
 10
4.871957972290772
 20
16.0056524224583
 10
4.860576742690767
 20
16.01536295009828
 10
4.842094822770746
 20
16.02431223453828
 10
4.817222307930762
 20
16.03215635417828
  0
LINE
  5
3A9
330
1F
100
AcDbEntity
  8
0
  6
Continuous
 62
     7
370
    25
100
AcDbLine
 10
4.726712635650756
 20
16.05558198113829
 30
0.0
 11
4.817222307930762
 21
16.03215635417828
 31
0.0
  0
LWPOLYLINE
  5
3AA
330
1F
100
AcDbEntity
  8
0
  6
Continuous
 62
     7
370
    25
100
AcDbPolyline
 90
        5
 70
   128
 43
0.0
 10
4.817222228890756
 20
15.91258682173827
 10
4.842094822770746
 20
15.92043093457829
 10
4.860576795370775
 20
15.92938020537826
 10
4.871957972290772
 20
15.93909074661826
 10
4.87580092193076
 20
15.94918936813826
  0
LWPOLYLINE
  5
3AB
330
1F
100
AcDbEntity
  8
0
  6
Continuous
 62
     7
370
    25
100
AcDbPolyline
 90
        3
 70
   128
 43
0.0
 10
4.694640596130739
 20
16.05586030529827
 10
4.709055081730753
 20
16.05777638701829
 10
4.726712635650756
 20
16.05558198113829
  0
LWPOLYLINE
  5
3AC
330
1F
100
AcDbEntity
  8
0
  6
Continuous
 62
     7
370
    25
100
AcDbPolyline
 90
       24
 70
   128
 43
0.0
 10
3.963037318490734
 20
16.62089972277829
 10
3.89721574225075
 20
16.59843456741828
 10
3.857253154130745
 20
16.57220628433828
 10
3.846113096690771
 20
16.54416006409826
 10
3.864621990610743
 20
16.51637599673827
 10
3.911407053690766
 20
16.49091469569828
 10
3.982998416610769
 20
16.46966449441828
 10
4.074086691050752
 20
16.45420147841827
 10
4.17791575529074
 20
16.4456723346583
 10
4.286785661650753
 20
16.44470978705828
 10
4.392621679770741
 20
16.45138512881828
 10
4.48757452553076
 20
16.46520329893826
 10
4.564602000490765
 20
16.4851394764583
 10
4.617991310090758
 20
16.5097150813383
 10
4.643782850130747
 20
16.53710745849827
 10
4.640063746370742
 20
16.56528503641829
 10
4.607109876250774
 20
16.59215803021828
 10
4.54736515941073
 20
16.61573335589827
 10
4.465260686570729
 20
16.6342625640583
 10
4.366885773570743
 20
16.64637142941828
 10
4.259536380650757
 20
16.65116188365829
 10
4.15117421213074
 20
16.64827865189829
 10
4.049835908090756
 20
16.63793557301829
 10
3.963037318490734
 20
16.62089972277829
  0
LWPOLYLINE
  5
3AD
330
1F
100
AcDbEntity
  8
0
  6
Continuous
 62
     7
370
    25
100
AcDbPolyline
 90
       15
 70
   128
 43
0.0
 10
3.771511028010763
 20
16.32634019661827
 10
3.770024745730751
 20
16.31974283973829
 10
3.781255774490745
 20
16.2889925446583
 10
3.821680522530755
 20
16.25993112497826
 10
3.88875957141073
 20
16.23438477541828
 10
3.978277750610743
 20
16.21395857565829
 10
4.08461027181076
 20
16.19993597513826
 10
4.201075922690762
 20
16.19319807025829
 10
4.320356904050754
 20
16.19416828441828
 10
4.434958189090764
 20
16.20278559877829
 10
4.53767898877075
 20
16.21850857449828
 10
4.622064987410738
 20
16.24034927809828
 10
4.682813795330758
 20
16.26693535009826
 10
4.716108541250775
 20
16.29659634525828
 10
4.720249073970762
 20
16.3263401829783
  0
LWPOLYLINE
  5
3AE
330
1F
100
AcDbEntity
  8
0
  6
Continuous
 62
     7
370
    25
100
AcDbPolyline
 90
       10
 70
   128
 43
0.0
 10
3.991539151130751
 20
15.99414602333829
 10
4.096909038290732
 20
15.98140646965828
 10
4.211024106770736
 20
15.97559982913827
 10
4.32718556277075
 20
15.9770670916983
 10
4.438573888210754
 20
15.9857220127783
 10
4.538650131210772
 20
16.00105655377828
 10
4.621539389850738
 20
16.02217051197829
 10
4.682375573450769
 20
16.04782437197826
 10
4.717587342450769
 20
16.07651212589826
 10
4.72587470361077
 20
16.10008605945828
  0
LWPOLYLINE
  5
3AF
330
1F
100
AcDbEntity
  8
0
  6
Continuous
 62
     7
370
    25
100
AcDbPolyline
 90
        4
 70
   128
 43
0.0
 10
3.76588529301074
 20
16.10008608673826
 10
3.767147090610762
 20
16.09048365457829
 10
3.78958222685074
 20
16.06094850153829
 10
3.838804082450735
 20
16.0336767679783
  0
ARC
  5
3B0
330
1F
100
AcDbEntity
  8
0
  6
Continuous
 62
     7
370
    25
100
AcDbCircle
 10
4.091603620570737
 20
16.69559231185826
 30
0.0
 40
0.7085476650953384
100
AcDbArc
 50
249.0970862548997
 51
261.8812763469005
  0
LWPOLYLINE
  5
3B1
330
1F
100
AcDbEntity
  8
0
  6
Continuous
 62
     7
370
    25
100
AcDbPolyline
 90
       17
 70
   128
 43
0.0
 10
4.19779676289076
 20
16.56013950753828
 10
4.183056202250753
 20
16.55442975157825
 10
4.177879950210751
 20
16.54769462489827
 10
4.183056157810767
 20
16.54095951657825
 10
4.197796687130733
 20
16.53524976017826
 10
4.219857491890763
 20
16.53143463041829
 10
4.245879952210742
 20
16.5300949293383
 10
4.271902483330762
 20
16.53143464193829
 10
4.293963286410757
 20
16.53524977977827
 10
4.308703741650731
 20
16.54095950849827
 10
4.313879993690761
 20
16.54769463513827
 10
4.308703786130735
 20
16.55442974345828
 10
4.293963256770751
 20
16.5601394998983
 10
4.271902452050767
 20
16.56395462961828
 10
4.24587999173076
 20
16.56529433069829
 10
4.219857460610739
 20
16.56395461809828
 10
4.19779676289076
 20
16.56013950753828
  0
LINE
  5
3B2
330
1F
100
AcDbEntity
  8
0
  6
Continuous
 62
     7
370
    25
100
AcDbLine
 10
3.991539151130751
 20
15.98893596641829
 30
0.0
 11
3.991539151130751
 21
15.99414602333829
 31
0.0
  0
SPLINE
  5
3B3
330
1F
100
AcDbEntity
  8
0
  6
Continuous
 62
     7
370
    25
100
AcDbSpline
210
0.0
220
0.0
230
1.0
 70
     8
 71
     3
 72
    15
 73
    11
 74
     0
 42
0.000000001
 43
0.0000000001
 40
0.0
 40
0.0
 40
0.0
 40
0.0
 40
0.1016624850717131
 40
0.2036315447328607
 40
0.4061394031785542
 40
0.6085103161715613
 40
0.7103773539170602
 40
0.8125703410566341
 40
0.9142308162105814
 40
1.0
 40
1.0
 40
1.0
 40
1.0
 10
3.838804082437576
 20
15.90231086284507
 30
0.0
 10
3.839024255906792
 20
15.89537810206019
 30
0.0
 10
3.839465266802875
 20
15.8814916739752
 30
0.0
 10
3.844144710462103
 20
15.85338529468976
 30
0.0
 10
3.855344089431667
 20
15.82010823090473
 30
0.0
 10
3.873701564704873
 20
15.79459447347224
 30
0.0
 10
3.89161258353107
 20
15.78128325980822
 30
0.0
 10
3.906322729277434
 20
15.77534214635329
 30
0.0
 10
3.920946965218149
 20
15.77333662063194
 30
0.0
 10
3.930306054847193
 20
15.77537018838564
 30
0.0
 10
3.93458884276356
 20
15.77630076387407
 30
0.0
  0
LINE
  5
3B4
330
1F
100
AcDbEntity
  8
0
  6
Continuous
 62
     7
370
    25
100
AcDbLine
 10
3.838804082450735
 20
15.90231086285825
 30
0.0
 11
3.838804082450735
 21
16.0336767679783
 31
0.0
  0
ARC
  5
3B5
330
1F
100
AcDbEntity
  8
0
  6
Continuous
 62
     7
370
    25
100
AcDbCircle
 10
7.543921362130731
 20
17.22562309073828
 30
0.0
 40
0.166841804091433
100
AcDbArc
 50
77.30189101769908
 51
95.87093787400096
  0
ARC
  5
3B6
330
1F
100
AcDbEntity
  8
0
  6
Continuous
 62
     7
370
    25
100
AcDbCircle
 10
7.509789522290759
 20
17.22562249209829
 30
0.0
 40
0.1668424013665867
100
AcDbArc
 50
84.12907720949954
 51
102.6980693897994
  0
ARC
  5
3B7
330
1F
100
AcDbEntity
  8
0
  6
Continuous
 62
     7
370
    25
100
AcDbCircle
 10
7.491282920690764
 20
17.2015875448983
 30
0.0
 40
0.187678106214906
100
AcDbArc
 50
95.55503469150048
 51
113.4666027066007
  0
ARC
  5
3C0
330
1F
100
AcDbEntity
  8
0
  6
Continuous
 62
     7
370
    25
100
AcDbCircle
 10
7.562427975490749
 20
17.20158766721829
 30
0.0
 40
0.1876779721735774
100
AcDbArc
 50
66.53339189559918
 51
84.44497070619949
  0
ELLIPSE
  5
3C6
330
1F
100
AcDbEntity
  8
0
  6
Continuous
 62
     7
370
    25
100
AcDbEllipse
 10
8.233962223330763
 20
15.38574423953827
 30
0.0
 11
0.1600000000000023
 21
0.0
 31
0.0
210
0.0
220
0.0
230
1.0
 40
0.2588978899
 41
3.927143110234903
 42
5.497634850534483
  0
LINE
  5
3C7
330
1F
100
AcDbEntity
  8
0
  6
Continuous
 62
     7
370
    25
100
AcDbLine
 10
8.120842468690767
 20
15.35644880781828
 30
0.0
 11
7.894533701210747
 21
15.41502182689828
 31
0.0
  0
ELLIPSE
  5
3C8
330
1F
100
AcDbEntity
  8
0
  6
Continuous
 62
     7
370
    25
100
AcDbEllipse
 10
8.007722521250741
 20
15.44429938321826
 30
0.0
 11
0.1600487412625625
 21
0.0
 31
0.0
210
0.0
220
0.0
230
1.0
 40
0.2587402243
 41
2.356346783439899
 42
3.926838523739522
  0
LINE
  5
3C9
330
1F
100
AcDbEntity
  8
0
  6
Continuous
 62
     7
370
    25
100
AcDbLine
 10
7.894533753890755
 20
15.47357696985827
 30
0.0
 11
7.922848164770755
 21
15.48090527865827
 31
0.0
  0
ELLIPSE
  5
3CA
330
1F
100
AcDbEntity
  8
0
  6
Continuous
 62
     7
370
    25
100
AcDbEllipse
 10
7.837956574930757
 20
15.5028634478183
 30
0.0
 11
0.1200365559469219
 21
0.0
 31
0.0
210
0.0
220
0.0
230
1.0
 40
0.2587402243
 41
5.497939437029664
 42
7.068431177329276
  0
LINE
  5
3CB
330
1F
100
AcDbEntity
  8
0
  6
Continuous
 62
     7
370
    25
100
AcDbLine
 10
7.922848112090775
 20
15.52482163925828
 30
0.0
 11
7.087201651050747
 21
15.74110285833828
 31
0.0
  0
ARC
  5
3CC
330
1F
100
AcDbEntity
  8
0
  6
Continuous
 62
     7
370
    25
100
AcDbCircle
 10
7.208940693770728
 20
17.57033025793828
 30
0.0
 40
1.631229449828346
100
AcDbArc
 50
251.4742888776008
 51
260.5958376131998
  0
SPLINE
  5
3CD
330
1F
100
AcDbEntity
  8
0
  6
Continuous
 62
     7
370
    25
100
AcDbSpline
210
0.0
220
0.0
230
1.0
 70
     8
 71
     3
 72
    11
 73
     7
 74
     0
 42
0.000000001
 43
0.0000000001
 40
0.0
 40
0.0
 40
0.0
 40
0.0
 40
0.2441581622862504
 40
0.488317118151815
 40
0.7324476806280013
 40
1.0
 40
1.0
 40
1.0
 40
1.0
 10
7.043912728312648
 20
15.96350932528412
 30
0.0
 10
7.036921834289955
 20
15.96202292798819
 30
0.0
 10
7.022940023522323
 20
15.95905012856519
 30
0.0
 10
6.996340290785269
 20
15.95722278276196
 30
0.0
 10
6.967931978863418
 20
15.95749981245836
 30
0.0
 10
6.951167558787346
 20
15.95981399614203
 30
0.0
 10
6.942401661718321
 20
15.96102405267115
 30
0.0
  0
LINE
  5
3CE
330
1F
100
AcDbEntity
  8
0
  6
Continuous
 62
     7
370
    25
100
AcDbLine
 10
7.043912728330781
 20
15.96350932529827
 30
0.0
 11
7.387441996730757
 21
16.05242124249827
 31
0.0
  0
ARC
  5
3CF
330
1F
100
AcDbEntity
  8
0
  6
Continuous
 62
     7
370
    25
100
AcDbCircle
 10
7.522696343570771
 20
17.95905660765828
 30
0.0
 40
1.911426732584191
100
AcDbArc
 50
265.9423059130005
 51
267.8472977670013
  0
LINE
  5
3D0
330
1F
100
AcDbEntity
  8
0
  6
Continuous
 62
     7
370
    25
100
AcDbLine
 10
7.450897606970755
 20
16.04897883557828
 30
0.0
 11
7.324799926050758
 21
16.01634235421829
 31
0.0
  0
ELLIPSE
  5
3D1
330
1F
100
AcDbEntity
  8
0
  6
Continuous
 62
     7
370
    25
100
AcDbEllipse
 10
7.437988725210743
 20
15.98706477633828
 30
0.0
 11
0.1600487412625625
 21
0.0
 31
0.0
210
0.0
220
0.0
230
1.0
 40
0.2587402243
 41
2.356346783439899
 42
3.926838523739716
  0
LINE
  5
3D2
330
1F
100
AcDbEntity
  8
0
  6
Continuous
 62
     7
370
    25
100
AcDbLine
 10
7.324799952410728
 20
15.95778721809827
 30
0.0
 11
8.149109464370752
 21
15.74444021733828
 31
0.0
  0
LINE
  5
3D3
330
1F
100
AcDbEntity
  8
0
  6
Continuous
 62
     7
370
    25
100
AcDbLine
 10
8.149109464370752
 20
15.74444021733828
 30
0.0
 11
8.683590719810752
 21
15.57536541625828
 31
0.0
  0
ELLIPSE
  5
3D4
330
1F
100
AcDbEntity
  8
0
  6
Continuous
 62
     7
370
    25
100
AcDbEllipse
 10
8.373890807810767
 20
15.50981990049826
 30
0.0
 11
0.4001105521548196
 21
-0.0000030585600712
 31
0.0
210
0.0
220
0.0
230
1.0
 40
0.2587477102
 41
5.49794072794814
 42
6.968792751463719
  0
LINE
  5
3D5
330
1F
100
AcDbEntity
  8
0
  6
Continuous
 62
     7
370
    25
100
AcDbLine
 10
8.656854655730739
 20
15.43662384089827
 30
0.0
 11
8.347082168050746
 21
15.35644882145829
 31
0.0
  0
LWPOLYLINE
  5
3D6
330
1F
100
AcDbEntity
  8
0
  6
Continuous
 62
     7
370
    25
100
AcDbPolyline
 90
       17
 70
   128
 43
0.0
 10
8.32375209613076
 20
15.40897462873829
 10
8.342607384450758
 20
15.40167102745829
 10
8.349228443610741
 20
15.39305584025828
 10
8.34260733177075
 20
15.3844406394183
 10
8.32375209613076
 20
15.37713702453828
 10
8.295533042530763
 20
15.37225691681828
 10
8.262246436210773
 20
15.37054324017828
 10
8.228959908930733
 20
15.37225689637827
 10
8.200740960650762
 20
15.3771370040983
 10
8.181885672330764
 20
15.38444060533828
 10
8.17526440245075
 20
15.39305584709828
 10
8.181885540650739
 20
15.40167105473827
 10
8.20074103969074
 20
15.40897462873829
 10
8.228959829890754
 20
15.41385477733828
 10
8.262246409850746
 20
15.41556844717826
 10
8.295533147890751
 20
15.41385473641827
 10
8.32375209613076
 20
15.40897462873829
  0
ELLIPSE
  5
3D7
330
1F
100
AcDbEntity
  8
0
  6
Continuous
 62
     7
370
    25
100
AcDbEllipse
 10
8.233962223330763
 20
14.80976658221829
 30
0.0
 11
0.1199999999999932
 21
0.0
 31
0.0
210
0.0
220
0.0
230
1.0
 40
0.2588978899
 41
3.927143110234897
 42
5.49763485053454
  0
LWPOLYLINE
  5
3D8
330
1F
100
AcDbEntity
  8
0
  6
Continuous
 62
     7
370
    25
100
AcDbPolyline
 90
        3
 70
   128
 43
0.0
 10
8.149122398210749
 20
14.78779499425826
 10
8.143664934490743
 20
14.78710857457827
 10
8.13909987761076
 20
14.78770802029828
  0
LWPOLYLINE
  5
3D9
330
1F
100
AcDbEntity
  8
0
  6
Continuous
 62
     7
370
    25
100
AcDbPolyline
 90
        3
 70
   128
 43
0.0
 10
8.318802212210755
 20
14.78779498741829
 10
8.324259596890755
 20
14.78710858821827
 10
8.328824732770726
 20
14.78770801349827
  0
ELLIPSE
  5
3DA
330
1F
100
AcDbEntity
  8
0
  6
Continuous
 62
     7
370
    25
100
AcDbEllipse
 10
8.065746324210749
 20
15.23182608609829
 30
0.0
 11
0.0383854002844714
 21
0.0305074908859865
 31
0.0
210
0.0
220
0.0
230
1.0
 40
0.2775179276
 41
2.156713406930165
 42
2.935347011185927
  0
ELLIPSE
  5
3DB
330
1F
100
AcDbEntity
  8
0
  6
Continuous
 62
     7
370
    25
100
AcDbEllipse
 10
8.45874666497076
 20
15.24646710225829
 30
0.0
 11
0.0383854002844828
 21
-0.0305074908859865
 31
0.0
210
0.0
220
0.0
230
1.0
 40
0.2775179276
 41
0.2062456424031941
 42
0.9848792466595272
  0
ELLIPSE
  5
3DC
330
1F
100
AcDbEntity
  8
0
  6
Continuous
 62
     7
370
    25
100
AcDbEllipse
 10
8.370128809490751
 20
15.35532033101828
 30
0.0
 11
0.4000883650202808
 21
-0.0009758845509054
 31
0.0
210
0.0
220
0.0
230
1.0
 40
0.2588737278
 41
6.277513678174464
 42
6.318433621959946
  0
SPLINE
  5
3DD
330
1F
100
AcDbEntity
  8
0
  6
Continuous
 62
     7
370
    25
100
AcDbSpline
210
0.0
220
0.0
230
1.0
 70
     8
 71
     3
 72
    11
 73
     7
 74
     0
 42
0.000000001
 43
0.0000000001
 40
0.0
 40
0.0
 40
0.0
 40
0.0
 40
0.2486338160068579
 40
0.4990716422941299
 40
0.7495364121883214
 40
1.0
 40
1.0
 40
1.0
 40
1.0
 10
8.07248528206253
 20
16.36913366869254
 30
0.0
 10
8.048402698448569
 20
16.36600968159808
 30
0.0
 10
8.00006279542211
 20
16.35973904072233
 30
0.0
 10
7.917747662243073
 20
16.3589229302093
 30
0.0
 10
7.837930082204479
 20
16.36440834526786
 30
0.0
 10
7.795987353722807
 20
16.37332623360987
 30
0.0
 10
7.775016038969795
 20
16.37778516725871
 30
0.0
  0
SPLINE
  5
3DF
330
1F
100
AcDbEntity
  8
0
  6
Continuous
 62
     7
370
    25
100
AcDbSpline
210
0.0
220
0.0
230
1.0
 70
     8
 71
     3
 72
    11
 73
     7
 74
     0
 42
0.000000001
 43
0.0000000001
 40
0.0
 40
0.0
 40
0.0
 40
0.0
 40
0.2500376403585529
 40
0.5000254609312056
 40
0.7500125135447992
 40
1.0
 40
1.0
 40
1.0
 40
1.0
 10
8.029159849616576
 20
16.30200957082417
 30
0.0
 10
8.013152111156358
 20
16.29993511263632
 30
0.0
 10
7.981139823764067
 20
16.29578660959464
 30
0.0
 10
7.926712988527754
 20
16.29526882088453
 30
0.0
 10
7.874090256552506
 20
16.29889895068589
 30
0.0
 10
7.846434036345897
 20
16.30478140243861
 30
0.0
 10
7.832605914243572
 20
16.30772263086714
 30
0.0
  0
LWPOLYLINE
  5
3E0
330
1F
100
AcDbEntity
  8
0
  6
Continuous
 62
     7
370
    25
100
AcDbPolyline
 90
        8
 70
   128
 43
0.0
 10
7.598286901130734
 20
16.57675769045829
 10
7.702324183970745
 20
16.58342482705828
 10
7.798803562210764
 20
16.59550654921827
 10
7.883569488330749
 20
16.61248249185826
 10
7.952970859850751
 20
16.63362144397828
 10
8.00401846421073
 20
16.65801292177826
 10
8.034513447690756
 20
16.68460629557827
 10
8.04327780581076
 20
16.70975946653828
  0
LINE
  5
3E1
330
1F
100
AcDbEntity
  8
0
  6
Continuous
 62
     7
370
    25
100
AcDbLine
 10
7.387441996730757
 20
16.05242124249827
 30
0.0
 11
7.387025915170738
 21
16.13077750605828
 31
0.0
  0
SPLINE
  5
3E2
330
1F
100
AcDbEntity
  8
0
  6
Continuous
 62
     7
370
    25
100
AcDbSpline
210
0.0
220
0.0
230
1.0
 70
     8
 71
     3
 72
    12
 73
     8
 74
     0
 42
0.000000001
 43
0.0000000001
 40
0.0
 40
0.0
 40
0.0
 40
0.0
 40
0.2482006218276641
 40
0.4966578083830557
 40
0.7347620049678678
 40
0.9448221447175903
 40
1.0
 40
1.0
 40
1.0
 40
1.0
 10
7.344817677128844
 20
16.17245470716247
 30
0.0
 10
7.349930081904403
 20
16.17146396241165
 30
0.0
 10
7.360160176143097
 20
16.16948144877813
 30
0.0
 10
7.373788415675448
 20
16.16040962567621
 30
0.0
 10
7.383375355221232
 20
16.14825289387505
 30
0.0
 10
7.386772984573212
 20
16.13757430725638
 30
0.0
 10
7.386982358739089
 20
16.13194796286183
 30
0.0
 10
7.387025915158744
 20
16.13077750605481
 30
0.0
  0
ARC
  5
3E3
330
1F
100
AcDbEntity
  8
0
  6
Continuous
 62
     7
370
    25
100
AcDbCircle
 10
7.451511588610742
 20
17.39713910445829
 30
0.0
 40
1.229323173007322
100
AcDbArc
 50
255.9706842775002
 51
265.0209906256003
  0
ELLIPSE
  5
3E4
330
1F
100
AcDbEntity
  8
0
  6
Continuous
 62
     7
370
    25
100
AcDbEllipse
 10
7.774652325010748
 20
6.426254987418275
 30
0.0
 11
-0.493534133816854
 21
19.52109226661283
 31
0.0
210
0.0
220
0.0
230
1.0
 40
0.0221253194
 41
1.024597282735018
 42
1.04559195826908
  0
SPLINE
  5
3E5
330
1F
100
AcDbEntity
  8
0
  6
Continuous
 62
     7
370
    25
100
AcDbSpline
210
0.0
220
0.0
230
1.0
 70
     8
 71
     3
 72
    10
 73
     6
 74
     0
 42
0.000000001
 43
0.0000000001
 40
0.0
 40
0.0
 40
0.0
 40
0.0
 40
0.3895424496865848
 40
0.6912725254329483
 40
1.0
 40
1.0
 40
1.0
 40
1.0
 10
7.024177005516236
 20
16.67849703879426
 30
0.0
 10
7.034573671130402
 20
16.66617472891698
 30
0.0
 10
7.053023340225422
 20
16.64430785850317
 30
0.0
 10
7.096577414846137
 20
16.59547942026876
 30
0.0
 10
7.131538781007009
 20
16.56993732098118
 30
0.0
 10
7.149219837252019
 20
16.55701988257104
 30
0.0
  0
LINE
  5
3E6
330
1F
100
AcDbEntity
  8
0
  6
Continuous
 62
     7
370
    25
100
AcDbLine
 10
7.010433063090772
 20
16.70975945969829
 30
0.0
 11
7.024177005530759
 21
16.67849703877829
 31
0.0
  0
SPLINE
  5
3E7
330
1F
100
AcDbEntity
  8
0
  6
Continuous
 62
     7
370
    25
100
AcDbSpline
210
0.0
220
0.0
230
1.0
 70
     8
 71
     3
 72
    12
 73
     8
 74
     0
 42
0.000000001
 43
0.0000000001
 40
0.0
 40
0.0
 40
0.0
 40
0.0
 40
0.142046064333917
 40
0.2831379291136136
 40
0.4983641385932178
 40
0.7870656997236008
 40
1.0
 40
1.0
 40
1.0
 40
1.0
 10
7.490204337421914
 20
16.49952853609289
 30
0.0
 10
7.491090028467567
 20
16.5062484572249
 30
0.0
 10
7.492855460897487
 20
16.51964315817662
 30
0.0
 10
7.506451843398338
 20
16.53969596324151
 30
0.0
 10
7.530745035128404
 20
16.55929444208561
 30
0.0
 10
7.563714029907998
 20
16.57320453288878
 30
0.0
 10
7.587984553592605
 20
16.57569888733923
 30
0.0
 10
7.598286901123344
 20
16.57675769046801
 30
0.0
  0
LINE
  5
3E8
330
1F
100
AcDbEntity
  8
0
  6
Continuous
 62
     7
370
    25
100
AcDbLine
 10
7.489140788050747
 20
16.36621147113828
 30
0.0
 11
7.490204337410744
 21
16.49952853609829
 31
0.0
  0
ARC
  5
3E9
330
1F
100
AcDbEntity
  8
0
  6
Continuous
 62
     7
370
    25
100
AcDbCircle
 10
7.526415443170776
 20
18.34893955781828
 30
0.0
 40
1.983078431511419
100
AcDbArc
 50
268.1710563465991
 51
268.9229845051002
  0
LINE
  5
3EA
330
1F
100
AcDbEntity
  8
0
  6
Continuous
 62
     7
370
    25
100
AcDbLine
 10
7.450897606970755
 20
16.04897883557828
 30
0.0
 11
7.463124170650758
 21
16.36687137525828
 31
0.0
  0
LWPOLYLINE
  5
3EB
330
1F
100
AcDbEntity
  8
0
  6
Continuous
 62
     7
370
    25
100
AcDbPolyline
 90
       13
 70
   128
 43
0.0
 10
7.166523969250761
 20
16.99451660541828
 10
7.263227575330745
 20
16.97490787609825
 10
7.375252114010748
 20
16.96185866517828
 10
7.49608743161076
 20
16.95612741873827
 10
7.618710816090754
 20
16.95804716885828
 10
7.735995933450737
 20
16.9675063599783
 10
7.84112655821076
 20
16.98395526973826
 10
7.927992793490744
 20
17.0064379058183
 10
7.991546500530773
 20
17.03364771373827
 10
8.028094008490768
 20
17.06400333581828
 10
8.035511353330775
 20
17.09574060309828
 10
8.013367517690767
 20
17.12701508461828
 10
7.971279892090763
 20
17.15230813369828
  0
LWPOLYLINE
  5
3EC
330
1F
100
AcDbEntity
  8
0
  6
Continuous
 62
     7
370
    25
100
AcDbPolyline
 90
        7
 70
   128
 43
0.0
 10
7.08243112829075
 20
17.15230812517828
 10
7.062164394730757
 20
17.14190679537827
 10
7.025616886730745
 20
17.11155117333828
 10
7.018199541890737
 20
17.07981390605829
 10
7.040343377570764
 20
17.04853942453826
 10
7.090761657050762
 20
17.01954534037827
 10
7.166523969250761
 20
16.99451660541828
  0
ARC
  5
3ED
330
1F
100
AcDbEntity
  8
0
  6
Continuous
 62
     7
370
    25
100
AcDbCircle
 10
7.961246030610766
 20
17.36891004617828
 30
0.0
 40
1.005945811689914
100
AcDbArc
 50
276.3488521665998
 51
298.6914995559993
  0
LWPOLYLINE
  5
3EE
330
1F
100
AcDbEntity
  8
0
  6
Continuous
 62
     7
370
    25
100
AcDbPolyline
 90
       11
 70
   128
 43
0.0
 10
7.211778831730754
 20
17.00622942569828
 10
7.304062622930757
 20
16.9879019655383
 10
7.411529421170769
 20
16.97638085365827
 10
7.526855421290747
 20
16.97245120909826
 10
7.642181474090762
 20
16.97638084001829
 10
7.749648193290738
 20
16.98790195869827
 10
7.841932010850769
 20
17.0062294120583
 10
7.912743852970777
 20
17.0301142216183
 10
7.957258142650744
 20
17.05792868253826
 10
7.972441070690763
 20
17.08777726137828
 10
7.972436171090748
 20
17.08831664121828
  0
LWPOLYLINE
  5
3EF
330
1F
100
AcDbEntity
  8
0
  6
Continuous
 62
     7
370
    25
100
AcDbPolyline
 90
        5
 70
   128
 43
0.0
 10
7.081274724130764
 20
17.08831665485826
 10
7.081269824570767
 20
17.08777724773827
 10
7.096452805290766
 20
17.05792868253826
 10
7.140966963250775
 20
17.03011422841828
 10
7.211778831730754
 20
17.00622942569828
  0
LWPOLYLINE
  5
3F0
330
1F
100
AcDbEntity
  8
0
  6
Continuous
 62
     7
370
    25
100
AcDbPolyline
 90
       25
 70
   128
 43
0.0
 10
7.215728412890769
 20
17.3163479676183
 10
7.306855411410765
 20
17.29825025721828
 10
7.412975031730752
 20
17.28687356073828
 10
7.526855487130745
 20
17.28299319829827
 10
7.640735784490743
 20
17.28687355393828
 10
7.746855437730744
 20
17.29825025893825
 10
7.837982376970757
 20
17.3163479676183
 10
7.907906659170748
 20
17.33993338225826
 10
7.951862871890739
 20
17.36739916957828
 10
7.966855414690769
 20
17.39687355941828
 10
7.95186284553074
 20
17.42634799013825
 10
7.907906560410765
 20
17.45381374165828
 10
7.837982376970757
 20
17.47739914441828
 10
7.746855378490749
 20
17.49549685477831
 10
7.640735863530778
 20
17.50687357853826
 10
7.526855408090739
 20
17.5107539409783
 10
7.41297511077073
 20
17.50687358533827
 10
7.306855457490769
 20
17.49549688033829
 10
7.215728412890769
 20
17.47739914441828
 10
7.145804236050764
 20
17.45381375701828
 10
7.101848023370735
 20
17.42634796969827
 10
7.086855480530743
 20
17.39687357985826
 10
7.101848049690772
 20
17.36739914913829
 10
7.14580422949075
 20
17.33993337033829
 10
7.215728412890769
 20
17.3163479676183
  0
ARC
  5
3F2
330
1F
100
AcDbEntity
  8
0
  6
Continuous
 62
     7
370
    25
100
AcDbCircle
 10
7.927653571570772
 20
17.21364397605828
 30
0.0
 40
0.9172681250944007
100
AcDbArc
 50
276.3534502570996
 51
298.6877468856
  0
LWPOLYLINE
  5
3F3
330
1F
100
AcDbEntity
  8
0
  6
Continuous
 62
     7
370
    25
100
AcDbPolyline
 90
       23
 70
   128
 43
0.0
 10
7.269828529130734
 20
17.33035010801828
 10
7.352652717010755
 20
17.31430292933828
 10
7.449589842970738
 20
17.30494515061826
 10
7.552786599090751
 20
17.3030348737783
 10
7.653882519250771
 20
17.3087268362583
 10
7.744687456530755
 20
17.32155992949827
 10
7.817845007890753
 20
17.34049449709829
 10
7.867428272690744
 20
17.36399654425827
 10
7.889420221650766
 20
17.39016206649828
 10
7.882039584090762
 20
17.41687137965829
 10
7.845883798130728
 20
17.4419605267783
 10
7.783882471490755
 20
17.46339705853827
 10
7.701058072890759
 20
17.47944418269827
 10
7.604121052290736
 20
17.48880198865828
 10
7.500924190770746
 20
17.49071223825828
 10
7.399828376010759
 20
17.48502030301827
 10
7.309023438690758
 20
17.47218720977827
 10
7.235865887370749
 20
17.45325264217828
 10
7.186282622570729
 20
17.42975059501828
 10
7.164290568210731
 20
17.40358504549829
 10
7.171671311170769
 20
17.37687575961828
 10
7.207826991730769
 20
17.35178658525828
 10
7.269828529130734
 20
17.33035010801828
  0
LINE
  5
3F4
330
1F
100
AcDbEntity
  8
0
  6
Continuous
 62
     7
370
    25
100
AcDbLine
 10
7.775016038970761
 20
16.37778516725828
 30
0.0
 11
7.566453412770727
 21
16.43176514701827
 31
0.0
  0
LINE
  5
3F5
330
1F
100
AcDbEntity
  8
0
  6
Continuous
 62
     7
370
    25
100
AcDbLine
 10
7.503141892090752
 20
16.36258771877828
 30
0.0
 11
7.566453412770727
 21
16.43176514701827
 31
0.0
  0
LINE
  5
3F6
330
1F
100
AcDbEntity
  8
0
  6
Continuous
 62
     7
370
    25
100
AcDbLine
 10
7.503141892090752
 20
16.36258771877828
 30
0.0
 11
7.489140788050747
 21
16.36621147113828
 31
0.0
  0
LINE
  5
3F8
330
1F
100
AcDbEntity
  8
0
  6
Continuous
 62
     7
370
    25
100
AcDbLine
 10
7.561882745130731
 20
16.42663555337827
 30
0.0
 11
7.566453412770727
 21
16.43176514701827
 31
0.0
  0
ELLIPSE
  5
3F9
330
1F
100
AcDbEntity
  8
0
  6
Continuous
 62
     7
370
    25
100
AcDbEllipse
 10
7.520499795490763
 20
16.20764623069829
 30
0.0
 11
0.5034131596724932
 21
-0.3897417213155336
 31
0.0
210
0.0
220
0.0
230
1.0
 40
0.2774615769
 41
1.622519610137626
 42
1.701933129858711
  0
LINE
  5
3FB
330
1F
100
AcDbEntity
  8
0
  6
Continuous
 62
     7
370
    25
100
AcDbLine
 10
7.832605914250763
 20
16.30772263085828
 30
0.0
 11
7.602466946530739
 21
16.36728697873826
 31
0.0
  0
ARC
  5
3FC
330
1F
100
AcDbEntity
  8
0
  6
Continuous
 62
     7
370
    25
100
AcDbCircle
 10
7.17786262213076
 20
17.44123484509828
 30
0.0
 40
1.371926098603847
100
AcDbArc
 50
248.3827365178996
 51
261.0600085048996
  0
LINE
  5
3FD
330
1F
100
AcDbEntity
  8
0
  6
Continuous
 62
     7
370
    25
100
AcDbLine
 10
7.152543341410762
 20
16.20423651257829
 30
0.0
 11
7.153501128530763
 21
16.20448440613827
 31
0.0
  0
LINE
  5
3FE
330
1F
100
AcDbEntity
  8
0
  6
Continuous
 62
     7
370
    25
100
AcDbLine
 10
6.870827053810756
 20
16.27715005313826
 30
0.0
 11
7.152543341410762
 21
16.20423651257829
 31
0.0
  0
ELLIPSE
  5
3FF
330
1F
100
AcDbEntity
  8
0
  6
Continuous
 62
     7
370
    25
100
AcDbEllipse
 10
7.533200413450742
 20
16.15978626501828
 30
0.0
 11
0.5025675957685625
 21
0.389087086995653
 31
0.0
210
0.0
220
0.0
230
1.0
 40
0.2774615768999999
 41
1.303373780572432
 42
1.392884320206033
  0
LINE
  5
400
330
1F
100
AcDbEntity
  8
0
  6
Continuous
 62
     7
370
    25
100
AcDbLine
 10
7.463124170650758
 20
16.36687137525828
 30
0.0
 11
7.460219146450754
 21
15.92273811405829
 31
0.0
  0
LINE
  5
401
330
1F
100
AcDbEntity
  8
0
  6
Continuous
 62
     7
370
    25
100
AcDbLine
 10
7.515889627890771
 20
16.36588707557826
 30
0.0
 11
7.503141892090752
 21
16.36258771877828
 31
0.0
  0
SPLINE
  5
402
330
1F
100
AcDbEntity
  8
0
  6
Continuous
 62
     7
370
    25
100
AcDbSpline
210
0.0
220
0.0
230
1.0
 70
     8
 71
     3
 72
     9
 73
     5
 74
     0
 42
0.000000001
 43
0.0000000001
 40
0.0
 40
0.0
 40
0.0
 40
0.0
 40
0.0871316169328998
 40
1.0
 40
1.0
 40
1.0
 40
1.0
 10
8.458766469704471
 20
16.50890372955015
 30
0.0
 10
8.459166282497051
 20
16.50824663700035
 30
0.0
 10
8.463754890015536
 20
16.50070525795854
 30
0.0
 10
8.453528908565516
 20
16.49326701404362
 30
0.0
 10
8.444193933414027
 20
16.48647687634809
 30
0.0
  0
SPLINE
  5
403
330
1F
100
AcDbEntity
  8
0
  6
Continuous
 62
     7
370
    25
100
AcDbSpline
210
0.0
220
0.0
230
1.0
 70
     8
 71
     3
 72
     9
 73
     5
 74
     0
 42
0.000000001
 43
0.0000000001
 40
0.0
 40
0.0
 40
0.0
 40
0.0
 40
0.8114487073453709
 40
1.0
 40
1.0
 40
1.0
 40
1.0
 10
8.44405068681263
 20
16.480108496729
 30
0.0
 10
8.451771938943579
 20
16.48583486259633
 30
0.0
 10
8.461287330441564
 20
16.49289182850876
 30
0.0
 10
8.458568377819489
 20
16.50026901696293
 30
0.0
 10
8.458055715787907
 20
16.50165999538217
 30
0.0
  0
ELLIPSE
  5
404
330
1F
100
AcDbEntity
  8
0
  6
Continuous
 62
     7
370
    25
100
AcDbEllipse
 10
7.204872101170735
 20
16.5544556577783
 30
0.0
 11
0.0164952145005714
 21
0.0783255275264878
 31
0.0
210
0.0
220
0.0
230
1.0
 40
0.6912968772000001
 41
1.682964145015225
 42
1.883959840381836
  0
LINE
  5
405
330
1F
100
AcDbEntity
  8
0
  6
Continuous
 62
     7
370
    25
100
AcDbLine
 10
7.152543341410762
 20
16.20423651257829
 30
0.0
 11
7.148887798290758
 21
16.49298785397826
 31
0.0
  0
LINE
  5
406
330
1F
100
AcDbEntity
  8
0
  6
Continuous
 62
     7
370
    25
100
AcDbLine
 10
7.148887798290758
 20
16.49298785397826
 30
0.0
 11
7.148277725930768
 21
16.54117442853828
 31
0.0
  0
LINE
  5
407
330
1F
100
AcDbEntity
  8
0
  6
Continuous
 62
     7
370
    25
100
AcDbLine
 10
6.664055352570755
 20
16.6184717246183
 30
0.0
 11
6.801691997690767
 21
16.58284873957825
 31
0.0
  0
ELLIPSE
  5
408
330
1F
100
AcDbEntity
  8
0
  6
Continuous
 62
     7
370
    25
100
AcDbEllipse
 10
6.87033338053078
 20
16.23838526501828
 30
0.0
 11
-0.0091460894296119
 21
0.038945862755736
 31
0.0
210
0.0
220
0.0
230
1.0
 40
0.6873451752000001
 41
5.936502687511594
 42
6.298720832723418
  0
LINE
  5
409
330
1F
100
AcDbEntity
  8
0
  6
Continuous
 62
     7
370
    25
100
AcDbLine
 10
6.801691997690767
 20
16.58284873957825
 30
0.0
 11
6.801691945010759
 21
16.26193758753828
 31
0.0
  0
LINE
  5
40A
330
1F
100
AcDbEntity
  8
0
  6
Continuous
 62
     7
370
    25
100
AcDbLine
 10
6.664189116130728
 20
16.61212448001828
 30
0.0
 11
6.801691945010759
 21
16.57653612917829
 31
0.0
  0
LINE
  5
40B
330
1F
100
AcDbEntity
  8
0
  6
Continuous
 62
     7
370
    25
100
AcDbLine
 10
6.801691997690767
 20
16.52769155969827
 30
0.0
 11
6.721762659530753
 21
16.54837879465828
 31
0.0
  0
SPLINE
  5
40C
330
1F
100
AcDbEntity
  8
0
  6
Continuous
 62
     7
370
    25
100
AcDbSpline
210
0.0
220
0.0
230
1.0
 70
     8
 71
     3
 72
    10
 73
     6
 74
     0
 42
0.000000001
 43
0.0000000001
 40
0.0
 40
0.0
 40
0.0
 40
0.0
 40
0.1744976445209105
 40
0.6006967353873768
 40
1.0
 40
1.0
 40
1.0
 40
1.0
 10
6.664055352586501
 20
16.6184717246162
 30
0.0
 10
6.656633869625409
 20
16.62056898094277
 30
0.0
 10
6.631085899630249
 20
16.62778864876173
 30
0.0
 10
6.600340385551589
 20
16.64268538617602
 30
0.0
 10
6.59645580692279
 20
16.65621153920483
 30
0.0
 10
6.594576799651832
 20
16.6627542668254
 30
0.0
  0
SPLINE
  5
40D
330
1F
100
AcDbEntity
  8
0
  6
Continuous
 62
     7
370
    25
100
AcDbSpline
210
0.0
220
0.0
230
1.0
 70
     8
 71
     3
 72
    10
 73
     6
 74
     0
 42
0.000000001
 43
0.0000000001
 40
0.0
 40
0.0
 40
0.0
 40
0.0
 40
0.2619862187928165
 40
0.6257503186126926
 40
1.0
 40
1.0
 40
1.0
 40
1.0
 10
6.59583372404154
 20
16.65551596331119
 30
0.0
 10
6.59615849417571
 20
16.65126478366488
 30
0.0
 10
6.596934202973869
 20
16.64111090217289
 30
0.0
 10
6.619671625376355
 20
16.62568333096226
 30
0.0
 10
6.649210060107293
 20
16.61668670455356
 30
0.0
 10
6.664189116146928
 20
16.61212448003584
 30
0.0
  0
SPLINE
  5
40E
330
1F
100
AcDbEntity
  8
0
  6
Continuous
 62
     7
370
    25
100
AcDbSpline
210
0.0
220
0.0
230
1.0
 70
     8
 71
     3
 72
     9
 73
     5
 74
     0
 42
0.000000001
 43
0.0000000001
 40
0.0
 40
0.0
 40
0.0
 40
0.0
 40
0.5600401761286084
 40
1.0
 40
1.0
 40
1.0
 40
1.0
 10
6.721762659516855
 20
16.54837879467541
 30
0.0
 10
6.711606640237903
 20
16.55137780219587
 30
0.0
 10
6.693472192546607
 20
16.55673278858495
 30
0.0
 10
6.685592250383308
 20
16.5635284269635
 30
0.0
 10
6.682125392416992
 20
16.56651823482755
 30
0.0
  0
SPLINE
  5
40F
330
1F
100
AcDbEntity
  8
0
  6
Continuous
 62
     7
370
    25
100
AcDbSpline
210
0.0
220
0.0
230
1.0
 70
     8
 71
     3
 72
    12
 73
     8
 74
     0
 42
0.000000001
 43
0.0000000001
 40
0.0
 40
0.0
 40
0.0
 40
0.0
 40
0.1477215823338081
 40
0.4239742543232399
 40
0.6782511209712363
 40
0.9234184034962495
 40
1.0
 40
1.0
 40
1.0
 40
1.0
 10
7.265904394104353
 20
17.33516941537914
 30
0.0
 10
7.27255071358158
 20
17.34552838497831
 30
0.0
 10
7.291626249463604
 20
17.37525956130315
 30
0.0
 10
7.341219673795535
 20
17.403483027855
 30
0.0
 10
7.407698619468391
 20
17.41325141255282
 30
0.0
 10
7.462232349512532
 20
17.40682293373777
 30
0.0
 10
7.489142461976427
 20
17.39187861409223
 30
0.0
 10
7.495547517312758
 20
17.3883216169068
 30
0.0
  0
LINE
  5
411
330
1F
100
AcDbEntity
  8
0
  6
Continuous
 62
     7
370
    25
100
AcDbLine
 10
8.042296627170742
 20
16.23693217421828
 30
0.0
 11
8.81102598365075
 21
16.03797037625827
 31
0.0
  0
ELLIPSE
  5
412
330
1F
100
AcDbEntity
  8
0
  6
Continuous
 62
     7
370
    25
100
AcDbEllipse
 10
8.827931919530755
 20
16.0424129504583
 30
0.0
 11
0.0240000000000009
 21
0.0
 31
0.0
210
0.0
220
0.0
230
1.0
 40
0.2607925906
 41
3.930788915260548
 42
5.493989045508551
  0
LINE
  5
413
330
1F
100
AcDbEntity
  8
0
  6
Continuous
 62
     7
370
    25
100
AcDbLine
 10
8.844837871410732
 20
16.03797037625827
 30
0.0
 11
9.297515465650747
 21
16.15513195893828
 31
0.0
  0
ELLIPSE
  5
414
330
1F
100
AcDbEntity
  8
0
  6
Continuous
 62
     7
370
    25
100
AcDbEllipse
 10
9.280350609890774
 20
16.1595075238983
 30
0.0
 11
0.0241830046668156
 21
0.0
 31
0.0
210
0.0
220
0.0
230
1.0
 40
0.2568604343
 41
5.50158524205512
 42
6.316075284623456
  0
LINE
  5
419
330
1F
100
AcDbEntity
  8
0
  6
Continuous
 62
     7
370
    25
100
AcDbLine
 10
6.472490906010762
 20
15.30683365161826
 30
0.0
 11
7.113969694050751
 21
15.47286057897827
 31
0.0
  0
ELLIPSE
  5
41A
330
1F
100
AcDbEntity
  8
0
  6
Continuous
 62
     7
370
    25
100
AcDbEllipse
 10
7.096804869610764
 20
15.47723617121829
 30
0.0
 11
0.0241830046668042
 21
0.0
 31
0.0
210
0.0
220
0.0
230
1.0
 40
0.2568604343
 41
5.501585242055356
 42
6.316075284623442
  0
LINE
  5
41D
330
1F
100
AcDbEntity
  8
0
  6
Continuous
 62
     7
370
    25
100
AcDbLine
 10
7.672119724010769
 20
15.87245755185827
 30
0.0
 11
7.659040476890766
 21
15.87127939617829
 31
0.0
  0
ELLIPSE
  5
41E
330
1F
100
AcDbEntity
  8
0
  6
Continuous
 62
     7
370
    25
100
AcDbEllipse
 10
5.994481322570749
 20
15.73614540661828
 30
0.0
 11
0.0232340316429941
 21
0.0179862010468128
 31
0.0
210
0.0
220
0.0
230
1.0
 40
0.3344209521000001
 41
0.615542336467167
 42
1.887227435897418
  0
ELLIPSE
  5
41F
330
1F
100
AcDbEntity
  8
0
  6
Continuous
 62
     7
370
    25
100
AcDbEllipse
 10
6.677564273090752
 20
15.93689105717828
 30
0.0
 11
0.0241830046668156
 21
0.0
 31
0.0
210
0.0
220
0.0
230
1.0
 40
0.2568604343
 41
5.501585242055453
 42
5.581255508108743
  0
ELLIPSE
  5
420
330
1F
100
AcDbEntity
  8
0
  6
Continuous
 62
     7
370
    25
100
AcDbEllipse
 10
5.994481322570749
 20
15.76009618021828
 30
0.0
 11
0.0240000000000123
 21
0.0
 31
0.0
210
0.0
220
0.0
230
1.0
 40
0.2607925906
 41
5.414318779455177
 42
5.493989045508279
  0
LINE
  5
421
330
1F
100
AcDbEntity
  8
0
  6
Continuous
 62
     7
370
    25
100
AcDbLine
 10
6.011387327010766
 20
15.75565360149829
 30
0.0
 11
6.694729065010733
 21
15.93251545757829
 31
0.0
  0
ELLIPSE
  5
422
330
1F
100
AcDbEntity
  8
0
  6
Continuous
 62
     7
370
    25
100
AcDbEllipse
 10
6.595252722330769
 20
16.27945740113827
 30
0.0
 11
-0.0258362835722892
 21
0.0758460023704288
 31
0.0
210
0.0
220
0.0
230
1.0
 40
0.6650702744000001
 41
4.387470330893848
 42
5.871000195088951
  0
ELLIPSE
  5
423
330
1F
100
AcDbEntity
  8
0
  6
Continuous
 62
     7
370
    25
100
AcDbEllipse
 10
6.680533736810758
 20
15.91370883733828
 30
0.0
 11
0.021365153649856
 21
0.0188321329810492
 31
0.0
210
0.0
220
0.0
230
1.0
 40
0.278446936
 41
0.1863008156516746
 42
0.5485189608637766
  0
LWPOLYLINE
  5
424
330
1F
100
AcDbEntity
  8
0
  6
Continuous
 62
     7
370
    25
100
AcDbPolyline
 90
        5
 70
   128
 43
0.0
 10
5.312521745650769
 20
16.28165344205828
 10
5.312962101210757
 20
16.28260261449827
 10
5.314304662690744
 20
16.28360227109829
 10
5.316485367010756
 20
16.28441177257826
 10
5.319421250610758
 20
16.28500016697828
  0
ELLIPSE
  5
425
330
1F
100
AcDbEntity
  8
0
  6
Continuous
 62
     7
370
    25
100
AcDbEllipse
 10
5.375472595970762
 20
16.26360184921827
 30
0.0
 11
-0.0137110478701743
 21
0.0789545746242652
 31
0.0
210
0.0
220
0.0
230
1.0
 40
0.6964889740999999
 41
5.977669191795537
 42
7.461199055990884
  0
ELLIPSE
  5
426
330
1F
100
AcDbEntity
  8
0
  6
Continuous
 62
     7
370
    25
100
AcDbEllipse
 10
6.01599323333076
 20
16.42938078893826
 30
0.0
 11
-0.0258362835722892
 21
0.0758460023704288
 31
0.0
210
0.0
220
0.0
230
1.0
 40
0.6650702744000001
 41
5.871000195088912
 42
6.233218340300691
  0
LWPOLYLINE
  5
427
330
1F
100
AcDbEntity
  8
0
  6
Continuous
 62
     7
370
    25
100
AcDbPolyline
 90
        6
 70
   128
 43
0.0
 10
6.658203578770752
 20
16.27693327205827
 10
6.658216459890752
 20
16.27673051661827
 10
6.657763196890755
 20
16.2754703434183
 10
6.656420661730749
 20
16.27414972045829
 10
6.654239957410766
 20
16.27281903337828
 10
6.651304060650772
 20
16.27152881257825
  0
LWPOLYLINE
  5
428
330
1F
100
AcDbEntity
  8
0
  6
Continuous
 62
     7
370
    25
100
AcDbPolyline
 90
        3
 70
   128
 43
0.0
 10
6.591788337810754
 20
16.35583480109829
 10
6.594917372530744
 20
16.35624718065827
 10
6.597801850170753
 20
16.35588702861827
  0
ELLIPSE
  5
429
330
1F
100
AcDbEntity
  8
0
  6
Continuous
 62
     7
370
    25
100
AcDbEllipse
 10
5.290191581530763
 20
15.91842900485827
 30
0.0
 11
-0.0177007132387757
 21
0.0261488662802435
 31
0.0
210
0.0
220
0.0
230
1.0
 40
0.4995766488000001
 41
0.5156289834186022
 42
1.118274261223229
  0
LWPOLYLINE
  5
42A
330
1F
100
AcDbEntity
  8
0
  6
Continuous
 62
     7
370
    25
100
AcDbPolyline
 90
        3
 70
   128
 43
0.0
 10
6.018542360410748
 20
16.50581041661829
 10
6.015657882770767
 20
16.50617056865826
 10
6.012528848050749
 20
16.50575818909828
  0
ELLIPSE
  5
42C
330
1F
100
AcDbEntity
  8
0
  6
Continuous
 62
     7
370
    25
100
AcDbEllipse
 10
8.681487091090758
 20
16.43159367377831
 30
0.0
 11
0.0232340316429941
 21
0.0179862010468241
 31
0.0
210
0.0
220
0.0
230
1.0
 40
0.3344209521
 41
0.6155423364674001
 42
2.09907220066184
  0
ELLIPSE
  5
42D
330
1F
100
AcDbEntity
  8
0
  6
Continuous
 62
     7
370
    25
100
AcDbEllipse
 10
8.681487091090758
 20
16.45554444737826
 30
0.0
 11
0.0240000000000009
 21
0.0
 31
0.0
210
0.0
220
0.0
230
1.0
 40
0.2607925906
 41
5.414318779455412
 42
5.493989045508179
  0
LINE
  5
42E
330
1F
100
AcDbEntity
  8
0
  6
Continuous
 62
     7
370
    25
100
AcDbLine
 10
8.698393114490727
 20
16.45110187357829
 30
0.0
 11
9.104549017330782
 21
16.55622275649827
 31
0.0
  0
ELLIPSE
  5
42F
330
1F
100
AcDbEntity
  8
0
  6
Continuous
 62
     7
370
    25
100
AcDbEllipse
 10
9.087384183370772
 20
16.56059834521829
 30
0.0
 11
0.0241830046668042
 21
0.0
 31
0.0
210
0.0
220
0.0
230
1.0
 40
0.2568604343
 41
5.501585242055741
 42
5.581255508107767
  0
ELLIPSE
  5
430
330
1F
100
AcDbEntity
  8
0
  6
Continuous
 62
     7
370
    25
100
AcDbEllipse
 10
9.005072632610762
 20
16.90316468917828
 30
0.0
 11
-0.0258362835722892
 21
0.0758460023704288
 31
0.0
210
0.0
220
0.0
230
1.0
 40
0.6650702744000001
 41
4.387470330893848
 42
5.87100019508894
  0
ELLIPSE
  5
431
330
1F
100
AcDbEntity
  8
0
  6
Continuous
 62
     7
370
    25
100
AcDbEllipse
 10
9.090353647090751
 20
16.53741612537828
 30
0.0
 11
0.021365153649856
 21
0.0188321329810492
 31
0.0
210
0.0
220
0.0
230
1.0
 40
0.278446936
 41
0.1863008156536697
 42
0.5485189608637766
  0
LWPOLYLINE
  5
432
330
1F
100
AcDbEntity
  8
0
  6
Continuous
 62
     7
370
    25
100
AcDbPolyline
 90
        6
 70
   128
 43
0.0
 10
9.068023478410736
 20
16.9006405573383
 10
9.068036359530765
 20
16.90043780189828
 10
9.067583017490733
 20
16.8991776082583
 10
9.066240614010752
 20
16.89785701937828
 10
9.064059883410749
 20
16.89652632549826
 10
9.06112393393073
 20
16.89523609105828
  0
LWPOLYLINE
  5
433
330
1F
100
AcDbEntity
  8
0
  6
Continuous
 62
     7
370
    25
100
AcDbPolyline
 90
        3
 70
   128
 43
0.0
 10
9.001608158410761
 20
16.97954206589827
 10
9.004737351170774
 20
16.97995448641831
 10
9.007621670770731
 20
16.97959429345826
  0
LWPOLYLINE
  5
434
330
1F
100
AcDbEntity
  8
0
  6
Continuous
 62
     7
370
    25
100
AcDbPolyline
 90
        3
 70
   128
 43
0.0
 10
8.428362181010754
 20
17.12951768145828
 10
8.42547786141074
 20
17.1298778744183
 10
8.422348668650755
 20
17.12946545393828
  0
ELLIPSE
  5
435
330
1F
100
AcDbEntity
  8
0
  6
Continuous
 62
     7
370
    25
100
AcDbEllipse
 10
8.062478364490743
 20
16.95905011641827
 30
0.0
 11
-0.0137110478701857
 21
0.0789545746242652
 31
0.0
210
0.0
220
0.0
230
1.0
 40
0.6964889741000001
 41
5.97766919179529
 42
6.339887337007222
  0
ELLIPSE
  5
436
330
1F
100
AcDbEntity
  8
0
  6
Continuous
 62
     7
370
    25
100
AcDbEllipse
 10
8.425813143610753
 20
17.05308807697827
 30
0.0
 11
-0.0258362835722892
 21
0.0758460023704061
 31
0.0
210
0.0
220
0.0
230
1.0
 40
0.6650702744000001
 41
5.871000195088857
 42
6.233218340300563
  0
ELLIPSE
  5
43D
330
1F
100
AcDbEntity
  8
0
  6
Continuous
 62
     7
370
    25
100
AcDbEllipse
 10
3.533116342010742
 20
14.67201383869826
 30
0.0
 11
0.0240000000000009
 21
0.0
 31
0.0
210
0.0
220
0.0
230
1.0
 40
0.2607925906
 41
3.930788915259975
 42
5.493989045509795
  0
LINE
  5
43E
330
1F
100
AcDbEntity
  8
0
  6
Continuous
 62
     7
370
    25
100
AcDbLine
 10
3.917847046050752
 20
14.76277131557828
 30
0.0
 11
3.550022226770749
 21
14.66757124709829
 31
0.0
  0
ELLIPSE
  5
43F
330
1F
100
AcDbEntity
  8
0
  6
Continuous
 62
     7
370
    25
100
AcDbEllipse
 10
3.900682218650757
 20
14.76714688789826
 30
0.0
 11
0.0241830046668156
 21
0.0
 31
0.0
210
0.0
220
0.0
230
1.0
 40
0.2568604343
 41
5.501585242055453
 42
6.316075284625271
  0
ELLIPSE
  5
440
330
1F
100
AcDbEntity
  8
0
  6
Continuous
 62
     7
370
    25
100
AcDbEllipse
 10
2.407531995930753
 20
14.9633365042983
 30
0.0
 11
0.0241830046668156
 21
0.0
 31
0.0
210
0.0
220
0.0
230
1.0
 40
0.2568604343
 41
3.108702676144093
 42
3.923192718714648
  0
LINE
  5
445
330
1F
100
AcDbEntity
  8
0
  6
Continuous
 62
     7
370
    25
100
AcDbLine
 10
2.390367178970763
 20
14.95896089873827
 30
0.0
 11
3.516210339050758
 21
14.66757124709829
 31
0.0
  0
ELLIPSE
  5
446
330
1F
100
AcDbEntity
  8
0
  6
Continuous
 62
     7
370
    25
100
AcDbEllipse
 10
3.386671513570746
 20
15.06119456201827
 30
0.0
 11
0.0232340316429941
 21
0.0179862010468128
 31
0.0
210
0.0
220
0.0
230
1.0
 40
0.3344209521000001
 41
0.6155423364679322
 42
2.099072200662252
  0
ELLIPSE
  5
447
330
1F
100
AcDbEntity
  8
0
  6
Continuous
 62
     7
370
    25
100
AcDbEllipse
 10
3.707715792090766
 20
15.16823770921826
 30
0.0
 11
0.0241830046668042
 21
0.0
 31
0.0
210
0.0
220
0.0
230
1.0
 40
0.2568604343
 41
5.501585242055741
 42
5.581255508107767
  0
ELLIPSE
  5
448
330
1F
100
AcDbEntity
  8
0
  6
Continuous
 62
     7
370
    25
100
AcDbEllipse
 10
3.386671513570746
 20
15.08514533561828
 30
0.0
 11
0.0240000000000009
 21
0.0
 31
0.0
210
0.0
220
0.0
230
1.0
 40
0.2607925906
 41
5.414318779455412
 42
5.493989045508179
  0
LINE
  5
449
330
1F
100
AcDbEntity
  8
0
  6
Continuous
 62
     7
370
    25
100
AcDbLine
 10
3.403577469850745
 20
15.08070274445828
 30
0.0
 11
3.724880597730759
 21
15.16386211317828
 31
0.0
  0
ELLIPSE
  5
44A
330
1F
100
AcDbEntity
  8
0
  6
Continuous
 62
     7
370
    25
100
AcDbEllipse
 10
3.625404241330755
 20
15.51080405317827
 30
0.0
 11
-0.0258362835722892
 21
0.0758460023704174
 31
0.0
210
0.0
220
0.0
230
1.0
 40
0.6650702743999999
 41
4.387470330893664
 42
5.871000195088898
  0
ELLIPSE
  5
44B
330
1F
100
AcDbEntity
  8
0
  6
Continuous
 62
     7
370
    25
100
AcDbEllipse
 10
3.710685255810744
 20
15.14505548937828
 30
0.0
 11
0.021365153649856
 21
0.0188321329810378
 31
0.0
210
0.0
220
0.0
230
1.0
 40
0.278446936
 41
0.1863008156516604
 42
0.5485189608636848
  0
LWPOLYLINE
  5
44C
330
1F
100
AcDbEntity
  8
0
  6
Continuous
 62
     7
370
    25
100
AcDbPolyline
 90
        6
 70
   128
 43
0.0
 10
3.688355058810742
 20
15.50827991401826
 10
3.688367939930742
 20
15.50807715857826
 10
3.687914808610742
 20
15.50681701945828
 10
3.686572194410757
 20
15.50549637605829
 10
3.684391463810754
 20
15.50416568217826
 10
3.681455514330764
 20
15.50287544773829
  0
LWPOLYLINE
  5
44D
330
1F
100
AcDbEntity
  8
0
  6
Continuous
 62
     7
370
    25
100
AcDbPolyline
 90
        3
 70
   128
 43
0.0
 10
3.62193994957073
 20
15.58718147713827
 10
3.625068931570751
 20
15.5875938430583
 10
3.62795346189074
 20
15.58723370465827
  0
LWPOLYLINE
  5
44E
330
1F
100
AcDbEntity
  8
0
  6
Continuous
 62
     7
370
    25
100
AcDbPolyline
 90
        3
 70
   128
 43
0.0
 10
3.048693972130735
 20
15.73715709265826
 10
3.045809441850735
 20
15.73751723109828
 10
3.042680459810753
 20
15.73710486513829
  0
LWPOLYLINE
  5
451
330
1F
100
AcDbEntity
  8
0
  6
Continuous
 62
     7
370
    25
100
AcDbPolyline
 90
        5
 70
   128
 43
0.0
 10
2.704711914850747
 20
15.60670259185826
 10
2.70515240209076
 20
15.6076517983783
 10
2.706494805570741
 20
15.60865141405827
 10
2.708675536170744
 20
15.60946092233828
 10
2.711611485650735
 20
15.6100493337783
  0
ELLIPSE
  5
452
330
1F
100
AcDbEntity
  8
0
  6
Continuous
 62
     7
370
    25
100
AcDbEllipse
 10
2.76766278697076
 20
15.58865100465829
 30
0.0
 11
-0.0137110478701857
 21
0.0789545746242652
 31
0.0
210
0.0
220
0.0
230
1.0
 40
0.6964889741000001
 41
5.977669191795499
 42
7.46119905599071
  0
ELLIPSE
  5
453
330
1F
100
AcDbEntity
  8
0
  6
Continuous
 62
     7
370
    25
100
AcDbEllipse
 10
3.046144752330746
 20
15.66072744101828
 30
0.0
 11
-0.0258362835722892
 21
0.0758460023704288
 31
0.0
210
0.0
220
0.0
230
1.0
 40
0.6650702744000001
 41
5.871000195089022
 42
6.233218340300502
  0
ELLIPSE
  5
454
330
1F
100
AcDbEntity
  8
0
  6
Continuous
 62
     7
370
    25
100
AcDbEllipse
 10
2.682381772490742
 20
15.24347816029828
 30
0.0
 11
-0.0177007132387757
 21
0.0261488662802435
 31
0.0
210
0.0
220
0.0
230
1.0
 40
0.4995766488000001
 41
0.5156289834188486
 42
1.330119025988002
  0
LINE
  5
456
330
1F
100
AcDbEntity
  8
0
  6
Continuous
 62
     7
370
    25
100
AcDbLine
 10
6.336166173770749
 20
15.62491570497826
 30
0.0
 11
6.352417945890749
 21
15.33791081893827
 31
0.0
  0
ELLIPSE
  5
457
330
1F
100
AcDbEntity
  8
0
  6
Continuous
 62
     7
370
    25
100
AcDbEllipse
 10
6.319247289010775
 20
15.62726747337828
 30
0.0
 11
-0.0057522488188624
 21
0.023301292105225
 31
0.0
210
0.0
220
0.0
230
1.0
 40
0.6852254854000001
 41
4.445137112376242
 42
5.928666976571547
  0
LINE
  5
458
330
1F
100
AcDbEntity
  8
0
  6
Continuous
 62
     7
370
    25
100
AcDbLine
 10
6.319395415930756
 20
15.65048801453827
 30
0.0
 11
4.869667633490735
 21
16.02570517481828
 31
0.0
  0
ELLIPSE
  5
459
330
1F
100
AcDbEntity
  8
0
  6
Continuous
 62
     7
370
    25
100
AcDbEllipse
 10
4.869519551130736
 20
16.00248462217826
 30
0.0
 11
-0.0057522488188624
 21
0.0233012921052136
 31
0.0
210
0.0
220
0.0
230
1.0
 40
0.6852254854000001
 41
5.928666976571266
 42
6.290885121782554
  0
ELLIPSE
  5
45A
330
1F
100
AcDbEntity
  8
0
  6
Continuous
 62
     7
370
    25
100
AcDbEllipse
 10
10.28109322349076
 20
15.92378716385826
 30
0.0
 11
0.1203291376578591
 21
0.0
 31
0.0
210
0.0
220
0.0
230
1.0
 40
0.2581110944
 41
5.499156671652762
 42
7.067213942706437
  0
LINE
  5
45B
330
1F
100
AcDbEntity
  8
0
  6
Continuous
 62
     7
370
    25
100
AcDbLine
 10
4.52860645817077
 20
14.39095069237828
 30
0.0
 11
6.426561127610739
 21
14.88217750757826
 31
0.0
  0
LINE
  5
45C
330
1F
100
AcDbEntity
  8
0
  6
Continuous
 62
     7
370
    25
100
AcDbLine
 10
7.482370947210768
 20
15.15544119689826
 30
0.0
 11
7.866199929130743
 21
15.25478344745829
 31
0.0
  0
LINE
  5
45D
330
1F
100
AcDbEntity
  8
0
  6
Continuous
 62
     7
370
    25
100
AcDbLine
 10
8.773517448490736
 20
15.48961450145827
 30
0.0
 11
10.36629521725075
 21
15.90185572261828
 31
0.0
  0
ELLIPSE
  5
45E
330
1F
100
AcDbEntity
  8
0
  6
Continuous
 62
     7
370
    25
100
AcDbEllipse
 10
4.443869876170765
 20
14.41300259105827
 30
0.0
 11
0.1199999999999932
 21
0.0
 31
0.0
210
0.0
220
0.0
230
1.0
 40
0.2595289376
 41
3.928360344857537
 42
5.496417615911763
  0
LINE
  5
45F
330
1F
100
AcDbEntity
  8
0
  6
Continuous
 62
     7
370
    25
100
AcDbLine
 10
1.406440096970754
 20
15.15516388557827
 30
0.0
 11
4.359133242730763
 21
14.39095066509827
 31
0.0
  0
ELLIPSE
  5
460
330
1F
100
AcDbEntity
  8
0
  6
Continuous
 62
     7
370
    25
100
AcDbEllipse
 10
1.491642196090765
 20
15.17709534013829
 30
0.0
 11
0.1203291376578704
 21
0.0
 31
0.0
210
0.0
220
0.0
230
1.0
 40
0.2581110944
 41
2.357564018062634
 42
3.925621289116981
  0
LINE
  5
461
330
1F
100
AcDbEntity
  8
0
  6
Continuous
 62
     7
370
    25
100
AcDbLine
 10
6.684252965330756
 20
16.56502524089828
 30
0.0
 11
6.237003463730758
 21
16.44926855197826
 31
0.0
  0
LINE
  5
462
330
1F
100
AcDbEntity
  8
0
  6
Continuous
 62
     7
370
    25
100
AcDbLine
 10
5.303028141690759
 20
16.20753795097829
 30
0.0
 11
4.763096007970773
 21
16.06779323173828
 31
0.0
  0
LINE
  5
463
330
1F
100
AcDbEntity
  8
0
  6
Continuous
 62
     7
370
    25
100
AcDbLine
 10
3.368009533650763
 20
15.70671828261828
 30
0.0
 11
3.267154864730741
 21
15.68061517349827
 31
0.0
  0
LINE
  5
464
330
1F
100
AcDbEntity
  8
0
  6
Continuous
 62
     7
370
    25
100
AcDbLine
 10
2.695218231850731
 20
15.53258708029827
 30
0.0
 11
1.40644020233077
 21
15.19902678137828
 31
0.0
  0
LINE
  5
465
330
1F
100
AcDbEntity
  8
0
  6
Continuous
 62
     7
370
    25
100
AcDbLine
 10
10.36629532261077
 20
15.94571861837829
 30
0.0
 11
9.296463691050746
 21
16.22261141969829
 31
0.0
  0
LINE
  5
466
330
1F
100
AcDbEntity
  8
0
  6
Continuous
 62
     7
370
    25
100
AcDbLine
 10
6.772672628090759
 20
16.53520225589829
 30
0.0
 11
6.338826877970745
 21
16.42291471313825
 31
0.0
  0
LINE
  5
467
330
1F
100
AcDbEntity
  8
0
  6
Continuous
 62
     7
370
    25
100
AcDbLine
 10
5.29604519913073
 20
16.15302295477829
 30
0.0
 11
4.823013601010757
 21
16.03059336825828
 31
0.0
  0
LINE
  5
468
330
1F
100
AcDbEntity
  8
0
  6
Continuous
 62
     7
370
    25
100
AcDbLine
 10
3.451070856850748
 20
15.67550845725827
 30
0.0
 11
3.368978278970757
 21
15.65426133465826
 31
0.0
  0
LINE
  5
469
330
1F
100
AcDbEntity
  8
0
  6
Continuous
 62
     7
370
    25
100
AcDbLine
 10
2.688235341970766
 20
15.47807209773828
 30
0.0
 11
1.525350370450752
 21
15.17709531981828
 31
0.0
  0
LINE
  5
46A
330
1F
100
AcDbEntity
  8
0
  6
Continuous
 62
     7
370
    25
100
AcDbLine
 10
1.525350370450752
 20
15.17709531981828
 30
0.0
 11
4.44386979777073
 21
14.42172690853829
 31
0.0
  0
LINE
  5
46B
330
1F
100
AcDbEntity
  8
0
  6
Continuous
 62
     7
370
    25
100
AcDbLine
 10
4.44386979777073
 20
14.42172690853829
 30
0.0
 11
6.314555350850753
 21
14.9058959570583
 31
0.0
  0
LINE
  5
46C
330
1F
100
AcDbEntity
  8
0
  6
Continuous
 62
     7
370
    25
100
AcDbLine
 10
7.394349453610743
 20
15.18536723565827
 30
0.0
 11
7.851265325050746
 21
15.30362576521827
 31
0.0
  0
LINE
  5
46D
330
1F
100
AcDbEntity
  8
0
  6
Continuous
 62
     7
370
    25
100
AcDbLine
 10
8.758430562610755
 20
15.5384174057383
 30
0.0
 11
10.24738504913074
 21
15.92378718413829
 31
0.0
  0
LINE
  5
46E
330
1F
100
AcDbEntity
  8
0
  6
Continuous
 62
     7
370
    25
100
AcDbLine
 10
10.24738504913074
 20
15.92378718413829
 30
0.0
 11
9.303446580890749
 21
16.16809643713827
 31
0.0
  0
ELLIPSE
  5
46F
330
1F
100
AcDbEntity
  8
0
  6
Continuous
 62
     7
370
    25
100
AcDbEllipse
 10
4.443869876170765
 20
11.38265689521827
 30
0.0
 11
0.0799999999999841
 21
0.0
 31
0.0
210
0.0
220
0.0
230
1.0
 40
0.2595289376
 41
3.928360344857319
 42
5.496417615911528
  0
LWPOLYLINE
  5
470
330
1F
100
AcDbEntity
  8
0
  6
Continuous
 62
     7
370
    25
100
AcDbPolyline
 90
        3
 70
   128
 43
0.0
 10
4.37735638101077
 20
11.36786875541827
 10
4.382042478370749
 20
11.36726832405827
 10
4.387378901570741
 20
11.36795572933829
  0
LWPOLYLINE
  5
471
330
1F
100
AcDbEntity
  8
0
  6
Continuous
 62
     7
370
    25
100
AcDbPolyline
 90
        3
 70
   128
 43
0.0
 10
4.500360904690751
 20
11.36795567477827
 10
4.505697117210729
 20
11.36726832405827
 10
4.510383319930753
 20
11.36786872813826
  0
LWPOLYLINE
  5
472
330
1F
100
AcDbEntity
  8
0
  6
Continuous
 62
     7
370
    25
100
AcDbPolyline
 90
       17
 70
   128
 43
0.0
 10
7.466264558690767
 20
11.49960486849829
 10
7.422590571810758
 20
11.46391142877829
 10
7.33392679977075
 20
11.41221472181826
 10
7.219431250610739
 20
11.36403794645826
 10
7.081147203570765
 20
11.32024079425827
 10
6.92154229077073
 20
11.28160483557826
 10
6.743464625010744
 20
11.24881954649828
 10
6.550092091810768
 20
11.22246994829828
 10
6.34487521417077
 20
11.20302629217826
 10
6.131476500530766
 20
11.19083550637828
 10
5.913703681570751
 20
11.18611515229827
 10
5.695443065570771
 20
11.1889494564183
 10
5.480589495410754
 20
11.1992878719783
 10
5.272977122610768
 20
11.21694589685827
 10
5.076310628810745
 20
11.24160839401827
 10
4.894099674250753
 20
11.27283529441828
 10
4.729595717170752
 20
11.31006933189826
  0
LWPOLYLINE
  5
473
330
1F
100
AcDbEntity
  8
0
  6
Continuous
 62
     7
370
    25
100
AcDbPolyline
 90
       14
 70
   128
 43
0.0
 10
7.962433169770747
 20
4.007265224778279
 10
7.972462960690762
 20
4.175206936378287
 10
8.002278695010772
 20
4.343759305978267
 10
8.051067096570761
 20
4.508324728898287
 10
8.117497378690757
 20
4.664414619698277
 10
8.199757437610742
 20
4.807770472778258
 10
8.295603454090752
 20
4.93448263561828
 10
8.402421006490754
 20
5.041094789538277
 10
8.517296404090757
 20
5.124698409298275
 10
8.637096127530753
 20
5.183012624738296
 10
8.75855234725077
 20
5.214447807538277
 10
8.878352070690766
 20
5.218146492178277
 10
8.993227468330758
 20
5.194006753858275
 10
9.013795841610772
 20
5.186486707218278
  0
LWPOLYLINE
  5
474
330
1F
100
AcDbEntity
  8
0
  6
Continuous
 62
     7
370
    25
100
AcDbPolyline
 90
        9
 70
   128
 43
0.0
 10
8.494372285370758
 20
3.179588575858275
 10
8.402421006490754
 20
3.201191275018288
 10
8.295603454090752
 20
3.252509443618293
 10
8.199757437610742
 20
3.32960805753828
 10
8.117497378690757
 20
3.430384122338296
 10
8.051067096570761
 20
3.552086017298279
 10
8.002278695010772
 20
3.691396705178277
 10
7.972462960690762
 20
3.84451531501827
 10
7.962433169770747
 20
4.007265224778279
  0
LWPOLYLINE
  5
475
330
1F
100
AcDbEntity
  8
0
  6
Continuous
 62
     7
370
    25
100
AcDbPolyline
 90
       18
 70
   128
 43
0.0
 10
9.633109220050755
 20
4.326274676818286
 10
9.622806949770733
 20
4.158261290898281
 10
9.59219653665076
 20
3.989747355618305
 10
9.54215863905074
 20
3.825582816058272
 10
9.474132677250764
 20
3.67048933629826
 10
9.390075634810756
 20
3.528928731778279
 10
9.292405766130741
 20
3.404973252418301
 10
9.183932790890764
 20
3.302188488898281
 10
9.067777274930733
 20
3.223533055298275
 10
8.94728081469077
 20
3.171268557498279
 10
8.825909879810751
 20
3.146897858818277
 10
8.707156076490747
 20
3.151123145618271
 10
8.594435752610763
 20
3.183823397618283
 10
8.490991660330763
 20
3.244056571578283
 10
8.399799709570743
 20
3.330089586738267
 10
8.323483304610761
 20
3.439448696058263
 10
8.264237901130741
 20
3.568987472458275
 10
8.256851771290769
 20
3.590185870818288
  0
LWPOLYLINE
  5
476
330
1F
100
AcDbEntity
  8
0
  6
Continuous
 62
     7
370
    25
100
AcDbPolyline
 90
       13
 70
   128
 43
0.0
 10
8.604135454650759
 20
4.940135962658274
 10
8.707156076490747
 20
5.022117591138282
 10
8.825909879810751
 20
5.087814369898296
 10
8.94728081469077
 20
5.126270465898301
 10
9.067777274930733
 20
5.136378949938261
 10
9.183932790890764
 20
5.117850035738285
 10
9.292405766130741
 20
5.07121616745826
 10
9.390075634810756
 20
4.997818332378272
 10
9.474132677250764
 20
4.899768854778301
 10
9.54215863905074
 20
4.779887052498281
 10
9.59219653665076
 20
4.641624034658264
 10
9.622806949770733
 20
4.488956366698289
 10
9.633109220050755
 20
4.326274676818286
  0
LWPOLYLINE
  5
477
330
1F
100
AcDbEntity
  8
0
  6
Continuous
 62
     7
370
    25
100
AcDbPolyline
 90
       34
 70
   128
 43
0.0
 10
8.384636801290753
 20
3.986219880458293
 10
8.394846085090762
 20
4.134912809858292
 10
8.425105046210745
 20
4.28351777541826
 10
8.474319921210735
 20
4.426661026778276
 10
8.540712060410726
 20
4.559170386738287
 10
8.621881859370773
 20
4.676256458538261
 10
8.714895581290761
 20
4.773688243178298
 10
8.816391527730758
 20
4.847942674578291
 10
8.92270133569076
 20
4.896337343178288
 10
9.029982700970776
 20
4.91712357245828
 10
9.134358192530754
 20
4.909547679138285
 10
9.232055403970775
 20
4.873886095538296
 10
9.319543331610759
 20
4.811426547658271
 10
9.393659908170775
 20
4.724426217458301
 10
9.451726358930756
 20
4.616030799098268
 10
9.491644007930744
 20
4.490155619938263
 10
9.511970168570769
 20
4.351353288018287
 10
9.511970168570769
 20
4.204638315578279
 10
9.491644007930744
 20
4.055313237218285
 10
9.451726358930756
 20
3.90877631393829
 10
9.393659908170775
 20
3.770322337418292
 10
9.319543331610759
 20
3.644956444098284
 10
9.232055403970775
 20
3.537209812418268
 10
9.134358192530754
 20
3.450976430898265
 10
9.029982700970776
 20
3.389372958938281
 10
8.92270133569076
 20
3.354625115698297
 10
8.816391527730758
 20
3.347989778338273
 10
8.714895581290761
 20
3.369707193338285
 10
8.621881859370773
 20
3.418990381138257
 10
8.540712060410726
 20
3.494061024698282
 10
8.474319921210735
 20
3.592203284498282
 10
8.425105046210745
 20
3.709871041938299
 10
8.394846085090762
 20
3.84281166517826
 10
8.384636801290753
 20
3.986219880458293
  0
LWPOLYLINE
  5
47B
330
1F
100
AcDbEntity
  8
0
  6
Continuous
 62
     7
370
    25
100
AcDbPolyline
 90
       32
 70
   128
 43
0.0
 10
8.442489356810767
 20
3.999834036098263
 10
8.452923336010769
 20
4.142696486418287
 10
8.48379806257077
 20
4.285111599938261
 10
8.533849605170757
 20
4.421248204738276
 10
8.601028784130733
 20
4.545532480858298
 10
8.682585306730743
 20
4.652877001698271
 10
8.775180220690742
 20
4.738887165538301
 10
8.875022680410751
 20
4.800041679258299
 10
8.978025126410727
 20
4.833836354098281
 10
9.079970634810763
 20
4.838888447138288
 10
9.176685534930754
 20
4.814989398178283
 10
9.264210314730746
 20
4.76312027661828
 10
9.338961675490736
 20
4.685401606378263
 10
9.397879334530756
 20
4.585017365418281
 10
9.438551148690748
 20
4.466076951858269
 10
9.459312054090759
 20
4.333449647178269
 10
9.459312054090759
 20
4.192564584098278
 10
9.438551148690748
 20
4.049190644018267
 10
9.397879334530756
 20
3.909196950258262
 10
9.338961675490736
 20
3.77831468473829
 10
9.264210314730746
 20
3.661903014378282
 10
9.176685534930754
 20
3.564726581458273
 10
9.079970634810763
 20
3.490765367818283
 10
8.978025126410727
 20
3.443045431098283
 10
8.875022680410751
 20
3.423522116498276
 10
8.775180220690742
 20
3.432994370058281
 10
8.682585306730743
 20
3.471073879458288
 10
8.601028784130733
 20
3.536201637698297
 10
8.533849605170757
 20
3.625712563418289
 10
8.48379806257077
 20
3.735940583258297
 10
8.452923336010769
 20
3.862372610818283
 10
8.442489356810767
 20
3.999834036098263
  0
LWPOLYLINE
  5
47C
330
1F
100
AcDbEntity
  8
0
  6
Continuous
 62
     7
370
    25
100
AcDbPolyline
 90
       11
 70
   128
 43
0.0
 10
3.300195096370742
 20
2.1559710336183
 10
3.486985714290739
 20
2.02937539217828
 10
3.67867621945075
 20
1.928162416498281
 10
3.873234626650742
 20
1.85340612429826
 10
4.068598578690739
 20
1.805895920018258
 10
4.262697170370756
 20
1.786137855058257
 10
4.453472904530769
 20
1.794340884818268
 10
4.638903549010763
 20
1.830416969218276
 10
4.817023453810747
 20
1.893984767018281
 10
4.985944440170754
 20
1.984371138258268
 10
5.064496893490741
 20
2.03793952173828
  0
LWPOLYLINE
  5
47D
330
1F
100
AcDbEntity
  8
0
  6
Continuous
 62
     7
370
    25
100
AcDbPolyline
 90
       28
 70
   128
 43
0.0
 10
3.76694095301076
 20
7.051310792778281
 10
3.732520280370749
 20
7.055248608098281
 10
3.539827615370739
 20
7.061034105098258
 10
3.351474692810768
 20
7.038865338658297
 10
3.169458101090754
 20
6.988976890018278
 10
2.995707243970741
 20
6.911897658378279
 10
2.832063991330755
 20
6.808445188738289
 10
2.680262949490753
 20
6.679715809218293
 10
2.541913179690766
 20
6.527073817498262
 10
2.418481392330761
 20
6.35213798301828
 10
2.311275825530742
 20
6.15676211393827
 10
2.221432969050766
 20
5.943017191338299
 10
2.149905236330766
 20
5.713169227218259
 10
2.09745053309075
 20
5.469654904898277
 10
2.064625303050746
 20
5.215054016258278
 10
2.05177746849074
 20
4.95206768365827
 10
2.059042952970742
 20
4.683481837178277
 10
2.086344838490731
 20
4.412145554578273
 10
2.133393786970771
 20
4.140932953698268
 10
2.199690885050756
 20
3.872719426698267
 10
2.284533650130754
 20
3.610347844178278
 10
2.387022563130756
 20
3.356601532338288
 10
2.50607118365076
 20
3.114168261778274
 10
2.640417740370764
 20
2.885617673018259
 10
2.788637880610764
 20
2.673373795458275
 10
2.949160685930735
 20
2.479685570098297
 10
3.12028437193075
 20
2.306605513738276
 10
3.300195096370742
 20
2.1559710336183
  0
SPLINE
  5
4D0
330
1F
100
AcDbEntity
  8
0
  6
Continuous
 62
     7
370
    25
100
AcDbSpline
210
0.0
220
0.0
230
1.0
 70
     9
 71
     3
 72
    43
 73
    39
 74
     0
 42
0.000000001
 43
0.0000000001
 40
0.0
 40
0.0
 40
0.0
 40
0.0
 40
0.0455772190740239
 40
0.0724150495319477
 40
0.0992535452615453
 40
0.126090664285827
 40
0.152928167099365
 40
0.1797733740094669
 40
0.2066184460865289
 40
0.233484876284639
 40
0.2603507227341402
 40
0.2872100498354176
 40
0.3140688516984477
 40
0.3409279804905019
 40
0.3677872517144046
 40
0.3946200174875963
 40
0.4214534161383371
 40
0.4483203625667088
 40
0.4751872150814118
 40
0.5020315093909949
 40
0.5288761220119057
 40
0.5557249341859702
 40
0.5825739187623127
 40
0.6094170465829204
 40
0.6362602836806723
 40
0.6631201937705789
 40
0.6899800057170343
 40
0.716831790300632
 40
0.7436833714486326
 40
0.7705334284132479
 40
0.7973836939621812
 40
0.8242466453513868
 40
0.8511097680275627
 40
0.8779535527844593
 40
0.9047975239010151
 40
0.9316375509702499
 40
0.9584776570915611
 40
1.0
 40
1.0
 40
1.0
 40
1.0
 10
3.919288441923868
 20
5.352618234401859
 30
0.0
 10
3.840939246179004
 20
5.402380936643879
 30
0.0
 10
3.716454668007685
 20
5.481446062180623
 30
0.0
 10
3.539388576428393
 20
5.518871675967943
 30
0.0
 10
3.398892924376923
 20
5.519059846087003
 30
0.0
 10
3.264908744622061
 20
5.484493910893121
 30
0.0
 10
3.141105666040431
 20
5.418320096791262
 30
0.0
 10
3.031413069617798
 20
5.32093768669506
 30
0.0
 10
2.938338610299496
 20
5.196267960820023
 30
0.0
 10
2.865266420140102
 20
5.046800526058206
 30
0.0
 10
2.81347173694678
 20
4.877658568092897
 30
0.0
 10
2.785351349601342
 20
4.692985587836062
 30
0.0
 10
2.780699269321388
 20
4.498549206469306
 30
0.0
 10
2.800695410191224
 20
4.299545973208694
 30
0.0
 10
2.84371975114368
 20
4.101766130552334
 30
0.0
 10
2.909515522809954
 20
3.910990806881073
 30
0.0
 10
2.995316599643416
 20
3.732150000286026
 30
0.0
 10
3.099521044425387
 20
3.570853860792738
 30
0.0
 10
3.218516179846659
 20
3.430993142489313
 30
0.0
 10
3.349399477373481
 20
3.317567180716281
 30
0.0
 10
3.488038607566579
 20
3.232592239023517
 30
0.0
 10
3.630793986551111
 20
3.179705846239954
 30
0.0
 10
3.77352146856387
 20
3.159119481508128
 30
0.0
 10
3.912079223565626
 20
3.172761897302223
 30
0.0
 10
4.042809289603241
 20
3.218890023566416
 30
0.0
 10
4.161608422300957
 20
3.297531790716561
 30
0.0
 10
4.265619892761122
 20
3.405232630833495
 30
0.0
 10
4.351195488141399
 20
3.540042432144844
 30
0.0
 10
4.416717425718047
 20
3.69709953562571
 30
0.0
 10
4.459431447847634
 20
3.872823360653228
 30
0.0
 10
4.479091061345172
 20
4.061592594109697
 30
0.0
 10
4.474129552406964
 20
4.258497959104801
 30
0.0
 10
4.445684645060964
 20
4.45769886919453
 30
0.0
 10
4.393597066404993
 20
4.653429600687729
 30
0.0
 10
4.32036803873521
 20
4.84060196342375
 30
0.0
 10
4.226953630351829
 20
5.012687423379986
 30
0.0
 10
4.097770978601204
 20
5.196844399663149
 30
0.0
 10
3.986731924869673
 20
5.293755725149253
 30
0.0
 10
3.919288441923868
 20
5.352618234401859
 30
0.0
  0
LINE
  5
D8D
330
1F
100
AcDbEntity
  8
0
100
AcDbLine
 10
4.52860645817077
 20
14.39095069237828
 30
0.0
 11
4.500360893444192
 21
11.36795562898072
 31
0.0
  0
ENDSEC
  0
SECTION
  2
OBJECTS
  0
DICTIONARY
  5
C
330
0
100
AcDbDictionary
281
     1
  3
ACAD_CIP_PREVIOUS_PRODUCT_INFO
350
CB5
  3
ACAD_COLOR
350
CA9
  3
ACAD_DETAILVIEWSTYLE
350
CB0
  3
ACAD_GROUP
350
D
  3
ACAD_LAYOUT
350
1A
  3
ACAD_MATERIAL
350
C77
  3
ACAD_MLEADERSTYLE
350
CAC
  3
ACAD_MLINESTYLE
350
17
  3
ACAD_PLOTSETTINGS
350
19
  3
ACAD_PLOTSTYLENAME
350
E
  3
ACAD_SCALELIST
350
47
  3
ACAD_SECTIONVIEWSTYLE
350
CAE
  3
ACAD_TABLESTYLE
350
CAA
  3
ACAD_VISUALSTYLE
350
C90
  3
ACDB_RECOMPOSE_DATA
350
D90
  3
AcDbVariableDictionary
350
CBE
  3
DWGPROPS
350
D91
  0
DICTIONARY
  5
CB6
330
10
100
AcDbDictionary
280
     1
281
     1
  3
ADSK_XREC_LAYER_RECONCILED
360
CB7
  0
DICTIONARY
  5
CB8
330
73
100
AcDbDictionary
280
     1
281
     1
  3
ADSK_XREC_LAYER_RECONCILED
360
CB9
  0
DICTIONARY
  5
CBA
330
74
100
AcDbDictionary
280
     1
281
     1
  3
ADSK_XREC_LAYER_RECONCILED
360
CBB
  0
DICTIONARY
  5
CBC
330
75
100
AcDbDictionary
280
     1
281
     1
  3
ADSK_XREC_LAYER_RECONCILED
360
CBD
  0
XRECORD
  5
CB5
102
{ACAD_REACTORS
330
C
102
}
330
C
100
AcDbXrecord
280
     1
300
ACDLT
300
2013
300
ACDLT_F_S
  0
DICTIONARY
  5
CA9
102
{ACAD_REACTORS
330
C
102
}
330
C
100
AcDbDictionary
281
     1
  0
DICTIONARY
  5
CB0
102
{ACAD_REACTORS
330
C
102
}
330
C
100
AcDbDictionary
281
     1
  3
Metric50
350
CB1
  0
DICTIONARY
  5
D
102
{ACAD_REACTORS
330
C
102
}
330
C
100
AcDbDictionary
281
     1
  0
DICTIONARY
  5
1A
102
{ACAD_REACTORS
330
C
102
}
330
C
100
AcDbDictionary
281
     1
  3
Layout1
350
1E
  3
Layout2
350
26
  3
Model
350
22
  0
DICTIONARY
  5
C77
102
{ACAD_REACTORS
330
C
102
}
330
C
100
AcDbDictionary
281
     1
  3
ByBlock
350
C80
  3
ByLayer
350
C78
  3
Global
350
C88
  0
DICTIONARY
  5
CAC
102
{ACAD_REACTORS
330
C
102
}
330
C
100
AcDbDictionary
281
     1
  3
Standard
350
CAD
  0
DICTIONARY
  5
17
102
{ACAD_REACTORS
330
C
102
}
330
C
100
AcDbDictionary
281
     1
  3
Standard
350
18
  0
DICTIONARY
  5
19
102
{ACAD_REACTORS
330
C
102
}
330
C
100
AcDbDictionary
281
     1
  0
ACDBDICTIONARYWDFLT
  5
E
102
{ACAD_REACTORS
330
C
102
}
330
C
100
AcDbDictionary
281
     1
  3
Normal
350
F
100
AcDbDictionaryWithDefault
340
F
  0
DICTIONARY
  5
47
102
{ACAD_REACTORS
330
C
102
}
330
C
100
AcDbDictionary
281
     1
  3
A0
350
48
  3
A1
350
49
  3
A2
350
4A
  3
A3
350
4B
  3
A4
350
4C
  3
A5
350
4D
  3
A6
350
4E
  3
A7
350
4F
  3
A8
350
50
  3
A9
350
51
  3
B0
350
52
  3
B1
350
53
  3
B2
350
54
  3
B3
350
55
  3
B4
350
56
  3
B5
350
57
  3
B6
350
58
  3
B7
350
59
  3
B8
350
5A
  3
B9
350
5B
  3
C0
350
5C
  3
C1
350
5D
  3
C2
350
5E
  3
C3
350
5F
  3
C4
350
60
  3
C5
350
61
  3
C6
350
62
  3
C7
350
63
  3
C8
350
64
  3
C9
350
65
  3
D0
350
66
  3
D1
350
67
  3
D2
350
68
  0
DICTIONARY
  5
CAE
102
{ACAD_REACTORS
330
C
102
}
330
C
100
AcDbDictionary
281
     1
  3
Metric50
350
CAF
  0
DICTIONARY
  5
CAA
102
{ACAD_REACTORS
330
C
102
}
330
C
100
AcDbDictionary
281
     1
  3
Standard
350
CAB
  0
DICTIONARY
  5
C90
102
{ACAD_REACTORS
330
C
102
}
330
C
100
AcDbDictionary
281
     1
  3
2dWireframe
350
C96
  3
Basic
350
C95
  3
Brighten
350
C9C
  3
ColorChange
350
CA0
  3
Conceptual
350
C99
  3
Dim
350
C9B
  3
EdgeColorOff
350
CA8
  3
Facepattern
350
C9F
  3
Flat
350
C91
  3
FlatWithEdges
350
C92
  3
Gouraud
350
C93
  3
GouraudWithEdges
350
C94
  3
Hidden
350
C98
  3
JitterOff
350
CA6
  3
Linepattern
350
C9E
  3
OverhangOff
350
CA7
  3
Realistic
350
C9A
  3
Shaded
350
CA5
  3
Shaded with edges
350
CA4
  3
Shades of Gray
350
CA1
  3
Sketchy
350
CA2
  3
Thicken
350
C9D
  3
Wireframe
350
C97
  3
X-Ray
350
CA3
  0
XRECORD
  5
D90
102
{ACAD_REACTORS
330
C
102
}
330
C
100
AcDbXrecord
280
     1
 90
        1
330
CAB
  0
DICTIONARY
  5
CBE
102
{ACAD_REACTORS
330
C
102
}
330
C
100
AcDbDictionary
281
     1
  3
CANNOSCALE
350
CC3
  3
CMLEADERSTYLE
350
CC0
  3
CTABLESTYLE
350
CBF
  3
CVIEWDETAILSTYLE
350
CC1
  3
CVIEWSECTIONSTYLE
350
CC2
  3
DIMASSOC
350
CC6
  3
INDEXCTL
350
CC5
  3
SORTENTS
350
CC4
  3
XCLIPFRAME
350
CC7
  0
XRECORD
  5
D91
102
{ACAD_REACTORS
330
C
102
}
330
C
100
AcDbXrecord
280
     1
  1
DWGPROPS COOKIE
  2

  3

  4

  6

  7

  8
j00675
  9

300
=
301
=
302
=
303
=
304
=
305
=
306
=
307
=
308
=
309
=
 40
0.0101929282407408
 41
2458044.510310046
 42
2458044.523668518
  1

 90
        0
  0
XRECORD
  5
CB7
102
{ACAD_REACTORS
330
CB6
102
}
330
CB6
100
AcDbXrecord
280
     1
290
     1
  0
XRECORD
  5
CB9
102
{ACAD_REACTORS
330
CB8
102
}
330
CB8
100
AcDbXrecord
280
     1
290
     1
  0
XRECORD
  5
CBB
102
{ACAD_REACTORS
330
CBA
102
}
330
CBA
100
AcDbXrecord
280
     1
290
     1
  0
XRECORD
  5
CBD
102
{ACAD_REACTORS
330
CBC
102
}
330
CBC
100
AcDbXrecord
280
     1
290
     1
  0
ACDBDETAILVIEWSTYLE
  5
CB1
102
{ACAD_REACTORS
330
CB0
102
}
330
CB0
100
AcDbModelDocViewStyle
 70
     0
  3
Metric50
290
     0
100
AcDbDetailViewStyle
 70
     0
 71
     0
 90
        3
 71
     1
340
11
 40
5.0
340
0
 40
5.0
300

 40
0.0
280
     1
 71
     2
340
16
 90
       25
 71
     3
340
11
 40
5.0
 90
        0
 40
15.0
 90
        1
300
%<\AcVar ViewDetailId>% (%<\AcVar ViewScale \f "%sn">%)
 71
     4
340
16
 90
       25
340
16
 90
       25
280
     0
  0
LAYOUT
  5
1E
102
{ACAD_XDICTIONARY
360
D92
102
}
102
{ACAD_REACTORS
330
1A
102
}
330
1A
100
AcDbPlotSettings
  1

  2
none_device
  4

  6

 40
0.0
 41
0.0
 42
0.0
 43
0.0
 44
0.0
 45
0.0
 46
0.0
 47
0.0
 48
0.0
 49
0.0
140
0.0
141
0.0
142
1.0
143
1.0
 70
   688
 72
     1
 73
     0
 74
     5
  7

 75
    16
147
1.0
148
0.0
149
0.0
100
AcDbLayout
  1
Layout1
 70
     1
 71
     1
 10
0.0
 20
0.0
 11
420.0
 21
297.0
 12
0.0
 22
0.0
 32
0.0
 14
1.000000000000000E+20
 24
1.000000000000000E+20
 34
1.000000000000000E+20
 15
-1.000000000000000E+20
 25
-1.000000000000000E+20
 35
-1.000000000000000E+20
146
0.0
 13
0.0
 23
0.0
 33
0.0
 16
1.0
 26
0.0
 36
0.0
 17
0.0
 27
1.0
 37
0.0
 76
     0
330
1B
  0
LAYOUT
  5
26
102
{ACAD_XDICTIONARY
360
D96
102
}
102
{ACAD_REACTORS
330
1A
102
}
330
1A
100
AcDbPlotSettings
  1

  2
none_device
  4

  6

 40
0.0
 41
0.0
 42
0.0
 43
0.0
 44
0.0
 45
0.0
 46
0.0
 47
0.0
 48
0.0
 49
0.0
140
0.0
141
0.0
142
1.0
143
1.0
 70
   688
 72
     1
 73
     0
 74
     5
  7

 75
    16
147
1.0
148
0.0
149
0.0
100
AcDbLayout
  1
Layout2
 70
     1
 71
     2
 10
0.0
 20
0.0
 11
0.0
 21
0.0
 12
0.0
 22
0.0
 32
0.0
 14
0.0
 24
0.0
 34
0.0
 15
0.0
 25
0.0
 35
0.0
146
0.0
 13
0.0
 23
0.0
 33
0.0
 16
1.0
 26
0.0
 36
0.0
 17
0.0
 27
1.0
 37
0.0
 76
     0
330
23
  0
LAYOUT
  5
22
102
{ACAD_XDICTIONARY
360
D94
102
}
102
{ACAD_REACTORS
330
1A
102
}
330
1A
100
AcDbPlotSettings
  1

  2
none_device
  4
Letter_(8.50_x_11.00_Inches)
  6

 40
6.349999999999999
 41
6.349999999999999
 42
6.350005079999999
 43
6.350005079999999
 44
215.9
 45
279.4
 46
0.0
 47
0.0
 48
0.0
 49
0.0
140
0.0
141
0.0
142
1.0
143
1.0
 70
  1712
 72
     1
 73
     0
 74
     0
  7

 75
     0
147
1.0
148
0.0
149
0.0
100
AcDbLayout
  1
Model
 70
     1
 71
     0
 10
0.0
 20
0.0
 11
420.0
 21
297.0
 12
0.0
 22
0.0
 32
0.0
 14
0.0
 24
0.0
 34
0.0
 15
420.0
 25
297.0
 35
0.0
146
0.0
 13
0.0
 23
0.0
 33
0.0
 16
1.0
 26
0.0
 36
0.0
 17
0.0
 27
1.0
 37
0.0
 76
     0
330
1F
331
29
  0
MATERIAL
  5
C80
102
{ACAD_XDICTIONARY
360
C81
102
}
102
{ACAD_REACTORS
330
C77
102
}
330
C77
100
AcDbMaterial
  1
ByBlock
 72
     0
 43
0.0008202099737533
 43
0.0
 43
0.0
 43
0.0
 43
0.0
 43
0.0008202099737533
 43
0.0
 43
0.0
 43
0.0
 43
0.0
 43
1.0
 43
0.0
 43
0.0
 43
0.0
 43
0.0
 43
1.0
 77
     0
 47
0.0008202099737533
 47
0.0
 47
0.0
 47
0.0
 47
0.0
 47
0.0008202099737533
 47
0.0
 47
0.0
 47
0.0
 47
0.0
 47
1.0
 47
0.0
 47
0.0
 47
0.0
 47
0.0
 47
1.0
171
     0
 49
0.0008202099737533
 49
0.0
 49
0.0
 49
0.0
 49
0.0
 49
0.0008202099737533
 49
0.0
 49
0.0
 49
0.0
 49
0.0
 49
1.0
 49
0.0
 49
0.0
 49
0.0
 49
0.0
 49
1.0
175
     0
142
0.0008202099737533
142
0.0
142
0.0
142
0.0
142
0.0
142
0.0008202099737533
142
0.0
142
0.0
142
0.0
142
0.0
142
1.0
142
0.0
142
0.0
142
0.0
142
0.0
142
1.0
179
     0
144
0.0008202099737533
144
0.0
144
0.0
144
0.0
144
0.0
144
0.0008202099737533
144
0.0
144
0.0
144
0.0
144
0.0
144
1.0
144
0.0
144
0.0
144
0.0
144
0.0
144
1.0
147
0.0008202099737533
147
0.0
147
0.0
147
0.0
147
0.0
147
0.0008202099737533
147
0.0
147
0.0
147
0.0
147
0.0
147
1.0
147
0.0
147
0.0
147
0.0
147
0.0
147
1.0
  0
MATERIAL
  5
C78
102
{ACAD_XDICTIONARY
360
C79
102
}
102
{ACAD_REACTORS
330
C77
102
}
330
C77
100
AcDbMaterial
  1
ByLayer
 72
     0
 43
0.0008202099737533
 43
0.0
 43
0.0
 43
0.0
 43
0.0
 43
0.0008202099737533
 43
0.0
 43
0.0
 43
0.0
 43
0.0
 43
1.0
 43
0.0
 43
0.0
 43
0.0
 43
0.0
 43
1.0
 77
     0
 47
0.0008202099737533
 47
0.0
 47
0.0
 47
0.0
 47
0.0
 47
0.0008202099737533
 47
0.0
 47
0.0
 47
0.0
 47
0.0
 47
1.0
 47
0.0
 47
0.0
 47
0.0
 47
0.0
 47
1.0
171
     0
 49
0.0008202099737533
 49
0.0
 49
0.0
 49
0.0
 49
0.0
 49
0.0008202099737533
 49
0.0
 49
0.0
 49
0.0
 49
0.0
 49
1.0
 49
0.0
 49
0.0
 49
0.0
 49
0.0
 49
1.0
175
     0
142
0.0008202099737533
142
0.0
142
0.0
142
0.0
142
0.0
142
0.0008202099737533
142
0.0
142
0.0
142
0.0
142
0.0
142
1.0
142
0.0
142
0.0
142
0.0
142
0.0
142
1.0
179
     0
144
0.0008202099737533
144
0.0
144
0.0
144
0.0
144
0.0
144
0.0008202099737533
144
0.0
144
0.0
144
0.0
144
0.0
144
1.0
144
0.0
144
0.0
144
0.0
144
0.0
144
1.0
147
0.0008202099737533
147
0.0
147
0.0
147
0.0
147
0.0
147
0.0008202099737533
147
0.0
147
0.0
147
0.0
147
0.0
147
1.0
147
0.0
147
0.0
147
0.0
147
0.0
147
1.0
  0
MATERIAL
  5
C88
102
{ACAD_XDICTIONARY
360
C89
102
}
102
{ACAD_REACTORS
330
C77
102
}
330
C77
100
AcDbMaterial
  1
Global
 72
     0
 43
0.0008202099737533
 43
0.0
 43
0.0
 43
0.0
 43
0.0
 43
0.0008202099737533
 43
0.0
 43
0.0
 43
0.0
 43
0.0
 43
1.0
 43
0.0
 43
0.0
 43
0.0
 43
0.0
 43
1.0
 77
     0
 47
0.0008202099737533
 47
0.0
 47
0.0
 47
0.0
 47
0.0
 47
0.0008202099737533
 47
0.0
 47
0.0
 47
0.0
 47
0.0
 47
1.0
 47
0.0
 47
0.0
 47
0.0
 47
0.0
 47
1.0
171
     0
 49
0.0008202099737533
 49
0.0
 49
0.0
 49
0.0
 49
0.0
 49
0.0008202099737533
 49
0.0
 49
0.0
 49
0.0
 49
0.0
 49
1.0
 49
0.0
 49
0.0
 49
0.0
 49
0.0
 49
1.0
175
     0
142
0.0008202099737533
142
0.0
142
0.0
142
0.0
142
0.0
142
0.0008202099737533
142
0.0
142
0.0
142
0.0
142
0.0
142
1.0
142
0.0
142
0.0
142
0.0
142
0.0
142
1.0
179
     0
144
0.0008202099737533
144
0.0
144
0.0
144
0.0
144
0.0
144
0.0008202099737533
144
0.0
144
0.0
144
0.0
144
0.0
144
1.0
144
0.0
144
0.0
144
0.0
144
0.0
144
1.0
147
0.0008202099737533
147
0.0
147
0.0
147
0.0
147
0.0
147
0.0008202099737533
147
0.0
147
0.0
147
0.0
147
0.0
147
1.0
147
0.0
147
0.0
147
0.0
147
0.0
147
1.0
  0
MLEADERSTYLE
  5
CAD
102
{ACAD_REACTORS
330
CAC
102
}
330
CAC
100
AcDbMLeaderStyle
170
     2
171
     1
172
     0
 90
        2
 40
0.0
 41
0.0
173
     1
 91
-1056964608
340
14
 92
       -2
290
     1
 42
2.0
291
     1
 43
0.36
  3
Standard
 44
4.0
300

342
11
174
     1
178
     6
175
     1
176
     0
 93
-1056964608
 45
4.0
292
     0
297
     0
 46
4.0
 94
-1056964608
 47
1.0
 49
1.0
140
1.0
293
     1
141
0.0
294
     1
177
     0
142
1.0
295
     0
296
     0
143
0.125
1001
ACAD_MLEADERVER
1070
     2
  0
MLINESTYLE
  5
18
102
{ACAD_REACTORS
330
17
102
}
330
17
100
AcDbMlineStyle
  2
STANDARD
 70
     0
  3

 62
   256
 51
90.0
 52
90.0
 71
     2
 49
0.5
 62
   256
  6
BYLAYER
 49
-0.5
 62
   256
  6
BYLAYER
  0
ACDBPLACEHOLDER
  5
F
102
{ACAD_REACTORS
330
E
102
}
330
E
  0
SCALE
  5
48
102
{ACAD_REACTORS
330
47
102
}
330
47
100
AcDbScale
 70
     0
300
1:1
140
1.0
141
1.0
290
     1
  0
SCALE
  5
49
102
{ACAD_REACTORS
330
47
102
}
330
47
100
AcDbScale
 70
     0
300
1:2
140
1.0
141
2.0
290
     0
  0
SCALE
  5
4A
102
{ACAD_REACTORS
330
47
102
}
330
47
100
AcDbScale
 70
     0
300
1:4
140
1.0
141
4.0
290
     0
  0
SCALE
  5
4B
102
{ACAD_REACTORS
330
47
102
}
330
47
100
AcDbScale
 70
     0
300
1:5
140
1.0
141
5.0
290
     0
  0
SCALE
  5
4C
102
{ACAD_REACTORS
330
47
102
}
330
47
100
AcDbScale
 70
     0
300
1:8
140
1.0
141
8.0
290
     0
  0
SCALE
  5
4D
102
{ACAD_REACTORS
330
47
102
}
330
47
100
AcDbScale
 70
     0
300
1:10
140
1.0
141
10.0
290
     0
  0
SCALE
  5
4E
102
{ACAD_REACTORS
330
47
102
}
330
47
100
AcDbScale
 70
     0
300
1:16
140
1.0
141
16.0
290
     0
  0
SCALE
  5
4F
102
{ACAD_REACTORS
330
47
102
}
330
47
100
AcDbScale
 70
     0
300
1:20
140
1.0
141
20.0
290
     0
  0
SCALE
  5
50
102
{ACAD_REACTORS
330
47
102
}
330
47
100
AcDbScale
 70
     0
300
1:30
140
1.0
141
30.0
290
     0
  0
SCALE
  5
51
102
{ACAD_REACTORS
330
47
102
}
330
47
100
AcDbScale
 70
     0
300
1:40
140
1.0
141
40.0
290
     0
  0
SCALE
  5
52
102
{ACAD_REACTORS
330
47
102
}
330
47
100
AcDbScale
 70
     0
300
1:50
140
1.0
141
50.0
290
     0
  0
SCALE
  5
53
102
{ACAD_REACTORS
330
47
102
}
330
47
100
AcDbScale
 70
     0
300
1:100
140
1.0
141
100.0
290
     0
  0
SCALE
  5
54
102
{ACAD_REACTORS
330
47
102
}
330
47
100
AcDbScale
 70
     0
300
2:1
140
2.0
141
1.0
290
     0
  0
SCALE
  5
55
102
{ACAD_REACTORS
330
47
102
}
330
47
100
AcDbScale
 70
     0
300
4:1
140
4.0
141
1.0
290
     0
  0
SCALE
  5
56
102
{ACAD_REACTORS
330
47
102
}
330
47
100
AcDbScale
 70
     0
300
8:1
140
8.0
141
1.0
290
     0
  0
SCALE
  5
57
102
{ACAD_REACTORS
330
47
102
}
330
47
100
AcDbScale
 70
     0
300
10:1
140
10.0
141
1.0
290
     0
  0
SCALE
  5
58
102
{ACAD_REACTORS
330
47
102
}
330
47
100
AcDbScale
 70
     0
300
100:1
140
100.0
141
1.0
290
     0
  0
SCALE
  5
59
102
{ACAD_REACTORS
330
47
102
}
330
47
100
AcDbScale
 70
     0
300
1/128" = 1'-0"
140
0.0078125
141
12.0
290
     0
  0
SCALE
  5
5A
102
{ACAD_REACTORS
330
47
102
}
330
47
100
AcDbScale
 70
     0
300
1/64" = 1'-0"
140
0.015625
141
12.0
290
     0
  0
SCALE
  5
5B
102
{ACAD_REACTORS
330
47
102
}
330
47
100
AcDbScale
 70
     0
300
1/32" = 1'-0"
140
0.03125
141
12.0
290
     0
  0
SCALE
  5
5C
102
{ACAD_REACTORS
330
47
102
}
330
47
100
AcDbScale
 70
     0
300
1/16" = 1'-0"
140
0.0625
141
12.0
290
     0
  0
SCALE
  5
5D
102
{ACAD_REACTORS
330
47
102
}
330
47
100
AcDbScale
 70
     0
300
3/32" = 1'-0"
140
0.09375
141
12.0
290
     0
  0
SCALE
  5
5E
102
{ACAD_REACTORS
330
47
102
}
330
47
100
AcDbScale
 70
     0
300
1/8" = 1'-0"
140
0.125
141
12.0
290
     0
  0
SCALE
  5
5F
102
{ACAD_REACTORS
330
47
102
}
330
47
100
AcDbScale
 70
     0
300
3/16" = 1'-0"
140
0.1875
141
12.0
290
     0
  0
SCALE
  5
60
102
{ACAD_REACTORS
330
47
102
}
330
47
100
AcDbScale
 70
     0
300
1/4" = 1'-0"
140
0.25
141
12.0
290
     0
  0
SCALE
  5
61
102
{ACAD_REACTORS
330
47
102
}
330
47
100
AcDbScale
 70
     0
300
3/8" = 1'-0"
140
0.375
141
12.0
290
     0
  0
SCALE
  5
62
102
{ACAD_REACTORS
330
47
102
}
330
47
100
AcDbScale
 70
     0
300
1/2" = 1'-0"
140
0.5
141
12.0
290
     0
  0
SCALE
  5
63
102
{ACAD_REACTORS
330
47
102
}
330
47
100
AcDbScale
 70
     0
300
3/4" = 1'-0"
140
0.75
141
12.0
290
     0
  0
SCALE
  5
64
102
{ACAD_REACTORS
330
47
102
}
330
47
100
AcDbScale
 70
     0
300
1" = 1'-0"
140
1.0
141
12.0
290
     0
  0
SCALE
  5
65
102
{ACAD_REACTORS
330
47
102
}
330
47
100
AcDbScale
 70
     0
300
1-1/2" = 1'-0"
140
1.5
141
12.0
290
     0
  0
SCALE
  5
66
102
{ACAD_REACTORS
330
47
102
}
330
47
100
AcDbScale
 70
     0
300
3" = 1'-0"
140
3.0
141
12.0
290
     0
  0
SCALE
  5
67
102
{ACAD_REACTORS
330
47
102
}
330
47
100
AcDbScale
 70
     0
300
6" = 1'-0"
140
6.0
141
12.0
290
     0
  0
SCALE
  5
68
102
{ACAD_REACTORS
330
47
102
}
330
47
100
AcDbScale
 70
     0
300
1'-0" = 1'-0"
140
12.0
141
12.0
290
     0
  0
ACDBSECTIONVIEWSTYLE
  5
CAF
102
{ACAD_REACTORS
330
CAE
102
}
330
CAE
100
AcDbModelDocViewStyle
 70
     0
  3
Metric50
290
     0
100
AcDbSectionViewStyle
 70
     0
 71
     0
 90
      102
 71
     1
340
11
 40
5.0
340
0
340
0
 40
5.0
300
I, O, Q, S, X, Z
 40
10.0
 90
        0
 40
2.5
 90
        0
 71
     2
340
16
 90
       25
340
16
 90
       50
 40
5.0
 40
2.5
 40
5.0
 71
     3
340
11
 40
5.0
 90
        0
 40
15.0
 90
        1
300
%<\AcVar ViewSectionStartId>%-%<\AcVar ViewSectionEndId>% (%<\AcVar ViewScale \f "%sn">%)
 71
     4
300
ANSI31
 40
1.0
 90
        0
290
     0
290
     0
 90
        6
 40
0.0
 40
1.570796326794896
 40
0.2617993877991494
 40
1.308996938995747
 40
-0.2617993877991494
 40
1.832595714594046
  0
TABLESTYLE
  5
CAB
102
{ACAD_XDICTIONARY
360
D8E
102
}
102
{ACAD_REACTORS
330
CAA
102
}
330
CAA
100
AcDbTableStyle
  3
Standard
 70
     0
 71
     0
 40
1.5
 41
1.5
280
     0
281
     0
  7
Standard
140
4.5
170
     2
 62
     0
 63
     7
283
     0
274
    -2
284
     1
 64
     0
275
    -2
285
     1
 65
     0
276
    -2
286
     1
 66
     0
277
    -2
287
     1
 67
     0
278
    -2
288
     1
 68
     0
279
    -2
289
     1
 69
     0
  7
Standard
140
6.0
170
     5
 62
     0
 63
     7
283
     0
274
    -2
284
     1
 64
     0
275
    -2
285
     1
 65
     0
276
    -2
286
     1
 66
     0
277
    -2
287
     1
 67
     0
278
    -2
288
     1
 68
     0
279
    -2
289
     1
 69
     0
  7
Standard
140
4.5
170
     5
 62
     0
 63
     7
283
     0
274
    -2
284
     1
 64
     0
275
    -2
285
     1
 65
     0
276
    -2
286
     1
 66
     0
277
    -2
287
     1
 67
     0
278
    -2
288
     1
 68
     0
279
    -2
289
     1
 69
     0
  0
VISUALSTYLE
  5
C96
102
{ACAD_XDICTIONARY
360
DA5
102
}
102
{ACAD_REACTORS
330
C90
102
}
330
C90
100
AcDbVisualStyle
  2
2dWireframe
 70
     4
 71
     0
 72
     2
 73
     0
 90
        0
 40
-0.6
 41
-30.0
 62
     5
 63
     7
 74
     1
 91
        4
 64
     7
 65
   257
 75
     1
175
     1
 42
1.0
 92
        0
 66
   257
 43
1.0
 76
     1
 77
     6
 78
     2
 67
     7
 79
     5
170
     0
171
     0
290
     0
174
     0
 93
        1
 44
0.0
173
     0
291
     0
 45
0.0
1001
ACAD
1000
AcDbSavedByObjectVersion
1070
     0
  0
VISUALSTYLE
  5
C95
102
{ACAD_XDICTIONARY
360
DA3
102
}
102
{ACAD_REACTORS
330
C90
102
}
330
C90
100
AcDbVisualStyle
  2
Basic
 70
     7
 71
     1
 72
     0
 73
     1
 90
        0
 40
-0.6
 41
-30.0
 62
     5
 63
     7
 74
     0
 91
        4
 64
     7
 65
   257
 75
     1
175
     1
 42
1.0
 92
        8
 66
     7
 43
1.0
 76
     1
 77
     6
 78
     2
 67
     7
 79
     5
170
     0
171
     0
290
     0
174
     0
 93
        1
 44
0.0
173
     0
291
     1
 45
0.0
1001
ACAD
1000
AcDbSavedByObjectVersion
1070
     0
  0
VISUALSTYLE
  5
C9C
102
{ACAD_XDICTIONARY
360
DB1
102
}
102
{ACAD_REACTORS
330
C90
102
}
330
C90
100
AcDbVisualStyle
  2
Brighten
 70
    12
 71
     2
 72
     2
 73
     0
 90
        0
 40
-0.6
 41
-30.0
 62
     5
 63
     7
 74
     1
 91
        4
 64
     7
 65
   257
 75
     1
175
     1
 42
1.0
 92
        8
 66
     7
 43
1.0
 76
     1
 77
     6
 78
     2
 67
     7
 79
     5
170
     0
171
     0
290
     0
174
     0
 93
        1
 44
50.0
173
     0
291
     1
 45
0.0
1001
ACAD
1000
AcDbSavedByObjectVersion
1070
     0
  0
VISUALSTYLE
  5
CA0
102
{ACAD_XDICTIONARY
360
DB9
102
}
102
{ACAD_REACTORS
330
C90
102
}
330
C90
100
AcDbVisualStyle
  2
ColorChange
 70
    16
 71
     2
 72
     2
 73
     3
 90
        0
 40
-0.6
 41
-30.0
 62
     5
 63
     8
 74
     1
 91
        4
 64
     7
 65
   257
 75
     1
175
     1
 42
1.0
 92
        8
 66
     8
 43
1.0
 76
     1
 77
     6
 78
     2
 67
     7
 79
     5
170
     0
171
     0
290
     0
174
     0
 93
        1
 44
0.0
173
     0
291
     1
 45
0.0
1001
ACAD
1000
AcDbSavedByObjectVersion
1070
     0
  0
VISUALSTYLE
  5
C99
102
{ACAD_XDICTIONARY
360
DAB
102
}
102
{ACAD_REACTORS
330
C90
102
}
330
C90
100
AcDbVisualStyle
  2
Conceptual
 70
     9
 71
     3
 72
     2
 73
     0
 90
        0
 40
-0.6
 41
-30.0
 62
     5
 63
     7
 74
     2
 91
        2
 64
     7
 65
   257
 75
     1
175
     1
 42
179.0
 92
        8
 66
     7
 43
1.0
 76
     1
 77
     6
 78
     2
 67
     7
 79
     3
170
     0
171
     0
290
     0
174
     0
 93
        1
 44
0.0
173
     0
291
     0
 45
0.0
1001
ACAD
1000
AcDbSavedByObjectVersion
1070
     0
  0
VISUALSTYLE
  5
C9B
102
{ACAD_XDICTIONARY
360
DAF
102
}
102
{ACAD_REACTORS
330
C90
102
}
330
C90
100
AcDbVisualStyle
  2
Dim
 70
    11
 71
     2
 72
     2
 73
     0
 90
        0
 40
-0.6
 41
-30.0
 62
     5
 63
     7
 74
     1
 91
        4
 64
     7
 65
   257
 75
     1
175
     1
 42
1.0
 92
        8
 66
     7
 43
1.0
 76
     1
 77
     6
 78
     2
 67
     7
 79
     5
170
     0
171
     0
290
     0
174
     0
 93
        1
 44
-50.0
173
     0
291
     1
 45
0.0
1001
ACAD
1000
AcDbSavedByObjectVersion
1070
     0
  0
VISUALSTYLE
  5
CA8
102
{ACAD_XDICTIONARY
360
DC9
102
}
102
{ACAD_REACTORS
330
C90
102
}
330
C90
100
AcDbVisualStyle
  2
EdgeColorOff
 70
    22
 71
     2
 72
     2
 73
     0
 90
        0
 40
-0.6
 41
-30.0
 62
     5
 63
     7
 74
     1
 91
        4
 64
     7
 65
   257
 75
     1
175
     1
 42
1.0
 92
        8
 66
     7
 43
1.0
 76
     1
 77
     6
 78
     2
 67
     7
 79
     5
170
     0
171
     0
290
     0
174
     0
 93
        1
 44
0.0
173
     0
291
     1
 45
0.0
1001
ACAD
1000
AcDbSavedByObjectVersion
1070
     0
  0
VISUALSTYLE
  5
C9F
102
{ACAD_XDICTIONARY
360
DB7
102
}
102
{ACAD_REACTORS
330
C90
102
}
330
C90
100
AcDbVisualStyle
  2
Facepattern
 70
    15
 71
     2
 72
     2
 73
     0
 90
        0
 40
-0.6
 41
-30.0
 62
     5
 63
     7
 74
     1
 91
        4
 64
     7
 65
   257
 75
     1
175
     1
 42
1.0
 92
        8
 66
     7
 43
1.0
 76
     1
 77
     6
 78
     2
 67
     7
 79
     5
170
     0
171
     0
290
     0
174
     0
 93
        1
 44
0.0
173
     0
291
     1
 45
0.0
1001
ACAD
1000
AcDbSavedByObjectVersion
1070
     0
  0
VISUALSTYLE
  5
C91
102
{ACAD_XDICTIONARY
360
D9B
102
}
102
{ACAD_REACTORS
330
C90
102
}
330
C90
100
AcDbVisualStyle
  2
Flat
 70
     0
 71
     2
 72
     1
 73
     1
 90
        2
 40
-0.6
 41
30.0
 62
     5
 63
     7
 74
     0
 91
        0
 64
     7
 65
   257
 75
     1
175
     1
 42
1.0
 92
        8
 66
     7
 43
1.0
 76
     1
 77
     6
 78
     2
 67
     7
 79
     5
170
     0
171
     0
290
     0
174
     0
 93
       13
 44
0.0
173
     0
291
     1
 45
0.0
1001
ACAD
1000
AcDbSavedByObjectVersion
1070
     0
  0
VISUALSTYLE
  5
C92
102
{ACAD_XDICTIONARY
360
D9D
102
}
102
{ACAD_REACTORS
330
C90
102
}
330
C90
100
AcDbVisualStyle
  2
FlatWithEdges
 70
     1
 71
     2
 72
     1
 73
     1
 90
        2
 40
-0.6
 41
30.0
 62
     5
 63
     7
 74
     1
 91
        0
 64
     7
 65
   257
 75
     1
175
     1
 42
1.0
 92
        0
 66
   257
 43
1.0
 76
     1
 77
     6
 78
     2
 67
     7
 79
     5
170
     0
171
     0
290
     0
174
     0
 93
       13
 44
0.0
173
     0
291
     1
 45
0.0
1001
ACAD
1000
AcDbSavedByObjectVersion
1070
     0
  0
VISUALSTYLE
  5
C93
102
{ACAD_XDICTIONARY
360
D9F
102
}
102
{ACAD_REACTORS
330
C90
102
}
330
C90
100
AcDbVisualStyle
  2
Gouraud
 70
     2
 71
     2
 72
     2
 73
     1
 90
        2
 40
-0.6
 41
30.0
 62
     5
 63
     7
 74
     0
 91
        0
 64
     7
 65
   257
 75
     1
175
     1
 42
1.0
 92
        0
 66
     7
 43
1.0
 76
     1
 77
     6
 78
     2
 67
     7
 79
     5
170
     0
171
     0
290
     0
174
     0
 93
       13
 44
0.0
173
     0
291
     1
 45
0.0
1001
ACAD
1000
AcDbSavedByObjectVersion
1070
     0
  0
VISUALSTYLE
  5
C94
102
{ACAD_XDICTIONARY
360
DA1
102
}
102
{ACAD_REACTORS
330
C90
102
}
330
C90
100
AcDbVisualStyle
  2
GouraudWithEdges
 70
     3
 71
     2
 72
     2
 73
     1
 90
        2
 40
-0.6
 41
30.0
 62
     5
 63
     7
 74
     1
 91
        0
 64
     7
 65
   257
 75
     1
175
     1
 42
1.0
 92
        0
 66
   257
 43
1.0
 76
     1
 77
     6
 78
     2
 67
     7
 79
     5
170
     0
171
     0
290
     0
174
     0
 93
       13
 44
0.0
173
     0
291
     1
 45
0.0
1001
ACAD
1000
AcDbSavedByObjectVersion
1070
     0
  0
VISUALSTYLE
  5
C98
102
{ACAD_XDICTIONARY
360
DA9
102
}
102
{ACAD_REACTORS
330
C90
102
}
330
C90
100
AcDbVisualStyle
  2
Hidden
 70
     6
 71
     1
 72
     2
 73
     2
 90
        0
 40
-0.6
 41
-30.0
 62
     5
 63
     7
 74
     2
 91
        2
 64
     7
 65
   257
 75
     2
175
     1
 42
40.0
 92
        0
 66
   257
 43
1.0
 76
     1
 77
     6
 78
     2
 67
     7
 79
     3
170
     0
171
     0
290
     0
174
     0
 93
        1
 44
0.0
173
     0
291
     0
 45
0.0
1001
ACAD
1000
AcDbSavedByObjectVersion
1070
     0
  0
VISUALSTYLE
  5
CA6
102
{ACAD_XDICTIONARY
360
DC5
102
}
102
{ACAD_REACTORS
330
C90
102
}
330
C90
100
AcDbVisualStyle
  2
JitterOff
 70
    20
 71
     2
 72
     2
 73
     0
 90
        0
 40
-0.6
 41
-30.0
 62
     5
 63
     7
 74
     1
 91
        4
 64
     7
 65
   257
 75
     1
175
     1
 42
1.0
 92
       10
 66
     7
 43
1.0
 76
     1
 77
     6
 78
     2
 67
     7
 79
     5
170
     0
171
     0
290
     0
174
     0
 93
        1
 44
0.0
173
     0
291
     1
 45
0.0
1001
ACAD
1000
AcDbSavedByObjectVersion
1070
     0
  0
VISUALSTYLE
  5
C9E
102
{ACAD_XDICTIONARY
360
DB5
102
}
102
{ACAD_REACTORS
330
C90
102
}
330
C90
100
AcDbVisualStyle
  2
Linepattern
 70
    14
 71
     2
 72
     2
 73
     0
 90
        0
 40
-0.6
 41
-30.0
 62
     5
 63
     7
 74
     1
 91
        4
 64
     7
 65
   257
 75
     7
175
     7
 42
1.0
 92
        8
 66
     7
 43
1.0
 76
     1
 77
     6
 78
     2
 67
     7
 79
     5
170
     0
171
     0
290
     0
174
     0
 93
        1
 44
0.0
173
     0
291
     1
 45
0.0
1001
ACAD
1000
AcDbSavedByObjectVersion
1070
     0
  0
VISUALSTYLE
  5
CA7
102
{ACAD_XDICTIONARY
360
DC7
102
}
102
{ACAD_REACTORS
330
C90
102
}
330
C90
100
AcDbVisualStyle
  2
OverhangOff
 70
    21
 71
     2
 72
     2
 73
     0
 90
        0
 40
-0.6
 41
-30.0
 62
     5
 63
     7
 74
     1
 91
        4
 64
     7
 65
   257
 75
     1
175
     1
 42
1.0
 92
        9
 66
     7
 43
1.0
 76
     1
 77
     6
 78
     2
 67
     7
 79
     5
170
     0
171
     0
290
     0
174
     0
 93
        1
 44
0.0
173
     0
291
     1
 45
0.0
1001
ACAD
1000
AcDbSavedByObjectVersion
1070
     0
  0
VISUALSTYLE
  5
C9A
102
{ACAD_XDICTIONARY
360
DAD
102
}
102
{ACAD_REACTORS
330
C90
102
}
330
C90
100
AcDbVisualStyle
  2
Realistic
 70
     8
 71
     2
 72
     3
 73
     0
 90
        2
 40
-0.6
 41
30.0
 62
     5
 63
     7
 74
     0
 91
        0
 64
     7
 65
   257
 75
     1
175
     1
 42
1.0
 92
        8
 66
   257
 43
1.0
 76
     1
 77
     6
 78
     2
 67
     7
 79
     3
170
     0
171
     0
290
     0
174
     0
 93
       13
 44
0.0
173
     0
291
     0
 45
0.0
1001
ACAD
1000
AcDbSavedByObjectVersion
1070
     0
  0
VISUALSTYLE
  5
CA5
102
{ACAD_XDICTIONARY
360
DC3
102
}
102
{ACAD_REACTORS
330
C90
102
}
330
C90
100
AcDbVisualStyle
  2
Shaded
 70
    27
 71
     2
 72
     2
 73
     1
 90
        2
 40
-0.6
 41
30.0
 62
     5
 63
     7
 74
     0
 91
        4
 64
     7
 65
   257
 75
     1
175
     1
 42
1.0
 92
        8
 66
   257
 43
1.0
 76
     1
 77
     6
 78
     2
 67
     8
 79
     3
170
     0
171
     0
290
     0
174
     0
 93
        5
 44
0.0
173
     0
291
     0
 45
0.0
1001
ACAD
1000
AcDbSavedByObjectVersion
1070
     0
  0
VISUALSTYLE
  5
CA4
102
{ACAD_XDICTIONARY
360
DC1
102
}
102
{ACAD_REACTORS
330
C90
102
}
330
C90
100
AcDbVisualStyle
  2
Shaded with edges
 70
    26
 71
     2
 72
     2
 73
     1
 90
        2
 40
-0.6
 41
30.0
 62
     5
 63
     7
 74
     1
 91
       10
 64
     7
 65
   257
 75
     2
175
     1
 42
1.0
 92
        8
 66
   257
 43
1.0
 76
     1
 77
     6
 78
     2
 67
     7
 79
     3
170
     0
171
     0
290
     0
174
     0
 93
        5
 44
0.0
173
     0
291
     0
 45
0.0
1001
ACAD
1000
AcDbSavedByObjectVersion
1070
     0
  0
VISUALSTYLE
  5
CA1
102
{ACAD_XDICTIONARY
360
DBB
102
}
102
{ACAD_REACTORS
330
C90
102
}
330
C90
100
AcDbVisualStyle
  2
Shades of Gray
 70
    23
 71
     2
 72
     2
 73
     3
 90
        0
 40
-0.6
 41
-30.0
 62
     5
 63
     7
 74
     2
 91
        2
 64
     7
 65
     7
 75
     1
175
     1
 42
40.0
 92
        8
 66
     7
 43
1.0
 76
     1
 77
     6
 78
     2
 67
     7
 79
     3
170
     0
171
     0
290
     0
174
     0
 93
        1
 44
0.0
173
     0
291
     0
 45
0.0
1001
ACAD
1000
AcDbSavedByObjectVersion
1070
     0
  0
VISUALSTYLE
  5
CA2
102
{ACAD_XDICTIONARY
360
DBD
102
}
102
{ACAD_REACTORS
330
C90
102
}
330
C90
100
AcDbVisualStyle
  2
Sketchy
 70
    24
 71
     1
 72
     2
 73
     2
 90
        0
 40
-0.6
 41
-30.0
 62
     5
 63
     7
 74
     2
 91
        2
 64
     7
 65
     7
 75
     1
175
     1
 42
40.0
 92
       11
 66
     7
 43
1.0
 76
     1
 77
     6
 78
     2
 67
     7
 79
     6
170
     0
171
     0
290
     0
174
     0
 93
        1
 44
0.0
173
     0
291
     0
 45
0.0
1001
ACAD
1000
AcDbSavedByObjectVersion
1070
     0
  0
VISUALSTYLE
  5
C9D
102
{ACAD_XDICTIONARY
360
DB3
102
}
102
{ACAD_REACTORS
330
C90
102
}
330
C90
100
AcDbVisualStyle
  2
Thicken
 70
    13
 71
     2
 72
     2
 73
     0
 90
        0
 40
-0.6
 41
-30.0
 62
     5
 63
     7
 74
     1
 91
        4
 64
     7
 65
   257
 75
     1
175
     1
 42
1.0
 92
       12
 66
     7
 43
1.0
 76
     1
 77
     6
 78
     2
 67
     7
 79
     5
170
     0
171
     0
290
     0
174
     0
 93
        1
 44
0.0
173
     0
291
     1
 45
0.0
1001
ACAD
1000
AcDbSavedByObjectVersion
1070
     0
  0
VISUALSTYLE
  5
C97
102
{ACAD_XDICTIONARY
360
DA7
102
}
102
{ACAD_REACTORS
330
C90
102
}
330
C90
100
AcDbVisualStyle
  2
Wireframe
 70
     5
 71
     0
 72
     2
 73
     0
 90
        0
 40
-0.6
 41
-30.0
 62
     5
 63
     7
 74
     1
 91
        4
 64
     7
 65
   257
 75
     1
175
     1
 42
1.0
 92
        0
 66
   257
 43
1.0
 76
     1
 77
     6
 78
     2
 67
     7
 79
     3
170
     0
171
     0
290
     0
174
     0
 93
        1
 44
0.0
173
     0
291
     0
 45
0.0
1001
ACAD
1000
AcDbSavedByObjectVersion
1070
     0
  0
VISUALSTYLE
  5
CA3
102
{ACAD_XDICTIONARY
360
DBF
102
}
102
{ACAD_REACTORS
330
C90
102
}
330
C90
100
AcDbVisualStyle
  2
X-Ray
 70
    25
 71
     2
 72
     2
 73
     1
 90
        1
 40
0.5
 41
-30.0
 62
     5
 63
     7
 74
     1
 91
        0
 64
     7
 65
   257
 75
     1
175
     1
 42
1.0
 92
        8
 66
     7
 43
1.0
 76
     1
 77
     6
 78
     2
 67
     7
 79
     3
170
     0
171
     0
290
     0
174
     0
 93
       13
 44
0.0
173
     0
291
     0
 45
0.0
1001
ACAD
1000
AcDbSavedByObjectVersion
1070
     0
  0
DICTIONARYVAR
  5
CC3
102
{ACAD_REACTORS
330
CBE
102
}
330
CBE
100
DictionaryVariables
280
     0
  1
1:1
  0
DICTIONARYVAR
  5
CC0
102
{ACAD_REACTORS
330
CBE
102
}
330
CBE
100
DictionaryVariables
280
     0
  1
STANDARD
  0
DICTIONARYVAR
  5
CBF
102
{ACAD_REACTORS
330
CBE
102
}
330
CBE
100
DictionaryVariables
280
     0
  1
STANDARD
  0
DICTIONARYVAR
  5
CC1
102
{ACAD_REACTORS
330
CBE
102
}
330
CBE
100
DictionaryVariables
280
     0
  1
Metric50
  0
DICTIONARYVAR
  5
CC2
102
{ACAD_REACTORS
330
CBE
102
}
330
CBE
100
DictionaryVariables
280
     0
  1
Metric50
  0
DICTIONARYVAR
  5
CC6
102
{ACAD_REACTORS
330
CBE
102
}
330
CBE
100
DictionaryVariables
280
     0
  1
1
  0
DICTIONARYVAR
  5
CC5
102
{ACAD_REACTORS
330
CBE
102
}
330
CBE
100
DictionaryVariables
280
     0
  1
0
  0
DICTIONARYVAR
  5
CC4
102
{ACAD_REACTORS
330
CBE
102
}
330
CBE
100
DictionaryVariables
280
     0
  1
127
  0
DICTIONARYVAR
  5
CC7
102
{ACAD_REACTORS
330
CBE
102
}
330
CBE
100
DictionaryVariables
280
     0
  1
2
  0
DICTIONARY
  5
D92
330
1E
100
AcDbDictionary
280
     1
281
     1
  3
ACAD_XREC_ROUNDTRIP
360
D93
  0
DICTIONARY
  5
D96
330
26
100
AcDbDictionary
280
     1
281
     1
  3
ACAD_XREC_ROUNDTRIP
360
D97
  0
DICTIONARY
  5
D94
330
22
100
AcDbDictionary
280
     1
281
     1
  3
ACAD_XREC_ROUNDTRIP
360
D95
  0
DICTIONARY
  5
C81
330
C80
100
AcDbDictionary
280
     1
281
     1
  3
ACAD_XREC_ROUNDTRIP
360
D99
  3
BUMPTILE
360
C83
  3
DIFFUSETILE
360
C82
  3
OPACITYTILE
360
C86
  3
REFLECTIONTILE
360
C85
  3
REFRACTIONTILE
360
C87
  3
SPECULARTILE
360
C84
  0
DICTIONARY
  5
C79
330
C78
100
AcDbDictionary
280
     1
281
     1
  3
ACAD_XREC_ROUNDTRIP
360
D98
  3
BUMPTILE
360
C7B
  3
DIFFUSETILE
360
C7A
  3
OPACITYTILE
360
C7E
  3
REFLECTIONTILE
360
C7D
  3
REFRACTIONTILE
360
C7F
  3
SPECULARTILE
360
C7C
  0
DICTIONARY
  5
C89
330
C88
100
AcDbDictionary
280
     1
281
     1
  3
ACAD_XREC_ROUNDTRIP
360
D9A
  3
BUMPTILE
360
C8B
  3
DIFFUSETILE
360
C8A
  3
OPACITYTILE
360
C8E
  3
REFLECTIONTILE
360
C8D
  3
REFRACTIONTILE
360
C8F
  3
SPECULARTILE
360
C8C
  0
DICTIONARY
  5
D8E
330
CAB
100
AcDbDictionary
280
     1
281
     1
  3
ACAD_ROUNDTRIP_2008_TABLESTYLE_CELLSTYLEMAP
360
D8F
  3
ACAD_XREC_ROUNDTRIP
360
DCB
  0
DICTIONARY
  5
DA5
330
C96
100
AcDbDictionary
280
     1
281
     1
  3
ACAD_XREC_ROUNDTRIP
360
DA6
  0
DICTIONARY
  5
DA3
330
C95
100
AcDbDictionary
280
     1
281
     1
  3
ACAD_XREC_ROUNDTRIP
360
DA4
  0
DICTIONARY
  5
DB1
330
C9C
100
AcDbDictionary
280
     1
281
     1
  3
ACAD_XREC_ROUNDTRIP
360
DB2
  0
DICTIONARY
  5
DB9
330
CA0
100
AcDbDictionary
280
     1
281
     1
  3
ACAD_XREC_ROUNDTRIP
360
DBA
  0
DICTIONARY
  5
DAB
330
C99
100
AcDbDictionary
280
     1
281
     1
  3
ACAD_XREC_ROUNDTRIP
360
DAC
  0
DICTIONARY
  5
DAF
330
C9B
100
AcDbDictionary
280
     1
281
     1
  3
ACAD_XREC_ROUNDTRIP
360
DB0
  0
DICTIONARY
  5
DC9
330
CA8
100
AcDbDictionary
280
     1
281
     1
  3
ACAD_XREC_ROUNDTRIP
360
DCA
  0
DICTIONARY
  5
DB7
330
C9F
100
AcDbDictionary
280
     1
281
     1
  3
ACAD_XREC_ROUNDTRIP
360
DB8
  0
DICTIONARY
  5
D9B
330
C91
100
AcDbDictionary
280
     1
281
     1
  3
ACAD_XREC_ROUNDTRIP
360
D9C
  0
DICTIONARY
  5
D9D
330
C92
100
AcDbDictionary
280
     1
281
     1
  3
ACAD_XREC_ROUNDTRIP
360
D9E
  0
DICTIONARY
  5
D9F
330
C93
100
AcDbDictionary
280
     1
281
     1
  3
ACAD_XREC_ROUNDTRIP
360
DA0
  0
DICTIONARY
  5
DA1
330
C94
100
AcDbDictionary
280
     1
281
     1
  3
ACAD_XREC_ROUNDTRIP
360
DA2
  0
DICTIONARY
  5
DA9
330
C98
100
AcDbDictionary
280
     1
281
     1
  3
ACAD_XREC_ROUNDTRIP
360
DAA
  0
DICTIONARY
  5
DC5
330
CA6
100
AcDbDictionary
280
     1
281
     1
  3
ACAD_XREC_ROUNDTRIP
360
DC6
  0
DICTIONARY
  5
DB5
330
C9E
100
AcDbDictionary
280
     1
281
     1
  3
ACAD_XREC_ROUNDTRIP
360
DB6
  0
DICTIONARY
  5
DC7
330
CA7
100
AcDbDictionary
280
     1
281
     1
  3
ACAD_XREC_ROUNDTRIP
360
DC8
  0
DICTIONARY
  5
DAD
330
C9A
100
AcDbDictionary
280
     1
281
     1
  3
ACAD_XREC_ROUNDTRIP
360
DAE
  0
DICTIONARY
  5
DC3
330
CA5
100
AcDbDictionary
280
     1
281
     1
  3
ACAD_XREC_ROUNDTRIP
360
DC4
  0
DICTIONARY
  5
DC1
330
CA4
100
AcDbDictionary
280
     1
281
     1
  3
ACAD_XREC_ROUNDTRIP
360
DC2
  0
DICTIONARY
  5
DBB
330
CA1
100
AcDbDictionary
280
     1
281
     1
  3
ACAD_XREC_ROUNDTRIP
360
DBC
  0
DICTIONARY
  5
DBD
330
CA2
100
AcDbDictionary
280
     1
281
     1
  3
ACAD_XREC_ROUNDTRIP
360
DBE
  0
DICTIONARY
  5
DB3
330
C9D
100
AcDbDictionary
280
     1
281
     1
  3
ACAD_XREC_ROUNDTRIP
360
DB4
  0
DICTIONARY
  5
DA7
330
C97
100
AcDbDictionary
280
     1
281
     1
  3
ACAD_XREC_ROUNDTRIP
360
DA8
  0
DICTIONARY
  5
DBF
330
CA3
100
AcDbDictionary
280
     1
281
     1
  3
ACAD_XREC_ROUNDTRIP
360
DC0
  0
XRECORD
  5
D93
102
{ACAD_REACTORS
330
D92
102
}
330
D92
100
AcDbXrecord
280
     1
102
SHADEPLOT
 70
     0
102
SHADEPLOTRESLEVEL
 70
     2
102
SHADEPLOTCUSTOMDPI
 70
   300
  0
XRECORD
  5
D97
102
{ACAD_REACTORS
330
D96
102
}
330
D96
100
AcDbXrecord
280
     1
102
SHADEPLOT
 70
     0
102
SHADEPLOTRESLEVEL
 70
     2
102
SHADEPLOTCUSTOMDPI
 70
   300
  0
XRECORD
  5
D95
102
{ACAD_REACTORS
330
D94
102
}
330
D94
100
AcDbXrecord
280
     1
102
SHADEPLOT
 70
     0
102
SHADEPLOTRESLEVEL
 70
     2
102
SHADEPLOTCUSTOMDPI
 70
   300
  0
XRECORD
  5
D99
102
{ACAD_REACTORS
330
C81
102
}
330
C81
100
AcDbXrecord
280
     1
102
MATERIAL
148
0.0
149
0.0
149
0.0
 93
        0
 94
      127
282
     0
 72
     0
 77
     0
171
     0
175
     0
179
     0
273
     0
  0
XRECORD
  5
C83
102
{ACAD_REACTORS
330
C81
102
}
330
C81
100
AcDbXrecord
280
     1
270
     1
271
     1
  0
XRECORD
  5
C82
102
{ACAD_REACTORS
330
C81
102
}
330
C81
100
AcDbXrecord
280
     1
270
     1
271
     1
  0
XRECORD
  5
C86
102
{ACAD_REACTORS
330
C81
102
}
330
C81
100
AcDbXrecord
280
     1
270
     1
271
     1
  0
XRECORD
  5
C85
102
{ACAD_REACTORS
330
C81
102
}
330
C81
100
AcDbXrecord
280
     1
270
     1
271
     1
  0
XRECORD
  5
C87
102
{ACAD_REACTORS
330
C81
102
}
330
C81
100
AcDbXrecord
280
     1
270
     1
271
     1
  0
XRECORD
  5
C84
102
{ACAD_REACTORS
330
C81
102
}
330
C81
100
AcDbXrecord
280
     1
270
     1
271
     1
  0
XRECORD
  5
D98
102
{ACAD_REACTORS
330
C79
102
}
330
C79
100
AcDbXrecord
280
     1
102
MATERIAL
148
0.0
149
0.0
149
0.0
 93
        0
 94
      127
282
     0
 72
     0
 77
     0
171
     0
175
     0
179
     0
273
     0
  0
XRECORD
  5
C7B
102
{ACAD_REACTORS
330
C79
102
}
330
C79
100
AcDbXrecord
280
     1
270
     1
271
     1
  0
XRECORD
  5
C7A
102
{ACAD_REACTORS
330
C79
102
}
330
C79
100
AcDbXrecord
280
     1
270
     1
271
     1
  0
XRECORD
  5
C7E
102
{ACAD_REACTORS
330
C79
102
}
330
C79
100
AcDbXrecord
280
     1
270
     1
271
     1
  0
XRECORD
  5
C7D
102
{ACAD_REACTORS
330
C79
102
}
330
C79
100
AcDbXrecord
280
     1
270
     1
271
     1
  0
XRECORD
  5
C7F
102
{ACAD_REACTORS
330
C79
102
}
330
C79
100
AcDbXrecord
280
     1
270
     1
271
     1
  0
XRECORD
  5
C7C
102
{ACAD_REACTORS
330
C79
102
}
330
C79
100
AcDbXrecord
280
     1
270
     1
271
     1
  0
XRECORD
  5
D9A
102
{ACAD_REACTORS
330
C89
102
}
330
C89
100
AcDbXrecord
280
     1
102
MATERIAL
148
0.0
149
0.0
149
0.0
 93
        0
 94
      127
282
     0
 72
     0
 77
     0
171
     0
175
     0
179
     0
273
     0
  0
XRECORD
  5
C8B
102
{ACAD_REACTORS
330
C89
102
}
330
C89
100
AcDbXrecord
280
     1
270
     1
271
     1
  0
XRECORD
  5
C8A
102
{ACAD_REACTORS
330
C89
102
}
330
C89
100
AcDbXrecord
280
     1
270
     1
271
     1
  0
XRECORD
  5
C8E
102
{ACAD_REACTORS
330
C89
102
}
330
C89
100
AcDbXrecord
280
     1
270
     1
271
     1
  0
XRECORD
  5
C8D
102
{ACAD_REACTORS
330
C89
102
}
330
C89
100
AcDbXrecord
280
     1
270
     1
271
     1
  0
XRECORD
  5
C8F
102
{ACAD_REACTORS
330
C89
102
}
330
C89
100
AcDbXrecord
280
     1
270
     1
271
     1
  0
XRECORD
  5
C8C
102
{ACAD_REACTORS
330
C89
102
}
330
C89
100
AcDbXrecord
280
     1
270
     1
271
     1
  0
CELLSTYLEMAP
  5
D8F
102
{ACAD_REACTORS
330
D8E
102
}
330
D8E
100
AcDbCellStyleMap
 90
        3
300
CELLSTYLE
  1
TABLEFORMAT_BEGIN
 90
        5
170
     1
 91
        0
 92
    32768
 62
   257
 93
        1
300
CONTENTFORMAT
  1
CONTENTFORMAT_BEGIN
 90
        0
 91
        0
 92
      512
 93
        0
300

 40
0.0
140
1.0
 94
        5
 62
     0
340
11
144
6.0
309
CONTENTFORMAT_END
171
     1
301
MARGIN
  1
CELLMARGIN_BEGIN
 40
1.5
 40
1.5
 40
1.5
 40
1.5
 40
4.5
 40
4.5
309
CELLMARGIN_END
 94
        6
 95
        1
302
GRIDFORMAT
  1
GRIDFORMAT_BEGIN
 90
        0
 91
        1
 62
     0
 92
       -2
340
0
 93
        0
 40
1.125
309
GRIDFORMAT_END
 95
        2
302
GRIDFORMAT
  1
GRIDFORMAT_BEGIN
 90
        0
 91
        1
 62
     0
 92
       -2
340
0
 93
        0
 40
1.125
309
GRIDFORMAT_END
 95
        4
302
GRIDFORMAT
  1
GRIDFORMAT_BEGIN
 90
        0
 91
        1
 62
     0
 92
       -2
340
0
 93
        0
 40
1.125
309
GRIDFORMAT_END
 95
        8
302
GRIDFORMAT
  1
GRIDFORMAT_BEGIN
 90
        0
 91
        1
 62
     0
 92
       -2
340
0
 93
        0
 40
1.125
309
GRIDFORMAT_END
 95
       16
302
GRIDFORMAT
  1
GRIDFORMAT_BEGIN
 90
        0
 91
        1
 62
     0
 92
       -2
340
0
 93
        0
 40
1.125
309
GRIDFORMAT_END
 95
       32
302
GRIDFORMAT
  1
GRIDFORMAT_BEGIN
 90
        0
 91
        1
 62
     0
 92
       -2
340
0
 93
        0
 40
1.125
309
GRIDFORMAT_END
309
TABLEFORMAT_END
  1
CELLSTYLE_BEGIN
 90
        1
 91
        1
300
_TITLE
309
CELLSTYLE_END
300
CELLSTYLE
  1
TABLEFORMAT_BEGIN
 90
        5
170
     1
 91
        0
 92
        0
 62
   257
 93
        1
300
CONTENTFORMAT
  1
CONTENTFORMAT_BEGIN
 90
        0
 91
        0
 92
      512
 93
        0
300

 40
0.0
140
1.0
 94
        5
 62
     0
340
11
144
4.5
309
CONTENTFORMAT_END
171
     1
301
MARGIN
  1
CELLMARGIN_BEGIN
 40
1.5
 40
1.5
 40
1.5
 40
1.5
 40
4.5
 40
4.5
309
CELLMARGIN_END
 94
        6
 95
        1
302
GRIDFORMAT
  1
GRIDFORMAT_BEGIN
 90
        0
 91
        1
 62
     0
 92
       -2
340
0
 93
        0
 40
1.125
309
GRIDFORMAT_END
 95
        2
302
GRIDFORMAT
  1
GRIDFORMAT_BEGIN
 90
        0
 91
        1
 62
     0
 92
       -2
340
0
 93
        0
 40
1.125
309
GRIDFORMAT_END
 95
        4
302
GRIDFORMAT
  1
GRIDFORMAT_BEGIN
 90
        0
 91
        1
 62
     0
 92
       -2
340
0
 93
        0
 40
1.125
309
GRIDFORMAT_END
 95
        8
302
GRIDFORMAT
  1
GRIDFORMAT_BEGIN
 90
        0
 91
        1
 62
     0
 92
       -2
340
0
 93
        0
 40
1.125
309
GRIDFORMAT_END
 95
       16
302
GRIDFORMAT
  1
GRIDFORMAT_BEGIN
 90
        0
 91
        1
 62
     0
 92
       -2
340
0
 93
        0
 40
1.125
309
GRIDFORMAT_END
 95
       32
302
GRIDFORMAT
  1
GRIDFORMAT_BEGIN
 90
        0
 91
        1
 62
     0
 92
       -2
340
0
 93
        0
 40
1.125
309
GRIDFORMAT_END
309
TABLEFORMAT_END
  1
CELLSTYLE_BEGIN
 90
        2
 91
        1
300
_HEADER
309
CELLSTYLE_END
300
CELLSTYLE
  1
TABLEFORMAT_BEGIN
 90
        5
170
     1
 91
        0
 92
        0
 62
   257
 93
        1
300
CONTENTFORMAT
  1
CONTENTFORMAT_BEGIN
 90
        0
 91
        0
 92
      512
 93
        0
300

 40
0.0
140
1.0
 94
        2
 62
     0
340
11
144
4.5
309
CONTENTFORMAT_END
171
     1
301
MARGIN
  1
CELLMARGIN_BEGIN
 40
1.5
 40
1.5
 40
1.5
 40
1.5
 40
4.5
 40
4.5
309
CELLMARGIN_END
 94
        6
 95
        1
302
GRIDFORMAT
  1
GRIDFORMAT_BEGIN
 90
        0
 91
        1
 62
     0
 92
       -2
340
0
 93
        0
 40
1.125
309
GRIDFORMAT_END
 95
        2
302
GRIDFORMAT
  1
GRIDFORMAT_BEGIN
 90
        0
 91
        1
 62
     0
 92
       -2
340
0
 93
        0
 40
1.125
309
GRIDFORMAT_END
 95
        4
302
GRIDFORMAT
  1
GRIDFORMAT_BEGIN
 90
        0
 91
        1
 62
     0
 92
       -2
340
0
 93
        0
 40
1.125
309
GRIDFORMAT_END
 95
        8
302
GRIDFORMAT
  1
GRIDFORMAT_BEGIN
 90
        0
 91
        1
 62
     0
 92
       -2
340
0
 93
        0
 40
1.125
309
GRIDFORMAT_END
 95
       16
302
GRIDFORMAT
  1
GRIDFORMAT_BEGIN
 90
        0
 91
        1
 62
     0
 92
       -2
340
0
 93
        0
 40
1.125
309
GRIDFORMAT_END
 95
       32
302
GRIDFORMAT
  1
GRIDFORMAT_BEGIN
 90
        0
 91
        1
 62
     0
 92
       -2
340
0
 93
        0
 40
1.125
309
GRIDFORMAT_END
309
TABLEFORMAT_END
  1
CELLSTYLE_BEGIN
 90
        3
 91
        2
300
_DATA
309
CELLSTYLE_END
  0
XRECORD
  5
DCB
102
{ACAD_REACTORS
330
D8E
102
}
330
D8E
100
AcDbXrecord
280
     1
102
ACAD_ROUNDTRIP_PRE2007_TABLESTYLE
 90
      512
 91
        0
  1

 92
      512
 93
        0
  2

 94
      512
 95
        0
  3

  0
XRECORD
  5
DA6
102
{ACAD_REACTORS
330
DA5
102
}
330
DA5
100
AcDbXrecord
280
     1
102
RTVSPost2010Prop28
280
     1
102
RTVSPost2010PropOp28
 70
     1
102
RTVSPost2010Prop29
280
     1
102
RTVSPost2010PropOp29
 70
     1
102
RTVSPost2010Prop30
280
     0
102
RTVSPost2010PropOp30
 70
     1
102
RTVSPost2010Prop31
280
     0
102
RTVSPost2010PropOp31
 70
     1
102
RTVSPost2010Prop32
280
     0
102
RTVSPost2010PropOp32
 70
     1
102
RTVSPost2010Prop33
280
     0
102
RTVSPost2010PropOp33
 70
     1
102
RTVSPost2010Prop34
280
     0
102
RTVSPost2010PropOp34
 70
     1
102
RTVSPost2010Prop35
280
     0
102
RTVSPost2010PropOp35
 70
     1
102
RTVSPost2010Prop36
280
     0
102
RTVSPost2010PropOp36
 70
     1
102
RTVSPost2010Prop37
 90
       50
102
RTVSPost2010PropOp37
 70
     1
102
RTVSPost2010Prop38
140
0.0
102
RTVSPost2010PropOp38
 70
     1
102
RTVSPost2010Prop39
140
1.0
102
RTVSPost2010PropOp39
 70
     1
102
RTVSPost2010Prop40
 90
        0
102
RTVSPost2010PropOp40
 70
     1
102
RTVSPost2010Prop41ColorIndex
 90
       18
102
RTVSPost2010Prop41ColorRGB
 90
        0
102
RTVSPost2010PropOp41
 70
     1
102
RTVSPost2010Prop42
 90
       50
102
RTVSPost2010PropOp42
 70
     1
102
RTVSPost2010Prop43
 90
        3
102
RTVSPost2010PropOp43
 70
     1
102
RTVSPost2010Prop44ColorIndex
 90
        5
102
RTVSPost2010Prop44ColorRGB
 90
      255
102
RTVSPost2010PropOp44
 70
     1
102
RTVSPost2010Prop45
280
     0
102
RTVSPost2010PropOp45
 70
     1
102
RTVSPost2010Prop46
 90
       50
102
RTVSPost2010PropOp46
 70
     1
102
RTVSPost2010Prop47
 90
       50
102
RTVSPost2010PropOp47
 70
     1
102
RTVSPost2010Prop48
 90
       50
102
RTVSPost2010PropOp48
 70
     1
102
RTVSPost2010Prop49
280
     0
102
RTVSPost2010PropOp49
 70
     1
102
RTVSPost2010Prop50
 90
       50
102
RTVSPost2010PropOp50
 70
     1
102
RTVSPost2010Prop51ColorIndex
 90
      256
102
RTVSPost2010Prop51ColorRGB
 90
-16777216
102
RTVSPost2010PropOp51
 70
     0
102
RTVSPost2010Prop52
140
1.0
102
RTVSPost2010PropOp52
 70
     0
102
RTVSPost2010Prop53
 90
        2
102
RTVSPost2010PropOp53
 70
     1
102
RTVSPost2010Prop54
  1
strokes_ogs.tif
102
RTVSPost2010PropOp54
 70
     1
102
RTVSPost2010Prop55
280
     0
102
RTVSPost2010PropOp55
 70
     1
102
RTVSPost2010Prop56
140
1.0
102
RTVSPost2010PropOp56
 70
     1
102
RTVSPost2010Prop57
140
1.0
102
RTVSPost2010PropOp57
 70
     1
102
RTVSPropertyOp0
 70
     1
102
RTVSPropertyOp1
 70
     1
102
RTVSPropertyOp2
 70
     1
102
RTVSPropertyOp3
 70
     1
102
RTVSPropertyOp4
 70
     1
102
RTVSPropertyOp5
 70
     1
102
RTVSPropertyOp6
 70
     1
102
RTVSPropertyOp7
 70
     1
102
RTVSPropertyOp8
 70
     1
102
RTVSPropertyOp9
 70
     1
102
RTVSPropertyOp10
 70
     1
102
RTVSPropertyOp11
 70
     1
102
RTVSPropertyOp12
 70
     1
102
RTVSPropertyOp13
 70
     1
102
RTVSPropertyOp14
 70
     1
102
RTVSPropertyOp15
 70
     1
102
RTVSPropertyOp16
 70
     1
102
RTVSPropertyOp17
 70
     1
102
RTVSPropertyOp18
 70
     1
102
RTVSPropertyOp19
 70
     1
102
RTVSPropertyOp20
 70
     1
102
RTVSPropertyOp21
 70
     1
102
RTVSPropertyOp22
 70
     1
102
RTVSPropertyOp23
 70
     1
102
RTVSPropertyOp24
 70
     1
102
RTVSPropertyOp25
 70
     1
102
RTVSPropertyOp26
 70
     1
102
RTVSPropertyOp27
 70
     1
102
RTVSPropertyOp28
 70
     1
102
RTVSPropertyOp29
 70
     1
102
RTVSPropertyOp30
 70
     1
102
RTVSPropertyOp31
 70
     1
102
RTVSPropertyOp32
 70
     1
102
RTVSPropertyOp33
 70
     1
102
RTVSPropertyOp34
 70
     1
102
RTVSPropertyOp35
 70
     1
102
RTVSPropertyOp36
 70
     1
102
RTVSPropertyOp37
 70
     1
102
RTVSPropertyOp38
 70
     1
102
RTVSPropertyOp39
 70
     1
102
RTVSPropertyOp40
 70
     1
102
RTVSPropertyOp41
 70
     1
102
RTVSPropertyOp42
 70
     1
102
RTVSPropertyOp43
 70
     1
102
RTVSPropertyOp44
 70
     1
102
RTVSPropertyOp45
 70
     1
102
RTVSPropertyOp46
 70
     1
102
RTVSPropertyOp47
 70
     1
102
RTVSPropertyOp48
 70
     1
102
RTVSPropertyOp49
 70
     1
102
RTVSPropertyOp50
 70
     1
102
RTVSPropertyOp51
 70
     0
102
RTVSPropertyOp52
 70
     0
102
RTVSPropertyOp53
 70
     1
102
RTVSPropertyOp54
 70
     1
102
RTVSPropertyOp55
 70
     1
102
RTVSPropertyOp56
 70
     1
102
RTVSPropertyOp57
 70
     1
102
RTVSPropertyOp58
 70
     1
102
RTVSPropertyOp59
 70
     1
102
RTVSPropertyOp60
 70
     1
102
RTVSPropertyOp61
 70
     1
102
RTVSPropertyOp62
 70
     1
  0
XRECORD
  5
DA4
102
{ACAD_REACTORS
330
DA3
102
}
330
DA3
100
AcDbXrecord
280
     1
102
RTVSPost2010Prop28
280
     0
102
RTVSPost2010PropOp28
 70
     1
102
RTVSPost2010Prop29
280
     1
102
RTVSPost2010PropOp29
 70
     1
102
RTVSPost2010Prop30
280
     1
102
RTVSPost2010PropOp30
 70
     1
102
RTVSPost2010Prop31
280
     0
102
RTVSPost2010PropOp31
 70
     1
102
RTVSPost2010Prop32
280
     0
102
RTVSPost2010PropOp32
 70
     1
102
RTVSPost2010Prop33
280
     0
102
RTVSPost2010PropOp33
 70
     1
102
RTVSPost2010Prop34
280
     0
102
RTVSPost2010PropOp34
 70
     1
102
RTVSPost2010Prop35
280
     0
102
RTVSPost2010PropOp35
 70
     1
102
RTVSPost2010Prop36
280
     0
102
RTVSPost2010PropOp36
 70
     1
102
RTVSPost2010Prop37
 90
       50
102
RTVSPost2010PropOp37
 70
     1
102
RTVSPost2010Prop38
140
0.0
102
RTVSPost2010PropOp38
 70
     1
102
RTVSPost2010Prop39
140
1.0
102
RTVSPost2010PropOp39
 70
     1
102
RTVSPost2010Prop40
 90
        0
102
RTVSPost2010PropOp40
 70
     1
102
RTVSPost2010Prop41ColorIndex
 90
       18
102
RTVSPost2010Prop41ColorRGB
 90
        0
102
RTVSPost2010PropOp41
 70
     1
102
RTVSPost2010Prop42
 90
       50
102
RTVSPost2010PropOp42
 70
     1
102
RTVSPost2010Prop43
 90
        3
102
RTVSPost2010PropOp43
 70
     1
102
RTVSPost2010Prop44ColorIndex
 90
        5
102
RTVSPost2010Prop44ColorRGB
 90
      255
102
RTVSPost2010PropOp44
 70
     1
102
RTVSPost2010Prop45
280
     0
102
RTVSPost2010PropOp45
 70
     1
102
RTVSPost2010Prop46
 90
       50
102
RTVSPost2010PropOp46
 70
     1
102
RTVSPost2010Prop47
 90
       50
102
RTVSPost2010PropOp47
 70
     1
102
RTVSPost2010Prop48
 90
       50
102
RTVSPost2010PropOp48
 70
     1
102
RTVSPost2010Prop49
280
     0
102
RTVSPost2010PropOp49
 70
     1
102
RTVSPost2010Prop50
 90
       50
102
RTVSPost2010PropOp50
 70
     1
102
RTVSPost2010Prop51ColorIndex
 90
      256
102
RTVSPost2010Prop51ColorRGB
 90
-16777216
102
RTVSPost2010PropOp51
 70
     0
102
RTVSPost2010Prop52
140
1.0
102
RTVSPost2010PropOp52
 70
     0
102
RTVSPost2010Prop53
 90
        2
102
RTVSPost2010PropOp53
 70
     1
102
RTVSPost2010Prop54
  1
strokes_ogs.tif
102
RTVSPost2010PropOp54
 70
     1
102
RTVSPost2010Prop55
280
     0
102
RTVSPost2010PropOp55
 70
     1
102
RTVSPost2010Prop56
140
1.0
102
RTVSPost2010PropOp56
 70
     1
102
RTVSPost2010Prop57
140
1.0
102
RTVSPost2010PropOp57
 70
     1
102
RTVSPropertyOp0
 70
     1
102
RTVSPropertyOp1
 70
     1
102
RTVSPropertyOp2
 70
     1
102
RTVSPropertyOp3
 70
     1
102
RTVSPropertyOp4
 70
     1
102
RTVSPropertyOp5
 70
     1
102
RTVSPropertyOp6
 70
     1
102
RTVSPropertyOp7
 70
     1
102
RTVSPropertyOp8
 70
     1
102
RTVSPropertyOp9
 70
     1
102
RTVSPropertyOp10
 70
     1
102
RTVSPropertyOp11
 70
     1
102
RTVSPropertyOp12
 70
     1
102
RTVSPropertyOp13
 70
     1
102
RTVSPropertyOp14
 70
     1
102
RTVSPropertyOp15
 70
     1
102
RTVSPropertyOp16
 70
     1
102
RTVSPropertyOp17
 70
     1
102
RTVSPropertyOp18
 70
     1
102
RTVSPropertyOp19
 70
     1
102
RTVSPropertyOp20
 70
     1
102
RTVSPropertyOp21
 70
     1
102
RTVSPropertyOp22
 70
     1
102
RTVSPropertyOp23
 70
     1
102
RTVSPropertyOp24
 70
     1
102
RTVSPropertyOp25
 70
     1
102
RTVSPropertyOp26
 70
     1
102
RTVSPropertyOp27
 70
     1
102
RTVSPropertyOp28
 70
     1
102
RTVSPropertyOp29
 70
     1
102
RTVSPropertyOp30
 70
     1
102
RTVSPropertyOp31
 70
     1
102
RTVSPropertyOp32
 70
     1
102
RTVSPropertyOp33
 70
     1
102
RTVSPropertyOp34
 70
     1
102
RTVSPropertyOp35
 70
     1
102
RTVSPropertyOp36
 70
     1
102
RTVSPropertyOp37
 70
     1
102
RTVSPropertyOp38
 70
     1
102
RTVSPropertyOp39
 70
     1
102
RTVSPropertyOp40
 70
     1
102
RTVSPropertyOp41
 70
     1
102
RTVSPropertyOp42
 70
     1
102
RTVSPropertyOp43
 70
     1
102
RTVSPropertyOp44
 70
     1
102
RTVSPropertyOp45
 70
     1
102
RTVSPropertyOp46
 70
     1
102
RTVSPropertyOp47
 70
     1
102
RTVSPropertyOp48
 70
     1
102
RTVSPropertyOp49
 70
     1
102
RTVSPropertyOp50
 70
     1
102
RTVSPropertyOp51
 70
     0
102
RTVSPropertyOp52
 70
     0
102
RTVSPropertyOp53
 70
     1
102
RTVSPropertyOp54
 70
     1
102
RTVSPropertyOp55
 70
     1
102
RTVSPropertyOp56
 70
     1
102
RTVSPropertyOp57
 70
     1
102
RTVSPropertyOp58
 70
     1
102
RTVSPropertyOp59
 70
     1
102
RTVSPropertyOp60
 70
     1
102
RTVSPropertyOp61
 70
     1
102
RTVSPropertyOp62
 70
     1
  0
XRECORD
  5
DB2
102
{ACAD_REACTORS
330
DB1
102
}
330
DB1
100
AcDbXrecord
280
     1
102
RTVSPost2010Prop28
280
     0
102
RTVSPost2010PropOp28
 70
     1
102
RTVSPost2010Prop29
280
     1
102
RTVSPost2010PropOp29
 70
     1
102
RTVSPost2010Prop30
280
     1
102
RTVSPost2010PropOp30
 70
     1
102
RTVSPost2010Prop31
280
     0
102
RTVSPost2010PropOp31
 70
     1
102
RTVSPost2010Prop32
280
     0
102
RTVSPost2010PropOp32
 70
     1
102
RTVSPost2010Prop33
280
     0
102
RTVSPost2010PropOp33
 70
     1
102
RTVSPost2010Prop34
280
     0
102
RTVSPost2010PropOp34
 70
     1
102
RTVSPost2010Prop35
280
     0
102
RTVSPost2010PropOp35
 70
     1
102
RTVSPost2010Prop36
280
     0
102
RTVSPost2010PropOp36
 70
     1
102
RTVSPost2010Prop37
 90
       50
102
RTVSPost2010PropOp37
 70
     1
102
RTVSPost2010Prop38
140
0.0
102
RTVSPost2010PropOp38
 70
     1
102
RTVSPost2010Prop39
140
1.0
102
RTVSPost2010PropOp39
 70
     1
102
RTVSPost2010Prop40
 90
        0
102
RTVSPost2010PropOp40
 70
     1
102
RTVSPost2010Prop41ColorIndex
 90
       18
102
RTVSPost2010Prop41ColorRGB
 90
        0
102
RTVSPost2010PropOp41
 70
     1
102
RTVSPost2010Prop42
 90
       50
102
RTVSPost2010PropOp42
 70
     1
102
RTVSPost2010Prop43
 90
        3
102
RTVSPost2010PropOp43
 70
     1
102
RTVSPost2010Prop44ColorIndex
 90
        5
102
RTVSPost2010Prop44ColorRGB
 90
      255
102
RTVSPost2010PropOp44
 70
     1
102
RTVSPost2010Prop45
280
     0
102
RTVSPost2010PropOp45
 70
     1
102
RTVSPost2010Prop46
 90
       50
102
RTVSPost2010PropOp46
 70
     1
102
RTVSPost2010Prop47
 90
       50
102
RTVSPost2010PropOp47
 70
     1
102
RTVSPost2010Prop48
 90
       50
102
RTVSPost2010PropOp48
 70
     1
102
RTVSPost2010Prop49
280
     0
102
RTVSPost2010PropOp49
 70
     1
102
RTVSPost2010Prop50
 90
       50
102
RTVSPost2010PropOp50
 70
     1
102
RTVSPost2010Prop51ColorIndex
 90
      256
102
RTVSPost2010Prop51ColorRGB
 90
-16777216
102
RTVSPost2010PropOp51
 70
     0
102
RTVSPost2010Prop52
140
1.0
102
RTVSPost2010PropOp52
 70
     0
102
RTVSPost2010Prop53
 90
        2
102
RTVSPost2010PropOp53
 70
     1
102
RTVSPost2010Prop54
  1
strokes_ogs.tif
102
RTVSPost2010PropOp54
 70
     1
102
RTVSPost2010Prop55
280
     0
102
RTVSPost2010PropOp55
 70
     1
102
RTVSPost2010Prop56
140
1.0
102
RTVSPost2010PropOp56
 70
     1
102
RTVSPost2010Prop57
140
1.0
102
RTVSPost2010PropOp57
 70
     1
102
RTVSPropertyOp0
 70
     1
102
RTVSPropertyOp1
 70
     1
102
RTVSPropertyOp2
 70
     1
102
RTVSPropertyOp3
 70
     1
102
RTVSPropertyOp4
 70
     1
102
RTVSPropertyOp5
 70
     1
102
RTVSPropertyOp6
 70
     1
102
RTVSPropertyOp7
 70
     1
102
RTVSPropertyOp8
 70
     1
102
RTVSPropertyOp9
 70
     1
102
RTVSPropertyOp10
 70
     1
102
RTVSPropertyOp11
 70
     1
102
RTVSPropertyOp12
 70
     1
102
RTVSPropertyOp13
 70
     1
102
RTVSPropertyOp14
 70
     1
102
RTVSPropertyOp15
 70
     1
102
RTVSPropertyOp16
 70
     1
102
RTVSPropertyOp17
 70
     1
102
RTVSPropertyOp18
 70
     1
102
RTVSPropertyOp19
 70
     1
102
RTVSPropertyOp20
 70
     1
102
RTVSPropertyOp21
 70
     1
102
RTVSPropertyOp22
 70
     1
102
RTVSPropertyOp23
 70
     1
102
RTVSPropertyOp24
 70
     1
102
RTVSPropertyOp25
 70
     1
102
RTVSPropertyOp26
 70
     1
102
RTVSPropertyOp27
 70
     1
102
RTVSPropertyOp28
 70
     1
102
RTVSPropertyOp29
 70
     1
102
RTVSPropertyOp30
 70
     1
102
RTVSPropertyOp31
 70
     1
102
RTVSPropertyOp32
 70
     1
102
RTVSPropertyOp33
 70
     1
102
RTVSPropertyOp34
 70
     1
102
RTVSPropertyOp35
 70
     1
102
RTVSPropertyOp36
 70
     1
102
RTVSPropertyOp37
 70
     1
102
RTVSPropertyOp38
 70
     1
102
RTVSPropertyOp39
 70
     1
102
RTVSPropertyOp40
 70
     1
102
RTVSPropertyOp41
 70
     1
102
RTVSPropertyOp42
 70
     1
102
RTVSPropertyOp43
 70
     1
102
RTVSPropertyOp44
 70
     1
102
RTVSPropertyOp45
 70
     1
102
RTVSPropertyOp46
 70
     1
102
RTVSPropertyOp47
 70
     1
102
RTVSPropertyOp48
 70
     1
102
RTVSPropertyOp49
 70
     1
102
RTVSPropertyOp50
 70
     1
102
RTVSPropertyOp51
 70
     0
102
RTVSPropertyOp52
 70
     0
102
RTVSPropertyOp53
 70
     1
102
RTVSPropertyOp54
 70
     1
102
RTVSPropertyOp55
 70
     1
102
RTVSPropertyOp56
 70
     1
102
RTVSPropertyOp57
 70
     1
102
RTVSPropertyOp58
 70
     1
102
RTVSPropertyOp59
 70
     1
102
RTVSPropertyOp60
 70
     1
102
RTVSPropertyOp61
 70
     1
102
RTVSPropertyOp62
 70
     1
  0
XRECORD
  5
DBA
102
{ACAD_REACTORS
330
DB9
102
}
330
DB9
100
AcDbXrecord
280
     1
102
RTVSPost2010Prop28
280
     0
102
RTVSPost2010PropOp28
 70
     1
102
RTVSPost2010Prop29
280
     1
102
RTVSPost2010PropOp29
 70
     1
102
RTVSPost2010Prop30
280
     1
102
RTVSPost2010PropOp30
 70
     1
102
RTVSPost2010Prop31
280
     0
102
RTVSPost2010PropOp31
 70
     1
102
RTVSPost2010Prop32
280
     0
102
RTVSPost2010PropOp32
 70
     1
102
RTVSPost2010Prop33
280
     0
102
RTVSPost2010PropOp33
 70
     1
102
RTVSPost2010Prop34
280
     0
102
RTVSPost2010PropOp34
 70
     1
102
RTVSPost2010Prop35
280
     0
102
RTVSPost2010PropOp35
 70
     1
102
RTVSPost2010Prop36
280
     0
102
RTVSPost2010PropOp36
 70
     1
102
RTVSPost2010Prop37
 90
       50
102
RTVSPost2010PropOp37
 70
     1
102
RTVSPost2010Prop38
140
0.0
102
RTVSPost2010PropOp38
 70
     1
102
RTVSPost2010Prop39
140
1.0
102
RTVSPost2010PropOp39
 70
     1
102
RTVSPost2010Prop40
 90
        0
102
RTVSPost2010PropOp40
 70
     1
102
RTVSPost2010Prop41ColorIndex
 90
       18
102
RTVSPost2010Prop41ColorRGB
 90
        0
102
RTVSPost2010PropOp41
 70
     1
102
RTVSPost2010Prop42
 90
       50
102
RTVSPost2010PropOp42
 70
     1
102
RTVSPost2010Prop43
 90
        3
102
RTVSPost2010PropOp43
 70
     1
102
RTVSPost2010Prop44ColorIndex
 90
        5
102
RTVSPost2010Prop44ColorRGB
 90
      255
102
RTVSPost2010PropOp44
 70
     1
102
RTVSPost2010Prop45
280
     0
102
RTVSPost2010PropOp45
 70
     1
102
RTVSPost2010Prop46
 90
       50
102
RTVSPost2010PropOp46
 70
     1
102
RTVSPost2010Prop47
 90
       50
102
RTVSPost2010PropOp47
 70
     1
102
RTVSPost2010Prop48
 90
       50
102
RTVSPost2010PropOp48
 70
     1
102
RTVSPost2010Prop49
280
     0
102
RTVSPost2010PropOp49
 70
     1
102
RTVSPost2010Prop50
 90
       50
102
RTVSPost2010PropOp50
 70
     1
102
RTVSPost2010Prop51ColorIndex
 90
      256
102
RTVSPost2010Prop51ColorRGB
 90
-16777216
102
RTVSPost2010PropOp51
 70
     0
102
RTVSPost2010Prop52
140
1.0
102
RTVSPost2010PropOp52
 70
     0
102
RTVSPost2010Prop53
 90
        2
102
RTVSPost2010PropOp53
 70
     1
102
RTVSPost2010Prop54
  1
strokes_ogs.tif
102
RTVSPost2010PropOp54
 70
     1
102
RTVSPost2010Prop55
280
     0
102
RTVSPost2010PropOp55
 70
     1
102
RTVSPost2010Prop56
140
1.0
102
RTVSPost2010PropOp56
 70
     1
102
RTVSPost2010Prop57
140
1.0
102
RTVSPost2010PropOp57
 70
     1
102
RTVSPropertyOp0
 70
     1
102
RTVSPropertyOp1
 70
     1
102
RTVSPropertyOp2
 70
     1
102
RTVSPropertyOp3
 70
     1
102
RTVSPropertyOp4
 70
     1
102
RTVSPropertyOp5
 70
     1
102
RTVSPropertyOp6
 70
     1
102
RTVSPropertyOp7
 70
     1
102
RTVSPropertyOp8
 70
     1
102
RTVSPropertyOp9
 70
     1
102
RTVSPropertyOp10
 70
     1
102
RTVSPropertyOp11
 70
     1
102
RTVSPropertyOp12
 70
     1
102
RTVSPropertyOp13
 70
     1
102
RTVSPropertyOp14
 70
     1
102
RTVSPropertyOp15
 70
     1
102
RTVSPropertyOp16
 70
     1
102
RTVSPropertyOp17
 70
     1
102
RTVSPropertyOp18
 70
     1
102
RTVSPropertyOp19
 70
     1
102
RTVSPropertyOp20
 70
     1
102
RTVSPropertyOp21
 70
     1
102
RTVSPropertyOp22
 70
     1
102
RTVSPropertyOp23
 70
     1
102
RTVSPropertyOp24
 70
     1
102
RTVSPropertyOp25
 70
     1
102
RTVSPropertyOp26
 70
     1
102
RTVSPropertyOp27
 70
     1
102
RTVSPropertyOp28
 70
     1
102
RTVSPropertyOp29
 70
     1
102
RTVSPropertyOp30
 70
     1
102
RTVSPropertyOp31
 70
     1
102
RTVSPropertyOp32
 70
     1
102
RTVSPropertyOp33
 70
     1
102
RTVSPropertyOp34
 70
     1
102
RTVSPropertyOp35
 70
     1
102
RTVSPropertyOp36
 70
     1
102
RTVSPropertyOp37
 70
     1
102
RTVSPropertyOp38
 70
     1
102
RTVSPropertyOp39
 70
     1
102
RTVSPropertyOp40
 70
     1
102
RTVSPropertyOp41
 70
     1
102
RTVSPropertyOp42
 70
     1
102
RTVSPropertyOp43
 70
     1
102
RTVSPropertyOp44
 70
     1
102
RTVSPropertyOp45
 70
     1
102
RTVSPropertyOp46
 70
     1
102
RTVSPropertyOp47
 70
     1
102
RTVSPropertyOp48
 70
     1
102
RTVSPropertyOp49
 70
     1
102
RTVSPropertyOp50
 70
     1
102
RTVSPropertyOp51
 70
     0
102
RTVSPropertyOp52
 70
     0
102
RTVSPropertyOp53
 70
     1
102
RTVSPropertyOp54
 70
     1
102
RTVSPropertyOp55
 70
     1
102
RTVSPropertyOp56
 70
     1
102
RTVSPropertyOp57
 70
     1
102
RTVSPropertyOp58
 70
     1
102
RTVSPropertyOp59
 70
     1
102
RTVSPropertyOp60
 70
     1
102
RTVSPropertyOp61
 70
     1
102
RTVSPropertyOp62
 70
     1
  0
XRECORD
  5
DAC
102
{ACAD_REACTORS
330
DAB
102
}
330
DAB
100
AcDbXrecord
280
     1
102
RTVSPost2010Prop28
280
     0
102
RTVSPost2010PropOp28
 70
     1
102
RTVSPost2010Prop29
280
     1
102
RTVSPost2010PropOp29
 70
     1
102
RTVSPost2010Prop30
280
     1
102
RTVSPost2010PropOp30
 70
     1
102
RTVSPost2010Prop31
280
     0
102
RTVSPost2010PropOp31
 70
     1
102
RTVSPost2010Prop32
280
     0
102
RTVSPost2010PropOp32
 70
     1
102
RTVSPost2010Prop33
280
     0
102
RTVSPost2010PropOp33
 70
     1
102
RTVSPost2010Prop34
280
     0
102
RTVSPost2010PropOp34
 70
     1
102
RTVSPost2010Prop35
280
     0
102
RTVSPost2010PropOp35
 70
     1
102
RTVSPost2010Prop36
280
     0
102
RTVSPost2010PropOp36
 70
     1
102
RTVSPost2010Prop37
 90
       50
102
RTVSPost2010PropOp37
 70
     1
102
RTVSPost2010Prop38
140
0.0
102
RTVSPost2010PropOp38
 70
     1
102
RTVSPost2010Prop39
140
1.0
102
RTVSPost2010PropOp39
 70
     1
102
RTVSPost2010Prop40
 90
        0
102
RTVSPost2010PropOp40
 70
     1
102
RTVSPost2010Prop41ColorIndex
 90
       18
102
RTVSPost2010Prop41ColorRGB
 90
        0
102
RTVSPost2010PropOp41
 70
     1
102
RTVSPost2010Prop42
 90
       50
102
RTVSPost2010PropOp42
 70
     1
102
RTVSPost2010Prop43
 90
        3
102
RTVSPost2010PropOp43
 70
     1
102
RTVSPost2010Prop44ColorIndex
 90
        5
102
RTVSPost2010Prop44ColorRGB
 90
      255
102
RTVSPost2010PropOp44
 70
     1
102
RTVSPost2010Prop45
280
     0
102
RTVSPost2010PropOp45
 70
     1
102
RTVSPost2010Prop46
 90
       50
102
RTVSPost2010PropOp46
 70
     1
102
RTVSPost2010Prop47
 90
       50
102
RTVSPost2010PropOp47
 70
     1
102
RTVSPost2010Prop48
 90
       50
102
RTVSPost2010PropOp48
 70
     1
102
RTVSPost2010Prop49
280
     0
102
RTVSPost2010PropOp49
 70
     1
102
RTVSPost2010Prop50
 90
       50
102
RTVSPost2010PropOp50
 70
     1
102
RTVSPost2010Prop51ColorIndex
 90
      256
102
RTVSPost2010Prop51ColorRGB
 90
-16777216
102
RTVSPost2010PropOp51
 70
     0
102
RTVSPost2010Prop52
140
1.0
102
RTVSPost2010PropOp52
 70
     0
102
RTVSPost2010Prop53
 90
        2
102
RTVSPost2010PropOp53
 70
     1
102
RTVSPost2010Prop54
  1
strokes_ogs.tif
102
RTVSPost2010PropOp54
 70
     1
102
RTVSPost2010Prop55
280
     0
102
RTVSPost2010PropOp55
 70
     1
102
RTVSPost2010Prop56
140
1.0
102
RTVSPost2010PropOp56
 70
     1
102
RTVSPost2010Prop57
140
1.0
102
RTVSPost2010PropOp57
 70
     1
102
RTVSPropertyOp0
 70
     1
102
RTVSPropertyOp1
 70
     1
102
RTVSPropertyOp2
 70
     1
102
RTVSPropertyOp3
 70
     1
102
RTVSPropertyOp4
 70
     1
102
RTVSPropertyOp5
 70
     1
102
RTVSPropertyOp6
 70
     1
102
RTVSPropertyOp7
 70
     1
102
RTVSPropertyOp8
 70
     1
102
RTVSPropertyOp9
 70
     1
102
RTVSPropertyOp10
 70
     1
102
RTVSPropertyOp11
 70
     1
102
RTVSPropertyOp12
 70
     1
102
RTVSPropertyOp13
 70
     1
102
RTVSPropertyOp14
 70
     1
102
RTVSPropertyOp15
 70
     1
102
RTVSPropertyOp16
 70
     1
102
RTVSPropertyOp17
 70
     1
102
RTVSPropertyOp18
 70
     1
102
RTVSPropertyOp19
 70
     1
102
RTVSPropertyOp20
 70
     1
102
RTVSPropertyOp21
 70
     1
102
RTVSPropertyOp22
 70
     1
102
RTVSPropertyOp23
 70
     1
102
RTVSPropertyOp24
 70
     1
102
RTVSPropertyOp25
 70
     1
102
RTVSPropertyOp26
 70
     1
102
RTVSPropertyOp27
 70
     1
102
RTVSPropertyOp28
 70
     1
102
RTVSPropertyOp29
 70
     1
102
RTVSPropertyOp30
 70
     1
102
RTVSPropertyOp31
 70
     1
102
RTVSPropertyOp32
 70
     1
102
RTVSPropertyOp33
 70
     1
102
RTVSPropertyOp34
 70
     1
102
RTVSPropertyOp35
 70
     1
102
RTVSPropertyOp36
 70
     1
102
RTVSPropertyOp37
 70
     1
102
RTVSPropertyOp38
 70
     1
102
RTVSPropertyOp39
 70
     1
102
RTVSPropertyOp40
 70
     1
102
RTVSPropertyOp41
 70
     1
102
RTVSPropertyOp42
 70
     1
102
RTVSPropertyOp43
 70
     1
102
RTVSPropertyOp44
 70
     1
102
RTVSPropertyOp45
 70
     1
102
RTVSPropertyOp46
 70
     1
102
RTVSPropertyOp47
 70
     1
102
RTVSPropertyOp48
 70
     1
102
RTVSPropertyOp49
 70
     1
102
RTVSPropertyOp50
 70
     1
102
RTVSPropertyOp51
 70
     0
102
RTVSPropertyOp52
 70
     0
102
RTVSPropertyOp53
 70
     1
102
RTVSPropertyOp54
 70
     1
102
RTVSPropertyOp55
 70
     1
102
RTVSPropertyOp56
 70
     1
102
RTVSPropertyOp57
 70
     1
102
RTVSPropertyOp58
 70
     1
102
RTVSPropertyOp59
 70
     1
102
RTVSPropertyOp60
 70
     1
102
RTVSPropertyOp61
 70
     1
102
RTVSPropertyOp62
 70
     1
  0
XRECORD
  5
DB0
102
{ACAD_REACTORS
330
DAF
102
}
330
DAF
100
AcDbXrecord
280
     1
102
RTVSPost2010Prop28
280
     0
102
RTVSPost2010PropOp28
 70
     1
102
RTVSPost2010Prop29
280
     1
102
RTVSPost2010PropOp29
 70
     1
102
RTVSPost2010Prop30
280
     1
102
RTVSPost2010PropOp30
 70
     1
102
RTVSPost2010Prop31
280
     0
102
RTVSPost2010PropOp31
 70
     1
102
RTVSPost2010Prop32
280
     0
102
RTVSPost2010PropOp32
 70
     1
102
RTVSPost2010Prop33
280
     0
102
RTVSPost2010PropOp33
 70
     1
102
RTVSPost2010Prop34
280
     0
102
RTVSPost2010PropOp34
 70
     1
102
RTVSPost2010Prop35
280
     0
102
RTVSPost2010PropOp35
 70
     1
102
RTVSPost2010Prop36
280
     0
102
RTVSPost2010PropOp36
 70
     1
102
RTVSPost2010Prop37
 90
       50
102
RTVSPost2010PropOp37
 70
     1
102
RTVSPost2010Prop38
140
0.0
102
RTVSPost2010PropOp38
 70
     1
102
RTVSPost2010Prop39
140
1.0
102
RTVSPost2010PropOp39
 70
     1
102
RTVSPost2010Prop40
 90
        0
102
RTVSPost2010PropOp40
 70
     1
102
RTVSPost2010Prop41ColorIndex
 90
       18
102
RTVSPost2010Prop41ColorRGB
 90
        0
102
RTVSPost2010PropOp41
 70
     1
102
RTVSPost2010Prop42
 90
       50
102
RTVSPost2010PropOp42
 70
     1
102
RTVSPost2010Prop43
 90
        3
102
RTVSPost2010PropOp43
 70
     1
102
RTVSPost2010Prop44ColorIndex
 90
        5
102
RTVSPost2010Prop44ColorRGB
 90
      255
102
RTVSPost2010PropOp44
 70
     1
102
RTVSPost2010Prop45
280
     0
102
RTVSPost2010PropOp45
 70
     1
102
RTVSPost2010Prop46
 90
       50
102
RTVSPost2010PropOp46
 70
     1
102
RTVSPost2010Prop47
 90
       50
102
RTVSPost2010PropOp47
 70
     1
102
RTVSPost2010Prop48
 90
       50
102
RTVSPost2010PropOp48
 70
     1
102
RTVSPost2010Prop49
280
     0
102
RTVSPost2010PropOp49
 70
     1
102
RTVSPost2010Prop50
 90
       50
102
RTVSPost2010PropOp50
 70
     1
102
RTVSPost2010Prop51ColorIndex
 90
      256
102
RTVSPost2010Prop51ColorRGB
 90
-16777216
102
RTVSPost2010PropOp51
 70
     0
102
RTVSPost2010Prop52
140
1.0
102
RTVSPost2010PropOp52
 70
     0
102
RTVSPost2010Prop53
 90
        2
102
RTVSPost2010PropOp53
 70
     1
102
RTVSPost2010Prop54
  1
strokes_ogs.tif
102
RTVSPost2010PropOp54
 70
     1
102
RTVSPost2010Prop55
280
     0
102
RTVSPost2010PropOp55
 70
     1
102
RTVSPost2010Prop56
140
1.0
102
RTVSPost2010PropOp56
 70
     1
102
RTVSPost2010Prop57
140
1.0
102
RTVSPost2010PropOp57
 70
     1
102
RTVSPropertyOp0
 70
     1
102
RTVSPropertyOp1
 70
     1
102
RTVSPropertyOp2
 70
     1
102
RTVSPropertyOp3
 70
     1
102
RTVSPropertyOp4
 70
     1
102
RTVSPropertyOp5
 70
     1
102
RTVSPropertyOp6
 70
     1
102
RTVSPropertyOp7
 70
     1
102
RTVSPropertyOp8
 70
     1
102
RTVSPropertyOp9
 70
     1
102
RTVSPropertyOp10
 70
     1
102
RTVSPropertyOp11
 70
     1
102
RTVSPropertyOp12
 70
     1
102
RTVSPropertyOp13
 70
     1
102
RTVSPropertyOp14
 70
     1
102
RTVSPropertyOp15
 70
     1
102
RTVSPropertyOp16
 70
     1
102
RTVSPropertyOp17
 70
     1
102
RTVSPropertyOp18
 70
     1
102
RTVSPropertyOp19
 70
     1
102
RTVSPropertyOp20
 70
     1
102
RTVSPropertyOp21
 70
     1
102
RTVSPropertyOp22
 70
     1
102
RTVSPropertyOp23
 70
     1
102
RTVSPropertyOp24
 70
     1
102
RTVSPropertyOp25
 70
     1
102
RTVSPropertyOp26
 70
     1
102
RTVSPropertyOp27
 70
     1
102
RTVSPropertyOp28
 70
     1
102
RTVSPropertyOp29
 70
     1
102
RTVSPropertyOp30
 70
     1
102
RTVSPropertyOp31
 70
     1
102
RTVSPropertyOp32
 70
     1
102
RTVSPropertyOp33
 70
     1
102
RTVSPropertyOp34
 70
     1
102
RTVSPropertyOp35
 70
     1
102
RTVSPropertyOp36
 70
     1
102
RTVSPropertyOp37
 70
     1
102
RTVSPropertyOp38
 70
     1
102
RTVSPropertyOp39
 70
     1
102
RTVSPropertyOp40
 70
     1
102
RTVSPropertyOp41
 70
     1
102
RTVSPropertyOp42
 70
     1
102
RTVSPropertyOp43
 70
     1
102
RTVSPropertyOp44
 70
     1
102
RTVSPropertyOp45
 70
     1
102
RTVSPropertyOp46
 70
     1
102
RTVSPropertyOp47
 70
     1
102
RTVSPropertyOp48
 70
     1
102
RTVSPropertyOp49
 70
     1
102
RTVSPropertyOp50
 70
     1
102
RTVSPropertyOp51
 70
     0
102
RTVSPropertyOp52
 70
     0
102
RTVSPropertyOp53
 70
     1
102
RTVSPropertyOp54
 70
     1
102
RTVSPropertyOp55
 70
     1
102
RTVSPropertyOp56
 70
     1
102
RTVSPropertyOp57
 70
     1
102
RTVSPropertyOp58
 70
     1
102
RTVSPropertyOp59
 70
     1
102
RTVSPropertyOp60
 70
     1
102
RTVSPropertyOp61
 70
     1
102
RTVSPropertyOp62
 70
     1
  0
XRECORD
  5
DCA
102
{ACAD_REACTORS
330
DC9
102
}
330
DC9
100
AcDbXrecord
280
     1
102
RTVSPost2010Prop28
280
     0
102
RTVSPost2010PropOp28
 70
     1
102
RTVSPost2010Prop29
280
     1
102
RTVSPost2010PropOp29
 70
     1
102
RTVSPost2010Prop30
280
     1
102
RTVSPost2010PropOp30
 70
     1
102
RTVSPost2010Prop31
280
     0
102
RTVSPost2010PropOp31
 70
     1
102
RTVSPost2010Prop32
280
     0
102
RTVSPost2010PropOp32
 70
     1
102
RTVSPost2010Prop33
280
     0
102
RTVSPost2010PropOp33
 70
     1
102
RTVSPost2010Prop34
280
     0
102
RTVSPost2010PropOp34
 70
     1
102
RTVSPost2010Prop35
280
     0
102
RTVSPost2010PropOp35
 70
     1
102
RTVSPost2010Prop36
280
     0
102
RTVSPost2010PropOp36
 70
     1
102
RTVSPost2010Prop37
 90
       50
102
RTVSPost2010PropOp37
 70
     0
102
RTVSPost2010Prop38
140
0.0
102
RTVSPost2010PropOp38
 70
     0
102
RTVSPost2010Prop39
140
1.0
102
RTVSPost2010PropOp39
 70
     0
102
RTVSPost2010Prop40
 90
        0
102
RTVSPost2010PropOp40
 70
     0
102
RTVSPost2010Prop41ColorIndex
 90
       18
102
RTVSPost2010Prop41ColorRGB
 90
        0
102
RTVSPost2010PropOp41
 70
     0
102
RTVSPost2010Prop42
 90
       50
102
RTVSPost2010PropOp42
 70
     0
102
RTVSPost2010Prop43
 90
        3
102
RTVSPost2010PropOp43
 70
     0
102
RTVSPost2010Prop44ColorIndex
 90
        5
102
RTVSPost2010Prop44ColorRGB
 90
      255
102
RTVSPost2010PropOp44
 70
     0
102
RTVSPost2010Prop45
280
     0
102
RTVSPost2010PropOp45
 70
     1
102
RTVSPost2010Prop46
 90
       50
102
RTVSPost2010PropOp46
 70
     0
102
RTVSPost2010Prop47
 90
       50
102
RTVSPost2010PropOp47
 70
     0
102
RTVSPost2010Prop48
 90
       50
102
RTVSPost2010PropOp48
 70
     0
102
RTVSPost2010Prop49
280
     0
102
RTVSPost2010PropOp49
 70
     1
102
RTVSPost2010Prop50
 90
       50
102
RTVSPost2010PropOp50
 70
     0
102
RTVSPost2010Prop51ColorIndex
 90
      256
102
RTVSPost2010Prop51ColorRGB
 90
-16777216
102
RTVSPost2010PropOp51
 70
     0
102
RTVSPost2010Prop52
140
1.0
102
RTVSPost2010PropOp52
 70
     0
102
RTVSPost2010Prop53
 90
        2
102
RTVSPost2010PropOp53
 70
     0
102
RTVSPost2010Prop54
  1
strokes_ogs.tif
102
RTVSPost2010PropOp54
 70
     0
102
RTVSPost2010Prop55
280
     0
102
RTVSPost2010PropOp55
 70
     1
102
RTVSPost2010Prop56
140
1.0
102
RTVSPost2010PropOp56
 70
     0
102
RTVSPost2010Prop57
140
1.0
102
RTVSPost2010PropOp57
 70
     0
102
RTVSPropertyOp0
 70
     0
102
RTVSPropertyOp1
 70
     0
102
RTVSPropertyOp2
 70
     0
102
RTVSPropertyOp3
 70
     0
102
RTVSPropertyOp4
 70
     0
102
RTVSPropertyOp5
 70
     0
102
RTVSPropertyOp6
 70
     0
102
RTVSPropertyOp7
 70
     0
102
RTVSPropertyOp8
 70
     0
102
RTVSPropertyOp9
 70
     0
102
RTVSPropertyOp10
 70
     0
102
RTVSPropertyOp11
 70
     0
102
RTVSPropertyOp12
 70
     0
102
RTVSPropertyOp13
 70
     0
102
RTVSPropertyOp14
 70
     2
102
RTVSPropertyOp15
 70
     0
102
RTVSPropertyOp16
 70
     0
102
RTVSPropertyOp17
 70
     0
102
RTVSPropertyOp18
 70
     0
102
RTVSPropertyOp19
 70
     0
102
RTVSPropertyOp20
 70
     0
102
RTVSPropertyOp21
 70
     0
102
RTVSPropertyOp22
 70
     0
102
RTVSPropertyOp23
 70
     0
102
RTVSPropertyOp24
 70
     0
102
RTVSPropertyOp25
 70
     0
102
RTVSPropertyOp26
 70
     0
102
RTVSPropertyOp27
 70
     0
102
RTVSPropertyOp28
 70
     1
102
RTVSPropertyOp29
 70
     1
102
RTVSPropertyOp30
 70
     1
102
RTVSPropertyOp31
 70
     1
102
RTVSPropertyOp32
 70
     1
102
RTVSPropertyOp33
 70
     1
102
RTVSPropertyOp34
 70
     1
102
RTVSPropertyOp35
 70
     1
102
RTVSPropertyOp36
 70
     1
102
RTVSPropertyOp37
 70
     0
102
RTVSPropertyOp38
 70
     0
102
RTVSPropertyOp39
 70
     0
102
RTVSPropertyOp40
 70
     0
102
RTVSPropertyOp41
 70
     0
102
RTVSPropertyOp42
 70
     0
102
RTVSPropertyOp43
 70
     0
102
RTVSPropertyOp44
 70
     0
102
RTVSPropertyOp45
 70
     1
102
RTVSPropertyOp46
 70
     0
102
RTVSPropertyOp47
 70
     0
102
RTVSPropertyOp48
 70
     0
102
RTVSPropertyOp49
 70
     1
102
RTVSPropertyOp50
 70
     0
102
RTVSPropertyOp51
 70
     0
102
RTVSPropertyOp52
 70
     0
102
RTVSPropertyOp53
 70
     0
102
RTVSPropertyOp54
 70
     0
102
RTVSPropertyOp55
 70
     1
102
RTVSPropertyOp56
 70
     0
102
RTVSPropertyOp57
 70
     0
102
RTVSPropertyOp58
 70
     0
102
RTVSPropertyOp59
 70
     0
102
RTVSPropertyOp60
 70
     0
102
RTVSPropertyOp61
 70
     0
102
RTVSPropertyOp62
 70
     0
  0
XRECORD
  5
DB8
102
{ACAD_REACTORS
330
DB7
102
}
330
DB7
100
AcDbXrecord
280
     1
102
RTVSPost2010Prop28
280
     0
102
RTVSPost2010PropOp28
 70
     1
102
RTVSPost2010Prop29
280
     1
102
RTVSPost2010PropOp29
 70
     1
102
RTVSPost2010Prop30
280
     1
102
RTVSPost2010PropOp30
 70
     1
102
RTVSPost2010Prop31
280
     0
102
RTVSPost2010PropOp31
 70
     1
102
RTVSPost2010Prop32
280
     0
102
RTVSPost2010PropOp32
 70
     1
102
RTVSPost2010Prop33
280
     0
102
RTVSPost2010PropOp33
 70
     1
102
RTVSPost2010Prop34
280
     0
102
RTVSPost2010PropOp34
 70
     1
102
RTVSPost2010Prop35
280
     0
102
RTVSPost2010PropOp35
 70
     1
102
RTVSPost2010Prop36
280
     0
102
RTVSPost2010PropOp36
 70
     1
102
RTVSPost2010Prop37
 90
       50
102
RTVSPost2010PropOp37
 70
     1
102
RTVSPost2010Prop38
140
0.0
102
RTVSPost2010PropOp38
 70
     1
102
RTVSPost2010Prop39
140
1.0
102
RTVSPost2010PropOp39
 70
     1
102
RTVSPost2010Prop40
 90
        0
102
RTVSPost2010PropOp40
 70
     1
102
RTVSPost2010Prop41ColorIndex
 90
       18
102
RTVSPost2010Prop41ColorRGB
 90
        0
102
RTVSPost2010PropOp41
 70
     1
102
RTVSPost2010Prop42
 90
       50
102
RTVSPost2010PropOp42
 70
     1
102
RTVSPost2010Prop43
 90
        3
102
RTVSPost2010PropOp43
 70
     1
102
RTVSPost2010Prop44ColorIndex
 90
        5
102
RTVSPost2010Prop44ColorRGB
 90
      255
102
RTVSPost2010PropOp44
 70
     1
102
RTVSPost2010Prop45
280
     0
102
RTVSPost2010PropOp45
 70
     1
102
RTVSPost2010Prop46
 90
       50
102
RTVSPost2010PropOp46
 70
     1
102
RTVSPost2010Prop47
 90
       50
102
RTVSPost2010PropOp47
 70
     1
102
RTVSPost2010Prop48
 90
       50
102
RTVSPost2010PropOp48
 70
     1
102
RTVSPost2010Prop49
280
     0
102
RTVSPost2010PropOp49
 70
     1
102
RTVSPost2010Prop50
 90
       50
102
RTVSPost2010PropOp50
 70
     1
102
RTVSPost2010Prop51ColorIndex
 90
      256
102
RTVSPost2010Prop51ColorRGB
 90
-16777216
102
RTVSPost2010PropOp51
 70
     0
102
RTVSPost2010Prop52
140
1.0
102
RTVSPost2010PropOp52
 70
     0
102
RTVSPost2010Prop53
 90
        2
102
RTVSPost2010PropOp53
 70
     1
102
RTVSPost2010Prop54
  1
strokes_ogs.tif
102
RTVSPost2010PropOp54
 70
     1
102
RTVSPost2010Prop55
280
     0
102
RTVSPost2010PropOp55
 70
     1
102
RTVSPost2010Prop56
140
1.0
102
RTVSPost2010PropOp56
 70
     1
102
RTVSPost2010Prop57
140
1.0
102
RTVSPost2010PropOp57
 70
     1
102
RTVSPropertyOp0
 70
     1
102
RTVSPropertyOp1
 70
     1
102
RTVSPropertyOp2
 70
     1
102
RTVSPropertyOp3
 70
     1
102
RTVSPropertyOp4
 70
     1
102
RTVSPropertyOp5
 70
     1
102
RTVSPropertyOp6
 70
     1
102
RTVSPropertyOp7
 70
     1
102
RTVSPropertyOp8
 70
     1
102
RTVSPropertyOp9
 70
     1
102
RTVSPropertyOp10
 70
     1
102
RTVSPropertyOp11
 70
     1
102
RTVSPropertyOp12
 70
     1
102
RTVSPropertyOp13
 70
     1
102
RTVSPropertyOp14
 70
     1
102
RTVSPropertyOp15
 70
     1
102
RTVSPropertyOp16
 70
     1
102
RTVSPropertyOp17
 70
     1
102
RTVSPropertyOp18
 70
     1
102
RTVSPropertyOp19
 70
     1
102
RTVSPropertyOp20
 70
     1
102
RTVSPropertyOp21
 70
     1
102
RTVSPropertyOp22
 70
     1
102
RTVSPropertyOp23
 70
     1
102
RTVSPropertyOp24
 70
     1
102
RTVSPropertyOp25
 70
     1
102
RTVSPropertyOp26
 70
     1
102
RTVSPropertyOp27
 70
     1
102
RTVSPropertyOp28
 70
     1
102
RTVSPropertyOp29
 70
     1
102
RTVSPropertyOp30
 70
     1
102
RTVSPropertyOp31
 70
     1
102
RTVSPropertyOp32
 70
     1
102
RTVSPropertyOp33
 70
     1
102
RTVSPropertyOp34
 70
     1
102
RTVSPropertyOp35
 70
     1
102
RTVSPropertyOp36
 70
     1
102
RTVSPropertyOp37
 70
     1
102
RTVSPropertyOp38
 70
     1
102
RTVSPropertyOp39
 70
     1
102
RTVSPropertyOp40
 70
     1
102
RTVSPropertyOp41
 70
     1
102
RTVSPropertyOp42
 70
     1
102
RTVSPropertyOp43
 70
     1
102
RTVSPropertyOp44
 70
     1
102
RTVSPropertyOp45
 70
     1
102
RTVSPropertyOp46
 70
     1
102
RTVSPropertyOp47
 70
     1
102
RTVSPropertyOp48
 70
     1
102
RTVSPropertyOp49
 70
     1
102
RTVSPropertyOp50
 70
     1
102
RTVSPropertyOp51
 70
     0
102
RTVSPropertyOp52
 70
     0
102
RTVSPropertyOp53
 70
     1
102
RTVSPropertyOp54
 70
     1
102
RTVSPropertyOp55
 70
     1
102
RTVSPropertyOp56
 70
     1
102
RTVSPropertyOp57
 70
     1
102
RTVSPropertyOp58
 70
     1
102
RTVSPropertyOp59
 70
     1
102
RTVSPropertyOp60
 70
     1
102
RTVSPropertyOp61
 70
     1
102
RTVSPropertyOp62
 70
     1
  0
XRECORD
  5
D9C
102
{ACAD_REACTORS
330
D9B
102
}
330
D9B
100
AcDbXrecord
280
     1
102
RTVSPost2010Prop28
280
     0
102
RTVSPost2010PropOp28
 70
     1
102
RTVSPost2010Prop29
280
     1
102
RTVSPost2010PropOp29
 70
     1
102
RTVSPost2010Prop30
280
     1
102
RTVSPost2010PropOp30
 70
     1
102
RTVSPost2010Prop31
280
     0
102
RTVSPost2010PropOp31
 70
     1
102
RTVSPost2010Prop32
280
     0
102
RTVSPost2010PropOp32
 70
     1
102
RTVSPost2010Prop33
280
     0
102
RTVSPost2010PropOp33
 70
     1
102
RTVSPost2010Prop34
280
     0
102
RTVSPost2010PropOp34
 70
     1
102
RTVSPost2010Prop35
280
     0
102
RTVSPost2010PropOp35
 70
     1
102
RTVSPost2010Prop36
280
     0
102
RTVSPost2010PropOp36
 70
     1
102
RTVSPost2010Prop37
 90
       50
102
RTVSPost2010PropOp37
 70
     1
102
RTVSPost2010Prop38
140
0.0
102
RTVSPost2010PropOp38
 70
     1
102
RTVSPost2010Prop39
140
1.0
102
RTVSPost2010PropOp39
 70
     1
102
RTVSPost2010Prop40
 90
        0
102
RTVSPost2010PropOp40
 70
     1
102
RTVSPost2010Prop41ColorIndex
 90
       18
102
RTVSPost2010Prop41ColorRGB
 90
        0
102
RTVSPost2010PropOp41
 70
     1
102
RTVSPost2010Prop42
 90
       50
102
RTVSPost2010PropOp42
 70
     1
102
RTVSPost2010Prop43
 90
        3
102
RTVSPost2010PropOp43
 70
     1
102
RTVSPost2010Prop44ColorIndex
 90
        5
102
RTVSPost2010Prop44ColorRGB
 90
      255
102
RTVSPost2010PropOp44
 70
     1
102
RTVSPost2010Prop45
280
     0
102
RTVSPost2010PropOp45
 70
     1
102
RTVSPost2010Prop46
 90
       50
102
RTVSPost2010PropOp46
 70
     1
102
RTVSPost2010Prop47
 90
       50
102
RTVSPost2010PropOp47
 70
     1
102
RTVSPost2010Prop48
 90
       50
102
RTVSPost2010PropOp48
 70
     1
102
RTVSPost2010Prop49
280
     0
102
RTVSPost2010PropOp49
 70
     1
102
RTVSPost2010Prop50
 90
       50
102
RTVSPost2010PropOp50
 70
     1
102
RTVSPost2010Prop51ColorIndex
 90
      256
102
RTVSPost2010Prop51ColorRGB
 90
-16777216
102
RTVSPost2010PropOp51
 70
     0
102
RTVSPost2010Prop52
140
1.0
102
RTVSPost2010PropOp52
 70
     0
102
RTVSPost2010Prop53
 90
        2
102
RTVSPost2010PropOp53
 70
     1
102
RTVSPost2010Prop54
  1
strokes_ogs.tif
102
RTVSPost2010PropOp54
 70
     1
102
RTVSPost2010Prop55
280
     0
102
RTVSPost2010PropOp55
 70
     1
102
RTVSPost2010Prop56
140
1.0
102
RTVSPost2010PropOp56
 70
     1
102
RTVSPost2010Prop57
140
1.0
102
RTVSPost2010PropOp57
 70
     1
102
RTVSPropertyOp0
 70
     1
102
RTVSPropertyOp1
 70
     1
102
RTVSPropertyOp2
 70
     1
102
RTVSPropertyOp3
 70
     1
102
RTVSPropertyOp4
 70
     1
102
RTVSPropertyOp5
 70
     1
102
RTVSPropertyOp6
 70
     1
102
RTVSPropertyOp7
 70
     1
102
RTVSPropertyOp8
 70
     1
102
RTVSPropertyOp9
 70
     1
102
RTVSPropertyOp10
 70
     1
102
RTVSPropertyOp11
 70
     1
102
RTVSPropertyOp12
 70
     1
102
RTVSPropertyOp13
 70
     1
102
RTVSPropertyOp14
 70
     1
102
RTVSPropertyOp15
 70
     1
102
RTVSPropertyOp16
 70
     1
102
RTVSPropertyOp17
 70
     1
102
RTVSPropertyOp18
 70
     1
102
RTVSPropertyOp19
 70
     1
102
RTVSPropertyOp20
 70
     1
102
RTVSPropertyOp21
 70
     1
102
RTVSPropertyOp22
 70
     1
102
RTVSPropertyOp23
 70
     1
102
RTVSPropertyOp24
 70
     1
102
RTVSPropertyOp25
 70
     1
102
RTVSPropertyOp26
 70
     1
102
RTVSPropertyOp27
 70
     1
102
RTVSPropertyOp28
 70
     1
102
RTVSPropertyOp29
 70
     1
102
RTVSPropertyOp30
 70
     1
102
RTVSPropertyOp31
 70
     1
102
RTVSPropertyOp32
 70
     1
102
RTVSPropertyOp33
 70
     1
102
RTVSPropertyOp34
 70
     1
102
RTVSPropertyOp35
 70
     1
102
RTVSPropertyOp36
 70
     1
102
RTVSPropertyOp37
 70
     1
102
RTVSPropertyOp38
 70
     1
102
RTVSPropertyOp39
 70
     1
102
RTVSPropertyOp40
 70
     1
102
RTVSPropertyOp41
 70
     1
102
RTVSPropertyOp42
 70
     1
102
RTVSPropertyOp43
 70
     1
102
RTVSPropertyOp44
 70
     1
102
RTVSPropertyOp45
 70
     1
102
RTVSPropertyOp46
 70
     1
102
RTVSPropertyOp47
 70
     1
102
RTVSPropertyOp48
 70
     1
102
RTVSPropertyOp49
 70
     1
102
RTVSPropertyOp50
 70
     1
102
RTVSPropertyOp51
 70
     0
102
RTVSPropertyOp52
 70
     0
102
RTVSPropertyOp53
 70
     1
102
RTVSPropertyOp54
 70
     1
102
RTVSPropertyOp55
 70
     1
102
RTVSPropertyOp56
 70
     1
102
RTVSPropertyOp57
 70
     1
102
RTVSPropertyOp58
 70
     1
102
RTVSPropertyOp59
 70
     1
102
RTVSPropertyOp60
 70
     1
102
RTVSPropertyOp61
 70
     1
102
RTVSPropertyOp62
 70
     1
  0
XRECORD
  5
D9E
102
{ACAD_REACTORS
330
D9D
102
}
330
D9D
100
AcDbXrecord
280
     1
102
RTVSPost2010Prop28
280
     0
102
RTVSPost2010PropOp28
 70
     1
102
RTVSPost2010Prop29
280
     1
102
RTVSPost2010PropOp29
 70
     1
102
RTVSPost2010Prop30
280
     1
102
RTVSPost2010PropOp30
 70
     1
102
RTVSPost2010Prop31
280
     0
102
RTVSPost2010PropOp31
 70
     1
102
RTVSPost2010Prop32
280
     0
102
RTVSPost2010PropOp32
 70
     1
102
RTVSPost2010Prop33
280
     0
102
RTVSPost2010PropOp33
 70
     1
102
RTVSPost2010Prop34
280
     0
102
RTVSPost2010PropOp34
 70
     1
102
RTVSPost2010Prop35
280
     0
102
RTVSPost2010PropOp35
 70
     1
102
RTVSPost2010Prop36
280
     0
102
RTVSPost2010PropOp36
 70
     1
102
RTVSPost2010Prop37
 90
       50
102
RTVSPost2010PropOp37
 70
     1
102
RTVSPost2010Prop38
140
0.0
102
RTVSPost2010PropOp38
 70
     1
102
RTVSPost2010Prop39
140
1.0
102
RTVSPost2010PropOp39
 70
     1
102
RTVSPost2010Prop40
 90
        0
102
RTVSPost2010PropOp40
 70
     1
102
RTVSPost2010Prop41ColorIndex
 90
       18
102
RTVSPost2010Prop41ColorRGB
 90
        0
102
RTVSPost2010PropOp41
 70
     1
102
RTVSPost2010Prop42
 90
       50
102
RTVSPost2010PropOp42
 70
     1
102
RTVSPost2010Prop43
 90
        3
102
RTVSPost2010PropOp43
 70
     1
102
RTVSPost2010Prop44ColorIndex
 90
        5
102
RTVSPost2010Prop44ColorRGB
 90
      255
102
RTVSPost2010PropOp44
 70
     1
102
RTVSPost2010Prop45
280
     0
102
RTVSPost2010PropOp45
 70
     1
102
RTVSPost2010Prop46
 90
       50
102
RTVSPost2010PropOp46
 70
     1
102
RTVSPost2010Prop47
 90
       50
102
RTVSPost2010PropOp47
 70
     1
102
RTVSPost2010Prop48
 90
       50
102
RTVSPost2010PropOp48
 70
     1
102
RTVSPost2010Prop49
280
     0
102
RTVSPost2010PropOp49
 70
     1
102
RTVSPost2010Prop50
 90
       50
102
RTVSPost2010PropOp50
 70
     1
102
RTVSPost2010Prop51ColorIndex
 90
      256
102
RTVSPost2010Prop51ColorRGB
 90
-16777216
102
RTVSPost2010PropOp51
 70
     0
102
RTVSPost2010Prop52
140
1.0
102
RTVSPost2010PropOp52
 70
     0
102
RTVSPost2010Prop53
 90
        2
102
RTVSPost2010PropOp53
 70
     1
102
RTVSPost2010Prop54
  1
strokes_ogs.tif
102
RTVSPost2010PropOp54
 70
     1
102
RTVSPost2010Prop55
280
     0
102
RTVSPost2010PropOp55
 70
     1
102
RTVSPost2010Prop56
140
1.0
102
RTVSPost2010PropOp56
 70
     1
102
RTVSPost2010Prop57
140
1.0
102
RTVSPost2010PropOp57
 70
     1
102
RTVSPropertyOp0
 70
     1
102
RTVSPropertyOp1
 70
     1
102
RTVSPropertyOp2
 70
     1
102
RTVSPropertyOp3
 70
     1
102
RTVSPropertyOp4
 70
     1
102
RTVSPropertyOp5
 70
     1
102
RTVSPropertyOp6
 70
     1
102
RTVSPropertyOp7
 70
     1
102
RTVSPropertyOp8
 70
     1
102
RTVSPropertyOp9
 70
     1
102
RTVSPropertyOp10
 70
     1
102
RTVSPropertyOp11
 70
     1
102
RTVSPropertyOp12
 70
     1
102
RTVSPropertyOp13
 70
     1
102
RTVSPropertyOp14
 70
     1
102
RTVSPropertyOp15
 70
     1
102
RTVSPropertyOp16
 70
     1
102
RTVSPropertyOp17
 70
     1
102
RTVSPropertyOp18
 70
     1
102
RTVSPropertyOp19
 70
     1
102
RTVSPropertyOp20
 70
     1
102
RTVSPropertyOp21
 70
     1
102
RTVSPropertyOp22
 70
     1
102
RTVSPropertyOp23
 70
     1
102
RTVSPropertyOp24
 70
     1
102
RTVSPropertyOp25
 70
     1
102
RTVSPropertyOp26
 70
     1
102
RTVSPropertyOp27
 70
     1
102
RTVSPropertyOp28
 70
     1
102
RTVSPropertyOp29
 70
     1
102
RTVSPropertyOp30
 70
     1
102
RTVSPropertyOp31
 70
     1
102
RTVSPropertyOp32
 70
     1
102
RTVSPropertyOp33
 70
     1
102
RTVSPropertyOp34
 70
     1
102
RTVSPropertyOp35
 70
     1
102
RTVSPropertyOp36
 70
     1
102
RTVSPropertyOp37
 70
     1
102
RTVSPropertyOp38
 70
     1
102
RTVSPropertyOp39
 70
     1
102
RTVSPropertyOp40
 70
     1
102
RTVSPropertyOp41
 70
     1
102
RTVSPropertyOp42
 70
     1
102
RTVSPropertyOp43
 70
     1
102
RTVSPropertyOp44
 70
     1
102
RTVSPropertyOp45
 70
     1
102
RTVSPropertyOp46
 70
     1
102
RTVSPropertyOp47
 70
     1
102
RTVSPropertyOp48
 70
     1
102
RTVSPropertyOp49
 70
     1
102
RTVSPropertyOp50
 70
     1
102
RTVSPropertyOp51
 70
     0
102
RTVSPropertyOp52
 70
     0
102
RTVSPropertyOp53
 70
     1
102
RTVSPropertyOp54
 70
     1
102
RTVSPropertyOp55
 70
     1
102
RTVSPropertyOp56
 70
     1
102
RTVSPropertyOp57
 70
     1
102
RTVSPropertyOp58
 70
     1
102
RTVSPropertyOp59
 70
     1
102
RTVSPropertyOp60
 70
     1
102
RTVSPropertyOp61
 70
     1
102
RTVSPropertyOp62
 70
     1
  0
XRECORD
  5
DA0
102
{ACAD_REACTORS
330
D9F
102
}
330
D9F
100
AcDbXrecord
280
     1
102
RTVSPost2010Prop28
280
     0
102
RTVSPost2010PropOp28
 70
     1
102
RTVSPost2010Prop29
280
     1
102
RTVSPost2010PropOp29
 70
     1
102
RTVSPost2010Prop30
280
     1
102
RTVSPost2010PropOp30
 70
     1
102
RTVSPost2010Prop31
280
     0
102
RTVSPost2010PropOp31
 70
     1
102
RTVSPost2010Prop32
280
     0
102
RTVSPost2010PropOp32
 70
     1
102
RTVSPost2010Prop33
280
     0
102
RTVSPost2010PropOp33
 70
     1
102
RTVSPost2010Prop34
280
     0
102
RTVSPost2010PropOp34
 70
     1
102
RTVSPost2010Prop35
280
     0
102
RTVSPost2010PropOp35
 70
     1
102
RTVSPost2010Prop36
280
     0
102
RTVSPost2010PropOp36
 70
     1
102
RTVSPost2010Prop37
 90
       50
102
RTVSPost2010PropOp37
 70
     1
102
RTVSPost2010Prop38
140
0.0
102
RTVSPost2010PropOp38
 70
     1
102
RTVSPost2010Prop39
140
1.0
102
RTVSPost2010PropOp39
 70
     1
102
RTVSPost2010Prop40
 90
        0
102
RTVSPost2010PropOp40
 70
     1
102
RTVSPost2010Prop41ColorIndex
 90
       18
102
RTVSPost2010Prop41ColorRGB
 90
        0
102
RTVSPost2010PropOp41
 70
     1
102
RTVSPost2010Prop42
 90
       50
102
RTVSPost2010PropOp42
 70
     1
102
RTVSPost2010Prop43
 90
        3
102
RTVSPost2010PropOp43
 70
     1
102
RTVSPost2010Prop44ColorIndex
 90
        5
102
RTVSPost2010Prop44ColorRGB
 90
      255
102
RTVSPost2010PropOp44
 70
     1
102
RTVSPost2010Prop45
280
     0
102
RTVSPost2010PropOp45
 70
     1
102
RTVSPost2010Prop46
 90
       50
102
RTVSPost2010PropOp46
 70
     1
102
RTVSPost2010Prop47
 90
       50
102
RTVSPost2010PropOp47
 70
     1
102
RTVSPost2010Prop48
 90
       50
102
RTVSPost2010PropOp48
 70
     1
102
RTVSPost2010Prop49
280
     0
102
RTVSPost2010PropOp49
 70
     1
102
RTVSPost2010Prop50
 90
       50
102
RTVSPost2010PropOp50
 70
     1
102
RTVSPost2010Prop51ColorIndex
 90
      256
102
RTVSPost2010Prop51ColorRGB
 90
-16777216
102
RTVSPost2010PropOp51
 70
     0
102
RTVSPost2010Prop52
140
1.0
102
RTVSPost2010PropOp52
 70
     0
102
RTVSPost2010Prop53
 90
        2
102
RTVSPost2010PropOp53
 70
     1
102
RTVSPost2010Prop54
  1
strokes_ogs.tif
102
RTVSPost2010PropOp54
 70
     1
102
RTVSPost2010Prop55
280
     0
102
RTVSPost2010PropOp55
 70
     1
102
RTVSPost2010Prop56
140
1.0
102
RTVSPost2010PropOp56
 70
     1
102
RTVSPost2010Prop57
140
1.0
102
RTVSPost2010PropOp57
 70
     1
102
RTVSPropertyOp0
 70
     1
102
RTVSPropertyOp1
 70
     1
102
RTVSPropertyOp2
 70
     1
102
RTVSPropertyOp3
 70
     1
102
RTVSPropertyOp4
 70
     1
102
RTVSPropertyOp5
 70
     1
102
RTVSPropertyOp6
 70
     1
102
RTVSPropertyOp7
 70
     1
102
RTVSPropertyOp8
 70
     1
102
RTVSPropertyOp9
 70
     1
102
RTVSPropertyOp10
 70
     1
102
RTVSPropertyOp11
 70
     1
102
RTVSPropertyOp12
 70
     1
102
RTVSPropertyOp13
 70
     1
102
RTVSPropertyOp14
 70
     1
102
RTVSPropertyOp15
 70
     1
102
RTVSPropertyOp16
 70
     1
102
RTVSPropertyOp17
 70
     1
102
RTVSPropertyOp18
 70
     1
102
RTVSPropertyOp19
 70
     1
102
RTVSPropertyOp20
 70
     1
102
RTVSPropertyOp21
 70
     1
102
RTVSPropertyOp22
 70
     1
102
RTVSPropertyOp23
 70
     1
102
RTVSPropertyOp24
 70
     1
102
RTVSPropertyOp25
 70
     1
102
RTVSPropertyOp26
 70
     1
102
RTVSPropertyOp27
 70
     1
102
RTVSPropertyOp28
 70
     1
102
RTVSPropertyOp29
 70
     1
102
RTVSPropertyOp30
 70
     1
102
RTVSPropertyOp31
 70
     1
102
RTVSPropertyOp32
 70
     1
102
RTVSPropertyOp33
 70
     1
102
RTVSPropertyOp34
 70
     1
102
RTVSPropertyOp35
 70
     1
102
RTVSPropertyOp36
 70
     1
102
RTVSPropertyOp37
 70
     1
102
RTVSPropertyOp38
 70
     1
102
RTVSPropertyOp39
 70
     1
102
RTVSPropertyOp40
 70
     1
102
RTVSPropertyOp41
 70
     1
102
RTVSPropertyOp42
 70
     1
102
RTVSPropertyOp43
 70
     1
102
RTVSPropertyOp44
 70
     1
102
RTVSPropertyOp45
 70
     1
102
RTVSPropertyOp46
 70
     1
102
RTVSPropertyOp47
 70
     1
102
RTVSPropertyOp48
 70
     1
102
RTVSPropertyOp49
 70
     1
102
RTVSPropertyOp50
 70
     1
102
RTVSPropertyOp51
 70
     0
102
RTVSPropertyOp52
 70
     0
102
RTVSPropertyOp53
 70
     1
102
RTVSPropertyOp54
 70
     1
102
RTVSPropertyOp55
 70
     1
102
RTVSPropertyOp56
 70
     1
102
RTVSPropertyOp57
 70
     1
102
RTVSPropertyOp58
 70
     1
102
RTVSPropertyOp59
 70
     1
102
RTVSPropertyOp60
 70
     1
102
RTVSPropertyOp61
 70
     1
102
RTVSPropertyOp62
 70
     1
  0
XRECORD
  5
DA2
102
{ACAD_REACTORS
330
DA1
102
}
330
DA1
100
AcDbXrecord
280
     1
102
RTVSPost2010Prop28
280
     0
102
RTVSPost2010PropOp28
 70
     1
102
RTVSPost2010Prop29
280
     1
102
RTVSPost2010PropOp29
 70
     1
102
RTVSPost2010Prop30
280
     1
102
RTVSPost2010PropOp30
 70
     1
102
RTVSPost2010Prop31
280
     0
102
RTVSPost2010PropOp31
 70
     1
102
RTVSPost2010Prop32
280
     0
102
RTVSPost2010PropOp32
 70
     1
102
RTVSPost2010Prop33
280
     0
102
RTVSPost2010PropOp33
 70
     1
102
RTVSPost2010Prop34
280
     0
102
RTVSPost2010PropOp34
 70
     1
102
RTVSPost2010Prop35
280
     0
102
RTVSPost2010PropOp35
 70
     1
102
RTVSPost2010Prop36
280
     0
102
RTVSPost2010PropOp36
 70
     1
102
RTVSPost2010Prop37
 90
       50
102
RTVSPost2010PropOp37
 70
     1
102
RTVSPost2010Prop38
140
0.0
102
RTVSPost2010PropOp38
 70
     1
102
RTVSPost2010Prop39
140
1.0
102
RTVSPost2010PropOp39
 70
     1
102
RTVSPost2010Prop40
 90
        0
102
RTVSPost2010PropOp40
 70
     1
102
RTVSPost2010Prop41ColorIndex
 90
       18
102
RTVSPost2010Prop41ColorRGB
 90
        0
102
RTVSPost2010PropOp41
 70
     1
102
RTVSPost2010Prop42
 90
       50
102
RTVSPost2010PropOp42
 70
     1
102
RTVSPost2010Prop43
 90
        3
102
RTVSPost2010PropOp43
 70
     1
102
RTVSPost2010Prop44ColorIndex
 90
        5
102
RTVSPost2010Prop44ColorRGB
 90
      255
102
RTVSPost2010PropOp44
 70
     1
102
RTVSPost2010Prop45
280
     0
102
RTVSPost2010PropOp45
 70
     1
102
RTVSPost2010Prop46
 90
       50
102
RTVSPost2010PropOp46
 70
     1
102
RTVSPost2010Prop47
 90
       50
102
RTVSPost2010PropOp47
 70
     1
102
RTVSPost2010Prop48
 90
       50
102
RTVSPost2010PropOp48
 70
     1
102
RTVSPost2010Prop49
280
     0
102
RTVSPost2010PropOp49
 70
     1
102
RTVSPost2010Prop50
 90
       50
102
RTVSPost2010PropOp50
 70
     1
102
RTVSPost2010Prop51ColorIndex
 90
      256
102
RTVSPost2010Prop51ColorRGB
 90
-16777216
102
RTVSPost2010PropOp51
 70
     0
102
RTVSPost2010Prop52
140
1.0
102
RTVSPost2010PropOp52
 70
     0
102
RTVSPost2010Prop53
 90
        2
102
RTVSPost2010PropOp53
 70
     1
102
RTVSPost2010Prop54
  1
strokes_ogs.tif
102
RTVSPost2010PropOp54
 70
     1
102
RTVSPost2010Prop55
280
     0
102
RTVSPost2010PropOp55
 70
     1
102
RTVSPost2010Prop56
140
1.0
102
RTVSPost2010PropOp56
 70
     1
102
RTVSPost2010Prop57
140
1.0
102
RTVSPost2010PropOp57
 70
     1
102
RTVSPropertyOp0
 70
     1
102
RTVSPropertyOp1
 70
     1
102
RTVSPropertyOp2
 70
     1
102
RTVSPropertyOp3
 70
     1
102
RTVSPropertyOp4
 70
     1
102
RTVSPropertyOp5
 70
     1
102
RTVSPropertyOp6
 70
     1
102
RTVSPropertyOp7
 70
     1
102
RTVSPropertyOp8
 70
     1
102
RTVSPropertyOp9
 70
     1
102
RTVSPropertyOp10
 70
     1
102
RTVSPropertyOp11
 70
     1
102
RTVSPropertyOp12
 70
     1
102
RTVSPropertyOp13
 70
     1
102
RTVSPropertyOp14
 70
     1
102
RTVSPropertyOp15
 70
     1
102
RTVSPropertyOp16
 70
     1
102
RTVSPropertyOp17
 70
     1
102
RTVSPropertyOp18
 70
     1
102
RTVSPropertyOp19
 70
     1
102
RTVSPropertyOp20
 70
     1
102
RTVSPropertyOp21
 70
     1
102
RTVSPropertyOp22
 70
     1
102
RTVSPropertyOp23
 70
     1
102
RTVSPropertyOp24
 70
     1
102
RTVSPropertyOp25
 70
     1
102
RTVSPropertyOp26
 70
     1
102
RTVSPropertyOp27
 70
     1
102
RTVSPropertyOp28
 70
     1
102
RTVSPropertyOp29
 70
     1
102
RTVSPropertyOp30
 70
     1
102
RTVSPropertyOp31
 70
     1
102
RTVSPropertyOp32
 70
     1
102
RTVSPropertyOp33
 70
     1
102
RTVSPropertyOp34
 70
     1
102
RTVSPropertyOp35
 70
     1
102
RTVSPropertyOp36
 70
     1
102
RTVSPropertyOp37
 70
     1
102
RTVSPropertyOp38
 70
     1
102
RTVSPropertyOp39
 70
     1
102
RTVSPropertyOp40
 70
     1
102
RTVSPropertyOp41
 70
     1
102
RTVSPropertyOp42
 70
     1
102
RTVSPropertyOp43
 70
     1
102
RTVSPropertyOp44
 70
     1
102
RTVSPropertyOp45
 70
     1
102
RTVSPropertyOp46
 70
     1
102
RTVSPropertyOp47
 70
     1
102
RTVSPropertyOp48
 70
     1
102
RTVSPropertyOp49
 70
     1
102
RTVSPropertyOp50
 70
     1
102
RTVSPropertyOp51
 70
     0
102
RTVSPropertyOp52
 70
     0
102
RTVSPropertyOp53
 70
     1
102
RTVSPropertyOp54
 70
     1
102
RTVSPropertyOp55
 70
     1
102
RTVSPropertyOp56
 70
     1
102
RTVSPropertyOp57
 70
     1
102
RTVSPropertyOp58
 70
     1
102
RTVSPropertyOp59
 70
     1
102
RTVSPropertyOp60
 70
     1
102
RTVSPropertyOp61
 70
     1
102
RTVSPropertyOp62
 70
     1
  0
XRECORD
  5
DAA
102
{ACAD_REACTORS
330
DA9
102
}
330
DA9
100
AcDbXrecord
280
     1
102
RTVSPost2010Prop28
280
     0
102
RTVSPost2010PropOp28
 70
     1
102
RTVSPost2010Prop29
280
     1
102
RTVSPost2010PropOp29
 70
     1
102
RTVSPost2010Prop30
280
     1
102
RTVSPost2010PropOp30
 70
     1
102
RTVSPost2010Prop31
280
     0
102
RTVSPost2010PropOp31
 70
     1
102
RTVSPost2010Prop32
280
     0
102
RTVSPost2010PropOp32
 70
     1
102
RTVSPost2010Prop33
280
     0
102
RTVSPost2010PropOp33
 70
     1
102
RTVSPost2010Prop34
280
     0
102
RTVSPost2010PropOp34
 70
     1
102
RTVSPost2010Prop35
280
     0
102
RTVSPost2010PropOp35
 70
     1
102
RTVSPost2010Prop36
280
     0
102
RTVSPost2010PropOp36
 70
     1
102
RTVSPost2010Prop37
 90
       50
102
RTVSPost2010PropOp37
 70
     1
102
RTVSPost2010Prop38
140
0.0
102
RTVSPost2010PropOp38
 70
     1
102
RTVSPost2010Prop39
140
1.0
102
RTVSPost2010PropOp39
 70
     1
102
RTVSPost2010Prop40
 90
        0
102
RTVSPost2010PropOp40
 70
     1
102
RTVSPost2010Prop41ColorIndex
 90
       18
102
RTVSPost2010Prop41ColorRGB
 90
        0
102
RTVSPost2010PropOp41
 70
     1
102
RTVSPost2010Prop42
 90
       50
102
RTVSPost2010PropOp42
 70
     1
102
RTVSPost2010Prop43
 90
        3
102
RTVSPost2010PropOp43
 70
     1
102
RTVSPost2010Prop44ColorIndex
 90
        5
102
RTVSPost2010Prop44ColorRGB
 90
      255
102
RTVSPost2010PropOp44
 70
     1
102
RTVSPost2010Prop45
280
     0
102
RTVSPost2010PropOp45
 70
     1
102
RTVSPost2010Prop46
 90
       50
102
RTVSPost2010PropOp46
 70
     1
102
RTVSPost2010Prop47
 90
       50
102
RTVSPost2010PropOp47
 70
     1
102
RTVSPost2010Prop48
 90
       50
102
RTVSPost2010PropOp48
 70
     1
102
RTVSPost2010Prop49
280
     0
102
RTVSPost2010PropOp49
 70
     1
102
RTVSPost2010Prop50
 90
       50
102
RTVSPost2010PropOp50
 70
     1
102
RTVSPost2010Prop51ColorIndex
 90
      256
102
RTVSPost2010Prop51ColorRGB
 90
-16777216
102
RTVSPost2010PropOp51
 70
     0
102
RTVSPost2010Prop52
140
1.0
102
RTVSPost2010PropOp52
 70
     0
102
RTVSPost2010Prop53
 90
        2
102
RTVSPost2010PropOp53
 70
     1
102
RTVSPost2010Prop54
  1
strokes_ogs.tif
102
RTVSPost2010PropOp54
 70
     1
102
RTVSPost2010Prop55
280
     0
102
RTVSPost2010PropOp55
 70
     1
102
RTVSPost2010Prop56
140
1.0
102
RTVSPost2010PropOp56
 70
     1
102
RTVSPost2010Prop57
140
1.0
102
RTVSPost2010PropOp57
 70
     1
102
RTVSPropertyOp0
 70
     1
102
RTVSPropertyOp1
 70
     1
102
RTVSPropertyOp2
 70
     1
102
RTVSPropertyOp3
 70
     1
102
RTVSPropertyOp4
 70
     1
102
RTVSPropertyOp5
 70
     1
102
RTVSPropertyOp6
 70
     1
102
RTVSPropertyOp7
 70
     1
102
RTVSPropertyOp8
 70
     1
102
RTVSPropertyOp9
 70
     1
102
RTVSPropertyOp10
 70
     1
102
RTVSPropertyOp11
 70
     1
102
RTVSPropertyOp12
 70
     1
102
RTVSPropertyOp13
 70
     1
102
RTVSPropertyOp14
 70
     1
102
RTVSPropertyOp15
 70
     1
102
RTVSPropertyOp16
 70
     1
102
RTVSPropertyOp17
 70
     1
102
RTVSPropertyOp18
 70
     1
102
RTVSPropertyOp19
 70
     1
102
RTVSPropertyOp20
 70
     1
102
RTVSPropertyOp21
 70
     1
102
RTVSPropertyOp22
 70
     1
102
RTVSPropertyOp23
 70
     1
102
RTVSPropertyOp24
 70
     1
102
RTVSPropertyOp25
 70
     1
102
RTVSPropertyOp26
 70
     1
102
RTVSPropertyOp27
 70
     1
102
RTVSPropertyOp28
 70
     1
102
RTVSPropertyOp29
 70
     1
102
RTVSPropertyOp30
 70
     1
102
RTVSPropertyOp31
 70
     1
102
RTVSPropertyOp32
 70
     1
102
RTVSPropertyOp33
 70
     1
102
RTVSPropertyOp34
 70
     1
102
RTVSPropertyOp35
 70
     1
102
RTVSPropertyOp36
 70
     1
102
RTVSPropertyOp37
 70
     1
102
RTVSPropertyOp38
 70
     1
102
RTVSPropertyOp39
 70
     1
102
RTVSPropertyOp40
 70
     1
102
RTVSPropertyOp41
 70
     1
102
RTVSPropertyOp42
 70
     1
102
RTVSPropertyOp43
 70
     1
102
RTVSPropertyOp44
 70
     1
102
RTVSPropertyOp45
 70
     1
102
RTVSPropertyOp46
 70
     1
102
RTVSPropertyOp47
 70
     1
102
RTVSPropertyOp48
 70
     1
102
RTVSPropertyOp49
 70
     1
102
RTVSPropertyOp50
 70
     1
102
RTVSPropertyOp51
 70
     0
102
RTVSPropertyOp52
 70
     0
102
RTVSPropertyOp53
 70
     1
102
RTVSPropertyOp54
 70
     1
102
RTVSPropertyOp55
 70
     1
102
RTVSPropertyOp56
 70
     1
102
RTVSPropertyOp57
 70
     1
102
RTVSPropertyOp58
 70
     1
102
RTVSPropertyOp59
 70
     1
102
RTVSPropertyOp60
 70
     1
102
RTVSPropertyOp61
 70
     1
102
RTVSPropertyOp62
 70
     1
  0
XRECORD
  5
DC6
102
{ACAD_REACTORS
330
DC5
102
}
330
DC5
100
AcDbXrecord
280
     1
102
RTVSPost2010Prop28
280
     0
102
RTVSPost2010PropOp28
 70
     1
102
RTVSPost2010Prop29
280
     1
102
RTVSPost2010PropOp29
 70
     1
102
RTVSPost2010Prop30
280
     1
102
RTVSPost2010PropOp30
 70
     1
102
RTVSPost2010Prop31
280
     0
102
RTVSPost2010PropOp31
 70
     1
102
RTVSPost2010Prop32
280
     0
102
RTVSPost2010PropOp32
 70
     1
102
RTVSPost2010Prop33
280
     0
102
RTVSPost2010PropOp33
 70
     1
102
RTVSPost2010Prop34
280
     0
102
RTVSPost2010PropOp34
 70
     1
102
RTVSPost2010Prop35
280
     0
102
RTVSPost2010PropOp35
 70
     1
102
RTVSPost2010Prop36
280
     0
102
RTVSPost2010PropOp36
 70
     1
102
RTVSPost2010Prop37
 90
       50
102
RTVSPost2010PropOp37
 70
     0
102
RTVSPost2010Prop38
140
0.0
102
RTVSPost2010PropOp38
 70
     0
102
RTVSPost2010Prop39
140
1.0
102
RTVSPost2010PropOp39
 70
     0
102
RTVSPost2010Prop40
 90
        0
102
RTVSPost2010PropOp40
 70
     0
102
RTVSPost2010Prop41ColorIndex
 90
       18
102
RTVSPost2010Prop41ColorRGB
 90
        0
102
RTVSPost2010PropOp41
 70
     0
102
RTVSPost2010Prop42
 90
       50
102
RTVSPost2010PropOp42
 70
     0
102
RTVSPost2010Prop43
 90
        3
102
RTVSPost2010PropOp43
 70
     0
102
RTVSPost2010Prop44ColorIndex
 90
        5
102
RTVSPost2010Prop44ColorRGB
 90
      255
102
RTVSPost2010PropOp44
 70
     0
102
RTVSPost2010Prop45
280
     0
102
RTVSPost2010PropOp45
 70
     1
102
RTVSPost2010Prop46
 90
       50
102
RTVSPost2010PropOp46
 70
     0
102
RTVSPost2010Prop47
 90
       50
102
RTVSPost2010PropOp47
 70
     0
102
RTVSPost2010Prop48
 90
       50
102
RTVSPost2010PropOp48
 70
     0
102
RTVSPost2010Prop49
280
     0
102
RTVSPost2010PropOp49
 70
     1
102
RTVSPost2010Prop50
 90
       50
102
RTVSPost2010PropOp50
 70
     0
102
RTVSPost2010Prop51ColorIndex
 90
      256
102
RTVSPost2010Prop51ColorRGB
 90
-16777216
102
RTVSPost2010PropOp51
 70
     0
102
RTVSPost2010Prop52
140
1.0
102
RTVSPost2010PropOp52
 70
     0
102
RTVSPost2010Prop53
 90
        2
102
RTVSPost2010PropOp53
 70
     0
102
RTVSPost2010Prop54
  1
strokes_ogs.tif
102
RTVSPost2010PropOp54
 70
     0
102
RTVSPost2010Prop55
280
     0
102
RTVSPost2010PropOp55
 70
     1
102
RTVSPost2010Prop56
140
1.0
102
RTVSPost2010PropOp56
 70
     0
102
RTVSPost2010Prop57
140
1.0
102
RTVSPost2010PropOp57
 70
     0
102
RTVSPropertyOp0
 70
     0
102
RTVSPropertyOp1
 70
     0
102
RTVSPropertyOp2
 70
     0
102
RTVSPropertyOp3
 70
     0
102
RTVSPropertyOp4
 70
     0
102
RTVSPropertyOp5
 70
     0
102
RTVSPropertyOp6
 70
     0
102
RTVSPropertyOp7
 70
     0
102
RTVSPropertyOp8
 70
     0
102
RTVSPropertyOp9
 70
     0
102
RTVSPropertyOp10
 70
     0
102
RTVSPropertyOp11
 70
     0
102
RTVSPropertyOp12
 70
     0
102
RTVSPropertyOp13
 70
     0
102
RTVSPropertyOp14
 70
     2
102
RTVSPropertyOp15
 70
     0
102
RTVSPropertyOp16
 70
     0
102
RTVSPropertyOp17
 70
     0
102
RTVSPropertyOp18
 70
     0
102
RTVSPropertyOp19
 70
     0
102
RTVSPropertyOp20
 70
     0
102
RTVSPropertyOp21
 70
     0
102
RTVSPropertyOp22
 70
     0
102
RTVSPropertyOp23
 70
     0
102
RTVSPropertyOp24
 70
     0
102
RTVSPropertyOp25
 70
     0
102
RTVSPropertyOp26
 70
     0
102
RTVSPropertyOp27
 70
     0
102
RTVSPropertyOp28
 70
     1
102
RTVSPropertyOp29
 70
     1
102
RTVSPropertyOp30
 70
     1
102
RTVSPropertyOp31
 70
     1
102
RTVSPropertyOp32
 70
     1
102
RTVSPropertyOp33
 70
     1
102
RTVSPropertyOp34
 70
     1
102
RTVSPropertyOp35
 70
     1
102
RTVSPropertyOp36
 70
     1
102
RTVSPropertyOp37
 70
     0
102
RTVSPropertyOp38
 70
     0
102
RTVSPropertyOp39
 70
     0
102
RTVSPropertyOp40
 70
     0
102
RTVSPropertyOp41
 70
     0
102
RTVSPropertyOp42
 70
     0
102
RTVSPropertyOp43
 70
     0
102
RTVSPropertyOp44
 70
     0
102
RTVSPropertyOp45
 70
     1
102
RTVSPropertyOp46
 70
     0
102
RTVSPropertyOp47
 70
     0
102
RTVSPropertyOp48
 70
     0
102
RTVSPropertyOp49
 70
     1
102
RTVSPropertyOp50
 70
     0
102
RTVSPropertyOp51
 70
     0
102
RTVSPropertyOp52
 70
     0
102
RTVSPropertyOp53
 70
     0
102
RTVSPropertyOp54
 70
     0
102
RTVSPropertyOp55
 70
     1
102
RTVSPropertyOp56
 70
     0
102
RTVSPropertyOp57
 70
     0
102
RTVSPropertyOp58
 70
     0
102
RTVSPropertyOp59
 70
     0
102
RTVSPropertyOp60
 70
     0
102
RTVSPropertyOp61
 70
     0
102
RTVSPropertyOp62
 70
     0
  0
XRECORD
  5
DB6
102
{ACAD_REACTORS
330
DB5
102
}
330
DB5
100
AcDbXrecord
280
     1
102
RTVSPost2010Prop28
280
     0
102
RTVSPost2010PropOp28
 70
     1
102
RTVSPost2010Prop29
280
     1
102
RTVSPost2010PropOp29
 70
     1
102
RTVSPost2010Prop30
280
     1
102
RTVSPost2010PropOp30
 70
     1
102
RTVSPost2010Prop31
280
     0
102
RTVSPost2010PropOp31
 70
     1
102
RTVSPost2010Prop32
280
     0
102
RTVSPost2010PropOp32
 70
     1
102
RTVSPost2010Prop33
280
     0
102
RTVSPost2010PropOp33
 70
     1
102
RTVSPost2010Prop34
280
     0
102
RTVSPost2010PropOp34
 70
     1
102
RTVSPost2010Prop35
280
     0
102
RTVSPost2010PropOp35
 70
     1
102
RTVSPost2010Prop36
280
     0
102
RTVSPost2010PropOp36
 70
     1
102
RTVSPost2010Prop37
 90
       50
102
RTVSPost2010PropOp37
 70
     1
102
RTVSPost2010Prop38
140
0.0
102
RTVSPost2010PropOp38
 70
     1
102
RTVSPost2010Prop39
140
1.0
102
RTVSPost2010PropOp39
 70
     1
102
RTVSPost2010Prop40
 90
        0
102
RTVSPost2010PropOp40
 70
     1
102
RTVSPost2010Prop41ColorIndex
 90
       18
102
RTVSPost2010Prop41ColorRGB
 90
        0
102
RTVSPost2010PropOp41
 70
     1
102
RTVSPost2010Prop42
 90
       50
102
RTVSPost2010PropOp42
 70
     1
102
RTVSPost2010Prop43
 90
        3
102
RTVSPost2010PropOp43
 70
     1
102
RTVSPost2010Prop44ColorIndex
 90
        5
102
RTVSPost2010Prop44ColorRGB
 90
      255
102
RTVSPost2010PropOp44
 70
     1
102
RTVSPost2010Prop45
280
     0
102
RTVSPost2010PropOp45
 70
     1
102
RTVSPost2010Prop46
 90
       50
102
RTVSPost2010PropOp46
 70
     1
102
RTVSPost2010Prop47
 90
       50
102
RTVSPost2010PropOp47
 70
     1
102
RTVSPost2010Prop48
 90
       50
102
RTVSPost2010PropOp48
 70
     1
102
RTVSPost2010Prop49
280
     0
102
RTVSPost2010PropOp49
 70
     1
102
RTVSPost2010Prop50
 90
       50
102
RTVSPost2010PropOp50
 70
     1
102
RTVSPost2010Prop51ColorIndex
 90
      256
102
RTVSPost2010Prop51ColorRGB
 90
-16777216
102
RTVSPost2010PropOp51
 70
     0
102
RTVSPost2010Prop52
140
1.0
102
RTVSPost2010PropOp52
 70
     0
102
RTVSPost2010Prop53
 90
        2
102
RTVSPost2010PropOp53
 70
     1
102
RTVSPost2010Prop54
  1
strokes_ogs.tif
102
RTVSPost2010PropOp54
 70
     1
102
RTVSPost2010Prop55
280
     0
102
RTVSPost2010PropOp55
 70
     1
102
RTVSPost2010Prop56
140
1.0
102
RTVSPost2010PropOp56
 70
     1
102
RTVSPost2010Prop57
140
1.0
102
RTVSPost2010PropOp57
 70
     1
102
RTVSPropertyOp0
 70
     1
102
RTVSPropertyOp1
 70
     1
102
RTVSPropertyOp2
 70
     1
102
RTVSPropertyOp3
 70
     1
102
RTVSPropertyOp4
 70
     1
102
RTVSPropertyOp5
 70
     1
102
RTVSPropertyOp6
 70
     1
102
RTVSPropertyOp7
 70
     1
102
RTVSPropertyOp8
 70
     1
102
RTVSPropertyOp9
 70
     1
102
RTVSPropertyOp10
 70
     1
102
RTVSPropertyOp11
 70
     1
102
RTVSPropertyOp12
 70
     1
102
RTVSPropertyOp13
 70
     1
102
RTVSPropertyOp14
 70
     1
102
RTVSPropertyOp15
 70
     1
102
RTVSPropertyOp16
 70
     1
102
RTVSPropertyOp17
 70
     1
102
RTVSPropertyOp18
 70
     1
102
RTVSPropertyOp19
 70
     1
102
RTVSPropertyOp20
 70
     1
102
RTVSPropertyOp21
 70
     1
102
RTVSPropertyOp22
 70
     1
102
RTVSPropertyOp23
 70
     1
102
RTVSPropertyOp24
 70
     1
102
RTVSPropertyOp25
 70
     1
102
RTVSPropertyOp26
 70
     1
102
RTVSPropertyOp27
 70
     1
102
RTVSPropertyOp28
 70
     1
102
RTVSPropertyOp29
 70
     1
102
RTVSPropertyOp30
 70
     1
102
RTVSPropertyOp31
 70
     1
102
RTVSPropertyOp32
 70
     1
102
RTVSPropertyOp33
 70
     1
102
RTVSPropertyOp34
 70
     1
102
RTVSPropertyOp35
 70
     1
102
RTVSPropertyOp36
 70
     1
102
RTVSPropertyOp37
 70
     1
102
RTVSPropertyOp38
 70
     1
102
RTVSPropertyOp39
 70
     1
102
RTVSPropertyOp40
 70
     1
102
RTVSPropertyOp41
 70
     1
102
RTVSPropertyOp42
 70
     1
102
RTVSPropertyOp43
 70
     1
102
RTVSPropertyOp44
 70
     1
102
RTVSPropertyOp45
 70
     1
102
RTVSPropertyOp46
 70
     1
102
RTVSPropertyOp47
 70
     1
102
RTVSPropertyOp48
 70
     1
102
RTVSPropertyOp49
 70
     1
102
RTVSPropertyOp50
 70
     1
102
RTVSPropertyOp51
 70
     0
102
RTVSPropertyOp52
 70
     0
102
RTVSPropertyOp53
 70
     1
102
RTVSPropertyOp54
 70
     1
102
RTVSPropertyOp55
 70
     1
102
RTVSPropertyOp56
 70
     1
102
RTVSPropertyOp57
 70
     1
102
RTVSPropertyOp58
 70
     1
102
RTVSPropertyOp59
 70
     1
102
RTVSPropertyOp60
 70
     1
102
RTVSPropertyOp61
 70
     1
102
RTVSPropertyOp62
 70
     1
  0
XRECORD
  5
DC8
102
{ACAD_REACTORS
330
DC7
102
}
330
DC7
100
AcDbXrecord
280
     1
102
RTVSPost2010Prop28
280
     0
102
RTVSPost2010PropOp28
 70
     1
102
RTVSPost2010Prop29
280
     1
102
RTVSPost2010PropOp29
 70
     1
102
RTVSPost2010Prop30
280
     1
102
RTVSPost2010PropOp30
 70
     1
102
RTVSPost2010Prop31
280
     0
102
RTVSPost2010PropOp31
 70
     1
102
RTVSPost2010Prop32
280
     0
102
RTVSPost2010PropOp32
 70
     1
102
RTVSPost2010Prop33
280
     0
102
RTVSPost2010PropOp33
 70
     1
102
RTVSPost2010Prop34
280
     0
102
RTVSPost2010PropOp34
 70
     1
102
RTVSPost2010Prop35
280
     0
102
RTVSPost2010PropOp35
 70
     1
102
RTVSPost2010Prop36
280
     0
102
RTVSPost2010PropOp36
 70
     1
102
RTVSPost2010Prop37
 90
       50
102
RTVSPost2010PropOp37
 70
     0
102
RTVSPost2010Prop38
140
0.0
102
RTVSPost2010PropOp38
 70
     0
102
RTVSPost2010Prop39
140
1.0
102
RTVSPost2010PropOp39
 70
     0
102
RTVSPost2010Prop40
 90
        0
102
RTVSPost2010PropOp40
 70
     0
102
RTVSPost2010Prop41ColorIndex
 90
       18
102
RTVSPost2010Prop41ColorRGB
 90
        0
102
RTVSPost2010PropOp41
 70
     0
102
RTVSPost2010Prop42
 90
       50
102
RTVSPost2010PropOp42
 70
     0
102
RTVSPost2010Prop43
 90
        3
102
RTVSPost2010PropOp43
 70
     0
102
RTVSPost2010Prop44ColorIndex
 90
        5
102
RTVSPost2010Prop44ColorRGB
 90
      255
102
RTVSPost2010PropOp44
 70
     0
102
RTVSPost2010Prop45
280
     0
102
RTVSPost2010PropOp45
 70
     1
102
RTVSPost2010Prop46
 90
       50
102
RTVSPost2010PropOp46
 70
     0
102
RTVSPost2010Prop47
 90
       50
102
RTVSPost2010PropOp47
 70
     0
102
RTVSPost2010Prop48
 90
       50
102
RTVSPost2010PropOp48
 70
     0
102
RTVSPost2010Prop49
280
     0
102
RTVSPost2010PropOp49
 70
     1
102
RTVSPost2010Prop50
 90
       50
102
RTVSPost2010PropOp50
 70
     0
102
RTVSPost2010Prop51ColorIndex
 90
      256
102
RTVSPost2010Prop51ColorRGB
 90
-16777216
102
RTVSPost2010PropOp51
 70
     0
102
RTVSPost2010Prop52
140
1.0
102
RTVSPost2010PropOp52
 70
     0
102
RTVSPost2010Prop53
 90
        2
102
RTVSPost2010PropOp53
 70
     0
102
RTVSPost2010Prop54
  1
strokes_ogs.tif
102
RTVSPost2010PropOp54
 70
     0
102
RTVSPost2010Prop55
280
     0
102
RTVSPost2010PropOp55
 70
     1
102
RTVSPost2010Prop56
140
1.0
102
RTVSPost2010PropOp56
 70
     0
102
RTVSPost2010Prop57
140
1.0
102
RTVSPost2010PropOp57
 70
     0
102
RTVSPropertyOp0
 70
     0
102
RTVSPropertyOp1
 70
     0
102
RTVSPropertyOp2
 70
     0
102
RTVSPropertyOp3
 70
     0
102
RTVSPropertyOp4
 70
     0
102
RTVSPropertyOp5
 70
     0
102
RTVSPropertyOp6
 70
     0
102
RTVSPropertyOp7
 70
     0
102
RTVSPropertyOp8
 70
     0
102
RTVSPropertyOp9
 70
     0
102
RTVSPropertyOp10
 70
     0
102
RTVSPropertyOp11
 70
     0
102
RTVSPropertyOp12
 70
     0
102
RTVSPropertyOp13
 70
     0
102
RTVSPropertyOp14
 70
     2
102
RTVSPropertyOp15
 70
     0
102
RTVSPropertyOp16
 70
     0
102
RTVSPropertyOp17
 70
     0
102
RTVSPropertyOp18
 70
     0
102
RTVSPropertyOp19
 70
     0
102
RTVSPropertyOp20
 70
     0
102
RTVSPropertyOp21
 70
     0
102
RTVSPropertyOp22
 70
     0
102
RTVSPropertyOp23
 70
     0
102
RTVSPropertyOp24
 70
     0
102
RTVSPropertyOp25
 70
     0
102
RTVSPropertyOp26
 70
     0
102
RTVSPropertyOp27
 70
     0
102
RTVSPropertyOp28
 70
     1
102
RTVSPropertyOp29
 70
     1
102
RTVSPropertyOp30
 70
     1
102
RTVSPropertyOp31
 70
     1
102
RTVSPropertyOp32
 70
     1
102
RTVSPropertyOp33
 70
     1
102
RTVSPropertyOp34
 70
     1
102
RTVSPropertyOp35
 70
     1
102
RTVSPropertyOp36
 70
     1
102
RTVSPropertyOp37
 70
     0
102
RTVSPropertyOp38
 70
     0
102
RTVSPropertyOp39
 70
     0
102
RTVSPropertyOp40
 70
     0
102
RTVSPropertyOp41
 70
     0
102
RTVSPropertyOp42
 70
     0
102
RTVSPropertyOp43
 70
     0
102
RTVSPropertyOp44
 70
     0
102
RTVSPropertyOp45
 70
     1
102
RTVSPropertyOp46
 70
     0
102
RTVSPropertyOp47
 70
     0
102
RTVSPropertyOp48
 70
     0
102
RTVSPropertyOp49
 70
     1
102
RTVSPropertyOp50
 70
     0
102
RTVSPropertyOp51
 70
     0
102
RTVSPropertyOp52
 70
     0
102
RTVSPropertyOp53
 70
     0
102
RTVSPropertyOp54
 70
     0
102
RTVSPropertyOp55
 70
     1
102
RTVSPropertyOp56
 70
     0
102
RTVSPropertyOp57
 70
     0
102
RTVSPropertyOp58
 70
     0
102
RTVSPropertyOp59
 70
     0
102
RTVSPropertyOp60
 70
     0
102
RTVSPropertyOp61
 70
     0
102
RTVSPropertyOp62
 70
     0
  0
XRECORD
  5
DAE
102
{ACAD_REACTORS
330
DAD
102
}
330
DAD
100
AcDbXrecord
280
     1
102
RTVSPost2010Prop28
280
     0
102
RTVSPost2010PropOp28
 70
     1
102
RTVSPost2010Prop29
280
     1
102
RTVSPost2010PropOp29
 70
     1
102
RTVSPost2010Prop30
280
     1
102
RTVSPost2010PropOp30
 70
     1
102
RTVSPost2010Prop31
280
     0
102
RTVSPost2010PropOp31
 70
     1
102
RTVSPost2010Prop32
280
     0
102
RTVSPost2010PropOp32
 70
     1
102
RTVSPost2010Prop33
280
     0
102
RTVSPost2010PropOp33
 70
     1
102
RTVSPost2010Prop34
280
     0
102
RTVSPost2010PropOp34
 70
     1
102
RTVSPost2010Prop35
280
     0
102
RTVSPost2010PropOp35
 70
     1
102
RTVSPost2010Prop36
280
     0
102
RTVSPost2010PropOp36
 70
     1
102
RTVSPost2010Prop37
 90
       50
102
RTVSPost2010PropOp37
 70
     1
102
RTVSPost2010Prop38
140
0.0
102
RTVSPost2010PropOp38
 70
     1
102
RTVSPost2010Prop39
140
1.0
102
RTVSPost2010PropOp39
 70
     1
102
RTVSPost2010Prop40
 90
        0
102
RTVSPost2010PropOp40
 70
     1
102
RTVSPost2010Prop41ColorIndex
 90
       18
102
RTVSPost2010Prop41ColorRGB
 90
        0
102
RTVSPost2010PropOp41
 70
     1
102
RTVSPost2010Prop42
 90
       50
102
RTVSPost2010PropOp42
 70
     1
102
RTVSPost2010Prop43
 90
        3
102
RTVSPost2010PropOp43
 70
     1
102
RTVSPost2010Prop44ColorIndex
 90
        5
102
RTVSPost2010Prop44ColorRGB
 90
      255
102
RTVSPost2010PropOp44
 70
     1
102
RTVSPost2010Prop45
280
     0
102
RTVSPost2010PropOp45
 70
     1
102
RTVSPost2010Prop46
 90
       50
102
RTVSPost2010PropOp46
 70
     1
102
RTVSPost2010Prop47
 90
       50
102
RTVSPost2010PropOp47
 70
     1
102
RTVSPost2010Prop48
 90
       50
102
RTVSPost2010PropOp48
 70
     1
102
RTVSPost2010Prop49
280
     0
102
RTVSPost2010PropOp49
 70
     1
102
RTVSPost2010Prop50
 90
       50
102
RTVSPost2010PropOp50
 70
     1
102
RTVSPost2010Prop51ColorIndex
 90
      256
102
RTVSPost2010Prop51ColorRGB
 90
-16777216
102
RTVSPost2010PropOp51
 70
     0
102
RTVSPost2010Prop52
140
1.0
102
RTVSPost2010PropOp52
 70
     0
102
RTVSPost2010Prop53
 90
        2
102
RTVSPost2010PropOp53
 70
     1
102
RTVSPost2010Prop54
  1
strokes_ogs.tif
102
RTVSPost2010PropOp54
 70
     1
102
RTVSPost2010Prop55
280
     0
102
RTVSPost2010PropOp55
 70
     1
102
RTVSPost2010Prop56
140
1.0
102
RTVSPost2010PropOp56
 70
     1
102
RTVSPost2010Prop57
140
1.0
102
RTVSPost2010PropOp57
 70
     1
102
RTVSPropertyOp0
 70
     1
102
RTVSPropertyOp1
 70
     1
102
RTVSPropertyOp2
 70
     1
102
RTVSPropertyOp3
 70
     1
102
RTVSPropertyOp4
 70
     1
102
RTVSPropertyOp5
 70
     1
102
RTVSPropertyOp6
 70
     1
102
RTVSPropertyOp7
 70
     1
102
RTVSPropertyOp8
 70
     1
102
RTVSPropertyOp9
 70
     1
102
RTVSPropertyOp10
 70
     1
102
RTVSPropertyOp11
 70
     1
102
RTVSPropertyOp12
 70
     1
102
RTVSPropertyOp13
 70
     1
102
RTVSPropertyOp14
 70
     1
102
RTVSPropertyOp15
 70
     1
102
RTVSPropertyOp16
 70
     1
102
RTVSPropertyOp17
 70
     1
102
RTVSPropertyOp18
 70
     1
102
RTVSPropertyOp19
 70
     1
102
RTVSPropertyOp20
 70
     1
102
RTVSPropertyOp21
 70
     1
102
RTVSPropertyOp22
 70
     1
102
RTVSPropertyOp23
 70
     1
102
RTVSPropertyOp24
 70
     1
102
RTVSPropertyOp25
 70
     1
102
RTVSPropertyOp26
 70
     1
102
RTVSPropertyOp27
 70
     1
102
RTVSPropertyOp28
 70
     1
102
RTVSPropertyOp29
 70
     1
102
RTVSPropertyOp30
 70
     1
102
RTVSPropertyOp31
 70
     1
102
RTVSPropertyOp32
 70
     1
102
RTVSPropertyOp33
 70
     1
102
RTVSPropertyOp34
 70
     1
102
RTVSPropertyOp35
 70
     1
102
RTVSPropertyOp36
 70
     1
102
RTVSPropertyOp37
 70
     1
102
RTVSPropertyOp38
 70
     1
102
RTVSPropertyOp39
 70
     1
102
RTVSPropertyOp40
 70
     1
102
RTVSPropertyOp41
 70
     1
102
RTVSPropertyOp42
 70
     1
102
RTVSPropertyOp43
 70
     1
102
RTVSPropertyOp44
 70
     1
102
RTVSPropertyOp45
 70
     1
102
RTVSPropertyOp46
 70
     1
102
RTVSPropertyOp47
 70
     1
102
RTVSPropertyOp48
 70
     1
102
RTVSPropertyOp49
 70
     1
102
RTVSPropertyOp50
 70
     1
102
RTVSPropertyOp51
 70
     0
102
RTVSPropertyOp52
 70
     0
102
RTVSPropertyOp53
 70
     1
102
RTVSPropertyOp54
 70
     1
102
RTVSPropertyOp55
 70
     1
102
RTVSPropertyOp56
 70
     1
102
RTVSPropertyOp57
 70
     1
102
RTVSPropertyOp58
 70
     1
102
RTVSPropertyOp59
 70
     1
102
RTVSPropertyOp60
 70
     1
102
RTVSPropertyOp61
 70
     1
102
RTVSPropertyOp62
 70
     1
  0
XRECORD
  5
DC4
102
{ACAD_REACTORS
330
DC3
102
}
330
DC3
100
AcDbXrecord
280
     1
102
RTVSPost2010Prop28
280
     0
102
RTVSPost2010PropOp28
 70
     1
102
RTVSPost2010Prop29
280
     1
102
RTVSPost2010PropOp29
 70
     1
102
RTVSPost2010Prop30
280
     1
102
RTVSPost2010PropOp30
 70
     1
102
RTVSPost2010Prop31
280
     0
102
RTVSPost2010PropOp31
 70
     1
102
RTVSPost2010Prop32
280
     0
102
RTVSPost2010PropOp32
 70
     1
102
RTVSPost2010Prop33
280
     0
102
RTVSPost2010PropOp33
 70
     1
102
RTVSPost2010Prop34
280
     0
102
RTVSPost2010PropOp34
 70
     1
102
RTVSPost2010Prop35
280
     0
102
RTVSPost2010PropOp35
 70
     1
102
RTVSPost2010Prop36
280
     0
102
RTVSPost2010PropOp36
 70
     1
102
RTVSPost2010Prop37
 90
       50
102
RTVSPost2010PropOp37
 70
     1
102
RTVSPost2010Prop38
140
0.0
102
RTVSPost2010PropOp38
 70
     1
102
RTVSPost2010Prop39
140
1.0
102
RTVSPost2010PropOp39
 70
     1
102
RTVSPost2010Prop40
 90
        0
102
RTVSPost2010PropOp40
 70
     1
102
RTVSPost2010Prop41ColorIndex
 90
       18
102
RTVSPost2010Prop41ColorRGB
 90
        0
102
RTVSPost2010PropOp41
 70
     1
102
RTVSPost2010Prop42
 90
       50
102
RTVSPost2010PropOp42
 70
     1
102
RTVSPost2010Prop43
 90
        3
102
RTVSPost2010PropOp43
 70
     1
102
RTVSPost2010Prop44ColorIndex
 90
        5
102
RTVSPost2010Prop44ColorRGB
 90
      255
102
RTVSPost2010PropOp44
 70
     1
102
RTVSPost2010Prop45
280
     0
102
RTVSPost2010PropOp45
 70
     1
102
RTVSPost2010Prop46
 90
       50
102
RTVSPost2010PropOp46
 70
     1
102
RTVSPost2010Prop47
 90
       50
102
RTVSPost2010PropOp47
 70
     1
102
RTVSPost2010Prop48
 90
       50
102
RTVSPost2010PropOp48
 70
     1
102
RTVSPost2010Prop49
280
     0
102
RTVSPost2010PropOp49
 70
     1
102
RTVSPost2010Prop50
 90
       50
102
RTVSPost2010PropOp50
 70
     1
102
RTVSPost2010Prop51ColorIndex
 90
      256
102
RTVSPost2010Prop51ColorRGB
 90
-16777216
102
RTVSPost2010PropOp51
 70
     0
102
RTVSPost2010Prop52
140
1.0
102
RTVSPost2010PropOp52
 70
     0
102
RTVSPost2010Prop53
 90
        2
102
RTVSPost2010PropOp53
 70
     1
102
RTVSPost2010Prop54
  1
strokes_ogs.tif
102
RTVSPost2010PropOp54
 70
     1
102
RTVSPost2010Prop55
280
     0
102
RTVSPost2010PropOp55
 70
     1
102
RTVSPost2010Prop56
140
1.0
102
RTVSPost2010PropOp56
 70
     1
102
RTVSPost2010Prop57
140
1.0
102
RTVSPost2010PropOp57
 70
     1
102
RTVSPropertyOp0
 70
     1
102
RTVSPropertyOp1
 70
     1
102
RTVSPropertyOp2
 70
     1
102
RTVSPropertyOp3
 70
     1
102
RTVSPropertyOp4
 70
     1
102
RTVSPropertyOp5
 70
     1
102
RTVSPropertyOp6
 70
     1
102
RTVSPropertyOp7
 70
     1
102
RTVSPropertyOp8
 70
     1
102
RTVSPropertyOp9
 70
     1
102
RTVSPropertyOp10
 70
     1
102
RTVSPropertyOp11
 70
     1
102
RTVSPropertyOp12
 70
     1
102
RTVSPropertyOp13
 70
     1
102
RTVSPropertyOp14
 70
     1
102
RTVSPropertyOp15
 70
     1
102
RTVSPropertyOp16
 70
     1
102
RTVSPropertyOp17
 70
     1
102
RTVSPropertyOp18
 70
     1
102
RTVSPropertyOp19
 70
     1
102
RTVSPropertyOp20
 70
     1
102
RTVSPropertyOp21
 70
     1
102
RTVSPropertyOp22
 70
     1
102
RTVSPropertyOp23
 70
     1
102
RTVSPropertyOp24
 70
     1
102
RTVSPropertyOp25
 70
     1
102
RTVSPropertyOp26
 70
     1
102
RTVSPropertyOp27
 70
     1
102
RTVSPropertyOp28
 70
     1
102
RTVSPropertyOp29
 70
     1
102
RTVSPropertyOp30
 70
     1
102
RTVSPropertyOp31
 70
     1
102
RTVSPropertyOp32
 70
     1
102
RTVSPropertyOp33
 70
     1
102
RTVSPropertyOp34
 70
     1
102
RTVSPropertyOp35
 70
     1
102
RTVSPropertyOp36
 70
     1
102
RTVSPropertyOp37
 70
     1
102
RTVSPropertyOp38
 70
     1
102
RTVSPropertyOp39
 70
     1
102
RTVSPropertyOp40
 70
     1
102
RTVSPropertyOp41
 70
     1
102
RTVSPropertyOp42
 70
     1
102
RTVSPropertyOp43
 70
     1
102
RTVSPropertyOp44
 70
     1
102
RTVSPropertyOp45
 70
     1
102
RTVSPropertyOp46
 70
     1
102
RTVSPropertyOp47
 70
     1
102
RTVSPropertyOp48
 70
     1
102
RTVSPropertyOp49
 70
     1
102
RTVSPropertyOp50
 70
     1
102
RTVSPropertyOp51
 70
     0
102
RTVSPropertyOp52
 70
     0
102
RTVSPropertyOp53
 70
     1
102
RTVSPropertyOp54
 70
     1
102
RTVSPropertyOp55
 70
     1
102
RTVSPropertyOp56
 70
     1
102
RTVSPropertyOp57
 70
     1
102
RTVSPropertyOp58
 70
     1
102
RTVSPropertyOp59
 70
     1
102
RTVSPropertyOp60
 70
     1
102
RTVSPropertyOp61
 70
     1
102
RTVSPropertyOp62
 70
     1
  0
XRECORD
  5
DC2
102
{ACAD_REACTORS
330
DC1
102
}
330
DC1
100
AcDbXrecord
280
     1
102
RTVSPost2010Prop28
280
     0
102
RTVSPost2010PropOp28
 70
     1
102
RTVSPost2010Prop29
280
     1
102
RTVSPost2010PropOp29
 70
     1
102
RTVSPost2010Prop30
280
     1
102
RTVSPost2010PropOp30
 70
     1
102
RTVSPost2010Prop31
280
     0
102
RTVSPost2010PropOp31
 70
     1
102
RTVSPost2010Prop32
280
     0
102
RTVSPost2010PropOp32
 70
     1
102
RTVSPost2010Prop33
280
     0
102
RTVSPost2010PropOp33
 70
     1
102
RTVSPost2010Prop34
280
     0
102
RTVSPost2010PropOp34
 70
     1
102
RTVSPost2010Prop35
280
     0
102
RTVSPost2010PropOp35
 70
     1
102
RTVSPost2010Prop36
280
     0
102
RTVSPost2010PropOp36
 70
     1
102
RTVSPost2010Prop37
 90
       50
102
RTVSPost2010PropOp37
 70
     1
102
RTVSPost2010Prop38
140
0.0
102
RTVSPost2010PropOp38
 70
     1
102
RTVSPost2010Prop39
140
1.0
102
RTVSPost2010PropOp39
 70
     1
102
RTVSPost2010Prop40
 90
        0
102
RTVSPost2010PropOp40
 70
     1
102
RTVSPost2010Prop41ColorIndex
 90
       18
102
RTVSPost2010Prop41ColorRGB
 90
        0
102
RTVSPost2010PropOp41
 70
     1
102
RTVSPost2010Prop42
 90
       50
102
RTVSPost2010PropOp42
 70
     1
102
RTVSPost2010Prop43
 90
        3
102
RTVSPost2010PropOp43
 70
     1
102
RTVSPost2010Prop44ColorIndex
 90
        5
102
RTVSPost2010Prop44ColorRGB
 90
      255
102
RTVSPost2010PropOp44
 70
     1
102
RTVSPost2010Prop45
280
     0
102
RTVSPost2010PropOp45
 70
     1
102
RTVSPost2010Prop46
 90
       50
102
RTVSPost2010PropOp46
 70
     1
102
RTVSPost2010Prop47
 90
       50
102
RTVSPost2010PropOp47
 70
     1
102
RTVSPost2010Prop48
 90
       50
102
RTVSPost2010PropOp48
 70
     1
102
RTVSPost2010Prop49
280
     0
102
RTVSPost2010PropOp49
 70
     1
102
RTVSPost2010Prop50
 90
       50
102
RTVSPost2010PropOp50
 70
     1
102
RTVSPost2010Prop51ColorIndex
 90
      256
102
RTVSPost2010Prop51ColorRGB
 90
-16777216
102
RTVSPost2010PropOp51
 70
     0
102
RTVSPost2010Prop52
140
1.0
102
RTVSPost2010PropOp52
 70
     0
102
RTVSPost2010Prop53
 90
        2
102
RTVSPost2010PropOp53
 70
     1
102
RTVSPost2010Prop54
  1
strokes_ogs.tif
102
RTVSPost2010PropOp54
 70
     1
102
RTVSPost2010Prop55
280
     0
102
RTVSPost2010PropOp55
 70
     1
102
RTVSPost2010Prop56
140
1.0
102
RTVSPost2010PropOp56
 70
     1
102
RTVSPost2010Prop57
140
1.0
102
RTVSPost2010PropOp57
 70
     1
102
RTVSPropertyOp0
 70
     1
102
RTVSPropertyOp1
 70
     1
102
RTVSPropertyOp2
 70
     1
102
RTVSPropertyOp3
 70
     1
102
RTVSPropertyOp4
 70
     1
102
RTVSPropertyOp5
 70
     1
102
RTVSPropertyOp6
 70
     1
102
RTVSPropertyOp7
 70
     1
102
RTVSPropertyOp8
 70
     1
102
RTVSPropertyOp9
 70
     1
102
RTVSPropertyOp10
 70
     1
102
RTVSPropertyOp11
 70
     1
102
RTVSPropertyOp12
 70
     1
102
RTVSPropertyOp13
 70
     1
102
RTVSPropertyOp14
 70
     1
102
RTVSPropertyOp15
 70
     1
102
RTVSPropertyOp16
 70
     1
102
RTVSPropertyOp17
 70
     1
102
RTVSPropertyOp18
 70
     1
102
RTVSPropertyOp19
 70
     1
102
RTVSPropertyOp20
 70
     1
102
RTVSPropertyOp21
 70
     1
102
RTVSPropertyOp22
 70
     1
102
RTVSPropertyOp23
 70
     1
102
RTVSPropertyOp24
 70
     1
102
RTVSPropertyOp25
 70
     1
102
RTVSPropertyOp26
 70
     1
102
RTVSPropertyOp27
 70
     1
102
RTVSPropertyOp28
 70
     1
102
RTVSPropertyOp29
 70
     1
102
RTVSPropertyOp30
 70
     1
102
RTVSPropertyOp31
 70
     1
102
RTVSPropertyOp32
 70
     1
102
RTVSPropertyOp33
 70
     1
102
RTVSPropertyOp34
 70
     1
102
RTVSPropertyOp35
 70
     1
102
RTVSPropertyOp36
 70
     1
102
RTVSPropertyOp37
 70
     1
102
RTVSPropertyOp38
 70
     1
102
RTVSPropertyOp39
 70
     1
102
RTVSPropertyOp40
 70
     1
102
RTVSPropertyOp41
 70
     1
102
RTVSPropertyOp42
 70
     1
102
RTVSPropertyOp43
 70
     1
102
RTVSPropertyOp44
 70
     1
102
RTVSPropertyOp45
 70
     1
102
RTVSPropertyOp46
 70
     1
102
RTVSPropertyOp47
 70
     1
102
RTVSPropertyOp48
 70
     1
102
RTVSPropertyOp49
 70
     1
102
RTVSPropertyOp50
 70
     1
102
RTVSPropertyOp51
 70
     0
102
RTVSPropertyOp52
 70
     0
102
RTVSPropertyOp53
 70
     1
102
RTVSPropertyOp54
 70
     1
102
RTVSPropertyOp55
 70
     1
102
RTVSPropertyOp56
 70
     1
102
RTVSPropertyOp57
 70
     1
102
RTVSPropertyOp58
 70
     1
102
RTVSPropertyOp59
 70
     1
102
RTVSPropertyOp60
 70
     1
102
RTVSPropertyOp61
 70
     1
102
RTVSPropertyOp62
 70
     1
  0
XRECORD
  5
DBC
102
{ACAD_REACTORS
330
DBB
102
}
330
DBB
100
AcDbXrecord
280
     1
102
RTVSPost2010Prop28
280
     0
102
RTVSPost2010PropOp28
 70
     1
102
RTVSPost2010Prop29
280
     1
102
RTVSPost2010PropOp29
 70
     1
102
RTVSPost2010Prop30
280
     1
102
RTVSPost2010PropOp30
 70
     1
102
RTVSPost2010Prop31
280
     0
102
RTVSPost2010PropOp31
 70
     1
102
RTVSPost2010Prop32
280
     0
102
RTVSPost2010PropOp32
 70
     1
102
RTVSPost2010Prop33
280
     0
102
RTVSPost2010PropOp33
 70
     1
102
RTVSPost2010Prop34
280
     0
102
RTVSPost2010PropOp34
 70
     1
102
RTVSPost2010Prop35
280
     0
102
RTVSPost2010PropOp35
 70
     1
102
RTVSPost2010Prop36
280
     0
102
RTVSPost2010PropOp36
 70
     1
102
RTVSPost2010Prop37
 90
       50
102
RTVSPost2010PropOp37
 70
     1
102
RTVSPost2010Prop38
140
0.0
102
RTVSPost2010PropOp38
 70
     1
102
RTVSPost2010Prop39
140
1.0
102
RTVSPost2010PropOp39
 70
     1
102
RTVSPost2010Prop40
 90
        0
102
RTVSPost2010PropOp40
 70
     1
102
RTVSPost2010Prop41ColorIndex
 90
       18
102
RTVSPost2010Prop41ColorRGB
 90
        0
102
RTVSPost2010PropOp41
 70
     1
102
RTVSPost2010Prop42
 90
       50
102
RTVSPost2010PropOp42
 70
     1
102
RTVSPost2010Prop43
 90
        3
102
RTVSPost2010PropOp43
 70
     1
102
RTVSPost2010Prop44ColorIndex
 90
        5
102
RTVSPost2010Prop44ColorRGB
 90
      255
102
RTVSPost2010PropOp44
 70
     1
102
RTVSPost2010Prop45
280
     0
102
RTVSPost2010PropOp45
 70
     1
102
RTVSPost2010Prop46
 90
       50
102
RTVSPost2010PropOp46
 70
     1
102
RTVSPost2010Prop47
 90
       50
102
RTVSPost2010PropOp47
 70
     1
102
RTVSPost2010Prop48
 90
       50
102
RTVSPost2010PropOp48
 70
     1
102
RTVSPost2010Prop49
280
     0
102
RTVSPost2010PropOp49
 70
     1
102
RTVSPost2010Prop50
 90
       50
102
RTVSPost2010PropOp50
 70
     1
102
RTVSPost2010Prop51ColorIndex
 90
      256
102
RTVSPost2010Prop51ColorRGB
 90
-16777216
102
RTVSPost2010PropOp51
 70
     0
102
RTVSPost2010Prop52
140
1.0
102
RTVSPost2010PropOp52
 70
     0
102
RTVSPost2010Prop53
 90
        2
102
RTVSPost2010PropOp53
 70
     1
102
RTVSPost2010Prop54
  1
strokes_ogs.tif
102
RTVSPost2010PropOp54
 70
     1
102
RTVSPost2010Prop55
280
     0
102
RTVSPost2010PropOp55
 70
     1
102
RTVSPost2010Prop56
140
1.0
102
RTVSPost2010PropOp56
 70
     1
102
RTVSPost2010Prop57
140
1.0
102
RTVSPost2010PropOp57
 70
     1
102
RTVSPropertyOp0
 70
     1
102
RTVSPropertyOp1
 70
     1
102
RTVSPropertyOp2
 70
     1
102
RTVSPropertyOp3
 70
     1
102
RTVSPropertyOp4
 70
     1
102
RTVSPropertyOp5
 70
     1
102
RTVSPropertyOp6
 70
     1
102
RTVSPropertyOp7
 70
     1
102
RTVSPropertyOp8
 70
     1
102
RTVSPropertyOp9
 70
     1
102
RTVSPropertyOp10
 70
     1
102
RTVSPropertyOp11
 70
     1
102
RTVSPropertyOp12
 70
     1
102
RTVSPropertyOp13
 70
     1
102
RTVSPropertyOp14
 70
     1
102
RTVSPropertyOp15
 70
     1
102
RTVSPropertyOp16
 70
     1
102
RTVSPropertyOp17
 70
     1
102
RTVSPropertyOp18
 70
     1
102
RTVSPropertyOp19
 70
     1
102
RTVSPropertyOp20
 70
     1
102
RTVSPropertyOp21
 70
     1
102
RTVSPropertyOp22
 70
     1
102
RTVSPropertyOp23
 70
     1
102
RTVSPropertyOp24
 70
     1
102
RTVSPropertyOp25
 70
     1
102
RTVSPropertyOp26
 70
     1
102
RTVSPropertyOp27
 70
     1
102
RTVSPropertyOp28
 70
     1
102
RTVSPropertyOp29
 70
     1
102
RTVSPropertyOp30
 70
     1
102
RTVSPropertyOp31
 70
     1
102
RTVSPropertyOp32
 70
     1
102
RTVSPropertyOp33
 70
     1
102
RTVSPropertyOp34
 70
     1
102
RTVSPropertyOp35
 70
     1
102
RTVSPropertyOp36
 70
     1
102
RTVSPropertyOp37
 70
     1
102
RTVSPropertyOp38
 70
     1
102
RTVSPropertyOp39
 70
     1
102
RTVSPropertyOp40
 70
     1
102
RTVSPropertyOp41
 70
     1
102
RTVSPropertyOp42
 70
     1
102
RTVSPropertyOp43
 70
     1
102
RTVSPropertyOp44
 70
     1
102
RTVSPropertyOp45
 70
     1
102
RTVSPropertyOp46
 70
     1
102
RTVSPropertyOp47
 70
     1
102
RTVSPropertyOp48
 70
     1
102
RTVSPropertyOp49
 70
     1
102
RTVSPropertyOp50
 70
     1
102
RTVSPropertyOp51
 70
     0
102
RTVSPropertyOp52
 70
     0
102
RTVSPropertyOp53
 70
     1
102
RTVSPropertyOp54
 70
     1
102
RTVSPropertyOp55
 70
     1
102
RTVSPropertyOp56
 70
     1
102
RTVSPropertyOp57
 70
     1
102
RTVSPropertyOp58
 70
     1
102
RTVSPropertyOp59
 70
     1
102
RTVSPropertyOp60
 70
     1
102
RTVSPropertyOp61
 70
     1
102
RTVSPropertyOp62
 70
     1
  0
XRECORD
  5
DBE
102
{ACAD_REACTORS
330
DBD
102
}
330
DBD
100
AcDbXrecord
280
     1
102
RTVSPost2010Prop28
280
     0
102
RTVSPost2010PropOp28
 70
     1
102
RTVSPost2010Prop29
280
     1
102
RTVSPost2010PropOp29
 70
     1
102
RTVSPost2010Prop30
280
     1
102
RTVSPost2010PropOp30
 70
     1
102
RTVSPost2010Prop31
280
     0
102
RTVSPost2010PropOp31
 70
     1
102
RTVSPost2010Prop32
280
     0
102
RTVSPost2010PropOp32
 70
     1
102
RTVSPost2010Prop33
280
     0
102
RTVSPost2010PropOp33
 70
     1
102
RTVSPost2010Prop34
280
     0
102
RTVSPost2010PropOp34
 70
     1
102
RTVSPost2010Prop35
280
     0
102
RTVSPost2010PropOp35
 70
     1
102
RTVSPost2010Prop36
280
     0
102
RTVSPost2010PropOp36
 70
     1
102
RTVSPost2010Prop37
 90
       50
102
RTVSPost2010PropOp37
 70
     1
102
RTVSPost2010Prop38
140
0.0
102
RTVSPost2010PropOp38
 70
     1
102
RTVSPost2010Prop39
140
1.0
102
RTVSPost2010PropOp39
 70
     1
102
RTVSPost2010Prop40
 90
        0
102
RTVSPost2010PropOp40
 70
     1
102
RTVSPost2010Prop41ColorIndex
 90
       18
102
RTVSPost2010Prop41ColorRGB
 90
        0
102
RTVSPost2010PropOp41
 70
     1
102
RTVSPost2010Prop42
 90
       50
102
RTVSPost2010PropOp42
 70
     1
102
RTVSPost2010Prop43
 90
        3
102
RTVSPost2010PropOp43
 70
     1
102
RTVSPost2010Prop44ColorIndex
 90
        5
102
RTVSPost2010Prop44ColorRGB
 90
      255
102
RTVSPost2010PropOp44
 70
     1
102
RTVSPost2010Prop45
280
     0
102
RTVSPost2010PropOp45
 70
     1
102
RTVSPost2010Prop46
 90
       50
102
RTVSPost2010PropOp46
 70
     1
102
RTVSPost2010Prop47
 90
       50
102
RTVSPost2010PropOp47
 70
     1
102
RTVSPost2010Prop48
 90
       50
102
RTVSPost2010PropOp48
 70
     1
102
RTVSPost2010Prop49
280
     0
102
RTVSPost2010PropOp49
 70
     1
102
RTVSPost2010Prop50
 90
       50
102
RTVSPost2010PropOp50
 70
     1
102
RTVSPost2010Prop51ColorIndex
 90
      256
102
RTVSPost2010Prop51ColorRGB
 90
-16777216
102
RTVSPost2010PropOp51
 70
     0
102
RTVSPost2010Prop52
140
1.0
102
RTVSPost2010PropOp52
 70
     0
102
RTVSPost2010Prop53
 90
        2
102
RTVSPost2010PropOp53
 70
     1
102
RTVSPost2010Prop54
  1
strokes_ogs.tif
102
RTVSPost2010PropOp54
 70
     1
102
RTVSPost2010Prop55
280
     0
102
RTVSPost2010PropOp55
 70
     1
102
RTVSPost2010Prop56
140
1.0
102
RTVSPost2010PropOp56
 70
     1
102
RTVSPost2010Prop57
140
1.0
102
RTVSPost2010PropOp57
 70
     1
102
RTVSPropertyOp0
 70
     1
102
RTVSPropertyOp1
 70
     1
102
RTVSPropertyOp2
 70
     1
102
RTVSPropertyOp3
 70
     1
102
RTVSPropertyOp4
 70
     1
102
RTVSPropertyOp5
 70
     1
102
RTVSPropertyOp6
 70
     1
102
RTVSPropertyOp7
 70
     1
102
RTVSPropertyOp8
 70
     1
102
RTVSPropertyOp9
 70
     1
102
RTVSPropertyOp10
 70
     1
102
RTVSPropertyOp11
 70
     1
102
RTVSPropertyOp12
 70
     1
102
RTVSPropertyOp13
 70
     1
102
RTVSPropertyOp14
 70
     1
102
RTVSPropertyOp15
 70
     1
102
RTVSPropertyOp16
 70
     1
102
RTVSPropertyOp17
 70
     1
102
RTVSPropertyOp18
 70
     1
102
RTVSPropertyOp19
 70
     1
102
RTVSPropertyOp20
 70
     1
102
RTVSPropertyOp21
 70
     1
102
RTVSPropertyOp22
 70
     1
102
RTVSPropertyOp23
 70
     1
102
RTVSPropertyOp24
 70
     1
102
RTVSPropertyOp25
 70
     1
102
RTVSPropertyOp26
 70
     1
102
RTVSPropertyOp27
 70
     1
102
RTVSPropertyOp28
 70
     1
102
RTVSPropertyOp29
 70
     1
102
RTVSPropertyOp30
 70
     1
102
RTVSPropertyOp31
 70
     1
102
RTVSPropertyOp32
 70
     1
102
RTVSPropertyOp33
 70
     1
102
RTVSPropertyOp34
 70
     1
102
RTVSPropertyOp35
 70
     1
102
RTVSPropertyOp36
 70
     1
102
RTVSPropertyOp37
 70
     1
102
RTVSPropertyOp38
 70
     1
102
RTVSPropertyOp39
 70
     1
102
RTVSPropertyOp40
 70
     1
102
RTVSPropertyOp41
 70
     1
102
RTVSPropertyOp42
 70
     1
102
RTVSPropertyOp43
 70
     1
102
RTVSPropertyOp44
 70
     1
102
RTVSPropertyOp45
 70
     1
102
RTVSPropertyOp46
 70
     1
102
RTVSPropertyOp47
 70
     1
102
RTVSPropertyOp48
 70
     1
102
RTVSPropertyOp49
 70
     1
102
RTVSPropertyOp50
 70
     1
102
RTVSPropertyOp51
 70
     0
102
RTVSPropertyOp52
 70
     0
102
RTVSPropertyOp53
 70
     1
102
RTVSPropertyOp54
 70
     1
102
RTVSPropertyOp55
 70
     1
102
RTVSPropertyOp56
 70
     1
102
RTVSPropertyOp57
 70
     1
102
RTVSPropertyOp58
 70
     1
102
RTVSPropertyOp59
 70
     1
102
RTVSPropertyOp60
 70
     1
102
RTVSPropertyOp61
 70
     1
102
RTVSPropertyOp62
 70
     1
  0
XRECORD
  5
DB4
102
{ACAD_REACTORS
330
DB3
102
}
330
DB3
100
AcDbXrecord
280
     1
102
RTVSPost2010Prop28
280
     0
102
RTVSPost2010PropOp28
 70
     1
102
RTVSPost2010Prop29
280
     1
102
RTVSPost2010PropOp29
 70
     1
102
RTVSPost2010Prop30
280
     1
102
RTVSPost2010PropOp30
 70
     1
102
RTVSPost2010Prop31
280
     0
102
RTVSPost2010PropOp31
 70
     1
102
RTVSPost2010Prop32
280
     0
102
RTVSPost2010PropOp32
 70
     1
102
RTVSPost2010Prop33
280
     0
102
RTVSPost2010PropOp33
 70
     1
102
RTVSPost2010Prop34
280
     0
102
RTVSPost2010PropOp34
 70
     1
102
RTVSPost2010Prop35
280
     0
102
RTVSPost2010PropOp35
 70
     1
102
RTVSPost2010Prop36
280
     0
102
RTVSPost2010PropOp36
 70
     1
102
RTVSPost2010Prop37
 90
       50
102
RTVSPost2010PropOp37
 70
     1
102
RTVSPost2010Prop38
140
0.0
102
RTVSPost2010PropOp38
 70
     1
102
RTVSPost2010Prop39
140
1.0
102
RTVSPost2010PropOp39
 70
     1
102
RTVSPost2010Prop40
 90
        0
102
RTVSPost2010PropOp40
 70
     1
102
RTVSPost2010Prop41ColorIndex
 90
       18
102
RTVSPost2010Prop41ColorRGB
 90
        0
102
RTVSPost2010PropOp41
 70
     1
102
RTVSPost2010Prop42
 90
       50
102
RTVSPost2010PropOp42
 70
     1
102
RTVSPost2010Prop43
 90
        3
102
RTVSPost2010PropOp43
 70
     1
102
RTVSPost2010Prop44ColorIndex
 90
        5
102
RTVSPost2010Prop44ColorRGB
 90
      255
102
RTVSPost2010PropOp44
 70
     1
102
RTVSPost2010Prop45
280
     0
102
RTVSPost2010PropOp45
 70
     1
102
RTVSPost2010Prop46
 90
       50
102
RTVSPost2010PropOp46
 70
     1
102
RTVSPost2010Prop47
 90
       50
102
RTVSPost2010PropOp47
 70
     1
102
RTVSPost2010Prop48
 90
       50
102
RTVSPost2010PropOp48
 70
     1
102
RTVSPost2010Prop49
280
     0
102
RTVSPost2010PropOp49
 70
     1
102
RTVSPost2010Prop50
 90
       50
102
RTVSPost2010PropOp50
 70
     1
102
RTVSPost2010Prop51ColorIndex
 90
      256
102
RTVSPost2010Prop51ColorRGB
 90
-16777216
102
RTVSPost2010PropOp51
 70
     0
102
RTVSPost2010Prop52
140
1.0
102
RTVSPost2010PropOp52
 70
     0
102
RTVSPost2010Prop53
 90
        2
102
RTVSPost2010PropOp53
 70
     1
102
RTVSPost2010Prop54
  1
strokes_ogs.tif
102
RTVSPost2010PropOp54
 70
     1
102
RTVSPost2010Prop55
280
     0
102
RTVSPost2010PropOp55
 70
     1
102
RTVSPost2010Prop56
140
1.0
102
RTVSPost2010PropOp56
 70
     1
102
RTVSPost2010Prop57
140
1.0
102
RTVSPost2010PropOp57
 70
     1
102
RTVSPropertyOp0
 70
     1
102
RTVSPropertyOp1
 70
     1
102
RTVSPropertyOp2
 70
     1
102
RTVSPropertyOp3
 70
     1
102
RTVSPropertyOp4
 70
     1
102
RTVSPropertyOp5
 70
     1
102
RTVSPropertyOp6
 70
     1
102
RTVSPropertyOp7
 70
     1
102
RTVSPropertyOp8
 70
     1
102
RTVSPropertyOp9
 70
     1
102
RTVSPropertyOp10
 70
     1
102
RTVSPropertyOp11
 70
     1
102
RTVSPropertyOp12
 70
     1
102
RTVSPropertyOp13
 70
     1
102
RTVSPropertyOp14
 70
     1
102
RTVSPropertyOp15
 70
     1
102
RTVSPropertyOp16
 70
     1
102
RTVSPropertyOp17
 70
     1
102
RTVSPropertyOp18
 70
     1
102
RTVSPropertyOp19
 70
     1
102
RTVSPropertyOp20
 70
     1
102
RTVSPropertyOp21
 70
     1
102
RTVSPropertyOp22
 70
     1
102
RTVSPropertyOp23
 70
     1
102
RTVSPropertyOp24
 70
     1
102
RTVSPropertyOp25
 70
     1
102
RTVSPropertyOp26
 70
     1
102
RTVSPropertyOp27
 70
     1
102
RTVSPropertyOp28
 70
     1
102
RTVSPropertyOp29
 70
     1
102
RTVSPropertyOp30
 70
     1
102
RTVSPropertyOp31
 70
     1
102
RTVSPropertyOp32
 70
     1
102
RTVSPropertyOp33
 70
     1
102
RTVSPropertyOp34
 70
     1
102
RTVSPropertyOp35
 70
     1
102
RTVSPropertyOp36
 70
     1
102
RTVSPropertyOp37
 70
     1
102
RTVSPropertyOp38
 70
     1
102
RTVSPropertyOp39
 70
     1
102
RTVSPropertyOp40
 70
     1
102
RTVSPropertyOp41
 70
     1
102
RTVSPropertyOp42
 70
     1
102
RTVSPropertyOp43
 70
     1
102
RTVSPropertyOp44
 70
     1
102
RTVSPropertyOp45
 70
     1
102
RTVSPropertyOp46
 70
     1
102
RTVSPropertyOp47
 70
     1
102
RTVSPropertyOp48
 70
     1
102
RTVSPropertyOp49
 70
     1
102
RTVSPropertyOp50
 70
     1
102
RTVSPropertyOp51
 70
     0
102
RTVSPropertyOp52
 70
     0
102
RTVSPropertyOp53
 70
     1
102
RTVSPropertyOp54
 70
     1
102
RTVSPropertyOp55
 70
     1
102
RTVSPropertyOp56
 70
     1
102
RTVSPropertyOp57
 70
     1
102
RTVSPropertyOp58
 70
     1
102
RTVSPropertyOp59
 70
     1
102
RTVSPropertyOp60
 70
     1
102
RTVSPropertyOp61
 70
     1
102
RTVSPropertyOp62
 70
     1
  0
XRECORD
  5
DA8
102
{ACAD_REACTORS
330
DA7
102
}
330
DA7
100
AcDbXrecord
280
     1
102
RTVSPost2010Prop28
280
     0
102
RTVSPost2010PropOp28
 70
     1
102
RTVSPost2010Prop29
280
     1
102
RTVSPost2010PropOp29
 70
     1
102
RTVSPost2010Prop30
280
     1
102
RTVSPost2010PropOp30
 70
     1
102
RTVSPost2010Prop31
280
     0
102
RTVSPost2010PropOp31
 70
     1
102
RTVSPost2010Prop32
280
     0
102
RTVSPost2010PropOp32
 70
     1
102
RTVSPost2010Prop33
280
     0
102
RTVSPost2010PropOp33
 70
     1
102
RTVSPost2010Prop34
280
     0
102
RTVSPost2010PropOp34
 70
     1
102
RTVSPost2010Prop35
280
     0
102
RTVSPost2010PropOp35
 70
     1
102
RTVSPost2010Prop36
280
     0
102
RTVSPost2010PropOp36
 70
     1
102
RTVSPost2010Prop37
 90
       50
102
RTVSPost2010PropOp37
 70
     1
102
RTVSPost2010Prop38
140
0.0
102
RTVSPost2010PropOp38
 70
     1
102
RTVSPost2010Prop39
140
1.0
102
RTVSPost2010PropOp39
 70
     1
102
RTVSPost2010Prop40
 90
        0
102
RTVSPost2010PropOp40
 70
     1
102
RTVSPost2010Prop41ColorIndex
 90
       18
102
RTVSPost2010Prop41ColorRGB
 90
        0
102
RTVSPost2010PropOp41
 70
     1
102
RTVSPost2010Prop42
 90
       50
102
RTVSPost2010PropOp42
 70
     1
102
RTVSPost2010Prop43
 90
        3
102
RTVSPost2010PropOp43
 70
     1
102
RTVSPost2010Prop44ColorIndex
 90
        5
102
RTVSPost2010Prop44ColorRGB
 90
      255
102
RTVSPost2010PropOp44
 70
     1
102
RTVSPost2010Prop45
280
     0
102
RTVSPost2010PropOp45
 70
     1
102
RTVSPost2010Prop46
 90
       50
102
RTVSPost2010PropOp46
 70
     1
102
RTVSPost2010Prop47
 90
       50
102
RTVSPost2010PropOp47
 70
     1
102
RTVSPost2010Prop48
 90
       50
102
RTVSPost2010PropOp48
 70
     1
102
RTVSPost2010Prop49
280
     0
102
RTVSPost2010PropOp49
 70
     1
102
RTVSPost2010Prop50
 90
       50
102
RTVSPost2010PropOp50
 70
     1
102
RTVSPost2010Prop51ColorIndex
 90
      256
102
RTVSPost2010Prop51ColorRGB
 90
-16777216
102
RTVSPost2010PropOp51
 70
     0
102
RTVSPost2010Prop52
140
1.0
102
RTVSPost2010PropOp52
 70
     0
102
RTVSPost2010Prop53
 90
        2
102
RTVSPost2010PropOp53
 70
     1
102
RTVSPost2010Prop54
  1
strokes_ogs.tif
102
RTVSPost2010PropOp54
 70
     1
102
RTVSPost2010Prop55
280
     0
102
RTVSPost2010PropOp55
 70
     1
102
RTVSPost2010Prop56
140
1.0
102
RTVSPost2010PropOp56
 70
     1
102
RTVSPost2010Prop57
140
1.0
102
RTVSPost2010PropOp57
 70
     1
102
RTVSPropertyOp0
 70
     1
102
RTVSPropertyOp1
 70
     1
102
RTVSPropertyOp2
 70
     1
102
RTVSPropertyOp3
 70
     1
102
RTVSPropertyOp4
 70
     1
102
RTVSPropertyOp5
 70
     1
102
RTVSPropertyOp6
 70
     1
102
RTVSPropertyOp7
 70
     1
102
RTVSPropertyOp8
 70
     1
102
RTVSPropertyOp9
 70
     1
102
RTVSPropertyOp10
 70
     1
102
RTVSPropertyOp11
 70
     1
102
RTVSPropertyOp12
 70
     1
102
RTVSPropertyOp13
 70
     1
102
RTVSPropertyOp14
 70
     1
102
RTVSPropertyOp15
 70
     1
102
RTVSPropertyOp16
 70
     1
102
RTVSPropertyOp17
 70
     1
102
RTVSPropertyOp18
 70
     1
102
RTVSPropertyOp19
 70
     1
102
RTVSPropertyOp20
 70
     1
102
RTVSPropertyOp21
 70
     1
102
RTVSPropertyOp22
 70
     1
102
RTVSPropertyOp23
 70
     1
102
RTVSPropertyOp24
 70
     1
102
RTVSPropertyOp25
 70
     1
102
RTVSPropertyOp26
 70
     1
102
RTVSPropertyOp27
 70
     1
102
RTVSPropertyOp28
 70
     1
102
RTVSPropertyOp29
 70
     1
102
RTVSPropertyOp30
 70
     1
102
RTVSPropertyOp31
 70
     1
102
RTVSPropertyOp32
 70
     1
102
RTVSPropertyOp33
 70
     1
102
RTVSPropertyOp34
 70
     1
102
RTVSPropertyOp35
 70
     1
102
RTVSPropertyOp36
 70
     1
102
RTVSPropertyOp37
 70
     1
102
RTVSPropertyOp38
 70
     1
102
RTVSPropertyOp39
 70
     1
102
RTVSPropertyOp40
 70
     1
102
RTVSPropertyOp41
 70
     1
102
RTVSPropertyOp42
 70
     1
102
RTVSPropertyOp43
 70
     1
102
RTVSPropertyOp44
 70
     1
102
RTVSPropertyOp45
 70
     1
102
RTVSPropertyOp46
 70
     1
102
RTVSPropertyOp47
 70
     1
102
RTVSPropertyOp48
 70
     1
102
RTVSPropertyOp49
 70
     1
102
RTVSPropertyOp50
 70
     1
102
RTVSPropertyOp51
 70
     0
102
RTVSPropertyOp52
 70
     0
102
RTVSPropertyOp53
 70
     1
102
RTVSPropertyOp54
 70
     1
102
RTVSPropertyOp55
 70
     1
102
RTVSPropertyOp56
 70
     1
102
RTVSPropertyOp57
 70
     1
102
RTVSPropertyOp58
 70
     1
102
RTVSPropertyOp59
 70
     1
102
RTVSPropertyOp60
 70
     1
102
RTVSPropertyOp61
 70
     1
102
RTVSPropertyOp62
 70
     1
  0
XRECORD
  5
DC0
102
{ACAD_REACTORS
330
DBF
102
}
330
DBF
100
AcDbXrecord
280
     1
102
RTVSPost2010Prop28
280
     0
102
RTVSPost2010PropOp28
 70
     1
102
RTVSPost2010Prop29
280
     1
102
RTVSPost2010PropOp29
 70
     1
102
RTVSPost2010Prop30
280
     1
102
RTVSPost2010PropOp30
 70
     1
102
RTVSPost2010Prop31
280
     0
102
RTVSPost2010PropOp31
 70
     1
102
RTVSPost2010Prop32
280
     0
102
RTVSPost2010PropOp32
 70
     1
102
RTVSPost2010Prop33
280
     0
102
RTVSPost2010PropOp33
 70
     1
102
RTVSPost2010Prop34
280
     0
102
RTVSPost2010PropOp34
 70
     1
102
RTVSPost2010Prop35
280
     0
102
RTVSPost2010PropOp35
 70
     1
102
RTVSPost2010Prop36
280
     0
102
RTVSPost2010PropOp36
 70
     1
102
RTVSPost2010Prop37
 90
       50
102
RTVSPost2010PropOp37
 70
     1
102
RTVSPost2010Prop38
140
0.0
102
RTVSPost2010PropOp38
 70
     1
102
RTVSPost2010Prop39
140
1.0
102
RTVSPost2010PropOp39
 70
     1
102
RTVSPost2010Prop40
 90
        0
102
RTVSPost2010PropOp40
 70
     1
102
RTVSPost2010Prop41ColorIndex
 90
       18
102
RTVSPost2010Prop41ColorRGB
 90
        0
102
RTVSPost2010PropOp41
 70
     1
102
RTVSPost2010Prop42
 90
       50
102
RTVSPost2010PropOp42
 70
     1
102
RTVSPost2010Prop43
 90
        3
102
RTVSPost2010PropOp43
 70
     1
102
RTVSPost2010Prop44ColorIndex
 90
        5
102
RTVSPost2010Prop44ColorRGB
 90
      255
102
RTVSPost2010PropOp44
 70
     1
102
RTVSPost2010Prop45
280
     0
102
RTVSPost2010PropOp45
 70
     1
102
RTVSPost2010Prop46
 90
       50
102
RTVSPost2010PropOp46
 70
     1
102
RTVSPost2010Prop47
 90
       50
102
RTVSPost2010PropOp47
 70
     1
102
RTVSPost2010Prop48
 90
       50
102
RTVSPost2010PropOp48
 70
     1
102
RTVSPost2010Prop49
280
     0
102
RTVSPost2010PropOp49
 70
     1
102
RTVSPost2010Prop50
 90
       50
102
RTVSPost2010PropOp50
 70
     1
102
RTVSPost2010Prop51ColorIndex
 90
      256
102
RTVSPost2010Prop51ColorRGB
 90
-16777216
102
RTVSPost2010PropOp51
 70
     0
102
RTVSPost2010Prop52
140
1.0
102
RTVSPost2010PropOp52
 70
     0
102
RTVSPost2010Prop53
 90
        2
102
RTVSPost2010PropOp53
 70
     1
102
RTVSPost2010Prop54
  1
strokes_ogs.tif
102
RTVSPost2010PropOp54
 70
     1
102
RTVSPost2010Prop55
280
     0
102
RTVSPost2010PropOp55
 70
     1
102
RTVSPost2010Prop56
140
1.0
102
RTVSPost2010PropOp56
 70
     1
102
RTVSPost2010Prop57
140
1.0
102
RTVSPost2010PropOp57
 70
     1
102
RTVSPropertyOp0
 70
     1
102
RTVSPropertyOp1
 70
     1
102
RTVSPropertyOp2
 70
     1
102
RTVSPropertyOp3
 70
     1
102
RTVSPropertyOp4
 70
     1
102
RTVSPropertyOp5
 70
     1
102
RTVSPropertyOp6
 70
     1
102
RTVSPropertyOp7
 70
     1
102
RTVSPropertyOp8
 70
     1
102
RTVSPropertyOp9
 70
     1
102
RTVSPropertyOp10
 70
     1
102
RTVSPropertyOp11
 70
     1
102
RTVSPropertyOp12
 70
     1
102
RTVSPropertyOp13
 70
     1
102
RTVSPropertyOp14
 70
     1
102
RTVSPropertyOp15
 70
     1
102
RTVSPropertyOp16
 70
     1
102
RTVSPropertyOp17
 70
     1
102
RTVSPropertyOp18
 70
     1
102
RTVSPropertyOp19
 70
     1
102
RTVSPropertyOp20
 70
     1
102
RTVSPropertyOp21
 70
     1
102
RTVSPropertyOp22
 70
     1
102
RTVSPropertyOp23
 70
     1
102
RTVSPropertyOp24
 70
     1
102
RTVSPropertyOp25
 70
     1
102
RTVSPropertyOp26
 70
     1
102
RTVSPropertyOp27
 70
     1
102
RTVSPropertyOp28
 70
     1
102
RTVSPropertyOp29
 70
     1
102
RTVSPropertyOp30
 70
     1
102
RTVSPropertyOp31
 70
     1
102
RTVSPropertyOp32
 70
     1
102
RTVSPropertyOp33
 70
     1
102
RTVSPropertyOp34
 70
     1
102
RTVSPropertyOp35
 70
     1
102
RTVSPropertyOp36
 70
     1
102
RTVSPropertyOp37
 70
     1
102
RTVSPropertyOp38
 70
     1
102
RTVSPropertyOp39
 70
     1
102
RTVSPropertyOp40
 70
     1
102
RTVSPropertyOp41
 70
     1
102
RTVSPropertyOp42
 70
     1
102
RTVSPropertyOp43
 70
     1
102
RTVSPropertyOp44
 70
     1
102
RTVSPropertyOp45
 70
     1
102
RTVSPropertyOp46
 70
     1
102
RTVSPropertyOp47
 70
     1
102
RTVSPropertyOp48
 70
     1
102
RTVSPropertyOp49
 70
     1
102
RTVSPropertyOp50
 70
     1
102
RTVSPropertyOp51
 70
     0
102
RTVSPropertyOp52
 70
     0
102
RTVSPropertyOp53
 70
     1
102
RTVSPropertyOp54
 70
     1
102
RTVSPropertyOp55
 70
     1
102
RTVSPropertyOp56
 70
     1
102
RTVSPropertyOp57
 70
     1
102
RTVSPropertyOp58
 70
     1
102
RTVSPropertyOp59
 70
     1
102
RTVSPropertyOp60
 70
     1
102
RTVSPropertyOp61
 70
     1
102
RTVSPropertyOp62
 70
     1
  0
ENDSEC
  0
EOF
