  0
SECTION
  2
HEADER
  9
$ACADVER
  1
AC1027
  9
$ACADMAINTVER
 70
    20
  9
$DWGCODEPAGE
  3
ANSI_932
  9
$REQUIREDVERSIONS
160
                 0
  9
$INSBASE
 10
0.0
 20
0.0
 30
0.0
  9
$EXTMIN
 10
-0.0362826320765635
 20
-0.0256633251274252
 30
-0.0015258207003583
  9
$EXTMAX
 10
50.03756858110136
 20
29.2969217895261
 30
0.0000000349246037
  9
$LIMMIN
 10
-3.779468162339981
 20
-5.749895000603373
  9
$LIMMAX
 10
53.37558767905375
 20
33.3377466642421
  9
$ORTHOMODE
 70
     1
  9
$REGENMODE
 70
     1
  9
$FILLMODE
 70
     1
  9
$QTEXTMODE
 70
     0
  9
$MIRRTEXT
 70
     1
  9
$LTSCALE
 40
1.0
  9
$ATTMODE
 70
     1
  9
$TEXTSIZE
 40
3.5
  9
$TRACEWID
 40
1.0
  9
$TEXTSTYLE
  7
Standard
  9
$CLAYER
  8
0
  9
$CELTYPE
  6
ByLayer
  9
$CECOLOR
 62
   256
  9
$CELTSCALE
 40
1.0
  9
$DISPSILH
 70
     0
  9
$DIMSCALE
 40
1.0
  9
$DIMASZ
 40
3.556
  9
$DIMEXO
 40
1.0
  9
$DIMDLI
 40
3.75
  9
$DIMRND
 40
0.0
  9
$DIMDLE
 40
0.0
  9
$DIMEXE
 40
1.0
  9
$DIMTP
 40
0.0
  9
$DIMTM
 40
0.0
  9
$DIMTXT
 40
3.5
  9
$DIMCEN
 40
2.5
  9
$DIMTSZ
 40
0.0
  9
$DIMTOL
 70
     0
  9
$DIMLIM
 70
     0
  9
$DIMTIH
 70
     1
  9
$DIMTOH
 70
     1
  9
$DIMSE1
 70
     0
  9
$DIMSE2
 70
     0
  9
$DIMTAD
 70
     1
  9
$DIMZIN
 70
     0
  9
$DIMBLK
  1

  9
$DIMASO
 70
     1
  9
$DIMSHO
 70
     1
  9
$DIMPOST
  1

  9
$DIMAPOST
  1

  9
$DIMALT
 70
     0
  9
$DIMALTD
 70
     3
  9
$DIMALTF
 40
0.0393700787
  9
$DIMLFAC
 40
1.0
  9
$DIMTOFL
 70
     1
  9
$DIMTVP
 40
0.0
  9
$DIMTIX
 70
     0
  9
$DIMSOXD
 70
     0
  9
$DIMSAH
 70
     0
  9
$DIMBLK1
  1

  9
$DIMBLK2
  1

  9
$DIMSTYLE
  2
ISO-25
  9
$DIMCLRD
 70
     0
  9
$DIMCLRE
 70
     0
  9
$DIMCLRT
 70
     0
  9
$DIMTFAC
 40
1.0
  9
$DIMGAP
 40
1.524
  9
$DIMJUST
 70
     0
  9
$DIMSD1
 70
     0
  9
$DIMSD2
 70
     0
  9
$DIMTOLJ
 70
     0
  9
$DIMTZIN
 70
     0
  9
$DIMALTZ
 70
     0
  9
$DIMALTTZ
 70
     0
  9
$DIMUPT
 70
     0
  9
$DIMDEC
 70
     2
  9
$DIMTDEC
 70
     2
  9
$DIMALTU
 70
     2
  9
$DIMALTTD
 70
     3
  9
$DIMTXSTY
  7
Standard
  9
$DIMAUNIT
 70
     0
  9
$DIMADEC
 70
     2
  9
$DIMALTRND
 40
0.0
  9
$DIMAZIN
 70
     0
  9
$DIMDSEP
 70
    44
  9
$DIMATFIT
 70
     3
  9
$DIMFRAC
 70
     0
  9
$DIMLDRBLK
  1

  9
$DIMLUNIT
 70
     2
  9
$DIMLWD
 70
    -2
  9
$DIMLWE
 70
    -2
  9
$DIMTMOVE
 70
     0
  9
$DIMFXL
 40
1.0
  9
$DIMFXLON
 70
     0
  9
$DIMJOGANG
 40
0.7853981633974483
  9
$DIMTFILL
 70
     0
  9
$DIMTFILLCLR
 70
     0
  9
$DIMARCSYM
 70
     0
  9
$DIMLTYPE
  6

  9
$DIMLTEX1
  6

  9
$DIMLTEX2
  6

  9
$DIMTXTDIRECTION
 70
     0
  9
$LUNITS
 70
     2
  9
$LUPREC
 70
     2
  9
$SKETCHINC
 40
1.0
  9
$FILLETRAD
 40
10.0
  9
$AUNITS
 70
     0
  9
$AUPREC
 70
     2
  9
$MENU
  1
.
  9
$ELEVATION
 40
0.0
  9
$PELEVATION
 40
0.0
  9
$THICKNESS
 40
0.0
  9
$LIMCHECK
 70
     0
  9
$CHAMFERA
 40
0.0
  9
$CHAMFERB
 40
0.0
  9
$CHAMFERC
 40
0.0
  9
$CHAMFERD
 40
0.0
  9
$SKPOLY
 70
     0
  9
$TDCREATE
 40
2458022.733460787
  9
$TDUCREATE
 40
2458022.358460787
  9
$TDUPDATE
 40
2458022.742876505
  9
$TDUUPDATE
 40
2458022.367876504
  9
$TDINDWG
 40
0.0014221644
  9
$TDUSRTIMER
 40
0.0014221644
  9
$USRTIMER
 70
     1
  9
$ANGBASE
 50
0.0
  9
$ANGDIR
 70
     0
  9
$PDMODE
 70
     0
  9
$PDSIZE
 40
-1.0
  9
$PLINEWID
 40
0.0
  9
$SPLFRAME
 70
     0
  9
$SPLINETYPE
 70
     6
  9
$SPLINESEGS
 70
     8
  9
$HANDSEED
  5
19A
  9
$SURFTAB1
 70
     6
  9
$SURFTAB2
 70
     6
  9
$SURFTYPE
 70
     6
  9
$SURFU
 70
     6
  9
$SURFV
 70
     6
  9
$UCSBASE
  2

  9
$UCSNAME
  2

  9
$UCSORG
 10
0.0
 20
0.0
 30
0.0
  9
$UCSXDIR
 10
1.0
 20
0.0
 30
0.0
  9
$UCSYDIR
 10
0.0
 20
1.0
 30
0.0
  9
$UCSORTHOREF
  2

  9
$UCSORTHOVIEW
 70
     0
  9
$UCSORGTOP
 10
0.0
 20
0.0
 30
0.0
  9
$UCSORGBOTTOM
 10
0.0
 20
0.0
 30
0.0
  9
$UCSORGLEFT
 10
0.0
 20
0.0
 30
0.0
  9
$UCSORGRIGHT
 10
0.0
 20
0.0
 30
0.0
  9
$UCSORGFRONT
 10
0.0
 20
0.0
 30
0.0
  9
$UCSORGBACK
 10
0.0
 20
0.0
 30
0.0
  9
$PUCSBASE
  2

  9
$PUCSNAME
  2

  9
$PUCSORG
 10
0.0
 20
0.0
 30
0.0
  9
$PUCSXDIR
 10
1.0
 20
0.0
 30
0.0
  9
$PUCSYDIR
 10
0.0
 20
1.0
 30
0.0
  9
$PUCSORTHOREF
  2

  9
$PUCSORTHOVIEW
 70
     0
  9
$PUCSORGTOP
 10
0.0
 20
0.0
 30
0.0
  9
$PUCSORGBOTTOM
 10
0.0
 20
0.0
 30
0.0
  9
$PUCSORGLEFT
 10
0.0
 20
0.0
 30
0.0
  9
$PUCSORGRIGHT
 10
0.0
 20
0.0
 30
0.0
  9
$PUCSORGFRONT
 10
0.0
 20
0.0
 30
0.0
  9
$PUCSORGBACK
 10
0.0
 20
0.0
 30
0.0
  9
$USERI1
 70
     0
  9
$USERI2
 70
     0
  9
$USERI3
 70
     0
  9
$USERI4
 70
     0
  9
$USERI5
 70
     0
  9
$USERR1
 40
0.0
  9
$USERR2
 40
0.0
  9
$USERR3
 40
0.0
  9
$USERR4
 40
0.0
  9
$USERR5
 40
0.0
  9
$WORLDVIEW
 70
     1
  9
$SHADEDGE
 70
     3
  9
$SHADEDIF
 70
    70
  9
$TILEMODE
 70
     1
  9
$MAXACTVP
 70
    64
  9
$PINSBASE
 10
0.0
 20
0.0
 30
0.0
  9
$PLIMCHECK
 70
     0
  9
$PEXTMIN
 10
1.000000000000000E+20
 20
1.000000000000000E+20
 30
1.000000000000000E+20
  9
$PEXTMAX
 10
-1.000000000000000E+20
 20
-1.000000000000000E+20
 30
-1.000000000000000E+20
  9
$PLIMMIN
 10
0.0
 20
0.0
  9
$PLIMMAX
 10
420.0
 20
297.0
  9
$UNITMODE
 70
     0
  9
$VISRETAIN
 70
     1
  9
$PLINEGEN
 70
     0
  9
$PSLTSCALE
 70
     1
  9
$TREEDEPTH
 70
  3020
  9
$CMLSTYLE
  2
Standard
  9
$CMLJUST
 70
     0
  9
$CMLSCALE
 40
20.0
  9
$PROXYGRAPHICS
 70
     1
  9
$MEASUREMENT
 70
     1
  9
$CELWEIGHT
370
    -1
  9
$ENDCAPS
280
     0
  9
$JOINSTYLE
280
     0
  9
$LWDISPLAY
290
     0
  9
$INSUNITS
 70
     4
  9
$HYPERLINKBASE
  1

  9
$STYLESHEET
  1

  9
$XEDIT
290
     1
  9
$CEPSNTYPE
380
     0
  9
$PSTYLEMODE
290
     1
  9
$FINGERPRINTGUID
  2
{30C94238-EA72-42E8-826F-FADEE328BE32}
  9
$VERSIONGUID
  2
{95A771DD-A672-44B4-B331-2261B840249B}
  9
$EXTNAMES
290
     1
  9
$PSVPSCALE
 40
0.0
  9
$OLESTARTUP
290
     0
  9
$SORTENTS
280
   127
  9
$INDEXCTL
280
     0
  9
$HIDETEXT
280
     1
  9
$XCLIPFRAME
280
     2
  9
$HALOGAP
280
     0
  9
$OBSCOLOR
 70
   257
  9
$OBSLTYPE
280
     0
  9
$INTERSECTIONDISPLAY
280
     0
  9
$INTERSECTIONCOLOR
 70
   257
  9
$DIMASSOC
280
     1
  9
$PROJECTNAME
  1

  9
$CAMERADISPLAY
290
     0
  9
$LENSLENGTH
 40
50.0
  9
$CAMERAHEIGHT
 40
0.0
  9
$STEPSPERSEC
 40
2.0
  9
$STEPSIZE
 40
6.0
  9
$3DDWFPREC
 40
2.0
  9
$PSOLWIDTH
 40
0.25
  9
$PSOLHEIGHT
 40
4.0
  9
$LOFTANG1
 40
1.570796326794896
  9
$LOFTANG2
 40
1.570796326794896
  9
$LOFTMAG1
 40
0.0
  9
$LOFTMAG2
 40
0.0
  9
$LOFTPARAM
 70
     7
  9
$LOFTNORMALS
280
     1
  9
$LATITUDE
 40
37.795
  9
$LONGITUDE
 40
-122.394
  9
$NORTHDIRECTION
 40
0.0
  9
$TIMEZONE
 70
 -8000
  9
$LIGHTGLYPHDISPLAY
280
     1
  9
$TILEMODELIGHTSYNCH
280
     1
  9
$CMATERIAL
347
31
  9
$SOLIDHIST
280
     0
  9
$SHOWHIST
280
     1
  9
$DWFFRAME
280
     2
  9
$DGNFRAME
280
     0
  9
$REALWORLDSCALE
290
     1
  9
$INTERFERECOLOR
 62
     1
  9
$INTERFEREOBJVS
345
47
  9
$INTERFEREVPVS
346
48
  9
$CSHADOW
280
     0
  9
$SHADOWPLANELOCATION
 40
0.0
  0
ENDSEC
  0
SECTION
  2
CLASSES
  0
CLASS
  1
ACDBDICTIONARYWDFLT
  2
AcDbDictionaryWithDefault
  3
ObjectDBX Classes
 90
        0
 91
        1
280
     0
281
     0
  0
CLASS
  1
VISUALSTYLE
  2
AcDbVisualStyle
  3
ObjectDBX Classes
 90
     4095
 91
        3
280
     0
281
     0
  0
CLASS
  1
MATERIAL
  2
AcDbMaterial
  3
ObjectDBX Classes
 90
     1153
 91
        3
280
     0
281
     0
  0
CLASS
  1
SCALE
  2
AcDbScale
  3
ObjectDBX Classes
 90
     1153
 91
       33
280
     0
281
     0
  0
CLASS
  1
TABLESTYLE
  2
AcDbTableStyle
  3
ObjectDBX Classes
 90
     4095
 91
        1
280
     0
281
     0
  0
CLASS
  1
MLEADERSTYLE
  2
AcDbMLeaderStyle
  3
ACDB_MLEADERSTYLE_CLASS
 90
     4095
 91
        0
280
     0
281
     0
  0
CLASS
  1
SUN
  2
AcDbSun
  3
SCENEOE
 90
     1153
 91
        0
280
     0
281
     0
  0
CLASS
  1
ACDBSECTIONVIEWSTYLE
  2
AcDbSectionViewStyle
  3
ObjectDBX Classes
 90
     1025
 91
        0
280
     0
281
     0
  0
CLASS
  1
ACDBDETAILVIEWSTYLE
  2
AcDbDetailViewStyle
  3
ObjectDBX Classes
 90
     1025
 91
        0
280
     0
281
     0
  0
CLASS
  1
DICTIONARYVAR
  2
AcDbDictionaryVar
  3
ObjectDBX Classes
 90
        0
 91
        9
280
     0
281
     0
  0
CLASS
  1
CELLSTYLEMAP
  2
AcDbCellStyleMap
  3
ObjectDBX Classes
 90
     1152
 91
        1
280
     0
281
     0
  0
ENDSEC
  0
SECTION
  2
TABLES
  0
TABLE
  2
VPORT
  5
24
330
0
100
AcDbSymbolTable
 70
     1
  0
VPORT
  5
25
330
24
100
AcDbSymbolTableRecord
100
AcDbViewportTableRecord
  2
*Active
 70
     0
 10
0.0
 20
0.0
 11
1.0
 21
1.0
 12
24.79805975835688
 22
13.79392583181936
 13
0.0
 23
0.0
 14
10.0
 24
10.0
 15
10.0
 25
10.0
 16
0.0
 26
0.0
 36
1.0
 17
0.0
 27
0.0
 37
0.0
 40
39.36323020772335
 41
2.232941176470588
 42
50.0
 43
0.0
 44
0.0
 50
0.0
 51
0.0
 71
     0
 72
  2000
 73
     1
 74
     3
 75
     0
 76
     0
 77
     0
 78
     0
281
     0
 65
     1
110
0.0
120
0.0
130
0.0
111
1.0
121
0.0
131
0.0
112
0.0
122
1.0
132
0.0
 79
     0
146
0.0
348
26
 60
     3
 61
     5
292
     1
282
     1
141
0.0
142
0.0
 63
   250
421
  3355443
1001
ACAD_NAV_VCDISPLAY
1070
     3
  0
ENDTAB
  0
TABLE
  2
LTYPE
  5
1F
330
0
100
AcDbSymbolTable
 70
     1
  0
LTYPE
  5
20
330
1F
100
AcDbSymbolTableRecord
100
AcDbLinetypeTableRecord
  2
ByBlock
 70
     0
  3

 72
    65
 73
     0
 40
0.0
  0
LTYPE
  5
21
330
1F
100
AcDbSymbolTableRecord
100
AcDbLinetypeTableRecord
  2
ByLayer
 70
     0
  3

 72
    65
 73
     0
 40
0.0
  0
LTYPE
  5
13
330
1F
100
AcDbSymbolTableRecord
100
AcDbLinetypeTableRecord
  2
Continuous
 70
     0
  3
Solid line
 72
    65
 73
     0
 40
0.0
  0
ENDTAB
  0
TABLE
  2
LAYER
  5
1B
330
0
100
AcDbSymbolTable
 70
     1
  0
LAYER
  5
4
102
{ACAD_XDICTIONARY
360
5
102
}
330
1B
100
AcDbSymbolTableRecord
100
AcDbLayerTableRecord
  2
0
 70
     0
 62
     7
  6
Continuous
370
    -3
390
7
347
A
348
0
  0
ENDTAB
  0
TABLE
  2
STYLE
  5
1C
330
0
100
AcDbSymbolTable
 70
     1
  0
STYLE
  5
1D
330
1C
100
AcDbSymbolTableRecord
100
AcDbTextStyleTableRecord
  2
Standard
 70
     0
 40
0.0
 41
1.0
 50
0.0
 71
     0
 42
3.5
  3
txt
  4
bigfont
  0
ENDTAB
  0
TABLE
  2
VIEW
  5
22
330
0
100
AcDbSymbolTable
 70
     0
  0
ENDTAB
  0
TABLE
  2
UCS
  5
23
330
0
100
AcDbSymbolTable
 70
     0
  0
ENDTAB
  0
TABLE
  2
APPID
  5
29
330
0
100
AcDbSymbolTable
 70
     2
  0
APPID
  5
2A
330
29
100
AcDbSymbolTableRecord
100
AcDbRegAppTableRecord
  2
ACAD
 70
     0
  0
APPID
  5
28
330
29
100
AcDbSymbolTableRecord
100
AcDbRegAppTableRecord
  2
ACAD_NAV_VCDISPLAY
 70
     0
  0
ENDTAB
  0
TABLE
  2
DIMSTYLE
  5
2B
330
0
100
AcDbSymbolTable
 70
     1
100
AcDbDimStyleTable
 71
     1
340
2C
  0
DIMSTYLE
105
2C
330
2B
100
AcDbSymbolTableRecord
100
AcDbDimStyleTableRecord
  2
ISO-25
 70
     0
 41
2.5
 42
0.625
 43
3.75
 44
1.25
 73
     0
 74
     0
 77
     1
 78
     8
140
2.5
141
2.5
143
0.0393700787
147
0.625
171
     3
172
     1
271
     2
272
     2
274
     3
278
    44
283
     0
284
     8
340
1D
  0
ENDTAB
  0
TABLE
  2
BLOCK_RECORD
  5
1
330
0
100
AcDbSymbolTable
 70
     0
  0
BLOCK_RECORD
  5
2
330
1
100
AcDbSymbolTableRecord
100
AcDbBlockTableRecord
  2
*Model_Space
340
15
 70
     0
280
     1
281
     0
  0
BLOCK_RECORD
  5
17
330
1
100
AcDbSymbolTableRecord
100
AcDbBlockTableRecord
  2
*Paper_Space
340
1A
 70
     0
280
     1
281
     0
  0
ENDTAB
  0
ENDSEC
  0
SECTION
  2
BLOCKS
  0
BLOCK
  5
3
330
2
100
AcDbEntity
  8
0
100
AcDbBlockBegin
  2
*Model_Space
 70
     0
 10
0.0
 20
0.0
 30
0.0
  3
*Model_Space
  1

  0
ENDBLK
  5
14
330
2
100
AcDbEntity
  8
0
100
AcDbBlockEnd
  0
BLOCK
  5
18
330
17
100
AcDbEntity
 67
     1
  8
0
100
AcDbBlockBegin
  2
*Paper_Space
 70
     0
 10
0.0
 20
0.0
 30
0.0
  3
*Paper_Space
  1

  0
ENDBLK
  5
19
330
17
100
AcDbEntity
 67
     1
  8
0
100
AcDbBlockEnd
  0
ENDSEC
  0
SECTION
  2
ENTITIES
  0
LINE
  5
6A
330
2
100
AcDbEntity
  8
0
  6
Continuous
100
AcDbLine
 10
49.88033609392701
 20
28.70023234332519
 30
0.0
 11
50.00480925589688
 21
28.77208917021198
 31
0.0
  0
LINE
  5
6B
330
2
100
AcDbEntity
  8
0
  6
Continuous
100
AcDbLine
 10
49.95152629032919
 20
28.86438797208928
 30
0.0
 11
49.85981580197295
 21
28.8114446340885
 31
0.0
  0
LINE
  5
6C
330
2
100
AcDbEntity
  8
0
  6
Continuous
100
AcDbLine
 10
50.01584756816121
 20
28.79648648847762
 30
0.0
 11
50.01584639333858
 21
28.81540065557647
 31
0.0
  0
LINE
  5
6D
330
2
100
AcDbEntity
  8
0
  6
Continuous
100
AcDbLine
 10
49.99455256572122
 20
28.85228663522423
 30
0.0
 11
49.97817389896685
 21
28.86174628456377
 31
0.0
  0
LINE
  5
6E
330
2
100
AcDbEntity
  8
0
  6
Continuous
100
AcDbLine
 10
0.4161175252091028
 20
0.2501801602355727
 30
0.0
 11
0.416117555721872
 21
0.2312653149239168
 31
0.0
  0
LINE
  5
6F
330
2
100
AcDbEntity
  8
0
  6
Continuous
100
AcDbLine
 10
0.4374113680805394
 20
0.1943793440893842
 30
0.0
 11
0.4537912096621568
 21
0.1849203553409211
 31
0.0
  0
LINE
  5
70
330
2
100
AcDbEntity
  8
0
  6
Continuous
100
AcDbLine
 10
0.6401286716979229
 20
0.397524061087779
 30
0.0
 11
0.4271558527321347
 21
0.2745774696926446
 31
0.0
  0
LINE
  5
71
330
2
100
AcDbEntity
  8
0
  6
Continuous
100
AcDbLine
 10
0.4804388182951911
 20
0.1822786678153534
 30
0.0
 11
0.6934116372609794
 21
0.3052252592104878
 31
0.0
  0
LINE
  5
72
330
2
100
AcDbEntity
  8
0
  6
Continuous
100
AcDbLine
 10
0.000001415606711
 20
0.4903988771072818
 30
0.0
 11
0.0000014308654102
 21
0.471484040608857
 31
0.0
  0
LINE
  5
73
330
2
100
AcDbEntity
  8
0
  6
Continuous
100
AcDbLine
 10
0.0212952584827768
 20
0.4345980609610934
 30
0.0
 11
0.0376750848056986
 21
0.4251390810212002
 31
0.0
  0
LINE
  5
74
330
2
100
AcDbEntity
  8
0
  6
Continuous
100
AcDbLine
 10
0.2240125468414611
 20
0.6377427867681149
 30
0.0
 11
0.0110397278756729
 21
0.5147961953729805
 31
0.0
  0
LINE
  5
75
330
2
100
AcDbEntity
  8
0
  6
Continuous
100
AcDbLine
 10
0.0643226934387293
 20
0.4224973934956325
 30
0.0
 11
0.2772955124045211
 21
0.5454439848908237
 31
0.0
  0
LINE
  5
76
330
2
100
AcDbEntity
  8
0
  6
Continuous
100
AcDbLine
 10
49.12598826179409
 20
27.83088540861809
 30
0.0
 11
49.51158273735579
 21
28.0646132132963
 31
0.0
  0
LINE
  5
77
330
2
100
AcDbEntity
  8
0
  6
Continuous
100
AcDbLine
 10
48.8841897314554
 20
29.15140750079217
 30
0.0
 11
48.55528585820797
 21
28.97079653183391
 31
0.0
  0
LINE
  5
78
330
2
100
AcDbEntity
  8
0
  6
Continuous
100
AcDbLine
 10
49.24261139525972
 20
29.09158073252536
 30
0.0
 11
49.21466799633611
 21
29.10888466039228
 31
0.0
  0
LINE
  5
79
330
2
100
AcDbEntity
  8
0
  6
Continuous
100
AcDbLine
 10
49.36024889695905
 20
28.30419434900057
 30
0.0
 11
49.62644568106586
 21
28.46673848145304
 31
0.0
  0
LINE
  5
7A
330
2
100
AcDbEntity
  8
0
  6
Continuous
100
AcDbLine
 10
49.62501563410987
 20
28.5178639790804
 30
0.0
 11
49.86325409086744
 21
28.66140609718673
 31
0.0
  0
LINE
  5
7B
330
2
100
AcDbEntity
  8
0
  6
Continuous
100
AcDbLine
 10
49.23409867049021
 20
29.2630497459943
 30
0.0
 11
49.06701563849001
 21
29.17129953125277
 31
0.0
  0
SPLINE
  5
7C
330
2
100
AcDbEntity
  8
0
  6
Continuous
100
AcDbSpline
210
0.0
220
0.0
230
1.0
 70
     8
 71
     3
 72
    12
 73
     8
 74
     0
 42
0.000000001
 43
0.0000000001
 40
0.0
 40
0.0
 40
0.0
 40
0.0
 40
0.1658489038910723
 40
0.3504865878264137
 40
0.5379912660605379
 40
0.7834193992296097
 40
1.0
 40
1.0
 40
1.0
 40
1.0
 10
49.62654232153226
 20
28.46679362384055
 30
0.0
 10
49.62718724843887
 20
28.4672699016827
 30
0.0
 10
49.62855016507925
 20
28.46827641418804
 30
0.0
 10
49.62979823760074
 20
28.47023992184063
 30
0.0
 10
49.63057294322229
 20
28.47212548728237
 30
0.0
 10
49.63093715624729
 20
28.47363156027018
 30
0.0
 10
49.63101585604117
 20
28.47450216681341
 30
0.0
 10
49.63105274895549
 20
28.47491029002481
 30
0.0
  0
LINE
  5
7D
330
2
100
AcDbEntity
  8
0
  6
Continuous
100
AcDbLine
 10
49.56763322151779
 20
29.1988132171939
 30
0.0
 11
49.52392902391105
 21
29.22588084468328
 31
0.0
  0
LINE
  5
7E
330
2
100
AcDbEntity
  8
0
  6
Continuous
100
AcDbLine
 10
49.63072080864239
 20
28.32006995567838
 30
0.0
 11
49.5973837238888
 21
28.33797603713378
 31
0.0
  0
SPLINE
  5
7F
330
2
100
AcDbEntity
  8
0
  6
Continuous
100
AcDbSpline
210
0.0
220
0.0
230
1.0
 70
     8
 71
     3
 72
    11
 73
     7
 74
     0
 42
0.000000001
 43
0.0000000001
 40
0.0
 40
0.0
 40
0.0
 40
0.0
 40
0.1284236189304385
 40
0.5139175873694645
 40
0.8150651234521662
 40
1.0
 40
1.0
 40
1.0
 40
1.0
 10
49.6357053144533
 20
28.31294007956535
 30
0.0
 10
49.63566005788841
 20
28.31317394269365
 30
0.0
 10
49.63547895300425
 20
28.31410980149986
 30
0.0
 10
49.63475485243119
 20
28.3158418925492
 30
0.0
 10
49.63315819871362
 20
28.31843903304832
 30
0.0
 10
49.63138679310969
 20
28.31949767362323
 30
0.0
 10
49.63071284427273
 20
28.3199004439332
 30
0.0
  0
LINE
  5
80
330
2
100
AcDbEntity
  8
0
  6
Continuous
100
AcDbLine
 10
49.62023661516107
 20
28.21298885004069
 30
0.0
 11
49.78324539870576
 21
28.31179661007059
 31
0.0
  0
SPLINE
  5
81
330
2
100
AcDbEntity
  8
0
  6
Continuous
100
AcDbSpline
210
0.0
220
0.0
230
1.0
 70
     8
 71
     3
 72
    10
 73
     6
 74
     0
 42
0.000000001
 43
0.0000000001
 40
0.0
 40
0.0
 40
0.0
 40
0.0
 40
0.1227015566107354
 40
0.91842880879054
 40
1.0
 40
1.0
 40
1.0
 40
1.0
 10
49.88119806156445
 20
28.6923707751912
 30
0.0
 10
49.88118922879857
 20
28.69296433776128
 30
0.0
 10
49.88112311499475
 20
28.697407190641
 30
0.0
 10
49.88177221554241
 20
28.70073375385459
 30
0.0
 10
49.88144839583656
 20
28.69935868077482
 30
0.0
 10
49.88141828708699
 20
28.69923082650814
 30
0.0
  0
SPLINE
  5
82
330
2
100
AcDbEntity
  8
0
  6
Continuous
100
AcDbSpline
210
0.0
220
0.0
230
1.0
 70
     8
 71
     3
 72
    12
 73
     8
 74
     0
 42
0.000000001
 43
0.0000000001
 40
0.0
 40
0.0
 40
0.0
 40
0.0
 40
0.1509537603361099
 40
0.4294395282546298
 40
0.7107803301868695
 40
0.9515471234477155
 40
1.0
 40
1.0
 40
1.0
 40
1.0
 10
49.88926975264774
 20
28.55585577962859
 30
0.0
 10
49.88566786845169
 20
28.56065977100513
 30
0.0
 10
49.87542107866296
 20
28.57432636523811
 30
0.0
 10
49.86181651371854
 20
28.60085595217913
 30
0.0
 10
49.85334894725603
 20
28.62944254746458
 30
0.0
 10
49.85155037894468
 20
28.64904259228251
 30
0.0
 10
49.85263037467897
 20
28.65424291219438
 30
0.0
 10
49.85281130601055
 20
28.65511412008596
 30
0.0
  0
SPLINE
  5
83
330
2
100
AcDbEntity
  8
0
  6
Continuous
100
AcDbSpline
210
0.0
220
0.0
230
1.0
 70
     8
 71
     3
 72
     9
 73
     5
 74
     0
 42
0.000000001
 43
0.0000000001
 40
0.0
 40
0.0
 40
0.0
 40
0.0
 40
0.6948627611539307
 40
1.0
 40
1.0
 40
1.0
 40
1.0
 10
49.88685822672339
 20
28.47221929574573
 30
0.0
 10
49.88688151905073
 20
28.47231980165645
 30
0.0
 10
49.88691503981004
 20
28.47246444303948
 30
0.0
 10
49.88694041194261
 20
28.4726078609001
 30
0.0
 10
49.88694815392513
 20
28.47265162303006
 30
0.0
  0
SPLINE
  5
84
330
2
100
AcDbEntity
  8
0
  6
Continuous
100
AcDbSpline
210
0.0
220
0.0
230
1.0
 70
     8
 71
     3
 72
    10
 73
     6
 74
     0
 42
0.000000001
 43
0.0000000001
 40
0.0
 40
0.0
 40
0.0
 40
0.0
 40
0.186983900548903
 40
0.6834212849792886
 40
1.0
 40
1.0
 40
1.0
 40
1.0
 10
49.88846492402682
 20
28.54737594289702
 30
0.0
 10
49.88876691472103
 20
28.54802839943398
 30
0.0
 10
49.88987068284053
 20
28.55041311107778
 30
0.0
 10
49.88940848681689
 20
28.55512447115586
 30
0.0
 10
49.88733797933726
 20
28.55776447281755
 30
0.0
 10
49.88653174856547
 20
28.55879245779147
 30
0.0
  0
LINE
  5
85
330
2
100
AcDbEntity
  8
0
  6
Continuous
100
AcDbLine
 10
0.504953623455954
 20
1.140173585921274
 30
0.0
 11
0.2326027306444374
 21
0.9750882622686276
 31
0.0
  0
LINE
  5
86
330
2
100
AcDbEntity
  8
0
  6
Continuous
100
AcDbLine
 10
0.8251490297912305
 20
1.41677505232667
 30
0.0
 11
0.5042670092822626
 21
1.2222725926826
 31
0.0
  0
LINE
  5
87
330
2
100
AcDbEntity
  8
0
  6
Continuous
100
AcDbLine
 10
1.131660015187289
 20
0.135478305186723
 30
0.0
 11
1.526890829702665
 21
0.3525113234273931
 31
0.0
  0
SPLINE
  5
88
330
2
100
AcDbEntity
  8
0
  6
Continuous
100
AcDbSpline
210
0.0
220
0.0
230
1.0
 70
     8
 71
     3
 72
    10
 73
     6
 74
     0
 42
0.000000001
 43
0.0000000001
 40
0.0
 40
0.0
 40
0.0
 40
0.0
 40
0.1630377077091857
 40
0.978525854482198
 40
1.0
 40
1.0
 40
1.0
 40
1.0
 10
0.8260301683709521
 20
0.3646543175578927
 30
0.0
 10
0.8285104313102564
 20
0.3661861455839812
 30
0.0
 10
0.8433965668314549
 20
0.3753799287227935
 30
0.0
 10
0.8619560837133342
 20
0.381086997156217
 30
0.0
 10
0.8775466535744129
 20
0.3835886516037021
 30
0.0
 10
0.877946664625071
 20
0.3836528371615486
 30
0.0
  0
SPLINE
  5
89
330
2
100
AcDbEntity
  8
0
  6
Continuous
100
AcDbSpline
210
0.0
220
0.0
230
1.0
 70
     8
 71
     3
 72
     9
 73
     5
 74
     0
 42
0.000000001
 43
0.0000000001
 40
0.0
 40
0.0
 40
0.0
 40
0.0
 40
0.1361046342726769
 40
1.0
 40
1.0
 40
1.0
 40
1.0
 10
0.8777323284645639
 20
0.3837964720665354
 30
0.0
 10
0.8778986814745479
 20
0.3837872496843602
 30
0.0
 10
0.8791209250143623
 20
0.3837194901828411
 30
0.0
 10
0.880203744421216
 20
0.3845446492582027
 30
0.0
 10
0.8811391870887241
 20
0.3852575003593301
 30
0.0
  0
SPLINE
  5
8A
330
2
100
AcDbEntity
  8
0
  6
Continuous
100
AcDbSpline
210
0.0
220
0.0
230
1.0
 70
     8
 71
     3
 72
     9
 73
     5
 74
     0
 42
0.000000001
 43
0.0000000001
 40
0.0
 40
0.0
 40
0.0
 40
0.0
 40
0.3345023228963226
 40
1.0
 40
1.0
 40
1.0
 40
1.0
 10
0.8812491015036059
 20
0.3849186940153686
 30
0.0
 10
0.9135136721930336
 20
0.4028122102409953
 30
0.0
 10
1.009969118032859
 20
0.4563051608151341
 30
0.0
 10
1.106479358365596
 20
0.5094782711162793
 30
0.0
 10
1.170706699123748
 20
0.5448648525060662
 30
0.0
  0
LINE
  5
8B
330
2
100
AcDbEntity
  8
0
  6
Continuous
100
AcDbLine
 10
0.4482150909229077
 20
0.0880717608395685
 30
0.0
 11
0.4919207532397749
 21
0.0610049789128766
 31
0.0
  0
LINE
  5
8C
330
2
100
AcDbEntity
  8
0
  6
Continuous
100
AcDbLine
 10
0.7817494588646241
 20
0.0238351263495815
 30
0.0
 11
1.060907386175504
 21
0.1771290871183737
 31
0.0
  0
LINE
  5
8D
330
2
100
AcDbEntity
  8
0
  6
Continuous
100
AcDbLine
 10
1.228454823363279
 20
0.5271626249880228
 30
0.0
 11
1.506215903851224
 21
0.678670294560277
 31
0.0
  0
LINE
  5
8E
330
2
100
AcDbEntity
  8
0
  6
Continuous
100
AcDbLine
 10
1.169513935477503
 20
0.5455055146011319
 30
0.0
 11
1.202851020235712
 21
0.5275994375477353
 31
0.0
  0
SPLINE
  5
8F
330
2
100
AcDbEntity
  8
0
  6
Continuous
100
AcDbSpline
210
0.0
220
0.0
230
1.0
 70
     8
 71
     3
 72
    13
 73
     9
 74
     0
 42
0.000000001
 43
0.0000000001
 40
0.0
 40
0.0
 40
0.0
 40
0.0
 40
0.105121986867702
 40
0.2993248953660221
 40
0.4938127414579804
 40
0.6584452576185114
 40
0.8306473079545691
 40
1.0
 40
1.0
 40
1.0
 40
1.0
 10
0.1310080313762789
 20
0.7555057269316308
 30
0.0
 10
0.1344571792139391
 20
0.7504843811419733
 30
0.0
 10
0.1442783008115498
 20
0.7361865748707146
 30
0.0
 10
0.156616065576717
 20
0.7095750299220072
 30
0.0
 10
0.1636407004410572
 20
0.6809728141819278
 30
0.0
 10
0.1639280948431043
 20
0.6589569180852095
 30
0.0
 10
0.1598087984389238
 20
0.6470672042047454
 30
0.0
 10
0.1591385469318816
 20
0.6467285584222964
 30
0.0
 10
0.1588062169039794
 20
0.6465606480765019
 30
0.0
  0
SPLINE
  5
90
330
2
100
AcDbEntity
  8
0
  6
Continuous
100
AcDbSpline
210
0.0
220
0.0
230
1.0
 70
     8
 71
     3
 72
    10
 73
     6
 74
     0
 42
0.000000001
 43
0.0000000001
 40
0.0
 40
0.0
 40
0.0
 40
0.0
 40
0.3231790834061907
 40
0.9558886607215445
 40
1.0
 40
1.0
 40
1.0
 40
1.0
 10
0.131640786875181
 20
0.7600049106413281
 30
0.0
 10
0.1314884773751501
 20
0.7591578550784562
 30
0.0
 10
0.13103798125249
 20
0.7566524614774722
 30
0.0
 10
0.1320968377319005
 20
0.7535291149328601
 30
0.0
 10
0.1333638919874716
 20
0.7522830797626625
 30
0.0
 10
0.1334464713800081
 20
0.7522018702746323
 30
0.0
  0
SPLINE
  5
91
330
2
100
AcDbEntity
  8
0
  6
Continuous
100
AcDbSpline
210
0.0
220
0.0
230
1.0
 70
     8
 71
     3
 72
     9
 73
     5
 74
     0
 42
0.000000001
 43
0.0000000001
 40
0.0
 40
0.0
 40
0.0
 40
0.0
 40
0.7042991539917118
 40
1.0
 40
1.0
 40
1.0
 40
1.0
 10
0.1363945090318772
 20
0.8405526985637834
 30
0.0
 10
0.1355637086229962
 20
0.8387545386392503
 30
0.0
 10
0.1343840956642559
 20
0.8362014191099547
 30
0.0
 10
0.134923295658492
 20
0.8333805636200963
 30
0.0
 10
0.1350827375529562
 20
0.8325464342652821
 30
0.0
  0
LINE
  5
92
330
2
100
AcDbEntity
  8
0
  6
Continuous
100
AcDbLine
 10
0.1358649852023603
 20
0.8411903940594243
 30
0.0
 11
0.1357410034482314
 21
0.8407854969734671
 31
0.0
  0
SPLINE
  5
93
330
2
100
AcDbEntity
  8
0
  6
Continuous
100
AcDbSpline
210
0.0
220
0.0
230
1.0
 70
     8
 71
     3
 72
    10
 73
     6
 74
     0
 42
0.000000001
 43
0.0000000001
 40
0.0
 40
0.0
 40
0.0
 40
0.0
 40
0.0781661986512032
 40
0.6810956760662795
 40
1.0
 40
1.0
 40
1.0
 40
1.0
 10
0.1317960768411304
 20
0.6221101816697683
 30
0.0
 10
0.1313876927642035
 20
0.621536364624717
 30
0.0
 10
0.1278292668234613
 20
0.616536450147919
 30
0.0
 10
0.1258886103693548
 20
0.6069156973626946
 30
0.0
 10
0.1269589465345327
 20
0.5986029922185594
 30
0.0
 10
0.1273292245940283
 20
0.5957272486624561
 30
0.0
  0
SPLINE
  5
94
330
2
100
AcDbEntity
  8
0
  6
Continuous
100
AcDbSpline
210
0.0
220
0.0
230
1.0
 70
     8
 71
     3
 72
     9
 73
     5
 74
     0
 42
0.000000001
 43
0.0000000001
 40
0.0
 40
0.0
 40
0.0
 40
0.0
 40
0.7606012981373996
 40
1.0
 40
1.0
 40
1.0
 40
1.0
 10
0.1282683184635651
 20
0.625620059614505
 30
0.0
 10
0.1283135513972766
 20
0.6237827091552504
 30
0.0
 10
0.1283730213637639
 20
0.6213670539837608
 30
0.0
 10
0.1283207217943882
 20
0.6202793186146778
 30
0.0
 10
0.1283082013453729
 20
0.6200189161793333
 30
0.0
  0
SPLINE
  5
95
330
2
100
AcDbEntity
  8
0
  6
Continuous
100
AcDbSpline
210
0.0
220
0.0
230
1.0
 70
     8
 71
     3
 72
    10
 73
     6
 74
     0
 42
0.000000001
 43
0.0000000001
 40
0.0
 40
0.0
 40
0.0
 40
0.0
 40
0.4112193203581058
 40
0.7777689287539315
 40
1.0
 40
1.0
 40
1.0
 40
1.0
 10
0.1281071696504092
 20
0.6128429165716512
 30
0.0
 10
0.1280890546891626
 20
0.6126741277833503
 30
0.0
 10
0.1280547925489728
 20
0.6123548853048533
 30
0.0
 10
0.1286849760526323
 20
0.61595511576121
 30
0.0
 10
0.1304640086452089
 20
0.6198420841172947
 30
0.0
 10
0.1311354918179752
 20
0.6213091926206289
 30
0.0
  0
LINE
  5
96
330
2
100
AcDbEntity
  8
0
  6
Continuous
100
AcDbLine
 10
0.1630770113746109
 20
0.6667678171769467
 30
0.0
 11
0.1456440420093799
 21
0.6562420210694313
 31
0.0
  0
LINE
  5
97
330
2
100
AcDbEntity
  8
0
  6
Continuous
100
AcDbLine
 10
1.60439742029872
 20
0.4239506866899774
 30
0.0
 11
49.09411540060297
 21
27.83918132713052
 31
0.0
  0
LINE
  5
98
330
2
100
AcDbEntity
  8
0
  6
Continuous
100
AcDbLine
 10
1.389704594833993
 20
0.6078719814632337
 30
0.0
 11
1.396302862131562
 21
0.5928362293753367
 31
0.0
  0
SPLINE
  5
99
330
2
100
AcDbEntity
  8
0
  6
Continuous
100
AcDbSpline
210
0.0
220
0.0
230
1.0
 70
     8
 71
     3
 72
    11
 73
     7
 74
     0
 42
0.000000001
 43
0.0000000001
 40
0.0
 40
0.0
 40
0.0
 40
0.0
 40
0.1322586708222619
 40
0.4604518237162317
 40
0.8085328740947641
 40
1.0
 40
1.0
 40
1.0
 40
1.0
 10
1.43107301481276
 20
0.5559716319314135
 30
0.0
 10
1.43300892941702
 20
0.5546259430633427
 30
0.0
 10
1.43974871747438
 20
0.5499409958337651
 30
0.0
 10
1.452475311659526
 20
0.5461139348619213
 30
0.0
 10
1.466770122039026
 20
0.544646113694455
 30
0.0
 10
1.474492621621429
 20
0.5483454657692164
 30
0.0
 10
1.477233071621704
 20
0.549658238827476
 30
0.0
  0
SPLINE
  5
9A
330
2
100
AcDbEntity
  8
0
  6
Continuous
100
AcDbSpline
210
0.0
220
0.0
230
1.0
 70
     8
 71
     3
 72
     9
 73
     5
 74
     0
 42
0.000000001
 43
0.0000000001
 40
0.0
 40
0.0
 40
0.0
 40
0.0
 40
0.4700678244844437
 40
1.0
 40
1.0
 40
1.0
 40
1.0
 10
1.415674911577838
 20
0.567815392575028
 30
0.0
 10
1.417955781836845
 20
0.5655968681124364
 30
0.0
 10
1.422807997070894
 20
0.5608772843692691
 30
0.0
 10
1.428210208929783
 20
0.557670833445286
 30
0.0
 10
1.43107301481276
 20
0.5559716319314135
 30
0.0
  0
LINE
  5
9B
330
2
100
AcDbEntity
  8
0
  6
Continuous
100
AcDbLine
 10
1.478367521428804
 20
0.5491358592928464
 30
0.0
 11
1.496001110535665
 21
0.5569387978818554
 31
0.0
  0
LINE
  5
9C
330
2
100
AcDbEntity
  8
0
  6
Continuous
100
AcDbLine
 10
1.446346281879169
 20
0.6059258190718993
 30
0.0
 11
1.441450162275497
 21
0.6030993493856727
 31
0.0
  0
LINE
  5
9D
330
2
100
AcDbEntity
  8
0
  6
Continuous
100
AcDbLine
 10
1.438073330240634
 20
0.5879247238954691
 30
0.0
 11
1.424601933323792
 21
0.5801478519902048
 31
0.0
  0
LINE
  5
9E
330
2
100
AcDbEntity
  8
0
  6
Continuous
100
AcDbLine
 10
1.396480153289783
 20
0.6087384277093407
 30
0.0
 11
1.421734256477225
 21
0.6233173111565407
 31
0.0
  0
SPLINE
  5
9F
330
2
100
AcDbEntity
  8
0
  6
Continuous
100
AcDbSpline
210
0.0
220
0.0
230
1.0
 70
     8
 71
     3
 72
    12
 73
     8
 74
     0
 42
0.000000001
 43
0.0000000001
 40
0.0
 40
0.0
 40
0.0
 40
0.0
 40
0.2630101910622419
 40
0.5464747385362037
 40
0.7463173099687351
 40
0.948556508839848
 40
1.0
 40
1.0
 40
1.0
 40
1.0
 10
49.36982939377275
 20
28.19660615696534
 30
0.0
 10
49.37432910532331
 20
28.20085791256781
 30
0.0
 10
49.38367847191305
 20
28.2096920836766
 30
0.0
 10
49.38833975701373
 20
28.22772358925636
 30
0.0
 10
49.3880828070665
 20
28.24519682407242
 30
0.0
 10
49.3866613181158
 20
28.257512720151
 30
0.0
 10
49.38368661766094
 20
28.26422104962376
 30
0.0
 10
49.38308338778927
 20
28.26558141003261
 30
0.0
  0
LINE
  5
A0
330
2
100
AcDbEntity
  8
0
  6
Continuous
100
AcDbLine
 10
49.38096169171196
 20
28.27145634974784
 30
0.0
 11
49.37314254135861
 21
28.2892762318213
 31
0.0
  0
LINE
  5
A1
330
2
100
AcDbEntity
  8
0
  6
Continuous
100
AcDbLine
 10
48.55284699099461
 20
28.96596194333529
 30
0.0
 11
48.48731773787831
 21
28.92813271072782
 31
0.0
  0
LINE
  5
A2
330
2
100
AcDbEntity
  8
0
  6
Continuous
100
AcDbLine
 10
49.24055145833673
 20
28.02435389852042
 30
0.0
 11
49.30608071145302
 21
28.06218313112788
 31
0.0
  0
LINE
  5
A3
330
2
100
AcDbEntity
  8
0
  6
Continuous
100
AcDbLine
 10
0.8960854114763527
 20
1.454299085689001
 30
0.0
 11
0.8614786428172784
 21
1.434321023390964
 31
0.0
  0
LINE
  5
A4
330
2
100
AcDbEntity
  8
0
  6
Continuous
100
AcDbLine
 10
1.587904506020834
 20
0.5150663645948157
 30
0.0
 11
1.649319131934767
 21
0.5505202734815953
 31
0.0
  0
LINE
  5
A5
330
2
100
AcDbEntity
  8
0
  6
Continuous
100
AcDbLine
 10
48.49658432864636
 20
28.91208077812405
 30
0.0
 11
0.9813561418179155
 21
1.482123408931443
 31
0.0
  0
LINE
  5
A6
330
2
100
AcDbEntity
  8
0
  6
Continuous
100
AcDbLine
 10
1.658106561689457
 20
0.6076959895928554
 30
0.0
 11
49.23311011208159
 21
28.07216094166211
 31
0.0
  0
LWPOLYLINE
  5
A7
330
2
100
AcDbEntity
  8
0
  6
Continuous
100
AcDbPolyline
 90
       10
 70
   128
 43
0.0
 10
50.00480925589688
 20
28.77208917021198
 10
50.00481140719289
 20
28.77209043015057
 10
50.01297937256053
 20
28.78149122851346
 10
50.01584756816121
 20
28.79648648847762
 10
50.01297937256053
 20
28.81479329659328
 10
50.00481140719289
 20
28.83362462703485
 10
49.99258721237492
 20
28.850113556211
 10
49.97816776548368
 20
28.86174982534669
 10
49.96374833385112
 20
28.86676188641207
 10
49.95152629032919
 20
28.86438797208928
  0
ARC
  5
A8
330
2
100
AcDbEntity
  8
0
  6
Continuous
100
AcDbCircle
 10
49.9696063641953
 20
28.81329617263191
 30
0.0
 40
0.0462878941391889
100
AcDbArc
 50
2.605855642891422
 51
57.38877905479461
  0
LWPOLYLINE
  5
A9
330
2
100
AcDbEntity
  8
0
  6
Continuous
100
AcDbPolyline
 90
       17
 70
   128
 43
0.0
 10
0.4587121225686204
 20
0.2066759948850176
 10
0.4570909612350143
 20
0.2170233257576797
 10
0.4524742811739025
 20
0.2276671240020391
 10
0.4455649457124693
 20
0.23698695808406
 10
0.4374148315182112
 20
0.2435639739276212
 10
0.4292647173193203
 20
0.2463968796390645
 10
0.4223553818578907
 20
0.2450543944820538
 10
0.4177387170554781
 20
0.2397408927652691
 10
0.416117555721872
 20
0.2312653149239168
 10
0.4177387170554781
 20
0.2209179840512547
 10
0.4223553818578907
 20
0.210274194615522
 10
0.4292647173193203
 20
0.2009543605335011
 10
0.4374148315182112
 20
0.1943773446899399
 10
0.4455649457124693
 20
0.1915444389831577
 10
0.4524742811739025
 20
0.1928869241355073
 10
0.4570909612350143
 20
0.1982004170436653
 10
0.4587121225686204
 20
0.2066759948850176
  0
LWPOLYLINE
  5
AA
330
2
100
AcDbEntity
  8
0
  6
Continuous
100
AcDbPolyline
 90
        6
 70
   128
 43
0.0
 10
0.4914771305595238
 20
0.2066759860763909
 10
0.488608934958851
 20
0.1916807261121676
 10
0.4804409695912178
 20
0.1822799277539957
 10
0.4682167747732429
 20
0.1799047534925648
 10
0.4537973278866297
 20
0.1849168233665068
 10
0.4537912096621568
 20
0.1849203553409211
  0
LWPOLYLINE
  5
AB
330
2
100
AcDbEntity
  8
0
  6
Continuous
100
AcDbPolyline
 90
        9
 70
   128
 43
0.0
 10
0.4161175252091028
 20
0.2501801602355727
 10
0.4189857360638421
 20
0.2651754113911693
 10
0.4271536861774088
 20
0.2745762185580247
 10
0.4393778962540829
 20
0.2769513840108289
 10
0.4537973278866297
 20
0.2719393229454567
 10
0.4682167747732429
 20
0.2603030538097641
 10
0.4804409695912178
 20
0.2438141246336158
 10
0.488608934958851
 20
0.2249827941920444
 10
0.4914771305595238
 20
0.2066759860763909
  0
LWPOLYLINE
  5
AC
330
2
100
AcDbEntity
  8
0
  6
Continuous
100
AcDbPolyline
 90
        7
 70
   128
 43
0.0
 10
0.7044499495299448
 20
0.3296225774761865
 10
0.701581753929272
 20
0.3479293855918399
 10
0.693413788557006
 20
0.3667607160334114
 10
0.6811895937436674
 20
0.3832496452095597
 10
0.6667701468524179
 20
0.3948859143452523
 10
0.6523507152198711
 20
0.3998979754105676
 10
0.6401286716979229
 20
0.397524061087779
  0
ARC
  5
AD
330
2
100
AcDbEntity
  8
0
  6
Continuous
100
AcDbCircle
 10
0.6798214279253543
 20
0.3260697515042921
 30
0.0
 40
0.0248834613507012
100
AcDbArc
 50
303.1035795856134
 51
8.208664373198567
  0
LWPOLYLINE
  5
AE
330
2
100
AcDbEntity
  8
0
  6
Continuous
100
AcDbPolyline
 90
       10
 70
   128
 43
0.0
 10
0.7323002391277207
 20
0.3135449475112182
 10
0.7273120715374298
 20
0.3453828762966964
 10
0.7131069302928097
 20
0.3781330072957871
 10
0.6918474318596424
 20
0.4068094273088719
 10
0.6667701468524179
 20
0.4270464052337957
 10
0.6416928618451934
 20
0.4357630442804635
 10
0.6204333786660961
 20
0.4316323098819339
 10
0.6062282374214725
 20
0.4152830858670882
 10
0.6012400545771186
 20
0.3892043815956754
 10
0.6022150033696079
 20
0.3756369613722086
  0
LWPOLYLINE
  5
AF
330
2
100
AcDbEntity
  8
0
  6
Continuous
100
AcDbPolyline
 90
        6
 70
   128
 43
0.0
 10
0.6554979536785979
 20
0.2833381716073404
 10
0.6667701468524179
 20
0.2757029238730979
 10
0.6918474318596424
 20
0.266986284826487
 10
0.7131069302928097
 20
0.2711170104163898
 10
0.7273120715374298
 20
0.2874662344358398
 10
0.7323002391277207
 20
0.3135449475112182
  0
LWPOLYLINE
  5
B0
330
2
100
AcDbEntity
  8
0
  6
Continuous
100
AcDbPolyline
 90
       17
 70
   128
 43
0.0
 10
0.0425959977121622
 20
0.4468947205653535
 10
0.0409748363785525
 20
0.4572420514380156
 10
0.0363581715761399
 20
0.4678858408737483
 10
0.029448836110074
 20
0.4772056749557692
 10
0.0212987219158194
 20
0.4837826908039347
 10
0.0131486077215612
 20
0.4866155965107737
 10
0.0062392722554954
 20
0.485273111353763
 10
0.0016225921990163
 20
0.4799596184502093
 10
0.0000014308654102
 20
0.471484040608857
 10
0.0016225921990163
 20
0.4611367097315338
 10
0.0062392722554954
 20
0.4504929114871743
 10
0.0131486077215612
 20
0.4411730774052103
 10
0.0212987219158194
 20
0.4345960615616491
 10
0.029448836110074
 20
0.4317631558548101
 10
0.0363581715761399
 20
0.4331056410118208
 10
0.0409748363785525
 20
0.4384191427240012
 10
0.0425959977121622
 20
0.4468947205653535
  0
LWPOLYLINE
  5
B1
330
2
100
AcDbEntity
  8
0
  6
Continuous
100
AcDbPolyline
 90
        6
 70
   128
 43
0.0
 10
0.0753610209617612
 20
0.4468947029481001
 10
0.0724928101023892
 20
0.4318994517924466
 10
0.0643248599888224
 20
0.4224986446256481
 10
0.0521006499167811
 20
0.4201234791728439
 10
0.0376812182842343
 20
0.425135540238216
 10
0.0376750848056986
 20
0.4251390810212002
  0
LWPOLYLINE
  5
B2
330
2
100
AcDbEntity
  8
0
  6
Continuous
100
AcDbPolyline
 90
        9
 70
   128
 43
0.0
 10
0.000001415606711
 20
0.4903988771072818
 10
0.0028696112073803
 20
0.5053941370715052
 10
0.0110375765796462
 20
0.5147949354343382
 10
0.0232617713976211
 20
0.5171701096911079
 10
0.0376812182842343
 20
0.5121580398171659
 10
0.0521006499167811
 20
0.5005217794901001
 10
0.0643248599888224
 20
0.4840328415099294
 10
0.0724928101023892
 20
0.4652015198723803
 10
0.0753610209617612
 20
0.4468947029481001
  0
LWPOLYLINE
  5
B3
330
2
100
AcDbEntity
  8
0
  6
Continuous
100
AcDbPolyline
 90
        7
 70
   128
 43
0.0
 10
0.2883338399275494
 20
0.5698412943478957
 10
0.2854656290728137
 20
0.5881481112721758
 10
0.2772976789592434
 20
0.6069794329051206
 10
0.2650734688825693
 20
0.6234683708898956
 10
0.2506540372546588
 20
0.6351046312169615
 10
0.2362345903634093
 20
0.6401167010909035
 10
0.2240125468414611
 20
0.6377427867681149
  0
LWPOLYLINE
  5
B4
330
2
100
AcDbEntity
  8
0
  6
Continuous
100
AcDbPolyline
 90
        4
 70
   128
 43
0.0
 10
0.2772955124045211
 20
0.5454439848908237
 10
0.2772976789592434
 20
0.5454452360254436
 10
0.2854656290728137
 20
0.5548460431922422
 10
0.2883338399275494
 20
0.5698412943478957
  0
LWPOLYLINE
  5
B5
330
2
100
AcDbEntity
  8
0
  6
Continuous
100
AcDbPolyline
 90
       10
 70
   128
 43
0.0
 10
0.3161841295299581
 20
0.5537636643829274
 10
0.3111959466809679
 20
0.5856016019816935
 10
0.2969908054363479
 20
0.618351732976123
 10
0.2757313222618833
 20
0.647028144180581
 10
0.2506540372546588
 20
0.6672651221055049
 10
0.2255767522474308
 20
0.6759817611521158
 10
0.2043172538096343
 20
0.6718510355622698
 10
0.1901121125650107
 20
0.6555018115473672
 10
0.1851239449747233
 20
0.6294230984720457
 10
0.1860988937718488
 20
0.6158556782485221
  0
LWPOLYLINE
  5
B6
330
2
100
AcDbEntity
  8
0
  6
Continuous
100
AcDbPolyline
 90
        6
 70
   128
 43
0.0
 10
0.2393818440762025
 20
0.5235568884836539
 10
0.2506540372546588
 20
0.5159216407494114
 10
0.2757313222618833
 20
0.5072050016981962
 10
0.2969908054363479
 20
0.5113357360966689
 10
0.3111959466809679
 20
0.5276849601161758
 10
0.3161841295299581
 20
0.5537636643829274
  0
ARC
  5
B7
330
2
100
AcDbEntity
  8
0
  6
Continuous
100
AcDbCircle
 10
49.00024137110279
 20
28.04294220098757
 30
0.0
 40
0.2447431443584626
100
AcDbArc
 50
275.8916640475997
 51
352.8434639108834
  0
LINE
  5
B8
330
2
100
AcDbEntity
  8
0
  6
Continuous
100
AcDbLine
 10
49.30756321340466
 20
28.05154418345433
 30
0.0
 11
49.24307784207807
 21
28.0124519554372
 31
0.0
  0
LWPOLYLINE
  5
B9
330
2
100
AcDbEntity
  8
0
  6
Continuous
100
AcDbPolyline
 90
       18
 70
   128
 43
0.0
 10
49.30756321340466
 20
28.05154418345433
 10
49.3176982256953
 20
28.12928966444724
 10
49.31596226757594
 20
28.21467958240112
 10
49.30240129437805
 20
28.30545445577104
 10
49.27737409946256
 20
28.39921235874511
 10
49.24154294617022
 20
28.49347236753158
 10
49.19585593024228
 20
28.58574032706702
 10
49.141521988187
 20
28.67357478669146
 10
49.07997879566643
 20
28.75465158726547
 10
49.0128548223153
 20
28.82682537329106
 10
48.94192621428694
 20
28.88818637396946
 10
48.86906978614552
 20
28.93711100845507
 10
48.7962133580041
 20
28.97230461539277
 10
48.72528474997112
 20
28.99283604242157
 10
48.65816077662
 20
28.99816194639425
 10
48.59661758410404
 20
28.988141403432
 10
48.54228364204877
 20
28.9630395780049
 10
48.52192365974671
 20
28.94811029509447
  0
LWPOLYLINE
  5
BA
330
2
100
AcDbEntity
  8
0
  6
Continuous
100
AcDbPolyline
 90
        4
 70
   128
 43
0.0
 10
49.62956963671265
 20
28.25659660953852
 10
49.56801365847624
 20
28.22038206164848
 10
49.37528230220973
 20
28.1070054283698
 10
49.36896823477535
 20
28.10329139736189
  0
ARC
  5
BB
330
2
100
AcDbEntity
  8
0
  6
Continuous
100
AcDbCircle
 10
49.36114994185159
 20
28.28931163187156
 30
0.0
 40
0.2704060008094091
100
AcDbArc
 50
303.8018162337958
 51
353.051057052576
  0
LWPOLYLINE
  5
BC
330
2
100
AcDbEntity
  8
0
  6
Continuous
100
AcDbPolyline
 90
       14
 70
   128
 43
0.0
 10
49.62263630133133
 20
28.49078244087855
 10
49.5982202269026
 20
28.58375437816846
 10
49.56300092644977
 20
28.67731487629271
 10
49.51791975194314
 20
28.7689632782625
 10
49.46418155089755
 20
28.85625015175526
 10
49.40322256478233
 20
28.93684261624867
 10
49.33667207187848
 20
29.00858663910901
 10
49.26630873579777
 20
29.06956472396894
 10
49.1940131702196
 20
29.11814715023513
 10
49.12171760464143
 20
29.1530354072637
 10
49.05135426856535
 20
29.17329710100239
 10
48.98480377565686
 20
29.1783906417154
 10
48.92384478954164
 20
29.16817992447454
 10
48.8841897314554
 20
29.15140750079217
  0
LWPOLYLINE
  5
BD
330
2
100
AcDbEntity
  8
0
  6
Continuous
100
AcDbPolyline
 90
        4
 70
   128
 43
0.0
 10
49.36221463174041
 20
28.33140661702305
 10
49.36852433555722
 20
28.33526752590728
 10
49.43270284975977
 20
28.37454035496956
 10
49.62263630133133
 20
28.49078244087855
  0
ARC
  5
BE
330
2
100
AcDbEntity
  8
0
  6
Continuous
100
AcDbCircle
 10
48.75111396503566
 20
28.19915672304785
 30
0.0
 40
0.6252471985592916
100
AcDbArc
 50
351.1804003585067
 51
12.21121860376914
  0
LINE
  5
BF
330
2
100
AcDbEntity
  8
0
  6
Continuous
100
AcDbLine
 10
49.29760735367612
 20
28.05729157894018
 30
0.0
 11
49.30756321340466
 21
28.05154418345433
 31
0.0
  0
LWPOLYLINE
  5
C0
330
2
100
AcDbEntity
  8
0
  6
Continuous
100
AcDbPolyline
 90
       14
 70
   128
 43
0.0
 10
48.91464911523966
 20
29.1630485322039
 10
48.92965978694526
 20
29.16829893881982
 10
48.99034398702302
 20
29.17846362785065
 10
49.05659451915618
 20
29.17339303377628
 10
49.12664070698834
 20
29.1532226676402
 10
49.19861041233225
 20
29.11849165775493
 10
49.27058011768078
 20
29.07012821455953
 10
49.34062630550831
 20
29.00942497367191
 10
49.40687683764147
 20
28.93800433150932
 10
49.46756103771922
 20
28.85777515642963
 10
49.52105704256799
 20
28.77088166814201
 10
49.56593504933855
 20
28.67964633513316
 10
49.60099558113374
 20
28.58650756091492
 10
49.62530158857531
 20
28.49395468286537
  0
ARC
  5
C1
330
2
100
AcDbEntity
  8
0
  6
Continuous
100
AcDbCircle
 10
49.62093122178916
 20
28.49492082768893
 30
0.0
 40
0.0044758844575228
100
AcDbArc
 50
292.3924206269988
 51
347.5342703940889
  0
ARC
  5
C2
330
2
100
AcDbEntity
  8
0
  6
Continuous
100
AcDbCircle
 10
48.73013556382004
 20
28.33505455050613
 30
0.0
 40
0.9137632854807852
100
AcDbArc
 50
11.65721108061209
 51
55.88602784449809
  0
SPLINE
  5
C3
330
2
100
AcDbEntity
  8
0
  6
Continuous
100
AcDbSpline
210
0.0
220
0.0
230
1.0
 70
     8
 71
     3
 72
    10
 73
     6
 74
     0
 42
0.000000001
 43
0.0000000001
 40
0.0
 40
0.0
 40
0.0
 40
0.0
 40
0.4242426142368105
 40
0.740051040136725
 40
1.0
 40
1.0
 40
1.0
 40
1.0
 10
49.63102086095898
 20
28.47687700432345
 30
0.0
 10
49.63045515116428
 20
28.48249985037751
 30
0.0
 10
49.62946832403305
 20
28.49230837250889
 30
0.0
 10
49.62733129124719
 20
28.50769074504569
 30
0.0
 10
49.62576067038246
 20
28.51595474174678
 30
0.0
 10
49.62505155006509
 20
28.5196858573172
 30
0.0
  0
SPLINE
  5
C4
330
2
100
AcDbEntity
  8
0
  6
Continuous
100
AcDbSpline
210
0.0
220
0.0
230
1.0
 70
     8
 71
     3
 72
    11
 73
     7
 74
     0
 42
0.000000001
 43
0.0000000001
 40
0.0
 40
0.0
 40
0.0
 40
0.0
 40
0.1889658076974681
 40
0.3768247892306141
 40
0.6320518142505147
 40
1.0
 40
1.0
 40
1.0
 40
1.0
 10
49.62530158857582
 20
28.49395468286684
 30
0.0
 10
49.62590614426235
 20
28.49109233109084
 30
0.0
 10
49.62711171458177
 20
28.48538439314257
 30
0.0
 10
49.62873763103121
 20
28.47907693112279
 30
0.0
 10
49.63025280830865
 20
28.47479387338387
 30
0.0
 10
49.63073572635287
 20
28.4761036553615
 30
0.0
 10
49.63102086095898
 20
28.47687700432345
 30
0.0
  0
SPLINE
  5
C5
330
2
100
AcDbEntity
  8
0
  6
Continuous
100
AcDbSpline
210
0.0
220
0.0
230
1.0
 70
     8
 71
     3
 72
    11
 73
     7
 74
     0
 42
0.000000001
 43
0.0000000001
 40
0.0
 40
0.0
 40
0.0
 40
0.0
 40
0.0095273971913126
 40
0.2559043396024723
 40
0.7125594535824284
 40
1.0
 40
1.0
 40
1.0
 40
1.0
 10
49.36221463174231
 20
28.33140661702316
 30
0.0
 10
49.36225915931136
 20
28.33134020538683
 30
0.0
 10
49.36345516257696
 20
28.32955639963427
 30
0.0
 10
49.36631753379319
 20
28.324675999222
 30
0.0
 10
49.36881117252725
 20
28.31821893212418
 30
0.0
 10
49.36742363946952
 20
28.31354258669831
 30
0.0
 10
49.36688764217574
 20
28.31173613713009
 30
0.0
  0
ARC
  5
C6
330
2
100
AcDbEntity
  8
0
  6
Continuous
100
AcDbCircle
 10
48.69724529542558
 20
28.19842437247928
 30
0.0
 40
0.679161562935991
100
AcDbArc
 50
0.3820422832028792
 51
9.604178980312495
  0
SPLINE
  5
C7
330
2
100
AcDbEntity
  8
0
  6
Continuous
100
AcDbSpline
210
0.0
220
0.0
230
1.0
 70
     8
 71
     3
 72
    11
 73
     7
 74
     0
 42
0.000000001
 43
0.0000000001
 40
0.0
 40
0.0
 40
0.0
 40
0.0
 40
0.2874402982006994
 40
0.7440952988513337
 40
0.9904720554646635
 40
1.0
 40
1.0
 40
1.0
 40
1.0
 10
49.37217686907056
 20
28.13308391716783
 30
0.0
 10
49.37285273834615
 20
28.13016621930558
 30
0.0
 10
49.37460235784548
 20
28.12261318907156
 30
0.0
 10
49.37260506087819
 20
28.11229424292424
 30
0.0
 10
49.37008433717202
 20
28.10565487951226
 30
0.0
 10
49.3690082982805
 20
28.10337623668863
 30
0.0
 10
49.36896823477706
 20
28.10329139736234
 30
0.0
  0
SPLINE
  5
C8
330
2
100
AcDbEntity
  8
0
  6
Continuous
100
AcDbSpline
210
0.0
220
0.0
230
1.0
 70
     8
 71
     3
 72
    11
 73
     7
 74
     0
 42
0.000000001
 43
0.0000000001
 40
0.0
 40
0.0
 40
0.0
 40
0.0
 40
0.1175735248983412
 40
0.4160200479171358
 40
0.7068496703180993
 40
1.0
 40
1.0
 40
1.0
 40
1.0
 10
49.86285242417231
 20
28.66211823521553
 30
0.0
 10
49.86430398730739
 20
28.66280052601496
 30
0.0
 10
49.86944017222255
 20
28.66521473152022
 30
0.0
 10
49.87508140934048
 20
28.6731418955618
 30
0.0
 10
49.87921128198877
 20
28.6847666655101
 30
0.0
 10
49.87814143860157
 20
28.69364443511392
 30
0.0
 10
49.87760439115572
 20
28.69810095982325
 30
0.0
  0
LWPOLYLINE
  5
C9
330
2
100
AcDbEntity
  8
0
  6
Continuous
100
AcDbPolyline
 90
       13
 70
   128
 43
0.0
 10
49.87751583712203
 20
28.69849611250925
 10
49.85112795545429
 20
28.78984792228539
 10
49.81318038515294
 20
28.88105326668437
 10
49.76494147508684
 20
28.96906365713972
 10
49.7080236135783
 20
29.0509374243045
 10
49.6443292171452
 20
29.12393798127721
 10
49.5759872520141
 20
29.18562526309927
 10
49.5052820049041
 20
29.23393749286049
 10
49.43457675779409
 20
29.26725980377251
 10
49.36623479266299
 20
29.28447847532664
 10
49.30254039622526
 20
29.28501790313692
 10
49.24562253471673
 20
29.26886010006843
 10
49.23409867049021
 20
29.2630497459943
  0
LINE
  5
CA
330
2
100
AcDbEntity
  8
0
  6
Continuous
100
AcDbLine
 10
49.87760439115358
 20
28.69810095982484
 30
0.0
 11
49.87751583712203
 21
28.69849611250925
 31
0.0
  0
LINE
  5
CB
330
2
100
AcDbEntity
  8
0
  6
Continuous
100
AcDbLine
 10
49.21338648602969
 20
28.02959241043959
 30
0.0
 11
49.24307784207807
 21
28.0124519554372
 31
0.0
  0
SPLINE
  5
CC
330
2
100
AcDbEntity
  8
0
  6
Continuous
100
AcDbSpline
210
0.0
220
0.0
230
1.0
 70
     8
 71
     3
 72
    10
 73
     6
 74
     0
 42
0.000000001
 43
0.0000000001
 40
0.0
 40
0.0
 40
0.0
 40
0.0
 40
0.7444843696949689
 40
0.9107322247992886
 40
1.0
 40
1.0
 40
1.0
 40
1.0
 10
49.85163154168287
 20
28.5194913490908
 30
0.0
 10
49.85438691103794
 20
28.52893998132799
 30
0.0
 10
49.8577575710075
 20
28.54049855019639
 30
0.0
 10
49.86166593525989
 20
28.55459517085592
 30
0.0
 10
49.86267155382265
 20
28.55827293484333
 30
0.0
 10
49.8630228800084
 20
28.55955781048283
 30
0.0
  0
SPLINE
  5
CD
330
2
100
AcDbEntity
  8
0
  6
Continuous
100
AcDbSpline
210
0.0
220
0.0
230
1.0
 70
     8
 71
     3
 72
    10
 73
     6
 74
     0
 42
0.000000001
 43
0.0000000001
 40
0.0
 40
0.0
 40
0.0
 40
0.0
 40
0.0094824327898461
 40
0.9624627689913511
 40
1.0
 40
1.0
 40
1.0
 40
1.0
 10
49.59920368933273
 20
28.32257749510086
 30
0.0
 10
49.59930150333367
 20
28.32257950774681
 30
0.0
 10
49.60922958152313
 20
28.32278379042646
 30
0.0
 10
49.61974941925785
 20
28.32158754182024
 30
0.0
 10
49.62938380117988
 20
28.31879121817519
 30
0.0
 10
49.62974891133217
 20
28.31868524706465
 30
0.0
  0
SPLINE
  5
CE
330
2
100
AcDbEntity
  8
0
  6
Continuous
100
AcDbSpline
210
0.0
220
0.0
230
1.0
 70
     8
 71
     3
 72
    12
 73
     8
 74
     0
 42
0.000000001
 43
0.0000000001
 40
0.0
 40
0.0
 40
0.0
 40
0.0
 40
0.1853786183055093
 40
0.3667702948972698
 40
0.6070710643141187
 40
0.9249242583526687
 40
1.0
 40
1.0
 40
1.0
 40
1.0
 10
49.62956963671047
 20
28.25659660954079
 30
0.0
 10
49.63007593074132
 20
28.25989152191414
 30
0.0
 10
49.63107762992686
 20
28.26641048291321
 30
0.0
 10
49.63176779792204
 20
28.27982808776983
 30
0.0
 10
49.63165497406762
 20
28.29652640088148
 30
0.0
 10
49.63072401149269
 20
28.30999390561044
 30
0.0
 10
49.62990533363153
 20
28.31729101120073
 30
0.0
 10
49.62974891133217
 20
28.31868524706465
 30
0.0
  0
SPLINE
  5
CF
330
2
100
AcDbEntity
  8
0
  6
Continuous
100
AcDbSpline
210
0.0
220
0.0
230
1.0
 70
     8
 71
     3
 72
     9
 73
     5
 74
     0
 42
0.000000001
 43
0.0000000001
 40
0.0
 40
0.0
 40
0.0
 40
0.0
 40
0.3673634625026213
 40
1.0
 40
1.0
 40
1.0
 40
1.0
 10
49.5646254444134
 20
28.34115023536435
 30
0.0
 10
49.54297472080911
 20
28.32865887162882
 30
0.0
 10
49.48403929087604
 20
28.29465613316791
 30
0.0
 10
49.42508497255022
 20
28.26066334215818
 30
0.0
 10
49.38778831673404
 20
28.23915826055383
 30
0.0
  0
LINE
  5
D0
330
2
100
AcDbEntity
  8
0
  6
Continuous
100
AcDbLine
 10
49.59920368933162
 20
28.32257749510086
 30
0.0
 11
49.56462544441478
 21
28.34115023536651
 31
0.0
  0
SPLINE
  5
D1
330
2
100
AcDbEntity
  8
0
  6
Continuous
100
AcDbSpline
210
0.0
220
0.0
230
1.0
 70
     8
 71
     3
 72
    11
 73
     7
 74
     0
 42
0.000000001
 43
0.0000000001
 40
0.0
 40
0.0
 40
0.0
 40
0.0
 40
0.2435945501006605
 40
0.5317419237831871
 40
0.9618369770229261
 40
1.0
 40
1.0
 40
1.0
 40
1.0
 10
49.5646254444134
 20
28.34115023536435
 30
0.0
 10
49.56706641118533
 20
28.34211679774808
 30
0.0
 10
49.57239479134277
 20
28.34422670431673
 30
0.0
 10
49.58369854387735
 20
28.34317683811355
 30
0.0
 10
49.59278788955987
 20
28.34118053249961
 30
0.0
 10
49.59693900302191
 20
28.33806622147688
 30
0.0
 10
49.59727731867833
 20
28.3378124051967
 30
0.0
  0
SPLINE
  5
D2
330
2
100
AcDbEntity
  8
0
  6
Continuous
100
AcDbSpline
210
0.0
220
0.0
230
1.0
 70
     8
 71
     3
 72
    14
 73
    10
 74
     0
 42
0.000000001
 43
0.0000000001
 40
0.0
 40
0.0
 40
0.0
 40
0.0
 40
0.2100134304166419
 40
0.418364230286622
 40
0.6321717222457264
 40
0.8613521517768509
 40
0.9488747855712805
 40
0.9951831449595204
 40
1.0
 40
1.0
 40
1.0
 40
1.0
 10
49.88438051413442
 20
28.46922662299949
 30
0.0
 10
49.88466870437251
 20
28.47288942085675
 30
0.0
 10
49.88524280330944
 20
28.48018601899923
 30
0.0
 10
49.88053197033752
 20
28.4924649313067
 30
0.0
 10
49.87211697465831
 20
28.50436294599865
 30
0.0
 10
49.86268812153245
 20
28.51268650803672
 30
0.0
 10
49.85557581551763
 20
28.51730189648026
 30
0.0
 10
49.85277240416323
 20
28.51888323278797
 30
0.0
 10
49.85172977489526
 20
28.51943898763716
 30
0.0
 10
49.85163154168287
 20
28.5194913490908
 30
0.0
  0
LWPOLYLINE
  5
D3
330
2
100
AcDbEntity
  8
0
  6
Continuous
100
AcDbPolyline
 90
       11
 70
   128
 43
0.0
 10
49.33125739851949
 20
29.28685800767766
 10
49.3715519711381
 20
29.28456495334558
 10
49.43954200111716
 20
29.26743499855774
 10
49.50988315291503
 20
29.2342842552066
 10
49.58022430470826
 20
29.18622083338573
 10
49.64821433468732
 20
29.12485117047334
 10
49.71158074248049
 20
29.05222653933765
 10
49.76820549379554
 20
28.97077442181046
 10
49.81619601315149
 20
28.88321721384966
 10
49.85394816648779
 20
28.79248153039635
 10
49.88020013510329
 20
28.70160016237765
  0
ARC
  5
D4
330
2
100
AcDbEntity
  8
0
  6
Continuous
100
AcDbCircle
 10
49.8757891853456
 20
28.70270195296439
 30
0.0
 40
0.00454647338945
100
AcDbArc
 50
292.3199485745109
 51
345.9753327215927
  0
ARC
  5
D5
330
2
100
AcDbEntity
  8
0
  6
Continuous
100
AcDbCircle
 10
49.14991656672155
 20
28.57836457168583
 30
0.0
 40
0.7479597084119501
100
AcDbArc
 50
11.89176856039626
 51
56.04961393200418
  0
SPLINE
  5
D6
330
2
100
AcDbEntity
  8
0
  6
Continuous
100
AcDbSpline
210
0.0
220
0.0
230
1.0
 70
     8
 71
     3
 72
     9
 73
     5
 74
     0
 42
0.000000001
 43
0.0000000001
 40
0.0
 40
0.0
 40
0.0
 40
0.0
 40
0.7520008080050566
 40
1.0
 40
1.0
 40
1.0
 40
1.0
 10
49.88399459308919
 20
28.72085316999437
 30
0.0
 10
49.88348027330278
 20
28.72388099690204
 30
0.0
 10
49.8827963381515
 20
28.72790735814442
 30
0.0
 10
49.88201723035935
 20
28.73158082807413
 30
0.0
 10
49.88182401225643
 20
28.73249184564861
 30
0.0
  0
SPLINE
  5
D7
330
2
100
AcDbEntity
  8
0
  6
Continuous
100
AcDbSpline
210
0.0
220
0.0
230
1.0
 70
     8
 71
     3
 72
     9
 73
     5
 74
     0
 42
0.000000001
 43
0.0000000001
 40
0.0
 40
0.0
 40
0.0
 40
0.0
 40
0.6352647400526871
 40
1.0
 40
1.0
 40
1.0
 40
1.0
 10
49.88020013510414
 20
28.70160016237605
 30
0.0
 10
49.88054172590937
 20
28.70832370264088
 30
0.0
 10
49.88107944000508
 20
28.71890754248125
 30
0.0
 10
49.8832154975758
 20
28.72033318712477
 30
0.0
 10
49.88399459308919
 20
28.72085316999437
 30
0.0
  0
SPLINE
  5
D8
330
2
100
AcDbEntity
  8
0
  6
Continuous
100
AcDbSpline
210
0.0
220
0.0
230
1.0
 70
     8
 71
     3
 72
    12
 73
     8
 74
     0
 42
0.000000001
 43
0.0000000001
 40
0.0
 40
0.0
 40
0.0
 40
0.0
 40
0.0122532782641352
 40
0.2733264299569598
 40
0.5215210135047681
 40
0.76054901326872
 40
1.0
 40
1.0
 40
1.0
 40
1.0
 10
49.63595486472673
 20
28.31022300593611
 30
0.0
 10
49.63596041115103
 20
28.31026671502014
 30
0.0
 10
49.63608413186614
 20
28.31124170698911
 30
0.0
 10
49.63587738494393
 20
28.3131013165073
 30
0.0
 10
49.6346564371932
 20
28.31556754052099
 30
0.0
 10
49.63262257888779
 20
28.31757196443539
 30
0.0
 10
49.63077415233471
 20
28.3182947999893
 30
0.0
 10
49.6298491220314
 20
28.31865653726822
 30
0.0
  0
SPLINE
  5
D9
330
2
100
AcDbEntity
  8
0
  6
Continuous
100
AcDbSpline
210
0.0
220
0.0
230
1.0
 70
     8
 71
     3
 72
    12
 73
     8
 74
     0
 42
0.000000001
 43
0.0000000001
 40
0.0
 40
0.0
 40
0.0
 40
0.0
 40
0.0213688114030312
 40
0.3681189660902812
 40
0.6232769506825288
 40
0.8110852097574108
 40
1.0
 40
1.0
 40
1.0
 40
1.0
 10
49.63595486472673
 20
28.31022300593611
 30
0.0
 10
49.63595048617781
 20
28.30990621319313
 30
0.0
 10
49.63587505723272
 20
28.3044488475582
 30
0.0
 10
49.63553985757333
 20
28.29417147741458
 30
0.0
 10
49.63463289282054
 20
28.2800888726058
 30
0.0
 10
49.63352085498736
 20
28.268874735449
 30
0.0
 10
49.63264361541043
 20
28.26351308457561
 30
0.0
 10
49.63220370728437
 20
28.26082438487447
 30
0.0
  0
ARC
  5
DA
330
2
100
AcDbEntity
  8
0
  6
Continuous
100
AcDbCircle
 10
49.62729580780533
 20
28.26094774704927
 30
0.0
 40
0.0049094496142348
100
AcDbArc
 50
297.5907867977958
 51
358.5601489770803
  0
LINE
  5
DB
330
2
100
AcDbEntity
  8
0
  6
Continuous
100
AcDbLine
 10
49.62974891133046
 20
28.31868524706579
 30
0.0
 11
49.6298491220313
 21
28.31865653726743
 31
0.0
  0
LWPOLYLINE
  5
DC
330
2
100
AcDbEntity
  8
0
  6
Continuous
100
AcDbPolyline
 90
        3
 70
   128
 43
0.0
 10
49.63220370728315
 20
28.26082438487345
 10
49.61290298625251
 20
28.19237659646706
 10
49.59051132662227
 20
28.14690059738211
  0
LINE
  5
DD
330
2
100
AcDbEntity
  8
0
  6
Continuous
100
AcDbLine
 10
49.88431283224457
 20
28.46891539113676
 30
0.0
 11
49.88438051413494
 21
28.46922662299926
 31
0.0
  0
ARC
  5
DE
330
2
100
AcDbEntity
  8
0
  6
Continuous
100
AcDbCircle
 10
49.65891518038372
 20
28.50283809229131
 30
0.0
 40
0.2279360680506904
100
AcDbArc
 50
303.056167203409
 51
351.4411308208307
  0
ARC
  5
DF
330
2
100
AcDbEntity
  8
0
  6
Continuous
100
AcDbCircle
 10
49.87600345990488
 20
28.70225335952046
 30
0.0
 40
0.004450326291571
100
AcDbArc
 50
291.0838274608035
 51
345.143411680912
  0
SPLINE
  5
E0
330
2
100
AcDbEntity
  8
0
  6
Continuous
100
AcDbSpline
210
0.0
220
0.0
230
1.0
 70
     8
 71
     3
 72
    11
 73
     7
 74
     0
 42
0.000000001
 43
0.0000000001
 40
0.0
 40
0.0
 40
0.0
 40
0.0
 40
0.3301790598712377
 40
0.6580738734739552
 40
0.9945546065386647
 40
1.0
 40
1.0
 40
1.0
 40
1.0
 10
49.8803050145722
 20
28.70111229354916
 30
0.0
 10
49.88081204916374
 20
28.69660643958514
 30
0.0
 10
49.88182261057776
 20
28.68762590407641
 30
0.0
 10
49.87706205572593
 20
28.67566841711323
 30
0.0
 10
49.87231561591914
 20
28.66805239211669
 30
0.0
 10
49.86836741683513
 20
28.66588294219696
 30
0.0
 10
49.86830453922558
 20
28.66584839231177
 30
0.0
  0
LINE
  5
E1
330
2
100
AcDbEntity
  8
0
  6
Continuous
100
AcDbLine
 10
49.88020013510329
 20
28.70160016237765
 30
0.0
 11
49.88030501457256
 21
28.70111229354882
 31
0.0
  0
SPLINE
  5
E2
330
2
100
AcDbEntity
  8
0
  6
Continuous
100
AcDbSpline
210
0.0
220
0.0
230
1.0
 70
     8
 71
     3
 72
     9
 73
     5
 74
     0
 42
0.000000001
 43
0.0000000001
 40
0.0
 40
0.0
 40
0.0
 40
0.0
 40
0.4580266192389577
 40
1.0
 40
1.0
 40
1.0
 40
1.0
 10
49.87979544743889
 20
28.69383482646765
 30
0.0
 10
49.88147035365591
 20
28.69776653456052
 30
0.0
 10
49.88512714159494
 20
28.70635055113871
 30
0.0
 10
49.88439266166166
 20
28.71575578409318
 30
0.0
 10
49.88399459308919
 20
28.72085316999437
 30
0.0
  0
LINE
  5
E3
330
2
100
AcDbEntity
  8
0
  6
Continuous
100
AcDbLine
 10
49.88690042873414
 20
28.4800134070764
 30
0.0
 11
49.88704131570099
 21
28.47358196903372
 31
0.0
  0
SPLINE
  5
E4
330
2
100
AcDbEntity
  8
0
  6
Continuous
100
AcDbSpline
210
0.0
220
0.0
230
1.0
 70
     8
 71
     3
 72
    12
 73
     8
 74
     0
 42
0.000000001
 43
0.0000000001
 40
0.0
 40
0.0
 40
0.0
 40
0.0
 40
0.2582320231989549
 40
0.5140355214810937
 40
0.77858837805241
 40
0.9945977081139204
 40
1.0
 40
1.0
 40
1.0
 40
1.0
 10
49.88908001143958
 20
28.5490847064649
 30
0.0
 10
49.88919384783621
 20
28.55079640985423
 30
0.0
 10
49.88942045006315
 20
28.5542037190387
 30
0.0
 10
49.88360206781721
 20
28.5577029834044
 30
0.0
 10
49.87458725832951
 20
28.55950291580598
 30
0.0
 10
49.86686314129212
 20
28.55967812870927
 30
0.0
 10
49.86311434799653
 20
28.55956067624254
 30
0.0
 10
49.8630228800084
 20
28.55955781048283
 30
0.0
  0
SPLINE
  5
E5
330
2
100
AcDbEntity
  8
0
  6
Continuous
100
AcDbSpline
210
0.0
220
0.0
230
1.0
 70
     8
 71
     3
 72
    10
 73
     6
 74
     0
 42
0.000000001
 43
0.0000000001
 40
0.0
 40
0.0
 40
0.0
 40
0.0
 40
0.2075604300798163
 40
0.3233951325913779
 40
1.0
 40
1.0
 40
1.0
 40
1.0
 10
49.88908001143958
 20
28.5490847064649
 30
0.0
 10
49.8887956897521
 20
28.54324458735971
 30
0.0
 10
49.88835269466974
 20
28.53414523209415
 30
0.0
 10
49.88725281430262
 20
28.50719502528852
 30
0.0
 10
49.88709602817618
 20
28.4888581485443
 30
0.0
 10
49.88696216023174
 20
28.4732016612495
 30
0.0
  0
LWPOLYLINE
  5
E6
330
2
100
AcDbEntity
  8
0
  6
Continuous
100
AcDbPolyline
 90
        3
 70
   128
 43
0.0
 10
49.88695199879468
 20
28.47265082981858
 10
49.88700060891758
 20
28.4729455071913
 10
49.88704131570099
 20
28.47358196903372
  0
LWPOLYLINE
  5
E7
330
2
100
AcDbEntity
  8
0
  6
Continuous
100
AcDbPolyline
 90
        3
 70
   128
 43
0.0
 10
49.88696216023183
 20
28.47320166124826
 10
49.86577278487256
 20
28.40898918687833
 10
49.85244836262965
 20
28.38402505875661
  0
LWPOLYLINE
  5
E8
330
2
100
AcDbEntity
  8
0
  6
Continuous
100
AcDbPolyline
 90
       15
 70
   128
 43
0.0
 10
0.8762836064333363
 20
0.4122413063097384
 10
0.8500316378178283
 20
0.5031226743284947
 10
0.8122794844768854
 20
0.5938583577818122
 10
0.7642889651255729
 20
0.6814155657425545
 10
0.7076642138105278
 20
0.7628676832697466
 10
0.6442978060127267
 20
0.8354923144054851
 10
0.5763077760382985
 20
0.8968619773178261
 10
0.5059666242404291
 20
0.9449253991386399
 10
0.4356254724425562
 20
0.97807614248984
 10
0.3676354424681278
 20
0.9952060972776735
 10
0.304269034674963
 20
0.9957427633001998
 10
0.2476442833599179
 20
0.9796681920396963
 10
0.199653764003969
 20
0.947519658319095
 10
0.161901610667659
 20
0.9003716833194062
 10
0.1356496420521545
 20
0.8398001930978011
  0
SPLINE
  5
E9
330
2
100
AcDbEntity
  8
0
  6
Continuous
100
AcDbSpline
210
0.0
220
0.0
230
1.0
 70
     8
 71
     3
 72
    10
 73
     6
 74
     0
 42
0.000000001
 43
0.0000000001
 40
0.0
 40
0.0
 40
0.0
 40
0.0
 40
0.5
 40
0.5
 40
1.0
 40
1.0
 40
1.0
 40
1.0
 10
0.7918603094676833
 20
0.3805672816053516
 30
0.0
 10
0.8044768668147099
 20
0.3884888723408721
 30
0.0
 10
0.8181968512698993
 20
0.3951065861796223
 30
0.0
 10
0.8465128394100815
 20
0.4056188588813825
 30
0.0
 10
0.8611626998813832
 20
0.4095645616189927
 30
0.0
 10
0.8762836341043076
 20
0.4122413047563783
 30
0.0
  0
SPLINE
  5
EA
330
2
100
AcDbEntity
  8
0
  6
Continuous
100
AcDbSpline
210
0.0
220
0.0
230
1.0
 70
     8
 71
     3
 72
     8
 73
     4
 74
     0
 42
0.000000001
 43
0.0000000001
 40
0.0
 40
0.0
 40
0.0
 40
0.0
 40
1.0
 40
1.0
 40
1.0
 40
1.0
 10
0.787078229389941
 20
0.3906983965874247
 30
0.0
 10
0.787863995118137
 20
0.3870368433725275
 30
0.0
 10
0.789430353841734
 20
0.383573945948001
 30
0.0
 10
0.7918603094677011
 20
0.3805672816052947
 30
0.0
  0
LWPOLYLINE
  5
EB
330
2
100
AcDbEntity
  8
0
  6
Continuous
100
AcDbPolyline
 90
       15
 70
   128
 43
0.0
 10
0.1340243001868302
 20
0.7676984252692023
 10
0.1565883075688035
 20
0.8222189821694882
 10
0.1895281197629295
 20
0.8648034034540614
 10
0.2317193110798286
 20
0.8939980849718267
 10
0.2817217189024532
 20
0.9088064396196955
 10
0.3378284809877599
 20
0.9087230117607987
 10
0.3981244065657883
 20
0.8937506102562906
 10
0.4605512818392299
 20
0.8644003300168492
 10
0.5229781571126751
 20
0.8216740742570891
 10
0.5832740826907035
 20
0.767030281916675
 10
0.6393808447806429
 20
0.7023342211349473
 10
0.6893832525986348
 20
0.6297943152693506
 10
0.7315744439155339
 20
0.5518867211415
 10
0.7645142561096599
 20
0.4712708022232733
 10
0.7870782634916296
 20
0.3906983969247903
  0
SPLINE
  5
EC
330
2
100
AcDbEntity
  8
0
  6
Continuous
100
AcDbSpline
210
0.0
220
0.0
230
1.0
 70
     8
 71
     3
 72
     8
 73
     4
 74
     0
 42
0.000000001
 43
0.0000000001
 40
0.0
 40
0.0
 40
0.0
 40
0.0
 40
1.0
 40
1.0
 40
1.0
 40
1.0
 10
0.1318560346562805
 20
0.7615796393778851
 30
0.0
 10
0.1325032924653158
 20
0.7628112996038113
 30
0.0
 10
0.1332377104130735
 20
0.7649412078263822
 30
0.0
 10
0.1340242956539761
 20
0.7676984078623264
 30
0.0
  0
SPLINE
  5
ED
330
2
100
AcDbEntity
  8
0
  6
Continuous
100
AcDbSpline
210
0.0
220
0.0
230
1.0
 70
     8
 71
     3
 72
    10
 73
     6
 74
     0
 42
0.000000001
 43
0.0000000001
 40
0.0
 40
0.0
 40
0.0
 40
0.0
 40
0.5
 40
0.5
 40
1.0
 40
1.0
 40
1.0
 40
1.0
 10
0.1356496416699997
 20
0.8398002077415753
 30
0.0
 10
0.135580763420819
 20
0.8284306759658193
 30
0.0
 10
0.1352164205049426
 20
0.8162252454033591
 30
0.0
 10
0.1339255235523176
 20
0.790055995975763
 30
0.0
 10
0.1329939247087069
 20
0.7761138478638259
 30
0.0
 10
0.1318560346562805
 20
0.7615796393778851
 30
0.0
  0
LWPOLYLINE
  5
EE
330
2
100
AcDbEntity
  8
0
  6
Continuous
100
AcDbPolyline
 90
       14
 70
   128
 43
0.0
 10
1.163932315492584
 20
0.5693329993415546
 10
1.139631770202345
 20
0.656010341221645
 10
1.104937111211903
 20
0.7428236491261942
 10
1.060869090062851
 20
0.8272187214891459
 10
1.008724342886541
 20
0.9067123419327458
 10
0.9500370942636244
 20
0.9789656487606066
 10
0.8865341173497149
 20
1.041852720331803
 10
0.820083808442817
 20
1.093523255392199
 10
0.7526413289346757
 20
1.132456970085854
 10
0.686191020023145
 20
1.157508328619826
 10
0.6226880431138682
 20
1.167940233556407
 10
0.5640007944909513
 20
1.16344578169901
 10
0.5118560473100083
 20
1.144157204842258
 10
0.504953623455954
 20
1.140173585921274
  0
SPLINE
  5
EF
330
2
100
AcDbEntity
  8
0
  6
Continuous
100
AcDbSpline
210
0.0
220
0.0
230
1.0
 70
     8
 71
     3
 72
    14
 73
    10
 74
     0
 42
0.000000001
 43
0.0000000001
 40
0.0000829183709295
 40
0.0000829183709295
 40
0.0000829183709295
 40
0.0000829183709295
 40
0.0058163595433921
 40
0.0058163595433921
 40
0.0058163595433921
 40
0.0060604436658763
 40
0.0060604436658763
 40
0.0060604436658763
 40
0.0085018010141164
 40
0.0085018010141164
 40
0.0085018010141164
 40
0.0085018010141164
 10
0.8828909113918683
 20
0.414054896214168
 30
0.0
 10
0.9466830223958915
 20
0.4493392839110584
 30
0.0
 10
1.010479435484743
 20
0.4846001792237758
 30
0.0
 10
1.074280150406252
 20
0.5198366902906742
 30
0.0
 10
1.07699627529363
 20
0.5213367795101931
 30
0.0
 10
1.079712407983315
 20
0.5228368245237789
 30
0.0
 10
1.082428548475348
 20
0.5243368252582741
 30
0.0
 10
1.109595696522102
 20
0.5393400042707413
 30
0.0
 10
1.136763625392291
 20
0.5543387539574951
 30
0.0
 10
1.16393233513105
 20
0.5693329991923975
 30
0.0
  0
SPLINE
  5
F0
330
2
100
AcDbEntity
  8
0
  6
Continuous
100
AcDbSpline
210
0.0
220
0.0
230
1.0
 70
     8
 71
     3
 72
     8
 73
     4
 74
     0
 42
0.000000001
 43
0.0000000001
 40
0.0
 40
0.0
 40
0.0
 40
0.0
 40
0.0000094862159455
 40
0.0000094862159455
 40
0.0000094862159455
 40
0.0000094862159455
 10
0.8827999415873755
 20
0.4144486694693797
 30
0.0
 10
0.8828294926191659
 20
0.4143169401047544
 30
0.0
 10
0.882859817696719
 20
0.4141856745327459
 30
0.0
 10
0.8828909113918648
 20
0.414054896214168
 30
0.0
  0
LWPOLYLINE
  5
F1
330
2
100
AcDbEntity
  8
0
  6
Continuous
100
AcDbPolyline
 90
       13
 70
   128
 43
0.0
 10
0.2326027306444374
 20
0.9750882622686276
 10
0.2509066542680003
 20
0.9848126651589836
 10
0.3078245157718982
 20
1.000970468232139
 10
0.3715189122096305
 20
1.000431040421915
 10
0.4398608773407418
 20
0.9832123688631781
 10
0.5105661244507367
 20
0.9498900579511087
 10
0.5812713715607316
 20
0.9015778281898292
 10
0.6496133366918429
 20
0.8398905463678261
 10
0.7133077331295752
 20
0.7668899893950539
 10
0.7702255946334731
 20
0.685016222230388
 10
0.8184645046995804
 20
0.5970058317796543
 10
0.856412075005565
 20
0.5058004873806681
 10
0.8827999566686699
 20
0.4144486776045256
  0
ARC
  5
F2
330
2
100
AcDbEntity
  8
0
  6
Continuous
100
AcDbCircle
 10
0.1404957508185234
 20
0.8397870898082828
 30
0.0
 40
0.0048461264847184
100
AcDbArc
 50
163.1421826902915
 51
179.8450795526695
  0
ARC
  5
F3
330
2
100
AcDbEntity
  8
0
  6
Continuous
100
AcDbCircle
 10
0.8729194146353442
 20
0.4328947896328259
 30
0.0
 40
0.0209256818263711
100
AcDbArc
 50
279.2515091646978
 51
298.1754435767895
  0
LWPOLYLINE
  5
F4
330
2
100
AcDbEntity
  8
0
  6
Continuous
100
AcDbPolyline
 90
       14
 70
   128
 43
0.0
 10
0.7808587920290293
 20
0.3907346291928206
 10
0.7564490036519374
 20
0.4763775053191921
 10
0.7202575922885508
 20
0.5618267564162807
 10
0.6737166646386897
 20
0.6437010744325562
 10
0.6186678821912857
 20
0.7187606767160446
 10
0.5572895536670828
 20
0.784035373893687
 10
0.4920104573037563
 20
0.8369422569087987
 10
0.4254137267986842
 20
0.8753877310924735
 10
0.3601346304399904
 20
0.8978504884490234
 10
0.2987563019111548
 20
0.9034417009620483
 10
0.2437075194683871
 20
0.891940070024134
 10
0.1971665918185223
 20
0.8638007632900439
 10
0.1609751804505066
 20
0.8201372263245048
 10
0.1365653920734147
 20
0.7626772919635983
  0
ARC
  5
F5
330
2
100
AcDbEntity
  8
0
  6
Continuous
100
AcDbCircle
 10
0.1409677464843142
 20
0.7680587963509993
 30
0.0
 40
0.0069527917981989
100
AcDbArc
 50
182.9710364818102
 51
230.7150234850006
  0
ARC
  5
F6
330
2
100
AcDbEntity
  8
0
  6
Continuous
100
AcDbCircle
 10
0.7840604934922198
 20
0.4065029446601898
 30
0.0
 40
0.0160900797051058
100
AcDbArc
 50
258.5223275257998
 51
280.8101133038029
  0
LWPOLYLINE
  5
F7
330
2
100
AcDbEntity
  8
0
  6
Continuous
100
AcDbPolyline
 90
        9
 70
   128
 43
0.0
 10
0.7864113924172394
 20
0.2031868099539906
 10
0.767836405568616
 20
0.2307593488132511
 10
0.7534229701002034
 20
0.2606894707237757
 10
0.7440574502555571
 20
0.2911366201303167
 10
0.7403157218939889
 20
0.3202285074912652
 10
0.7424279278585182
 20
0.3461761164515451
 10
0.7502641665197416
 20
0.3673838237421592
 10
0.7633425476977181
 20
0.3825474788662291
 10
0.7808587920290293
 20
0.3907346291928206
  0
LWPOLYLINE
  5
F8
330
2
100
AcDbEntity
  8
0
  6
Continuous
100
AcDbPolyline
 90
       14
 70
   128
 43
0.0
 10
0.1575969142229212
 20
0.4763434422516753
 10
0.1816521813091043
 20
0.4144081664781539
 10
0.2233075932576867
 20
0.3324929903610609
 10
0.2738817879462196
 20
0.2558437703511913
 10
0.3314586629611185
 20
0.187364531372566
 10
0.3938567894531388
 20
0.1296497657630766
 10
0.458712092051222
 20
0.0848860670272416
 10
0.5235673946539379
 20
0.0547694272545414
 10
0.5859655211413255
 20
0.0404408495006692
 10
0.6435423961608571
 20
0.0424432435851259
 10
0.6941165908493901
 20
0.0607007413133829
 10
0.7357720027933361
 20
0.0945216025104401
 10
0.7669304202861014
 20
0.142624456093472
 10
0.7864113924172394
 20
0.2031868099539906
  0
LWPOLYLINE
  5
F9
330
2
100
AcDbEntity
  8
0
  6
Continuous
100
AcDbPolyline
 90
       10
 70
   128
 43
0.0
 10
0.3161841295299581
 20
0.5537636643829274
 10
0.3111959466809679
 20
0.5856016019816935
 10
0.2969908054363479
 20
0.618351732976123
 10
0.2757313222618833
 20
0.647028144180581
 10
0.2506540372546588
 20
0.6672651221055049
 10
0.2255767522474308
 20
0.6759817611521158
 10
0.2043172538096343
 20
0.6718510355622698
 10
0.1901121125650107
 20
0.6555018115473672
 10
0.1851239449747233
 20
0.6294230984720457
 10
0.1860988937718488
 20
0.6158556782485221
  0
LWPOLYLINE
  5
FA
330
2
100
AcDbEntity
  8
0
  6
Continuous
100
AcDbPolyline
 90
        6
 70
   128
 43
0.0
 10
0.2393818440762025
 20
0.5235568884836539
 10
0.2506540372546588
 20
0.5159216407494114
 10
0.2757313222618833
 20
0.5072050016981962
 10
0.2969908054363479
 20
0.5113357360966689
 10
0.3111959466809679
 20
0.5276849601161758
 10
0.3161841295299581
 20
0.5537636643829274
  0
LWPOLYLINE
  5
FB
330
2
100
AcDbEntity
  8
0
  6
Continuous
100
AcDbPolyline
 90
       10
 70
   128
 43
0.0
 10
0.7323002391277207
 20
0.3135449475112182
 10
0.7273120715374298
 20
0.3453828762966964
 10
0.7131069302928097
 20
0.3781330072957871
 10
0.6918474318596424
 20
0.4068094273088719
 10
0.6667701468524179
 20
0.4270464052337957
 10
0.6416928618451934
 20
0.4357630442804635
 10
0.6204333786660961
 20
0.4316323098819339
 10
0.6062282374214725
 20
0.4152830858670882
 10
0.6012400545771186
 20
0.3892043815956754
 10
0.6022150033696079
 20
0.3756369613722086
  0
LWPOLYLINE
  5
FC
330
2
100
AcDbEntity
  8
0
  6
Continuous
100
AcDbPolyline
 90
        6
 70
   128
 43
0.0
 10
0.6554979536785979
 20
0.2833381716073404
 10
0.6667701468524179
 20
0.2757029238730979
 10
0.6918474318596424
 20
0.266986284826487
 10
0.7131069302928097
 20
0.2711170104163898
 10
0.7273120715374298
 20
0.2874662344358398
 10
0.7323002391277207
 20
0.3135449475112182
  0
SPLINE
  5
FD
330
2
100
AcDbEntity
  8
0
  6
Continuous
100
AcDbSpline
210
0.0
220
0.0
230
1.0
 70
     8
 71
     3
 72
    12
 73
     8
 74
     0
 42
0.000000001
 43
0.0000000001
 40
0.0
 40
0.0
 40
0.0
 40
0.0
 40
0.5
 40
0.5
 40
0.75
 40
0.75
 40
1.0
 40
1.0
 40
1.0
 40
1.0
 10
1.185606448783381
 20
0.5561894038596052
 30
0.0
 10
1.187028585708361
 20
0.5492864110675555
 30
0.0
 10
1.191360342451179
 20
0.5432725166672867
 30
0.0
 10
1.199606305246952
 20
0.5360931717163453
 30
0.0
 10
1.202684360127655
 20
0.5339797313215513
 30
0.0
 10
1.209125674997981
 20
0.530357962379128
 30
0.0
 10
1.212523876445906
 20
0.5288212872897589
 30
0.0
 10
1.216080044702323
 20
0.5275265731760897
 30
0.0
  0
LWPOLYLINE
  5
FE
330
2
100
AcDbEntity
  8
0
  6
Continuous
100
AcDbPolyline
 90
       15
 70
   128
 43
0.0
 10
0.4217257083531365
 20
1.089725033330864
 10
0.451342425132296
 20
1.129354345981596
 10
0.4974671152522526
 20
1.166038339230851
 10
0.5523997430007875
 20
1.187443051322702
 10
0.6144760601028807
 20
1.192920010812031
 10
0.6818154757741759
 20
1.182303297738371
 10
0.752377898229188
 20
1.155914539425168
 10
0.824025618724324
 20
1.114553190785159
 10
0.8945880411747033
 20
1.059472310264652
 10
0.9619274568506313
 20
0.9923405889227296
 10
1.024003773952724
 20
0.9151918392814764
 10
1.078936401696626
 20
0.8303632652094847
 10
1.125061091821216
 20
0.7404248382993046
 10
1.160980524516293
 20
0.6481012033205503
 10
1.185606449426501
 20
0.556189420475846
  0
LWPOLYLINE
  5
FF
330
2
100
AcDbEntity
  8
0
  6
Continuous
100
AcDbPolyline
 90
       17
 70
   128
 43
0.0
 10
1.243928282968614
 20
0.5639823797173449
 10
1.219622275527044
 20
0.6565352577623003
 10
1.184561743731855
 20
0.7496740319804758
 10
1.139683736956659
 20
0.8409093649939904
 10
1.08618773211252
 20
0.9278028532815483
 10
1.025503532034768
 20
1.008032028356637
 10
0.9592529999016079
 20
1.079452670523892
 10
0.889206812069446
 20
1.140155911411454
 10
0.8172371067255497
 20
1.188519354602306
 10
0.7452674013770171
 20
1.223250364487512
 10
0.675221213549488
 20
1.243420730623597
 10
0.608970681411698
 20
1.248491324702627
 10
0.5482864813339426
 20
1.238326635667078
 10
0.4947904764898042
 20
1.213198319866705
 10
0.4499124697192443
 20
1.173778030562857
 10
0.4148519379240554
 20
1.121119284712335
 10
0.3956137112612445
 20
1.073897268910741
  0
SPLINE
  5
100
330
2
100
AcDbEntity
  8
0
  6
Continuous
100
AcDbSpline
210
0.0
220
0.0
230
1.0
 70
     8
 71
     3
 72
    14
 73
    10
 74
     0
 42
0.000000001
 43
0.0000000001
 40
0.0
 40
0.0
 40
0.0
 40
0.0
 40
0.25
 40
0.25
 40
0.5
 40
0.5
 40
0.75
 40
0.75
 40
1.0
 40
1.0
 40
1.0
 40
1.0
 10
1.216080044702323
 20
0.5275265731760897
 30
0.0
 10
1.220170986467429
 20
0.52908683570422
 30
0.0
 10
1.224029689909155
 20
0.5309978655103578
 30
0.0
 10
1.231137683893578
 20
0.5356109136347982
 30
0.0
 10
1.234427352600423
 20
0.5383585169475964
 30
0.0
 10
1.239814540280164
 20
0.5445945997261675
 30
0.0
 10
1.241978495219754
 20
0.5481734239602929
 30
0.0
 10
1.244451083458216
 20
0.5558521282152356
 30
0.0
 10
1.244752739777648
 20
0.5599485677063285
 30
0.0
 10
1.243928283044844
 20
0.563982366997152
 30
0.0
  0
ARC
  5
101
330
2
100
AcDbEntity
  8
0
  6
Continuous
100
AcDbCircle
 10
1.391039076485284
 20
0.5787255839363184
 30
0.0
 40
0.2638722996249365
100
AcDbArc
 50
300.9866947251022
 51
351.2574461897334
  0
LWPOLYLINE
  5
102
330
2
100
AcDbEntity
  8
0
  6
Continuous
100
AcDbPolyline
 90
       17
 70
   128
 43
0.0
 10
0.8251490297912305
 20
1.41677505232667
 10
0.8743259046788267
 20
1.438648824339111
 10
0.9358690971947751
 20
1.448669367301363
 10
1.002993070545894
 20
1.443343463328744
 10
1.073921678578891
 20
1.422812036299944
 10
1.146778106720304
 20
1.387618429362248
 10
1.219634534861722
 20
1.338693794876576
 10
1.290563142890082
 20
1.277332794198173
 10
1.357687116241201
 20
1.205159008167925
 10
1.419230308761783
 20
1.124082207598576
 10
1.473564250817059
 20
1.036247747974186
 10
1.519251266744991
 20
0.9439797884340919
 10
1.555082420037329
 20
0.8497197796522186
 10
1.580109614952831
 20
0.7559618766734957
 10
1.593670588150729
 20
0.6651870033081764
 10
1.595406546270087
 20
0.5797970853543575
 10
1.585271533979437
 20
0.5020516043614407
  0
LINE
  5
103
330
2
100
AcDbEntity
  8
0
  6
Continuous
100
AcDbLine
 10
1.585271533979437
 20
0.5020516043614407
 30
0.0
 11
1.651845515676107
 21
0.5386183303982648
 31
0.0
  0
ARC
  5
104
330
2
100
AcDbEntity
  8
0
  6
Continuous
100
AcDbCircle
 10
1.013515144980868
 20
0.3529445743107544
 30
0.0
 40
0.2447813232850931
100
AcDbArc
 50
271.7793095314988
 51
355.0758838157243
  0
LWPOLYLINE
  5
105
330
2
100
AcDbEntity
  8
0
  6
Continuous
100
AcDbPolyline
 90
        4
 70
   128
 43
0.0
 10
1.52849277431811
 20
0.4855727737109988
 10
1.521927363867597
 20
0.4818516403967124
 10
1.455122697688075
 20
0.4439891532567799
 10
1.257393042911509
 20
0.3319334551101747
  0
ARC
  5
106
330
2
100
AcDbEntity
  8
0
  6
Continuous
100
AcDbCircle
 10
0.9106385045784257
 20
0.5814380993969053
 30
0.0
 40
0.6252471985590696
100
AcDbArc
 50
351.1804003585067
 51
12.21121860376914
  0
LWPOLYLINE
  5
107
330
2
100
AcDbEntity
  8
0
  6
Continuous
100
AcDbPolyline
 90
        4
 70
   128
 43
0.0
 10
1.250459707530193
 20
0.5661192864454847
 10
1.314544998928166
 20
0.6009761014786932
 10
1.515169397210449
 20
0.7101137379341367
 10
1.521739171283179
 20
0.713687993372048
  0
LWPOLYLINE
  5
108
330
2
100
AcDbEntity
  8
0
  6
Continuous
100
AcDbPolyline
 90
       14
 70
   128
 43
0.0
 10
0.5042670092822626
 20
1.2222725926826
 10
0.551668195740497
 20
1.243516770046142
 10
0.612627181855725
 20
1.25372748728239
 10
0.6791776747642189
 20
1.248633946569327
 10
0.7495410108402858
 20
1.228372252830638
 10
0.8218365764184589
 20
1.193483995802125
 10
0.8941321419966286
 20
1.144901569535932
 10
0.9644954780773318
 20
1.083923484675949
 10
1.031045970985825
 20
1.012179461815549
 10
1.092004957096417
 20
0.9315869973221992
 10
1.145743158142007
 20
0.8443001238294982
 10
1.190824332648631
 20
0.7526517218596496
 10
1.226043633101458
 20
0.6590912237354019
 10
1.250459707530193
 20
0.5661192864454847
  0
ARC
  5
109
330
2
100
AcDbEntity
  8
0
  6
Continuous
100
AcDbCircle
 10
1.241111649630003
 20
0.5836414346658785
 30
0.0
 40
0.0198598052566478
100
AcDbArc
 50
278.1535128880986
 51
298.0799001912023
  0
SPLINE
  5
10A
330
2
100
AcDbEntity
  8
0
  6
Continuous
100
AcDbSpline
210
0.0
220
0.0
230
1.0
 70
     8
 71
     3
 72
     8
 73
     4
 74
     0
 42
0.000000001
 43
0.0000000001
 40
0.0
 40
0.0
 40
0.0
 40
0.0
 40
0.0000116577275363
 40
0.0000116577275363
 40
0.0000116577275363
 40
0.0000116577275363
 10
0.8763953058120783
 20
0.4117573905330119
 30
0.0
 10
0.8763573035567624
 20
0.4119181300778792
 30
0.0
 10
0.876320077420452
 20
0.4120794430973547
 30
0.0
 10
0.8762836341043076
 20
0.4122413047563783
 30
0.0
  0
SPLINE
  5
10B
330
2
100
AcDbEntity
  8
0
  6
Continuous
100
AcDbSpline
210
0.0
220
0.0
230
1.0
 70
     8
 71
     3
 72
    12
 73
     8
 74
     0
 42
0.000000001
 43
0.0000000001
 40
0.0
 40
0.0
 40
0.0
 40
0.0
 40
0.4999999999999968
 40
0.4999999999999968
 40
0.7499999999999983
 40
0.7499999999999983
 40
1.0
 40
1.0
 40
1.0
 40
1.0
 10
0.7918603094677295
 20
0.3805672816053516
 30
0.0
 10
0.7976790182938771
 20
0.3732971611938183
 30
0.0
 10
0.8041707524122898
 20
0.3680820988931259
 30
0.0
 10
0.8133705249263627
 20
0.3642076026740142
 30
0.0
 10
0.8162718337146941
 20
0.3635908965289332
 30
0.0
 10
0.8216626026391118
 20
0.3636488851819308
 30
0.0
 10
0.8241297407017711
 20
0.3643441168683239
 30
0.0
 10
0.8262244614678344
 20
0.3656320144391429
 30
0.0
  0
LWPOLYLINE
  5
10C
330
2
100
AcDbEntity
  8
0
  6
Continuous
100
AcDbPolyline
 90
       15
 70
   128
 43
0.0
 10
1.17937254444746
 20
0.5562944083638968
 10
1.155018933873797
 20
0.6471898028119654
 10
1.119496712712635
 20
0.7384924538238807
 10
1.073882108473654
 20
0.8274363177836221
 10
1.019556954688347
 20
0.9113267971706591
 10
0.9581671144455441
 20
0.9876223992853283
 10
0.8915723750317283
 20
1.054011707684992
 10
0.8217902701646799
 20
1.108483481681787
 10
0.75093486720818
 20
1.149387435142386
 10
0.6811527623411316
 20
1.175484364469355
 10
0.6145580229319485
 20
1.185983705577029
 10
0.5531681826845088
 20
1.180567304301121
 10
0.4988430289038348
 20
1.15939931239086
 10
0.4532284246648573
 20
1.123120949460599
 10
0.430507998265842
 20
1.094360325688569
  0
ARC
  5
10D
330
2
100
AcDbEntity
  8
0
  6
Continuous
100
AcDbCircle
 10
1.182751675954094
 20
0.5718094157373344
 30
0.0
 40
0.0158787273922132
100
AcDbArc
 50
257.7129991340005
 51
280.3572973168978
  0
SPLINE
  5
10E
330
2
100
AcDbEntity
  8
0
  6
Continuous
100
AcDbSpline
210
0.0
220
0.0
230
1.0
 70
     8
 71
     3
 72
     8
 73
     4
 74
     0
 42
0.000000001
 43
0.0000000001
 40
0.0
 40
0.0
 40
0.0
 40
0.0
 40
0.0001274985290532
 40
0.0001274985290532
 40
0.0001274985290532
 40
0.0001274985290532
 10
1.16393233513105
 20
0.5693329991923975
 30
0.0
 10
1.164320818504897
 20
0.5675645708411139
 30
0.0
 10
1.164624488042896
 20
0.5658132581243081
 30
0.0
 10
1.164839647903079
 20
0.5641003541887813
 30
0.0
  0
LINE
  5
10F
330
2
100
AcDbEntity
  8
0
  6
Continuous
100
AcDbLine
 10
1.164839643424876
 20
0.564100348422187
 30
0.0
 11
1.17937254444746
 21
0.5562944083638968
 31
0.0
  0
ARC
  5
110
330
2
100
AcDbEntity
  8
0
  6
Continuous
100
AcDbCircle
 10
0.8728944892634729
 20
0.4319859296816162
 30
0.0
 40
0.0205292451861088
100
AcDbArc
 50
279.8185785099018
 51
299.1393058288977
  0
SPLINE
  5
111
330
2
100
AcDbEntity
  8
0
  6
Continuous
100
AcDbSpline
210
0.0
220
0.0
230
1.0
 70
     8
 71
     3
 72
    10
 73
     6
 74
     0
 42
0.000000001
 43
0.0000000001
 40
0.0
 40
0.0
 40
0.0
 40
0.0
 40
0.3769432787208752
 40
0.6879561673941817
 40
1.0
 40
1.0
 40
1.0
 40
1.0
 10
1.169618265679957
 20
0.5456679486625263
 30
0.0
 10
1.168924652480004
 20
0.5463486163151288
 30
0.0
 10
1.167658744568573
 20
0.5475908974115101
 30
0.0
 10
1.166180787608503
 20
0.5542404276673665
 30
0.0
 10
1.165287184352948
 20
0.5608100846646949
 30
0.0
 10
1.164839643422617
 20
0.5641003484213343
 30
0.0
  0
SPLINE
  5
112
330
2
100
AcDbEntity
  8
0
  6
Continuous
100
AcDbSpline
210
0.0
220
0.0
230
1.0
 70
     8
 71
     3
 72
     8
 73
     4
 74
     0
 42
0.000000001
 43
0.0000000001
 40
0.0
 40
0.0
 40
0.0
 40
0.0
 40
1.0
 40
1.0
 40
1.0
 40
1.0
 10
0.7871401529082256
 20
0.3783310247694658
 30
0.0
 10
0.7841283199416403
 20
0.3819892679275654
 30
0.0
 10
0.7820341424906019
 20
0.3862083819213353
 30
0.0
 10
0.7808588081922388
 20
0.3907346223758168
 30
0.0
  0
SPLINE
  5
113
330
2
100
AcDbEntity
  8
0
  6
Continuous
100
AcDbSpline
210
0.0
220
0.0
230
1.0
 70
     8
 71
     3
 72
    12
 73
     8
 74
     0
 42
0.000000001
 43
0.0000000001
 40
0.0
 40
0.0
 40
0.0
 40
0.0
 40
0.5000000000000038
 40
0.5000000000000038
 40
0.7500000000000019
 40
0.7500000000000019
 40
1.0
 40
1.0
 40
1.0
 40
1.0
 10
0.7871401529082256
 20
0.3783310247694658
 30
0.0
 10
0.7930754771852584
 20
0.3711218403065573
 30
0.0
 10
0.8000361018465582
 20
0.3661294617626822
 30
0.0
 10
0.8104967053681271
 20
0.3628411106032559
 30
0.0
 10
0.813897375177639
 20
0.3624560054299764
 30
0.0
 10
0.8204067093968561
 20
0.363041204051342
 30
0.0
 10
0.823517667506934
 20
0.3640420680969214
 30
0.0
 10
0.8262244614678344
 20
0.3656320144391429
 30
0.0
  0
SPLINE
  5
114
330
2
100
AcDbEntity
  8
0
  6
Continuous
100
AcDbSpline
210
0.0
220
0.0
230
1.0
 70
     8
 71
     3
 72
    12
 73
     8
 74
     0
 42
0.000000001
 43
0.0000000001
 40
0.0
 40
0.0
 40
0.0
 40
0.0
 40
0.5000000000000032
 40
0.5000000000000032
 40
0.7500000000000016
 40
0.7500000000000016
 40
1.0
 40
1.0
 40
1.0
 40
1.0
 10
0.7920398748052336
 20
0.212834458028226
 30
0.0
 10
0.7975875881798658
 20
0.2187175010280953
 30
0.0
 10
0.8041893444393579
 20
0.2258465223636108
 30
0.0
 10
0.8142338052243651
 20
0.2366141106275563
 30
0.0
 10
0.8175190406573094
 20
0.2401280008274398
 30
0.0
 10
0.8238446276948963
 20
0.2469195777593427
 30
0.0
 10
0.8268880060780219
 20
0.2502030637644452
 30
0.0
 10
0.829554942232356
 20
0.2531392763394251
 30
0.0
  0
SPLINE
  5
115
330
2
100
AcDbEntity
  8
0
  6
Continuous
100
AcDbSpline
210
0.0
220
0.0
230
1.0
 70
     8
 71
     3
 72
     8
 73
     4
 74
     0
 42
0.000000001
 43
0.0000000001
 40
0.0
 40
0.0
 40
0.0
 40
0.0
 40
1.0
 40
1.0
 40
1.0
 40
1.0
 10
0.7864113832142153
 20
0.2031868141485233
 30
0.0
 10
0.7873529329253018
 20
0.2065783928020437
 30
0.0
 10
0.7892235069265077
 20
0.2098478557625185
 30
0.0
 10
0.7920398748052336
 20
0.212834458028226
 30
0.0
  0
ARC
  5
116
330
2
100
AcDbEntity
  8
0
  6
Continuous
100
AcDbCircle
 10
0.7831320113714284
 20
0.3928908168340968
 30
0.0
 40
0.0151014082435755
100
AcDbArc
 50
285.3915975911073
 51
305.3084991619907
  0
SPLINE
  5
117
330
2
100
AcDbEntity
  8
0
  6
Continuous
100
AcDbSpline
210
0.0
220
0.0
230
1.0
 70
     8
 71
     3
 72
     8
 73
     4
 74
     0
 42
0.000000001
 43
0.0000000001
 40
0.0
 40
0.0
 40
0.0
 40
0.0
 40
1.0
 40
1.0
 40
1.0
 40
1.0
 10
0.8295549422323418
 20
0.2531392763394251
 30
0.0
 10
0.845507162874334
 20
0.2501305015391608
 30
0.0
 10
0.8621705218167434
 20
0.2486413065137754
 30
0.0
 10
0.879196904482125
 20
0.248306602346247
 30
0.0
  0
SPLINE
  5
118
330
2
100
AcDbEntity
  8
0
  6
Continuous
100
AcDbSpline
210
0.0
220
0.0
230
1.0
 70
     8
 71
     3
 72
    14
 73
    10
 74
     0
 42
0.000000001
 43
0.0000000001
 40
0.0
 40
0.0
 40
0.0
 40
0.0
 40
0.2499999999999998
 40
0.2499999999999998
 40
0.4999999999999998
 40
0.4999999999999998
 40
0.7499999999999999
 40
0.7499999999999999
 40
1.0
 40
1.0
 40
1.0
 40
1.0
 10
0.8831316107814792
 20
0.1842270595498121
 30
0.0
 10
0.8840994676835194
 20
0.1884591604213028
 30
0.0
 10
0.884711208232094
 20
0.1934410776679556
 30
0.0
 10
0.8852528899230946
 20
0.2043344423651661
 30
0.0
 10
0.8851756839913313
 20
0.2102051046483666
 30
0.0
 10
0.8844095843404922
 20
0.2218743305883208
 30
0.0
 10
0.8837134421132901
 20
0.227758001165455
 30
0.0
 10
0.881831266027909
 20
0.2386487157077113
 30
0.0
 10
0.880605159309205
 20
0.2438589191352776
 30
0.0
 10
0.879196904482125
 20
0.248306602346247
 30
0.0
  0
SPLINE
  5
119
330
2
100
AcDbEntity
  8
0
  6
Continuous
100
AcDbSpline
210
0.0
220
0.0
230
1.0
 70
     8
 71
     3
 72
     8
 73
     4
 74
     0
 42
0.000000001
 43
0.0000000001
 40
0.0
 40
0.0
 40
0.0
 40
0.0
 40
0.0000116577275368
 40
0.0000116577275368
 40
0.0000116577275368
 40
0.0000116577275368
 10
0.8830456419534122
 20
0.1838428146332944
 30
0.0
 10
0.8830735196699031
 20
0.1839702708917912
 30
0.0
 10
0.8831021777395555
 20
0.184098359116831
 30
0.0
 10
0.8831316107814792
 20
0.1842270595498121
 30
0.0
  0
SPLINE
  5
11A
330
2
100
AcDbEntity
  8
0
  6
Continuous
100
AcDbSpline
210
0.0
220
0.0
230
1.0
 70
     8
 71
     3
 72
    10
 73
     6
 74
     0
 42
0.000000001
 43
0.0000000001
 40
0.0
 40
0.0
 40
0.0
 40
0.0
 40
0.5
 40
0.5
 40
1.0
 40
1.0
 40
1.0
 40
1.0
 10
0.8830456419534122
 20
0.1838428146332944
 30
0.0
 10
0.8677796521632039
 20
0.1859115535510796
 30
0.0
 10
0.8529059551888735
 20
0.1889772624259081
 30
0.0
 10
0.8239817313806199
 20
0.1972363192290345
 30
0.0
 10
0.8099735814271014
 20
0.2024317223587673
 30
0.0
 10
0.7969457181265121
 20
0.2087988238849334
 30
0.0
  0
SPLINE
  5
11B
330
2
100
AcDbEntity
  8
0
  6
Continuous
100
AcDbSpline
210
0.0
220
0.0
230
1.0
 70
     8
 71
     3
 72
    12
 73
     8
 74
     0
 42
0.000000001
 43
0.0000000001
 40
0.0
 40
0.0
 40
0.0
 40
0.0
 40
0.5000000000000031
 40
0.5000000000000031
 40
0.7500000000000016
 40
0.7500000000000016
 40
1.0
 40
1.0
 40
1.0
 40
1.0
 10
0.7969457181265121
 20
0.2087988238849334
 30
0.0
 10
0.8023723264771973
 20
0.2147725740175019
 30
0.0
 10
0.8084866364571006
 20
0.222305663641805
 30
0.0
 10
0.8172205376959453
 20
0.2341667740989806
 30
0.0
 10
0.8199867605355066
 20
0.2381128291076493
 30
0.0
 10
0.8251494300095245
 20
0.2458752705258576
 30
0.0
 10
0.8275248704784488
 20
0.249667746761645
 30
0.0
 10
0.8295549422323524
 20
0.2531392763394251
 30
0.0
  0
SPLINE
  5
11C
330
2
100
AcDbEntity
  8
0
  6
Continuous
100
AcDbSpline
210
0.0
220
0.0
230
1.0
 70
     8
 71
     3
 72
     8
 73
     4
 74
     0
 42
0.000000001
 43
0.0000000001
 40
0.0
 40
0.0
 40
0.0
 40
0.0
 40
1.0
 40
1.0
 40
1.0
 40
1.0
 10
0.7969457181265121
 20
0.2087988238849334
 30
0.0
 10
0.7946758996540631
 20
0.2063259152402566
 30
0.0
 10
0.7932977669768846
 20
0.2035256787517028
 30
0.0
 10
0.792706303176324
 20
0.2006004872391145
 30
0.0
  0
LWPOLYLINE
  5
11D
330
2
100
AcDbEntity
  8
0
  6
Continuous
100
AcDbPolyline
 90
        9
 70
   128
 43
0.0
 10
0.4919207532397749
 20
0.0610049789128766
 10
0.5407206727196368
 20
0.0343471484473526
 10
0.6091039701852666
 20
0.0092516448485185
 10
0.6741492581144542
 20
-0.0000009134432162
 10
0.7337513565740892
 20
0.0068888776110043
 10
0.7859812858964688
 20
0.0296980397512243
 10
0.8291486008284714
 20
0.0676883758569602
 10
0.8618562562025964
 20
0.1196303308104234
 10
0.8830456315618668
 20
0.1838428051804044
  0
SPLINE
  5
11E
330
2
100
AcDbEntity
  8
0
  6
Continuous
100
AcDbSpline
210
0.0
220
0.0
230
1.0
 70
     8
 71
     3
 72
     8
 73
     4
 74
     0
 42
0.000000001
 43
0.0000000001
 40
0.0
 40
0.0
 40
0.0
 40
0.0
 40
1.0
 40
1.0
 40
1.0
 40
1.0
 10
0.1283962218675931
 20
0.5840985341931742
 30
0.0
 10
0.1278053742902614
 20
0.5877028561542375
 30
0.0
 10
0.1272551419925207
 20
0.5916230954942421
 30
0.0
 10
0.1267706259974552
 20
0.5956826695168616
 30
0.0
  0
LWPOLYLINE
  5
11F
330
2
100
AcDbEntity
  8
0
  6
Continuous
100
AcDbPolyline
 90
       14
 70
   128
 43
0.0
 10
0.7927063270493627
 20
0.2006004982812897
 10
0.7729604862065074
 20
0.1392146656135651
 10
0.7413784008223488
 20
0.0904577485429172
 10
0.6991565878749562
 20
0.0561770301915772
 10
0.6478947262504527
 20
0.0376713173695293
 10
0.5895349932894618
 20
0.0356416641753867
 10
0.5262884248585067
 20
0.0501650647688052
 10
0.4605512818392299
 20
0.0806911992966661
 10
0.3948141388199566
 20
0.1260635545565947
 10
0.3315675703890015
 20
0.1845630875349116
 10
0.2732078374280107
 20
0.2539734541676353
 10
0.2219459758035072
 20
0.3316648526180757
 10
0.1797241628561146
 20
0.4146938385626413
 10
0.1541446190185347
 20
0.4810369936755024
  0
ARC
  5
120
330
2
100
AcDbEntity
  8
0
  6
Continuous
100
AcDbCircle
 10
0.804250280969633
 20
0.2226781146903249
 30
0.0
 40
0.015684112313815
100
AcDbArc
 50
218.8747174387015
 51
242.2425333613018
  0
SPLINE
  5
121
330
2
100
AcDbEntity
  8
0
  6
Continuous
100
AcDbSpline
210
0.0
220
0.0
230
1.0
 70
     8
 71
     3
 72
     9
 73
     5
 74
     0
 42
0.000000001
 43
0.0000000001
 40
0.0
 40
0.0
 40
0.0
 40
0.0
 40
0.1889171254513401
 40
1.0
 40
1.0
 40
1.0
 40
1.0
 10
1.431275679051083
 20
0.5544899511203312
 30
0.0
 10
1.415861792266433
 20
0.5455802390661689
 30
0.0
 10
1.334271059039743
 20
0.4984182253900827
 30
0.0
 10
1.252655296286281
 20
0.4512699119759418
 30
0.0
 10
1.186458148823728
 20
0.4130287224018617
 30
0.0
  0
SPLINE
  5
122
330
2
100
AcDbEntity
  8
0
  6
Continuous
100
AcDbSpline
210
0.0
220
0.0
230
1.0
 70
     8
 71
     3
 72
    14
 73
    10
 74
     0
 42
0.000000001
 43
0.0000000001
 40
0.0
 40
0.0
 40
0.0
 40
0.0
 40
0.25
 40
0.25
 40
0.5
 40
0.5
 40
0.75
 40
0.75
 40
1.0
 40
1.0
 40
1.0
 40
1.0
 10
1.18645815677705
 20
0.4130287195516758
 30
0.0
 10
1.181808148595603
 20
0.4103428545661246
 30
0.0
 10
1.179370754579085
 20
0.4057415898089971
 30
0.0
 10
1.176059527567499
 20
0.3954947842082674
 30
0.0
 10
1.175118938809553
 20
0.3897822771774599
 30
0.0
 10
1.173572755711582
 20
0.3776228577100937
 30
0.0
 10
1.173014999523324
 20
0.3711416638035985
 30
0.0
 10
1.172047378849498
 20
0.3583441997885757
 30
0.0
 10
1.171655819136969
 20
0.3521966227360735
 30
0.0
 10
1.171263076193774
 20
0.3471379732292803
 30
0.0
  0
SPLINE
  5
123
330
2
100
AcDbEntity
  8
0
  6
Continuous
100
AcDbSpline
210
0.0
220
0.0
230
1.0
 70
     8
 71
     3
 72
     8
 73
     4
 74
     0
 42
0.000000001
 43
0.0000000001
 40
0.0
 40
0.0
 40
0.0
 40
0.0
 40
0.0001274985290532
 40
0.0001274985290532
 40
0.0001274985290532
 40
0.0001274985290532
 10
1.171263076193767
 20
0.3471379732292803
 30
0.0
 10
1.171144026793129
 20
0.3456045804534824
 30
0.0
 10
1.170935918266639
 20
0.3441281550144026
 30
0.0
 10
1.170641284707901
 20
0.3427266438230845
 30
0.0
  0
SPLINE
  5
124
330
2
100
AcDbEntity
  8
0
  6
Continuous
100
AcDbSpline
210
0.0
220
0.0
230
1.0
 70
     8
 71
     3
 72
    14
 73
    10
 74
     0
 42
0.000000001
 43
0.0000000001
 40
0.0
 40
0.0
 40
0.0
 40
0.0
 40
0.005660293087107
 40
0.005660293087107
 40
0.005660293087107
 40
0.008191005138308
 40
0.008191005138308
 40
0.008191005138308
 40
0.0084188826460441
 40
0.0084188826460441
 40
0.0084188826460441
 40
0.0084188826460441
 10
1.170641284707901
 20
0.3427266438230845
 30
0.0
 10
1.107667525113861
 20
0.307389627945156
 30
0.0
 10
1.044696650248297
 20
0.2720726879531981
 30
0.0
 10
0.9817287130490441
 20
0.236774933403467
 30
0.0
 10
0.9535758027749565
 20
0.2209933378658775
 30
0.0
 10
0.9254234788408446
 20
0.2052155783445073
 30
0.0
 10
0.8972717456705083
 20
0.1894415815148136
 30
0.0
 10
0.894736827940342
 20
0.188021214818491
 30
0.0
 10
0.8922019149978517
 20
0.186600878631566
 30
0.0
 10
0.8896670068461816
 20
0.1851805729019134
 30
0.0
  0
SPLINE
  5
125
330
2
100
AcDbEntity
  8
0
  6
Continuous
100
AcDbSpline
210
0.0
220
0.0
230
1.0
 70
     8
 71
     3
 72
    14
 73
    10
 74
     0
 42
0.000000001
 43
0.0000000001
 40
0.0
 40
0.0
 40
0.0
 40
0.0
 40
0.25
 40
0.25
 40
0.5
 40
0.5
 40
0.75
 40
0.75
 40
1.0
 40
1.0
 40
1.0
 40
1.0
 10
0.8896670068461816
 20
0.1851805729019134
 30
0.0
 10
0.8906219769290579
 20
0.1893937554891636
 30
0.0
 10
0.8910634510733963
 20
0.1943329591662177
 30
0.0
 10
0.8909520617081767
 20
0.2051061523882254
 30
0.0
 10
0.8903916296391365
 20
0.2108984127184499
 30
0.0
 10
0.8884241279311986
 20
0.2223870661445062
 30
0.0
 10
0.8870020264116647
 20
0.2281634916043913
 30
0.0
 10
0.8835493711536557
 20
0.2388621940389726
 30
0.0
 10
0.8814528548925864
 20
0.2439664584326806
 30
0.0
 10
0.879196904482125
 20
0.248306602346247
 30
0.0
  0
ARC
  5
126
330
2
100
AcDbEntity
  8
0
  6
Continuous
100
AcDbCircle
 10
0.8849157014469035
 20
0.1948726442045654
 30
0.0
 40
0.010794045786879
100
AcDbArc
 50
260.4862883445944
 51
296.1153032600069
  0
ARC
  5
127
330
2
100
AcDbEntity
  8
0
  6
Continuous
100
AcDbCircle
 10
0.7941291461216729
 20
0.2130174697067559
 30
0.0
 40
0.0124982236118539
100
AcDbArc
 50
231.8656133428962
 51
263.4631791885018
  0
SPLINE
  5
128
330
2
100
AcDbEntity
  8
0
  6
Continuous
100
AcDbSpline
210
0.0
220
0.0
230
1.0
 70
     8
 71
     3
 72
     8
 73
     4
 74
     0
 42
0.000000001
 43
0.0000000001
 40
0.0
 40
0.0
 40
0.0
 40
0.0
 40
0.0000094862159459
 40
0.0000094862159459
 40
0.0000094862159459
 40
0.0000094862159459
 10
0.8896670068461816
 20
0.1851805729019134
 30
0.0
 10
0.8896428842951884
 20
0.1850758887906636
 30
0.0
 10
0.8896195309196244
 20
0.1849716730907858
 30
0.0
 10
0.8895969509006285
 20
0.1848679444624963
 30
0.0
  0
ARC
  5
129
330
2
100
AcDbEntity
  8
0
  6
Continuous
100
AcDbCircle
 10
0.9428210750240531
 20
0.3745360388307404
 30
0.0
 40
0.2300301751184733
100
AcDbArc
 50
300.8873234273967
 51
352.0514629705197
  0
ARC
  5
12A
330
2
100
AcDbEntity
  8
0
  6
Continuous
100
AcDbCircle
 10
0.6809969918536006
 20
0.210120369503386
 30
0.0
 40
0.2101228870487969
100
AcDbArc
 50
270.995046349601
 51
353.0975516524093
  0
ARC
  5
12B
330
2
100
AcDbEntity
  8
0
  6
Continuous
100
AcDbCircle
 10
0.8847353355470524
 20
0.1944905763954807
 30
0.0
 40
0.0107810079018775
100
AcDbArc
 50
260.9828738123016
 51
296.8041793264033
  0
SPLINE
  5
12C
330
2
100
AcDbEntity
  8
0
  6
Continuous
100
AcDbSpline
210
0.0
220
0.0
230
1.0
 70
     8
 71
     3
 72
    10
 73
     6
 74
     0
 42
0.000000001
 43
0.0000000001
 40
0.0
 40
0.0
 40
0.0
 40
0.0
 40
0.5
 40
0.5
 40
1.0
 40
1.0
 40
1.0
 40
1.0
 10
1.513532721536261
 20
0.6865823461308765
 30
0.0
 10
1.515047757211132
 20
0.6897604234450796
 30
0.0
 10
1.516911427939653
 20
0.6940509816278109
 30
0.0
 10
1.51987746844528
 20
0.703321901476329
 30
0.0
 10
1.521081898390285
 20
0.7084595077291738
 30
0.0
 10
1.521739154311021
 20
0.7136880055519442
 30
0.0
  0
SPLINE
  5
12D
330
2
100
AcDbEntity
  8
0
  6
Continuous
100
AcDbSpline
210
0.0
220
0.0
230
1.0
 70
     8
 71
     3
 72
    10
 73
     6
 74
     0
 42
0.000000001
 43
0.0000000001
 40
0.0
 40
0.0
 40
0.0
 40
0.0
 40
0.0353885938087144
 40
0.8924867276855842
 40
1.0
 40
1.0
 40
1.0
 40
1.0
 10
1.513532703830161
 20
0.6865823491552306
 30
0.0
 10
1.513471918935842
 20
0.6864575095482337
 30
0.0
 10
1.511938947275069
 20
0.6833091026651346
 30
0.0
 10
1.509850238653427
 20
0.6798243643146407
 30
0.0
 10
1.50649926930323
 20
0.6789646204416613
 30
0.0
 10
1.506125778301623
 20
0.6788687954528996
 30
0.0
  0
SPLINE
  5
12E
330
2
100
AcDbEntity
  8
0
  6
Continuous
100
AcDbSpline
210
0.0
220
0.0
230
1.0
 70
     8
 71
     3
 72
    14
 73
    10
 74
     0
 42
0.000000001
 43
0.0000000001
 40
0.0
 40
0.0
 40
0.0
 40
0.0
 40
0.25
 40
0.25
 40
0.5
 40
0.5
 40
0.75
 40
0.75
 40
1.0
 40
1.0
 40
1.0
 40
1.0
 10
1.250459693726355
 20
0.566119282973375
 30
0.0
 10
1.251484441757117
 20
0.5610478554644942
 30
0.0
 10
1.251211580775191
 20
0.5559510517828699
 30
0.0
 10
1.248404623897695
 20
0.5464465658814675
 30
0.0
 10
1.245869509703361
 20
0.5420398101032334
 30
0.0
 10
1.239367981959752
 20
0.5344482869533067
 30
0.0
 10
1.235329696703384
 20
0.5311666815877061
 30
0.0
 10
1.226511689236051
 20
0.5258553605916632
 30
0.0
 10
1.221633181753308
 20
0.5237461744295615
 30
0.0
 10
1.216474414548848
 20
0.5221884356317901
 30
0.0
  0
SPLINE
  5
12F
330
2
100
AcDbEntity
  8
0
  6
Continuous
100
AcDbSpline
210
0.0
220
0.0
230
1.0
 70
     8
 71
     3
 72
    10
 73
     6
 74
     0
 42
0.000000001
 43
0.0000000001
 40
0.0
 40
0.0
 40
0.0
 40
0.0
 40
0.5
 40
0.5
 40
1.0
 40
1.0
 40
1.0
 40
1.0
 10
1.216471882555001
 20
0.5221654569298835
 30
0.0
 10
1.216403739577547
 20
0.5217039398103794
 30
0.0
 10
1.216327838575811
 20
0.5220416466158895
 30
0.0
 10
1.216187882301198
 20
0.5240219092908092
 30
0.0
 10
1.216125563948018
 20
0.5256352299833225
 30
0.0
 10
1.216080044702323
 20
0.5275265731760897
 30
0.0
  0
SPLINE
  5
130
330
2
100
AcDbEntity
  8
0
  6
Continuous
100
AcDbSpline
210
0.0
220
0.0
230
1.0
 70
     8
 71
     3
 72
     8
 73
     4
 74
     0
 42
0.000000001
 43
0.0000000001
 40
0.0
 40
0.0
 40
0.0
 40
0.0
 40
0.0000022848724115
 40
0.0000022848724115
 40
0.0000022848724115
 40
0.0000022848724115
 10
1.216474414548848
 20
0.5221884356317901
 30
0.0
 10
1.216473840927768
 20
0.522180663013728
 30
0.0
 10
1.216472996678682
 20
0.5221730026399314
 30
0.0
 10
1.216471882555001
 20
0.5221654569298835
 30
0.0
  0
SPLINE
  5
131
330
2
100
AcDbEntity
  8
0
  6
Continuous
100
AcDbSpline
210
0.0
220
0.0
230
1.0
 70
     8
 71
     3
 72
    10
 73
     6
 74
     0
 42
0.000000001
 43
0.0000000001
 40
0.0
 40
0.0
 40
0.0
 40
0.0
 40
0.5
 40
0.5
 40
1.0
 40
1.0
 40
1.0
 40
1.0
 10
1.216471882555001
 20
0.5221654569298835
 30
0.0
 10
1.20751784854745
 20
0.5247274821750239
 30
0.0
 10
1.199277314319608
 20
0.5287863506476925
 30
0.0
 10
1.185851541392388
 20
0.5403189785656082
 30
0.0
 10
1.180852982097484
 20
0.5477620406867914
 30
0.0
 10
1.179372563199247
 20
0.5562944050868169
 30
0.0
  0
LINE
  5
132
330
2
100
AcDbEntity
  8
0
  6
Continuous
100
AcDbLine
 10
1.221036393743709
 20
0.3944559821388225
 30
0.0
 11
1.488574808094007
 21
0.5458293415915705
 31
0.0
  0
SPLINE
  5
133
330
2
100
AcDbEntity
  8
0
  6
Continuous
100
AcDbSpline
210
0.0
220
0.0
230
1.0
 70
     8
 71
     3
 72
    12
 73
     8
 74
     0
 42
0.000000001
 43
0.0000000001
 40
0.0
 40
0.0
 40
0.0
 40
0.0
 40
0.2499999999999999
 40
0.2499999999999999
 40
0.4999999999999999
 40
0.4999999999999999
 40
1.0
 40
1.0
 40
1.0
 40
1.0
 10
1.488574801231372
 20
0.545829354407033
 30
0.0
 10
1.491683182313863
 20
0.544159774420848
 30
0.0
 10
1.494732797186053
 20
0.5420203454538637
 30
0.0
 10
1.500717224028591
 20
0.5368236126708439
 30
0.0
 10
1.503602114368966
 20
0.5337941688102888
 30
0.0
 10
1.511556240709673
 20
0.5238325263123898
 30
0.0
 10
1.516002312717766
 20
0.5158571727972685
 30
0.0
 10
1.51882193186865
 20
0.5079301350097581
 30
0.0
  0
SPLINE
  5
134
330
2
100
AcDbEntity
  8
0
  6
Continuous
100
AcDbSpline
210
0.0
220
0.0
230
1.0
 70
     8
 71
     3
 72
    10
 73
     6
 74
     0
 42
0.000000001
 43
0.0000000001
 40
0.0
 40
0.0
 40
0.0
 40
0.0
 40
0.5
 40
0.5
 40
1.0
 40
1.0
 40
1.0
 40
1.0
 10
1.518821931868647
 20
0.5079301350097581
 30
0.0
 10
1.520577153094649
 20
0.5029955306396233
 30
0.0
 10
1.522692114850951
 20
0.4987983004896251
 30
0.0
 10
1.526149260373795
 20
0.4914813004587586
 30
0.0
 10
1.527600191976492
 20
0.4882928876224355
 30
0.0
 10
1.528492776037051
 20
0.4855727712148337
 30
0.0
  0
SPLINE
  5
135
330
2
100
AcDbEntity
  8
0
  6
Continuous
100
AcDbSpline
210
0.0
220
0.0
230
1.0
 70
     8
 71
     3
 72
    14
 73
    10
 74
     0
 42
0.000000001
 43
0.0000000001
 40
0.0
 40
0.0
 40
0.0
 40
0.0
 40
0.25
 40
0.25
 40
0.5
 40
0.5
 40
0.75
 40
0.75
 40
1.0
 40
1.0
 40
1.0
 40
1.0
 10
1.220895780133112
 20
0.3728491792655859
 30
0.0
 10
1.226156724364969
 20
0.3709557125480956
 30
0.0
 10
1.231167044362752
 20
0.3686127034325182
 30
0.0
 10
1.2403056550997
 20
0.363095095456174
 30
0.0
 10
1.244537419589761
 20
0.35984160564999
 30
0.0
 10
1.251476381926487
 20
0.3526580201598222
 30
0.0
 10
1.254260975549339
 20
0.3486381774983442
 30
0.0
 10
1.257595543835492
 20
0.3403216771189932
 30
0.0
 10
1.258146462101482
 20
0.3360266159485832
 30
0.0
 10
1.257393042753655
 20
0.3319334487256924
 30
0.0
  0
SPLINE
  5
136
330
2
100
AcDbEntity
  8
0
  6
Continuous
100
AcDbSpline
210
0.0
220
0.0
230
1.0
 70
     8
 71
     3
 72
    10
 73
     6
 74
     0
 42
0.000000001
 43
0.0000000001
 40
0.0
 40
0.0
 40
0.0
 40
0.0
 40
0.5
 40
0.5
 40
1.0
 40
1.0
 40
1.0
 40
1.0
 10
1.221036390573978
 20
0.3944559880966381
 30
0.0
 10
1.220984369237825
 20
0.3915561589631125
 30
0.0
 10
1.220945307740308
 20
0.3882483691619995
 30
0.0
 10
1.220897543439363
 20
0.3810643474982385
 30
0.0
 10
1.220888060533397
 20
0.3771318722460819
 30
0.0
 10
1.220895780133115
 20
0.3728491792655859
 30
0.0
  0
LINE
  5
137
330
2
100
AcDbEntity
  8
0
  6
Continuous
100
AcDbLine
 10
1.185795977029034
 20
0.3393320233928421
 30
0.0
 11
1.17126307600645
 21
0.3471379634511322
 31
0.0
  0
LINE
  5
138
330
2
100
AcDbEntity
  8
0
  6
Continuous
100
AcDbLine
 10
1.186458148822239
 20
0.4130287223998153
 30
0.0
 11
1.221036393743709
 21
0.3944559821388225
 31
0.0
  0
SPLINE
  5
139
330
2
100
AcDbEntity
  8
0
  6
Continuous
100
AcDbSpline
210
0.0
220
0.0
230
1.0
 70
     8
 71
     3
 72
     8
 73
     4
 74
     0
 42
0.000000001
 43
0.0000000001
 40
0.0
 40
0.0
 40
0.0
 40
0.0
 40
0.0000022848724115
 40
0.0000022848724115
 40
0.0000022848724115
 40
0.0000022848724115
 10
1.220895141767677
 20
0.3727622399945858
 30
0.0
 10
1.220895619230695
 20
0.3727912900176307
 30
0.0
 10
1.220895832239438
 20
0.3728202716238798
 30
0.0
 10
1.220895780133105
 20
0.3728491792655859
 30
0.0
  0
SPLINE
  5
13A
330
2
100
AcDbEntity
  8
0
  6
Continuous
100
AcDbSpline
210
0.0
220
0.0
230
1.0
 70
     8
 71
     3
 72
    10
 73
     6
 74
     0
 42
0.000000001
 43
0.0000000001
 40
0.0
 40
0.0
 40
0.0
 40
0.0
 40
0.5
 40
0.5
 40
1.0
 40
1.0
 40
1.0
 40
1.0
 10
1.185795991489939
 20
0.3393320241273159
 30
0.0
 10
1.186810869423197
 20
0.3465241096043883
 30
0.0
 10
1.191386283257809
 20
0.353373515991052
 30
0.0
 10
1.204131229579729
 20
0.3648369821561914
 30
0.0
 10
1.212116795125879
 20
0.3693901211261732
 30
0.0
 10
1.220895141767677
 20
0.3727622399945858
 30
0.0
  0
ARC
  5
13B
330
2
100
AcDbEntity
  8
0
  6
Continuous
100
AcDbCircle
 10
0.9664167793335138
 20
0.3566541603615292
 30
0.0
 40
0.2265564855918344
100
AcDbArc
 50
272.3228827790003
 51
354.9726964425128
  0
SPLINE
  5
13C
330
2
100
AcDbEntity
  8
0
  6
Continuous
100
AcDbSpline
210
0.0
220
0.0
230
1.0
 70
     8
 71
     3
 72
    12
 73
     8
 74
     0
 42
0.000000001
 43
0.0000000001
 40
0.0
 40
0.0
 40
0.0
 40
0.0
 40
0.2500000000000005
 40
0.2500000000000005
 40
0.500000000000001
 40
0.500000000000001
 40
1.0
 40
1.0
 40
1.0
 40
1.0
 10
1.22101403346641
 20
0.3608725838359987
 30
0.0
 10
1.217530218388759
 20
0.3597234444148967
 30
0.0
 10
1.214217408607293
 20
0.3583758685355178
 30
0.0
 10
1.207976092436975
 20
0.3552423360752073
 30
0.0
 10
1.205014197751403
 20
0.3534322653219419
 30
0.0
 10
1.197160497775964
 20
0.3473622562502214
 30
0.0
 10
1.193154455496753
 20
0.3423745822763635
 30
0.0
 10
1.192101705139087
 20
0.3368009059888095
 30
0.0
  0
SPLINE
  5
13D
330
2
100
AcDbEntity
  8
0
  6
Continuous
100
AcDbSpline
210
0.0
220
0.0
230
1.0
 70
     8
 71
     3
 72
    14
 73
    10
 74
     0
 42
0.000000001
 43
0.0000000001
 40
0.0
 40
0.0
 40
0.0
 40
0.0
 40
0.25
 40
0.25
 40
0.5
 40
0.5
 40
0.75
 40
0.75
 40
1.0
 40
1.0
 40
1.0
 40
1.0
 10
1.25083038134311
 20
0.3308520800787846
 30
0.0
 10
1.251439146332067
 20
0.3341182702827723
 30
0.0
 10
1.250916139044385
 20
0.3374645010307518
 30
0.0
 10
1.24802555442131
 20
0.3437746440633873
 30
0.0
 10
1.245665201488392
 20
0.3467348581686451
 30
0.0
 10
1.239934207269378
 20
0.3519047371096349
 30
0.0
 10
1.236490824309697
 20
0.3541893161497001
 30
0.0
 10
1.229135486599734
 20
0.3580136686944684
 30
0.0
 10
1.225189937853567
 20
0.3595896186137679
 30
0.0
 10
1.22101403346641
 20
0.3608725838359987
 30
0.0
  0
ARC
  5
13E
330
2
100
AcDbEntity
  8
0
  6
Continuous
100
AcDbCircle
 10
1.007109326907588
 20
0.3533006498112741
 30
0.0
 40
0.2447527333790359
100
AcDbArc
 50
256.2258099437924
 51
354.7374707120209
  0
SPLINE
  5
13F
330
2
100
AcDbEntity
  8
0
  6
Continuous
100
AcDbSpline
210
0.0
220
0.0
230
1.0
 70
     8
 71
     3
 72
    10
 73
     6
 74
     0
 42
0.000000001
 43
0.0000000001
 40
0.0
 40
0.0
 40
0.0
 40
0.0
 40
0.5
 40
0.5
 40
1.0
 40
1.0
 40
1.0
 40
1.0
 10
1.220895141767677
 20
0.3727622399945858
 30
0.0
 10
1.220865938769428
 20
0.3709854578451086
 30
0.0
 10
1.220864425003927
 20
0.3688106073128097
 30
0.0
 10
1.220909729950207
 20
0.3645333523871272
 30
0.0
 10
1.220955716200979
 20
0.3624884980869751
 30
0.0
 10
1.22101403346641
 20
0.3608725838359987
 30
0.0
  0
ARC
  5
140
330
2
100
AcDbEntity
  8
0
  6
Continuous
100
AcDbCircle
 10
1.252396028008927
 20
0.3418049777641841
 30
0.0
 40
0.0110642269280845
100
AcDbArc
 50
261.865145980998
 51
296.8487645173908
  0
ARC
  5
141
330
2
100
AcDbEntity
  8
0
  6
Continuous
100
AcDbCircle
 10
1.19344318025379
 20
0.3492631673724986
 30
0.0
 40
0.0125342466021642
100
AcDbArc
 50
232.4029234947853
 51
263.8562043724021
  0
LINE
  5
142
330
2
100
AcDbEntity
  8
0
  6
Continuous
100
AcDbLine
 10
1.488574808094007
 20
0.5458293415915705
 30
0.0
 11
1.480588802648384
 21
0.5501188027685089
 31
0.0
  0
ARC
  5
143
330
2
100
AcDbEntity
  8
0
  6
Continuous
100
AcDbCircle
 10
0.9621529145544371
 20
0.3589605302103109
 30
0.0
 40
0.2245027787655288
100
AcDbArc
 50
275.9429558506968
 51
354.9841673676795
  0
ARC
  5
144
330
2
100
AcDbEntity
  8
0
  6
Continuous
100
AcDbCircle
 10
0.9053697770872055
 20
0.5791725026858217
 30
0.0
 40
0.6175751133143296
100
AcDbArc
 50
353.3757122265736
 51
10.01592634538758
  0
SPLINE
  5
145
330
2
100
AcDbEntity
  8
0
  6
Continuous
100
AcDbSpline
210
0.0
220
0.0
230
1.0
 70
     8
 71
     3
 72
     8
 73
     4
 74
     0
 42
0.000000001
 43
0.0000000001
 40
0.0
 40
0.0
 40
0.0
 40
0.0
 40
1.0
 40
1.0
 40
1.0
 40
1.0
 10
0.1365653788417873
 20
0.762677302117254
 30
0.0
 10
0.1353893314096481
 20
0.7595061508304184
 30
0.0
 10
0.1343588657011701
 20
0.7570940248161265
 30
0.0
 10
0.133551307975889
 20
0.7556398337051178
 30
0.0
  0
SPLINE
  5
146
330
2
100
AcDbEntity
  8
0
  6
Continuous
100
AcDbSpline
210
0.0
220
0.0
230
1.0
 70
     8
 71
     3
 72
    12
 73
     8
 74
     0
 42
0.000000001
 43
0.0000000001
 40
0.0
 40
0.0
 40
0.0
 40
0.0
 40
0.5000000000000036
 40
0.5000000000000036
 40
0.7500000000000018
 40
0.7500000000000018
 40
1.0
 40
1.0
 40
1.0
 40
1.0
 10
0.1286515860788562
 20
0.5958003654514528
 30
0.0
 10
0.1274484606193305
 20
0.6055805847565808
 30
0.0
 10
0.1293007729627043
 20
0.6154514017040356
 30
0.0
 10
0.1358507102778503
 20
0.6282363354267773
 30
0.0
 10
0.138595511890685
 20
0.6320622114301387
 30
0.0
 10
0.1450755330373319
 20
0.6387646354485242
 30
0.0
 10
0.1488429168617209
 20
0.6416301620089371
 30
0.0
 10
0.1528274908777121
 20
0.6438057184374202
 30
0.0
  0
LINE
  5
147
330
2
100
AcDbEntity
  8
0
  6
Continuous
100
AcDbLine
 10
0.1528275074444103
 20
0.6438057147438486
 30
0.0
 11
0.1588472593499262
 21
0.6465137935600751
 31
0.0
  0
LINE
  5
148
330
2
100
AcDbEntity
  8
0
  6
Continuous
100
AcDbLine
 10
0.1355437861094728
 20
0.8394418711301909
 30
0.0
 11
0.1352345488274622
 21
0.8326108039879045
 31
0.0
  0
SPLINE
  5
149
330
2
100
AcDbEntity
  8
0
  6
Continuous
100
AcDbSpline
210
0.0
220
0.0
230
1.0
 70
     8
 71
     3
 72
     8
 73
     4
 74
     0
 42
0.000000001
 43
0.0000000001
 40
0.0
 40
0.0
 40
0.0
 40
0.0
 40
0.0000116577275366
 40
0.0000116577275366
 40
0.0000116577275366
 40
0.0000116577275366
 10
0.1356496416699997
 20
0.8398002077415753
 30
0.0
 10
0.1356133265325852
 20
0.8396803486436965
 30
0.0
 10
0.1355780413921117
 20
0.8395608954933209
 30
0.0
 10
0.1355437916815987
 20
0.8394418661205804
 30
0.0
  0
LINE
  5
14A
330
2
100
AcDbEntity
  8
0
  6
Continuous
100
AcDbLine
 10
0.1318921070069692
 20
0.7599660997284446
 30
0.0
 11
0.13185603847921
 21
0.7615796365772667
 31
0.0
  0
ARC
  5
14B
330
2
100
AcDbEntity
  8
0
  6
Continuous
100
AcDbCircle
 10
0.1407760157024676
 20
0.7609136604420997
 30
0.0
 40
0.0089448039579701
100
AcDbArc
 50
175.7301508007329
 51
216.1284275277212
  0
ARC
  5
14C
330
2
100
AcDbEntity
  8
0
  6
Continuous
100
AcDbCircle
 10
0.1405164821561442
 20
0.8394105822500819
 30
0.0
 40
0.0049727944823425
100
AcDbArc
 50
163.9575696322325
 51
179.6394919249007
  0
LINE
  5
14D
330
2
100
AcDbEntity
  8
0
  6
Continuous
100
AcDbLine
 10
1.651845515676107
 20
0.5386183303982648
 30
0.0
 11
1.640273804196823
 21
0.5452985372453441
 31
0.0
  0
LWPOLYLINE
  5
14E
330
2
100
AcDbEntity
  8
0
  6
Continuous
100
AcDbPolyline
 90
        9
 70
   128
 43
0.0
 10
0.1267706201303405
 20
0.595682672097837
 10
0.1267660734222531
 20
0.5956679575164117
 10
0.1268323211152662
 20
0.5956616948556075
 10
0.1269689360074757
 20
0.5956639673176483
 10
0.1271748195558686
 20
0.5956747435928378
 10
0.1274483544864928
 20
0.5956939483468773
 10
0.127787465782923
 20
0.5957214445849673
 10
0.1281895902059311
 20
0.5957570160581441
 10
0.12865158471811
 20
0.5958003716555709
  0
SPLINE
  5
14F
330
2
100
AcDbEntity
  8
0
  6
Continuous
100
AcDbSpline
210
0.0
220
0.0
230
1.0
 70
     8
 71
     3
 72
    14
 73
    10
 74
     0
 42
0.000000001
 43
0.0000000001
 40
0.0
 40
0.0
 40
0.0
 40
0.0
 40
0.25
 40
0.25
 40
0.5
 40
0.5
 40
0.75
 40
0.75
 40
1.0
 40
1.0
 40
1.0
 40
1.0
 10
0.1288074867122084
 20
0.61968910730468
 30
0.0
 10
0.1279630260394029
 20
0.6249674368425531
 30
0.0
 10
0.1282567696676295
 20
0.6301329298037786
 30
0.0
 10
0.1309910186778467
 20
0.6397605523296761
 30
0.0
 10
0.1334379391382185
 20
0.6441740674629842
 30
0.0
 10
0.1399968314918745
 20
0.6516146655275748
 30
0.0
 10
0.1441613573528997
 20
0.6546923321448617
 30
0.0
 10
0.1534634653530382
 20
0.6591264969160875
 30
0.0
 10
0.158784927976054
 20
0.6605568690186488
 30
0.0
 10
0.1642185848354209
 20
0.6610548006858608
 30
0.0
  0
SPLINE
  5
150
330
2
100
AcDbEntity
  8
0
  6
Continuous
100
AcDbSpline
210
0.0
220
0.0
230
1.0
 70
     8
 71
     3
 72
    11
 73
     7
 74
     0
 42
0.000000001
 43
0.0000000001
 40
0.0
 40
0.0
 40
0.0
 40
0.0
 40
0.5825552187610272
 40
0.8460807831620844
 40
0.9854941092394872
 40
1.0
 40
1.0
 40
1.0
 40
1.0
 10
0.1458953316273117
 20
0.6557524903960257
 30
0.0
 10
0.1491173767682028
 20
0.6574646877081137
 30
0.0
 10
0.1537969511474131
 20
0.6599514171992383
 30
0.0
 10
0.1602815922206275
 20
0.6608560320139532
 30
0.0
 10
0.163077456154749
 20
0.6610305531722247
 30
0.0
 10
0.1641203186077931
 20
0.6610527177365384
 30
0.0
 10
0.164218601649587
 20
0.6610548066033744
 30
0.0
  0
ARC
  5
151
330
2
100
AcDbEntity
  8
0
  6
Continuous
100
AcDbCircle
 10
1.647060036801558
 20
0.59780854662813
 30
0.0
 40
0.0114256739834119
100
AcDbArc
 50
355.0533829848039
 51
21.83479562828264
  0
LINE
  5
152
330
2
100
AcDbEntity
  8
0
  6
Continuous
100
AcDbLine
 10
1.647251353652354
 20
0.5412704814953031
 30
0.0
 11
1.64975952004395
 21
0.5508282004893204
 31
0.0
  0
LINE
  5
153
330
2
100
AcDbEntity
  8
0
  6
Continuous
100
AcDbLine
 10
1.653648757087619
 20
0.5681167555006255
 30
0.0
 11
1.658443155513495
 21
0.5968233388502995
 31
0.0
  0
ARC
  5
154
330
2
100
AcDbEntity
  8
0
  6
Continuous
100
AcDbCircle
 10
49.20351447611664
 20
28.05247866829586
 30
0.0
 40
0.0134173390078819
100
AcDbArc
 50
356.8560129968979
 51
39.64755006847319
  0
LINE
  5
155
330
2
100
AcDbEntity
  8
0
  6
Continuous
100
AcDbLine
 10
49.21691162013421
 20
28.05174278908453
 30
0.0
 11
1.658443155513495
 21
0.5968233388502995
 31
0.0
  0
ARC
  5
156
330
2
100
AcDbEntity
  8
0
  6
Continuous
100
AcDbCircle
 10
48.94270102680181
 20
28.06840329218369
 30
0.0
 40
0.2747162569960334
100
AcDbArc
 50
303.4470705867036
 51
356.5230938894218
  0
SPLINE
  5
157
330
2
100
AcDbEntity
  8
0
  6
Continuous
100
AcDbSpline
210
0.0
220
0.0
230
1.0
 70
     8
 71
     3
 72
    12
 73
     8
 74
     0
 42
0.000000001
 43
0.0000000001
 40
0.0
 40
0.0
 40
0.0
 40
0.0
 40
0.2491599782507497
 40
0.4988359204956206
 40
0.7355961699199354
 40
0.9596110559263188
 40
1.0
 40
1.0
 40
1.0
 40
1.0
 10
1.394116581419968
 20
0.6087760417599953
 30
0.0
 10
1.394871424389112
 20
0.6085826369774737
 30
0.0
 10
1.39638267346686
 20
0.608195426907173
 30
0.0
 10
1.39800891384305
 20
0.6102103198858231
 30
0.0
 10
1.398749174972408
 20
0.6139272888406709
 30
0.0
 10
1.398831238857972
 20
0.6174247163576183
 30
0.0
 10
1.398480500120275
 20
0.6195509071651486
 30
0.0
 10
1.398426923107955
 20
0.619875692935409
 30
0.0
  0
ARC
  5
158
330
2
100
AcDbEntity
  8
0
  6
Continuous
100
AcDbCircle
 10
1.4565906008539
 20
0.6281571653339029
 30
0.0
 40
0.0654112456350958
100
AcDbArc
 50
197.2352978739175
 51
205.1760109695806
  0
SPLINE
  5
159
330
2
100
AcDbEntity
  8
0
  6
Continuous
100
AcDbSpline
210
0.0
220
0.0
230
1.0
 70
     8
 71
     3
 72
    14
 73
    10
 74
     0
 42
0.000000001
 43
0.0000000001
 40
0.0
 40
0.0
 40
0.0
 40
0.0
 40
0.1507894545927946
 40
0.3018918624134963
 40
0.4451769555977001
 40
0.5807497113048552
 40
0.7138467596136868
 40
0.849905108256171
 40
1.0
 40
1.0
 40
1.0
 40
1.0
 10
1.41714410906075
 20
0.5757611160590841
 30
0.0
 10
1.416686551360573
 20
0.5771047031058743
 30
0.0
 10
1.415770486330409
 20
0.5797946657228295
 30
0.0
 10
1.41301554562154
 20
0.5848891998402906
 30
0.0
 10
1.409649482098849
 20
0.5899024451290416
 30
0.0
 10
1.406058684089078
 20
0.5942853315826824
 30
0.0
 10
1.402645172549377
 20
0.5976373218575759
 30
0.0
 10
1.399516301805945
 20
0.5999314070606375
 30
0.0
 10
1.398123593031765
 20
0.6001936441116982
 30
0.0
 10
1.397393080693657
 20
0.6003311943338759
 30
0.0
  0
ARC
  5
15A
330
2
100
AcDbEntity
  8
0
  6
Continuous
100
AcDbCircle
 10
1.439404119003803
 20
0.60675360132376
 30
0.0
 40
0.0381581208321149
100
AcDbArc
 50
234.3126204221899
 51
245.6927561106005
  0
SPLINE
  5
15B
330
2
100
AcDbEntity
  8
0
  6
Continuous
100
AcDbSpline
210
0.0
220
0.0
230
1.0
 70
     8
 71
     3
 72
    14
 73
    10
 74
     0
 42
0.000000001
 43
0.0000000001
 40
0.0
 40
0.0
 40
0.0
 40
0.0
 40
0.150789857449467
 40
0.3018919356623661
 40
0.4451778509146421
 40
0.5807499345741711
 40
0.7138465637193545
 40
0.8499057701953828
 40
1.0
 40
1.0
 40
1.0
 40
1.0
 10
1.443448135975227
 20
0.573744176840421
 30
0.0
 10
1.441756037134865
 20
0.5750055007312654
 30
0.0
 10
1.438368335847194
 20
0.5775307601708733
 30
0.0
 10
1.433018247185977
 20
0.5800324878980519
 30
0.0
 10
1.428375325476391
 20
0.5810850544257847
 30
0.0
 10
1.424913987614665
 20
0.5806266857489959
 30
0.0
 10
1.422884733952606
 20
0.5788543156297692
 30
0.0
 10
1.422246644371814
 20
0.5759375768806195
 30
0.0
 10
1.423198065024664
 20
0.5733404203872397
 30
0.0
 10
1.423697107608134
 20
0.5719781505203514
 30
0.0
  0
ARC
  5
15C
330
2
100
AcDbEntity
  8
0
  6
Continuous
100
AcDbCircle
 10
1.431873712696361
 20
0.5853613490241401
 30
0.0
 40
0.0163989622763774
100
AcDbArc
 50
314.8943872163851
 51
334.9043984114107
  0
SPLINE
  5
15D
330
2
100
AcDbEntity
  8
0
  6
Continuous
100
AcDbSpline
210
0.0
220
0.0
230
1.0
 70
     8
 71
     3
 72
    14
 73
    10
 74
     0
 42
0.000000001
 43
0.0000000001
 40
0.0
 40
0.0
 40
0.0
 40
0.0
 40
0.1507897318540188
 40
0.3018917635908595
 40
0.4451773016671689
 40
0.5807494732074183
 40
0.7138462122307578
 40
0.8499052650987993
 40
1.0
 40
1.0
 40
1.0
 40
1.0
 10
1.446724635248919
 20
0.6047421624967911
 30
0.0
 10
1.44501144625422
 20
0.6043835861353273
 30
0.0
 10
1.441581520087414
 20
0.603665690766718
 30
0.0
 10
1.438001933363405
 20
0.600504539561257
 30
0.0
 10
1.436243732581615
 20
0.5962659919740077
 30
0.0
 10
1.436421826586542
 20
0.5914528164302056
 30
0.0
 10
1.438328404192318
 20
0.5866300369557962
 30
0.0
 10
1.441765292544076
 20
0.5819653364661122
 30
0.0
 10
1.445018334390841
 20
0.5796306562239693
 30
0.0
 10
1.446724635248919
 20
0.5784060587278077
 30
0.0
  0
ARC
  5
15E
330
2
100
AcDbEntity
  8
0
  6
Continuous
100
AcDbCircle
 10
1.384246672336352
 20
0.5853595116226984
 30
0.0
 40
0.065415464565749
100
AcDbArc
 50
17.23555212268315
 51
25.17575294168674
  0
SPLINE
  5
15F
330
2
100
AcDbEntity
  8
0
  6
Continuous
100
AcDbSpline
210
0.0
220
0.0
230
1.0
 70
     8
 71
     3
 72
    14
 73
    10
 74
     0
 42
0.000000001
 43
0.0000000001
 40
0.0
 40
0.0
 40
0.0
 40
0.0
 40
0.0359466495194088
 40
0.2074833651145989
 40
0.3701455928914995
 40
0.5240524848279956
 40
0.675148888463402
 40
0.8296070635400402
 40
1.0
 40
1.0
 40
1.0
 40
1.0
 10
1.422814984924766
 20
0.6331783953077093
 30
0.0
 10
1.422727061455475
 20
0.6327754434826148
 30
0.0
 10
1.422219568892895
 20
0.6304496133489579
 30
0.0
 10
1.423054410176106
 20
0.6258133237715811
 30
0.0
 10
1.425368632118534
 20
0.6202692539602026
 30
0.0
 10
1.429078861221753
 20
0.6159363493149499
 30
0.0
 10
1.433531352778295
 20
0.6131890600611883
 30
0.0
 10
1.438553946545262
 20
0.6119868576156478
 30
0.0
 10
1.441764248380945
 20
0.6127740878325199
 30
0.0
 10
1.443448135975227
 20
0.6131870107487885
 30
0.0
  0
LWPOLYLINE
  5
160
330
2
100
AcDbEntity
  8
0
  6
Continuous
100
AcDbPolyline
 90
        3
 70
   128
 43
0.0
 10
1.430167288910418
 20
0.5561932272412378
 10
1.412802672762758
 20
0.5706315578235604
 10
1.40345396658791
 20
0.5818936080856929
  0
LWPOLYLINE
  5
161
330
2
100
AcDbEntity
  8
0
  6
Continuous
100
AcDbPolyline
 90
        7
 70
   128
 43
0.0
 10
1.487925360981819
 20
0.6677431518852473
 10
1.498590751519621
 20
0.6518933665379905
 10
1.511020234852281
 20
0.6232370093525788
 10
1.515384892933756
 20
0.5953788142282406
 10
1.511020234852281
 20
0.5725599482728399
 10
1.498590751519621
 20
0.5582543670715268
 10
1.496001110535665
 20
0.5569387978818554
  0
SPLINE
  5
162
330
2
100
AcDbEntity
  8
0
  6
Continuous
100
AcDbSpline
210
0.0
220
0.0
230
1.0
 70
     8
 71
     3
 72
    14
 73
    10
 74
     0
 42
0.000000001
 43
0.0000000001
 40
0.0
 40
0.0
 40
0.0
 40
0.0
 40
0.0092037982042118
 40
0.1714540487305564
 40
0.3344975789772574
 40
0.4821439426275763
 40
0.6905967495446649
 40
0.9030036909355303
 40
1.0
 40
1.0
 40
1.0
 40
1.0
 10
1.440653282766096
 20
0.602298116709676
 30
0.0
 10
1.440651165966823
 20
0.6023881539998684
 30
0.0
 10
1.44061173292
 20
0.6040654243602717
 30
0.0
 10
1.439235502836712
 20
0.6071653542776403
 30
0.0
 10
1.436417475374419
 20
0.6107530308947276
 30
0.0
 10
1.432078475545615
 20
0.6132384621284928
 30
0.0
 10
1.426817719756229
 20
0.6142731018833843
 30
0.0
 10
1.422055962408265
 20
0.6138057396995578
 30
0.0
 10
1.419452269128985
 20
0.612883577885043
 30
0.0
 10
1.418636024834029
 20
0.6125944849546272
 30
0.0
  0
ARC
  5
163
330
2
100
AcDbEntity
  8
0
  6
Continuous
100
AcDbCircle
 10
1.478188804974525
 20
0.6405723978699598
 30
0.0
 40
0.0657973953392785
100
AcDbArc
 50
198.3521436071782
 51
205.1641512212794
  0
LINE
  5
164
330
2
100
AcDbEntity
  8
0
  6
Continuous
100
AcDbLine
 10
1.418636024835176
 20
0.612594484952524
 30
0.0
 11
1.397393080692442
 21
0.6003311943325685
 31
0.0
  0
LINE
  5
165
330
2
100
AcDbEntity
  8
0
  6
Continuous
100
AcDbLine
 10
1.423753300667321
 20
0.5795765211615845
 30
0.0
 11
1.417144109062462
 21
0.5757611160568672
 31
0.0
  0
LWPOLYLINE
  5
166
330
2
100
AcDbEntity
  8
0
  6
Continuous
100
AcDbPolyline
 90
        3
 70
   128
 43
0.0
 10
49.38360308584695
 20
28.26557110270608
 10
49.37311181292185
 20
28.28926523821735
 10
49.37201825298826
 20
28.29112200555551
  0
LWPOLYLINE
  5
167
330
2
100
AcDbEntity
  8
0
  6
Continuous
100
AcDbPolyline
 90
       19
 70
   128
 43
0.0
 10
48.42058018906822
 20
28.86820451239407
 10
48.43641881963368
 20
28.88726303558758
 10
48.48195420737333
 20
28.92492958601668
 10
48.53575438403728
 20
28.94860061727025
 10
48.59643667693505
 20
28.95766784615478
 10
48.66244154943835
 20
28.951898233561
 10
48.73207268219025
 20
28.93144004024021
 10
48.8035405330246
 20
28.89681903406461
 10
48.87500838386358
 20
28.84892501604872
 10
48.94463951661085
 20
28.78898881473742
 10
49.01064438911415
 20
28.71855082366074
 10
49.07132668201655
 20
28.63942131071122
 10
49.12512685868051
 20
28.55363391766912
 10
49.17066224642014
 20
28.46339332762443
 10
49.20676260153366
 20
28.37101877396435
 10
49.23250015115873
 20
28.27888426292532
 10
49.24721339482474
 20
28.18935768561914
 10
49.25052422328263
 20
28.10473985892327
 10
49.24234756118796
 20
28.02720545972363
  0
LWPOLYLINE
  5
168
330
2
100
AcDbEntity
  8
0
  6
Continuous
100
AcDbPolyline
 90
        9
 70
   128
 43
0.0
 10
49.23591814769632
 20
28.02481271277748
 10
49.23703993384833
 20
28.02427681316067
 10
49.23812858089746
 20
28.02398015475171
 10
49.23915198723977
 20
28.02393147340922
 10
49.24007994319721
 20
28.02413218461038
 10
49.24088498542149
 20
28.02457642755928
 10
49.24154343440692
 20
28.02525101243725
 10
49.24203579117484
 20
28.026136081137
 10
49.24234756118796
 20
28.02720545972363
  0
LINE
  5
169
330
2
100
AcDbEntity
  8
0
  6
Continuous
100
AcDbLine
 10
49.23591814769632
 20
28.02481271277748
 30
0.0
 11
49.21470375017693
 21
28.03705952378346
 31
0.0
  0
LWPOLYLINE
  5
16A
330
2
100
AcDbEntity
  8
0
  6
Continuous
100
AcDbPolyline
 90
       17
 70
   128
 43
0.0
 10
48.55284699099461
 20
28.96596194333529
 10
48.60128363715357
 20
28.98642984987771
 10
48.66196593005597
 20
28.99549707876224
 10
48.72797080255928
 20
28.98972746616846
 10
48.79760193530653
 20
28.96926927284767
 10
48.86906978614552
 20
28.93464826667207
 10
48.94053763697987
 20
28.88675424865619
 10
49.01016876973177
 20
28.82681804734489
 10
49.07617364223508
 20
28.7563800562682
 10
49.13685593513284
 20
28.67725054331868
 10
49.19065611179679
 20
28.59146315027192
 10
49.23619149953644
 20
28.5012225602319
 10
49.27229185465458
 20
28.40884800657182
 10
49.29802940427967
 20
28.31671349553278
 10
49.31274264794104
 20
28.22718691822206
 10
49.31605347639892
 20
28.14256909153073
 10
49.30787681430425
 20
28.0650346923311
  0
LINE
  5
16B
330
2
100
AcDbEntity
  8
0
  6
Continuous
100
AcDbLine
 10
49.24234756118796
 20
28.02720545972363
 30
0.0
 11
49.30787681430425
 21
28.0650346923311
 31
0.0
  0
ARC
  5
16C
330
2
100
AcDbEntity
  8
0
  6
Continuous
100
AcDbCircle
 10
49.30396698938626
 20
28.06550592692929
 30
0.0
 40
0.0039381204830308
100
AcDbArc
 50
302.4615648197163
 51
353.1275324991899
  0
LWPOLYLINE
  5
16D
330
2
100
AcDbEntity
  8
0
  6
Continuous
100
AcDbPolyline
 90
       17
 70
   128
 43
0.0
 10
1.651115234781368
 20
0.5533718346801493
 10
1.65929189688067
 20
0.6309062338844456
 10
1.655981068422782
 20
0.7155240605757172
 10
1.641267824756774
 20
0.8050506378864952
 10
1.6155302751317
 20
0.8971851489209257
 10
1.579429920018188
 20
0.9895597025856091
 10
1.533894532278544
 20
1.079800292625634
 10
1.480094355614589
 20
1.165587685672392
 10
1.41941206271219
 20
1.244717198621913
 10
1.353407190208891
 20
1.315155189698543
 10
1.283776057461622
 20
1.375091391005184
 10
1.21230820662264
 20
1.422985409025784
 10
1.140840355788288
 20
1.457606415201325
 10
1.071209223036387
 20
1.478064608522174
 10
1.005204350533087
 20
1.483834221115898
 10
0.944522057635325
 20
1.474766992226705
 10
0.8960854114763527
 20
1.454299085689001
  0
ARC
  5
16E
330
2
100
AcDbEntity
  8
0
  6
Continuous
100
AcDbCircle
 10
1.647205409863371
 20
0.5538430692829479
 30
0.0
 40
0.0039381204830466
100
AcDbArc
 50
302.4615648197163
 51
353.1275324989766
  0
LWPOLYLINE
  5
16F
330
2
100
AcDbEntity
  8
0
  6
Continuous
100
AcDbPolyline
 90
       16
 70
   128
 43
0.0
 10
49.23498924577824
 20
28.07558657632603
 10
49.23697551704645
 20
28.1586390976272
 10
49.22672622671952
 20
28.2479506237188
 10
49.20453077744185
 20
28.34099993047323
 10
49.17101569968545
 20
28.43516031141064
 10
49.12712707521919
 20
28.52777371334742
 10
49.07410386713881
 20
28.61622576089553
 10
49.0134428583347
 20
28.69801944340429
 10
48.94685647998432
 20
28.77084588530829
 10
48.87622440743805
 20
28.83264918280031
 10
48.8035405330246
 20
28.88168467712319
 10
48.73085665861578
 20
28.91656819793082
 10
48.66022458606952
 20
28.93631495556065
 10
48.59363820771913
 20
28.94036750967996
 10
48.53297719891502
 20
28.92861153714341
 10
48.49658432864636
 20
28.91208077812405
  0
ARC
  5
170
330
2
100
AcDbEntity
  8
0
  6
Continuous
100
AcDbCircle
 10
49.23076636514525
 20
28.07567482249601
 30
0.0
 40
0.0042238025811881
100
AcDbArc
 50
303.7031568847041
 51
358.802855719324
  0
SPLINE
  5
171
330
2
100
AcDbEntity
  8
0
  6
Continuous
100
AcDbSpline
210
0.0
220
0.0
230
1.0
 70
     8
 71
     3
 72
    11
 73
     7
 74
     0
 42
0.000000001
 43
0.0000000001
 40
0.0
 40
0.0
 40
0.0
 40
0.0
 40
0.2120746292938901
 40
0.5239637907119203
 40
0.7593947656953027
 40
1.0
 40
1.0
 40
1.0
 40
1.0
 10
49.62603571433737
 20
28.46740536580455
 30
0.0
 10
49.62620356103752
 20
28.46728566768013
 30
0.0
 10
49.62661825275976
 20
28.46698993460177
 30
0.0
 10
49.62605506926951
 20
28.4720992048857
 30
0.0
 10
49.6247533225079
 20
28.4801794713494
 30
0.0
 10
49.62334707012779
 20
28.48722259935426
 30
0.0
 10
49.62263630133156
 20
28.49078244087627
 30
0.0
  0
SPLINE
  5
172
330
2
100
AcDbEntity
  8
0
  6
Continuous
100
AcDbSpline
210
0.0
220
0.0
230
1.0
 70
     8
 71
     3
 72
    10
 73
     6
 74
     0
 42
0.000000001
 43
0.0000000001
 40
0.0
 40
0.0
 40
0.0
 40
0.0
 40
0.658540543213714
 40
0.9717824348518416
 40
1.0
 40
1.0
 40
1.0
 40
1.0
 10
49.61797979942081
 20
28.54154259600818
 30
0.0
 10
49.67496695766727
 20
28.57593019781246
 30
0.0
 10
49.75906067060069
 20
28.62667463223557
 30
0.0
 10
49.84560835907638
 20
28.67882671762254
 30
0.0
 10
49.87516212380853
 20
28.69662975076039
 30
0.0
 10
49.87760439115572
 20
28.69810095982325
 30
0.0
  0
ARC
  5
173
330
2
100
AcDbEntity
  8
0
  6
Continuous
100
AcDbCircle
 10
49.95201884930153
 20
28.62842500712691
 30
0.0
 40
0.1125298774728464
100
AcDbArc
 50
169.7268636952917
 51
217.7335562027768
  0
SPLINE
  5
174
330
2
100
AcDbEntity
  8
0
  6
Continuous
100
AcDbSpline
210
0.0
220
0.0
230
1.0
 70
     8
 71
     3
 72
    10
 73
     6
 74
     0
 42
0.000000001
 43
0.0000000001
 40
0.0
 40
0.0
 40
0.0
 40
0.0
 40
0.3682013635778369
 40
0.619557167920081
 40
1.0
 40
1.0
 40
1.0
 40
1.0
 10
49.38740822402113
 20
28.24746253597539
 30
0.0
 10
49.44439435684014
 20
28.28080878164292
 30
0.0
 10
49.54028255974342
 20
28.33691912660686
 30
0.0
 10
49.69501949781577
 20
28.42760896436107
 30
0.0
 10
49.79277016190283
 20
28.48495809220242
 30
0.0
 10
49.85163154168287
 20
28.5194913490908
 30
0.0
  0
LINE
  5
175
330
2
100
AcDbEntity
  8
0
  6
Continuous
100
AcDbLine
 10
49.37524260241712
 20
28.19061219736762
 30
0.0
 11
49.59920368933162
 21
28.32257749510086
 31
0.0
  0
SPLINE
  5
176
330
2
100
AcDbEntity
  8
0
  6
Continuous
100
AcDbSpline
210
0.0
220
0.0
230
1.0
 70
     8
 71
     3
 72
    10
 73
     6
 74
     0
 42
0.000000001
 43
0.0000000001
 40
0.0
 40
0.0
 40
0.0
 40
0.0
 40
0.7299063146639096
 40
0.7609775325239071
 40
1.0
 40
1.0
 40
1.0
 40
1.0
 10
49.88438051413442
 20
28.46922662299949
 30
0.0
 10
49.82294574277331
 20
28.43268655763131
 30
0.0
 10
49.75889576843783
 20
28.39459102643287
 30
0.0
 10
49.67473462376859
 20
28.34457146508226
 30
0.0
 10
49.65200403162208
 20
28.33106661447266
 30
0.0
 10
49.63188833652433
 20
28.31911534389178
 30
0.0
  0
SPLINE
  5
177
330
2
100
AcDbEntity
  8
0
  6
Continuous
100
AcDbSpline
210
0.0
220
0.0
230
1.0
 70
     8
 71
     3
 72
     9
 73
     5
 74
     0
 42
0.000000001
 43
0.0000000001
 40
0.0
 40
0.0
 40
0.0
 40
0.0
 40
0.1987585349921346
 40
1.0
 40
1.0
 40
1.0
 40
1.0
 10
49.6298491220314
 20
28.31865653726822
 30
0.0
 10
49.62990073879455
 20
28.31886451674734
 30
0.0
 10
49.63016043462681
 20
28.31991090944234
 30
0.0
 10
49.63023351792423
 20
28.31954646436179
 30
0.0
 10
49.63029207529245
 20
28.31925445585148
 30
0.0
  0
SPLINE
  5
178
330
2
100
AcDbEntity
  8
0
  6
Continuous
100
AcDbSpline
210
0.0
220
0.0
230
1.0
 70
     8
 71
     3
 72
    14
 73
    10
 74
     0
 42
0.000000001
 43
0.0000000001
 40
0.0
 40
0.0
 40
0.0
 40
0.0
 40
0.0072951424595813
 40
0.0322966259334845
 40
0.0954325108834066
 40
0.295582421039955
 40
0.6483481277229468
 40
0.9895559069530948
 40
1.0
 40
1.0
 40
1.0
 40
1.0
 10
49.8630228800084
 20
28.55955781048283
 30
0.0
 10
49.86311028959221
 20
28.55957729737566
 30
0.0
 10
49.8634972641642
 20
28.55966356860268
 30
0.0
 10
49.8646292638879
 20
28.55991538900753
 30
0.0
 10
49.86797561734872
 20
28.56060359039623
 30
0.0
 10
49.87468155466317
 20
28.56169144426303
 30
0.0
 10
49.88198612503305
 20
28.56159694967016
 30
0.0
 10
49.88655598035276
 20
28.56055129753236
 30
0.0
 10
49.88669816460509
 20
28.55907226709496
 30
0.0
 10
49.88670238749048
 20
28.55902833975449
 30
0.0
  0
SPLINE
  5
179
330
2
100
AcDbEntity
  8
0
  6
Continuous
100
AcDbSpline
210
0.0
220
0.0
230
1.0
 70
     8
 71
     3
 72
    15
 73
    11
 74
     0
 42
0.000000001
 43
0.0000000001
 40
0.0
 40
0.0
 40
0.0
 40
0.0
 40
0.0054440489984598
 40
0.018687417697029
 40
0.0503930344731909
 40
0.1370795722887535
 40
0.4191878181732232
 40
0.6631919308257636
 40
0.9009698883481828
 40
1.0
 40
1.0
 40
1.0
 40
1.0
 10
49.85163154168287
 20
28.5194913490908
 30
0.0
 10
49.85173497106302
 20
28.51944968532371
 30
0.0
 10
49.85209000607999
 20
28.51930666893645
 30
0.0
 10
49.85304988819876
 20
28.51892503055285
 30
0.0
 10
49.85553452578439
 20
28.51786894381155
 30
0.0
 10
49.86292601226999
 20
28.51430151345426
 30
0.0
 10
49.87332903887381
 20
28.50708404268835
 30
0.0
 10
49.8824890283473
 20
28.49599550993696
 30
0.0
 10
49.88711097427359
 20
28.48662399148066
 30
0.0
 10
49.88694826838781
 20
28.48151544829477
 30
0.0
 10
49.88690042873218
 20
28.48001340707788
 30
0.0
  0
ARC
  5
17A
330
2
100
AcDbEntity
  8
0
  6
Continuous
100
AcDbCircle
 10
49.88183057523725
 20
28.47381921697252
 30
0.0
 40
0.0052530094041565
100
AcDbArc
 50
299.0402811767123
 51
347.1486456142973
  0
ARC
  5
17B
330
2
100
AcDbEntity
  8
0
  6
Continuous
100
AcDbCircle
 10
49.88185359462925
 20
28.4734468799328
 30
0.0
 40
0.0051557967740104
100
AcDbArc
 50
298.4886706466962
 51
346.2446422519803
  0
ARC
  5
17C
330
2
100
AcDbEntity
  8
0
  6
Continuous
100
AcDbCircle
 10
0.0196071431539515
 20
0.6587683348931819
 30
0.0
 40
0.1564490439419527
100
AcDbArc
 50
339.6791211226805
 51
41.61877732420137
  0
SPLINE
  5
17D
330
2
100
AcDbEntity
  8
0
  6
Continuous
100
AcDbSpline
210
0.0
220
0.0
230
1.0
 70
     8
 71
     3
 72
    11
 73
     7
 74
     0
 42
0.000000001
 43
0.0000000001
 40
0.0
 40
0.0
 40
0.0
 40
0.0
 40
0.1870500251507912
 40
0.4620959405415828
 40
0.7301136447325085
 40
1.0
 40
1.0
 40
1.0
 40
1.0
 10
0.8778243611895213
 20
0.3844341113883729
 30
0.0
 10
0.8783420095844327
 20
0.38444750264415
 30
0.0
 10
0.8796208290966056
 20
0.3844805849435033
 30
0.0
 10
0.8799280952706673
 20
0.3899447585525877
 30
0.0
 10
0.8791233347346611
 20
0.399039644409811
 30
0.0
 10
0.877306762618879
 20
0.4075083304954319
 30
0.0
 10
0.8763953212218709
 20
0.4117573834285509
 30
0.0
  0
SPLINE
  5
17E
330
2
100
AcDbEntity
  8
0
  6
Continuous
100
AcDbSpline
210
0.0
220
0.0
230
1.0
 70
     8
 71
     3
 72
    11
 73
     7
 74
     0
 42
0.000000001
 43
0.0000000001
 40
0.0
 40
0.0
 40
0.0
 40
0.0
 40
0.2893619155082662
 40
0.5764404383097507
 40
0.8710361268761594
 40
1.0
 40
1.0
 40
1.0
 40
1.0
 10
0.8828908908606436
 20
0.4140548989512923
 30
0.0
 10
0.8837303187186016
 20
0.4097741478833541
 30
0.0
 10
0.8854025503995508
 20
0.4012464257139073
 30
0.0
 10
0.8851091059306597
 20
0.3918181293358316
 30
0.0
 10
0.8836275298804281
 20
0.3862641433992166
 30
0.0
 10
0.8816140909969298
 20
0.3856936463896545
 30
0.0
 10
0.8810010464567987
 20
0.3855199435374175
 30
0.0
  0
LWPOLYLINE
  5
17F
330
2
100
AcDbEntity
  8
0
  6
Continuous
100
AcDbPolyline
 90
        9
 70
   128
 43
0.0
 10
0.8240806064464401
 20
0.3645374070655407
 10
0.817146019958276
 20
0.3591489229000899
 10
0.8104828933935763
 20
0.3492786503288698
 10
0.8065515763993076
 20
0.3364901031628733
 10
0.8055388502482756
 20
0.3213907872821551
 10
0.8074928368220355
 20
0.3046979823393485
 10
0.8123206794970059
 20
0.2872046975468265
 10
0.8197930288223389
 20
0.2697419477211156
 10
0.8295549362959597
 20
0.253139285637701
  0
SPLINE
  5
180
330
2
100
AcDbEntity
  8
0
  6
Continuous
100
AcDbSpline
210
0.0
220
0.0
230
1.0
 70
     8
 71
     3
 72
    10
 73
     6
 74
     0
 42
0.000000001
 43
0.0000000001
 40
0.0
 40
0.0
 40
0.0
 40
0.0
 40
0.3426711069504101
 40
0.5504798242564707
 40
1.0
 40
1.0
 40
1.0
 40
1.0
 10
0.8791969182082617
 20
0.2483066100464271
 30
0.0
 10
0.9416572243222702
 20
0.2837920015136888
 30
0.0
 10
1.041995821989967
 20
0.3407970762408468
 30
0.0
 10
1.224246863109872
 20
0.4444525424274844
 30
0.0
 10
1.344021996975595
 20
0.512680282124336
 30
0.0
 10
1.425931281345
 20
0.5593384251991438
 30
0.0
  0
ARC
  5
181
330
2
100
AcDbEntity
  8
0
  6
Continuous
100
AcDbCircle
 10
0.130425830085894
 20
0.5841642637347491
 30
0.0
 40
0.002030656998066
100
AcDbArc
 50
181.8544483612904
 51
221.0113097543846
  0
LINE
  5
182
330
2
100
AcDbEntity
  8
0
  6
Continuous
100
AcDbLine
 10
0.1335513203325576
 20
0.7556398293210691
 30
0.0
 11
0.1334917859023541
 21
0.7522287766922205
 31
0.0
  0
SPLINE
  5
183
330
2
100
AcDbEntity
  8
0
  6
Continuous
100
AcDbSpline
210
0.0
220
0.0
230
1.0
 70
     8
 71
     3
 72
     9
 73
     5
 74
     0
 42
0.000000001
 43
0.0000000001
 40
0.0
 40
0.0
 40
0.0
 40
0.0
 40
0.2973673236403735
 40
1.0
 40
1.0
 40
1.0
 40
1.0
 10
0.1286515847186891
 20
0.5958003716576741
 30
0.0
 10
0.1288084711144819
 20
0.5945716287092751
 30
0.0
 10
0.1293360556314127
 20
0.5904395575275317
 30
0.0
 10
0.1300841660377863
 20
0.5865532080733829
 30
0.0
 10
0.1306098128548321
 20
0.5838225319551498
 30
0.0
  0
SPLINE
  5
184
330
2
100
AcDbEntity
  8
0
  6
Continuous
100
AcDbSpline
210
0.0
220
0.0
230
1.0
 70
     8
 71
     3
 72
    10
 73
     6
 74
     0
 42
0.000000001
 43
0.0000000001
 40
0.0
 40
0.0
 40
0.0
 40
0.0
 40
0.7043150426563482
 40
0.8967360821527199
 40
1.0
 40
1.0
 40
1.0
 40
1.0
 10
0.1626844075804179
 20
0.6585226567881933
 30
0.0
 10
0.1604308082867831
 20
0.6543923871105335
 30
0.0
 10
0.1575615187232806
 20
0.6491337150325194
 30
0.0
 10
0.1541809814889135
 20
0.645198320715906
 30
0.0
 10
0.1531778406342603
 20
0.6441661768428731
 30
0.0
 10
0.1528275074426979
 20
0.643805714744758
 30
0.0
  0
SPLINE
  5
185
330
2
100
AcDbEntity
  8
0
  6
Continuous
100
AcDbSpline
210
0.0
220
0.0
230
1.0
 70
     8
 71
     3
 72
    11
 73
     7
 74
     0
 42
0.000000001
 43
0.0000000001
 40
0.0
 40
0.0
 40
0.0
 40
0.0
 40
0.0875743067340754
 40
0.5843301962228874
 40
0.9898318744062832
 40
1.0
 40
1.0
 40
1.0
 40
1.0
 10
0.131810418810872
 20
0.6221084539596973
 30
0.0
 10
0.132117217764435
 20
0.6229620483290433
 30
0.0
 10
0.1341643009720954
 20
0.6286575654723947
 30
0.0
 10
0.1414929479459523
 20
0.6363032686398356
 30
0.0
 10
0.1489874538965132
 20
0.6417970269706075
 30
0.0
 10
0.1527358149370492
 20
0.6437577514512896
 30
0.0
 10
0.1528275074426979
 20
0.643805714744758
 30
0.0
  0
LWPOLYLINE
  5
186
330
2
100
AcDbEntity
  8
0
  6
Continuous
100
AcDbPolyline
 90
        6
 70
   128
 43
0.0
 10
1.482995507232281
 20
0.5842700390746245
 10
1.47913120080117
 20
0.5640670732976787
 10
1.468126576906605
 20
0.551401465859783
 10
1.451657021729527
 20
0.5482014196018099
 10
1.432229847248461
 20
0.5549541302784747
 10
1.430167288910418
 20
0.5561932272412378
  0
LINE
  5
187
330
2
100
AcDbEntity
  8
0
  6
Continuous
100
AcDbLine
 10
1.38898566545772
 20
0.6078342181679091
 30
0.0
 11
1.386726255957292
 21
0.6138545909862501
 31
0.0
  0
ARC
  5
188
330
2
100
AcDbEntity
  8
0
  6
Continuous
100
AcDbCircle
 10
1.371412794820059
 20
0.5786596546325314
 30
0.0
 40
0.1117236685846651
100
AcDbArc
 50
2.878410712515818
 51
40.63513142348297
  0
LWPOLYLINE
  5
189
330
2
100
AcDbEntity
  8
0
  6
Continuous
100
AcDbPolyline
 90
        7
 70
   128
 43
0.0
 10
1.469167086810834
 20
0.6587987926490655
 10
1.480891250378718
 20
0.6416754905247899
 10
1.49300463059345
 20
0.6137479408126865
 10
1.497258306244518
 20
0.5865982448416958
 10
1.49300463059345
 20
0.5643597404374532
 10
1.480891250378718
 20
0.5504179996218568
 10
1.477755760132225
 20
0.5488742258704065
  0
ARC
  5
18A
330
2
100
AcDbEntity
  8
0
  6
Continuous
100
AcDbCircle
 10
49.30761156758175
 20
28.23654694976756
 30
0.0
 40
0.076556165582622
100
AcDbArc
 50
334.0196125183751
 51
33.27372285138441
  0
LINE
  5
18B
330
2
100
AcDbEntity
  8
0
  6
Continuous
100
AcDbLine
 10
1.588277931242771
 20
0.5170966314871066
 30
0.0
 11
1.651115234781368
 21
0.5533718346801493
 31
0.0
  0
LINE
  5
18C
330
2
100
AcDbEntity
  8
0
  6
Continuous
100
AcDbLine
 10
1.658278260049812
 20
0.6101359428197953
 30
0.0
 11
49.23498924577824
 21
28.07558657632603
 31
0.0
  0
ENDSEC
  0
SECTION
  2
OBJECTS
  0
DICTIONARY
  5
9
330
0
100
AcDbDictionary
281
     1
  3
ACAD_COLOR
350
41
  3
ACAD_GROUP
350
2E
  3
ACAD_LAYOUT
350
16
  3
ACAD_MATERIAL
350
B
  3
ACAD_MLEADERSTYLE
350
44
  3
ACAD_MLINESTYLE
350
2F
  3
ACAD_PLOTSETTINGS
350
30
  3
ACAD_PLOTSTYLENAME
350
8
  3
ACAD_SCALELIST
350
42
  3
ACAD_TABLESTYLE
350
43
  3
ACAD_VISUALSTYLE
350
27
  3
ACDB_RECOMPOSE_DATA
350
199
  3
AcDbVariableDictionary
350
18D
  0
DICTIONARY
  5
5
330
4
100
AcDbDictionary
280
     1
281
     1
  3
ADSK_XREC_LAYER_RECONCILED
360
6
  0
DICTIONARY
  5
41
102
{ACAD_REACTORS
330
9
102
}
330
9
100
AcDbDictionary
281
     1
  0
DICTIONARY
  5
2E
102
{ACAD_REACTORS
330
9
102
}
330
9
100
AcDbDictionary
281
     1
  0
DICTIONARY
  5
16
102
{ACAD_REACTORS
330
9
102
}
330
9
100
AcDbDictionary
281
     1
  3
Layout1
350
1A
  3
Model
350
15
  0
DICTIONARY
  5
B
102
{ACAD_REACTORS
330
9
102
}
330
9
100
AcDbDictionary
281
     1
  3
ByBlock
350
39
  3
ByLayer
350
31
  3
Global
350
A
  0
DICTIONARY
  5
44
102
{ACAD_REACTORS
330
9
102
}
330
9
100
AcDbDictionary
281
     1
  0
DICTIONARY
  5
2F
102
{ACAD_REACTORS
330
9
102
}
330
9
100
AcDbDictionary
281
     1
  3
Standard
350
45
  0
DICTIONARY
  5
30
102
{ACAD_REACTORS
330
9
102
}
330
9
100
AcDbDictionary
281
     1
  0
ACDBDICTIONARYWDFLT
  5
8
102
{ACAD_REACTORS
330
9
102
}
330
9
100
AcDbDictionary
281
     1
  3
Normal
350
7
100
AcDbDictionaryWithDefault
340
7
  0
DICTIONARY
  5
42
102
{ACAD_REACTORS
330
9
102
}
330
9
100
AcDbDictionary
281
     1
  3
A0
350
49
  3
A1
350
4A
  3
A2
350
4B
  3
A3
350
4C
  3
A4
350
4D
  3
A5
350
4E
  3
A6
350
4F
  3
A7
350
50
  3
A8
350
51
  3
A9
350
52
  3
B0
350
53
  3
B1
350
54
  3
B2
350
55
  3
B3
350
56
  3
B4
350
57
  3
B5
350
58
  3
B6
350
59
  3
B7
350
5A
  3
B8
350
5B
  3
B9
350
5C
  3
C0
350
5D
  3
C1
350
5E
  3
C2
350
5F
  3
C3
350
60
  3
C4
350
61
  3
C5
350
62
  3
C6
350
63
  3
C7
350
64
  3
C8
350
65
  3
C9
350
66
  3
D0
350
67
  3
D1
350
68
  3
D2
350
69
  0
DICTIONARY
  5
43
102
{ACAD_REACTORS
330
9
102
}
330
9
100
AcDbDictionary
281
     1
  3
Standard
350
46
  0
DICTIONARY
  5
27
102
{ACAD_REACTORS
330
9
102
}
330
9
100
AcDbDictionary
281
     1
  3
2dWireframe
350
26
  3
Realistic
350
47
  3
Wireframe
350
48
  0
XRECORD
  5
199
102
{ACAD_REACTORS
330
9
102
}
330
9
100
AcDbXrecord
280
     1
 90
        1
330
46
  0
DICTIONARY
  5
18D
102
{ACAD_REACTORS
330
9
102
}
330
9
100
AcDbDictionary
281
     1
  3
CANNOSCALE
350
193
  3
CMLEADERSTYLE
350
18F
  3
CTABLESTYLE
350
18E
  3
CVIEWDETAILSTYLE
350
190
  3
CVIEWSECTIONSTYLE
350
191
  3
LAYEREVAL
350
195
  3
LAYERNOTIFY
350
196
  3
LIGHTINGUNITS
350
194
  3
MSLTSCALE
350
192
  0
XRECORD
  5
6
102
{ACAD_REACTORS
330
5
102
}
330
5
100
AcDbXrecord
280
     1
290
     1
  0
LAYOUT
  5
1A
102
{ACAD_REACTORS
330
16
102
}
330
16
100
AcDbPlotSettings
  1

  2
none_device
  4

  6

 40
0.0
 41
0.0
 42
0.0
 43
0.0
 44
0.0
 45
0.0
 46
0.0
 47
0.0
 48
0.0
 49
0.0
140
0.0
141
0.0
142
1.0
143
1.0
 70
   688
 72
     1
 73
     0
 74
     5
  7

 75
    16
147
1.0
 76
     0
 77
     2
 78
   300
148
0.0
149
0.0
100
AcDbLayout
  1
Layout1
 70
     1
 71
     1
 10
0.0
 20
0.0
 11
420.0
 21
297.0
 12
0.0
 22
0.0
 32
0.0
 14
1.000000000000000E+20
 24
1.000000000000000E+20
 34
1.000000000000000E+20
 15
-1.000000000000000E+20
 25
-1.000000000000000E+20
 35
-1.000000000000000E+20
146
0.0
 13
0.0
 23
0.0
 33
0.0
 16
1.0
 26
0.0
 36
0.0
 17
0.0
 27
1.0
 37
0.0
 76
     0
330
17
  0
LAYOUT
  5
15
102
{ACAD_REACTORS
330
16
102
}
330
16
100
AcDbPlotSettings
  1

  2
none_device
  4
Letter_(8.50_x_11.00_Inches)
  6

 40
6.349999999999999
 41
6.349999999999999
 42
6.350005079999999
 43
6.350005079999999
 44
215.9
 45
279.4
 46
0.0
 47
0.0
 48
0.0
 49
0.0
140
0.0
141
0.0
142
1.0
143
1.0
 70
  1712
 72
     1
 73
     0
 74
     0
  7

 75
     0
147
1.0
 76
     0
 77
     2
 78
   300
148
0.0
149
0.0
100
AcDbLayout
  1
Model
 70
     1
 71
     0
 10
0.0
 20
0.0
 11
1189.0
 21
841.0
 12
0.0
 22
0.0
 32
0.0
 14
0.0
 24
0.0
 34
0.0
 15
1189.0
 25
841.0
 35
0.0
146
0.0
 13
0.0
 23
0.0
 33
0.0
 16
1.0
 26
0.0
 36
0.0
 17
0.0
 27
1.0
 37
0.0
 76
     0
330
2
331
25
  0
MATERIAL
  5
39
102
{ACAD_XDICTIONARY
360
3A
102
}
102
{ACAD_REACTORS
330
B
102
}
330
B
100
AcDbMaterial
  1
ByBlock
 72
     0
 43
0.0008202099737533
 43
0.0
 43
0.0
 43
0.0
 43
0.0
 43
0.0008202099737533
 43
0.0
 43
0.0
 43
0.0
 43
0.0
 43
1.0
 43
0.0
 43
0.0
 43
0.0
 43
0.0
 43
1.0
 77
     0
 47
0.0008202099737533
 47
0.0
 47
0.0
 47
0.0
 47
0.0
 47
0.0008202099737533
 47
0.0
 47
0.0
 47
0.0
 47
0.0
 47
1.0
 47
0.0
 47
0.0
 47
0.0
 47
0.0
 47
1.0
171
     0
 49
0.0008202099737533
 49
0.0
 49
0.0
 49
0.0
 49
0.0
 49
0.0008202099737533
 49
0.0
 49
0.0
 49
0.0
 49
0.0
 49
1.0
 49
0.0
 49
0.0
 49
0.0
 49
0.0
 49
1.0
175
     0
142
0.0008202099737533
142
0.0
142
0.0
142
0.0
142
0.0
142
0.0008202099737533
142
0.0
142
0.0
142
0.0
142
0.0
142
1.0
142
0.0
142
0.0
142
0.0
142
0.0
142
1.0
179
     0
144
0.0008202099737533
144
0.0
144
0.0
144
0.0
144
0.0
144
0.0008202099737533
144
0.0
144
0.0
144
0.0
144
0.0
144
1.0
144
0.0
144
0.0
144
0.0
144
0.0
144
1.0
147
0.0008202099737533
147
0.0
147
0.0
147
0.0
147
0.0
147
0.0008202099737533
147
0.0
147
0.0
147
0.0
147
0.0
147
1.0
147
0.0
147
0.0
147
0.0
147
0.0
147
1.0
  0
MATERIAL
  5
31
102
{ACAD_XDICTIONARY
360
32
102
}
102
{ACAD_REACTORS
330
B
102
}
330
B
100
AcDbMaterial
  1
ByLayer
 72
     0
 43
0.0008202099737533
 43
0.0
 43
0.0
 43
0.0
 43
0.0
 43
0.0008202099737533
 43
0.0
 43
0.0
 43
0.0
 43
0.0
 43
1.0
 43
0.0
 43
0.0
 43
0.0
 43
0.0
 43
1.0
 77
     0
 47
0.0008202099737533
 47
0.0
 47
0.0
 47
0.0
 47
0.0
 47
0.0008202099737533
 47
0.0
 47
0.0
 47
0.0
 47
0.0
 47
1.0
 47
0.0
 47
0.0
 47
0.0
 47
0.0
 47
1.0
171
     0
 49
0.0008202099737533
 49
0.0
 49
0.0
 49
0.0
 49
0.0
 49
0.0008202099737533
 49
0.0
 49
0.0
 49
0.0
 49
0.0
 49
1.0
 49
0.0
 49
0.0
 49
0.0
 49
0.0
 49
1.0
175
     0
142
0.0008202099737533
142
0.0
142
0.0
142
0.0
142
0.0
142
0.0008202099737533
142
0.0
142
0.0
142
0.0
142
0.0
142
1.0
142
0.0
142
0.0
142
0.0
142
0.0
142
1.0
179
     0
144
0.0008202099737533
144
0.0
144
0.0
144
0.0
144
0.0
144
0.0008202099737533
144
0.0
144
0.0
144
0.0
144
0.0
144
1.0
144
0.0
144
0.0
144
0.0
144
0.0
144
1.0
147
0.0008202099737533
147
0.0
147
0.0
147
0.0
147
0.0
147
0.0008202099737533
147
0.0
147
0.0
147
0.0
147
0.0
147
1.0
147
0.0
147
0.0
147
0.0
147
0.0
147
1.0
  0
MATERIAL
  5
A
102
{ACAD_XDICTIONARY
360
C
102
}
102
{ACAD_REACTORS
330
B
102
}
330
B
100
AcDbMaterial
  1
Global
 72
     0
 43
0.0008202099737533
 43
0.0
 43
0.0
 43
0.0
 43
0.0
 43
0.0008202099737533
 43
0.0
 43
0.0
 43
0.0
 43
0.0
 43
1.0
 43
0.0
 43
0.0
 43
0.0
 43
0.0
 43
1.0
 77
     0
 47
0.0008202099737533
 47
0.0
 47
0.0
 47
0.0
 47
0.0
 47
0.0008202099737533
 47
0.0
 47
0.0
 47
0.0
 47
0.0
 47
1.0
 47
0.0
 47
0.0
 47
0.0
 47
0.0
 47
1.0
171
     0
 49
0.0008202099737533
 49
0.0
 49
0.0
 49
0.0
 49
0.0
 49
0.0008202099737533
 49
0.0
 49
0.0
 49
0.0
 49
0.0
 49
1.0
 49
0.0
 49
0.0
 49
0.0
 49
0.0
 49
1.0
175
     0
142
0.0008202099737533
142
0.0
142
0.0
142
0.0
142
0.0
142
0.0008202099737533
142
0.0
142
0.0
142
0.0
142
0.0
142
1.0
142
0.0
142
0.0
142
0.0
142
0.0
142
1.0
179
     0
144
0.0008202099737533
144
0.0
144
0.0
144
0.0
144
0.0
144
0.0008202099737533
144
0.0
144
0.0
144
0.0
144
0.0
144
1.0
144
0.0
144
0.0
144
0.0
144
0.0
144
1.0
147
0.0008202099737533
147
0.0
147
0.0
147
0.0
147
0.0
147
0.0008202099737533
147
0.0
147
0.0
147
0.0
147
0.0
147
1.0
147
0.0
147
0.0
147
0.0
147
0.0
147
1.0
  0
MLINESTYLE
  5
45
102
{ACAD_REACTORS
330
2F
102
}
330
2F
100
AcDbMlineStyle
  2
STANDARD
 70
     0
  3

 62
   256
 51
90.0
 52
90.0
 71
     2
 49
0.5
 62
   256
  6
BYLAYER
 49
-0.5
 62
   256
  6
BYLAYER
  0
ACDBPLACEHOLDER
  5
7
102
{ACAD_REACTORS
330
8
102
}
330
8
  0
SCALE
  5
49
102
{ACAD_REACTORS
330
42
102
}
330
42
100
AcDbScale
 70
     0
300
1:1
140
1.0
141
1.0
290
     1
  0
SCALE
  5
4A
102
{ACAD_REACTORS
330
42
102
}
330
42
100
AcDbScale
 70
     0
300
1:2
140
1.0
141
2.0
290
     0
  0
SCALE
  5
4B
102
{ACAD_REACTORS
330
42
102
}
330
42
100
AcDbScale
 70
     0
300
1:4
140
1.0
141
4.0
290
     0
  0
SCALE
  5
4C
102
{ACAD_REACTORS
330
42
102
}
330
42
100
AcDbScale
 70
     0
300
1:5
140
1.0
141
5.0
290
     0
  0
SCALE
  5
4D
102
{ACAD_REACTORS
330
42
102
}
330
42
100
AcDbScale
 70
     0
300
1:8
140
1.0
141
8.0
290
     0
  0
SCALE
  5
4E
102
{ACAD_REACTORS
330
42
102
}
330
42
100
AcDbScale
 70
     0
300
1:10
140
1.0
141
10.0
290
     0
  0
SCALE
  5
4F
102
{ACAD_REACTORS
330
42
102
}
330
42
100
AcDbScale
 70
     0
300
1:16
140
1.0
141
16.0
290
     0
  0
SCALE
  5
50
102
{ACAD_REACTORS
330
42
102
}
330
42
100
AcDbScale
 70
     0
300
1:20
140
1.0
141
20.0
290
     0
  0
SCALE
  5
51
102
{ACAD_REACTORS
330
42
102
}
330
42
100
AcDbScale
 70
     0
300
1:30
140
1.0
141
30.0
290
     0
  0
SCALE
  5
52
102
{ACAD_REACTORS
330
42
102
}
330
42
100
AcDbScale
 70
     0
300
1:40
140
1.0
141
40.0
290
     0
  0
SCALE
  5
53
102
{ACAD_REACTORS
330
42
102
}
330
42
100
AcDbScale
 70
     0
300
1:50
140
1.0
141
50.0
290
     0
  0
SCALE
  5
54
102
{ACAD_REACTORS
330
42
102
}
330
42
100
AcDbScale
 70
     0
300
1:100
140
1.0
141
100.0
290
     0
  0
SCALE
  5
55
102
{ACAD_REACTORS
330
42
102
}
330
42
100
AcDbScale
 70
     0
300
2:1
140
2.0
141
1.0
290
     0
  0
SCALE
  5
56
102
{ACAD_REACTORS
330
42
102
}
330
42
100
AcDbScale
 70
     0
300
4:1
140
4.0
141
1.0
290
     0
  0
SCALE
  5
57
102
{ACAD_REACTORS
330
42
102
}
330
42
100
AcDbScale
 70
     0
300
8:1
140
8.0
141
1.0
290
     0
  0
SCALE
  5
58
102
{ACAD_REACTORS
330
42
102
}
330
42
100
AcDbScale
 70
     0
300
10:1
140
10.0
141
1.0
290
     0
  0
SCALE
  5
59
102
{ACAD_REACTORS
330
42
102
}
330
42
100
AcDbScale
 70
     0
300
100:1
140
100.0
141
1.0
290
     0
  0
SCALE
  5
5A
102
{ACAD_REACTORS
330
42
102
}
330
42
100
AcDbScale
 70
     0
300
1/128" = 1'-0"
140
0.0078125
141
12.0
290
     0
  0
SCALE
  5
5B
102
{ACAD_REACTORS
330
42
102
}
330
42
100
AcDbScale
 70
     0
300
1/64" = 1'-0"
140
0.015625
141
12.0
290
     0
  0
SCALE
  5
5C
102
{ACAD_REACTORS
330
42
102
}
330
42
100
AcDbScale
 70
     0
300
1/32" = 1'-0"
140
0.03125
141
12.0
290
     0
  0
SCALE
  5
5D
102
{ACAD_REACTORS
330
42
102
}
330
42
100
AcDbScale
 70
     0
300
1/16" = 1'-0"
140
0.0625
141
12.0
290
     0
  0
SCALE
  5
5E
102
{ACAD_REACTORS
330
42
102
}
330
42
100
AcDbScale
 70
     0
300
3/32" = 1'-0"
140
0.09375
141
12.0
290
     0
  0
SCALE
  5
5F
102
{ACAD_REACTORS
330
42
102
}
330
42
100
AcDbScale
 70
     0
300
1/8" = 1'-0"
140
0.125
141
12.0
290
     0
  0
SCALE
  5
60
102
{ACAD_REACTORS
330
42
102
}
330
42
100
AcDbScale
 70
     0
300
3/16" = 1'-0"
140
0.1875
141
12.0
290
     0
  0
SCALE
  5
61
102
{ACAD_REACTORS
330
42
102
}
330
42
100
AcDbScale
 70
     0
300
1/4" = 1'-0"
140
0.25
141
12.0
290
     0
  0
SCALE
  5
62
102
{ACAD_REACTORS
330
42
102
}
330
42
100
AcDbScale
 70
     0
300
3/8" = 1'-0"
140
0.375
141
12.0
290
     0
  0
SCALE
  5
63
102
{ACAD_REACTORS
330
42
102
}
330
42
100
AcDbScale
 70
     0
300
1/2" = 1'-0"
140
0.5
141
12.0
290
     0
  0
SCALE
  5
64
102
{ACAD_REACTORS
330
42
102
}
330
42
100
AcDbScale
 70
     0
300
3/4" = 1'-0"
140
0.75
141
12.0
290
     0
  0
SCALE
  5
65
102
{ACAD_REACTORS
330
42
102
}
330
42
100
AcDbScale
 70
     0
300
1" = 1'-0"
140
1.0
141
12.0
290
     0
  0
SCALE
  5
66
102
{ACAD_REACTORS
330
42
102
}
330
42
100
AcDbScale
 70
     0
300
1-1/2" = 1'-0"
140
1.5
141
12.0
290
     0
  0
SCALE
  5
67
102
{ACAD_REACTORS
330
42
102
}
330
42
100
AcDbScale
 70
     0
300
3" = 1'-0"
140
3.0
141
12.0
290
     0
  0
SCALE
  5
68
102
{ACAD_REACTORS
330
42
102
}
330
42
100
AcDbScale
 70
     0
300
6" = 1'-0"
140
6.0
141
12.0
290
     0
  0
SCALE
  5
69
102
{ACAD_REACTORS
330
42
102
}
330
42
100
AcDbScale
 70
     0
300
1'-0" = 1'-0"
140
12.0
141
12.0
290
     0
  0
TABLESTYLE
  5
46
102
{ACAD_XDICTIONARY
360
197
102
}
102
{ACAD_REACTORS
330
43
102
}
330
43
100
AcDbTableStyle
280
     0
  3
Standard
 70
     0
 71
     0
 40
1.5
 41
1.5
280
     0
281
     0
  7
Standard
140
4.5
170
     2
 62
     0
 63
     7
283
     0
 90
      512
 91
        0
  1

274
    -2
284
     1
 64
     0
275
    -2
285
     1
 65
     0
276
    -2
286
     1
 66
     0
277
    -2
287
     1
 67
     0
278
    -2
288
     1
 68
     0
279
    -2
289
     1
 69
     0
  7
Standard
140
6.0
170
     5
 62
     0
 63
     7
283
     0
 90
      512
 91
        0
  1

274
    -2
284
     1
 64
     0
275
    -2
285
     1
 65
     0
276
    -2
286
     1
 66
     0
277
    -2
287
     1
 67
     0
278
    -2
288
     1
 68
     0
279
    -2
289
     1
 69
     0
  7
Standard
140
4.5
170
     5
 62
     0
 63
     7
283
     0
 90
      512
 91
        0
  1

274
    -2
284
     1
 64
     0
275
    -2
285
     1
 65
     0
276
    -2
286
     1
 66
     0
277
    -2
287
     1
 67
     0
278
    -2
288
     1
 68
     0
279
    -2
289
     1
 69
     0
  0
VISUALSTYLE
  5
26
102
{ACAD_REACTORS
330
27
102
}
330
27
100
AcDbVisualStyle
  2
2dWireframe
 70
     4
177
     3
291
     0
 70
    58
 90
        0
176
     1
 90
        2
176
     1
 90
        0
176
     1
 90
        0
176
     1
 40
0.6
176
     1
 40
30.0
176
     1
 62
     7
420
 16777215
176
     1
 90
        1
176
     1
 90
        4
176
     1
 62
     7
176
     1
 62
   257
176
     1
 90
        1
176
     1
 90
        1
176
     1
 40
1.0
176
     1
 90
        0
176
     1
 62
   257
176
     1
 40
1.0
176
     1
 90
        1
176
     1
 90
        6
176
     1
 90
        2
176
     1
 62
     7
176
     1
 90
        5
176
     1
 90
        0
176
     1
 90
        0
176
     1
290
     0
176
     1
 90
        1
176
     1
 40
0.0
176
     1
 90
        0
176
     1
290
     1
176
     1
290
     1
176
     1
290
     0
176
     1
290
     0
176
     1
290
     0
176
     1
290
     0
176
     1
290
     0
176
     1
290
     0
176
     1
290
     0
176
     1
 90
       50
176
     1
 40
0.0
176
     1
 40
1.0
176
     1
 90
        0
176
     1
 62
    18
420
        0
176
     1
 90
       50
176
     1
 90
        3
176
     1
 62
     5
420
      255
176
     1
290
     0
176
     1
 90
       50
176
     1
 90
       50
176
     1
 90
       50
176
     1
290
     0
176
     1
 90
       50
176
     1
 62
   256
176
     0
 40
1.0
176
     0
 90
        2
176
     1
  1
strokes_ogs.tif
176
     1
290
     0
176
     1
 40
1.0
176
     1
 40
1.0
176
     1
  0
VISUALSTYLE
  5
47
102
{ACAD_REACTORS
330
27
102
}
330
27
100
AcDbVisualStyle
  2
Realistic
 70
     8
177
     3
291
     0
 70
    58
 90
        2
176
     1
 90
        3
176
     1
 90
        0
176
     1
 90
        2
176
     1
 40
0.6
176
     1
 40
30.0
176
     1
 62
     7
420
 16777215
176
     1
 90
        0
176
     1
 90
        0
176
     1
 62
     7
176
     1
 62
   257
176
     1
 90
        1
176
     1
 90
        1
176
     1
 40
1.0
176
     1
 90
        8
176
     1
 62
   257
176
     1
 40
1.0
176
     1
 90
        1
176
     1
 90
        6
176
     1
 90
        2
176
     1
 62
     7
176
     1
 90
        3
176
     1
 90
        0
176
     1
 90
        0
176
     1
290
     0
176
     1
 90
       13
176
     1
 40
0.0
176
     1
 90
        0
176
     1
290
     0
176
     1
290
     1
176
     1
290
     1
176
     1
290
     0
176
     1
290
     0
176
     1
290
     0
176
     1
290
     0
176
     1
290
     0
176
     1
290
     0
176
     1
 90
       50
176
     1
 40
0.0
176
     1
 40
1.0
176
     1
 90
        0
176
     1
 62
    18
420
        0
176
     1
 90
       50
176
     1
 90
        3
176
     1
 62
     5
420
      255
176
     1
290
     0
176
     1
 90
       50
176
     1
 90
       50
176
     1
 90
       50
176
     1
290
     0
176
     1
 90
       50
176
     1
 62
   256
176
     0
 40
1.0
176
     0
 90
        2
176
     1
  1
strokes_ogs.tif
176
     1
290
     0
176
     1
 40
1.0
176
     1
 40
1.0
176
     1
  0
VISUALSTYLE
  5
48
102
{ACAD_REACTORS
330
27
102
}
330
27
100
AcDbVisualStyle
  2
Wireframe
 70
     5
177
     3
291
     0
 70
    58
 90
        0
176
     1
 90
        2
176
     1
 90
        0
176
     1
 90
        0
176
     1
 40
0.6
176
     1
 40
30.0
176
     1
 62
     7
420
 16777215
176
     1
 90
        1
176
     1
 90
        4
176
     1
 62
     7
176
     1
 62
   257
176
     1
 90
        1
176
     1
 90
        1
176
     1
 40
1.0
176
     1
 90
        0
176
     1
 62
   257
176
     1
 40
1.0
176
     1
 90
        1
176
     1
 90
        6
176
     1
 90
        2
176
     1
 62
     7
176
     1
 90
        3
176
     1
 90
        0
176
     1
 90
        0
176
     1
290
     0
176
     1
 90
        1
176
     1
 40
0.0
176
     1
 90
        0
176
     1
290
     0
176
     1
290
     1
176
     1
290
     1
176
     1
290
     0
176
     1
290
     0
176
     1
290
     0
176
     1
290
     0
176
     1
290
     0
176
     1
290
     0
176
     1
 90
       50
176
     1
 40
0.0
176
     1
 40
1.0
176
     1
 90
        0
176
     1
 62
    18
420
        0
176
     1
 90
       50
176
     1
 90
        3
176
     1
 62
     5
420
      255
176
     1
290
     0
176
     1
 90
       50
176
     1
 90
       50
176
     1
 90
       50
176
     1
290
     0
176
     1
 90
       50
176
     1
 62
   256
176
     0
 40
1.0
176
     0
 90
        2
176
     1
  1
strokes_ogs.tif
176
     1
290
     0
176
     1
 40
1.0
176
     1
 40
1.0
176
     1
  0
DICTIONARYVAR
  5
193
102
{ACAD_REACTORS
330
18D
102
}
330
18D
100
DictionaryVariables
280
     0
  1
1:1
  0
DICTIONARYVAR
  5
18F
102
{ACAD_REACTORS
330
18D
102
}
330
18D
100
DictionaryVariables
280
     0
  1
STANDARD
  0
DICTIONARYVAR
  5
18E
102
{ACAD_REACTORS
330
18D
102
}
330
18D
100
DictionaryVariables
280
     0
  1
STANDARD
  0
DICTIONARYVAR
  5
190
102
{ACAD_REACTORS
330
18D
102
}
330
18D
100
DictionaryVariables
280
     0
  1

  0
DICTIONARYVAR
  5
191
102
{ACAD_REACTORS
330
18D
102
}
330
18D
100
DictionaryVariables
280
     0
  1

  0
DICTIONARYVAR
  5
195
102
{ACAD_REACTORS
330
18D
102
}
330
18D
100
DictionaryVariables
280
     0
  1
1
  0
DICTIONARYVAR
  5
196
102
{ACAD_REACTORS
330
18D
102
}
330
18D
100
DictionaryVariables
280
     0
  1
15
  0
DICTIONARYVAR
  5
194
102
{ACAD_REACTORS
330
18D
102
}
330
18D
100
DictionaryVariables
280
     0
  1
0
  0
DICTIONARYVAR
  5
192
102
{ACAD_REACTORS
330
18D
102
}
330
18D
100
DictionaryVariables
280
     0
  1
0
  0
DICTIONARY
  5
3A
330
39
100
AcDbDictionary
280
     1
281
     1
  3
BUMPTILE
360
3B
  3
DIFFUSETILE
360
3C
  3
OPACITYTILE
360
3D
  3
REFLECTIONTILE
360
3E
  3
REFRACTIONTILE
360
3F
  3
SPECULARTILE
360
40
  0
DICTIONARY
  5
32
330
31
100
AcDbDictionary
280
     1
281
     1
  3
BUMPTILE
360
33
  3
DIFFUSETILE
360
34
  3
OPACITYTILE
360
35
  3
REFLECTIONTILE
360
36
  3
REFRACTIONTILE
360
37
  3
SPECULARTILE
360
38
  0
DICTIONARY
  5
C
330
A
100
AcDbDictionary
280
     1
281
     1
  3
BUMPTILE
360
D
  3
DIFFUSETILE
360
E
  3
OPACITYTILE
360
F
  3
REFLECTIONTILE
360
10
  3
REFRACTIONTILE
360
11
  3
SPECULARTILE
360
12
  0
DICTIONARY
  5
197
330
46
100
AcDbDictionary
280
     1
281
     1
  3
ACAD_ROUNDTRIP_2008_TABLESTYLE_CELLSTYLEMAP
360
198
  0
XRECORD
  5
3B
102
{ACAD_REACTORS
330
3A
102
}
330
3A
100
AcDbXrecord
280
     1
270
     1
271
     1
  0
XRECORD
  5
3C
102
{ACAD_REACTORS
330
3A
102
}
330
3A
100
AcDbXrecord
280
     1
270
     1
271
     1
  0
XRECORD
  5
3D
102
{ACAD_REACTORS
330
3A
102
}
330
3A
100
AcDbXrecord
280
     1
270
     1
271
     1
  0
XRECORD
  5
3E
102
{ACAD_REACTORS
330
3A
102
}
330
3A
100
AcDbXrecord
280
     1
270
     1
271
     1
  0
XRECORD
  5
3F
102
{ACAD_REACTORS
330
3A
102
}
330
3A
100
AcDbXrecord
280
     1
270
     1
271
     1
  0
XRECORD
  5
40
102
{ACAD_REACTORS
330
3A
102
}
330
3A
100
AcDbXrecord
280
     1
270
     1
271
     1
  0
XRECORD
  5
33
102
{ACAD_REACTORS
330
32
102
}
330
32
100
AcDbXrecord
280
     1
270
     1
271
     1
  0
XRECORD
  5
34
102
{ACAD_REACTORS
330
32
102
}
330
32
100
AcDbXrecord
280
     1
270
     1
271
     1
  0
XRECORD
  5
35
102
{ACAD_REACTORS
330
32
102
}
330
32
100
AcDbXrecord
280
     1
270
     1
271
     1
  0
XRECORD
  5
36
102
{ACAD_REACTORS
330
32
102
}
330
32
100
AcDbXrecord
280
     1
270
     1
271
     1
  0
XRECORD
  5
37
102
{ACAD_REACTORS
330
32
102
}
330
32
100
AcDbXrecord
280
     1
270
     1
271
     1
  0
XRECORD
  5
38
102
{ACAD_REACTORS
330
32
102
}
330
32
100
AcDbXrecord
280
     1
270
     1
271
     1
  0
XRECORD
  5
D
102
{ACAD_REACTORS
330
C
102
}
330
C
100
AcDbXrecord
280
     1
270
     1
271
     1
  0
XRECORD
  5
E
102
{ACAD_REACTORS
330
C
102
}
330
C
100
AcDbXrecord
280
     1
270
     1
271
     1
  0
XRECORD
  5
F
102
{ACAD_REACTORS
330
C
102
}
330
C
100
AcDbXrecord
280
     1
270
     1
271
     1
  0
XRECORD
  5
10
102
{ACAD_REACTORS
330
C
102
}
330
C
100
AcDbXrecord
280
     1
270
     1
271
     1
  0
XRECORD
  5
11
102
{ACAD_REACTORS
330
C
102
}
330
C
100
AcDbXrecord
280
     1
270
     1
271
     1
  0
XRECORD
  5
12
102
{ACAD_REACTORS
330
C
102
}
330
C
100
AcDbXrecord
280
     1
270
     1
271
     1
  0
CELLSTYLEMAP
  5
198
102
{ACAD_REACTORS
330
197
102
}
330
197
100
AcDbCellStyleMap
 90
        3
300
CELLSTYLE
  1
TABLEFORMAT_BEGIN
 90
        5
170
     1
 91
        0
 92
    32768
 62
   257
 93
        1
300
CONTENTFORMAT
  1
CONTENTFORMAT_BEGIN
 90
        0
 91
        0
 92
      512
 93
        0
300

 40
0.0
140
1.0
 94
        5
 62
     0
340
1D
144
6.0
309
CONTENTFORMAT_END
171
     1
301
MARGIN
  1
CELLMARGIN_BEGIN
 40
1.5
 40
1.5
 40
1.5
 40
1.5
 40
4.5
 40
4.5
309
CELLMARGIN_END
 94
        6
 95
        1
302
GRIDFORMAT
  1
GRIDFORMAT_BEGIN
 90
        0
 91
        1
 62
     0
 92
       -2
340
0
 93
        0
 40
1.125
309
GRIDFORMAT_END
 95
        2
302
GRIDFORMAT
  1
GRIDFORMAT_BEGIN
 90
        0
 91
        1
 62
     0
 92
       -2
340
0
 93
        0
 40
1.125
309
GRIDFORMAT_END
 95
        4
302
GRIDFORMAT
  1
GRIDFORMAT_BEGIN
 90
        0
 91
        1
 62
     0
 92
       -2
340
0
 93
        0
 40
1.125
309
GRIDFORMAT_END
 95
        8
302
GRIDFORMAT
  1
GRIDFORMAT_BEGIN
 90
        0
 91
        1
 62
     0
 92
       -2
340
0
 93
        0
 40
1.125
309
GRIDFORMAT_END
 95
       16
302
GRIDFORMAT
  1
GRIDFORMAT_BEGIN
 90
        0
 91
        1
 62
     0
 92
       -2
340
0
 93
        0
 40
1.125
309
GRIDFORMAT_END
 95
       32
302
GRIDFORMAT
  1
GRIDFORMAT_BEGIN
 90
        0
 91
        1
 62
     0
 92
       -2
340
0
 93
        0
 40
1.125
309
GRIDFORMAT_END
309
TABLEFORMAT_END
  1
CELLSTYLE_BEGIN
 90
        1
 91
        1
300
_TITLE
309
CELLSTYLE_END
300
CELLSTYLE
  1
TABLEFORMAT_BEGIN
 90
        5
170
     1
 91
        0
 92
        0
 62
   257
 93
        1
300
CONTENTFORMAT
  1
CONTENTFORMAT_BEGIN
 90
        0
 91
        0
 92
      512
 93
        0
300

 40
0.0
140
1.0
 94
        5
 62
     0
340
1D
144
4.5
309
CONTENTFORMAT_END
171
     1
301
MARGIN
  1
CELLMARGIN_BEGIN
 40
1.5
 40
1.5
 40
1.5
 40
1.5
 40
4.5
 40
4.5
309
CELLMARGIN_END
 94
        6
 95
        1
302
GRIDFORMAT
  1
GRIDFORMAT_BEGIN
 90
        0
 91
        1
 62
     0
 92
       -2
340
0
 93
        0
 40
1.125
309
GRIDFORMAT_END
 95
        2
302
GRIDFORMAT
  1
GRIDFORMAT_BEGIN
 90
        0
 91
        1
 62
     0
 92
       -2
340
0
 93
        0
 40
1.125
309
GRIDFORMAT_END
 95
        4
302
GRIDFORMAT
  1
GRIDFORMAT_BEGIN
 90
        0
 91
        1
 62
     0
 92
       -2
340
0
 93
        0
 40
1.125
309
GRIDFORMAT_END
 95
        8
302
GRIDFORMAT
  1
GRIDFORMAT_BEGIN
 90
        0
 91
        1
 62
     0
 92
       -2
340
0
 93
        0
 40
1.125
309
GRIDFORMAT_END
 95
       16
302
GRIDFORMAT
  1
GRIDFORMAT_BEGIN
 90
        0
 91
        1
 62
     0
 92
       -2
340
0
 93
        0
 40
1.125
309
GRIDFORMAT_END
 95
       32
302
GRIDFORMAT
  1
GRIDFORMAT_BEGIN
 90
        0
 91
        1
 62
     0
 92
       -2
340
0
 93
        0
 40
1.125
309
GRIDFORMAT_END
309
TABLEFORMAT_END
  1
CELLSTYLE_BEGIN
 90
        2
 91
        1
300
_HEADER
309
CELLSTYLE_END
300
CELLSTYLE
  1
TABLEFORMAT_BEGIN
 90
        5
170
     1
 91
        0
 92
        0
 62
   257
 93
        1
300
CONTENTFORMAT
  1
CONTENTFORMAT_BEGIN
 90
        0
 91
        0
 92
      512
 93
        0
300

 40
0.0
140
1.0
 94
        2
 62
     0
340
1D
144
4.5
309
CONTENTFORMAT_END
171
     1
301
MARGIN
  1
CELLMARGIN_BEGIN
 40
1.5
 40
1.5
 40
1.5
 40
1.5
 40
4.5
 40
4.5
309
CELLMARGIN_END
 94
        6
 95
        1
302
GRIDFORMAT
  1
GRIDFORMAT_BEGIN
 90
        0
 91
        1
 62
     0
 92
       -2
340
0
 93
        0
 40
1.125
309
GRIDFORMAT_END
 95
        2
302
GRIDFORMAT
  1
GRIDFORMAT_BEGIN
 90
        0
 91
        1
 62
     0
 92
       -2
340
0
 93
        0
 40
1.125
309
GRIDFORMAT_END
 95
        4
302
GRIDFORMAT
  1
GRIDFORMAT_BEGIN
 90
        0
 91
        1
 62
     0
 92
       -2
340
0
 93
        0
 40
1.125
309
GRIDFORMAT_END
 95
        8
302
GRIDFORMAT
  1
GRIDFORMAT_BEGIN
 90
        0
 91
        1
 62
     0
 92
       -2
340
0
 93
        0
 40
1.125
309
GRIDFORMAT_END
 95
       16
302
GRIDFORMAT
  1
GRIDFORMAT_BEGIN
 90
        0
 91
        1
 62
     0
 92
       -2
340
0
 93
        0
 40
1.125
309
GRIDFORMAT_END
 95
       32
302
GRIDFORMAT
  1
GRIDFORMAT_BEGIN
 90
        0
 91
        1
 62
     0
 92
       -2
340
0
 93
        0
 40
1.125
309
GRIDFORMAT_END
309
TABLEFORMAT_END
  1
CELLSTYLE_BEGIN
 90
        3
 91
        2
300
_DATA
309
CELLSTYLE_END
  0
ENDSEC
  0
EOF
