  0
SECTION
  2
HEADER
  9
$ACADVER
  1
AC1015
  9
$ACADMAINTVER
 70
    20
  9
$DWGCODEPAGE
  3
ANSI_932
  9
$INSBASE
 10
0.0
 20
0.0
 30
0.0
  9
$EXTMIN
 10
522.8732432854313
 20
-7.789619372399999
 30
0.0
  9
$EXTMAX
 10
952.7996757132999
 20
249.3184854792539
 30
0.0
  9
$LIMMIN
 10
0.0
 20
0.0
  9
$LIMMAX
 10
420.0
 20
297.0
  9
$ORTHOMODE
 70
     0
  9
$REGENMODE
 70
     1
  9
$FILLMODE
 70
     1
  9
$QTEXTMODE
 70
     0
  9
$MIRRTEXT
 70
     1
  9
$LTSCALE
 40
1.0
  9
$ATTMODE
 70
     1
  9
$TEXTSIZE
 40
3.5
  9
$TRACEWID
 40
1.0
  9
$TEXTSTYLE
  7
Standard
  9
$CLAYER
  8
0
  9
$CELTYPE
  6
ByLayer
  9
$CECOLOR
 62
   256
  9
$CELTSCALE
 40
1.0
  9
$DISPSILH
 70
     0
  9
$DIMSCALE
 40
1.0
  9
$DIMASZ
 40
2.0
  9
$DIMEXO
 40
1.0
  9
$DIMDLI
 40
3.75
  9
$DIMRND
 40
0.0
  9
$DIMDLE
 40
0.0
  9
$DIMEXE
 40
1.0
  9
$DIMTP
 40
0.0
  9
$DIMTM
 40
0.0
  9
$DIMTXT
 40
3.5
  9
$DIMCEN
 40
2.5
  9
$DIMTSZ
 40
0.0
  9
$DIMTOL
 70
     0
  9
$DIMLIM
 70
     0
  9
$DIMTIH
 70
     1
  9
$DIMTOH
 70
     1
  9
$DIMSE1
 70
     0
  9
$DIMSE2
 70
     0
  9
$DIMTAD
 70
     1
  9
$DIMZIN
 70
     0
  9
$DIMBLK
  1

  9
$DIMASO
 70
     1
  9
$DIMSHO
 70
     1
  9
$DIMPOST
  1

  9
$DIMAPOST
  1

  9
$DIMALT
 70
     0
  9
$DIMALTD
 70
     3
  9
$DIMALTF
 40
0.0393700787
  9
$DIMLFAC
 40
5.0
  9
$DIMTOFL
 70
     1
  9
$DIMTVP
 40
0.0
  9
$DIMTIX
 70
     0
  9
$DIMSOXD
 70
     0
  9
$DIMSAH
 70
     0
  9
$DIMBLK1
  1

  9
$DIMBLK2
  1

  9
$DIMSTYLE
  2
ISO-25
  9
$DIMCLRD
 70
     0
  9
$DIMCLRE
 70
     0
  9
$DIMCLRT
 70
     0
  9
$DIMTFAC
 40
1.0
  9
$DIMGAP
 40
1.524
  9
$DIMJUST
 70
     0
  9
$DIMSD1
 70
     0
  9
$DIMSD2
 70
     0
  9
$DIMTOLJ
 70
     0
  9
$DIMTZIN
 70
     0
  9
$DIMALTZ
 70
     0
  9
$DIMALTTZ
 70
     0
  9
$DIMUPT
 70
     0
  9
$DIMDEC
 70
     1
  9
$DIMTDEC
 70
     1
  9
$DIMALTU
 70
     2
  9
$DIMALTTD
 70
     3
  9
$DIMTXSTY
  7
Standard
  9
$DIMAUNIT
 70
     0
  9
$DIMADEC
 70
     1
  9
$DIMALTRND
 40
0.0
  9
$DIMAZIN
 70
     0
  9
$DIMDSEP
 70
    44
  9
$DIMATFIT
 70
     3
  9
$DIMFRAC
 70
     0
  9
$DIMLDRBLK
  1

  9
$DIMLUNIT
 70
     2
  9
$DIMLWD
 70
    -2
  9
$DIMLWE
 70
    -2
  9
$DIMTMOVE
 70
     0
  9
$LUNITS
 70
     2
  9
$LUPREC
 70
     1
  9
$SKETCHINC
 40
1.0
  9
$FILLETRAD
 40
10.0
  9
$AUNITS
 70
     0
  9
$AUPREC
 70
     1
  9
$MENU
  1
.
  9
$ELEVATION
 40
0.0
  9
$PELEVATION
 40
0.0
  9
$THICKNESS
 40
0.0
  9
$LIMCHECK
 70
     0
  9
$CHAMFERA
 40
0.0
  9
$CHAMFERB
 40
0.0
  9
$CHAMFERC
 40
0.0
  9
$CHAMFERD
 40
0.0
  9
$SKPOLY
 70
     0
  9
$TDCREATE
 40
2457121.368953542
  9
$TDUCREATE
 40
2457120.993953542
  9
$TDUPDATE
 40
2457121.438021644
  9
$TDUUPDATE
 40
2457121.063021644
  9
$TDINDWG
 40
0.0011556019
  9
$TDUSRTIMER
 40
0.0011556019
  9
$USRTIMER
 70
     1
  9
$ANGBASE
 50
0.0
  9
$ANGDIR
 70
     0
  9
$PDMODE
 70
     0
  9
$PDSIZE
 40
-1.0
  9
$PLINEWID
 40
0.0
  9
$SPLFRAME
 70
     0
  9
$SPLINETYPE
 70
     6
  9
$SPLINESEGS
 70
     8
  9
$HANDSEED
  5
309
  9
$SURFTAB1
 70
     6
  9
$SURFTAB2
 70
     6
  9
$SURFTYPE
 70
     6
  9
$SURFU
 70
     6
  9
$SURFV
 70
     6
  9
$UCSBASE
  2

  9
$UCSNAME
  2

  9
$UCSORG
 10
0.0
 20
0.0
 30
0.0
  9
$UCSXDIR
 10
1.0
 20
0.0
 30
0.0
  9
$UCSYDIR
 10
0.0
 20
1.0
 30
0.0
  9
$UCSORTHOREF
  2

  9
$UCSORTHOVIEW
 70
     0
  9
$UCSORGTOP
 10
0.0
 20
0.0
 30
0.0
  9
$UCSORGBOTTOM
 10
0.0
 20
0.0
 30
0.0
  9
$UCSORGLEFT
 10
0.0
 20
0.0
 30
0.0
  9
$UCSORGRIGHT
 10
0.0
 20
0.0
 30
0.0
  9
$UCSORGFRONT
 10
0.0
 20
0.0
 30
0.0
  9
$UCSORGBACK
 10
0.0
 20
0.0
 30
0.0
  9
$PUCSBASE
  2

  9
$PUCSNAME
  2

  9
$PUCSORG
 10
0.0
 20
0.0
 30
0.0
  9
$PUCSXDIR
 10
1.0
 20
0.0
 30
0.0
  9
$PUCSYDIR
 10
0.0
 20
1.0
 30
0.0
  9
$PUCSORTHOREF
  2

  9
$PUCSORTHOVIEW
 70
     0
  9
$PUCSORGTOP
 10
0.0
 20
0.0
 30
0.0
  9
$PUCSORGBOTTOM
 10
0.0
 20
0.0
 30
0.0
  9
$PUCSORGLEFT
 10
0.0
 20
0.0
 30
0.0
  9
$PUCSORGRIGHT
 10
0.0
 20
0.0
 30
0.0
  9
$PUCSORGFRONT
 10
0.0
 20
0.0
 30
0.0
  9
$PUCSORGBACK
 10
0.0
 20
0.0
 30
0.0
  9
$USERI1
 70
     0
  9
$USERI2
 70
     0
  9
$USERI3
 70
     0
  9
$USERI4
 70
     0
  9
$USERI5
 70
     0
  9
$USERR1
 40
0.0
  9
$USERR2
 40
0.0
  9
$USERR3
 40
0.0
  9
$USERR4
 40
0.0
  9
$USERR5
 40
0.0
  9
$WORLDVIEW
 70
     1
  9
$SHADEDGE
 70
     3
  9
$SHADEDIF
 70
    70
  9
$TILEMODE
 70
     1
  9
$MAXACTVP
 70
    64
  9
$PINSBASE
 10
0.0
 20
0.0
 30
0.0
  9
$PLIMCHECK
 70
     0
  9
$PEXTMIN
 10
29.06818420886992
 20
20.36233246326446
 30
0.0
  9
$PEXTMAX
 10
261.6136578798294
 20
183.2609921693802
 30
0.0
  9
$PLIMMIN
 10
-3.17498779296875
 20
-3.174999952316284
  9
$PLIMMAX
 10
293.8568420410156
 20
206.7983276844024
  9
$UNITMODE
 70
     0
  9
$VISRETAIN
 70
     1
  9
$PLINEGEN
 70
     0
  9
$PSLTSCALE
 70
     1
  9
$TREEDEPTH
 70
  3020
  9
$CMLSTYLE
  2
Standard
  9
$CMLJUST
 70
     0
  9
$CMLSCALE
 40
20.0
  9
$PROXYGRAPHICS
 70
     1
  9
$MEASUREMENT
 70
     1
  9
$CELWEIGHT
370
    -1
  9
$ENDCAPS
280
     0
  9
$JOINSTYLE
280
     0
  9
$LWDISPLAY
290
     1
  9
$INSUNITS
 70
     4
  9
$HYPERLINKBASE
  1

  9
$STYLESHEET
  1

  9
$XEDIT
290
     1
  9
$CEPSNTYPE
380
     0
  9
$PSTYLEMODE
290
     1
  9
$FINGERPRINTGUID
  2
{91F51BA6-00C2-4791-BEF2-91AC3D057E06}
  9
$VERSIONGUID
  2
{82400EEA-146A-4E32-A120-72C4A9F3A8C7}
  9
$EXTNAMES
290
     1
  9
$PSVPSCALE
 40
0.0
  9
$OLESTARTUP
290
     0
  0
ENDSEC
  0
SECTION
  2
CLASSES
  0
CLASS
  1
ACDBDICTIONARYWDFLT
  2
AcDbDictionaryWithDefault
  3
ObjectDBX Classes
 90
        0
280
     0
281
     0
  0
CLASS
  1
VISUALSTYLE
  2
AcDbVisualStyle
  3
ObjectDBX Classes
 90
     4095
280
     0
281
     0
  0
CLASS
  1
MATERIAL
  2
AcDbMaterial
  3
ObjectDBX Classes
 90
     1153
280
     0
281
     0
  0
CLASS
  1
SCALE
  2
AcDbScale
  3
ObjectDBX Classes
 90
     1153
280
     0
281
     0
  0
CLASS
  1
SUN
  2
AcDbSun
  3
SCENEOE
 90
    33921
280
     0
281
     0
  0
CLASS
  1
ACDBPLACEHOLDER
  2
AcDbPlaceHolder
  3
ObjectDBX Classes
 90
        0
280
     0
281
     0
  0
CLASS
  1
LAYOUT
  2
AcDbLayout
  3
ObjectDBX Classes
 90
        0
280
     0
281
     0
  0
CLASS
  1
TABLESTYLE
  2
AcDbTableStyle
  3
ObjectDBX Classes
 90
     4095
280
     0
281
     0
  0
CLASS
  1
MLEADERSTYLE
  2
AcDbMLeaderStyle
  3
ACDB_MLEADERSTYLE_CLASS
 90
     4095
280
     0
281
     0
  0
CLASS
  1
ACDBSECTIONVIEWSTYLE
  2
AcDbSectionViewStyle
  3
ObjectDBX Classes
 90
     1025
280
     0
281
     0
  0
CLASS
  1
ACDBDETAILVIEWSTYLE
  2
AcDbDetailViewStyle
  3
ObjectDBX Classes
 90
     1025
280
     0
281
     0
  0
CLASS
  1
DICTIONARYVAR
  2
AcDbDictionaryVar
  3
ObjectDBX Classes
 90
        0
280
     0
281
     0
  0
CLASS
  1
CELLSTYLEMAP
  2
AcDbCellStyleMap
  3
ObjectDBX Classes
 90
     1152
280
     0
281
     0
  0
ENDSEC
  0
SECTION
  2
TABLES
  0
TABLE
  2
VPORT
  5
8
330
0
100
AcDbSymbolTable
 70
     1
  0
VPORT
  5
29
330
8
100
AcDbSymbolTableRecord
100
AcDbViewportTableRecord
  2
*Active
 70
     0
 10
0.0
 20
0.0
 11
1.0
 21
1.0
 12
846.6135089300719
 22
148.2890871792103
 13
0.0
 23
0.0
 14
10.0
 24
10.0
 15
10.0
 25
10.0
 16
0.0
 26
0.0
 36
1.0
 17
0.0
 27
0.0
 37
0.0
 40
428.2743377331914
 41
1.921548117154811
 42
50.0
 43
0.0
 44
0.0
 50
0.0
 51
0.0
 71
     0
 72
  2000
 73
     1
 74
     3
 75
     0
 76
     0
 77
     0
 78
     0
281
     0
 65
     1
110
0.0
120
0.0
130
0.0
111
1.0
121
0.0
131
0.0
112
0.0
122
1.0
132
0.0
 79
     0
146
0.0
1001
ACAD_NAV_VCDISPLAY
1070
     3
  0
ENDTAB
  0
TABLE
  2
LTYPE
  5
5
330
0
100
AcDbSymbolTable
 70
     6
  0
LTYPE
  5
14
330
5
100
AcDbSymbolTableRecord
100
AcDbLinetypeTableRecord
  2
ByBlock
 70
     0
  3

 72
    65
 73
     0
 40
0.0
  0
LTYPE
  5
15
330
5
100
AcDbSymbolTableRecord
100
AcDbLinetypeTableRecord
  2
ByLayer
 70
     0
  3

 72
    65
 73
     0
 40
0.0
  0
LTYPE
  5
16
330
5
100
AcDbSymbolTableRecord
100
AcDbLinetypeTableRecord
  2
Continuous
 70
     0
  3
Solid line
 72
    65
 73
     0
 40
0.0
  0
LTYPE
  5
6A
330
5
100
AcDbSymbolTableRecord
100
AcDbLinetypeTableRecord
  2
HIDDEN
 70
     0
  3
Hidden __ __ __ __ __ __ __ __ __ __ __ __ __ __
 72
    65
 73
     2
 40
1.905
 49
1.27
 74
     0
 49
-0.635
 74
     0
  0
LTYPE
  5
6B
330
5
100
AcDbSymbolTableRecord
100
AcDbLinetypeTableRecord
  2
PHANTOM
 70
     0
  3
Phantom ______  __  __  ______  __  __  ______
 72
    65
 73
     6
 40
12.7
 49
6.349999999999999
 74
     0
 49
-1.27
 74
     0
 49
1.27
 74
     0
 49
-1.27
 74
     0
 49
1.27
 74
     0
 49
-1.27
 74
     0
  0
LTYPE
  5
6C
330
5
100
AcDbSymbolTableRecord
100
AcDbLinetypeTableRecord
  2
CENTER
 70
     0
  3
Center ____ _ ____ _ ____ _ ____ _ ____ _ ____
 72
    65
 73
     4
 40
10.16
 49
6.349999999999999
 74
     0
 49
-1.27
 74
     0
 49
1.27
 74
     0
 49
-1.27
 74
     0
  0
LTYPE
  5
6D
330
5
100
AcDbSymbolTableRecord
100
AcDbLinetypeTableRecord
  2
CENTERX2
 70
     0
  3
Center (2x) ________  __  ________  __  _____
 72
    65
 73
     4
 40
20.32
 49
12.7
 74
     0
 49
-2.54
 74
     0
 49
2.54
 74
     0
 49
-2.54
 74
     0
  0
LTYPE
  5
6E
330
5
100
AcDbSymbolTableRecord
100
AcDbLinetypeTableRecord
  2
DOT2
 70
     0
  3
Dot (.5x) ........................................
 72
    65
 73
     2
 40
0.635
 49
0.0
 74
     0
 49
-0.635
 74
     0
  0
ENDTAB
  0
TABLE
  2
LAYER
  5
2
102
{ACAD_XDICTIONARY
360
256
102
}
330
0
100
AcDbSymbolTable
 70
     4
  0
LAYER
  5
10
102
{ACAD_XDICTIONARY
360
2A2
102
}
330
2
100
AcDbSymbolTableRecord
100
AcDbLayerTableRecord
  2
0
 70
     0
 62
     7
  6
Continuous
370
    -3
390
F
  0
LAYER
  5
6F
102
{ACAD_XDICTIONARY
360
2A4
102
}
330
2
100
AcDbSymbolTableRecord
100
AcDbLayerTableRecord
  2
FORMAT
 70
     0
 62
     7
  6
Continuous
370
    -3
390
F
  0
LAYER
  5
70
102
{ACAD_XDICTIONARY
360
2A6
102
}
330
2
100
AcDbSymbolTableRecord
100
AcDbLayerTableRecord
  2
図枠
 70
     0
 62
     7
  6
Continuous
370
    15
390
F
  0
LAYER
  5
71
102
{ACAD_XDICTIONARY
360
2A8
102
}
330
2
100
AcDbSymbolTableRecord
100
AcDbLayerTableRecord
  2
ﾚｲﾔｰ2
 70
     0
 62
     7
  6
Continuous
370
    -3
390
F
  0
ENDTAB
  0
TABLE
  2
STYLE
  5
3
330
0
100
AcDbSymbolTable
 70
     2
  0
STYLE
  5
11
330
3
100
AcDbSymbolTableRecord
100
AcDbTextStyleTableRecord
  2
Standard
 70
     0
 40
0.0
 41
1.0
 50
0.0
 71
     0
 42
3.5
  3
txt
  4
bigfont
  0
STYLE
  5
78
330
3
100
AcDbSymbolTableRecord
100
AcDbTextStyleTableRecord
  2
SLDTEXTSTYLE0
 70
     0
 40
0.0
 41
0.7
 50
0.0
 71
     0
 42
3.5
  3
TXT
  4
bigfont
  0
ENDTAB
  0
TABLE
  2
VIEW
  5
6
330
0
100
AcDbSymbolTable
 70
     4
  0
ENDTAB
  0
TABLE
  2
UCS
  5
7
330
0
100
AcDbSymbolTable
 70
     0
  0
ENDTAB
  0
TABLE
  2
APPID
  5
9
330
0
100
AcDbSymbolTable
 70
     4
  0
APPID
  5
12
330
9
100
AcDbSymbolTableRecord
100
AcDbRegAppTableRecord
  2
ACAD
 70
     0
  0
APPID
  5
25C
330
9
100
AcDbSymbolTableRecord
100
AcDbRegAppTableRecord
  2
ACAD_NAV_VCDISPLAY
 70
     0
  0
APPID
  5
262
330
9
100
AcDbSymbolTableRecord
100
AcDbRegAppTableRecord
  2
ACAD_PSEXT
 70
     0
  0
APPID
  5
300
330
9
100
AcDbSymbolTableRecord
100
AcDbRegAppTableRecord
  2
ACAD_MLEADERVER
 70
     0
  0
ENDTAB
  0
TABLE
  2
DIMSTYLE
  5
A
330
0
100
AcDbSymbolTable
 70
     1
100
AcDbDimStyleTable
 71
     0
  0
DIMSTYLE
105
27
330
A
100
AcDbSymbolTableRecord
100
AcDbDimStyleTableRecord
  2
ISO-25
 70
     0
 41
2.5
 42
0.625
 43
3.75
 44
1.25
 73
     0
 74
     0
 77
     1
 78
     8
140
2.5
141
2.5
143
0.0393700787
147
0.625
171
     3
172
     1
271
     2
272
     2
274
     3
278
    44
283
     0
284
     8
340
11
  0
ENDTAB
  0
TABLE
  2
BLOCK_RECORD
  5
1
330
0
100
AcDbSymbolTable
 70
     9
  0
BLOCK_RECORD
  5
1F
330
1
100
AcDbSymbolTableRecord
100
AcDbBlockTableRecord
  2
*Model_Space
340
22
  0
BLOCK_RECORD
  5
28D
330
1
100
AcDbSymbolTableRecord
100
AcDbBlockTableRecord
  2
*Paper_Space
340
28E
  0
BLOCK_RECORD
  5
72
330
1
100
AcDbSymbolTableRecord
100
AcDbBlockTableRecord
  2
三角３
340
0
  0
BLOCK_RECORD
  5
7A
330
1
100
AcDbSymbolTableRecord
100
AcDbBlockTableRecord
  2
三角２
340
0
  0
BLOCK_RECORD
  5
81
330
1
100
AcDbSymbolTableRecord
100
AcDbBlockTableRecord
  2
三角６
340
0
  0
BLOCK_RECORD
  5
88
330
1
100
AcDbSymbolTableRecord
100
AcDbBlockTableRecord
  2
三角５
340
0
  0
BLOCK_RECORD
  5
8F
330
1
100
AcDbSymbolTableRecord
100
AcDbBlockTableRecord
  2
三角４
340
0
  0
BLOCK_RECORD
  5
96
330
1
100
AcDbSymbolTableRecord
100
AcDbBlockTableRecord
  2
三角１
340
0
  0
ENDTAB
  0
ENDSEC
  0
SECTION
  2
BLOCKS
  0
BLOCK
  5
20
330
1F
100
AcDbEntity
  8
0
100
AcDbBlockBegin
  2
*Model_Space
 70
     0
 10
0.0
 20
0.0
 30
0.0
  3
*Model_Space
  1
*Model_Space
  0
ENDBLK
  5
21
330
1F
100
AcDbEntity
  8
0
100
AcDbBlockEnd
  0
BLOCK
  5
28F
330
28D
100
AcDbEntity
 67
     1
  8
0
100
AcDbBlockBegin
  2
*Paper_Space
 70
     0
 10
0.0
 20
0.0
 30
0.0
  3
*Paper_Space
  1

  0
ENDBLK
  5
290
330
28D
100
AcDbEntity
 67
     1
  8
0
100
AcDbBlockEnd
  0
BLOCK
  5
73
330
72
100
AcDbEntity
  8
0
100
AcDbBlockBegin
  2
三角３
 70
     0
 10
0.0
 20
0.0
 30
0.0
  3
三角３
  1
三角３
  0
LINE
  5
75
330
72
100
AcDbEntity
  8
FORMAT
370
     0
100
AcDbLine
 10
0.0
 20
0.0
 30
0.0
 11
-1.75
 21
-3.5
 31
0.0
  0
LINE
  5
76
330
72
100
AcDbEntity
  8
FORMAT
370
     0
100
AcDbLine
 10
-1.75
 20
-3.5
 30
0.0
 11
1.75
 21
-3.5
 31
0.0
  0
LINE
  5
77
330
72
100
AcDbEntity
  8
FORMAT
370
     0
100
AcDbLine
 10
1.75
 20
-3.5
 30
0.0
 11
0.0
 21
0.0
 31
0.0
  0
MTEXT
  5
79
330
72
100
AcDbEntity
  8
FORMAT
 62
     7
100
AcDbMText
 10
-0.6943926639
 20
-0.9380245362
 30
0.0
 40
2.1166666667
 41
0.0
 71
     1
 72
     1
  1
3
  7
SLDTEXTSTYLE0
 73
     1
 44
1.0
1001
ACAD
1000
MTEXTBEGIN
1070
    73
1070
     1
1070
    44
1040
1.0
1070
    74
1070
     0
1000
MTEXTEND
  0
ENDBLK
  5
74
330
72
100
AcDbEntity
  8
0
100
AcDbBlockEnd
  0
BLOCK
  5
7B
330
7A
100
AcDbEntity
  8
0
100
AcDbBlockBegin
  2
三角２
 70
     0
 10
0.0
 20
0.0
 30
0.0
  3
三角２
  1
三角２
  0
LINE
  5
7D
330
7A
100
AcDbEntity
  8
FORMAT
370
     0
100
AcDbLine
 10
0.0
 20
0.0
 30
0.0
 11
-1.75
 21
-3.5
 31
0.0
  0
LINE
  5
7E
330
7A
100
AcDbEntity
  8
FORMAT
370
     0
100
AcDbLine
 10
-1.75
 20
-3.5
 30
0.0
 11
1.75
 21
-3.5
 31
0.0
  0
LINE
  5
7F
330
7A
100
AcDbEntity
  8
FORMAT
370
     0
100
AcDbLine
 10
1.75
 20
-3.5
 30
0.0
 11
0.0
 21
0.0
 31
0.0
  0
MTEXT
  5
80
330
7A
100
AcDbEntity
  8
FORMAT
 62
     7
100
AcDbMText
 10
-0.6943926639
 20
-0.9380245362
 30
0.0
 40
2.1166666667
 41
0.0
 71
     1
 72
     1
  1
2
  7
SLDTEXTSTYLE0
 73
     1
 44
1.0
1001
ACAD
1000
MTEXTBEGIN
1070
    73
1070
     1
1070
    44
1040
1.0
1070
    74
1070
     0
1000
MTEXTEND
  0
ENDBLK
  5
7C
330
7A
100
AcDbEntity
  8
0
100
AcDbBlockEnd
  0
BLOCK
  5
82
330
81
100
AcDbEntity
  8
0
100
AcDbBlockBegin
  2
三角６
 70
     0
 10
0.0
 20
0.0
 30
0.0
  3
三角６
  1
三角６
  0
LINE
  5
84
330
81
100
AcDbEntity
  8
FORMAT
370
     0
100
AcDbLine
 10
0.0
 20
0.0
 30
0.0
 11
-1.75
 21
-3.5
 31
0.0
  0
LINE
  5
85
330
81
100
AcDbEntity
  8
FORMAT
370
     0
100
AcDbLine
 10
-1.75
 20
-3.5
 30
0.0
 11
1.75
 21
-3.5
 31
0.0
  0
LINE
  5
86
330
81
100
AcDbEntity
  8
FORMAT
370
     0
100
AcDbLine
 10
1.75
 20
-3.5
 30
0.0
 11
0.0
 21
0.0
 31
0.0
  0
MTEXT
  5
87
330
81
100
AcDbEntity
  8
FORMAT
 62
     7
100
AcDbMText
 10
-0.6943926639
 20
-0.9380245362
 30
0.0
 40
2.1166666667
 41
0.0
 71
     1
 72
     1
  1
6
  7
SLDTEXTSTYLE0
 73
     1
 44
1.0
1001
ACAD
1000
MTEXTBEGIN
1070
    73
1070
     1
1070
    44
1040
1.0
1070
    74
1070
     0
1000
MTEXTEND
  0
ENDBLK
  5
83
330
81
100
AcDbEntity
  8
0
100
AcDbBlockEnd
  0
BLOCK
  5
89
330
88
100
AcDbEntity
  8
0
100
AcDbBlockBegin
  2
三角５
 70
     0
 10
0.0
 20
0.0
 30
0.0
  3
三角５
  1
三角５
  0
LINE
  5
8B
330
88
100
AcDbEntity
  8
FORMAT
370
     0
100
AcDbLine
 10
0.0
 20
0.0
 30
0.0
 11
-1.75
 21
-3.5
 31
0.0
  0
LINE
  5
8C
330
88
100
AcDbEntity
  8
FORMAT
370
     0
100
AcDbLine
 10
-1.75
 20
-3.5
 30
0.0
 11
1.75
 21
-3.5
 31
0.0
  0
LINE
  5
8D
330
88
100
AcDbEntity
  8
FORMAT
370
     0
100
AcDbLine
 10
1.75
 20
-3.5
 30
0.0
 11
0.0
 21
0.0
 31
0.0
  0
MTEXT
  5
8E
330
88
100
AcDbEntity
  8
FORMAT
 62
     7
100
AcDbMText
 10
-0.6943926639
 20
-0.9380245362
 30
0.0
 40
2.1166666667
 41
0.0
 71
     1
 72
     1
  1
5
  7
SLDTEXTSTYLE0
 73
     1
 44
1.0
1001
ACAD
1000
MTEXTBEGIN
1070
    73
1070
     1
1070
    44
1040
1.0
1070
    74
1070
     0
1000
MTEXTEND
  0
ENDBLK
  5
8A
330
88
100
AcDbEntity
  8
0
100
AcDbBlockEnd
  0
BLOCK
  5
90
330
8F
100
AcDbEntity
  8
0
100
AcDbBlockBegin
  2
三角４
 70
     0
 10
0.0
 20
0.0
 30
0.0
  3
三角４
  1
三角４
  0
LINE
  5
92
330
8F
100
AcDbEntity
  8
FORMAT
370
     0
100
AcDbLine
 10
0.0
 20
0.0
 30
0.0
 11
-1.75
 21
-3.5
 31
0.0
  0
LINE
  5
93
330
8F
100
AcDbEntity
  8
FORMAT
370
     0
100
AcDbLine
 10
-1.75
 20
-3.5
 30
0.0
 11
1.75
 21
-3.5
 31
0.0
  0
LINE
  5
94
330
8F
100
AcDbEntity
  8
FORMAT
370
     0
100
AcDbLine
 10
1.75
 20
-3.5
 30
0.0
 11
0.0
 21
0.0
 31
0.0
  0
MTEXT
  5
95
330
8F
100
AcDbEntity
  8
FORMAT
 62
     7
100
AcDbMText
 10
-0.6943926639
 20
-0.9380245362
 30
0.0
 40
2.1166666667
 41
0.0
 71
     1
 72
     1
  1
4
  7
SLDTEXTSTYLE0
 73
     1
 44
1.0
1001
ACAD
1000
MTEXTBEGIN
1070
    73
1070
     1
1070
    44
1040
1.0
1070
    74
1070
     0
1000
MTEXTEND
  0
ENDBLK
  5
91
330
8F
100
AcDbEntity
  8
0
100
AcDbBlockEnd
  0
BLOCK
  5
97
330
96
100
AcDbEntity
  8
0
100
AcDbBlockBegin
  2
三角１
 70
     0
 10
0.0
 20
0.0
 30
0.0
  3
三角１
  1
三角１
  0
LINE
  5
99
330
96
100
AcDbEntity
  8
FORMAT
370
     0
100
AcDbLine
 10
0.0
 20
0.0
 30
0.0
 11
-1.75
 21
-3.5
 31
0.0
  0
LINE
  5
9A
330
96
100
AcDbEntity
  8
FORMAT
370
     0
100
AcDbLine
 10
-1.75
 20
-3.5
 30
0.0
 11
1.75
 21
-3.5
 31
0.0
  0
LINE
  5
9B
330
96
100
AcDbEntity
  8
FORMAT
370
     0
100
AcDbLine
 10
1.75
 20
-3.5
 30
0.0
 11
0.0
 21
0.0
 31
0.0
  0
MTEXT
  5
9C
330
96
100
AcDbEntity
  8
FORMAT
 62
     7
100
AcDbMText
 10
-0.6943926639
 20
-0.9380245362
 30
0.0
 40
2.1166666667
 41
0.0
 71
     1
 72
     1
  1
1
  7
SLDTEXTSTYLE0
 73
     1
 44
1.0
1001
ACAD
1000
MTEXTBEGIN
1070
    73
1070
     1
1070
    44
1040
1.0
1070
    74
1070
     0
1000
MTEXTEND
  0
ENDBLK
  5
98
330
96
100
AcDbEntity
  8
0
100
AcDbBlockEnd
  0
ENDSEC
  0
SECTION
  2
ENTITIES
  0
LINE
  5
DD
330
1F
100
AcDbEntity
  8
0
370
    15
100
AcDbLine
 10
556.0197113587999
 20
0.5032430823
 30
0.0
 11
932.9076368412
 21
218.0760112967
 31
0.0
  0
LINE
  5
DE
330
1F
100
AcDbEntity
  8
0
370
    15
100
AcDbLine
 10
917.0486331958999
 20
233.4870318392
 30
0.0
 11
540.1607077134999
 21
15.9142636248
 31
0.0
  0
LINE
  5
DF
330
1F
100
AcDbEntity
  8
0
370
    15
100
AcDbLine
 10
923.5213045044
 20
237.2485182663
 30
0.0
 11
923.3729996225999
 21
237.5864602208
 31
0.0
  0
LINE
  5
E0
330
1F
100
AcDbEntity
  8
0
370
    15
100
AcDbLine
 10
923.3729996225999
 20
237.5864602208
 30
0.0
 11
923.3463970586999
 21
237.6176115592
 31
0.0
  0
SPLINE
  5
E1
330
1F
100
AcDbEntity
  8
0
370
    15
100
AcDbSpline
210
0.0
220
0.0
230
1.0
 70
     8
 71
     3
 72
    13
 73
     9
 74
     0
 42
0.000000001
 43
0.0000000001
 40
0.0
 40
0.0
 40
0.0
 40
0.0
 40
0.0618741715626053
 40
0.1945697450469304
 40
0.4094594698528529
 40
0.6278380959334004
 40
0.8594522859114997
 40
1.0
 40
1.0
 40
1.0
 40
1.0
 10
923.0525123523783
 20
238.0087113186819
 30
0.0
 10
923.0295847378473
 20
238.0407297024148
 30
0.0
 10
922.9574864777616
 20
238.1414148284112
 30
0.0
 10
922.7668098892833
 20
238.2965840157207
 30
0.0
 10
922.4981173188311
 20
238.4822011307634
 30
0.0
 10
922.1612513020152
 20
238.5982219027122
 30
0.0
 10
921.8454763918201
 20
238.625419834391
 30
0.0
 10
921.6729569713203
 20
238.5422318030656
 30
0.0
 10
921.6078046547556
 20
238.5108156706927
 30
0.0
  0
SPLINE
  5
E2
330
1F
100
AcDbEntity
  8
0
370
    15
100
AcDbSpline
210
0.0
220
0.0
230
1.0
 70
     8
 71
     3
 72
     9
 73
     5
 74
     0
 42
0.000000001
 43
0.0000000001
 40
0.0
 40
0.0
 40
0.0
 40
0.0
 40
0.2003642716650045
 40
1.0
 40
1.0
 40
1.0
 40
1.0
 10
923.634627501854
 20
236.9332257104218
 30
0.0
 10
923.6317342383475
 20
236.9511271614144
 30
0.0
 10
923.6172942212606
 20
237.0404716879803
 30
0.0
 10
923.5717077124265
 20
237.1287893571952
 30
0.0
 10
923.5352551112328
 20
237.1994113209426
 30
0.0
  0
LINE
  5
E3
330
1F
100
AcDbEntity
  8
0
370
    15
100
AcDbLine
 10
921.6019475599001
 20
238.529561324
 30
0.0
 11
921.2213924693999
 21
238.3611637109
 31
0.0
  0
LINE
  5
E4
330
1F
100
AcDbEntity
  8
0
370
    15
100
AcDbLine
 10
922.2930340447
 20
237.3039881887
 30
0.0
 11
922.3986961939999
 21
237.3649856491
 31
0.0
  0
LINE
  5
E5
330
1F
100
AcDbEntity
  8
0
370
    15
100
AcDbLine
 10
923.0576898292998
 20
236.7780418373
 30
0.0
 11
922.7821758805999
 21
236.6189910202
 31
0.0
  0
LINE
  5
E6
330
1F
100
AcDbEntity
  8
0
370
    15
100
AcDbLine
 10
922.4715707291998
 20
237.6924704836
 30
0.0
 11
922.7622996902001
 21
237.8603047403
 31
0.0
  0
LINE
  5
E7
330
1F
100
AcDbEntity
  8
0
370
    15
100
AcDbLine
 10
923.3691998208
 20
237.2432879646
 30
0.0
 11
922.8241567758999
 21
236.9286413122
 31
0.0
  0
LINE
  5
E8
330
1F
100
AcDbEntity
  8
0
370
    15
100
AcDbLine
 10
536.3773274095
 20
16.1847757568
 30
0.0
 11
536.1109069725999
 21
15.9903201573
 31
0.0
  0
SPLINE
  5
E9
330
1F
100
AcDbEntity
  8
0
370
    15
100
AcDbSpline
210
0.0
220
0.0
230
1.0
 70
     8
 71
     3
 72
    10
 73
     6
 74
     0
 42
0.000000001
 43
0.0000000001
 40
0.0
 40
0.0
 40
0.0
 40
0.0
 40
0.4566724305333021
 40
0.9378475016822608
 40
1.0
 40
1.0
 40
1.0
 40
1.0
 10
535.7264404570086
 20
15.25194111867484
 30
0.0
 10
535.7234930280246
 20
15.14732946304584
 30
0.0
 10
535.7174400265206
 20
14.93249324058345
 30
0.0
 10
535.7461667461136
 20
14.68510446351742
 30
0.0
 10
535.8026629298406
 20
14.55470127573868
 30
0.0
 10
535.8091256590695
 20
14.53978415324295
 30
0.0
  0
SPLINE
  5
EA
330
1F
100
AcDbEntity
  8
0
370
    15
100
AcDbSpline
210
0.0
220
0.0
230
1.0
 70
     8
 71
     3
 72
    10
 73
     6
 74
     0
 42
0.000000001
 43
0.0000000001
 40
0.0
 40
0.0
 40
0.0
 40
0.0
 40
0.4710383806588969
 40
0.9856533490953443
 40
1.0
 40
1.0
 40
1.0
 40
1.0
 10
536.1098964360277
 20
15.98089945397578
 30
0.0
 10
536.015790556287
 20
15.88986371896042
 30
0.0
 10
535.8188728966138
 20
15.69937037321707
 30
0.0
 10
535.7265195743121
 20
15.41726769463711
 30
0.0
 10
535.7264425461876
 20
15.25630674828236
 30
0.0
 10
535.7264404570086
 20
15.25194111867484
 30
0.0
  0
LINE
  5
EB
330
1F
100
AcDbEntity
  8
0
370
    15
100
AcDbLine
 10
535.8941338769
 20
14.3218287119
 30
0.0
 11
536.0419458381
 21
13.9850025575
 31
0.0
  0
LINE
  5
EC
330
1F
100
AcDbEntity
  8
0
370
    15
100
AcDbLine
 10
952.7996589203999
 20
238.7357387927
 30
0.0
 11
952.7996757132999
 21
239.1439522297
 31
0.0
  0
LINE
  5
ED
330
1F
100
AcDbEntity
  8
0
370
    15
100
AcDbLine
 10
952.3401308432999
 20
239.9399933655
 30
0.0
 11
951.9866185538001
 21
240.1441189603
 31
0.0
  0
LINE
  5
EE
330
1F
100
AcDbEntity
  8
0
370
    15
100
AcDbLine
 10
947.9652415405
 20
235.5558883873
 30
0.0
 11
952.5614396642998
 21
238.2092170865
 31
0.0
  0
LINE
  5
EF
330
1F
100
AcDbEntity
  8
0
370
    15
100
AcDbLine
 10
951.4115330375998
 20
240.2011295633
 30
0.0
 11
946.8153349138001
 21
237.5478008641
 31
0.0
  0
LINE
  5
F0
330
1F
100
AcDbEntity
  8
0
370
    15
100
AcDbLine
 10
943.8194029078999
 20
243.9199302401
 30
0.0
 11
943.8194193715
 21
244.3281438672
 31
0.0
  0
LINE
  5
F1
330
1F
100
AcDbEntity
  8
0
370
    15
100
AcDbLine
 10
943.3598748307
 20
245.1241848129
 30
0.0
 11
943.006362212
 21
245.3283105978
 31
0.0
  0
LINE
  5
F2
330
1F
100
AcDbEntity
  8
0
370
    15
100
AcDbLine
 10
938.9849851986999
 20
240.7400800248
 30
0.0
 11
943.5811833225001
 21
243.393408724
 31
0.0
  0
LINE
  5
F3
330
1F
100
AcDbEntity
  8
0
370
    15
100
AcDbLine
 10
942.4312766957999
 20
245.3853212008
 30
0.0
 11
937.835078572
 21
242.7319925016
 31
0.0
  0
LINE
  5
F4
330
1F
100
AcDbEntity
  8
0
370
    15
100
AcDbLine
 10
525.6547065208
 20
4.7853285535
 30
0.0
 11
523.1169644294999
 21
3.320321227799999
 31
0.0
  0
LINE
  5
F5
330
1F
100
AcDbEntity
  8
0
370
    15
100
AcDbLine
 10
524.2668710561
 20
1.328408750999999
 30
0.0
 11
526.2460752083999
 21
2.4709789878
 31
0.0
  0
LINE
  5
F6
330
1F
100
AcDbEntity
  8
0
370
    15
100
AcDbLine
 10
522.8787451733999
 20
2.7937995216
 30
0.0
 11
522.8787455026
 21
2.385595969
 31
0.0
  0
LINE
  5
F7
330
1F
100
AcDbEntity
  8
0
370
    15
100
AcDbLine
 10
523.3382903726
 20
1.5895548332
 30
0.0
 11
523.6917855399999
 21
1.385419354
 31
0.0
  0
LINE
  5
F8
330
1F
100
AcDbEntity
  8
0
370
    15
100
AcDbLine
 10
540.4647416197
 20
22.0671142487
 30
0.0
 11
534.0255016523999
 21
18.1639737349
 31
0.0
  0
LINE
  5
F9
330
1F
100
AcDbEntity
  8
0
370
    15
100
AcDbLine
 10
547.0657082643
 20
-4.4247737614
 30
0.0
 11
555.5838701809999
 21
0.2528036426
 31
0.0
  0
LINE
  5
FA
330
1F
100
AcDbEntity
  8
0
370
    15
100
AcDbLine
 10
539.8793281904
 20
-3.3670389355
 30
0.0
 11
540.5270818598999
 21
-3.741100750599999
 31
0.0
  0
LINE
  5
FB
330
1F
100
AcDbEntity
  8
0
370
    15
100
AcDbLine
 10
536.5596892496999
 20
13.5587884665
 30
0.0
 11
531.5356983085999
 21
10.4857051028
 31
0.0
  0
LINE
  5
FC
330
1F
100
AcDbEntity
  8
0
370
    15
100
AcDbLine
 10
539.7497516155
 20
-7.275173612
 30
0.0
 11
543.9731299126999
 21
-4.955990746499999
 31
0.0
  0
LINE
  5
FD
330
1F
100
AcDbEntity
  8
0
370
    15
100
AcDbLine
 10
531.4796067800999
 20
9.6766751645
 30
0.0
 11
526.0205744222999
 21
6.380649842899999
 31
0.0
  0
SPLINE
  5
FE
330
1F
100
AcDbEntity
  8
0
370
    15
100
AcDbSpline
210
0.0
220
0.0
230
1.0
 70
     8
 71
     3
 72
    13
 73
     9
 74
     0
 42
0.000000001
 43
0.0000000001
 40
0.0
 40
0.0
 40
0.0
 40
0.0
 40
0.0241575571002136
 40
0.1853747055129393
 40
0.3352653945258417
 40
0.4915452220922513
 40
0.7122883326564039
 40
1.0
 40
1.0
 40
1.0
 40
1.0
 10
531.5366670275672
 20
10.48665863893662
 30
0.0
 10
531.5339485980613
 20
10.4854239209686
 30
0.0
 10
531.5130885389504
 20
10.4759492262069
 30
0.0
 10
531.4866392234616
 20
10.44482563784375
 30
0.0
 10
531.4605066639156
 20
10.40500281054245
 30
0.0
 10
531.446263109096
 20
10.36672915726833
 30
0.0
 10
531.4377362440478
 20
10.33197341197341
 30
0.0
 10
531.4355149937557
 20
10.30851655182753
 30
0.0
 10
531.4342580882197
 20
10.2952433707376
 30
0.0
  0
LINE
  5
FF
330
1F
100
AcDbEntity
  8
0
370
    15
100
AcDbLine
 10
532.5517029364
 20
-5.888874428099999
 30
0.0
 11
533.494920533
 21
-6.473006177799999
 31
0.0
  0
LINE
  5
100
330
1F
100
AcDbEntity
  8
0
370
    15
100
AcDbLine
 10
531.6494381646999
 20
13.4970047595
 30
0.0
 11
531.9838082118
 21
13.2905468852
 31
0.0
  0
SPLINE
  5
101
330
1F
100
AcDbEntity
  8
0
370
    15
100
AcDbSpline
210
0.0
220
0.0
230
1.0
 70
     8
 71
     3
 72
    10
 73
     6
 74
     0
 42
0.000000001
 43
0.0000000001
 40
0.0
 40
0.0
 40
0.0
 40
0.0
 40
0.5498509220943271
 40
0.9140226727340809
 40
1.0
 40
1.0
 40
1.0
 40
1.0
 10
531.550559023963
 20
13.64968317227516
 30
0.0
 10
531.5556760497693
 20
13.62657276346169
 30
0.0
 10
531.5641821328109
 20
13.58815610035741
 30
0.0
 10
531.6079737016383
 20
13.52014878048745
 30
0.0
 10
531.6446193752894
 20
13.50297435086878
 30
0.0
 10
531.6516186056134
 20
13.4996940785581
 30
0.0
  0
LINE
  5
102
330
1F
100
AcDbEntity
  8
0
370
    15
100
AcDbLine
 10
532.0189389270999
 20
15.7515187086
 30
0.0
 11
527.8985444787
 21
13.2539443343
 31
0.0
  0
SPLINE
  5
103
330
1F
100
AcDbEntity
  8
0
370
    15
100
AcDbSpline
210
0.0
220
0.0
230
1.0
 70
     8
 71
     3
 72
    10
 73
     6
 74
     0
 42
0.000000001
 43
0.0000000001
 40
0.0
 40
0.0
 40
0.0
 40
0.0
 40
0.1046721050122884
 40
0.7769199410074297
 40
1.0
 40
1.0
 40
1.0
 40
1.0
 10
525.6459705985935
 20
5.716064042169289
 30
0.0
 10
525.6464359748434
 20
5.697410350800874
 30
0.0
 10
525.6498901911186
 20
5.558954887467909
 30
0.0
 10
525.6398587892671
 20
5.435817595358605
 30
0.0
 10
525.6414697674244
 20
5.443601268921697
 30
0.0
 10
525.6418711590312
 20
5.445540650423561
 30
0.0
  0
SPLINE
  5
104
330
1F
100
AcDbEntity
  8
0
370
    15
100
AcDbSpline
210
0.0
220
0.0
230
1.0
 70
     8
 71
     3
 72
    11
 73
     7
 74
     0
 42
0.000000001
 43
0.0000000001
 40
0.0
 40
0.0
 40
0.0
 40
0.0
 40
0.173424387314993
 40
0.4931716353794628
 40
0.8133236429762021
 40
1.0
 40
1.0
 40
1.0
 40
1.0
 10
525.7039659792334
 20
8.509277018434973
 30
0.0
 10
525.7782674999318
 20
8.400945892130959
 30
0.0
 10
525.9895607502142
 20
8.092881729131736
 30
0.0
 10
526.2509246835036
 20
7.525913308090173
 30
0.0
 10
526.3995170411261
 20
6.950037348298591
 30
0.0
 10
526.3939811517209
 20
6.697782962774372
 30
0.0
 10
526.3919421583669
 20
6.604871963666826
 30
0.0
  0
SPLINE
  5
105
330
1F
100
AcDbEntity
  8
0
370
    15
100
AcDbSpline
210
0.0
220
0.0
230
1.0
 70
     8
 71
     3
 72
     9
 73
     5
 74
     0
 42
0.000000001
 43
0.0000000001
 40
0.0
 40
0.0
 40
0.0
 40
0.0
 40
0.6966590136695789
 40
1.0
 40
1.0
 40
1.0
 40
1.0
 10
525.8087753133124
 20
10.35795604839458
 30
0.0
 10
525.8081217330091
 20
10.35585393003637
 30
0.0
 10
525.8071835691575
 20
10.35283650211687
 30
0.0
 10
525.8063979001412
 20
10.34982729612061
 30
0.0
 10
525.8061595745268
 20
10.34891448060563
 30
0.0
  0
SPLINE
  5
106
330
1F
100
AcDbEntity
  8
0
370
    15
100
AcDbSpline
210
0.0
220
0.0
230
1.0
 70
     8
 71
     3
 72
    11
 73
     7
 74
     0
 42
0.000000001
 43
0.0000000001
 40
0.0
 40
0.0
 40
0.0
 40
0.0
 40
0.0839196963959297
 40
0.54294927218358
 40
0.9669545619473815
 40
1.0
 40
1.0
 40
1.0
 40
1.0
 10
525.735270550965
 20
8.685480852985289
 30
0.0
 10
525.7317145725004
 20
8.680061434785905
 30
0.0
 10
525.7087078648724
 20
8.644998519959104
 30
0.0
 10
525.7049110867923
 20
8.554195695571573
 30
0.0
 10
525.7273312013179
 20
8.466843253490036
 30
0.0
 10
525.7548649349716
 20
8.439705984028892
 30
0.0
 10
525.7568556643031
 20
8.437743919640153
 30
0.0
  0
LINE
  5
107
330
1F
100
AcDbEntity
  8
0
370
    15
100
AcDbLine
 10
941.9022221237
 20
224.7128676079
 30
0.0
 11
947.7798833227
 21
228.2756076661
 31
0.0
  0
LINE
  5
108
330
1F
100
AcDbEntity
  8
0
370
    15
100
AcDbLine
 10
933.3424428283001
 20
218.3281852837
 30
0.0
 11
941.6528945388
 21
223.3655600174
 31
0.0
  0
LINE
  5
109
330
1F
100
AcDbEntity
  8
0
370
    15
100
AcDbLine
 10
928.612687927
 20
245.9543075136
 30
0.0
 11
921.5260028902001
 21
242.0627982613
 31
0.0
  0
SPLINE
  5
10A
330
1F
100
AcDbEntity
  8
0
370
    15
100
AcDbSpline
210
0.0
220
0.0
230
1.0
 70
     8
 71
     3
 72
    10
 73
     6
 74
     0
 42
0.000000001
 43
0.0000000001
 40
0.0
 40
0.0
 40
0.0
 40
0.0
 40
0.1550418105708888
 40
0.9381106892619031
 40
1.0
 40
1.0
 40
1.0
 40
1.0
 10
934.9252084550906
 20
242.097133779924
 30
0.0
 10
934.8711286900989
 20
242.0675694810238
 30
0.0
 10
934.5439085330044
 20
241.8886849290651
 30
0.0
 10
934.1256430007808
 20
241.7790730674007
 30
0.0
 10
933.7726483463484
 20
241.7381663657067
 30
0.0
 10
933.746793107438
 20
241.7351701374862
 30
0.0
  0
SPLINE
  5
10B
330
1F
100
AcDbEntity
  8
0
370
    15
100
AcDbSpline
210
0.0
220
0.0
230
1.0
 70
     8
 71
     3
 72
     9
 73
     5
 74
     0
 42
0.000000001
 43
0.0000000001
 40
0.0
 40
0.0
 40
0.0
 40
0.0
 40
0.3360377556326961
 40
1.0
 40
1.0
 40
1.0
 40
1.0
 10
933.6629011225662
 20
241.7030316329561
 30
0.0
 10
932.9636990307472
 20
241.3161691265107
 30
0.0
 10
930.8829742309322
 20
240.1649219825188
 30
0.0
 10
928.8014426111059
 20
239.0204361352767
 30
0.0
 10
927.4193842050847
 20
238.2605407434954
 30
0.0
  0
SPLINE
  5
10C
330
1F
100
AcDbEntity
  8
0
370
    15
100
AcDbSpline
210
0.0
220
0.0
230
1.0
 70
     8
 71
     3
 72
     9
 73
     5
 74
     0
 42
0.000000001
 43
0.0000000001
 40
0.0
 40
0.0
 40
0.0
 40
0.0
 40
0.1915982577101313
 40
1.0
 40
1.0
 40
1.0
 40
1.0
 10
933.750788496968
 20
241.7276758173888
 30
0.0
 10
933.7450060417312
 20
241.7282953253214
 30
0.0
 10
933.7148259382905
 20
241.7315286946634
 30
0.0
 10
933.6872825171578
 20
241.7116484687491
 30
0.0
 10
933.6650163675257
 20
241.6955772594829
 30
0.0
  0
LINE
  5
10D
330
1F
100
AcDbEntity
  8
0
370
    15
100
AcDbLine
 10
943.1267288163001
 20
247.4184287095
 30
0.0
 11
942.1835006830001
 21
248.0025543765
 31
0.0
  0
LINE
  5
10E
330
1F
100
AcDbEntity
  8
0
370
    15
100
AcDbLine
 10
935.9286761857999
 20
248.8047256124
 30
0.0
 11
929.9041114878001
 21
245.4964564938
 31
0.0
  0
LINE
  5
10F
330
1F
100
AcDbEntity
  8
0
370
    15
100
AcDbLine
 10
926.4808147185
 20
238.4827626605
 30
0.0
 11
921.2411158774999
 21
235.630138335
 31
0.0
  0
LINE
  5
110
330
1F
100
AcDbEntity
  8
0
370
    15
100
AcDbLine
 10
927.4619518635001
 20
238.261912817
 30
0.0
 11
927.1275818164999
 21
238.4683707864
 31
0.0
  0
SPLINE
  5
111
330
1F
100
AcDbEntity
  8
0
370
    15
100
AcDbSpline
210
0.0
220
0.0
230
1.0
 70
     8
 71
     3
 72
    14
 73
    10
 74
     0
 42
0.000000001
 43
0.0000000001
 40
0.0
 40
0.0
 40
0.0
 40
0.0
 40
0.1012216029653741
 40
0.2875916163298127
 40
0.4758393326739073
 40
0.6368525038566996
 40
0.8045133970691539
 40
0.9722001413875132
 40
1.0
 40
1.0
 40
1.0
 40
1.0
 10
950.0695898934086
 20
233.5488560059724
 30
0.0
 10
949.9920633570653
 20
233.6524978105407
 30
0.0
 10
949.7717943508236
 20
233.9469657227446
 30
0.0
 10
949.4810552266741
 20
234.5131835482652
 30
0.0
 10
949.2944356216275
 20
235.1439954574273
 30
0.0
 10
949.2596278182283
 20
235.6584822805056
 30
0.0
 10
949.3318359176539
 20
235.9677201218378
 30
0.0
 10
949.3803177309162
 20
236.0156046672605
 30
0.0
 10
949.3781683106167
 20
236.0135467693158
 30
0.0
 10
949.3778626447577
 20
236.0132541187144
 30
0.0
  0
SPLINE
  5
112
330
1F
100
AcDbEntity
  8
0
370
    15
100
AcDbSpline
210
0.0
220
0.0
230
1.0
 70
     8
 71
     3
 72
    10
 73
     6
 74
     0
 42
0.000000001
 43
0.0000000001
 40
0.0
 40
0.0
 40
0.0
 40
0.0
 40
0.1845407875538124
 40
0.6815598725606958
 40
1.0
 40
1.0
 40
1.0
 40
1.0
 10
950.0521279272348
 20
233.3672098644326
 30
0.0
 10
950.0585419092455
 20
233.3810451112793
 30
0.0
 10
950.0822305084962
 20
233.4321424822326
 30
0.0
 10
950.0723882849287
 20
233.5334750338965
 30
0.0
 10
950.0277706116984
 20
233.5903770880394
 30
0.0
 10
950.0103472294703
 20
233.6125975708008
 30
0.0
  0
LINE
  5
113
330
1F
100
AcDbEntity
  8
0
370
    15
100
AcDbLine
 10
950.0172099218
 20
231.7443111311
 30
0.0
 11
950.0193324107
 21
231.7538528347
 31
0.0
  0
SPLINE
  5
114
330
1F
100
AcDbEntity
  8
0
370
    15
100
AcDbSpline
210
0.0
220
0.0
230
1.0
 70
     8
 71
     3
 72
     9
 73
     5
 74
     0
 42
0.000000001
 43
0.0000000001
 40
0.0
 40
0.0
 40
0.0
 40
0.0
 40
0.3007975349516118
 40
1.0
 40
1.0
 40
1.0
 40
1.0
 10
949.8629287486361
 20
236.5111766514452
 30
0.0
 10
949.8738257814023
 20
236.5262878964704
 30
0.0
 10
949.9100529159379
 20
236.5765251599763
 30
0.0
 10
949.9162461166037
 20
236.6401751742259
 30
0.0
 10
949.9205764177757
 20
236.6846794210895
 30
0.0
  0
SPLINE
  5
115
330
1F
100
AcDbEntity
  8
0
370
    15
100
AcDbSpline
210
0.0
220
0.0
230
1.0
 70
     8
 71
     3
 72
     9
 73
     5
 74
     0
 42
0.000000001
 43
0.0000000001
 40
0.0
 40
0.0
 40
0.0
 40
0.0
 40
0.5097924657158553
 40
1.0
 40
1.0
 40
1.0
 40
1.0
 10
949.4346502547701
 20
236.0429604849643
 30
0.0
 10
949.5269312618267
 20
236.1039485413838
 30
0.0
 10
949.7079480740849
 20
236.2235816480322
 30
0.0
 10
949.811947464093
 20
236.4165715482954
 30
0.0
 10
949.8629287486361
 20
236.5111766514452
 30
0.0
  0
LINE
  5
116
330
1F
100
AcDbEntity
  8
0
370
    15
100
AcDbLine
 10
949.2869354288998
 20
235.6793312694
 30
0.0
 11
949.5082728966
 21
235.8126872849
 31
0.0
  0
LINE
  5
117
330
1F
100
AcDbEntity
  8
0
370
    15
100
AcDbLine
 10
921.4264783757
 20
242.04681616
 30
0.0
 11
920.012240874
 21
241.2303942283
 31
0.0
  0
LINE
  5
118
330
1F
100
AcDbEntity
  8
0
370
    15
100
AcDbLine
 10
542.4172342189
 20
23.2494367414
 30
0.0
 11
541.0030205893
 21
22.4330285908
 31
0.0
  0
LINE
  5
119
330
1F
100
AcDbEntity
  8
0
370
    15
100
AcDbLine
 10
920.012240874
 20
241.2303942283
 30
0.0
 11
542.4172342189
 21
23.2494367414
 31
0.0
  0
LINE
  5
11A
330
1F
100
AcDbEntity
  8
0
370
    15
100
AcDbLine
 10
540.1467913921
 20
15.5858269749
 30
0.0
 11
540.1468507769999
 21
15.585861257
 31
0.0
  0
LINE
  5
11B
330
1F
100
AcDbEntity
  8
0
370
    15
100
AcDbLine
 10
917.3675340324001
 20
233.3507264449
 30
0.0
 11
917.3883124288
 21
233.3627215578
 31
0.0
  0
LWPOLYLINE
  5
11C
330
1F
100
AcDbEntity
  8
0
370
    15
100
AcDbPolyline
 90
       15
 70
   128
 43
0.0
 10
933.0820549883998
 20
218.182147978
 10
932.7125792507001
 20
217.9698510056
 10
931.4820127756
 20
217.5491993688
 10
930.1049455015
 20
217.4667572707
 10
928.6201828219999
 20
217.7248477644
 10
927.0695642923
 20
218.3161973836
 10
925.4967856576
 20
219.2241431633
 10
923.9461671278998
 20
220.4230995907
 10
922.4614044483999
 20
221.8792795975
 10
921.0843371742999
 20
223.5516497277
 10
919.8537706992
 20
225.3930831744
 10
918.8043820014
 20
227.3516880632
 10
917.9657413755
 20
229.372274483
 10
917.3614820083999
 20
231.3979011901
 10
917.0086318854
 20
233.3714874415
  0
LWPOLYLINE
  5
11D
330
1F
100
AcDbEntity
  8
0
370
    15
100
AcDbPolyline
 90
        9
 70
   128
 43
0.0
 10
917.0086318854
 20
233.3714874415
 10
917.0075689946001
 20
233.4069818522
 10
917.0129493032002
 20
233.4382208418
 10
917.0245265155999
 20
233.4637778539
 10
917.0417718207001
 20
233.4824856235
 10
917.0638982575999
 20
233.4934892213
 10
917.0898943021001
 20
233.4962863617
 10
917.1185732567998
 20
233.4907490806
 10
917.1486252769
 20
233.4771301089
  0
LINE
  5
11E
330
1F
100
AcDbEntity
  8
0
370
    15
100
AcDbLine
 10
917.1486252769
 20
233.4771301089
 30
0.0
 11
917.3917203966
 21
233.3367942834
 31
0.0
  0
LWPOLYLINE
  5
11F
330
1F
100
AcDbEntity
  8
0
370
    15
100
AcDbPolyline
 90
       15
 70
   128
 43
0.0
 10
556.0197113587999
 20
0.5032430823
 10
555.8246537682999
 20
0.3970827911999999
 10
554.5940872932
 20
-0.0235688456
 10
553.2170200191
 20
-0.1060109437
 10
551.7322573396
 20
0.15207955
 10
550.1816388098999
 20
0.7434291692000001
 10
548.6088601751999
 20
1.651374948899999
 10
547.0582416455
 20
2.850331376299999
 10
545.573478966
 20
4.3065113831
 10
544.1964116919
 20
5.9788815133
 10
542.9658452167999
 20
7.82031496
 10
541.916456519
 20
9.778919848799999
 10
541.0778158931
 20
11.7995062686
 10
540.473556526
 20
13.8251329757
 10
540.120706403
 20
15.7987192271
  0
LINE
  5
120
330
1F
100
AcDbEntity
  8
0
370
    15
100
AcDbLine
 10
917.0086318854
 20
233.3714874415
 30
0.0
 11
540.120706403
 21
15.7987192271
 31
0.0
  0
ARC
  5
121
330
1F
100
AcDbEntity
  8
0
370
    15
100
AcDbCircle
 10
540.2249599084999
 20
15.8273232059
 30
0.0
 40
0.1081063411705766
100
AcDbArc
 50
126.4657758412999
 51
195.342658961
  0
ARC
  5
122
330
1F
100
AcDbEntity
  8
0
370
    15
100
AcDbCircle
 10
922.6053355767
 20
237.7477736881
 30
0.0
 40
0.3539081923212733
100
AcDbArc
 50
134.8943922042
 51
154.9044029738
  0
SPLINE
  5
123
330
1F
100
AcDbEntity
  8
0
370
    15
100
AcDbSpline
210
0.0
220
0.0
230
1.0
 70
     8
 71
     3
 72
    14
 73
    10
 74
     0
 42
0.000000001
 43
0.0000000001
 40
0.0
 40
0.0
 40
0.0
 40
0.0
 40
0.150803974930996
 40
0.3018992611719154
 40
0.4451759838918147
 40
0.5807443001766087
 40
0.7138393329952426
 40
0.8498939213157029
 40
1.0
 40
1.0
 40
1.0
 40
1.0
 10
922.2848358241664
 20
237.3295138211483
 30
0.0
 10
922.3218225224872
 20
237.3372601805867
 30
0.0
 10
922.395867367136
 20
237.3527678632742
 30
0.0
 10
922.4731205891817
 20
237.420987825028
 30
0.0
 10
922.5109964902932
 20
237.5124240885371
 30
0.0
 10
922.5072342320173
 20
237.6163444146086
 30
0.0
 10
922.4660546218013
 20
237.7204021480837
 30
0.0
 10
922.3918993463554
 20
237.8210933524268
 30
0.0
 10
922.3216731161324
 20
237.8714578990769
 30
0.0
 10
922.2848358241664
 20
237.8978767101646
 30
0.0
  0
ARC
  5
124
330
1F
100
AcDbEntity
  8
0
370
    15
100
AcDbCircle
 10
923.6331808177
 20
237.7478133684
 30
0.0
 40
1.411739612230634
100
AcDbArc
 50
197.2355541894
 51
205.1757546542
  0
SPLINE
  5
125
330
1F
100
AcDbEntity
  8
0
370
    15
100
AcDbSpline
210
0.0
220
0.0
230
1.0
 70
     8
 71
     3
 72
    14
 73
    10
 74
     0
 42
0.000000001
 43
0.0000000001
 40
0.0
 40
0.0
 40
0.0
 40
0.0
 40
0.1508036674804221
 40
0.3018993418964057
 40
0.4451756191958479
 40
0.5807445515387069
 40
0.7138398478279752
 40
0.8498937438759547
 40
1.0
 40
1.0
 40
1.0
 40
1.0
 10
922.7817959004035
 20
236.6170144052652
 30
0.0
 10
922.7925960703833
 20
236.657944067149
 30
0.0
 10
922.8142173231264
 20
236.7398826445934
 30
0.0
 10
922.7972485807237
 20
236.8743642093133
 30
0.0
 10
922.7453117256503
 20
236.9945131026384
 30
0.0
 10
922.6658006218837
 20
237.0879342761274
 30
0.0
 10
922.56955460837
 20
237.1472372248845
 30
0.0
 10
922.461210041618
 20
237.1731870612782
 30
0.0
 10
922.3919020951599
 20
237.1561836589068
 30
0.0
 10
922.3555463821666
 20
237.1472644678456
 30
0.0
  0
ARC
  5
126
330
1F
100
AcDbEntity
  8
0
370
    15
100
AcDbCircle
 10
923.2621920772
 20
237.2858672704
 30
0.0
 40
0.8234953805755711
100
AcDbArc
 50
234.3126204223
 51
245.6927561104
  0
SPLINE
  5
127
330
1F
100
AcDbEntity
  8
0
370
    15
100
AcDbSpline
210
0.0
220
0.0
230
1.0
 70
     8
 71
     3
 72
    13
 73
     9
 74
     0
 42
0.000000001
 43
0.0000000001
 40
0.0
 40
0.0
 40
0.0
 40
0.0
 40
0.0883685722136494
 40
0.2754704161166041
 40
0.4525054872345681
 40
0.6263106314950353
 40
0.8039810019243994
 40
1.0
 40
1.0
 40
1.0
 40
1.0
 10
923.2580401420527
 20
236.7282035582191
 30
0.0
 10
923.2476410245013
 20
236.7408500447149
 30
0.0
 10
923.2152239652753
 20
236.7802728033964
 30
0.0
 10
923.1488775454456
 20
236.8029242656702
 30
0.0
 10
923.0728628913904
 20
236.7934964022389
 30
0.0
 10
923.0063072811024
 20
236.7417907774078
 30
0.0
 10
922.9517721164031
 20
236.6553917002136
 30
0.0
 10
922.9330419416115
 20
236.5766681969362
 30
0.0
 10
922.9232170164037
 20
236.5353737327688
 30
0.0
  0
SPLINE
  5
128
330
1F
100
AcDbEntity
  8
0
370
    15
100
AcDbSpline
210
0.0
220
0.0
230
1.0
 70
     8
 71
     3
 72
    14
 73
    10
 74
     0
 42
0.000000001
 43
0.0000000001
 40
0.0
 40
0.0
 40
0.0
 40
0.0
 40
0.1771986045475756
 40
0.3547395572729169
 40
0.5230934772361464
 40
0.6823898548344358
 40
0.8387799679509704
 40
0.9986477045393707
 40
1.0
 40
1.0
 40
1.0
 40
1.0
 10
923.4201770926405
 20
237.2424581468507
 30
0.0
 10
923.403879435374
 20
237.246656849734
 30
0.0
 10
923.3712526337226
 20
237.2550623674051
 30
0.0
 10
923.3364827971207
 20
237.2113451195021
 30
0.0
 10
923.3192442376635
 20
237.1319020028709
 30
0.0
 10
923.3210816927533
 20
237.0265938675252
 30
0.0
 10
923.3396036559469
 20
236.9104663195187
 30
0.0
 10
923.3612195372424
 20
236.8278675989961
 30
0.0
 10
923.3739432758383
 20
236.7916648422867
 30
0.0
 10
923.3740500011236
 20
236.7913611776432
 30
0.0
  0
ARC
  5
129
330
1F
100
AcDbEntity
  8
0
370
    15
100
AcDbCircle
 10
922.071917064
 20
236.8241916237
 30
0.0
 40
1.411648677648945
100
AcDbArc
 50
17.2352958085
 51
25.1760092558
  0
SPLINE
  5
12A
330
1F
100
AcDbEntity
  8
0
370
    15
100
AcDbSpline
210
0.0
220
0.0
230
1.0
 70
     8
 71
     3
 72
    14
 73
    10
 74
     0
 42
0.000000001
 43
0.0000000001
 40
0.0
 40
0.0
 40
0.0
 40
0.0
 40
0.1508036982700906
 40
0.301899372686986
 40
0.445175649987293
 40
0.5807445631727982
 40
0.7138398587636094
 40
0.8498937542657969
 40
1.0
 40
1.0
 40
1.0
 40
1.0
 10
922.9232170164037
 20
237.9549575924394
 30
0.0
 10
922.9331059691784
 20
237.925971499485
 30
0.0
 10
922.9529030210644
 20
237.86794319262
 30
0.0
 10
923.0123539430582
 20
237.7579860609816
 30
0.0
 10
923.0849315916852
 20
237.6497528453014
 30
0.0
 10
923.1625064600812
 20
237.5552139314989
 30
0.0
 10
923.2361364692856
 20
237.4828550467276
 30
0.0
 10
923.3036901558845
 20
237.4333571392359
 30
0.0
 10
923.3337162486604
 20
237.4276835945506
 30
0.0
 10
923.3494665346407
 20
237.4247075179768
 30
0.0
  0
ARC
  5
12B
330
1F
100
AcDbEntity
  8
0
370
    15
100
AcDbCircle
 10
922.4428215374999
 20
237.2861059361
 30
0.0
 40
0.8234939916625982
100
AcDbArc
 50
54.31261079369999
 51
65.69276573899999
  0
SPLINE
  5
12C
330
1F
100
AcDbEntity
  8
0
370
    15
100
AcDbSpline
210
0.0
220
0.0
230
1.0
 70
     8
 71
     3
 72
    14
 73
    10
 74
     0
 42
0.000000001
 43
0.0000000001
 40
0.0
 40
0.0
 40
0.0
 40
0.0
 40
0.150804059369351
 40
0.3018994083520121
 40
0.4451765179804597
 40
0.5807447692687782
 40
0.7138396090059793
 40
0.8498944062687996
 40
1.0
 40
1.0
 40
1.0
 40
1.0
 10
922.3555463821666
 20
237.9984854087943
 30
0.0
 10
922.3920774580532
 20
237.9712739729208
 30
0.0
 10
922.4652101724032
 20
237.9167985401974
 30
0.0
 10
922.5806733721029
 20
237.862798334025
 30
0.0
 10
922.6808069419012
 20
237.8400439618328
 30
0.0
 10
922.7555872652107
 20
237.8499840483266
 30
0.0
 10
922.7993449154107
 20
237.8882115146122
 30
0.0
 10
922.8131393610311
 20
237.9511780897947
 30
0.0
 10
922.7925802130286
 20
238.0072078321376
 30
0.0
 10
922.7817959004035
 20
238.0365982649358
 30
0.0
  0
LWPOLYLINE
  5
12D
330
1F
100
AcDbEntity
  8
0
370
    15
100
AcDbPolyline
 90
       11
 70
   128
 43
0.0
 10
922.2323346804
 20
236.1570783632
 10
922.1784262269
 20
236.2120827188
 10
921.8229946094998
 20
236.6915159448
 10
921.5855023864
 20
237.2390567543
 10
921.5021062855999
 20
237.7713466812
 10
921.5855023864
 20
238.207349579
 10
921.8229946094998
 20
238.4806876451
 10
922.1784262269
 20
238.549748308
 10
922.5976866123
 20
238.4040170835
 10
923.0169469977001
 20
238.0656805707
 10
923.0587099146999
 20
238.0204088103
  0
LINE
  5
12E
330
1F
100
AcDbEntity
  8
0
370
    15
100
AcDbLine
 10
923.5366821772
 20
237.248596278
 30
0.0
 11
923.5553150355
 21
237.2006272667
 31
0.0
  0
LWPOLYLINE
  5
12F
330
1F
100
AcDbEntity
  8
0
370
    15
100
AcDbPolyline
 90
        4
 70
   128
 43
0.0
 10
920.8030685344001
 20
237.5315847064
 10
920.8972627895001
 20
238.0240416753
 10
921.1655050897999
 20
238.3327722882
 10
921.2213924693999
 20
238.3611637109
  0
ARC
  5
130
330
1F
100
AcDbEntity
  8
0
370
    15
100
AcDbCircle
 10
923.534649361
 20
237.6704817737
 30
0.0
 40
2.735109907775323
100
AcDbArc
 50
182.9109032449
 51
223.5306116458
  0
SPLINE
  5
131
330
1F
100
AcDbEntity
  8
0
370
    15
100
AcDbSpline
210
0.0
220
0.0
230
1.0
 70
     8
 71
     3
 72
    14
 73
    10
 74
     0
 42
0.000000001
 43
0.0000000001
 40
0.0
 40
0.0
 40
0.0
 40
0.0
 40
0.0092212955485281
 40
0.1714674619049884
 40
0.3345103771562549
 40
0.4821430371922921
 40
0.6906198685808287
 40
0.9030076007659165
 40
1.0
 40
1.0
 40
1.0
 40
1.0
 10
922.415883547077
 20
237.3822712989391
 30
0.0
 10
922.4159223879057
 20
237.3803243673128
 30
0.0
 10
922.4166446224684
 20
237.3441217076416
 30
0.0
 10
922.4465102319399
 20
237.2772159481604
 30
0.0
 10
922.5073079364308
 20
237.1998248853727
 30
0.0
 10
922.600918361832
 20
237.146137970982
 30
0.0
 10
922.7144865457706
 20
237.1238609132507
 30
0.0
 10
922.8172337874298
 20
237.1339214396504
 30
0.0
 10
922.8734204354154
 20
237.1538218792719
 30
0.0
 10
922.8910352633876
 20
237.1600607782466
 30
0.0
  0
ARC
  5
132
330
1F
100
AcDbEntity
  8
0
370
    15
100
AcDbCircle
 10
921.6058142318999
 20
236.5562638492
 30
0.0
 40
1.419987264468829
100
AcDbArc
 50
18.3521588559
 51
25.1641412076
  0
LINE
  5
133
330
1F
100
AcDbEntity
  8
0
370
    15
100
AcDbLine
 10
922.8910352634001
 20
237.1600607782
 30
0.0
 11
923.3494665346
 21
237.424707518
 31
0.0
  0
LINE
  5
134
330
1F
100
AcDbEntity
  8
0
370
    15
100
AcDbLine
 10
922.780592081
 20
237.8726219698
 30
0.0
 11
922.9232170163999
 21
237.9549575924
 31
0.0
  0
ARC
  5
135
330
1F
100
AcDbEntity
  8
0
370
    15
100
AcDbCircle
 10
537.6817953654
 20
15.3392265151
 30
0.0
 40
1.55007880594767
100
AcDbArc
 50
147.3603364401
 51
210.5358334552
  0
ARC
  5
136
330
1F
100
AcDbEntity
  8
0
370
    15
100
AcDbCircle
 10
538.2823977411
 20
15.2780379193
 30
0.0
 40
2.586943191131146
100
AcDbArc
 50
196.6070575194
 51
219.9145629192
  0
LWPOLYLINE
  5
137
330
1F
100
AcDbEntity
  8
0
370
    15
100
AcDbPolyline
 90
       17
 70
   128
 43
0.0
 10
952.7996757132999
 20
239.1439522297
 10
952.7646892192001
 20
239.3672593263
 10
952.6650560450001
 20
239.5969645239
 10
952.5159447754999
 20
239.7980970783
 10
952.3400560985001
 20
239.9400365147
 10
952.1641674214999
 20
240.0011738222
 10
952.0150561519999
 20
239.972201475
 10
951.9154233069999
 20
239.8575301017
 10
951.8804368128998
 20
239.6746175514
 10
951.9154233069999
 20
239.4513104547
 10
952.0150561519999
 20
239.2216054472
 10
952.1641674214999
 20
239.0204728928
 10
952.3400560985001
 20
238.8785334564
 10
952.5159447754999
 20
238.817396149
 10
952.6650560450001
 20
238.8463684961
 10
952.7646892192001
 20
238.9610396793
 10
952.7996757132999
 20
239.1439522297
  0
LWPOLYLINE
  5
138
330
1F
100
AcDbEntity
  8
0
370
    15
100
AcDbPolyline
 90
       14
 70
   128
 43
0.0
 10
952.7996589203999
 20
238.7357387927
 10
952.7377600172
 20
238.4121241324
 10
952.5614860917
 20
238.2092442774
 10
952.2976741496
 20
238.157985332
 10
951.9864861863
 20
238.2661514654
 10
951.6752985523
 20
238.5172751166
 10
951.411486281
 20
238.873125037
 10
951.2352126847
 20
239.2795262443
 10
951.1733134522
 20
239.6746080471
 10
951.2352126847
 20
239.9982225173
 10
951.411486281
 20
240.2011025624
 10
951.6752985523
 20
240.2523613177
 10
951.9864861863
 20
240.1441953744
 10
951.9866185538001
 20
240.1441189603
  0
LWPOLYLINE
  5
139
330
1F
100
AcDbEntity
  8
0
370
    15
100
AcDbPolyline
 90
       10
 70
   128
 43
0.0
 10
946.8153349138001
 20
237.5478008641
 10
946.8152881572001
 20
237.5477738633
 10
946.6390145608999
 20
237.3448938181
 10
946.5771153283998
 20
237.0212793479
 10
946.6390145608999
 20
236.6261975451
 10
946.8152881572001
 20
236.2197963378
 10
947.0791004285
 20
235.8639464174
 10
947.3902880624999
 20
235.6128227662
 10
947.7014760258001
 20
235.5046566328
 10
947.9652415405
 20
235.5558883873
  0
LINE
  5
13A
330
1F
100
AcDbEntity
  8
0
370
    15
100
AcDbLine
 10
948.8045015274
 20
235.7354366652
 30
0.0
 11
948.7834610304
 21
236.0282369299
 31
0.0
  0
LWPOLYLINE
  5
13B
330
1F
100
AcDbEntity
  8
0
370
    15
100
AcDbPolyline
 90
       15
 70
   128
 43
0.0
 10
947.633554733
 20
238.0201491453
 10
947.3902880624999
 20
238.1849264221
 10
946.8490919052999
 20
238.3730413458
 10
946.3902882271
 20
238.2838954282
 10
946.0837252220001
 20
237.9310606931
 10
945.9760745975998
 20
237.3682527763
 10
946.0837252220001
 20
236.6811540942
 10
946.3902882271
 20
235.9743692474
 10
946.8490919052999
 20
235.3554998784
 10
947.3902880624999
 20
234.9187630194
 10
947.9314842197
 20
234.7306480957
 10
948.3902882271999
 20
234.8197938232
 10
948.6968512323
 20
235.1726285583
 10
948.8045015274
 20
235.7354366652
 10
948.8045015274
 20
235.7354366652
  0
LWPOLYLINE
  5
13C
330
1F
100
AcDbEntity
  8
0
370
    15
100
AcDbPolyline
 90
       17
 70
   128
 43
0.0
 10
943.8194193715
 20
244.3281438672
 10
943.7844328774
 20
244.5514509638
 10
943.6848000324001
 20
244.7811559713
 10
943.5356887628998
 20
244.9822885257
 10
943.3598000858999
 20
245.1242279622
 10
943.1839114088999
 20
245.1853652696
 10
943.0348001393999
 20
245.1563929224
 10
942.9351669652001
 20
245.0417217393
 10
942.9001804711001
 20
244.8588091889
 10
942.9351669652001
 20
244.6355020922
 10
943.0348001393999
 20
244.4057968946
 10
943.1839114088999
 20
244.2046643402
 10
943.3598000858999
 20
244.0627249038
 10
943.5356887628998
 20
244.0015875964
 10
943.6848000324001
 20
244.0305599436
 10
943.7844328774
 20
244.1452313168
 10
943.8194193715
 20
244.3281438672
  0
LWPOLYLINE
  5
13D
330
1F
100
AcDbEntity
  8
0
370
    15
100
AcDbPolyline
 90
       14
 70
   128
 43
0.0
 10
943.8194029078999
 20
243.9199302401
 10
943.7575036753999
 20
243.5963157699
 10
943.5812300790999
 20
243.3934357248
 10
943.3174178077999
 20
243.3421769695
 10
943.0062301738001
 20
243.4503429128
 10
942.6950422104999
 20
243.7014667541
 10
942.4312302683999
 20
244.0573164844
 10
942.2549563428999
 20
244.4637178818
 10
942.1930574397
 20
244.8587994945
 10
942.2549563428999
 20
245.1824141548
 10
942.4312302683999
 20
245.3852940099
 10
942.6950422104999
 20
245.4365529552
 10
943.0062301738001
 20
245.3283868218
 10
943.006362212
 20
245.3283105978
  0
LWPOLYLINE
  5
13E
330
1F
100
AcDbEntity
  8
0
370
    15
100
AcDbPolyline
 90
       10
 70
   128
 43
0.0
 10
937.835078572
 20
242.7319925016
 10
937.8350321446001
 20
242.7319653107
 10
937.6587582191
 20
242.5290854556
 10
937.5968593158999
 20
242.2054707953
 10
937.6587582191
 20
241.8103891826
 10
937.8350321446001
 20
241.4039877852
 10
938.0988440867
 20
241.0481380549
 10
938.4100320499999
 20
240.7970142136
 10
938.721219684
 20
240.6888482703
 10
938.9849851986999
 20
240.7400800248
  0
LINE
  5
13F
330
1F
100
AcDbEntity
  8
0
370
    15
100
AcDbLine
 10
939.8242455149
 20
240.9196281126
 30
0.0
 11
939.8032050178999
 21
241.2124283773
 31
0.0
  0
LWPOLYLINE
  5
140
330
1F
100
AcDbEntity
  8
0
370
    15
100
AcDbPolyline
 90
       15
 70
   128
 43
0.0
 10
938.6532987205001
 20
243.2043405927
 10
938.4100320499999
 20
243.3691178695
 10
937.8688358928
 20
243.5572327932
 10
937.4100318852999
 20
243.4680870657
 10
937.1034688802
 20
243.1152523306
 10
936.9958185851
 20
242.5524442237
 10
937.1034688802
 20
241.8653457317
 10
937.4100318852999
 20
241.1585608849
 10
937.8688358928
 20
240.5396913259
 10
938.4100320499999
 20
240.1029544668
 10
938.9512282071999
 20
239.9148395431
 10
939.4100318853
 20
240.0039854607
 10
939.7165948905
 20
240.3568201958
 10
939.8242455149
 20
240.9196281126
 10
939.8242455149
 20
240.9196281126
  0
LWPOLYLINE
  5
141
330
1F
100
AcDbEntity
  8
0
370
    15
100
AcDbPolyline
 90
        7
 70
   128
 43
0.0
 10
522.8787451733999
 20
2.7937995216
 10
522.9406440766
 20
2.398717908899999
 10
523.1169180020999
 20
1.9923165115
 10
523.3807299441999
 20
1.6364667811
 10
523.6919179074
 20
1.3853429399
 10
524.0031055414
 20
1.277176996599999
 10
524.2668710561
 20
1.328408750999999
  0
ARC
  5
142
330
1F
100
AcDbEntity
  8
0
370
    15
100
AcDbCircle
 10
523.4102565092999
 20
2.8704735219
 30
0.0
 40
0.5370132238687563
100
AcDbArc
 50
123.103579604
 51
188.2086643548
  0
ARC
  5
143
330
1F
100
AcDbEntity
  8
0
370
    15
100
AcDbCircle
 10
523.8766576001999
 20
2.431013089799999
 30
0.0
 40
0.9989450782156488
100
AcDbArc
 50
182.6058556428
 51
237.3887790548
  0
LWPOLYLINE
  5
144
330
1F
100
AcDbEntity
  8
0
370
    15
100
AcDbPolyline
 90
        8
 70
   128
 43
0.0
 10
538.5269716060999
 20
13.7618713726
 10
538.3029742772
 20
15.63569551
 10
538.3280477007999
 20
17.384568642
 10
538.6015221371
 20
18.9617758981
 10
539.1160930106
 20
20.3251875666
 10
539.8580151801999
 20
21.4383851207
 10
540.8074704075
 20
22.2716335523
 10
540.9394104581999
 20
22.354834109
  0
LINE
  5
145
330
1F
100
AcDbEntity
  8
0
370
    15
100
AcDbLine
 10
539.9187176726999
 20
14.5769981263
 30
0.0
 11
538.5269716060999
 21
13.7618713726
 31
0.0
  0
LWPOLYLINE
  5
146
330
1F
100
AcDbEntity
  8
0
370
    15
100
AcDbPolyline
 90
       14
 70
   128
 43
0.0
 10
539.9187176726999
 20
14.5769981263
 10
540.4025911524
 20
12.5744871303
 10
541.1286575459
 20
10.5495429612
 10
542.0765612423999
 20
8.558933214400001
 10
543.2197279951999
 20
6.658465387599999
 10
544.5261107238
 20
4.901415834799999
 10
545.959085134
 20
3.337043144999999
 10
547.4784786934999
 20
2.0092040064
 10
549.0416960852
 20
0.9551232632999999
 10
550.6049134768
 20
0.2043516234
 10
552.1243070362999
 20
-0.2220637015
 10
553.5572814465
 20
-0.3121680491
 10
554.8636641751
 20
-0.0634358893
 10
555.8405760986
 20
0.4052777259000001
  0
LWPOLYLINE
  5
147
330
1F
100
AcDbEntity
  8
0
370
    15
100
AcDbPolyline
 90
        3
 70
   128
 43
0.0
 10
531.7386676529
 20
14.8902380828
 10
533.0674287117
 20
15.6753845681
 10
536.6544419505999
 20
17.7946838656
  0
ARC
  5
148
330
1F
100
AcDbEntity
  8
0
370
    15
100
AcDbCircle
 10
536.9544170422
 20
13.6824204621
 30
0.0
 40
5.353771109897132
100
AcDbArc
 50
123.1665897903
 51
166.9617618403
  0
LWPOLYLINE
  5
149
330
1F
100
AcDbEntity
  8
0
370
    15
100
AcDbPolyline
 90
       14
 70
   128
 43
0.0
 10
531.5890516089999
 20
10.0094443097
 10
532.0346498233999
 20
8.004832745799999
 10
532.7316065739999
 20
5.968367494099999
 10
533.6595306886001
 20
3.959628338299999
 10
534.7912743283999
 20
2.0373858662
 10
536.0937255464
 20
0.2578779543
 10
537.5287799692999
 20
-1.3268333104
 10
539.0544522567999
 20
-2.670383118199999
 10
540.6261057683
 20
-3.733465524499999
 10
542.1977592796999
 20
-4.484975637799999
 10
543.7234315671999
 20
-4.9029295585
 10
545.1584859901999
 20
-4.9750968629
 10
546.4609372080999
 20
-4.699367118399999
 10
547.0657082643
 20
-4.4247737614
  0
LINE
  5
14A
330
1F
100
AcDbEntity
  8
0
370
    15
100
AcDbLine
 10
536.5082378258001
 20
13.0252033584
 30
0.0
 11
531.5890516089999
 21
10.0094443097
 31
0.0
  0
ARC
  5
14B
330
1F
100
AcDbEntity
  8
0
370
    15
100
AcDbCircle
 10
548.0359010985999
 20
15.0588143656
 30
0.0
 40
11.70566504983274
100
AcDbArc
 50
166.4837087766
 51
190.0046899420999
  0
LINE
  5
14C
330
1F
100
AcDbEntity
  8
0
370
    15
100
AcDbLine
 10
539.9187176726999
 20
14.5769981263
 30
0.0
 11
540.3622381791999
 21
14.3209591879
 31
0.0
  0
LWPOLYLINE
  5
14D
330
1F
100
AcDbEntity
  8
0
370
    15
100
AcDbPolyline
 90
       12
 70
   128
 43
0.0
 10
544.8298699757999
 20
-4.9895233983
 10
543.6119952998
 20
-4.9061764927
 10
542.0931722044
 20
-4.4900989418
 10
540.5285740094999
 20
-3.741962150299999
 10
538.9639758147
 20
-2.683652317399999
 10
537.4451527193
 20
-1.346134048699999
 10
536.0165401788
 20
0.2314636902
 10
534.719935519
 20
2.002983487999999
 10
533.59327255
 20
3.916596323699999
 10
532.669514388
 20
5.9163175409
 10
531.9756863823999
 20
7.943641181599999
 10
531.5320881676
 20
9.939253995599999
  0
ARC
  5
14E
330
1F
100
AcDbEntity
  8
0
370
    15
100
AcDbCircle
 10
531.627738664
 20
9.919837861900001
 30
0.0
 40
0.097601248515982
100
AcDbArc
 50
113.3519872021
 51
168.5254146177
  0
SPLINE
  5
14F
330
1F
100
AcDbEntity
  8
0
370
    15
100
AcDbSpline
210
0.0
220
0.0
230
1.0
 70
     8
 71
     3
 72
    14
 73
    10
 74
     0
 42
0.000000001
 43
0.0000000001
 40
0.0
 40
0.0
 40
0.0
 40
0.0
 40
0.25
 40
0.25
 40
0.5
 40
0.5
 40
0.75
 40
0.75
 40
1.0
 40
1.0
 40
1.0
 40
1.0
 10
531.5320880012706
 20
9.939254071848699
 30
0.0
 10
531.5181927657804
 20
10.02612608461841
 30
0.0
 10
531.5051923688113
 20
10.09945714618249
 30
0.0
 10
531.4825569579466
 20
10.2114856971824
 30
0.0
 10
531.4728931695513
 20
10.25031082238202
 30
0.0
 10
531.4570344776676
 20
10.29679459629397
 30
0.0
 10
531.4505972586048
 20
10.30526034242481
 30
0.0
 10
531.4403681170463
 20
10.29889756788655
 30
0.0
 10
531.4364603565242
 20
10.28445834925913
 30
0.0
 10
531.4334483510816
 20
10.26036782966811
 30
0.0
  0
ARC
  5
150
330
1F
100
AcDbEntity
  8
0
370
    15
100
AcDbCircle
 10
550.0676780605999
 20
12.4389465777
 30
0.0
 40
18.80509641348594
100
AcDbArc
 50
189.8442404971
 51
237.1946542854
  0
SPLINE
  5
151
330
1F
100
AcDbEntity
  8
0
370
    15
100
AcDbSpline
210
0.0
220
0.0
230
1.0
 70
     8
 71
     3
 72
     8
 73
     4
 74
     0
 42
0.000000001
 43
0.0000000001
 40
0.0
 40
0.0
 40
0.0
 40
0.0
 40
0.0001202464489355
 40
0.0001202464489355
 40
0.0001202464489355
 40
0.0001202464489355
 10
531.5220339289942
 20
9.332458684648909
 30
0.0
 10
531.5276812991383
 20
9.295753920167626
 30
0.0
 10
531.5334899795295
 20
9.259275671109056
 30
0.0
 10
531.5394648221139
 20
9.223833264839523
 30
0.0
  0
SPLINE
  5
152
330
1F
100
AcDbEntity
  8
0
370
    15
100
AcDbSpline
210
0.0
220
0.0
230
1.0
 70
     8
 71
     3
 72
     8
 73
     4
 74
     0
 42
0.000000001
 43
0.0000000001
 40
0.0
 40
0.0
 40
0.0
 40
0.0
 40
1.0
 40
1.0
 40
1.0
 40
1.0
 10
531.4986918474956
 20
9.502741513096783
 30
0.0
 10
531.5060865114393
 20
9.445324653024595
 30
0.0
 10
531.5136722520199
 20
9.386804933649711
 30
0.0
 10
531.5220339289951
 20
9.332458684652335
 30
0.0
  0
SPLINE
  5
153
330
1F
100
AcDbEntity
  8
0
370
    15
100
AcDbSpline
210
0.0
220
0.0
230
1.0
 70
     8
 71
     3
 72
    10
 73
     6
 74
     0
 42
0.000000001
 43
0.0000000001
 40
0.0
 40
0.0
 40
0.0
 40
0.0
 40
0.4999999999999999
 40
0.4999999999999999
 40
1.0
 40
1.0
 40
1.0
 40
1.0
 10
531.4334483510816
 20
10.26036782966816
 30
0.0
 10
531.4395258017845
 20
10.14551314149512
 30
0.0
 10
531.4474269759923
 20
10.02320141734947
 30
0.0
 10
531.4686961758424
 20
9.765997250547428
 30
0.0
 10
531.482014858672
 20
9.632232229779061
 30
0.0
 10
531.4986918474956
 20
9.502741513096783
 30
0.0
  0
SPLINE
  5
154
330
1F
100
AcDbEntity
  8
0
370
    15
100
AcDbSpline
210
0.0
220
0.0
230
1.0
 70
     8
 71
     3
 72
    10
 73
     6
 74
     0
 42
0.000000001
 43
0.0000000001
 40
0.0
 40
0.0
 40
0.0
 40
0.0
 40
0.5
 40
0.5
 40
1.0
 40
1.0
 40
1.0
 40
1.0
 10
536.4350711753044
 20
13.43085929492495
 30
0.0
 10
536.3977683046683
 20
13.36729131925486
 30
0.0
 10
536.3959548839935
 20
13.30374497151765
 30
0.0
 10
536.4273235254022
 20
13.1703257353277
 30
0.0
 10
536.4620868466494
 20
13.09940696676098
 30
0.0
 10
536.5082379481462
 20
13.02520310236314
 30
0.0
  0
ARC
  5
155
330
1F
100
AcDbEntity
  8
0
370
    15
100
AcDbCircle
 10
549.9491811441
 20
15.0582731722
 30
0.0
 40
13.61174649190817
100
AcDbArc
 50
180.5981025655
 51
186.866681603
  0
SPLINE
  5
156
330
1F
100
AcDbEntity
  8
0
370
    15
100
AcDbSpline
210
0.0
220
0.0
230
1.0
 70
     8
 71
     3
 72
    10
 73
     6
 74
     0
 42
0.000000001
 43
0.0000000001
 40
0.0
 40
0.0
 40
0.0
 40
0.0
 40
0.5
 40
0.5
 40
1.0
 40
1.0
 40
1.0
 40
1.0
 10
536.5495963142226
 20
17.16691568569022
 30
0.0
 10
536.517504140925
 20
17.27333186612521
 30
0.0
 10
536.5211339440911
 20
17.38735518920394
 30
0.0
 10
536.5631263253302
 20
17.60050519939556
 30
0.0
 10
536.6032148859161
 20
17.7033071933987
 30
0.0
 10
536.6544416971444
 20
17.79468389896652
 30
0.0
  0
ARC
  5
157
330
1F
100
AcDbEntity
  8
0
370
    15
100
AcDbCircle
 10
549.9667865799
 20
12.3819199006
 30
0.0
 40
18.68663325421226
100
AcDbArc
 50
189.8338895929
 51
237.3298140858
  0
SPLINE
  5
158
330
1F
100
AcDbEntity
  8
0
370
    15
100
AcDbSpline
210
0.0
220
0.0
230
1.0
 70
     8
 71
     3
 72
     8
 73
     4
 74
     0
 42
0.000000001
 43
0.0000000001
 40
0.0
 40
0.0
 40
0.0
 40
0.0
 40
0.0000097420371483
 40
0.0000097420371483
 40
0.0000097420371483
 40
0.0000097420371483
 10
525.7145208851823
 20
5.6613408202843
 30
0.0
 10
525.7149818894016
 20
5.658444378000129
 30
0.0
 10
525.7154617770753
 20
5.655557791361135
 30
0.0
 10
525.7159604581785
 20
5.652681604788794
 30
0.0
  0
SPLINE
  5
159
330
1F
100
AcDbEntity
  8
0
370
    15
100
AcDbSpline
210
0.0
220
0.0
230
1.0
 70
     8
 71
     3
 72
    14
 73
    10
 74
     0
 42
0.000000001
 43
0.0000000001
 40
0.0
 40
0.0
 40
0.0
 40
0.0
 40
0.0056429428686179
 40
0.0056429428686179
 40
0.0056429428686179
 40
0.0081919276040767
 40
0.0081919276040767
 40
0.0081919276040767
 40
0.008418877345937
 40
0.008418877345937
 40
0.008418877345937
 40
0.008418877345937
 10
531.5547151500355
 20
9.190386589122592
 30
0.0
 10
530.2499763521624
 20
8.401169737600605
 30
0.0
 10
528.9451693814295
 20
7.612459710525723
 30
0.0
 10
527.6402939562634
 20
6.82423821180339
 30
0.0
 10
527.0508661098053
 20
6.468189127297963
 30
0.0
 10
526.4614242783722
 20
6.112239741949659
 30
0.0
 10
525.8719684370241
 20
5.756388503951507
 30
0.0
 10
525.8194860308548
 20
5.724705165016789
 30
0.0
 10
525.76700351358
 20
5.693022604149431
 30
0.0
 10
525.7145208851823
 20
5.661340820284313
 30
0.0
  0
LWPOLYLINE
  5
15A
330
1F
100
AcDbEntity
  8
0
370
    15
100
AcDbPolyline
 90
       13
 70
   128
 43
0.0
 10
525.7159607089
 20
5.652681757299999
 10
526.1748305708001
 20
3.728124036499999
 10
526.8839262723
 20
1.7809979636
 10
527.8202718541
 20
-0.1256049124
 10
528.9535268534999
 20
-1.929906672699999
 10
530.2469721459999
 20
-3.573443333899999
 10
531.6586964773001
 20
-5.002961235699999
 10
533.1429570166999
 20
-6.172140122999999
 10
534.6516604232
 20
-7.0430960608
 10
536.1359209625
 20
-7.587607915299999
 10
537.5476452937999
 20
-7.788032232
 10
538.8410905863
 20
-7.637875718099999
 10
539.7497516155
 20
-7.275173612
  0
SPLINE
  5
15B
330
1F
100
AcDbEntity
  8
0
370
    15
100
AcDbSpline
210
0.0
220
0.0
230
1.0
 70
     8
 71
     3
 72
     8
 73
     4
 74
     0
 42
0.000000001
 43
0.0000000001
 40
0.0
 40
0.0
 40
0.0
 40
0.0
 40
1.0
 40
1.0
 40
1.0
 40
1.0
 10
526.5084716143023
 20
9.331649664842595
 30
0.0
 10
526.42680273605
 20
9.057936214911329
 30
0.0
 10
526.3385880175839
 20
8.76263901608566
 30
0.0
 10
526.2461845960765
 20
8.443836513263246
 30
0.0
  0
SPLINE
  5
15C
330
1F
100
AcDbEntity
  8
0
370
    15
100
AcDbSpline
210
0.0
220
0.0
230
1.0
 70
     8
 71
     3
 72
     8
 73
     4
 74
     0
 42
0.000000001
 43
0.0000000001
 40
0.0
 40
0.0
 40
0.0
 40
0.0
 40
1.0
 40
1.0
 40
1.0
 40
1.0
 10
531.6606548403793
 20
13.54216818135674
 30
0.0
 10
531.868353042959
 20
13.47296427272636
 30
0.0
 10
532.0956118756027
 20
13.43736818852624
 30
0.0
 10
532.3212249641597
 20
13.43309758794986
 30
0.0
  0
LINE
  5
15D
330
1F
100
AcDbEntity
  8
0
370
    15
100
AcDbLine
 10
531.6606544948
 20
13.5421681636
 30
0.0
 11
531.6603970038999
 21
13.5422540964
 31
0.0
  0
SPLINE
  5
15E
330
1F
100
AcDbEntity
  8
0
370
    15
100
AcDbSpline
210
0.0
220
0.0
230
1.0
 70
     8
 71
     3
 72
    14
 73
    10
 74
     0
 42
0.000000001
 43
0.0000000001
 40
0.0
 40
0.0
 40
0.0
 40
0.0
 40
0.25
 40
0.25
 40
0.5
 40
0.5
 40
0.75
 40
0.75
 40
1.0
 40
1.0
 40
1.0
 40
1.0
 10
531.7386674336703
 20
14.89023823813672
 30
0.0
 10
531.7151628337169
 20
14.80652010704295
 30
0.0
 10
531.6956787718961
 20
14.70282411190633
 30
0.0
 10
531.6664481929644
 20
14.47605057261067
 30
0.0
 10
531.6566734358676
 20
14.35302283440594
 30
0.0
 10
531.6457574795151
 20
14.11046017592125
 30
0.0
 10
531.6444407064986
 20
13.9882086530696
 30
0.0
 10
531.6480736596613
 20
13.75775081500819
 30
0.0
 10
531.6530062373702
 20
13.64648397090551
 30
0.0
 10
531.6603970771657
 20
13.54225408743356
 30
0.0
  0
SPLINE
  5
15F
330
1F
100
AcDbEntity
  8
0
370
    15
100
AcDbSpline
210
0.0
220
0.0
230
1.0
 70
     8
 71
     3
 72
     9
 73
     5
 74
     0
 42
0.000000001
 43
0.0000000001
 40
0.0
 40
0.0
 40
0.0
 40
0.0
 40
0.4638307308478545
 40
1.0
 40
1.0
 40
1.0
 40
1.0
 10
532.7047359824546
 20
13.19629742889203
 30
0.0
 10
533.1717018452831
 20
13.46637660886159
 30
0.0
 10
534.1784610610313
 20
14.04865622512565
 30
0.0
 10
535.1855039159808
 20
14.63076369663205
 30
0.0
 10
535.7254493475241
 20
14.94287183419764
 30
0.0
  0
LINE
  5
160
330
1F
100
AcDbEntity
  8
0
370
    15
100
AcDbLine
 10
532.3212246857
 20
13.4330977243
 30
0.0
 11
532.7047359825
 21
13.1962974289
 31
0.0
  0
SPLINE
  5
161
330
1F
100
AcDbEntity
  8
0
370
    15
100
AcDbSpline
210
0.0
220
0.0
230
1.0
 70
     8
 71
     3
 72
    11
 73
     7
 74
     0
 42
0.000000001
 43
0.0000000001
 40
0.0
 40
0.0
 40
0.0
 40
0.0
 40
0.2330330506053148
 40
0.5083962729256943
 40
0.9195565112829392
 40
1.0
 40
1.0
 40
1.0
 40
1.0
 10
532.7047359824547
 20
13.19629742889203
 30
0.0
 10
532.6522588303959
 20
13.17574406731172
 30
0.0
 10
532.5377721150946
 20
13.13090385088585
 30
0.0
 10
532.2972844859487
 20
13.15714109469813
 30
0.0
 10
532.0960424421587
 20
13.2098973002078
 30
0.0
 10
532.0035463594376
 20
13.28490923254921
 30
0.0
 10
531.9884107793415
 20
13.29718379679806
 30
0.0
  0
SPLINE
  5
162
330
1F
100
AcDbEntity
  8
0
370
    15
100
AcDbSpline
210
0.0
220
0.0
230
1.0
 70
     8
 71
     3
 72
    14
 73
    10
 74
     0
 42
0.000000001
 43
0.0000000001
 40
0.0
 40
0.0
 40
0.0
 40
0.0
 40
0.25
 40
0.25
 40
0.5
 40
0.5
 40
0.75
 40
0.75
 40
1.0
 40
1.0
 40
1.0
 40
1.0
 10
525.8603008570183
 20
10.41699709426273
 30
0.0
 10
525.8357515268263
 20
10.33257034320112
 30
0.0
 10
525.8340746062471
 20
10.23818034247138
 30
0.0
 10
525.8747269195295
 20
10.04021157981606
 30
0.0
 10
525.9172526397756
 20
9.937484994507123
 30
0.0
 10
526.0376229622621
 20
9.740367301134975
 30
0.0
 10
526.1163579528004
 20
9.644620968696601
 30
0.0
 10
526.2962112206884
 20
9.473406414740619
 30
0.0
 10
526.4006560732887
 20
9.395071511534652
 30
0.0
 10
526.5084716143007
 20
9.331649664842942
 30
0.0
  0
LWPOLYLINE
  5
163
330
1F
100
AcDbEntity
  8
0
370
    15
100
AcDbPolyline
 90
       12
 70
   128
 43
0.0
 10
537.6541480751
 20
-7.7889330861
 10
537.4295853856999
 20
-7.789619372399999
 10
536.0251307272
 20
-7.5902267019
 10
534.5485134200999
 20
-7.0485188124
 10
533.0475791924
 20
-6.1820479261
 10
531.5709618852999
 20
-5.018889761899999
 10
530.1665072268
 20
-3.596733599399999
 10
528.8797227827
 20
-1.9616604553
 10
527.7523028169
 20
-0.1666496733
 10
526.8207797565
 20
1.7301349387
 10
526.1153350258
 20
3.667234651
 10
525.6588286800999
 20
5.5818814807
  0
ARC
  5
164
330
1F
100
AcDbEntity
  8
0
370
    15
100
AcDbCircle
 10
525.7530534842
 20
5.5642984946
 30
0.0
 40
0.0958513177239972
100
AcDbArc
 50
112.766866861
 51
169.4297930502
  0
SPLINE
  5
165
330
1F
100
AcDbEntity
  8
0
370
    15
100
AcDbSpline
210
0.0
220
0.0
230
1.0
 70
     8
 71
     3
 72
     8
 73
     4
 74
     0
 42
0.000000001
 43
0.0000000001
 40
0.0
 40
0.0
 40
0.0
 40
0.0
 40
1.0
 40
1.0
 40
1.0
 40
1.0
 10
525.6131954278505
 20
5.075635136251436
 30
0.0
 10
525.6236551234285
 20
4.987447312834
 30
0.0
 10
525.635517262711
 20
4.902495844403511
 30
0.0
 10
525.6482970641391
 20
4.824215590946493
 30
0.0
  0
SPLINE
  5
166
330
1F
100
AcDbEntity
  8
0
370
    15
100
AcDbSpline
210
0.0
220
0.0
230
1.0
 70
     8
 71
     3
 72
    10
 73
     6
 74
     0
 42
0.000000001
 43
0.0000000001
 40
0.0
 40
0.0
 40
0.0
 40
0.0
 40
0.5
 40
0.5
 40
1.0
 40
1.0
 40
1.0
 40
1.0
 10
525.6588287611838
 20
5.581881689862901
 30
0.0
 10
525.6603722828556
 20
5.435450174220978
 30
0.0
 10
525.6569898376039
 20
5.318376289007594
 30
0.0
 10
525.6411548535154
 20
5.145882533656193
 30
0.0
 10
525.6285926841351
 20
5.091074045245266
 30
0.0
 10
525.6131954278505
 20
5.075635136251436
 30
0.0
  0
ARC
  5
167
330
1F
100
AcDbEntity
  8
0
370
    15
100
AcDbCircle
 10
541.5647013302
 20
7.499796546
 30
0.0
 40
16.13972275166061
100
AcDbArc
 50
189.5423235386
 51
236.0523107658
  0
SPLINE
  5
168
330
1F
100
AcDbEntity
  8
0
370
    15
100
AcDbSpline
210
0.0
220
0.0
230
1.0
 70
     8
 71
     3
 72
    14
 73
    10
 74
     0
 42
0.000000001
 43
0.0000000001
 40
0.0
 40
0.0
 40
0.0
 40
0.0
 40
0.25
 40
0.25
 40
0.5
 40
0.5
 40
0.75
 40
0.75
 40
1.0
 40
1.0
 40
1.0
 40
1.0
 10
531.5396884726744
 20
13.72614913307288
 30
0.0
 10
531.5445232364143
 20
13.80972084428486
 30
0.0
 10
531.5506948352501
 20
13.8972942982243
 30
0.0
 10
531.5663424555989
 20
14.07965891087136
 30
0.0
 10
531.5759976898702
 20
14.17610088518754
 30
0.0
 10
531.5991633144736
 20
14.36802063255895
 30
0.0
 10
531.6130208804657
 20
14.46611285043353
 30
0.0
 10
531.6446467997036
 20
14.64786764021064
 30
0.0
 10
531.6624428953434
 20
14.73139303943954
 30
0.0
 10
531.6810322957951
 20
14.79813735880341
 30
0.0
  0
ARC
  5
169
330
1F
100
AcDbEntity
  8
0
370
    15
100
AcDbCircle
 10
531.7918116825
 20
14.7928974665
 30
0.0
 40
0.1109030363629213
100
AcDbArc
 50
118.6327506067
 51
177.2919657785
  0
SPLINE
  5
16A
330
1F
100
AcDbEntity
  8
0
370
    15
100
AcDbSpline
210
0.0
220
0.0
230
1.0
 70
     8
 71
     3
 72
    10
 73
     6
 74
     0
 42
0.000000001
 43
0.0000000001
 40
0.0
 40
0.0
 40
0.0
 40
0.0
 40
0.5
 40
0.5
 40
1.0
 40
1.0
 40
1.0
 40
1.0
 10
531.6603970603123
 20
13.54225432510509
 30
0.0
 10
531.6171994618427
 20
13.55673228356574
 30
0.0
 10
531.5822390665245
 20
13.58385413560974
 30
0.0
 10
531.5398640441058
 20
13.6505733186453
 30
0.0
 10
531.5328970264233
 20
13.68929646389443
 30
0.0
 10
531.5396884726741
 20
13.72614913307248
 30
0.0
  0
LWPOLYLINE
  5
16B
330
1F
100
AcDbEntity
  8
0
370
    15
100
AcDbPolyline
 90
        3
 70
   128
 43
0.0
 10
531.6810324960999
 20
14.7981372489
 10
532.2366609853999
 20
16.1976660119
 10
532.4183402443
 20
16.5102063113
  0
SPLINE
  5
16C
330
1F
100
AcDbEntity
  8
0
370
    15
100
AcDbSpline
210
0.0
220
0.0
230
1.0
 70
     8
 71
     3
 72
     8
 73
     4
 74
     0
 42
0.000000001
 43
0.0000000001
 40
0.0
 40
0.0
 40
0.0
 40
0.0
 40
0.0000097420371484
 40
0.0000097420371484
 40
0.0000097420371484
 40
0.0000097420371484
 10
525.8622040411291
 20
10.42346187061355
 30
0.0
 10
525.8615508290517
 20
10.42129692438444
 30
0.0
 10
525.8609163946212
 20
10.41914186336676
 30
0.0
 10
525.8603008570183
 20
10.41699709426272
 30
0.0
  0
ARC
  5
16D
330
1F
100
AcDbEntity
  8
0
370
    15
100
AcDbCircle
 10
530.4790569716999
 20
9.2496950989
 30
0.0
 40
4.763722983759947
100
AcDbArc
 50
122.7994940585
 51
165.7355960012
  0
ARC
  5
16E
330
1F
100
AcDbEntity
  8
0
370
    15
100
AcDbCircle
 10
525.7488891883
 20
5.5742479669
 30
0.0
 40
0.0936287315612715
100
AcDbArc
 50
111.5353045384
 51
168.744856784
  0
SPLINE
  5
16F
330
1F
100
AcDbEntity
  8
0
370
    15
100
AcDbSpline
210
0.0
220
0.0
230
1.0
 70
     8
 71
     3
 72
    10
 73
     6
 74
     0
 42
0.000000001
 43
0.0000000001
 40
0.0
 40
0.0
 40
0.0
 40
0.0
 40
0.4542913426375799
 40
0.9054274148346179
 40
1.0
 40
1.0
 40
1.0
 40
1.0
 10
525.6570611466525
 20
5.592522269360758
 30
0.0
 10
525.6530573780858
 20
5.686234854894196
 30
0.0
 10
525.6450776490381
 20
5.873009147277522
 30
0.0
 10
525.7132029465228
 20
6.069311880244428
 30
0.0
 10
525.7906187673428
 20
6.145467858537132
 30
0.0
 10
525.804035109944
 20
6.158665867485257
 30
0.0
  0
SPLINE
  5
170
330
1F
100
AcDbEntity
  8
0
370
    15
100
AcDbSpline
210
0.0
220
0.0
230
1.0
 70
     8
 71
     3
 72
     8
 73
     4
 74
     0
 42
0.000000001
 43
0.0000000001
 40
0.0
 40
0.0
 40
0.0
 40
0.0
 40
0.0000119721128104
 40
0.0000119721128104
 40
0.0000119721128104
 40
0.0000119721128104
 10
525.6588287611838
 20
5.581881689862901
 30
0.0
 10
525.6582159079917
 20
5.585417761189148
 30
0.0
 10
525.6576265549774
 20
5.588964902141655
 30
0.0
 10
525.6570607980468
 20
5.592522522865558
 30
0.0
  0
SPLINE
  5
171
330
1F
100
AcDbEntity
  8
0
370
    15
100
AcDbSpline
210
0.0
220
0.0
230
1.0
 70
     8
 71
     3
 72
     9
 73
     5
 74
     0
 42
0.000000001
 43
0.0000000001
 40
0.0
 40
0.0
 40
0.0
 40
0.0
 40
0.1818797710469124
 40
1.0
 40
1.0
 40
1.0
 40
1.0
 10
525.6540351346383
 20
5.467995003237262
 30
0.0
 10
525.6447313076765
 20
5.445715539971321
 30
0.0
 10
525.5935775872361
 20
5.32321998624545
 30
0.0
 10
525.6043678031014
 20
5.187043541786103
 30
0.0
 10
525.6131954969756
 20
5.075634837867007
 30
0.0
  0
LINE
  5
172
330
1F
100
AcDbEntity
  8
0
370
    15
100
AcDbLine
 10
525.7955036658
 20
10.1730335775
 30
0.0
 11
525.8019817682
 21
10.3201484896
 31
0.0
  0
SPLINE
  5
173
330
1F
100
AcDbEntity
  8
0
370
    15
100
AcDbSpline
210
0.0
220
0.0
230
1.0
 70
     8
 71
     3
 72
    12
 73
     8
 74
     0
 42
0.000000001
 43
0.0000000001
 40
0.0
 40
0.0
 40
0.0
 40
0.0
 40
0.5
 40
0.5
 40
0.75
 40
0.75
 40
1.0
 40
1.0
 40
1.0
 40
1.0
 10
525.7224334234372
 20
8.639213538198143
 30
0.0
 10
525.6889341986035
 20
8.574696470928691
 30
0.0
 10
525.7248682856255
 20
8.522694096950347
 30
0.0
 10
525.8672790530513
 20
8.471772633441815
 30
0.0
 10
525.9279975386981
 20
8.459610952550434
 30
0.0
 10
526.0725791221376
 20
8.444544765028387
 30
0.0
 10
526.1564817468475
 20
8.441815814739253
 30
0.0
 10
526.2461845960765
 20
8.443836513263246
 30
0.0
  0
SPLINE
  5
174
330
1F
100
AcDbEntity
  8
0
370
    15
100
AcDbSpline
210
0.0
220
0.0
230
1.0
 70
     8
 71
     3
 72
    10
 73
     6
 74
     0
 42
0.000000001
 43
0.0000000001
 40
0.0
 40
0.0
 40
0.0
 40
0.0
 40
0.5
 40
0.5
 40
1.0
 40
1.0
 40
1.0
 40
1.0
 10
525.7224334234378
 20
8.639213538197257
 30
0.0
 10
525.7470007275437
 20
8.953374565506891
 30
0.0
 10
525.7671745117431
 20
9.255688683603782
 30
0.0
 10
525.7949646843277
 20
9.819555436685279
 30
0.0
 10
525.8028293217247
 20
10.08276587432996
 30
0.0
 10
525.8043192571092
 20
10.32809463692345
 30
0.0
  0
ARC
  5
175
330
1F
100
AcDbEntity
  8
0
370
    15
100
AcDbCircle
 10
525.909346214
 20
10.3194688516
 30
0.0
 40
0.1073665969686032
100
AcDbArc
 50
164.0504127332
 51
179.6373112882
  0
LWPOLYLINE
  5
176
330
1F
100
AcDbEntity
  8
0
370
    15
100
AcDbPolyline
 90
        3
 70
   128
 43
0.0
 10
525.8043189426
 20
10.328094418
 10
526.3701785794999
 20
11.6371705023
 10
526.405667543
 20
11.6961180715
  0
SPLINE
  5
177
330
1F
100
AcDbEntity
  8
0
370
    15
100
AcDbSpline
210
0.0
220
0.0
230
1.0
 70
     8
 71
     3
 72
     9
 73
     5
 74
     0
 42
0.000000001
 43
0.0000000001
 40
0.0
 40
0.0
 40
0.0
 40
0.0
 40
0.7478488097581017
 40
1.0
 40
1.0
 40
1.0
 40
1.0
 10
950.065203328441
 20
233.4039282672684
 30
0.0
 10
950.0569427861218
 20
233.3748802067942
 30
0.0
 10
950.0458970477172
 20
233.336038050338
 30
0.0
 10
950.0333086865527
 20
233.2744080558993
 30
0.0
 10
950.0301345163016
 20
233.258867979447
 30
0.0
  0
SPLINE
  5
178
330
1F
100
AcDbEntity
  8
0
370
    15
100
AcDbSpline
210
0.0
220
0.0
230
1.0
 70
     8
 71
     3
 72
     9
 73
     5
 74
     0
 42
0.000000001
 43
0.0000000001
 40
0.0
 40
0.0
 40
0.0
 40
0.0
 40
0.6389679790727111
 40
1.0
 40
1.0
 40
1.0
 40
1.0
 10
950.019592535818
 20
231.7654546595917
 30
0.0
 10
950.021950805457
 20
232.0828644465496
 30
0.0
 10
950.0256415532193
 20
232.5796182704557
 30
0.0
 10
950.0547090362859
 20
233.1852689709081
 30
0.0
 10
950.065203328441
 20
233.4039282672684
 30
0.0
  0
LWPOLYLINE
  5
179
330
1F
100
AcDbEntity
  8
0
370
    15
100
AcDbPolyline
 90
       16
 70
   128
 43
0.0
 10
933.7411572835002
 20
241.1627953027
 10
934.1976636291999
 20
239.248148473
 10
934.9031083599001
 20
237.3110487607
 10
935.8346314203
 20
235.4142641488
 10
936.9620513861001
 20
233.6192533667
 10
938.2488358302
 20
231.9841802226
 10
939.6532904886999
 20
230.5620240601
 10
941.1299077958
 20
229.3988658959
 10
942.6308420235001
 20
228.5323950096
 10
944.1074593307
 20
227.9906871201
 10
945.5119139890999
 20
227.7912944496
 10
946.7986984332
 20
227.9406778983
 10
947.9261183990999
 20
228.4339972951
 10
948.8576414594
 20
229.2552682745
 10
949.5630861902
 20
230.3778788375
 10
950.0195925357999
 20
231.7654546596
  0
SPLINE
  5
17A
330
1F
100
AcDbEntity
  8
0
370
    15
100
AcDbSpline
210
0.0
220
0.0
230
1.0
 70
     8
 71
     3
 72
    10
 73
     6
 74
     0
 42
0.000000001
 43
0.0000000001
 40
0.0
 40
0.0
 40
0.0
 40
0.0
 40
0.2091548210872958
 40
0.3226538009906545
 40
1.0
 40
1.0
 40
1.0
 40
1.0
 10
935.5987295822741
 20
241.7552457981388
 30
0.0
 10
935.4796680705065
 20
241.6933479555461
 30
0.0
 10
935.2959971939588
 20
241.5978609183274
 30
0.0
 10
934.6973109878078
 20
241.3478218274147
 30
0.0
 10
934.1822762595757
 20
241.24815679925
 30
0.0
 10
933.7411572835387
 20
241.1627953027126
 30
0.0
  0
SPLINE
  5
17B
330
1F
100
AcDbEntity
  8
0
370
    15
100
AcDbSpline
210
0.0
220
0.0
230
1.0
 70
     8
 71
     3
 72
     9
 73
     5
 74
     0
 42
0.000000001
 43
0.0000000001
 40
0.0
 40
0.0
 40
0.0
 40
0.0
 40
0.7485313470094845
 40
1.0
 40
1.0
 40
1.0
 40
1.0
 10
935.6908652272966
 20
241.5367519402753
 30
0.0
 10
935.6764048872657
 20
241.5946583381064
 30
0.0
 10
935.6570866047533
 20
241.6720183552418
 30
0.0
 10
935.6104557743764
 20
241.7385221727351
 30
0.0
 10
935.5987295822741
 20
241.7552457981388
 30
0.0
  0
LWPOLYLINE
  5
17C
330
1F
100
AcDbEntity
  8
0
370
    15
100
AcDbPolyline
 90
       15
 70
   128
 43
0.0
 10
950.0301345163
 20
233.2588679794
 10
949.6048589853998
 20
231.9321435261
 10
948.923721791
 20
230.8781449664
 10
948.0125635610001
 20
230.1368587232
 10
946.9059509674
 20
229.7364067257
 10
945.6458649055001
 20
229.6919812582
 10
944.2801104382001
 20
230.0052674295
 10
942.8604998717998
 20
230.6643806441
 10
941.4408893053998
 20
231.6443149014
 10
940.0751348381
 20
232.9078952735
 10
938.8150487762001
 20
234.4071851404
 10
937.7084361826
 20
236.0853048425
 10
936.7972779525999
 20
237.8785919856
 10
936.1161407582001
 20
239.7190148104
 10
935.6908652272998
 20
241.5367519403
  0
LWPOLYLINE
  5
17D
330
1F
100
AcDbEntity
  8
0
370
    15
100
AcDbPolyline
 90
       13
 70
   128
 43
0.0
 10
927.5345063461999
 20
237.7846541135
 10
927.9923969524
 20
235.8287656099
 10
928.7066615697
 20
233.8477895373
 10
929.6539337219998
 20
231.9065326322
 10
930.8032232924
 20
230.0685026153
 10
932.1169323287
 20
228.3938289914
 10
933.5520832284
 20
226.9372981287
 10
935.0617256371
 20
225.7465608366
 10
936.5964723387
 20
224.8605704247
 10
938.1061147473999
 20
224.3083116924
 10
939.5412656471
 20
224.1078525963
 10
940.8549746833999
 20
224.2657500523
 10
941.9022221237
 20
224.7128676079
  0
SPLINE
  5
17E
330
1F
100
AcDbEntity
  8
0
370
    15
100
AcDbSpline
210
0.0
220
0.0
230
1.0
 70
     8
 71
     3
 72
    10
 73
     6
 74
     0
 42
0.000000001
 43
0.0000000001
 40
0.0
 40
0.0
 40
0.0
 40
0.0
 40
0.6789730796711146
 40
0.707850250049459
 40
1.0
 40
1.0
 40
1.0
 40
1.0
 10
933.5981925392117
 20
241.1275724674678
 30
0.0
 10
932.2258954150262
 20
240.3704975155746
 30
0.0
 10
930.795233594137
 20
239.5812236694547
 30
0.0
 10
928.7739482472019
 20
238.4673429260221
 30
0.0
 10
928.125041927532
 20
238.1099231192344
 30
0.0
 10
927.5345063461587
 20
237.7846541135279
 30
0.0
  0
LINE
  5
17F
330
1F
100
AcDbEntity
  8
0
370
    15
100
AcDbLine
 10
933.5997710703999
 20
241.1189934377
 30
0.0
 11
933.5981925391999
 21
241.1275724675
 31
0.0
  0
LWPOLYLINE
  5
180
330
1F
100
AcDbEntity
  8
0
370
    15
100
AcDbPolyline
 90
       13
 70
   128
 43
0.0
 10
947.7798833227
 20
228.2756076661
 10
946.7249009477999
 20
227.8284359622
 10
945.4314556552999
 20
227.6782794483001
 10
944.019731324
 20
227.878703765
 10
942.5354707847001
 20
228.4232156196
 10
941.0267673782
 20
229.2941715573
 10
939.5425068388
 20
230.4633504446
 10
938.1307825074999
 20
231.8928683465
 10
936.8373372150001
 20
233.5364050076
 10
935.7040822155999
 20
235.3407067679
 10
934.7677366338
 20
237.2473096439
 10
934.0586409322998
 20
239.1944357168
 10
933.5997710703999
 20
241.1189934377
  0
ARC
  5
181
330
1F
100
AcDbEntity
  8
0
370
    15
100
AcDbCircle
 10
933.7861393507999
 20
240.7675113015
 30
0.0
 40
0.3978351768893856
100
AcDbArc
 50
96.49215050709999
 51
117.9341195317
  0
LWPOLYLINE
  5
182
330
1F
100
AcDbEntity
  8
0
370
    15
100
AcDbPolyline
 90
        3
 70
   128
 43
0.0
 10
950.0174180219
 20
231.7443054234
 10
950.0187489403
 20
231.7518806952
 10
950.0195925357999
 20
231.7654546596
  0
ARC
  5
183
330
1F
100
AcDbEntity
  8
0
370
    15
100
AcDbCircle
 10
935.7366835988999
 20
241.2163366515
 30
0.0
 40
0.3236746522025626
100
AcDbArc
 50
73.85199184310001
 51
98.1379457997
  0
LWPOLYLINE
  5
184
330
1F
100
AcDbEntity
  8
0
370
    15
100
AcDbPolyline
 90
       15
 70
   128
 43
0.0
 10
935.8267038614998
 20
241.5272411912
 10
936.2462744213001
 20
239.7338881489
 10
936.9182743107002
 20
237.9181544153
 10
937.8172092960999
 20
236.1489237491
 10
938.9089776379
 20
234.4933153975
 10
940.1521596854999
 20
233.0141384731
 10
941.4995931152999
 20
231.7675080503
 10
942.9001600561999
 20
230.8007195539
 10
944.3007269972
 20
230.1504478803
 10
945.6481604269999
 20
229.8413647794
 10
946.8913424746
 20
229.8851942639
 10
947.9831108163999
 20
230.2802737191
 10
948.8820458017999
 20
231.0116161433
 10
949.5540456911999
 20
232.0514753195
 10
949.8869524523
 20
232.9856369292
  0
ARC
  5
185
330
1F
100
AcDbEntity
  8
0
370
    15
100
AcDbCircle
 10
949.8928247392999
 20
233.2489331979
 30
0.0
 40
0.1376687137385803
100
AcDbArc
 50
4.1383133241
 51
54.0658858788
  0
LWPOLYLINE
  5
186
330
1F
100
AcDbEntity
  8
0
370
    15
100
AcDbPolyline
 90
       13
 70
   128
 43
0.0
 10
949.398565967
 20
239.0390686839
 10
949.3281866569001
 20
239.242406435
 10
948.5474320933001
 20
241.0879241394
 10
947.5428994961001
 20
242.8564102899
 10
946.3543955758
 20
244.4777872134
 10
945.029014826
 20
245.8878070588
 10
943.6192768294999
 20
247.0305955608
 10
942.181043283
 20
247.8608701143
 10
940.7713052864998
 20
248.3457304576
 10
939.4459245367
 20
248.4659626536
 10
938.2574206163999
 20
248.2168031479
 10
937.2528880192
 20
247.6081256469
 10
936.8900293367998
 20
247.2440545907
  0
LWPOLYLINE
  5
187
330
1F
100
AcDbEntity
  8
0
370
    15
100
AcDbPolyline
 90
        9
 70
   128
 43
0.0
 10
935.946093371
 20
245.4219811522
 10
936.322269799
 20
244.8111044799
 10
936.6030949091999
 20
244.1605737437
 10
936.7713352503001
 20
243.5103090617
 10
936.8166681371
 20
242.9002131157
 10
936.7363105606001
 20
242.3677251815
 10
936.5351943606
 20
241.945520911
 10
936.2256606612
 20
241.6595092449
 10
935.8267038614998
 20
241.5272411912
  0
LWPOLYLINE
  5
188
330
1F
100
AcDbEntity
  8
0
370
    15
100
AcDbPolyline
 90
       15
 70
   128
 43
0.0
 10
938.6532987205001
 20
243.2043405927
 10
938.4100320499999
 20
243.3691178695
 10
937.8688358928
 20
243.5572327932
 10
937.4100318852999
 20
243.4680870657
 10
937.1034688802
 20
243.1152523306
 10
936.9958185851
 20
242.5524442237
 10
937.1034688802
 20
241.8653457317
 10
937.4100318852999
 20
241.1585608849
 10
937.8688358928
 20
240.5396913259
 10
938.4100320499999
 20
240.1029544668
 10
938.9512282071999
 20
239.9148395431
 10
939.4100318853
 20
240.0039854607
 10
939.7165948905
 20
240.3568201958
 10
939.8242455149
 20
240.9196281126
 10
939.8242455149
 20
240.9196281126
  0
LWPOLYLINE
  5
189
330
1F
100
AcDbEntity
  8
0
370
    15
100
AcDbPolyline
 90
       15
 70
   128
 43
0.0
 10
947.633554733
 20
238.0201491453
 10
947.3902880624999
 20
238.1849264221
 10
946.8490919052999
 20
238.3730413458
 10
946.3902882271
 20
238.2838954282
 10
946.0837252220001
 20
237.9310606931
 10
945.9760745975998
 20
237.3682527763
 10
946.0837252220001
 20
236.6811540942
 10
946.3902882271
 20
235.9743692474
 10
946.8490919052999
 20
235.3554998784
 10
947.3902880624999
 20
234.9187630194
 10
947.9314842197
 20
234.7306480957
 10
948.3902882271999
 20
234.8197938232
 10
948.6968512323
 20
235.1726285583
 10
948.8045015274
 20
235.7354366652
 10
948.8045015274
 20
235.7354366652
  0
LWPOLYLINE
  5
18A
330
1F
100
AcDbEntity
  8
0
370
    15
100
AcDbPolyline
 90
       16
 70
   128
 43
0.0
 10
926.1533745353
 20
237.749273543
 10
926.5969727501
 20
235.7536607291
 10
927.2908007557001
 20
233.7263370884
 10
928.2145589178
 20
231.7266158712
 10
929.3412218866999
 20
229.8130030354
 10
930.6378265464999
 20
228.0414832377
 10
932.0664390871
 20
226.4638854988
 10
933.5852621824001
 20
225.1263672301
 10
935.1498603773
 20
224.0680573972
 10
936.7144585721
 20
223.3199206056
 10
938.2332816675001
 20
222.9038430548
 10
939.6618942081
 20
222.8319998636
 10
940.9584988678
 20
223.1064917864
 10
942.0851618367999
 20
223.7192872468
 10
943.0089199988
 20
224.6524599923
 10
943.6594954597
 20
225.7780365353
  0
SPLINE
  5
18B
330
1F
100
AcDbEntity
  8
0
370
    15
100
AcDbSpline
210
0.0
220
0.0
230
1.0
 70
     8
 71
     3
 72
    12
 73
     8
 74
     0
 42
0.000000001
 43
0.0000000001
 40
0.0
 40
0.0
 40
0.0
 40
0.0
 40
0.0305908940887262
 40
0.3785559180024299
 40
0.6310016016214976
 40
0.8149172560980606
 40
1.0
 40
1.0
 40
1.0
 40
1.0
 10
926.8072341576893
 20
238.504795957843
 30
0.0
 10
926.7962195381173
 20
238.501049547874
 30
0.0
 10
926.6599159239946
 20
238.4546885078556
 30
0.0
 10
926.4443330394922
 20
238.3450376451505
 30
0.0
 10
926.2437764194341
 20
238.1414535385441
 30
0.0
 10
926.1463642411895
 20
237.9417902863847
 30
0.0
 10
926.1510328485737
 20
237.8135809601044
 30
0.0
 10
926.1533745353363
 20
237.7492735430369
 30
0.0
  0
SPLINE
  5
18C
330
1F
100
AcDbEntity
  8
0
370
    15
100
AcDbSpline
210
0.0
220
0.0
230
1.0
 70
     8
 71
     3
 72
    11
 73
     7
 74
     0
 42
0.000000001
 43
0.0000000001
 40
0.0
 40
0.0
 40
0.0
 40
0.0
 40
0.1323449962999452
 40
0.5276713338641074
 40
0.8953443168729132
 40
1.0
 40
1.0
 40
1.0
 40
1.0
 10
927.3705755203307
 20
238.0347152901969
 30
0.0
 10
927.3554607238477
 20
238.0626521135362
 30
0.0
 10
927.29519667878
 20
238.1740387261581
 30
0.0
 10
927.1341711357916
 20
238.3325851221093
 30
0.0
 10
926.9441903255026
 20
238.4467397176107
 30
0.0
 10
926.8320758042944
 20
238.4942654894012
 30
0.0
 10
926.8072341576893
 20
238.504795957843
 30
0.0
  0
LINE
  5
18D
330
1F
100
AcDbEntity
  8
0
370
    15
100
AcDbLine
 10
927.4333723489998
 20
237.8872093533
 30
0.0
 11
927.3705755203
 21
238.0347152902
 31
0.0
  0
SPLINE
  5
18E
330
1F
100
AcDbEntity
  8
0
370
    15
100
AcDbSpline
210
0.0
220
0.0
230
1.0
 70
     8
 71
     3
 72
     9
 73
     5
 74
     0
 42
0.000000001
 43
0.0000000001
 40
0.0
 40
0.0
 40
0.0
 40
0.0
 40
0.5113810635752982
 40
1.0
 40
1.0
 40
1.0
 40
1.0
 10
927.4564490656276
 20
237.7818433417417
 30
0.0
 10
927.4530717556171
 20
237.799918725861
 30
0.0
 10
927.4464674633367
 20
237.8352649390996
 30
0.0
 10
927.4376706423121
 20
237.8701593052012
 30
0.0
 10
927.4333723489787
 20
237.887209353253
 30
0.0
  0
LWPOLYLINE
  5
18F
330
1F
100
AcDbEntity
  8
0
370
    15
100
AcDbPolyline
 90
       14
 70
   128
 43
0.0
 10
942.4970313771
 20
225.073410397
 10
942.0076004402998
 20
224.7008578086
 10
940.8518462676999
 20
224.1868943187
 10
939.5307473742001
 20
224.028108519
 10
938.0875237066
 20
224.2296955746
 10
936.5693894488
 20
224.7850603337
 10
935.0260097227
 20
225.6760344847
 10
933.5078754648
 20
226.8734702303
 10
932.0646517972999
 20
228.3381937528
 10
930.7435529038
 20
230.0222878679
 10
929.5877987312
 20
231.8706567218
 10
928.6351976367999
 20
233.8228337542
 10
927.9169152394
 20
235.8149528928
 10
927.4564490655999
 20
237.7818433417
  0
LWPOLYLINE
  5
190
330
1F
100
AcDbEntity
  8
0
370
    15
100
AcDbPolyline
 90
        8
 70
   128
 43
0.0
 10
921.5260028902001
 20
242.0627982613
 10
921.2309281938999
 20
241.8854211215
 10
920.2814729666
 20
241.0521726899
 10
919.5395507969999
 20
239.9389751358
 10
919.0249799235999
 20
238.5755634673
 10
918.7515054871999
 20
236.9983562112
 10
918.7264320636
 20
235.2494830792
 10
918.9504293925001
 20
233.3756589418
  0
LWPOLYLINE
  5
191
330
1F
100
AcDbEntity
  8
0
370
    15
100
AcDbPolyline
 90
       14
 70
   128
 43
0.0
 10
933.3424428283001
 20
218.3281852837
 10
932.4586708302
 20
217.9175215975
 10
931.1522881015999
 20
217.6687894377
 10
929.7193136914
 20
217.7588937853
 10
928.1999201319001
 20
218.1853091103
 10
926.6367027402999
 20
218.9360807502
 10
925.0734853485999
 20
219.9901614933
 10
923.5540917891
 20
221.3180006319
 10
922.1211173788999
 20
222.8823733217
 10
920.8147346503
 20
224.6394228745
 10
919.6715678974999
 20
226.5398907012
 10
918.7236642010001
 20
228.5305004481
 10
917.9975978075001
 20
230.5554446172
 10
917.5137243277999
 20
232.5579556132
  0
LINE
  5
192
330
1F
100
AcDbEntity
  8
0
370
    15
100
AcDbLine
 10
918.9504293925001
 20
233.3756589418
 30
0.0
 11
917.5137243277999
 21
232.5579556132
 31
0.0
  0
ARC
  5
193
330
1F
100
AcDbEntity
  8
0
370
    15
100
AcDbCircle
 10
931.0065268253
 20
241.5710772198
 30
0.0
 40
4.947240365630598
100
AcDbArc
 50
82.1655396915
 51
168.1424997186
  0
LINE
  5
194
330
1F
100
AcDbEntity
  8
0
370
    15
100
AcDbLine
 10
921.0426437336
 20
239.6972694256
 30
0.0
 11
926.1648523075999
 21
242.5876278088
 31
0.0
  0
ARC
  5
195
330
1F
100
AcDbEntity
  8
0
370
    15
100
AcDbCircle
 10
932.4241028816
 20
236.9613999256
 30
0.0
 40
11.70566504983241
100
AcDbArc
 50
166.4837087766
 51
190.0046899420999
  0
LWPOLYLINE
  5
196
330
1F
100
AcDbEntity
  8
0
370
    15
100
AcDbPolyline
 90
        3
 70
   128
 43
0.0
 10
926.0152362636999
 20
237.7068340356
 10
924.631487397
 20
236.955662911
 10
920.8964396088999
 20
234.9277889184
  0
LWPOLYLINE
  5
197
330
1F
100
AcDbEntity
  8
0
370
    15
100
AcDbPolyline
 90
       14
 70
   128
 43
0.0
 10
941.6528945388
 20
223.3655600174
 10
940.8871218628
 20
222.9980226075
 10
939.5846706449001
 20
222.7222928631
 10
938.1496162219001
 20
222.7944601674
 10
936.6239439343999
 20
223.2124140881
 10
935.052290423
 20
223.9639242014
 10
933.4806369114998
 20
225.0270066077
 10
931.9549646239998
 20
226.3705564155
 10
930.5199102011
 20
227.9552676803
 10
929.2174589832001
 20
229.7347755921
 10
928.0857153433
 20
231.6570180642
 10
927.1577912286998
 20
233.66575722
 10
926.4608344780999
 20
235.7022224717
 10
926.0152362636999
 20
237.7068340356
  0
ARC
  5
198
330
1F
100
AcDbEntity
  8
0
370
    15
100
AcDbCircle
 10
926.1952438071
 20
237.3669553502
 30
0.0
 40
0.3846039995489259
100
AcDbArc
 50
96.24979562540001
 51
117.9067201715
  0
LINE
  5
199
330
1F
100
AcDbEntity
  8
0
370
    15
100
AcDbLine
 10
933.7392382847999
 20
241.1733486524
 30
0.0
 11
933.7411572835002
 21
241.1627953027
 31
0.0
  0
SPLINE
  5
19A
330
1F
100
AcDbEntity
  8
0
370
    15
100
AcDbSpline
210
0.0
220
0.0
230
1.0
 70
     8
 71
     3
 72
    12
 73
     8
 74
     0
 42
0.000000001
 43
0.0000000001
 40
0.0
 40
0.0
 40
0.0
 40
0.0
 40
0.2586130249469929
 40
0.5148497100818616
 40
0.779854820988711
 40
0.9945908722125196
 40
1.0
 40
1.0
 40
1.0
 40
1.0
 10
935.5987295822741
 20
241.7552457981388
 30
0.0
 10
935.5357731021577
 20
241.8297700533139
 30
0.0
 10
935.4104386355656
 20
241.9781337762117
 30
0.0
 10
935.2069888678252
 20
242.0978663249164
 30
0.0
 10
935.0317418543612
 20
242.1251941082654
 30
0.0
 10
934.9343903805968
 20
242.0891330821359
 30
0.0
 10
934.8957605215339
 20
242.0625625655296
 30
0.0
 10
934.8948113576911
 20
242.061909708536
 30
0.0
  0
ARC
  5
19B
330
1F
100
AcDbEntity
  8
0
370
    15
100
AcDbCircle
 10
927.5099434453
 20
237.3815240902
 30
0.0
 40
0.4038776446121659
100
AcDbArc
 50
86.51325196669999
 51
97.6113039182
  0
LINE
  5
19C
330
1F
100
AcDbEntity
  8
0
370
    15
100
AcDbLine
 10
927.5345063461999
 20
237.7846541135
 30
0.0
 11
927.5211905761999
 21
237.8948625683
 31
0.0
  0
LINE
  5
19D
330
1F
100
AcDbEntity
  8
0
370
    15
100
AcDbLine
 10
927.5081092481
 20
238.0552744243
 30
0.0
 11
927.5211905761999
 21
237.8948625683
 31
0.0
  0
SPLINE
  5
19E
330
1F
100
AcDbEntity
  8
0
370
    15
100
AcDbSpline
210
0.0
220
0.0
230
1.0
 70
     8
 71
     3
 72
    10
 73
     6
 74
     0
 42
0.000000001
 43
0.0000000001
 40
0.0
 40
0.0
 40
0.0
 40
0.0
 40
0.4716558916902908
 40
0.9139194499722835
 40
1.0
 40
1.0
 40
1.0
 40
1.0
 10
927.4573598326821
 20
238.2552819881325
 30
0.0
 10
927.467433085439
 20
238.246278575343
 30
0.0
 10
927.4869518527887
 20
238.2288328183635
 30
0.0
 10
927.500271895864
 20
238.1324546896294
 30
0.0
 10
927.5070112394478
 20
238.0660873362237
 30
0.0
 10
927.5081092481007
 20
238.0552744243445
 30
0.0
  0
ARC
  5
19F
330
1F
100
AcDbEntity
  8
0
370
    15
100
AcDbCircle
 10
933.7873095377
 20
240.7850479129
 30
0.0
 40
0.3912650119906033
100
AcDbArc
 50
97.05725418610001
 51
118.9042672723
  0
SPLINE
  5
1A0
330
1F
100
AcDbEntity
  8
0
370
    15
100
AcDbSpline
210
0.0
220
0.0
230
1.0
 70
     8
 71
     3
 72
    14
 73
    10
 74
     0
 42
0.000000001
 43
0.0000000001
 40
0.0
 40
0.0
 40
0.0
 40
0.0
 40
0.258523729821133
 40
0.514720637281748
 40
0.7796342244592268
 40
0.9288068467360178
 40
0.9759045548032128
 40
0.9944781112317524
 40
1.0
 40
1.0
 40
1.0
 40
1.0
 10
935.8096179242433
 20
245.2283197324728
 30
0.0
 10
935.7398442969936
 20
245.1639186032436
 30
0.0
 10
935.6009250345024
 20
245.0356959820497
 30
0.0
 10
935.3622469272329
 20
244.8019858392857
 30
0.0
 10
935.1647548838997
 20
244.6032950367125
 30
0.0
 10
935.0426781965166
 20
244.4754918141866
 30
0.0
 10
934.9901265849693
 20
244.4189212680378
 30
0.0
 10
934.9732129327618
 20
244.4005138786363
 30
0.0
 10
934.9675612516406
 20
244.3943336966103
 30
0.0
 10
934.9662660709853
 20
244.392917400815
 30
0.0
  0
SPLINE
  5
1A1
330
1F
100
AcDbEntity
  8
0
370
    15
100
AcDbSpline
210
0.0
220
0.0
230
1.0
 70
     8
 71
     3
 72
     9
 73
     5
 74
     0
 42
0.000000001
 43
0.0000000001
 40
0.0
 40
0.0
 40
0.0
 40
0.0
 40
0.2496803842085696
 40
1.0
 40
1.0
 40
1.0
 40
1.0
 10
935.9460933709883
 20
245.4219811521558
 30
0.0
 10
935.9391678156052
 20
245.4049684261713
 30
0.0
 10
935.9114301324652
 20
245.3368304102898
 30
0.0
 10
935.8532623513903
 20
245.2748356312574
 30
0.0
 10
935.8096179242433
 20
245.2283197324729
 30
0.0
  0
SPLINE
  5
1A2
330
1F
100
AcDbEntity
  8
0
370
    15
100
AcDbSpline
210
0.0
220
0.0
230
1.0
 70
     8
 71
     3
 72
     9
 73
     5
 74
     0
 42
0.000000001
 43
0.0000000001
 40
0.0
 40
0.0
 40
0.0
 40
0.0
 40
0.2534744316632443
 40
1.0
 40
1.0
 40
1.0
 40
1.0
 10
935.704391072946
 20
241.795593105568
 30
0.0
 10
935.7191915855864
 20
241.7750451064689
 30
0.0
 10
935.7775821401796
 20
241.6939797344536
 30
0.0
 10
935.8057075350856
 20
241.5985110242868
 30
0.0
 10
935.8267038615027
 20
241.5272411911711
 30
0.0
  0
SPLINE
  5
1A3
330
1F
100
AcDbEntity
  8
0
370
    15
100
AcDbSpline
210
0.0
220
0.0
230
1.0
 70
     8
 71
     3
 72
    14
 73
    10
 74
     0
 42
0.000000001
 43
0.0000000001
 40
0.0
 40
0.0
 40
0.0
 40
0.0
 40
0.0055218832591364
 40
0.0240954389134398
 40
0.0711931377513631
 40
0.2203657915132795
 40
0.4852794432391582
 40
0.7414765114880011
 40
1.0
 40
1.0
 40
1.0
 40
1.0
 10
934.8948113576911
 20
242.061909708536
 30
0.0
 10
934.8960873213099
 20
242.0626992933474
 30
0.0
 10
934.901655150616
 20
242.0661447469534
 30
0.0
 10
934.918304129324
 20
242.0759146037841
 30
0.0
 10
934.9699328353336
 20
242.1023780666442
 30
0.0
 10
935.0892228589707
 20
242.139291794365
 30
0.0
 10
935.2802205884628
 20
242.126116281147
 30
0.0
 10
935.5083456068193
 20
242.0155351942546
 30
0.0
 10
935.6388459735432
 20
241.8691277113442
 30
0.0
 10
935.704391072946
 20
241.795593105568
 30
0.0
  0
ARC
  5
1A4
330
1F
100
AcDbEntity
  8
0
370
    15
100
AcDbCircle
 10
935.7512734883
 20
241.5142907206
 30
0.0
 40
0.2851823849176893
100
AcDbArc
 50
99.46206151440001
 51
122.3370938523
  0
SPLINE
  5
1A5
330
1F
100
AcDbEntity
  8
0
370
    15
100
AcDbSpline
210
0.0
220
0.0
230
1.0
 70
     8
 71
     3
 72
     9
 73
     5
 74
     0
 42
0.000000001
 43
0.0000000001
 40
0.0
 40
0.0
 40
0.0
 40
0.0
 40
0.3102166142803426
 40
1.0
 40
1.0
 40
1.0
 40
1.0
 10
934.9662660709853
 20
244.392917400815
 30
0.0
 10
934.860905006667
 20
244.4132588164843
 30
0.0
 10
934.5212679289993
 20
244.4788304678173
 30
0.0
 10
934.1603446511065
 20
244.5033987232466
 30
0.0
 10
933.9113857704964
 20
244.5203454976578
 30
0.0
  0
SPLINE
  5
1A6
330
1F
100
AcDbEntity
  8
0
370
    15
100
AcDbSpline
210
0.0
220
0.0
230
1.0
 70
     8
 71
     3
 72
    15
 73
    11
 74
     0
 42
0.000000001
 43
0.0000000001
 40
0.0
 40
0.0
 40
0.0
 40
0.0
 40
0.2101248277396773
 40
0.4187987824000816
 40
0.6329575753836297
 40
0.8799317200664402
 40
0.9558647421732075
 40
0.9836289796980363
 40
0.9952038082681587
 40
1.0
 40
1.0
 40
1.0
 40
1.0
 10
933.8841589063584
 20
245.9009748726094
 30
0.0
 10
933.8645893563374
 20
245.8215736647662
 30
0.0
 10
933.8255853804197
 20
245.6633194997373
 30
0.0
 10
933.8072100483737
 20
245.3523097118859
 30
0.0
 10
933.8192852060176
 20
245.0110006777826
 30
0.0
 10
933.8566228938256
 20
244.7472201850815
 30
0.0
 10
933.8914766322071
 20
244.5947825147879
 30
0.0
 10
933.9039987478683
 20
244.5468910588439
 30
0.0
 10
933.9089410169799
 20
244.528894219827
 30
0.0
 10
933.910831823827
 20
244.5222825175412
 30
0.0
 10
933.9113857704962
 20
244.5203454976578
 30
0.0
  0
LINE
  5
1A7
330
1F
100
AcDbEntity
  8
0
370
    15
100
AcDbLine
 10
933.8866475460999
 20
245.9090082401
 30
0.0
 11
933.8841589063999
 21
245.9009748726
 31
0.0
  0
SPLINE
  5
1A8
330
1F
100
AcDbEntity
  8
0
370
    15
100
AcDbSpline
210
0.0
220
0.0
230
1.0
 70
     8
 71
     3
 72
     9
 73
     5
 74
     0
 42
0.000000001
 43
0.0000000001
 40
0.0
 40
0.0
 40
0.0
 40
0.0
 40
0.6389681312585979
 40
1.0
 40
1.0
 40
1.0
 40
1.0
 10
933.8866475460537
 20
245.9090082400582
 30
0.0
 10
934.2995199077297
 20
245.8206857023925
 30
0.0
 10
934.9456747650346
 20
245.6824588748798
 30
0.0
 10
935.5057592719752
 20
245.4152830996161
 30
0.0
 10
935.7079676281689
 20
245.3188241301902
 30
0.0
  0
SPLINE
  5
1A9
330
1F
100
AcDbEntity
  8
0
370
    15
100
AcDbSpline
210
0.0
220
0.0
230
1.0
 70
     8
 71
     3
 72
    12
 73
     8
 74
     0
 42
0.000000001
 43
0.0000000001
 40
0.0
 40
0.0
 40
0.0
 40
0.0
 40
0.0054089836522445
 40
0.2201451200822492
 40
0.4851502433814129
 40
0.7413871563479374
 40
1.0
 40
1.0
 40
1.0
 40
1.0
 10
934.9662660709853
 20
244.392917400815
 30
0.0
 10
934.9672458828239
 20
244.3945646165148
 30
0.0
 10
935.0071241314477
 20
244.4616061387917
 30
0.0
 10
935.1081482544085
 20
244.6178788108879
 30
0.0
 10
935.2918193192623
 20
244.8651890189995
 30
0.0
 10
935.5067515561936
 20
245.1200755541991
 30
0.0
 10
935.6406895716167
 20
245.2523710988596
 30
0.0
 10
935.7079676281689
 20
245.3188241301902
 30
0.0
  0
LWPOLYLINE
  5
1AA
330
1F
100
AcDbEntity
  8
0
370
    15
100
AcDbPolyline
 90
        9
 70
   128
 43
0.0
 10
942.1835006830001
 20
248.0025543765
 10
941.8803749097
 20
248.1839094746
 10
940.3614122028999
 20
248.8996747912
 10
938.8932822174
 20
249.2692587854
 10
937.5251161600999
 20
249.280294952
 10
936.3027004903999
 20
248.9324123938
 10
935.2669436638999
 20
248.2372544043
 10
934.4525071828998
 20
247.2180843243
 10
933.8866475460999
 20
245.9090082401
  0
LWPOLYLINE
  5
1AB
330
1F
100
AcDbEntity
  8
0
370
    15
100
AcDbPolyline
 90
       15
 70
   128
 43
0.0
 10
935.8118780489999
 20
245.4844487882
 10
936.2981124108001
 20
246.6629687364
 10
937.0086667883999
 20
247.5836856266
 10
937.9192520847
 20
248.2151267538
 10
938.9987425226999
 20
248.5357082109
 10
940.2102382073
 20
248.5344711171
 10
941.5123269788001
 20
248.2114573569
 10
942.8604998717998
 20
247.5777095705
 10
944.2086727648
 20
246.6548900671
 10
945.5107615361999
 20
245.4745441317
 10
946.7222572208999
 20
244.0770180815
 10
947.8017476589
 20
242.510083494
 10
948.7123329552
 20
240.8273029622
 10
949.4228873327999
 20
239.0861974501
 10
949.4323558857001
 20
239.0585752845
  0
SPLINE
  5
1AC
330
1F
100
AcDbEntity
  8
0
370
    15
100
AcDbSpline
210
0.0
220
0.0
230
1.0
 70
     8
 71
     3
 72
     9
 73
     5
 74
     0
 42
0.000000001
 43
0.0000000001
 40
0.0
 40
0.0
 40
0.0
 40
0.0
 40
0.7478480526562617
 40
1.0
 40
1.0
 40
1.0
 40
1.0
 10
935.7079676281689
 20
245.3188241301902
 30
0.0
 10
935.7422978649292
 20
245.3579843098573
 30
0.0
 10
935.7882032285097
 20
245.4103481283201
 30
0.0
 10
935.8071105348752
 20
245.4695267767292
 30
0.0
 10
935.8118780489945
 20
245.4844487881667
 30
0.0
  0
ARC
  5
1AD
330
1F
100
AcDbEntity
  8
0
370
    15
100
AcDbCircle
 10
935.5467450122
 20
245.035409825
 30
0.0
 40
0.3260619577496305
100
AcDbArc
 50
36.273171355
 51
60.3662517841
  0
SPLINE
  5
1AE
330
1F
100
AcDbEntity
  8
0
370
    15
100
AcDbSpline
210
0.0
220
0.0
230
1.0
 70
     8
 71
     3
 72
     9
 73
     5
 74
     0
 42
0.000000001
 43
0.0000000001
 40
0.0
 40
0.0
 40
0.0
 40
0.0
 40
0.221191173562485
 40
1.0
 40
1.0
 40
1.0
 40
1.0
 10
922.6931926881215
 20
238.3358341151127
 30
0.0
 10
923.0315208934525
 20
238.5309176036724
 30
0.0
 10
924.5610946096268
 20
239.4128853848352
 30
0.0
 10
926.0910802986732
 20
240.2945941519103
 30
0.0
 10
927.2826466576253
 20
240.9812767220557
 30
0.0
  0
SPLINE
  5
1AF
330
1F
100
AcDbEntity
  8
0
370
    15
100
AcDbSpline
210
0.0
220
0.0
230
1.0
 70
     8
 71
     3
 72
    12
 73
     8
 74
     0
 42
0.000000001
 43
0.0000000001
 40
0.0
 40
0.0
 40
0.0
 40
0.0
 40
0.156307906194775
 40
0.3716337016156622
 40
0.6673042365142765
 40
0.865816524356483
 40
1.0
 40
1.0
 40
1.0
 40
1.0
 10
927.6360124209857
 20
242.2277415553008
 30
0.0
 10
927.6274004140933
 20
242.156639717403
 30
0.0
 10
927.6069247255776
 20
241.9875897963023
 30
0.0
 10
927.5667095245946
 20
241.6597963692911
 30
0.0
 10
927.5098148858933
 20
241.3428054779646
 30
0.0
 10
927.425631486305
 20
241.0963274037878
 30
0.0
 10
927.3237412269882
 20
241.014342875048
 30
0.0
 10
927.2826466576253
 20
240.9812767220556
 30
0.0
  0
SPLINE
  5
1B0
330
1F
100
AcDbEntity
  8
0
370
    15
100
AcDbSpline
210
0.0
220
0.0
230
1.0
 70
     8
 71
     3
 72
     9
 73
     5
 74
     0
 42
0.000000001
 43
0.0000000001
 40
0.0
 40
0.0
 40
0.0
 40
0.0
 40
0.843790497363161
 40
1.0
 40
1.0
 40
1.0
 40
1.0
 10
927.6593861412075
 20
242.4031079215541
 30
0.0
 10
927.6528848023396
 20
242.3563046550413
 30
0.0
 10
927.6451798816411
 20
242.3008367792368
 30
0.0
 10
927.6372509893127
 20
242.2376170740109
 30
0.0
 10
927.6360124209857
 20
242.2277415553008
 30
0.0
  0
LINE
  5
1B1
330
1F
100
AcDbEntity
  8
0
370
    15
100
AcDbLine
 10
927.6593861411999
 20
242.4031079216
 30
0.0
 11
927.6788382289
 21
242.4930839138
 31
0.0
  0
SPLINE
  5
1B2
330
1F
100
AcDbEntity
  8
0
370
    15
100
AcDbSpline
210
0.0
220
0.0
230
1.0
 70
     8
 71
     3
 72
    10
 73
     6
 74
     0
 42
0.000000001
 43
0.0000000001
 40
0.0
 40
0.0
 40
0.0
 40
0.0
 40
0.6702717026429888
 40
0.9730419538867675
 40
1.0
 40
1.0
 40
1.0
 40
1.0
 10
927.6788382288843
 20
242.4930839137768
 30
0.0
 10
929.0340195097
 20
243.2508966790451
 30
0.0
 10
931.0013534075148
 20
244.3510231067152
 30
0.0
 10
933.0229263459793
 20
245.4804607393914
 30
0.0
 10
933.6894765104283
 20
245.8527878173516
 30
0.0
 10
933.7439725613105
 20
245.8832286700698
 30
0.0
  0
SPLINE
  5
1B3
330
1F
100
AcDbEntity
  8
0
370
    15
100
AcDbSpline
210
0.0
220
0.0
230
1.0
 70
     8
 71
     3
 72
    14
 73
    10
 74
     0
 42
0.000000001
 43
0.0000000001
 40
0.0
 40
0.0
 40
0.0
 40
0.0
 40
0.0048204885156055
 40
0.0508472209066456
 40
0.1378824394935471
 40
0.3673003023991014
 40
0.5813001013053128
 40
0.7898191006744763
 40
1.0
 40
1.0
 40
1.0
 40
1.0
 10
933.9113857704962
 20
244.5203454976578
 30
0.0
 10
933.9104849677156
 20
244.5222559944827
 30
0.0
 10
933.9009831676746
 20
244.5424081956095
 30
0.0
 10
933.8759339584067
 20
244.5985774174984
 30
0.0
 10
933.8144704557572
 20
244.7549084894135
 30
0.0
 10
933.7421364245212
 20
245.0113739918942
 30
0.0
 10
933.6949758385836
 20
245.3393440183872
 30
0.0
 10
933.6902148033477
 20
245.6469596184494
 30
0.0
 10
933.7260059546817
 20
245.8042641955483
 30
0.0
 10
933.7439725613105
 20
245.8832286700698
 30
0.0
  0
ARC
  5
1B4
330
1F
100
AcDbEntity
  8
0
370
    15
100
AcDbCircle
 10
933.8400356502001
 20
245.6869520975
 30
0.0
 40
0.2185237057999106
100
AcDbArc
 50
78.3510233366
 51
116.0783821632
  0
ARC
  5
1B5
330
1F
100
AcDbEntity
  8
0
370
    15
100
AcDbCircle
 10
935.7715078046
 20
245.2222924862
 30
0.0
 40
0.265246457658279
100
AcDbArc
 50
48.8371615526
 51
81.24561687729999
  0
ARC
  5
1B6
330
1F
100
AcDbEntity
  8
0
370
    15
100
AcDbCircle
 10
932.2717960572001
 20
241.41611388
 30
0.0
 40
4.717533896643743
100
AcDbArc
 50
120.1251411777
 51
166.803529571
  0
ARC
  5
1B7
330
1F
100
AcDbEntity
  8
0
370
    15
100
AcDbCircle
 10
938.0408144585
 20
244.9143385023
 30
0.0
 40
4.404177390662493
100
AcDbArc
 50
90.21293162520001
 51
167.2040530389
  0
LINE
  5
1B8
330
1F
100
AcDbEntity
  8
0
370
    15
100
AcDbLine
 10
933.7439725613
 20
245.8832286701
 30
0.0
 11
933.7460147077999
 21
245.8897735796
 31
0.0
  0
ARC
  5
1B9
330
1F
100
AcDbEntity
  8
0
370
    15
100
AcDbCircle
 10
933.8443833653998
 20
245.6942889833
 30
0.0
 40
0.2188392564719832
100
AcDbArc
 50
78.8645612977
 51
116.7117296809
  0
SPLINE
  5
1BA
330
1F
100
AcDbEntity
  8
0
370
    15
100
AcDbSpline
210
0.0
220
0.0
230
1.0
 70
     8
 71
     3
 72
    11
 73
     7
 74
     0
 42
0.000000001
 43
0.0000000001
 40
0.0
 40
0.0
 40
0.0
 40
0.0
 40
0.2875377939939639
 40
0.743882974049045
 40
0.9905036437032308
 40
1.0
 40
1.0
 40
1.0
 40
1.0
 10
921.1011422422824
 20
235.4938554233892
 30
0.0
 10
921.0779794964119
 20
235.4524221259443
 30
0.0
 10
921.0180556441564
 20
235.3452309143127
 30
0.0
 10
920.9414103190843
 20
235.1417159031393
 30
0.0
 10
920.9060659712958
 20
234.9869481849621
 30
0.0
 10
920.896783775901
 20
234.9299040131556
 30
0.0
 10
920.8964396088768
 20
234.9277889183934
 30
0.0
  0
SPLINE
  5
1BB
330
1F
100
AcDbEntity
  8
0
370
    15
100
AcDbSpline
210
0.0
220
0.0
230
1.0
 70
     8
 71
     3
 72
     9
 73
     5
 74
     0
 42
0.000000001
 43
0.0000000001
 40
0.0
 40
0.0
 40
0.0
 40
0.0
 40
0.3756494673013769
 40
1.0
 40
1.0
 40
1.0
 40
1.0
 10
921.1011422422824
 20
235.4938554233892
 30
0.0
 10
921.1150063651372
 20
235.5159992075188
 30
0.0
 10
921.1519134395823
 20
235.5749472057382
 30
0.0
 10
921.2104183807808
 20
235.6026038815004
 30
0.0
 10
921.2469459719837
 20
235.6198713417452
 30
0.0
  0
LINE
  5
1BC
330
1F
100
AcDbEntity
  8
0
370
    15
100
AcDbLine
 10
926.8131538142998
 20
238.6103926377
 30
0.0
 11
926.8131906927999
 21
238.6104878575
 31
0.0
  0
SPLINE
  5
1BD
330
1F
100
AcDbEntity
  8
0
370
    15
100
AcDbSpline
210
0.0
220
0.0
230
1.0
 70
     8
 71
     3
 72
    12
 73
     8
 74
     0
 42
0.000000001
 43
0.0000000001
 40
0.0
 40
0.0
 40
0.0
 40
0.0
 40
0.1820098464536285
 40
0.3599263776130365
 40
0.5977930350838526
 40
0.9166585842880527
 40
1.0
 40
1.0
 40
1.0
 40
1.0
 10
926.0152362637082
 20
237.7068340356369
 30
0.0
 10
926.0115421474983
 20
237.7856736848785
 30
0.0
 10
926.0042369940034
 20
237.9415799169683
 30
0.0
 10
926.1088569306874
 20
238.1789670162509
 30
0.0
 10
926.3289742630716
 20
238.4149649688746
 30
0.0
 10
926.5945085834022
 20
238.5502741722566
 30
0.0
 10
926.7756552435438
 20
238.6001525459619
 30
0.0
 10
926.813190692764
 20
238.6104878574822
 30
0.0
  0
SPLINE
  5
1BE
330
1F
100
AcDbEntity
  8
0
370
    15
100
AcDbSpline
210
0.0
220
0.0
230
1.0
 70
     8
 71
     3
 72
    12
 73
     8
 74
     0
 42
0.000000001
 43
0.0000000001
 40
0.0
 40
0.0
 40
0.0
 40
0.0
 40
0.2375340902306466
 40
0.4747610367590129
 40
0.7212101298255612
 40
0.9878941564981715
 40
1.0
 40
1.0
 40
1.0
 40
1.0
 10
926.813190692764
 20
238.6104877624244
 30
0.0
 10
926.8130361489188
 20
238.6140991244963
 30
0.0
 10
926.8127272610616
 20
238.6213171789647
 30
0.0
 10
926.8114228775647
 20
238.6036403232985
 30
0.0
 10
926.8095947838848
 20
238.5663722657812
 30
0.0
 10
926.8081267505417
 20
238.5281098584439
 30
0.0
 10
926.807271303611
 20
238.5057661833184
 30
0.0
 10
926.8072341576893
 20
238.504795957843
 30
0.0
  0
SPLINE
  5
1BF
330
1F
100
AcDbEntity
  8
0
370
    15
100
AcDbSpline
210
0.0
220
0.0
230
1.0
 70
     8
 71
     3
 72
    11
 73
     7
 74
     0
 42
0.000000001
 43
0.0000000001
 40
0.0
 40
0.0
 40
0.0
 40
0.0
 40
0.1753062239775704
 40
0.508763777854838
 40
0.8749377070417827
 40
1.0
 40
1.0
 40
1.0
 40
1.0
 10
926.8131538142716
 20
238.6103926376828
 30
0.0
 10
926.8657609606751
 20
238.5918136322416
 30
0.0
 10
927.0184344364887
 20
238.5378946966636
 30
0.0
 10
927.2527874238713
 20
238.3981222655728
 30
0.0
 10
927.4284462394096
 20
238.2171414822392
 30
0.0
 10
927.491943642819
 20
238.0881212752109
 30
0.0
 10
927.5081092481007
 20
238.0552744243445
 30
0.0
  0
ARC
  5
1C0
330
1F
100
AcDbEntity
  8
0
370
    15
100
AcDbCircle
 10
927.4777743994
 20
237.7878975365
 30
0.0
 40
0.2690921834879656
100
AcDbArc
 50
83.52726920429999
 51
113.4764640741
  0
ARC
  5
1C1
330
1F
100
AcDbEntity
  8
0
370
    15
100
AcDbCircle
 10
927.5102385227
 20
237.5128640998
 30
0.0
 40
0.3821554361925371
100
AcDbArc
 50
88.35775626280002
 51
101.6035436913
  0
SPLINE
  5
1C2
330
1F
100
AcDbEntity
  8
0
370
    15
100
AcDbSpline
210
0.0
220
0.0
230
1.0
 70
     8
 71
     3
 72
    10
 73
     6
 74
     0
 42
0.000000001
 43
0.0000000001
 40
0.0
 40
0.0
 40
0.0
 40
0.0
 40
0.5124186438542015
 40
0.9906593143112459
 40
1.0
 40
1.0
 40
1.0
 40
1.0
 10
926.9082845197168
 20
241.7137682079311
 30
0.0
 10
926.9064615559438
 20
241.6190325808348
 30
0.0
 10
926.9029372188356
 20
241.4358801282344
 30
0.0
 10
926.9004791269322
 20
241.2857871011263
 30
0.0
 10
926.899160619752
 20
241.2193497696193
 30
0.0
 10
926.8991353608676
 20
241.2180770174442
 30
0.0
  0
SPLINE
  5
1C3
330
1F
100
AcDbEntity
  8
0
370
    15
100
AcDbSpline
210
0.0
220
0.0
230
1.0
 70
     8
 71
     3
 72
    11
 73
     7
 74
     0
 42
0.000000001
 43
0.0000000001
 40
0.0
 40
0.0
 40
0.0
 40
0.0
 40
0.0142195517083924
 40
0.4299739911580945
 40
0.8456577307719303
 40
1.0
 40
1.0
 40
1.0
 40
1.0
 10
921.6180549000224
 20
238.5523679937041
 30
0.0
 10
921.6153991829678
 20
238.5545175098798
 30
0.0
 10
921.5350950155279
 20
238.6195150617061
 30
0.0
 10
921.3998000372054
 20
238.8164125313595
 30
0.0
 10
921.273991854826
 20
239.0513187279098
 30
0.0
 10
921.2280944327146
 20
239.1918588459885
 30
0.0
 10
921.2156670834875
 20
239.2299119881353
 30
0.0
  0
SPLINE
  5
1C4
330
1F
100
AcDbEntity
  8
0
370
    15
100
AcDbSpline
210
0.0
220
0.0
230
1.0
 70
     8
 71
     3
 72
    11
 73
     7
 74
     0
 42
0.000000001
 43
0.0000000001
 40
0.0
 40
0.0
 40
0.0
 40
0.0
 40
0.0094962071423933
 40
0.2561173415281082
 40
0.7124620449073266
 40
1.0
 40
1.0
 40
1.0
 40
1.0
 10
921.0426437336383
 20
239.6972694255737
 30
0.0
 10
921.0428913308408
 20
239.6962323208789
 30
0.0
 10
921.0495691482416
 20
239.6682611010709
 30
0.0
 10
921.0775675472063
 20
239.5835074059564
 30
0.0
 10
921.1434614823163
 20
239.4362335820548
 30
0.0
 10
921.1955377098512
 20
239.2874300253229
 30
0.0
 10
921.2156670834875
 20
239.2299119881353
 30
0.0
  0
SPLINE
  5
1C5
330
1F
100
AcDbEntity
  8
0
370
    15
100
AcDbSpline
210
0.0
220
0.0
230
1.0
 70
     8
 71
     3
 72
    12
 73
     8
 74
     0
 42
0.000000001
 43
0.0000000001
 40
0.0
 40
0.0
 40
0.0
 40
0.0
 40
0.0833414958630499
 40
0.4022069726476238
 40
0.640073779205157
 40
0.8179901964489857
 40
1.0
 40
1.0
 40
1.0
 40
1.0
 10
926.9083266665653
 20
241.7140271178622
 30
0.0
 10
926.8715678193624
 20
241.7290272970294
 30
0.0
 10
926.6941692198011
 20
241.8014183261266
 30
0.0
 10
926.4376307482187
 20
241.9595704835037
 30
0.0
 10
926.2318554227896
 20
242.1914545720623
 30
0.0
 10
926.1409760557034
 20
242.4022899576264
 30
0.0
 10
926.1568334423939
 20
242.5253818897744
 30
0.0
 10
926.1648523075661
 20
242.5876278087839
 30
0.0
  0
LINE
  5
1C6
330
1F
100
AcDbEntity
  8
0
370
    15
100
AcDbLine
 10
926.9083266665999
 20
241.7140271179
 30
0.0
 11
926.9082845197001
 21
241.7137682079
 31
0.0
  0
LINE
  5
1C7
330
1F
100
AcDbEntity
  8
0
370
    15
100
AcDbLine
 10
927.2826466575999
 20
240.9812767221
 30
0.0
 11
927.0409456767
 21
241.1305157976
 31
0.0
  0
LINE
  5
1C8
330
1F
100
AcDbEntity
  8
0
370
    15
100
AcDbLine
 10
927.0409456767
 20
241.1305157976
 30
0.0
 11
926.8991353608999
 21
241.2180770174
 31
0.0
  0
SPLINE
  5
1C9
330
1F
100
AcDbEntity
  8
0
370
    15
100
AcDbSpline
210
0.0
220
0.0
230
1.0
 70
     8
 71
     3
 72
    11
 73
     7
 74
     0
 42
0.000000001
 43
0.0000000001
 40
0.0
 40
0.0
 40
0.0
 40
0.0
 40
0.0664165617267012
 40
0.4074673243408075
 40
0.8308271247953523
 40
1.0
 40
1.0
 40
1.0
 40
1.0
 10
927.6360124209857
 20
242.2277415553008
 30
0.0
 10
927.6268216261458
 20
242.2128675128098
 30
0.0
 10
927.5704358620444
 20
242.121614877347
 30
0.0
 10
927.3986415439058
 20
241.9505024031485
 30
0.0
 10
927.1417477140349
 20
241.8001422503206
 30
0.0
 10
926.9601361043516
 20
241.7329516641598
 30
0.0
 10
926.9082845197168
 20
241.7137682079311
 30
0.0
  0
SPLINE
  5
1CA
330
1F
100
AcDbEntity
  8
0
370
    15
100
AcDbSpline
210
0.0
220
0.0
230
1.0
 70
     8
 71
     3
 72
    11
 73
     7
 74
     0
 42
0.000000001
 43
0.0000000001
 40
0.0
 40
0.0
 40
0.0
 40
0.0
 40
0.1851555627429509
 40
0.3691432212057059
 40
0.6216885692026021
 40
1.0
 40
1.0
 40
1.0
 40
1.0
 10
926.3023188637959
 20
242.6081567963334
 30
0.0
 10
926.2964552944996
 20
242.5579969594975
 30
0.0
 10
926.2847651414965
 20
242.4579936786321
 30
0.0
 10
926.3712553960557
 20
242.2942472959101
 30
0.0
 10
926.5660517091072
 20
242.1098118044659
 30
0.0
 10
926.7832341479513
 20
242.0227729095125
 30
0.0
 10
926.9134738504396
 20
241.9705775301622
 30
0.0
  0
ARC
  5
1CB
330
1F
100
AcDbEntity
  8
0
370
    15
100
AcDbCircle
 10
931.1177362652001
 20
241.6011833135
 30
0.0
 40
4.919577252612213
100
AcDbArc
 50
83.1405255037
 51
168.1888233683
  0
ARC
  5
1CC
330
1F
100
AcDbEntity
  8
0
370
    15
100
AcDbCircle
 10
932.1111877836001
 20
241.4911242623
 30
0.0
 40
4.624755566114197
100
AcDbArc
 50
110.2063535917
 51
167.1869653328
  0
LINE
  5
1CD
330
1F
100
AcDbEntity
  8
0
370
    15
100
AcDbLine
 10
927.5728310023
 20
242.4366529021
 30
0.0
 11
927.6015935923
 21
242.5167578594
 31
0.0
  0
SPLINE
  5
1CE
330
1F
100
AcDbEntity
  8
0
370
    15
100
AcDbSpline
210
0.0
220
0.0
230
1.0
 70
     8
 71
     3
 72
     9
 73
     5
 74
     0
 42
0.000000001
 43
0.0000000001
 40
0.0
 40
0.0
 40
0.0
 40
0.0
 40
0.845027729638976
 40
1.0
 40
1.0
 40
1.0
 40
1.0
 10
927.5020736876852
 20
242.3244784559793
 30
0.0
 10
927.5252100433355
 20
242.3552672326904
 30
0.0
 10
927.552589447394
 20
242.39170245917
 30
0.0
 10
927.5701150239559
 20
242.430621525971
 30
0.0
 10
927.5728310023453
 20
242.4366529021135
 30
0.0
  0
SPLINE
  5
1CF
330
1F
100
AcDbEntity
  8
0
370
    15
100
AcDbSpline
210
0.0
220
0.0
230
1.0
 70
     8
 71
     3
 72
    11
 73
     7
 74
     0
 42
0.000000001
 43
0.0000000001
 40
0.0
 40
0.0
 40
0.0
 40
0.0
 40
0.0978051459748982
 40
0.5636667418911431
 40
0.9299072812502709
 40
1.0
 40
1.0
 40
1.0
 40
1.0
 10
926.9134738504396
 20
241.9705775301622
 30
0.0
 10
926.937193643292
 20
241.9776730485797
 30
0.0
 10
927.0738946135947
 20
242.0185656591737
 30
0.0
 10
927.282834395074
 20
242.1137417542507
 30
0.0
 10
927.4408860663154
 20
242.2421571347421
 30
0.0
 10
927.4936049144953
 20
242.3130846383628
 30
0.0
 10
927.5020736876852
 20
242.3244784559792
 30
0.0
  0
SPLINE
  5
1D0
330
1F
100
AcDbEntity
  8
0
370
    15
100
AcDbSpline
210
0.0
220
0.0
230
1.0
 70
     8
 71
     3
 72
    12
 73
     8
 74
     0
 42
0.000000001
 43
0.0000000001
 40
0.0
 40
0.0
 40
0.0
 40
0.0
 40
0.0121060516544841
 40
0.2787902584436065
 40
0.5252400959836553
 40
0.7624662243430784
 40
1.0
 40
1.0
 40
1.0
 40
1.0
 10
926.9134738504396
 20
241.9705775301622
 30
0.0
 10
926.9134565848045
 20
241.9697662209921
 30
0.0
 10
926.9130589744939
 20
241.9510825824573
 30
0.0
 10
926.9120819617352
 20
241.9098257086436
 30
0.0
 10
926.9106995220033
 20
241.8422130588796
 30
0.0
 10
926.9093617978567
 20
241.7737462233068
 30
0.0
 10
926.9086718593573
 20
241.7339420841182
 30
0.0
 10
926.9083266665653
 20
241.7140271178622
 30
0.0
  0
ARC
  5
1D1
330
1F
100
AcDbEntity
  8
0
370
    15
100
AcDbCircle
 10
926.2646099202001
 20
242.3901466253
 30
0.0
 40
0.2212473708758575
100
AcDbArc
 50
80.1867178768
 51
116.8006215058
  0
ARC
  5
1D2
330
1F
100
AcDbEntity
  8
0
370
    15
100
AcDbCircle
 10
927.4005332227998
 20
242.0427968312
 30
0.0
 40
0.2994244540962003
100
AcDbArc
 50
38.1459950345
 51
70.17680362829999
  0
ARC
  5
1D3
330
1F
100
AcDbEntity
  8
0
370
    15
100
AcDbCircle
 10
927.5149802088
 20
242.1589418347
 30
0.0
 40
0.2836726128477604
100
AcDbArc
 50
59.39886802979998
 51
78.2328339676
  0
ARC
  5
1D4
330
1F
100
AcDbEntity
  8
0
370
    15
100
AcDbCircle
 10
927.5597050338999
 20
242.2422256213
 30
0.0
 40
0.2777095623705068
100
AcDbArc
 50
64.59684658020001
 51
81.3246315135
  0
ARC
  5
1D5
330
1F
100
AcDbEntity
  8
0
370
    15
100
AcDbCircle
 10
930.4859862557
 20
237.277254627
 30
0.0
 40
9.473736766643467
100
AcDbArc
 50
168.105357435
 51
174.0588371286
  0
ARC
  5
1D6
330
1F
100
AcDbEntity
  8
0
370
    15
100
AcDbCircle
 10
934.8898706303
 20
237.1449969978
 30
0.0
 40
13.8872351120761
100
AcDbArc
 50
182.1885776337
 51
186.8284121262
  0
LINE
  5
1D7
330
1F
100
AcDbEntity
  8
0
370
    15
100
AcDbLine
 10
949.4322498599998
 20
236.0418827162
 30
0.0
 11
949.3760062077999
 21
236.0123103563
 31
0.0
  0
SPLINE
  5
1D8
330
1F
100
AcDbEntity
  8
0
370
    15
100
AcDbSpline
210
0.0
220
0.0
230
1.0
 70
     8
 71
     3
 72
     9
 73
     5
 74
     0
 42
0.000000001
 43
0.0000000001
 40
0.0
 40
0.0
 40
0.0
 40
0.0
 40
0.2496800892407037
 40
1.0
 40
1.0
 40
1.0
 40
1.0
 10
949.9736162509933
 20
233.3604025047675
 30
0.0
 10
949.9786003330433
 20
233.3782233967077
 30
0.0
 10
949.9985622053142
 20
233.449598298865
 30
0.0
 10
950.0134958526386
 20
233.4947648593771
 30
0.0
 10
950.0247008655664
 20
233.52865422903
 30
0.0
  0
LINE
  5
1D9
330
1F
100
AcDbEntity
  8
0
370
    15
100
AcDbLine
 10
950.0195925357999
 20
231.7654546596
 30
0.0
 11
950.0213429471001
 21
231.7738897039
 31
0.0
  0
ARC
  5
1DA
330
1F
100
AcDbEntity
  8
0
370
    15
100
AcDbCircle
 10
949.8786587378999
 20
233.4122905372
 30
0.0
 40
0.186731925060045
100
AcDbArc
 50
357.4333094728
 51
38.5471949103
  0
LWPOLYLINE
  5
1DB
330
1F
100
AcDbEntity
  8
0
370
    15
100
AcDbPolyline
 90
        3
 70
   128
 43
0.0
 10
950.0193995822998
 20
231.7538743162
 10
950.0204657658001
 20
231.7601571799
 10
950.0213429471001
 20
231.7738897039
  0
SPLINE
  5
1DC
330
1F
100
AcDbEntity
  8
0
370
    15
100
AcDbSpline
210
0.0
220
0.0
230
1.0
 70
     8
 71
     3
 72
     9
 73
     5
 74
     0
 42
0.000000001
 43
0.0000000001
 40
0.0
 40
0.0
 40
0.0
 40
0.0
 40
0.1346330049559387
 40
1.0
 40
1.0
 40
1.0
 40
1.0
 10
949.865169117052
 20
236.5114105212253
 30
0.0
 10
949.8602785860464
 20
236.4961594329369
 30
0.0
 10
949.8239536818557
 20
236.3828804617558
 30
0.0
 10
949.7387564291244
 20
236.2968646010813
 30
0.0
 10
949.6650295385419
 20
236.2224293142033
 30
0.0
  0
SPLINE
  5
1DD
330
1F
100
AcDbEntity
  8
0
370
    15
100
AcDbSpline
210
0.0
220
0.0
230
1.0
 70
     8
 71
     3
 72
    15
 73
    11
 74
     0
 42
0.000000001
 43
0.0000000001
 40
0.0
 40
0.0
 40
0.0
 40
0.0
 40
0.0055932090432411
 40
0.0190915092472499
 40
0.0514695277012702
 40
0.1400208804565481
 40
0.4280364763127217
 40
0.6777835599526413
 40
0.9211343506532985
 40
1.0
 40
1.0
 40
1.0
 40
1.0
 10
949.1699568508648
 20
235.7117599089771
 30
0.0
 10
949.1721674994581
 20
235.7121009631104
 30
0.0
 10
949.1797131888333
 20
235.7132650959163
 30
0.0
 10
949.2000018855696
 20
235.7166963128611
 30
0.0
 10
949.2525580043134
 20
235.7270205336713
 30
0.0
 10
949.4081183279206
 20
235.7694989774755
 30
0.0
 10
949.6245967565206
 20
235.887201223061
 30
0.0
 10
949.8076902437073
 20
236.1141709158826
 30
0.0
 10
949.8945290409073
 20
236.3177795488844
 30
0.0
 10
949.8854060156908
 20
236.4440351322837
 30
0.0
 10
949.8831730653559
 20
236.4749374306486
 30
0.0
  0
ARC
  5
1DE
330
1F
100
AcDbEntity
  8
0
370
    15
100
AcDbCircle
 10
919.1812558808999
 20
233.7709323172
 30
0.0
 40
0.3163834556543026
100
AcDbArc
 50
189.9258914043999
 51
211.0278673433
  0
LWPOLYLINE
  5
1DF
330
1F
100
AcDbEntity
  8
0
370
    15
100
AcDbPolyline
 90
        8
 70
   128
 43
0.0
 10
918.8696082007
 20
233.7163959582
 10
918.6865341446001
 20
235.6328355468
 10
918.7693434823
 20
237.4055735958
 10
919.1156845513999
 20
238.9842768656
 10
919.7157239653
 20
240.3241216339
 10
920.5524251775001
 20
241.3870645262
 10
921.6020318535999
 20
242.1429262446
 10
922.0125362312
 20
242.3299675315
  0
LINE
  5
1E0
330
1F
100
AcDbEntity
  8
0
370
    15
100
AcDbLine
 10
917.4553706989
 20
232.8999740265
 30
0.0
 11
918.8696082007
 21
233.7163959582
 31
0.0
  0
LWPOLYLINE
  5
1E1
330
1F
100
AcDbEntity
  8
0
370
    15
100
AcDbPolyline
 90
        7
 70
   128
 43
0.0
 10
920.012240874
 20
241.2303942283
 10
919.1381876757001
 20
240.5706425945
 10
918.3014864635
 20
239.5076997022
 10
917.7014470496001
 20
238.1678549339
 10
917.3551059805001
 20
236.589151664
 10
917.2722966428001
 20
234.8164136151
 10
917.4553706989
 20
232.8999740265
  0
ARC
  5
1E2
330
1F
100
AcDbEntity
  8
0
370
    15
100
AcDbCircle
 10
917.7641516087
 20
232.9520506382
 30
0.0
 40
0.3131415394604271
100
AcDbArc
 50
189.5729802192
 51
237.077258226
  0
LINE
  5
1E3
330
1F
100
AcDbEntity
  8
0
370
    15
100
AcDbLine
 10
917.5939567807999
 20
232.689198314
 30
0.0
 11
917.6686034592998
 21
232.6461057038
 31
0.0
  0
LINE
  5
1E4
330
1F
100
AcDbEntity
  8
0
370
    15
100
AcDbLine
 10
540.321302394
 20
14.5221508237
 30
0.0
 11
539.9989501257
 21
14.7082408272
 31
0.0
  0
ARC
  5
1E5
330
1F
100
AcDbEntity
  8
0
370
    15
100
AcDbCircle
 10
540.1691449536
 20
14.9710931513
 30
0.0
 40
0.3131415394593359
100
AcDbArc
 50
189.5729802191
 51
237.0772582261
  0
LWPOLYLINE
  5
1E6
330
1F
100
AcDbEntity
  8
0
370
    15
100
AcDbPolyline
 90
        7
 70
   128
 43
0.0
 10
539.8603640438
 20
14.9190165396
 10
539.6772899876999
 20
16.8354561282
 10
539.7600993254
 20
18.6081941772
 10
540.1064403944999
 20
20.186897447
 10
540.7064798083999
 20
21.5267422153
 10
541.5431810205999
 20
22.5896851076
 10
542.4172342189
 20
23.2494367414
  0
LINE
  5
1E7
330
1F
100
AcDbEntity
  8
0
370
    15
100
AcDbLine
 10
538.4461504142999
 20
14.102608389
 30
0.0
 11
539.8603640438
 21
14.9190165396
 31
0.0
  0
LWPOLYLINE
  5
1E8
330
1F
100
AcDbEntity
  8
0
370
    15
100
AcDbPolyline
 90
        7
 70
   128
 43
0.0
 10
541.0030205893
 20
22.4330285908
 10
540.1289673911
 20
21.773276957
 10
539.2922661787999
 20
20.7103340647
 10
538.6922267648999
 20
19.3704892964
 10
538.3458856957999
 20
17.7917860266
 10
538.2630763581
 20
16.0190479776
 10
538.4461504142999
 20
14.102608389
  0
LINE
  5
1E9
330
1F
100
AcDbEntity
  8
0
370
    15
100
AcDbLine
 10
539.9989501257
 20
14.7082408272
 30
0.0
 11
538.5847364962
 21
13.8918326766
 31
0.0
  0
ARC
  5
1EA
330
1F
100
AcDbEntity
  8
0
370
    15
100
AcDbCircle
 10
538.7549313241001
 20
14.1546850007
 30
0.0
 40
0.3131415394593389
100
AcDbArc
 50
189.5729802191
 51
237.0772582261
  0
LINE
  5
1EB
330
1F
100
AcDbEntity
  8
0
370
    15
100
AcDbLine
 10
538.6673943685999
 20
13.8441153025
 30
0.0
 11
538.5847364962
 21
13.8918326766
 31
0.0
  0
LWPOLYLINE
  5
1EC
330
1F
100
AcDbEntity
  8
0
370
    15
100
AcDbPolyline
 90
        7
 70
   128
 43
0.0
 10
917.3255518200999
 20
233.9283298243
 10
917.2826858408999
 20
235.7701891205
 10
917.5038771117
 20
237.4422508038
 10
917.9828799963001
 20
238.8973150655
 10
918.7061732588999
 20
240.0943058973
 10
919.6533393855
 20
240.9994330666
 10
920.012240874
 20
241.2303942283
  0
ARC
  5
1ED
330
1F
100
AcDbEntity
  8
0
370
    15
100
AcDbCircle
 10
540.0399867492
 20
15.982762531
 30
0.0
 40
0.3114587611186029
100
AcDbArc
 50
186.5244516129
 51
237.1614943601
  0
LINE
  5
1EE
330
1F
100
AcDbEntity
  8
0
370
    15
100
AcDbLine
 10
539.7305451649999
 20
15.9473723374
 30
0.0
 11
917.3255518200999
 21
233.9283298243
 31
0.0
  0
LWPOLYLINE
  5
1EF
330
1F
100
AcDbEntity
  8
0
370
    15
100
AcDbPolyline
 90
        7
 70
   128
 43
0.0
 10
539.7305451649999
 20
15.9473723374
 10
539.6876791858
 20
17.7892316337
 10
539.9088704566
 20
19.4612933169
 10
540.3878733412
 20
20.9163575786
 10
541.1111666037998
 20
22.1133484105
 10
542.0583327304
 20
23.0184755798
 10
542.4172342189
 20
23.2494367414
  0
LINE
  5
1F0
330
1F
100
AcDbEntity
  8
0
370
    15
100
AcDbLine
 10
540.0967953516
 20
15.59077784
 30
0.0
 11
539.8710910753
 21
15.7210741453
 31
0.0
  0
ARC
  5
1F1
330
1F
100
AcDbEntity
  8
0
370
    15
100
AcDbCircle
 10
540.1260867122
 20
15.6316639485
 30
0.0
 40
0.0502957023114343
100
AcDbArc
 50
234.3816766971
 51
294.3140342443
  0
LINE
  5
1F2
330
1F
100
AcDbEntity
  8
0
370
    15
100
AcDbLine
 10
923.0587099146999
 20
238.0204088103
 30
0.0
 11
923.0903878811998
 21
237.9844335229
 31
0.0
  0
LWPOLYLINE
  5
1F3
330
1F
100
AcDbEntity
  8
0
370
    15
100
AcDbPolyline
 90
        3
 70
   128
 43
0.0
 10
923.5553150355
 20
237.2006272667
 10
923.6098708382
 20
237.0387065471
 10
923.6390127496999
 20
236.9309264996
  0
LWPOLYLINE
  5
1F4
330
1F
100
AcDbEntity
  8
0
370
    15
100
AcDbPolyline
 90
        8
 70
   128
 43
0.0
 10
921.9424749981
 20
236.0007636667
 10
921.9387259041999
 20
236.004712779
 10
921.5474826363999
 20
236.53245143
 10
921.2860621986999
 20
237.1351595689
 10
921.1942630699001
 20
237.7210806498
 10
921.2860621986999
 20
238.2010127602
 10
921.5474826363999
 20
238.5018912389
 10
921.5994536517998
 20
238.528450529
  0
LWPOLYLINE
  5
1F5
330
1F
100
AcDbEntity
  8
0
370
    15
100
AcDbPolyline
 90
        6
 70
   128
 43
0.0
 10
536.1109069725999
 20
15.9903201573
 10
535.9005467832999
 20
15.7226902951
 10
535.8087476544999
 20
15.2427581848
 10
535.9005467832999
 20
14.6568371039
 10
536.1619672209999
 20
14.0541289649
 10
536.4060975726
 20
13.6956638195
  0
SPLINE
  5
1F6
330
1F
100
AcDbEntity
  8
0
370
    15
100
AcDbSpline
210
0.0
220
0.0
230
1.0
 70
     8
 71
     3
 72
    11
 73
     7
 74
     0
 42
0.000000001
 43
0.0000000001
 40
0.0
 40
0.0
 40
0.0
 40
0.0
 40
0.1661825801397321
 40
0.4979659389828854
 40
0.7461292468750497
 40
1.0
 40
1.0
 40
1.0
 40
1.0
 10
531.5435165489946
 20
10.47204008546132
 30
0.0
 10
531.5405029552175
 20
10.47609449959447
 30
0.0
 10
531.5314727244095
 20
10.48824354758218
 30
0.0
 10
531.5366049477139
 20
10.39365462924981
 30
0.0
 10
531.5546145470372
 20
10.23147133948502
 30
0.0
 10
531.5774859162132
 20
10.08401212327339
 30
0.0
 10
531.5890516089991
 20
10.00944430968917
 30
0.0
  0
SPLINE
  5
1F7
330
1F
100
AcDbEntity
  8
0
370
    15
100
AcDbSpline
210
0.0
220
0.0
230
1.0
 70
     8
 71
     3
 72
    11
 73
     7
 74
     0
 42
0.000000001
 43
0.0000000001
 40
0.0
 40
0.0
 40
0.0
 40
0.0
 40
0.0526225882232631
 40
0.3730533695314683
 40
0.6852818234610706
 40
1.0
 40
1.0
 40
1.0
 40
1.0
 10
526.0259382673539
 20
6.370187304393246
 30
0.0
 10
526.0125493660829
 20
6.364833234634797
 30
0.0
 10
525.91763243208
 20
6.326877029295379
 30
0.0
 10
525.8012836823134
 20
6.179106066580732
 30
0.0
 10
525.6952726295678
 20
5.943404090848022
 30
0.0
 10
525.7080875610661
 20
5.755610366826493
 30
0.0
 10
525.714520472063
 20
5.661340622772931
 30
0.0
  0
ARC
  5
1F8
330
1F
100
AcDbEntity
  8
0
370
    15
100
AcDbCircle
 10
524.2253089717999
 20
7.048305451
 30
0.0
 40
2.455900102985469
100
AcDbArc
 50
352.6058144045
 51
34.6273177136
  0
SPLINE
  5
1F9
330
1F
100
AcDbEntity
  8
0
370
    15
100
AcDbSpline
210
0.0
220
0.0
230
1.0
 70
     8
 71
     3
 72
    10
 73
     6
 74
     0
 42
0.000000001
 43
0.0000000001
 40
0.0
 40
0.0
 40
0.0
 40
0.0
 40
0.3158230832355864
 40
0.5867167057858211
 40
1.0
 40
1.0
 40
1.0
 40
1.0
 10
535.7567802610358
 20
14.76505888066937
 30
0.0
 10
534.7830348933585
 20
14.19373367720263
 30
0.0
 10
532.9740706196111
 20
13.13236084189164
 30
0.0
 10
529.8913317798795
 20
11.32113978414902
 30
0.0
 10
527.7823948290853
 20
10.08085498628593
 30
0.0
 10
526.508472267599
 20
9.331649664585286
 30
0.0
  0
LINE
  5
1FA
330
1F
100
AcDbEntity
  8
0
370
    15
100
AcDbLine
 10
535.7922702124
 20
15.4870347781
 30
0.0
 11
532.3212246857
 21
13.4330977243
 31
0.0
  0
SPLINE
  5
1FB
330
1F
100
AcDbEntity
  8
0
370
    15
100
AcDbSpline
210
0.0
220
0.0
230
1.0
 70
     8
 71
     3
 72
    10
 73
     6
 74
     0
 42
0.000000001
 43
0.0000000001
 40
0.0
 40
0.0
 40
0.0
 40
0.0
 40
0.6972975628538129
 40
0.7269543596221894
 40
1.0
 40
1.0
 40
1.0
 40
1.0
 10
525.8603004941615
 20
10.41699682537489
 30
0.0
 10
527.181848652611
 20
11.205410238213
 30
0.0
 10
528.5596036404582
 20
12.02735570049399
 30
0.0
 10
530.454622282238
 20
13.15713688888179
 30
0.0
 10
531.0282225383364
 20
13.49899945166679
 30
0.0
 10
531.5456252085092
 20
13.80736856576067
 30
0.0
  0
SPLINE
  5
1FC
330
1F
100
AcDbEntity
  8
0
370
    15
100
AcDbSpline
210
0.0
220
0.0
230
1.0
 70
     8
 71
     3
 72
     9
 73
     5
 74
     0
 42
0.000000001
 43
0.0000000001
 40
0.0
 40
0.0
 40
0.0
 40
0.0
 40
0.4764774834733105
 40
1.0
 40
1.0
 40
1.0
 40
1.0
 10
531.6606544948075
 20
13.54216816361742
 30
0.0
 10
531.6581235723202
 20
13.52865698665519
 30
0.0
 10
531.6528118365609
 20
13.50030060585887
 30
0.0
 10
531.6537325656526
 20
13.50335199630802
 30
0.0
 10
531.6542145880641
 20
13.50494946791486
 30
0.0
  0
SPLINE
  5
1FD
330
1F
100
AcDbEntity
  8
0
370
    15
100
AcDbSpline
210
0.0
220
0.0
230
1.0
 70
     8
 71
     3
 72
    14
 73
    10
 74
     0
 42
0.000000001
 43
0.0000000001
 40
0.0
 40
0.0
 40
0.0
 40
0.0
 40
0.0073097567940256
 40
0.0318925493723553
 40
0.0942214221744709
 40
0.2916585072246208
 40
0.6422458333445491
 40
0.9813197760900399
 40
1.0
 40
1.0
 40
1.0
 40
1.0
 10
526.2461845267815
 20
8.443836642744534
 30
0.0
 10
526.2443041908437
 20
8.443419735216769
 30
0.0
 10
526.2361002644443
 20
8.441600763083048
 30
0.0
 10
526.2120805437564
 20
8.436378338420423
 30
0.0
 10
526.1413441647285
 20
8.421769428937158
 30
0.0
 10
525.9998230798949
 20
8.397569066043553
 30
0.0
 10
525.8483649345504
 20
8.393542728803648
 30
0.0
 10
525.7566294221052
 20
8.409910805663276
 30
0.0
 10
525.7578351812423
 20
8.437020465932171
 30
0.0
 10
525.7578981402592
 20
8.438436003670503
 30
0.0
  0
SPLINE
  5
1FE
330
1F
100
AcDbEntity
  8
0
370
    15
100
AcDbSpline
210
0.0
220
0.0
230
1.0
 70
     8
 71
     3
 72
    15
 73
    11
 74
     0
 42
0.000000001
 43
0.0000000001
 40
0.0
 40
0.0
 40
0.0
 40
0.0
 40
0.0055668351519537
 40
0.0189819392629778
 40
0.051143591778399
 40
0.1391161367954395
 40
0.4252373044116213
 40
0.6733417124308404
 40
0.9150851816698759
 40
1.0
 40
1.0
 40
1.0
 40
1.0
 10
526.508472267599
 20
9.331649664585286
 30
0.0
 10
526.5062547538341
 20
9.332625847363425
 30
0.0
 10
526.4986934177341
 20
9.335954460785305
 30
0.0
 10
526.4784008501582
 20
9.345096519813647
 30
0.0
 10
526.4258474441448
 20
9.369891672183813
 30
0.0
 10
526.2702694320132
 20
9.452551033362439
 30
0.0
 10
526.0538777913378
 20
9.613806210506778
 30
0.0
 10
525.8704916234689
 20
9.853131100238678
 30
0.0
 10
525.7834541104065
 20
10.04679129609831
 30
0.0
 10
525.7930176292285
 20
10.14698755978874
 30
0.0
 10
525.7955036658431
 20
10.17303357745431
 30
0.0
  0
ARC
  5
1FF
330
1F
100
AcDbEntity
  8
0
370
    15
100
AcDbCircle
 10
525.9203170909
 20
10.3135932487
 30
0.0
 40
0.1195587368135735
100
AcDbArc
 50
120.1313605822
 51
162.7876855552
  0
ARC
  5
200
330
1F
100
AcDbEntity
  8
0
370
    15
100
AcDbCircle
 10
525.9198263118999
 20
10.3218888703
 30
0.0
 40
0.1167791553954021
100
AcDbArc
 50
119.5660655133
 51
162.0030326257
  0
LINE
  5
201
330
1F
100
AcDbEntity
  8
0
370
    15
100
AcDbLine
 10
949.8869524523
 20
232.9856369292
 30
0.0
 11
949.973616251
 21
233.3604025048
 31
0.0
  0
LWPOLYLINE
  5
202
330
1F
100
AcDbEntity
  8
0
370
    15
100
AcDbPolyline
 90
        3
 70
   128
 43
0.0
 10
936.8900293367998
 20
247.2440545907
 10
936.4721334556
 20
246.664047974
 10
935.946093371
 20
245.4219811522
  0
ARC
  5
203
330
1F
100
AcDbEntity
  8
0
370
    15
100
AcDbCircle
 10
953.1596843246999
 20
236.053217414
 30
0.0
 40
4.171604236410273
100
AcDbArc
 50
178.712238319
 51
220.2039721025
  0
SPLINE
  5
204
330
1F
100
AcDbEntity
  8
0
370
    15
100
AcDbSpline
210
0.0
220
0.0
230
1.0
 70
     8
 71
     3
 72
    11
 73
     7
 74
     0
 42
0.000000001
 43
0.0000000001
 40
0.0
 40
0.0
 40
0.0
 40
0.0
 40
0.1465008214133483
 40
0.4352791426282532
 40
0.7166612762832809
 40
1.0
 40
1.0
 40
1.0
 40
1.0
 10
933.7491836240021
 20
241.7155283249407
 30
0.0
 10
933.7394863714806
 20
241.7178834627366
 30
0.0
 10
933.7106741660425
 20
241.7248809822771
 30
0.0
 10
933.6939887704636
 20
241.6243719250868
 30
0.0
 10
933.6959215163039
 20
241.4420023811666
 30
0.0
 10
933.724766049416
 20
241.2631065023226
 30
0.0
 10
933.7392382848424
 20
241.1733486523544
 30
0.0
  0
SPLINE
  5
205
330
1F
100
AcDbEntity
  8
0
370
    15
100
AcDbSpline
210
0.0
220
0.0
230
1.0
 70
     8
 71
     3
 72
    11
 73
     7
 74
     0
 42
0.000000001
 43
0.0000000001
 40
0.0
 40
0.0
 40
0.0
 40
0.0
 40
0.308575201230654
 40
0.6147105527663511
 40
0.9288920415099203
 40
1.0
 40
1.0
 40
1.0
 40
1.0
 10
933.5981925392117
 20
241.1275724674678
 30
0.0
 10
933.5852613534729
 20
241.2180357768238
 30
0.0
 10
933.5595012266006
 20
241.398247118103
 30
0.0
 10
933.5818296930941
 20
241.5864659307031
 30
0.0
 10
933.6194824402699
 20
241.6887709383516
 30
0.0
 10
933.6597088535979
 20
241.6933564162138
 30
0.0
 10
933.6671329295745
 20
241.6942026993701
 30
0.0
  0
LWPOLYLINE
  5
206
330
1F
100
AcDbEntity
  8
0
370
    15
100
AcDbPolyline
 90
        9
 70
   128
 43
0.0
 10
935.0107928992999
 20
242.1127948459
 10
935.1038807996999
 20
242.1767310381
 10
935.2638906516
 20
242.3665158596
 10
935.3672663341999
 20
242.622279918
 10
935.409113545
 20
242.9319159414
 10
935.3874513820001
 20
243.2807660176
 10
935.3033058574
 20
243.6523156803
 10
935.1606598487
 20
244.0289763906
 10
934.966266071
 20
244.3929174008
  0
SPLINE
  5
207
330
1F
100
AcDbEntity
  8
0
370
    15
100
AcDbSpline
210
0.0
220
0.0
230
1.0
 70
     8
 71
     3
 72
    10
 73
     6
 74
     0
 42
0.000000001
 43
0.0000000001
 40
0.0
 40
0.0
 40
0.0
 40
0.0
 40
0.363977943253085
 40
0.586601978629756
 40
1.0
 40
1.0
 40
1.0
 40
1.0
 10
933.9113857704964
 20
244.5203454976578
 30
0.0
 10
932.5673726995798
 20
243.7586301402392
 30
0.0
 10
930.4013053833644
 20
242.5310180167658
 30
0.0
 10
926.7091187123986
 20
240.4362566628031
 30
0.0
 10
924.3611424740594
 20
239.1023343860348
 30
0.0
 10
922.8350181504495
 20
238.2353191244916
 30
0.0
  0
LINE
  5
208
330
1F
100
AcDbEntity
  8
0
370
    15
100
AcDbLine
 10
926.8991353608999
 20
241.2180770174
 30
0.0
 11
922.1992895755001
 21
238.570111276
 31
0.0
  0
SPLINE
  5
209
330
1F
100
AcDbEntity
  8
0
370
    15
100
AcDbSpline
210
0.0
220
0.0
230
1.0
 70
     8
 71
     3
 72
    13
 73
     9
 74
     0
 42
0.000000001
 43
0.0000000001
 40
0.0
 40
0.0
 40
0.0
 40
0.0
 40
0.0083173680299231
 40
0.0362938650084635
 40
0.1072349845785112
 40
0.3319268701882569
 40
0.7309540677936077
 40
1.0
 40
1.0
 40
1.0
 40
1.0
 10
949.4322498600382
 20
236.041882716166
 30
0.0
 10
949.4341298073283
 20
236.042961441734
 30
0.0
 10
949.4423331900481
 20
236.0476685942861
 30
0.0
 10
949.4663451102033
 20
236.0619769367751
 30
0.0
 10
949.5372239670764
 20
236.1079935841389
 30
0.0
 10
949.6762018952974
 20
236.225586479542
 30
0.0
 10
949.8263118158625
 20
236.4183271769315
 30
0.0
 10
949.8728082694197
 20
236.5962573683723
 30
0.0
 10
949.8915332878848
 20
236.6679132875938
 30
0.0
  0
LINE
  5
20A
330
1F
100
AcDbEntity
  8
0
370
    15
100
AcDbLine
 10
950.0247008656
 20
233.528654229
 30
0.0
 11
950.0138862476999
 21
233.6174520488
 31
0.0
  0
SPLINE
  5
20B
330
1F
100
AcDbEntity
  8
0
370
    15
100
AcDbSpline
210
0.0
220
0.0
230
1.0
 70
     8
 71
     3
 72
    10
 73
     6
 74
     0
 42
0.000000001
 43
0.0000000001
 40
0.0
 40
0.0
 40
0.0
 40
0.0
 40
0.143472773474373
 40
0.6911564627313063
 40
1.0
 40
1.0
 40
1.0
 40
1.0
 10
949.3515610356533
 20
235.9646010336529
 30
0.0
 10
949.3552148231554
 20
235.9698740836524
 30
0.0
 10
949.3728163428324
 20
235.9952761337919
 30
0.0
 10
949.4004758900214
 20
236.0160038512907
 30
0.0
 10
949.4238292049146
 20
236.0350243665171
 30
0.0
 10
949.4322498600382
 20
236.041882716166
 30
0.0
  0
SPLINE
  5
20C
330
1F
100
AcDbEntity
  8
0
370
    15
100
AcDbSpline
210
0.0
220
0.0
230
1.0
 70
     8
 71
     3
 72
    10
 73
     6
 74
     0
 42
0.000000001
 43
0.0000000001
 40
0.0
 40
0.0
 40
0.0
 40
0.0
 40
0.0784662282630021
 40
0.9773578396629716
 40
1.0
 40
1.0
 40
1.0
 40
1.0
 10
949.6650295385419
 20
236.2224293142033
 30
0.0
 10
949.6604114508324
 20
236.216184744227
 30
0.0
 10
949.6028895802487
 20
236.1384037732708
 30
0.0
 10
949.5131653294652
 20
236.0874696912393
 30
0.0
 10
949.4341902833964
 20
236.0429759314915
 30
0.0
 10
949.4322498600382
 20
236.041882716166
 30
0.0
  0
LINE
  5
20D
330
1F
100
AcDbEntity
  8
0
370
    15
100
AcDbLine
 10
918.9348166192999
 20
233.4632602224
 30
0.0
 11
917.5939567807999
 21
232.689198314
 31
0.0
  0
LINE
  5
20E
330
1F
100
AcDbEntity
  8
0
370
    15
100
AcDbLine
 10
917.3550829314001
 20
233.6379441528
 30
0.0
 11
917.1059950566998
 21
233.4941487836
 31
0.0
  0
LINE
  5
20F
330
1F
100
AcDbEntity
  8
0
370
    15
100
AcDbLine
 10
540.1258657905
 20
15.8681524578
 30
0.0
 11
539.8710910753
 21
15.7210741453
 31
0.0
  0
LINE
  5
210
330
1F
100
AcDbEntity
  8
0
370
    15
100
AcDbLine
 10
540.0967953516
 20
15.59077784
 30
0.0
 11
540.1427958688
 21
15.6173333734
 31
0.0
  0
LINE
  5
211
330
1F
100
AcDbEntity
  8
0
370
    15
100
AcDbLine
 10
917.3382742414
 20
233.3676480921
 30
0.0
 11
917.3842564531
 21
233.3941930579
 31
0.0
  0
VIEWPORT
  5
294
102
{ACAD_XDICTIONARY
360
295
102
}
330
28D
100
AcDbEntity
 67
     1
  8
0
100
AcDbViewport
 10
145.3409271240234
 20
101.8116638660431
 30
0.0
 40
426.8753358107052
 41
222.1517806396485
 68
     1
 69
     1
 12
145.3409271240234
 22
101.8116638660431
 13
0.0
 23
0.0
 14
10.0
 24
10.0
 15
10.0
 25
10.0
 16
0.0
 26
0.0
 36
1.0
 17
0.0
 27
0.0
 37
0.0
 42
50.0
 43
0.0
 44
0.0
 45
222.1517806396485
 50
0.0
 51
0.0
 72
  2000
 90
   557088
  1

281
     0
 71
     1
 74
     0
110
0.0
120
0.0
130
0.0
111
1.0
121
0.0
131
0.0
112
0.0
122
1.0
132
0.0
 79
     0
146
0.0
  0
VIEWPORT
  5
298
102
{ACAD_XDICTIONARY
360
299
102
}
330
28D
100
AcDbEntity
 67
     1
  8
0
100
AcDbViewport
 10
145.3409210443497
 20
101.8116623163223
 30
0.0
 40
232.5454736709595
 41
162.8986597061157
 68
     2
 69
     2
 12
737.8364594993656
 22
120.7644330534269
 13
0.0
 23
0.0
 14
10.0
 24
10.0
 15
10.0
 25
10.0
 16
0.0
 26
0.0
 36
1.0
 17
0.0
 27
0.0
 37
0.0
 42
50.0
 43
0.0
 44
0.0
 45
302.9714796862054
 50
0.0
 51
0.0
 72
  2000
 90
   819296
  1

281
     0
 71
     1
 74
     0
110
0.0
120
0.0
130
0.0
111
1.0
121
0.0
131
0.0
112
0.0
122
1.0
132
0.0
 79
     0
146
0.0
  0
ENDSEC
  0
SECTION
  2
OBJECTS
  0
DICTIONARY
  5
C
330
0
100
AcDbDictionary
281
     1
  3
ACAD_CIP_PREVIOUS_PRODUCT_INFO
350
252
  3
ACAD_COLOR
350
246
  3
ACAD_DETAILVIEWSTYLE
350
24D
  3
ACAD_GROUP
350
D
  3
ACAD_LAYOUT
350
1A
  3
ACAD_MATERIAL
350
214
  3
ACAD_MLEADERSTYLE
350
249
  3
ACAD_MLINESTYLE
350
17
  3
ACAD_PLOTSETTINGS
350
19
  3
ACAD_PLOTSTYLENAME
350
E
  3
ACAD_SCALELIST
350
47
  3
ACAD_SECTIONVIEWSTYLE
350
24B
  3
ACAD_TABLESTYLE
350
247
  3
ACAD_VISUALSTYLE
350
22D
  3
ACDB_RECOMPOSE_DATA
350
2C0
  3
AcDbVariableDictionary
350
2B4
  3
AcDsDecomposeData
350
2C7
  3
DWGPROPS
350
2C1
  0
DICTIONARY
  5
256
330
2
100
AcDbDictionary
280
     1
281
     1
  3
ACAD_LAYERSTATES
360
257
  0
DICTIONARY
  5
2A2
330
10
100
AcDbDictionary
280
     1
281
     1
  3
ADSK_XREC_LAYER_RECONCILED
360
2A3
  0
DICTIONARY
  5
2A4
330
6F
100
AcDbDictionary
280
     1
281
     1
  3
ADSK_XREC_LAYER_RECONCILED
360
2A5
  0
DICTIONARY
  5
2A6
330
70
100
AcDbDictionary
280
     1
281
     1
  3
ADSK_XREC_LAYER_RECONCILED
360
2A7
  0
DICTIONARY
  5
2A8
330
71
100
AcDbDictionary
280
     1
281
     1
  3
ADSK_XREC_LAYER_RECONCILED
360
2A9
  0
DICTIONARY
  5
295
330
294
100
AcDbDictionary
280
     1
281
     1
  3
ACAD_XREC_ROUNDTRIP
360
307
  3
ASDK_XREC_ANNOTATION_SCALE_INFO
360
296
  0
DICTIONARY
  5
299
330
298
100
AcDbDictionary
280
     1
281
     1
  3
ACAD_XREC_ROUNDTRIP
360
308
  3
ASDK_XREC_ANNOTATION_SCALE_INFO
360
29A
  0
XRECORD
  5
252
102
{ACAD_REACTORS
330
C
102
}
330
C
100
AcDbXrecord
280
     1
300
ACDLT
300
2013
300
ACDLT_F_S
  0
DICTIONARY
  5
246
102
{ACAD_REACTORS
330
C
102
}
330
C
100
AcDbDictionary
281
     1
  0
DICTIONARY
  5
24D
102
{ACAD_REACTORS
330
C
102
}
330
C
100
AcDbDictionary
281
     1
  3
Metric50
350
24E
  0
DICTIONARY
  5
D
102
{ACAD_REACTORS
330
C
102
}
330
C
100
AcDbDictionary
281
     1
  0
DICTIONARY
  5
1A
102
{ACAD_REACTORS
330
C
102
}
330
C
100
AcDbDictionary
281
     1
  3
Model
350
22
  3
レイアウト1
350
28E
  0
DICTIONARY
  5
214
102
{ACAD_REACTORS
330
C
102
}
330
C
100
AcDbDictionary
281
     1
  3
ByBlock
350
21D
  3
ByLayer
350
215
  3
Global
350
225
  0
DICTIONARY
  5
249
102
{ACAD_REACTORS
330
C
102
}
330
C
100
AcDbDictionary
281
     1
  3
Standard
350
24A
  0
DICTIONARY
  5
17
102
{ACAD_REACTORS
330
C
102
}
330
C
100
AcDbDictionary
281
     1
  3
Standard
350
18
  0
DICTIONARY
  5
19
102
{ACAD_REACTORS
330
C
102
}
330
C
100
AcDbDictionary
281
     1
  0
ACDBDICTIONARYWDFLT
  5
E
102
{ACAD_REACTORS
330
C
102
}
330
C
100
AcDbDictionary
281
     1
  3
Normal
350
F
100
AcDbDictionaryWithDefault
340
F
  0
DICTIONARY
  5
47
102
{ACAD_REACTORS
330
C
102
}
330
C
100
AcDbDictionary
281
     1
  3
A0
350
48
  3
A1
350
49
  3
A2
350
4A
  3
A3
350
4B
  3
A4
350
4C
  3
A5
350
4D
  3
A6
350
4E
  3
A7
350
4F
  3
A8
350
50
  3
A9
350
51
  3
B0
350
52
  3
B1
350
53
  3
B2
350
54
  3
B3
350
55
  3
B4
350
56
  3
B5
350
57
  3
B6
350
58
  3
B7
350
59
  3
B8
350
5A
  3
B9
350
5B
  3
C0
350
5C
  3
C1
350
5D
  3
C2
350
5E
  3
C3
350
5F
  3
C4
350
60
  3
C5
350
61
  3
C6
350
62
  3
C7
350
63
  3
C8
350
64
  3
C9
350
65
  3
D0
350
66
  3
D1
350
67
  3
D2
350
68
  0
DICTIONARY
  5
24B
102
{ACAD_REACTORS
330
C
102
}
330
C
100
AcDbDictionary
281
     1
  3
Metric50
350
24C
  0
DICTIONARY
  5
247
102
{ACAD_REACTORS
330
C
102
}
330
C
100
AcDbDictionary
281
     1
  3
Standard
350
248
  0
DICTIONARY
  5
22D
102
{ACAD_REACTORS
330
C
102
}
330
C
100
AcDbDictionary
281
     1
  3
2dWireframe
350
233
  3
Basic
350
232
  3
Brighten
350
239
  3
ColorChange
350
23D
  3
Conceptual
350
236
  3
Dim
350
238
  3
EdgeColorOff
350
245
  3
Facepattern
350
23C
  3
Flat
350
22E
  3
FlatWithEdges
350
22F
  3
Gouraud
350
230
  3
GouraudWithEdges
350
231
  3
Hidden
350
235
  3
JitterOff
350
243
  3
Linepattern
350
23B
  3
OverhangOff
350
244
  3
Realistic
350
237
  3
Shaded
350
242
  3
Shaded with edges
350
241
  3
Shades of Gray
350
23E
  3
Sketchy
350
23F
  3
Thicken
350
23A
  3
Wireframe
350
234
  3
X-Ray
350
240
  0
XRECORD
  5
2C0
102
{ACAD_REACTORS
330
C
102
}
330
C
100
AcDbXrecord
280
     1
 90
        1
330
248
  0
DICTIONARY
  5
2B4
102
{ACAD_REACTORS
330
C
102
}
330
C
100
AcDbDictionary
281
     1
  3
CANNOSCALE
350
2B9
  3
CMLEADERSTYLE
350
2B6
  3
CTABLESTYLE
350
2B5
  3
CVIEWDETAILSTYLE
350
2B7
  3
CVIEWSECTIONSTYLE
350
2B8
  3
DIMASSOC
350
2BC
  3
INDEXCTL
350
2BB
  3
SORTENTS
350
2BA
  3
XCLIPFRAME
350
2BD
  0
DICTIONARY
  5
2C7
102
{ACAD_REACTORS
330
C
102
}
330
C
100
AcDbDictionary
281
     1
  3
AcDsRecords
350
2C9
  3
AcDsSchemas
350
2C8
1001
ACAD
1070
     2
  0
XRECORD
  5
2C1
102
{ACAD_REACTORS
330
C
102
}
330
C
100
AcDbXrecord
280
     1
  1
DWGPROPS COOKIE
  2

  3

  4

  6

  7

  8
j00675
  9

300
=
301
=
302
=
303
=
304
=
305
=
306
=
307
=
308
=
309
=
 40
0.0011546990740741
 41
2457121.368953542
 42
2457121.438021644
  1

 90
        0
  0
DICTIONARY
  5
257
102
{ACAD_REACTORS
330
256
102
}
330
256
100
AcDbDictionary
281
     1
  0
XRECORD
  5
2A3
102
{ACAD_REACTORS
330
2A2
102
}
330
2A2
100
AcDbXrecord
280
     1
290
     1
  0
XRECORD
  5
2A5
102
{ACAD_REACTORS
330
2A4
102
}
330
2A4
100
AcDbXrecord
280
     1
290
     1
  0
XRECORD
  5
2A7
102
{ACAD_REACTORS
330
2A6
102
}
330
2A6
100
AcDbXrecord
280
     1
290
     1
  0
XRECORD
  5
2A9
102
{ACAD_REACTORS
330
2A8
102
}
330
2A8
100
AcDbXrecord
280
     1
290
     1
  0
XRECORD
  5
307
102
{ACAD_REACTORS
330
295
102
}
330
295
100
AcDbXrecord
280
     1
102
SHADEPLOT
 70
     0
  0
XRECORD
  5
296
102
{ACAD_REACTORS
330
295
102
}
330
295
100
AcDbXrecord
280
     1
 90
        1
340
48
  0
XRECORD
  5
308
102
{ACAD_REACTORS
330
299
102
}
330
299
100
AcDbXrecord
280
     1
102
SHADEPLOT
 70
     0
  0
XRECORD
  5
29A
102
{ACAD_REACTORS
330
299
102
}
330
299
100
AcDbXrecord
280
     1
 90
        1
340
48
  0
ACDBDETAILVIEWSTYLE
  5
24E
102
{ACAD_REACTORS
330
24D
102
}
330
24D
100
AcDbModelDocViewStyle
 70
     0
  3
Metric50
290
     0
100
AcDbDetailViewStyle
 70
     0
 71
     0
 90
        3
 71
     1
340
11
 40
5.0
340
0
 40
5.0
300

 40
0.0
280
     1
 71
     2
340
16
 90
       25
 71
     3
340
11
 40
5.0
 90
        0
 40
15.0
 90
        1
300
%<\AcVar ViewDetailId>% (%<\AcVar ViewScale \f "%sn">%)
 71
     4
340
16
 90
       25
340
16
 90
       25
280
     0
  0
LAYOUT
  5
22
102
{ACAD_XDICTIONARY
360
2CA
102
}
102
{ACAD_REACTORS
330
1A
102
}
330
1A
100
AcDbPlotSettings
  1

  2
none_device
  4
Letter_(8.50_x_11.00_Inches)
  6

 40
6.349999999999999
 41
6.349999999999999
 42
6.350005079999999
 43
6.350005079999999
 44
215.9
 45
279.4
 46
0.0
 47
0.0
 48
0.0
 49
0.0
140
0.0
141
0.0
142
1.0
143
1.0
 70
  1712
 72
     1
 73
     0
 74
     0
  7

 75
     0
147
1.0
148
0.0
149
0.0
100
AcDbLayout
  1
Model
 70
     1
 71
     0
 10
0.0
 20
0.0
 11
420.0
 21
297.0
 12
0.0
 22
0.0
 32
0.0
 14
0.0
 24
0.0
 34
0.0
 15
420.0
 25
297.0
 35
0.0
146
0.0
 13
0.0
 23
0.0
 33
0.0
 16
1.0
 26
0.0
 36
0.0
 17
0.0
 27
1.0
 37
0.0
 76
     0
330
1F
331
29
  0
LAYOUT
  5
28E
102
{ACAD_XDICTIONARY
360
305
102
}
102
{ACAD_REACTORS
330
1A
102
}
330
1A
100
AcDbPlotSettings
  1

  2
Adobe PDF
  4
A4
  6

 40
3.174999952316284
 41
3.174999952316284
 42
3.175003051757812
 43
3.17498779296875
 44
209.9733276367187
 45
297.0318298339844
 46
0.0
 47
0.0
 48
0.0
 49
0.0
140
0.0
141
0.0
142
1.0
143
1.0
 70
   688
 72
     1
 73
     1
 74
     5
  7

 75
    16
147
1.0
148
0.0
149
0.0
100
AcDbLayout
  1
レイアウト1
 70
     1
 71
     1
 10
-3.17498779296875
 20
-3.174999952316284
 11
293.8568420410156
 21
206.7983276844024
 12
0.0
 22
0.0
 32
0.0
 14
29.06818420886992
 24
20.36233246326446
 34
0.0
 15
261.6136578798294
 25
183.2609921693802
 35
0.0
146
0.0
 13
0.0
 23
0.0
 33
0.0
 16
1.0
 26
0.0
 36
0.0
 17
0.0
 27
1.0
 37
0.0
 76
     0
330
28D
331
294
1001
ACAD_PSEXT
1000
Adobe PDF
1000
Adobe PDF Converter
1000
Documents\*.pdf
1000

1070
     0
  0
MATERIAL
  5
21D
102
{ACAD_XDICTIONARY
360
21E
102
}
102
{ACAD_REACTORS
330
214
102
}
330
214
100
AcDbMaterial
  1
ByBlock
 72
     0
 43
0.0008202099737533
 43
0.0
 43
0.0
 43
0.0
 43
0.0
 43
0.0008202099737533
 43
0.0
 43
0.0
 43
0.0
 43
0.0
 43
1.0
 43
0.0
 43
0.0
 43
0.0
 43
0.0
 43
1.0
 77
     0
 47
0.0008202099737533
 47
0.0
 47
0.0
 47
0.0
 47
0.0
 47
0.0008202099737533
 47
0.0
 47
0.0
 47
0.0
 47
0.0
 47
1.0
 47
0.0
 47
0.0
 47
0.0
 47
0.0
 47
1.0
171
     0
 49
0.0008202099737533
 49
0.0
 49
0.0
 49
0.0
 49
0.0
 49
0.0008202099737533
 49
0.0
 49
0.0
 49
0.0
 49
0.0
 49
1.0
 49
0.0
 49
0.0
 49
0.0
 49
0.0
 49
1.0
175
     0
142
0.0008202099737533
142
0.0
142
0.0
142
0.0
142
0.0
142
0.0008202099737533
142
0.0
142
0.0
142
0.0
142
0.0
142
1.0
142
0.0
142
0.0
142
0.0
142
0.0
142
1.0
179
     0
144
0.0008202099737533
144
0.0
144
0.0
144
0.0
144
0.0
144
0.0008202099737533
144
0.0
144
0.0
144
0.0
144
0.0
144
1.0
144
0.0
144
0.0
144
0.0
144
0.0
144
1.0
147
0.0008202099737533
147
0.0
147
0.0
147
0.0
147
0.0
147
0.0008202099737533
147
0.0
147
0.0
147
0.0
147
0.0
147
1.0
147
0.0
147
0.0
147
0.0
147
0.0
147
1.0
  0
MATERIAL
  5
215
102
{ACAD_XDICTIONARY
360
216
102
}
102
{ACAD_REACTORS
330
214
102
}
330
214
100
AcDbMaterial
  1
ByLayer
 72
     0
 43
0.0008202099737533
 43
0.0
 43
0.0
 43
0.0
 43
0.0
 43
0.0008202099737533
 43
0.0
 43
0.0
 43
0.0
 43
0.0
 43
1.0
 43
0.0
 43
0.0
 43
0.0
 43
0.0
 43
1.0
 77
     0
 47
0.0008202099737533
 47
0.0
 47
0.0
 47
0.0
 47
0.0
 47
0.0008202099737533
 47
0.0
 47
0.0
 47
0.0
 47
0.0
 47
1.0
 47
0.0
 47
0.0
 47
0.0
 47
0.0
 47
1.0
171
     0
 49
0.0008202099737533
 49
0.0
 49
0.0
 49
0.0
 49
0.0
 49
0.0008202099737533
 49
0.0
 49
0.0
 49
0.0
 49
0.0
 49
1.0
 49
0.0
 49
0.0
 49
0.0
 49
0.0
 49
1.0
175
     0
142
0.0008202099737533
142
0.0
142
0.0
142
0.0
142
0.0
142
0.0008202099737533
142
0.0
142
0.0
142
0.0
142
0.0
142
1.0
142
0.0
142
0.0
142
0.0
142
0.0
142
1.0
179
     0
144
0.0008202099737533
144
0.0
144
0.0
144
0.0
144
0.0
144
0.0008202099737533
144
0.0
144
0.0
144
0.0
144
0.0
144
1.0
144
0.0
144
0.0
144
0.0
144
0.0
144
1.0
147
0.0008202099737533
147
0.0
147
0.0
147
0.0
147
0.0
147
0.0008202099737533
147
0.0
147
0.0
147
0.0
147
0.0
147
1.0
147
0.0
147
0.0
147
0.0
147
0.0
147
1.0
  0
MATERIAL
  5
225
102
{ACAD_XDICTIONARY
360
226
102
}
102
{ACAD_REACTORS
330
214
102
}
330
214
100
AcDbMaterial
  1
Global
 72
     0
 43
0.0008202099737533
 43
0.0
 43
0.0
 43
0.0
 43
0.0
 43
0.0008202099737533
 43
0.0
 43
0.0
 43
0.0
 43
0.0
 43
1.0
 43
0.0
 43
0.0
 43
0.0
 43
0.0
 43
1.0
 77
     0
 47
0.0008202099737533
 47
0.0
 47
0.0
 47
0.0
 47
0.0
 47
0.0008202099737533
 47
0.0
 47
0.0
 47
0.0
 47
0.0
 47
1.0
 47
0.0
 47
0.0
 47
0.0
 47
0.0
 47
1.0
171
     0
 49
0.0008202099737533
 49
0.0
 49
0.0
 49
0.0
 49
0.0
 49
0.0008202099737533
 49
0.0
 49
0.0
 49
0.0
 49
0.0
 49
1.0
 49
0.0
 49
0.0
 49
0.0
 49
0.0
 49
1.0
175
     0
142
0.0008202099737533
142
0.0
142
0.0
142
0.0
142
0.0
142
0.0008202099737533
142
0.0
142
0.0
142
0.0
142
0.0
142
1.0
142
0.0
142
0.0
142
0.0
142
0.0
142
1.0
179
     0
144
0.0008202099737533
144
0.0
144
0.0
144
0.0
144
0.0
144
0.0008202099737533
144
0.0
144
0.0
144
0.0
144
0.0
144
1.0
144
0.0
144
0.0
144
0.0
144
0.0
144
1.0
147
0.0008202099737533
147
0.0
147
0.0
147
0.0
147
0.0
147
0.0008202099737533
147
0.0
147
0.0
147
0.0
147
0.0
147
1.0
147
0.0
147
0.0
147
0.0
147
0.0
147
1.0
  0
MLEADERSTYLE
  5
24A
102
{ACAD_REACTORS
330
249
102
}
330
249
100
AcDbMLeaderStyle
170
     2
171
     1
172
     0
 90
        2
 40
0.0
 41
0.0
173
     1
 91
-1056964608
340
14
 92
       -2
290
     1
 42
2.0
291
     1
 43
0.36
  3
Standard
 44
4.0
300

342
11
174
     1
178
     6
175
     1
176
     0
 93
-1056964608
 45
4.0
292
     0
297
     0
 46
4.0
 94
-1056964608
 47
1.0
 49
1.0
140
1.0
293
     1
141
0.0
294
     1
177
     0
142
1.0
295
     0
296
     0
143
0.125
1001
ACAD_MLEADERVER
1070
     2
  0
MLINESTYLE
  5
18
102
{ACAD_REACTORS
330
17
102
}
330
17
100
AcDbMlineStyle
  2
STANDARD
 70
     0
  3

 62
   256
 51
90.0
 52
90.0
 71
     2
 49
0.5
 62
   256
  6
BYLAYER
 49
-0.5
 62
   256
  6
BYLAYER
  0
ACDBPLACEHOLDER
  5
F
102
{ACAD_REACTORS
330
E
102
}
330
E
  0
SCALE
  5
48
102
{ACAD_REACTORS
330
47
102
}
330
47
100
AcDbScale
 70
     0
300
1:1
140
1.0
141
1.0
290
     1
  0
SCALE
  5
49
102
{ACAD_REACTORS
330
47
102
}
330
47
100
AcDbScale
 70
     0
300
1:2
140
1.0
141
2.0
290
     0
  0
SCALE
  5
4A
102
{ACAD_REACTORS
330
47
102
}
330
47
100
AcDbScale
 70
     0
300
1:4
140
1.0
141
4.0
290
     0
  0
SCALE
  5
4B
102
{ACAD_REACTORS
330
47
102
}
330
47
100
AcDbScale
 70
     0
300
1:5
140
1.0
141
5.0
290
     0
  0
SCALE
  5
4C
102
{ACAD_REACTORS
330
47
102
}
330
47
100
AcDbScale
 70
     0
300
1:8
140
1.0
141
8.0
290
     0
  0
SCALE
  5
4D
102
{ACAD_REACTORS
330
47
102
}
330
47
100
AcDbScale
 70
     0
300
1:10
140
1.0
141
10.0
290
     0
  0
SCALE
  5
4E
102
{ACAD_REACTORS
330
47
102
}
330
47
100
AcDbScale
 70
     0
300
1:16
140
1.0
141
16.0
290
     0
  0
SCALE
  5
4F
102
{ACAD_REACTORS
330
47
102
}
330
47
100
AcDbScale
 70
     0
300
1:20
140
1.0
141
20.0
290
     0
  0
SCALE
  5
50
102
{ACAD_REACTORS
330
47
102
}
330
47
100
AcDbScale
 70
     0
300
1:30
140
1.0
141
30.0
290
     0
  0
SCALE
  5
51
102
{ACAD_REACTORS
330
47
102
}
330
47
100
AcDbScale
 70
     0
300
1:40
140
1.0
141
40.0
290
     0
  0
SCALE
  5
52
102
{ACAD_REACTORS
330
47
102
}
330
47
100
AcDbScale
 70
     0
300
1:50
140
1.0
141
50.0
290
     0
  0
SCALE
  5
53
102
{ACAD_REACTORS
330
47
102
}
330
47
100
AcDbScale
 70
     0
300
1:100
140
1.0
141
100.0
290
     0
  0
SCALE
  5
54
102
{ACAD_REACTORS
330
47
102
}
330
47
100
AcDbScale
 70
     0
300
2:1
140
2.0
141
1.0
290
     0
  0
SCALE
  5
55
102
{ACAD_REACTORS
330
47
102
}
330
47
100
AcDbScale
 70
     0
300
4:1
140
4.0
141
1.0
290
     0
  0
SCALE
  5
56
102
{ACAD_REACTORS
330
47
102
}
330
47
100
AcDbScale
 70
     0
300
8:1
140
8.0
141
1.0
290
     0
  0
SCALE
  5
57
102
{ACAD_REACTORS
330
47
102
}
330
47
100
AcDbScale
 70
     0
300
10:1
140
10.0
141
1.0
290
     0
  0
SCALE
  5
58
102
{ACAD_REACTORS
330
47
102
}
330
47
100
AcDbScale
 70
     0
300
100:1
140
100.0
141
1.0
290
     0
  0
SCALE
  5
59
102
{ACAD_REACTORS
330
47
102
}
330
47
100
AcDbScale
 70
     0
300
1/128" = 1'-0"
140
0.0078125
141
12.0
290
     0
  0
SCALE
  5
5A
102
{ACAD_REACTORS
330
47
102
}
330
47
100
AcDbScale
 70
     0
300
1/64" = 1'-0"
140
0.015625
141
12.0
290
     0
  0
SCALE
  5
5B
102
{ACAD_REACTORS
330
47
102
}
330
47
100
AcDbScale
 70
     0
300
1/32" = 1'-0"
140
0.03125
141
12.0
290
     0
  0
SCALE
  5
5C
102
{ACAD_REACTORS
330
47
102
}
330
47
100
AcDbScale
 70
     0
300
1/16" = 1'-0"
140
0.0625
141
12.0
290
     0
  0
SCALE
  5
5D
102
{ACAD_REACTORS
330
47
102
}
330
47
100
AcDbScale
 70
     0
300
3/32" = 1'-0"
140
0.09375
141
12.0
290
     0
  0
SCALE
  5
5E
102
{ACAD_REACTORS
330
47
102
}
330
47
100
AcDbScale
 70
     0
300
1/8" = 1'-0"
140
0.125
141
12.0
290
     0
  0
SCALE
  5
5F
102
{ACAD_REACTORS
330
47
102
}
330
47
100
AcDbScale
 70
     0
300
3/16" = 1'-0"
140
0.1875
141
12.0
290
     0
  0
SCALE
  5
60
102
{ACAD_REACTORS
330
47
102
}
330
47
100
AcDbScale
 70
     0
300
1/4" = 1'-0"
140
0.25
141
12.0
290
     0
  0
SCALE
  5
61
102
{ACAD_REACTORS
330
47
102
}
330
47
100
AcDbScale
 70
     0
300
3/8" = 1'-0"
140
0.375
141
12.0
290
     0
  0
SCALE
  5
62
102
{ACAD_REACTORS
330
47
102
}
330
47
100
AcDbScale
 70
     0
300
1/2" = 1'-0"
140
0.5
141
12.0
290
     0
  0
SCALE
  5
63
102
{ACAD_REACTORS
330
47
102
}
330
47
100
AcDbScale
 70
     0
300
3/4" = 1'-0"
140
0.75
141
12.0
290
     0
  0
SCALE
  5
64
102
{ACAD_REACTORS
330
47
102
}
330
47
100
AcDbScale
 70
     0
300
1" = 1'-0"
140
1.0
141
12.0
290
     0
  0
SCALE
  5
65
102
{ACAD_REACTORS
330
47
102
}
330
47
100
AcDbScale
 70
     0
300
1-1/2" = 1'-0"
140
1.5
141
12.0
290
     0
  0
SCALE
  5
66
102
{ACAD_REACTORS
330
47
102
}
330
47
100
AcDbScale
 70
     0
300
3" = 1'-0"
140
3.0
141
12.0
290
     0
  0
SCALE
  5
67
102
{ACAD_REACTORS
330
47
102
}
330
47
100
AcDbScale
 70
     0
300
6" = 1'-0"
140
6.0
141
12.0
290
     0
  0
SCALE
  5
68
102
{ACAD_REACTORS
330
47
102
}
330
47
100
AcDbScale
 70
     0
300
1'-0" = 1'-0"
140
12.0
141
12.0
290
     0
  0
ACDBSECTIONVIEWSTYLE
  5
24C
102
{ACAD_REACTORS
330
24B
102
}
330
24B
100
AcDbModelDocViewStyle
 70
     0
  3
Metric50
290
     0
100
AcDbSectionViewStyle
 70
     0
 71
     0
 90
      102
 71
     1
340
11
 40
5.0
340
0
340
0
 40
5.0
300
I, O, Q, S, X, Z
 40
10.0
 90
        0
 40
2.5
 90
        0
 71
     2
340
16
 90
       25
340
16
 90
       50
 40
5.0
 40
2.5
 40
5.0
 71
     3
340
11
 40
5.0
 90
        0
 40
15.0
 90
        1
300
%<\AcVar ViewSectionStartId>%-%<\AcVar ViewSectionEndId>% (%<\AcVar ViewScale \f "%sn">%)
 71
     4
300
ANSI31
 40
1.0
 90
        0
290
     0
290
     0
 90
        6
 40
0.0
 40
1.570796326794896
 40
0.2617993877991494
 40
1.308996938995747
 40
-0.2617993877991494
 40
1.832595714594046
  0
TABLESTYLE
  5
248
102
{ACAD_XDICTIONARY
360
2BE
102
}
102
{ACAD_REACTORS
330
247
102
}
330
247
100
AcDbTableStyle
  3
Standard
 70
     0
 71
     0
 40
1.5
 41
1.5
280
     0
281
     0
  7
Standard
140
4.5
170
     2
 62
     0
 63
     7
283
     0
274
    -2
284
     1
 64
     0
275
    -2
285
     1
 65
     0
276
    -2
286
     1
 66
     0
277
    -2
287
     1
 67
     0
278
    -2
288
     1
 68
     0
279
    -2
289
     1
 69
     0
  7
Standard
140
6.0
170
     5
 62
     0
 63
     7
283
     0
274
    -2
284
     1
 64
     0
275
    -2
285
     1
 65
     0
276
    -2
286
     1
 66
     0
277
    -2
287
     1
 67
     0
278
    -2
288
     1
 68
     0
279
    -2
289
     1
 69
     0
  7
Standard
140
4.5
170
     5
 62
     0
 63
     7
283
     0
274
    -2
284
     1
 64
     0
275
    -2
285
     1
 65
     0
276
    -2
286
     1
 66
     0
277
    -2
287
     1
 67
     0
278
    -2
288
     1
 68
     0
279
    -2
289
     1
 69
     0
  0
VISUALSTYLE
  5
233
102
{ACAD_XDICTIONARY
360
2D9
102
}
102
{ACAD_REACTORS
330
22D
102
}
330
22D
100
AcDbVisualStyle
  2
2dWireframe
 70
     4
 71
     0
 72
     2
 73
     0
 90
        0
 40
-0.6
 41
-30.0
 62
     5
 63
     7
 74
     1
 91
        4
 64
     7
 65
   257
 75
     1
175
     1
 42
1.0
 92
        0
 66
   257
 43
1.0
 76
     1
 77
     6
 78
     2
 67
     7
 79
     5
170
     0
171
     0
290
     0
174
     0
 93
        1
 44
0.0
173
     0
291
     0
 45
0.0
1001
ACAD
1000
AcDbSavedByObjectVersion
1070
     0
  0
VISUALSTYLE
  5
232
102
{ACAD_XDICTIONARY
360
2D7
102
}
102
{ACAD_REACTORS
330
22D
102
}
330
22D
100
AcDbVisualStyle
  2
Basic
 70
     7
 71
     1
 72
     0
 73
     1
 90
        0
 40
-0.6
 41
-30.0
 62
     5
 63
     7
 74
     0
 91
        4
 64
     7
 65
   257
 75
     1
175
     1
 42
1.0
 92
        8
 66
     7
 43
1.0
 76
     1
 77
     6
 78
     2
 67
     7
 79
     5
170
     0
171
     0
290
     0
174
     0
 93
        1
 44
0.0
173
     0
291
     1
 45
0.0
1001
ACAD
1000
AcDbSavedByObjectVersion
1070
     0
  0
VISUALSTYLE
  5
239
102
{ACAD_XDICTIONARY
360
2E5
102
}
102
{ACAD_REACTORS
330
22D
102
}
330
22D
100
AcDbVisualStyle
  2
Brighten
 70
    12
 71
     2
 72
     2
 73
     0
 90
        0
 40
-0.6
 41
-30.0
 62
     5
 63
     7
 74
     1
 91
        4
 64
     7
 65
   257
 75
     1
175
     1
 42
1.0
 92
        8
 66
     7
 43
1.0
 76
     1
 77
     6
 78
     2
 67
     7
 79
     5
170
     0
171
     0
290
     0
174
     0
 93
        1
 44
50.0
173
     0
291
     1
 45
0.0
1001
ACAD
1000
AcDbSavedByObjectVersion
1070
     0
  0
VISUALSTYLE
  5
23D
102
{ACAD_XDICTIONARY
360
2ED
102
}
102
{ACAD_REACTORS
330
22D
102
}
330
22D
100
AcDbVisualStyle
  2
ColorChange
 70
    16
 71
     2
 72
     2
 73
     3
 90
        0
 40
-0.6
 41
-30.0
 62
     5
 63
     8
 74
     1
 91
        4
 64
     7
 65
   257
 75
     1
175
     1
 42
1.0
 92
        8
 66
     8
 43
1.0
 76
     1
 77
     6
 78
     2
 67
     7
 79
     5
170
     0
171
     0
290
     0
174
     0
 93
        1
 44
0.0
173
     0
291
     1
 45
0.0
1001
ACAD
1000
AcDbSavedByObjectVersion
1070
     0
  0
VISUALSTYLE
  5
236
102
{ACAD_XDICTIONARY
360
2DF
102
}
102
{ACAD_REACTORS
330
22D
102
}
330
22D
100
AcDbVisualStyle
  2
Conceptual
 70
     9
 71
     3
 72
     2
 73
     0
 90
        0
 40
-0.6
 41
-30.0
 62
     5
 63
     7
 74
     2
 91
        2
 64
     7
 65
   257
 75
     1
175
     1
 42
179.0
 92
        8
 66
     7
 43
1.0
 76
     1
 77
     6
 78
     2
 67
     7
 79
     3
170
     0
171
     0
290
     0
174
     0
 93
        1
 44
0.0
173
     0
291
     0
 45
0.0
1001
ACAD
1000
AcDbSavedByObjectVersion
1070
     0
  0
VISUALSTYLE
  5
238
102
{ACAD_XDICTIONARY
360
2E3
102
}
102
{ACAD_REACTORS
330
22D
102
}
330
22D
100
AcDbVisualStyle
  2
Dim
 70
    11
 71
     2
 72
     2
 73
     0
 90
        0
 40
-0.6
 41
-30.0
 62
     5
 63
     7
 74
     1
 91
        4
 64
     7
 65
   257
 75
     1
175
     1
 42
1.0
 92
        8
 66
     7
 43
1.0
 76
     1
 77
     6
 78
     2
 67
     7
 79
     5
170
     0
171
     0
290
     0
174
     0
 93
        1
 44
-50.0
173
     0
291
     1
 45
0.0
1001
ACAD
1000
AcDbSavedByObjectVersion
1070
     0
  0
VISUALSTYLE
  5
245
102
{ACAD_XDICTIONARY
360
2FD
102
}
102
{ACAD_REACTORS
330
22D
102
}
330
22D
100
AcDbVisualStyle
  2
EdgeColorOff
 70
    22
 71
     2
 72
     2
 73
     0
 90
        0
 40
-0.6
 41
-30.0
 62
     5
 63
     7
 74
     1
 91
        4
 64
     7
 65
   257
 75
     1
175
     1
 42
1.0
 92
        8
 66
     7
 43
1.0
 76
     1
 77
     6
 78
     2
 67
     7
 79
     5
170
     0
171
     0
290
     0
174
     0
 93
        1
 44
0.0
173
     0
291
     1
 45
0.0
1001
ACAD
1000
AcDbSavedByObjectVersion
1070
     0
  0
VISUALSTYLE
  5
23C
102
{ACAD_XDICTIONARY
360
2EB
102
}
102
{ACAD_REACTORS
330
22D
102
}
330
22D
100
AcDbVisualStyle
  2
Facepattern
 70
    15
 71
     2
 72
     2
 73
     0
 90
        0
 40
-0.6
 41
-30.0
 62
     5
 63
     7
 74
     1
 91
        4
 64
     7
 65
   257
 75
     1
175
     1
 42
1.0
 92
        8
 66
     7
 43
1.0
 76
     1
 77
     6
 78
     2
 67
     7
 79
     5
170
     0
171
     0
290
     0
174
     0
 93
        1
 44
0.0
173
     0
291
     1
 45
0.0
1001
ACAD
1000
AcDbSavedByObjectVersion
1070
     0
  0
VISUALSTYLE
  5
22E
102
{ACAD_XDICTIONARY
360
2CF
102
}
102
{ACAD_REACTORS
330
22D
102
}
330
22D
100
AcDbVisualStyle
  2
Flat
 70
     0
 71
     2
 72
     1
 73
     1
 90
        2
 40
-0.6
 41
30.0
 62
     5
 63
     7
 74
     0
 91
        0
 64
     7
 65
   257
 75
     1
175
     1
 42
1.0
 92
        8
 66
     7
 43
1.0
 76
     1
 77
     6
 78
     2
 67
     7
 79
     5
170
     0
171
     0
290
     0
174
     0
 93
       13
 44
0.0
173
     0
291
     1
 45
0.0
1001
ACAD
1000
AcDbSavedByObjectVersion
1070
     0
  0
VISUALSTYLE
  5
22F
102
{ACAD_XDICTIONARY
360
2D1
102
}
102
{ACAD_REACTORS
330
22D
102
}
330
22D
100
AcDbVisualStyle
  2
FlatWithEdges
 70
     1
 71
     2
 72
     1
 73
     1
 90
        2
 40
-0.6
 41
30.0
 62
     5
 63
     7
 74
     1
 91
        0
 64
     7
 65
   257
 75
     1
175
     1
 42
1.0
 92
        0
 66
   257
 43
1.0
 76
     1
 77
     6
 78
     2
 67
     7
 79
     5
170
     0
171
     0
290
     0
174
     0
 93
       13
 44
0.0
173
     0
291
     1
 45
0.0
1001
ACAD
1000
AcDbSavedByObjectVersion
1070
     0
  0
VISUALSTYLE
  5
230
102
{ACAD_XDICTIONARY
360
2D3
102
}
102
{ACAD_REACTORS
330
22D
102
}
330
22D
100
AcDbVisualStyle
  2
Gouraud
 70
     2
 71
     2
 72
     2
 73
     1
 90
        2
 40
-0.6
 41
30.0
 62
     5
 63
     7
 74
     0
 91
        0
 64
     7
 65
   257
 75
     1
175
     1
 42
1.0
 92
        0
 66
     7
 43
1.0
 76
     1
 77
     6
 78
     2
 67
     7
 79
     5
170
     0
171
     0
290
     0
174
     0
 93
       13
 44
0.0
173
     0
291
     1
 45
0.0
1001
ACAD
1000
AcDbSavedByObjectVersion
1070
     0
  0
VISUALSTYLE
  5
231
102
{ACAD_XDICTIONARY
360
2D5
102
}
102
{ACAD_REACTORS
330
22D
102
}
330
22D
100
AcDbVisualStyle
  2
GouraudWithEdges
 70
     3
 71
     2
 72
     2
 73
     1
 90
        2
 40
-0.6
 41
30.0
 62
     5
 63
     7
 74
     1
 91
        0
 64
     7
 65
   257
 75
     1
175
     1
 42
1.0
 92
        0
 66
   257
 43
1.0
 76
     1
 77
     6
 78
     2
 67
     7
 79
     5
170
     0
171
     0
290
     0
174
     0
 93
       13
 44
0.0
173
     0
291
     1
 45
0.0
1001
ACAD
1000
AcDbSavedByObjectVersion
1070
     0
  0
VISUALSTYLE
  5
235
102
{ACAD_XDICTIONARY
360
2DD
102
}
102
{ACAD_REACTORS
330
22D
102
}
330
22D
100
AcDbVisualStyle
  2
Hidden
 70
     6
 71
     1
 72
     2
 73
     2
 90
        0
 40
-0.6
 41
-30.0
 62
     5
 63
     7
 74
     2
 91
        2
 64
     7
 65
   257
 75
     2
175
     1
 42
40.0
 92
        0
 66
   257
 43
1.0
 76
     1
 77
     6
 78
     2
 67
     7
 79
     3
170
     0
171
     0
290
     0
174
     0
 93
        1
 44
0.0
173
     0
291
     0
 45
0.0
1001
ACAD
1000
AcDbSavedByObjectVersion
1070
     0
  0
VISUALSTYLE
  5
243
102
{ACAD_XDICTIONARY
360
2F9
102
}
102
{ACAD_REACTORS
330
22D
102
}
330
22D
100
AcDbVisualStyle
  2
JitterOff
 70
    20
 71
     2
 72
     2
 73
     0
 90
        0
 40
-0.6
 41
-30.0
 62
     5
 63
     7
 74
     1
 91
        4
 64
     7
 65
   257
 75
     1
175
     1
 42
1.0
 92
       10
 66
     7
 43
1.0
 76
     1
 77
     6
 78
     2
 67
     7
 79
     5
170
     0
171
     0
290
     0
174
     0
 93
        1
 44
0.0
173
     0
291
     1
 45
0.0
1001
ACAD
1000
AcDbSavedByObjectVersion
1070
     0
  0
VISUALSTYLE
  5
23B
102
{ACAD_XDICTIONARY
360
2E9
102
}
102
{ACAD_REACTORS
330
22D
102
}
330
22D
100
AcDbVisualStyle
  2
Linepattern
 70
    14
 71
     2
 72
     2
 73
     0
 90
        0
 40
-0.6
 41
-30.0
 62
     5
 63
     7
 74
     1
 91
        4
 64
     7
 65
   257
 75
     7
175
     7
 42
1.0
 92
        8
 66
     7
 43
1.0
 76
     1
 77
     6
 78
     2
 67
     7
 79
     5
170
     0
171
     0
290
     0
174
     0
 93
        1
 44
0.0
173
     0
291
     1
 45
0.0
1001
ACAD
1000
AcDbSavedByObjectVersion
1070
     0
  0
VISUALSTYLE
  5
244
102
{ACAD_XDICTIONARY
360
2FB
102
}
102
{ACAD_REACTORS
330
22D
102
}
330
22D
100
AcDbVisualStyle
  2
OverhangOff
 70
    21
 71
     2
 72
     2
 73
     0
 90
        0
 40
-0.6
 41
-30.0
 62
     5
 63
     7
 74
     1
 91
        4
 64
     7
 65
   257
 75
     1
175
     1
 42
1.0
 92
        9
 66
     7
 43
1.0
 76
     1
 77
     6
 78
     2
 67
     7
 79
     5
170
     0
171
     0
290
     0
174
     0
 93
        1
 44
0.0
173
     0
291
     1
 45
0.0
1001
ACAD
1000
AcDbSavedByObjectVersion
1070
     0
  0
VISUALSTYLE
  5
237
102
{ACAD_XDICTIONARY
360
2E1
102
}
102
{ACAD_REACTORS
330
22D
102
}
330
22D
100
AcDbVisualStyle
  2
Realistic
 70
     8
 71
     2
 72
     3
 73
     0
 90
        2
 40
-0.6
 41
30.0
 62
     5
 63
     7
 74
     0
 91
        0
 64
     7
 65
   257
 75
     1
175
     1
 42
1.0
 92
        8
 66
   257
 43
1.0
 76
     1
 77
     6
 78
     2
 67
     7
 79
     3
170
     0
171
     0
290
     0
174
     0
 93
       13
 44
0.0
173
     0
291
     0
 45
0.0
1001
ACAD
1000
AcDbSavedByObjectVersion
1070
     0
  0
VISUALSTYLE
  5
242
102
{ACAD_XDICTIONARY
360
2F7
102
}
102
{ACAD_REACTORS
330
22D
102
}
330
22D
100
AcDbVisualStyle
  2
Shaded
 70
    27
 71
     2
 72
     2
 73
     1
 90
        2
 40
-0.6
 41
30.0
 62
     5
 63
     7
 74
     0
 91
        4
 64
     7
 65
   257
 75
     1
175
     1
 42
1.0
 92
        8
 66
   257
 43
1.0
 76
     1
 77
     6
 78
     2
 67
     8
 79
     3
170
     0
171
     0
290
     0
174
     0
 93
        5
 44
0.0
173
     0
291
     0
 45
0.0
1001
ACAD
1000
AcDbSavedByObjectVersion
1070
     0
  0
VISUALSTYLE
  5
241
102
{ACAD_XDICTIONARY
360
2F5
102
}
102
{ACAD_REACTORS
330
22D
102
}
330
22D
100
AcDbVisualStyle
  2
Shaded with edges
 70
    26
 71
     2
 72
     2
 73
     1
 90
        2
 40
-0.6
 41
30.0
 62
     5
 63
     7
 74
     1
 91
       10
 64
     7
 65
   257
 75
     2
175
     1
 42
1.0
 92
        8
 66
   257
 43
1.0
 76
     1
 77
     6
 78
     2
 67
     7
 79
     3
170
     0
171
     0
290
     0
174
     0
 93
        5
 44
0.0
173
     0
291
     0
 45
0.0
1001
ACAD
1000
AcDbSavedByObjectVersion
1070
     0
  0
VISUALSTYLE
  5
23E
102
{ACAD_XDICTIONARY
360
2EF
102
}
102
{ACAD_REACTORS
330
22D
102
}
330
22D
100
AcDbVisualStyle
  2
Shades of Gray
 70
    23
 71
     2
 72
     2
 73
     3
 90
        0
 40
-0.6
 41
-30.0
 62
     5
 63
     7
 74
     2
 91
        2
 64
     7
 65
     7
 75
     1
175
     1
 42
40.0
 92
        8
 66
     7
 43
1.0
 76
     1
 77
     6
 78
     2
 67
     7
 79
     3
170
     0
171
     0
290
     0
174
     0
 93
        1
 44
0.0
173
     0
291
     0
 45
0.0
1001
ACAD
1000
AcDbSavedByObjectVersion
1070
     0
  0
VISUALSTYLE
  5
23F
102
{ACAD_XDICTIONARY
360
2F1
102
}
102
{ACAD_REACTORS
330
22D
102
}
330
22D
100
AcDbVisualStyle
  2
Sketchy
 70
    24
 71
     1
 72
     2
 73
     2
 90
        0
 40
-0.6
 41
-30.0
 62
     5
 63
     7
 74
     2
 91
        2
 64
     7
 65
     7
 75
     1
175
     1
 42
40.0
 92
       11
 66
     7
 43
1.0
 76
     1
 77
     6
 78
     2
 67
     7
 79
     6
170
     0
171
     0
290
     0
174
     0
 93
        1
 44
0.0
173
     0
291
     0
 45
0.0
1001
ACAD
1000
AcDbSavedByObjectVersion
1070
     0
  0
VISUALSTYLE
  5
23A
102
{ACAD_XDICTIONARY
360
2E7
102
}
102
{ACAD_REACTORS
330
22D
102
}
330
22D
100
AcDbVisualStyle
  2
Thicken
 70
    13
 71
     2
 72
     2
 73
     0
 90
        0
 40
-0.6
 41
-30.0
 62
     5
 63
     7
 74
     1
 91
        4
 64
     7
 65
   257
 75
     1
175
     1
 42
1.0
 92
       12
 66
     7
 43
1.0
 76
     1
 77
     6
 78
     2
 67
     7
 79
     5
170
     0
171
     0
290
     0
174
     0
 93
        1
 44
0.0
173
     0
291
     1
 45
0.0
1001
ACAD
1000
AcDbSavedByObjectVersion
1070
     0
  0
VISUALSTYLE
  5
234
102
{ACAD_XDICTIONARY
360
2DB
102
}
102
{ACAD_REACTORS
330
22D
102
}
330
22D
100
AcDbVisualStyle
  2
Wireframe
 70
     5
 71
     0
 72
     2
 73
     0
 90
        0
 40
-0.6
 41
-30.0
 62
     5
 63
     7
 74
     1
 91
        4
 64
     7
 65
   257
 75
     1
175
     1
 42
1.0
 92
        0
 66
   257
 43
1.0
 76
     1
 77
     6
 78
     2
 67
     7
 79
     3
170
     0
171
     0
290
     0
174
     0
 93
        1
 44
0.0
173
     0
291
     0
 45
0.0
1001
ACAD
1000
AcDbSavedByObjectVersion
1070
     0
  0
VISUALSTYLE
  5
240
102
{ACAD_XDICTIONARY
360
2F3
102
}
102
{ACAD_REACTORS
330
22D
102
}
330
22D
100
AcDbVisualStyle
  2
X-Ray
 70
    25
 71
     2
 72
     2
 73
     1
 90
        1
 40
0.5
 41
-30.0
 62
     5
 63
     7
 74
     1
 91
        0
 64
     7
 65
   257
 75
     1
175
     1
 42
1.0
 92
        8
 66
     7
 43
1.0
 76
     1
 77
     6
 78
     2
 67
     7
 79
     3
170
     0
171
     0
290
     0
174
     0
 93
       13
 44
0.0
173
     0
291
     0
 45
0.0
1001
ACAD
1000
AcDbSavedByObjectVersion
1070
     0
  0
DICTIONARYVAR
  5
2B9
102
{ACAD_REACTORS
330
2B4
102
}
330
2B4
100
DictionaryVariables
280
     0
  1
1:1
  0
DICTIONARYVAR
  5
2B6
102
{ACAD_REACTORS
330
2B4
102
}
330
2B4
100
DictionaryVariables
280
     0
  1
STANDARD
  0
DICTIONARYVAR
  5
2B5
102
{ACAD_REACTORS
330
2B4
102
}
330
2B4
100
DictionaryVariables
280
     0
  1
STANDARD
  0
DICTIONARYVAR
  5
2B7
102
{ACAD_REACTORS
330
2B4
102
}
330
2B4
100
DictionaryVariables
280
     0
  1
Metric50
  0
DICTIONARYVAR
  5
2B8
102
{ACAD_REACTORS
330
2B4
102
}
330
2B4
100
DictionaryVariables
280
     0
  1
Metric50
  0
DICTIONARYVAR
  5
2BC
102
{ACAD_REACTORS
330
2B4
102
}
330
2B4
100
DictionaryVariables
280
     0
  1
1
  0
DICTIONARYVAR
  5
2BB
102
{ACAD_REACTORS
330
2B4
102
}
330
2B4
100
DictionaryVariables
280
     0
  1
0
  0
DICTIONARYVAR
  5
2BA
102
{ACAD_REACTORS
330
2B4
102
}
330
2B4
100
DictionaryVariables
280
     0
  1
127
  0
DICTIONARYVAR
  5
2BD
102
{ACAD_REACTORS
330
2B4
102
}
330
2B4
100
DictionaryVariables
280
     0
  1
2
  0
DICTIONARY
  5
2C9
102
{ACAD_REACTORS
330
2C7
102
}
330
2C7
100
AcDbDictionary
281
     1
  0
DICTIONARY
  5
2C8
102
{ACAD_REACTORS
330
2C7
102
}
330
2C7
100
AcDbDictionary
281
     1
  3
8796087795104
350
2C2
  3
8796087795120
350
2C3
  3
8796087795136
350
2C4
  3
8796087795152
350
2C5
  3
8796087795168
350
2C6
  0
DICTIONARY
  5
2CA
330
22
100
AcDbDictionary
280
     1
281
     1
  3
ACAD_XREC_ROUNDTRIP
360
2CB
  0
DICTIONARY
  5
305
330
28E
100
AcDbDictionary
280
     1
281
     1
  3
ACAD_XREC_ROUNDTRIP
360
306
  0
DICTIONARY
  5
21E
330
21D
100
AcDbDictionary
280
     1
281
     1
  3
ACAD_XREC_ROUNDTRIP
360
2CD
  3
BUMPTILE
360
220
  3
DIFFUSETILE
360
21F
  3
OPACITYTILE
360
223
  3
REFLECTIONTILE
360
222
  3
REFRACTIONTILE
360
224
  3
SPECULARTILE
360
221
  0
DICTIONARY
  5
216
330
215
100
AcDbDictionary
280
     1
281
     1
  3
ACAD_XREC_ROUNDTRIP
360
2CC
  3
BUMPTILE
360
218
  3
DIFFUSETILE
360
217
  3
OPACITYTILE
360
21B
  3
REFLECTIONTILE
360
21A
  3
REFRACTIONTILE
360
21C
  3
SPECULARTILE
360
219
  0
DICTIONARY
  5
226
330
225
100
AcDbDictionary
280
     1
281
     1
  3
ACAD_XREC_ROUNDTRIP
360
2CE
  3
BUMPTILE
360
228
  3
DIFFUSETILE
360
227
  3
OPACITYTILE
360
22B
  3
REFLECTIONTILE
360
22A
  3
REFRACTIONTILE
360
22C
  3
SPECULARTILE
360
229
  0
DICTIONARY
  5
2BE
330
248
100
AcDbDictionary
280
     1
281
     1
  3
ACAD_ROUNDTRIP_2008_TABLESTYLE_CELLSTYLEMAP
360
2BF
  3
ACAD_XREC_ROUNDTRIP
360
2FF
  0
DICTIONARY
  5
2D9
330
233
100
AcDbDictionary
280
     1
281
     1
  3
ACAD_XREC_ROUNDTRIP
360
2DA
  0
DICTIONARY
  5
2D7
330
232
100
AcDbDictionary
280
     1
281
     1
  3
ACAD_XREC_ROUNDTRIP
360
2D8
  0
DICTIONARY
  5
2E5
330
239
100
AcDbDictionary
280
     1
281
     1
  3
ACAD_XREC_ROUNDTRIP
360
2E6
  0
DICTIONARY
  5
2ED
330
23D
100
AcDbDictionary
280
     1
281
     1
  3
ACAD_XREC_ROUNDTRIP
360
2EE
  0
DICTIONARY
  5
2DF
330
236
100
AcDbDictionary
280
     1
281
     1
  3
ACAD_XREC_ROUNDTRIP
360
2E0
  0
DICTIONARY
  5
2E3
330
238
100
AcDbDictionary
280
     1
281
     1
  3
ACAD_XREC_ROUNDTRIP
360
2E4
  0
DICTIONARY
  5
2FD
330
245
100
AcDbDictionary
280
     1
281
     1
  3
ACAD_XREC_ROUNDTRIP
360
2FE
  0
DICTIONARY
  5
2EB
330
23C
100
AcDbDictionary
280
     1
281
     1
  3
ACAD_XREC_ROUNDTRIP
360
2EC
  0
DICTIONARY
  5
2CF
330
22E
100
AcDbDictionary
280
     1
281
     1
  3
ACAD_XREC_ROUNDTRIP
360
2D0
  0
DICTIONARY
  5
2D1
330
22F
100
AcDbDictionary
280
     1
281
     1
  3
ACAD_XREC_ROUNDTRIP
360
2D2
  0
DICTIONARY
  5
2D3
330
230
100
AcDbDictionary
280
     1
281
     1
  3
ACAD_XREC_ROUNDTRIP
360
2D4
  0
DICTIONARY
  5
2D5
330
231
100
AcDbDictionary
280
     1
281
     1
  3
ACAD_XREC_ROUNDTRIP
360
2D6
  0
DICTIONARY
  5
2DD
330
235
100
AcDbDictionary
280
     1
281
     1
  3
ACAD_XREC_ROUNDTRIP
360
2DE
  0
DICTIONARY
  5
2F9
330
243
100
AcDbDictionary
280
     1
281
     1
  3
ACAD_XREC_ROUNDTRIP
360
2FA
  0
DICTIONARY
  5
2E9
330
23B
100
AcDbDictionary
280
     1
281
     1
  3
ACAD_XREC_ROUNDTRIP
360
2EA
  0
DICTIONARY
  5
2FB
330
244
100
AcDbDictionary
280
     1
281
     1
  3
ACAD_XREC_ROUNDTRIP
360
2FC
  0
DICTIONARY
  5
2E1
330
237
100
AcDbDictionary
280
     1
281
     1
  3
ACAD_XREC_ROUNDTRIP
360
2E2
  0
DICTIONARY
  5
2F7
330
242
100
AcDbDictionary
280
     1
281
     1
  3
ACAD_XREC_ROUNDTRIP
360
2F8
  0
DICTIONARY
  5
2F5
330
241
100
AcDbDictionary
280
     1
281
     1
  3
ACAD_XREC_ROUNDTRIP
360
2F6
  0
DICTIONARY
  5
2EF
330
23E
100
AcDbDictionary
280
     1
281
     1
  3
ACAD_XREC_ROUNDTRIP
360
2F0
  0
DICTIONARY
  5
2F1
330
23F
100
AcDbDictionary
280
     1
281
     1
  3
ACAD_XREC_ROUNDTRIP
360
2F2
  0
DICTIONARY
  5
2E7
330
23A
100
AcDbDictionary
280
     1
281
     1
  3
ACAD_XREC_ROUNDTRIP
360
2E8
  0
DICTIONARY
  5
2DB
330
234
100
AcDbDictionary
280
     1
281
     1
  3
ACAD_XREC_ROUNDTRIP
360
2DC
  0
DICTIONARY
  5
2F3
330
240
100
AcDbDictionary
280
     1
281
     1
  3
ACAD_XREC_ROUNDTRIP
360
2F4
  0
XRECORD
  5
2C2
102
{ACAD_REACTORS
330
2C8
102
}
330
2C8
100
AcDbXrecord
280
     1
  1
AcDb_Thumbnail_Schema
102
{ATTRRECORD
341
2C3
  2
AcDbDs::TreatedAsObjectData
280
     1
291
     1
102
ATTRRECORD}
102
{ATTRRECORD
341
2C4
  2
AcDbDs::Legacy
280
     1
291
     1
102
ATTRRECORD}
  2
AcDbDs::ID
280
    10
 91
        8
102
{ATTRRECORD
341
2C5
  2
AcDs:Indexable
280
     1
291
     1
102
ATTRRECORD}
102
{ATTRRECORD
341
2C6
  2
AcDbDs::HandleAttribute
280
     7
282
     1
102
ATTRRECORD}
  2
Thumbnail_Data
280
    15
 91
        0
  0
XRECORD
  5
2C3
102
{ACAD_REACTORS
330
2C8
102
}
330
2C8
100
AcDbXrecord
280
     1
  1
AcDbDs::TreatedAsObjectDataSchema
  2
AcDbDs::TreatedAsObjectData
280
     1
 91
        0
  0
XRECORD
  5
2C4
102
{ACAD_REACTORS
330
2C8
102
}
330
2C8
100
AcDbXrecord
280
     1
  1
AcDbDs::LegacySchema
  2
AcDbDs::Legacy
280
     1
 91
        0
  0
XRECORD
  5
2C5
102
{ACAD_REACTORS
330
2C8
102
}
330
2C8
100
AcDbXrecord
280
     1
  1
AcDbDs::IndexedPropertySchema
  2
AcDs:Indexable
280
     1
 91
        0
  0
XRECORD
  5
2C6
102
{ACAD_REACTORS
330
2C8
102
}
330
2C8
100
AcDbXrecord
280
     1
  1
AcDbDs::HandleAttributeSchema
  2
AcDbDs::HandleAttribute
280
     7
 91
        1
284
     1
  0
XRECORD
  5
2CB
102
{ACAD_REACTORS
330
2CA
102
}
330
2CA
100
AcDbXrecord
280
     1
102
SHADEPLOT
 70
     0
102
SHADEPLOTRESLEVEL
 70
     2
102
SHADEPLOTCUSTOMDPI
 70
   300
  0
XRECORD
  5
306
102
{ACAD_REACTORS
330
305
102
}
330
305
100
AcDbXrecord
280
     1
102
SHADEPLOT
 70
     0
102
SHADEPLOTRESLEVEL
 70
     2
102
SHADEPLOTCUSTOMDPI
 70
   300
  0
XRECORD
  5
2CD
102
{ACAD_REACTORS
330
21E
102
}
330
21E
100
AcDbXrecord
280
     1
102
MATERIAL
148
0.0
149
0.0
149
0.0
 93
        0
 94
      127
282
     0
 72
     0
 77
     0
171
     0
175
     0
179
     0
273
     0
  0
XRECORD
  5
220
102
{ACAD_REACTORS
330
21E
102
}
330
21E
100
AcDbXrecord
280
     1
270
     1
271
     1
  0
XRECORD
  5
21F
102
{ACAD_REACTORS
330
21E
102
}
330
21E
100
AcDbXrecord
280
     1
270
     1
271
     1
  0
XRECORD
  5
223
102
{ACAD_REACTORS
330
21E
102
}
330
21E
100
AcDbXrecord
280
     1
270
     1
271
     1
  0
XRECORD
  5
222
102
{ACAD_REACTORS
330
21E
102
}
330
21E
100
AcDbXrecord
280
     1
270
     1
271
     1
  0
XRECORD
  5
224
102
{ACAD_REACTORS
330
21E
102
}
330
21E
100
AcDbXrecord
280
     1
270
     1
271
     1
  0
XRECORD
  5
221
102
{ACAD_REACTORS
330
21E
102
}
330
21E
100
AcDbXrecord
280
     1
270
     1
271
     1
  0
XRECORD
  5
2CC
102
{ACAD_REACTORS
330
216
102
}
330
216
100
AcDbXrecord
280
     1
102
MATERIAL
148
0.0
149
0.0
149
0.0
 93
        0
 94
      127
282
     0
 72
     0
 77
     0
171
     0
175
     0
179
     0
273
     0
  0
XRECORD
  5
218
102
{ACAD_REACTORS
330
216
102
}
330
216
100
AcDbXrecord
280
     1
270
     1
271
     1
  0
XRECORD
  5
217
102
{ACAD_REACTORS
330
216
102
}
330
216
100
AcDbXrecord
280
     1
270
     1
271
     1
  0
XRECORD
  5
21B
102
{ACAD_REACTORS
330
216
102
}
330
216
100
AcDbXrecord
280
     1
270
     1
271
     1
  0
XRECORD
  5
21A
102
{ACAD_REACTORS
330
216
102
}
330
216
100
AcDbXrecord
280
     1
270
     1
271
     1
  0
XRECORD
  5
21C
102
{ACAD_REACTORS
330
216
102
}
330
216
100
AcDbXrecord
280
     1
270
     1
271
     1
  0
XRECORD
  5
219
102
{ACAD_REACTORS
330
216
102
}
330
216
100
AcDbXrecord
280
     1
270
     1
271
     1
  0
XRECORD
  5
2CE
102
{ACAD_REACTORS
330
226
102
}
330
226
100
AcDbXrecord
280
     1
102
MATERIAL
148
0.0
149
0.0
149
0.0
 93
        0
 94
      127
282
     0
 72
     0
 77
     0
171
     0
175
     0
179
     0
273
     0
  0
XRECORD
  5
228
102
{ACAD_REACTORS
330
226
102
}
330
226
100
AcDbXrecord
280
     1
270
     1
271
     1
  0
XRECORD
  5
227
102
{ACAD_REACTORS
330
226
102
}
330
226
100
AcDbXrecord
280
     1
270
     1
271
     1
  0
XRECORD
  5
22B
102
{ACAD_REACTORS
330
226
102
}
330
226
100
AcDbXrecord
280
     1
270
     1
271
     1
  0
XRECORD
  5
22A
102
{ACAD_REACTORS
330
226
102
}
330
226
100
AcDbXrecord
280
     1
270
     1
271
     1
  0
XRECORD
  5
22C
102
{ACAD_REACTORS
330
226
102
}
330
226
100
AcDbXrecord
280
     1
270
     1
271
     1
  0
XRECORD
  5
229
102
{ACAD_REACTORS
330
226
102
}
330
226
100
AcDbXrecord
280
     1
270
     1
271
     1
  0
CELLSTYLEMAP
  5
2BF
102
{ACAD_REACTORS
330
2BE
102
}
330
2BE
100
AcDbCellStyleMap
 90
        3
300
CELLSTYLE
  1
TABLEFORMAT_BEGIN
 90
        5
170
     1
 91
        0
 92
    32768
 62
   257
 93
        1
300
CONTENTFORMAT
  1
CONTENTFORMAT_BEGIN
 90
        0
 91
        0
 92
      512
 93
        0
300

 40
0.0
140
1.0
 94
        5
 62
     0
340
11
144
6.0
309
CONTENTFORMAT_END
171
     1
301
MARGIN
  1
CELLMARGIN_BEGIN
 40
1.5
 40
1.5
 40
1.5
 40
1.5
 40
4.5
 40
4.5
309
CELLMARGIN_END
 94
        6
 95
        1
302
GRIDFORMAT
  1
GRIDFORMAT_BEGIN
 90
        0
 91
        1
 62
     0
 92
       -2
340
0
 93
        0
 40
1.125
309
GRIDFORMAT_END
 95
        2
302
GRIDFORMAT
  1
GRIDFORMAT_BEGIN
 90
        0
 91
        1
 62
     0
 92
       -2
340
0
 93
        0
 40
1.125
309
GRIDFORMAT_END
 95
        4
302
GRIDFORMAT
  1
GRIDFORMAT_BEGIN
 90
        0
 91
        1
 62
     0
 92
       -2
340
0
 93
        0
 40
1.125
309
GRIDFORMAT_END
 95
        8
302
GRIDFORMAT
  1
GRIDFORMAT_BEGIN
 90
        0
 91
        1
 62
     0
 92
       -2
340
0
 93
        0
 40
1.125
309
GRIDFORMAT_END
 95
       16
302
GRIDFORMAT
  1
GRIDFORMAT_BEGIN
 90
        0
 91
        1
 62
     0
 92
       -2
340
0
 93
        0
 40
1.125
309
GRIDFORMAT_END
 95
       32
302
GRIDFORMAT
  1
GRIDFORMAT_BEGIN
 90
        0
 91
        1
 62
     0
 92
       -2
340
0
 93
        0
 40
1.125
309
GRIDFORMAT_END
309
TABLEFORMAT_END
  1
CELLSTYLE_BEGIN
 90
        1
 91
        1
300
_TITLE
309
CELLSTYLE_END
300
CELLSTYLE
  1
TABLEFORMAT_BEGIN
 90
        5
170
     1
 91
        0
 92
        0
 62
   257
 93
        1
300
CONTENTFORMAT
  1
CONTENTFORMAT_BEGIN
 90
        0
 91
        0
 92
      512
 93
        0
300

 40
0.0
140
1.0
 94
        5
 62
     0
340
11
144
4.5
309
CONTENTFORMAT_END
171
     1
301
MARGIN
  1
CELLMARGIN_BEGIN
 40
1.5
 40
1.5
 40
1.5
 40
1.5
 40
4.5
 40
4.5
309
CELLMARGIN_END
 94
        6
 95
        1
302
GRIDFORMAT
  1
GRIDFORMAT_BEGIN
 90
        0
 91
        1
 62
     0
 92
       -2
340
0
 93
        0
 40
1.125
309
GRIDFORMAT_END
 95
        2
302
GRIDFORMAT
  1
GRIDFORMAT_BEGIN
 90
        0
 91
        1
 62
     0
 92
       -2
340
0
 93
        0
 40
1.125
309
GRIDFORMAT_END
 95
        4
302
GRIDFORMAT
  1
GRIDFORMAT_BEGIN
 90
        0
 91
        1
 62
     0
 92
       -2
340
0
 93
        0
 40
1.125
309
GRIDFORMAT_END
 95
        8
302
GRIDFORMAT
  1
GRIDFORMAT_BEGIN
 90
        0
 91
        1
 62
     0
 92
       -2
340
0
 93
        0
 40
1.125
309
GRIDFORMAT_END
 95
       16
302
GRIDFORMAT
  1
GRIDFORMAT_BEGIN
 90
        0
 91
        1
 62
     0
 92
       -2
340
0
 93
        0
 40
1.125
309
GRIDFORMAT_END
 95
       32
302
GRIDFORMAT
  1
GRIDFORMAT_BEGIN
 90
        0
 91
        1
 62
     0
 92
       -2
340
0
 93
        0
 40
1.125
309
GRIDFORMAT_END
309
TABLEFORMAT_END
  1
CELLSTYLE_BEGIN
 90
        2
 91
        1
300
_HEADER
309
CELLSTYLE_END
300
CELLSTYLE
  1
TABLEFORMAT_BEGIN
 90
        5
170
     1
 91
        0
 92
        0
 62
   257
 93
        1
300
CONTENTFORMAT
  1
CONTENTFORMAT_BEGIN
 90
        0
 91
        0
 92
      512
 93
        0
300

 40
0.0
140
1.0
 94
        2
 62
     0
340
11
144
4.5
309
CONTENTFORMAT_END
171
     1
301
MARGIN
  1
CELLMARGIN_BEGIN
 40
1.5
 40
1.5
 40
1.5
 40
1.5
 40
4.5
 40
4.5
309
CELLMARGIN_END
 94
        6
 95
        1
302
GRIDFORMAT
  1
GRIDFORMAT_BEGIN
 90
        0
 91
        1
 62
     0
 92
       -2
340
0
 93
        0
 40
1.125
309
GRIDFORMAT_END
 95
        2
302
GRIDFORMAT
  1
GRIDFORMAT_BEGIN
 90
        0
 91
        1
 62
     0
 92
       -2
340
0
 93
        0
 40
1.125
309
GRIDFORMAT_END
 95
        4
302
GRIDFORMAT
  1
GRIDFORMAT_BEGIN
 90
        0
 91
        1
 62
     0
 92
       -2
340
0
 93
        0
 40
1.125
309
GRIDFORMAT_END
 95
        8
302
GRIDFORMAT
  1
GRIDFORMAT_BEGIN
 90
        0
 91
        1
 62
     0
 92
       -2
340
0
 93
        0
 40
1.125
309
GRIDFORMAT_END
 95
       16
302
GRIDFORMAT
  1
GRIDFORMAT_BEGIN
 90
        0
 91
        1
 62
     0
 92
       -2
340
0
 93
        0
 40
1.125
309
GRIDFORMAT_END
 95
       32
302
GRIDFORMAT
  1
GRIDFORMAT_BEGIN
 90
        0
 91
        1
 62
     0
 92
       -2
340
0
 93
        0
 40
1.125
309
GRIDFORMAT_END
309
TABLEFORMAT_END
  1
CELLSTYLE_BEGIN
 90
        3
 91
        2
300
_DATA
309
CELLSTYLE_END
  0
XRECORD
  5
2FF
102
{ACAD_REACTORS
330
2BE
102
}
330
2BE
100
AcDbXrecord
280
     1
102
ACAD_ROUNDTRIP_PRE2007_TABLESTYLE
 90
      512
 91
        0
  1

 92
      512
 93
        0
  2

 94
      512
 95
        0
  3

  0
XRECORD
  5
2DA
102
{ACAD_REACTORS
330
2D9
102
}
330
2D9
100
AcDbXrecord
280
     1
102
RTVSPost2010Prop28
280
     1
102
RTVSPost2010PropOp28
 70
     1
102
RTVSPost2010Prop29
280
     1
102
RTVSPost2010PropOp29
 70
     1
102
RTVSPost2010Prop30
280
     0
102
RTVSPost2010PropOp30
 70
     1
102
RTVSPost2010Prop31
280
     0
102
RTVSPost2010PropOp31
 70
     1
102
RTVSPost2010Prop32
280
     0
102
RTVSPost2010PropOp32
 70
     1
102
RTVSPost2010Prop33
280
     0
102
RTVSPost2010PropOp33
 70
     1
102
RTVSPost2010Prop34
280
     0
102
RTVSPost2010PropOp34
 70
     1
102
RTVSPost2010Prop35
280
     0
102
RTVSPost2010PropOp35
 70
     1
102
RTVSPost2010Prop36
280
     0
102
RTVSPost2010PropOp36
 70
     1
102
RTVSPost2010Prop37
 90
       50
102
RTVSPost2010PropOp37
 70
     1
102
RTVSPost2010Prop38
140
0.0
102
RTVSPost2010PropOp38
 70
     1
102
RTVSPost2010Prop39
140
1.0
102
RTVSPost2010PropOp39
 70
     1
102
RTVSPost2010Prop40
 90
        0
102
RTVSPost2010PropOp40
 70
     1
102
RTVSPost2010Prop41ColorIndex
 90
       18
102
RTVSPost2010Prop41ColorRGB
 90
        0
102
RTVSPost2010PropOp41
 70
     1
102
RTVSPost2010Prop42
 90
       50
102
RTVSPost2010PropOp42
 70
     1
102
RTVSPost2010Prop43
 90
        3
102
RTVSPost2010PropOp43
 70
     1
102
RTVSPost2010Prop44ColorIndex
 90
        5
102
RTVSPost2010Prop44ColorRGB
 90
      255
102
RTVSPost2010PropOp44
 70
     1
102
RTVSPost2010Prop45
280
     0
102
RTVSPost2010PropOp45
 70
     1
102
RTVSPost2010Prop46
 90
       50
102
RTVSPost2010PropOp46
 70
     1
102
RTVSPost2010Prop47
 90
       50
102
RTVSPost2010PropOp47
 70
     1
102
RTVSPost2010Prop48
 90
       50
102
RTVSPost2010PropOp48
 70
     1
102
RTVSPost2010Prop49
280
     0
102
RTVSPost2010PropOp49
 70
     1
102
RTVSPost2010Prop50
 90
       50
102
RTVSPost2010PropOp50
 70
     1
102
RTVSPost2010Prop51ColorIndex
 90
      256
102
RTVSPost2010Prop51ColorRGB
 90
-16777216
102
RTVSPost2010PropOp51
 70
     0
102
RTVSPost2010Prop52
140
1.0
102
RTVSPost2010PropOp52
 70
     0
102
RTVSPost2010Prop53
 90
        2
102
RTVSPost2010PropOp53
 70
     1
102
RTVSPost2010Prop54
  1
strokes_ogs.tif
102
RTVSPost2010PropOp54
 70
     1
102
RTVSPost2010Prop55
280
     0
102
RTVSPost2010PropOp55
 70
     1
102
RTVSPost2010Prop56
140
1.0
102
RTVSPost2010PropOp56
 70
     1
102
RTVSPost2010Prop57
140
1.0
102
RTVSPost2010PropOp57
 70
     1
102
RTVSPropertyOp0
 70
     1
102
RTVSPropertyOp1
 70
     1
102
RTVSPropertyOp2
 70
     1
102
RTVSPropertyOp3
 70
     1
102
RTVSPropertyOp4
 70
     1
102
RTVSPropertyOp5
 70
     1
102
RTVSPropertyOp6
 70
     1
102
RTVSPropertyOp7
 70
     1
102
RTVSPropertyOp8
 70
     1
102
RTVSPropertyOp9
 70
     1
102
RTVSPropertyOp10
 70
     1
102
RTVSPropertyOp11
 70
     1
102
RTVSPropertyOp12
 70
     1
102
RTVSPropertyOp13
 70
     1
102
RTVSPropertyOp14
 70
     1
102
RTVSPropertyOp15
 70
     1
102
RTVSPropertyOp16
 70
     1
102
RTVSPropertyOp17
 70
     1
102
RTVSPropertyOp18
 70
     1
102
RTVSPropertyOp19
 70
     1
102
RTVSPropertyOp20
 70
     1
102
RTVSPropertyOp21
 70
     1
102
RTVSPropertyOp22
 70
     1
102
RTVSPropertyOp23
 70
     1
102
RTVSPropertyOp24
 70
     1
102
RTVSPropertyOp25
 70
     1
102
RTVSPropertyOp26
 70
     1
102
RTVSPropertyOp27
 70
     1
102
RTVSPropertyOp28
 70
     1
102
RTVSPropertyOp29
 70
     1
102
RTVSPropertyOp30
 70
     1
102
RTVSPropertyOp31
 70
     1
102
RTVSPropertyOp32
 70
     1
102
RTVSPropertyOp33
 70
     1
102
RTVSPropertyOp34
 70
     1
102
RTVSPropertyOp35
 70
     1
102
RTVSPropertyOp36
 70
     1
102
RTVSPropertyOp37
 70
     1
102
RTVSPropertyOp38
 70
     1
102
RTVSPropertyOp39
 70
     1
102
RTVSPropertyOp40
 70
     1
102
RTVSPropertyOp41
 70
     1
102
RTVSPropertyOp42
 70
     1
102
RTVSPropertyOp43
 70
     1
102
RTVSPropertyOp44
 70
     1
102
RTVSPropertyOp45
 70
     1
102
RTVSPropertyOp46
 70
     1
102
RTVSPropertyOp47
 70
     1
102
RTVSPropertyOp48
 70
     1
102
RTVSPropertyOp49
 70
     1
102
RTVSPropertyOp50
 70
     1
102
RTVSPropertyOp51
 70
     0
102
RTVSPropertyOp52
 70
     0
102
RTVSPropertyOp53
 70
     1
102
RTVSPropertyOp54
 70
     1
102
RTVSPropertyOp55
 70
     1
102
RTVSPropertyOp56
 70
     1
102
RTVSPropertyOp57
 70
     1
102
RTVSPropertyOp58
 70
     1
102
RTVSPropertyOp59
 70
     1
102
RTVSPropertyOp60
 70
     1
102
RTVSPropertyOp61
 70
     1
102
RTVSPropertyOp62
 70
     1
  0
XRECORD
  5
2D8
102
{ACAD_REACTORS
330
2D7
102
}
330
2D7
100
AcDbXrecord
280
     1
102
RTVSPost2010Prop28
280
     0
102
RTVSPost2010PropOp28
 70
     1
102
RTVSPost2010Prop29
280
     1
102
RTVSPost2010PropOp29
 70
     1
102
RTVSPost2010Prop30
280
     1
102
RTVSPost2010PropOp30
 70
     1
102
RTVSPost2010Prop31
280
     0
102
RTVSPost2010PropOp31
 70
     1
102
RTVSPost2010Prop32
280
     0
102
RTVSPost2010PropOp32
 70
     1
102
RTVSPost2010Prop33
280
     0
102
RTVSPost2010PropOp33
 70
     1
102
RTVSPost2010Prop34
280
     0
102
RTVSPost2010PropOp34
 70
     1
102
RTVSPost2010Prop35
280
     0
102
RTVSPost2010PropOp35
 70
     1
102
RTVSPost2010Prop36
280
     0
102
RTVSPost2010PropOp36
 70
     1
102
RTVSPost2010Prop37
 90
       50
102
RTVSPost2010PropOp37
 70
     1
102
RTVSPost2010Prop38
140
0.0
102
RTVSPost2010PropOp38
 70
     1
102
RTVSPost2010Prop39
140
1.0
102
RTVSPost2010PropOp39
 70
     1
102
RTVSPost2010Prop40
 90
        0
102
RTVSPost2010PropOp40
 70
     1
102
RTVSPost2010Prop41ColorIndex
 90
       18
102
RTVSPost2010Prop41ColorRGB
 90
        0
102
RTVSPost2010PropOp41
 70
     1
102
RTVSPost2010Prop42
 90
       50
102
RTVSPost2010PropOp42
 70
     1
102
RTVSPost2010Prop43
 90
        3
102
RTVSPost2010PropOp43
 70
     1
102
RTVSPost2010Prop44ColorIndex
 90
        5
102
RTVSPost2010Prop44ColorRGB
 90
      255
102
RTVSPost2010PropOp44
 70
     1
102
RTVSPost2010Prop45
280
     0
102
RTVSPost2010PropOp45
 70
     1
102
RTVSPost2010Prop46
 90
       50
102
RTVSPost2010PropOp46
 70
     1
102
RTVSPost2010Prop47
 90
       50
102
RTVSPost2010PropOp47
 70
     1
102
RTVSPost2010Prop48
 90
       50
102
RTVSPost2010PropOp48
 70
     1
102
RTVSPost2010Prop49
280
     0
102
RTVSPost2010PropOp49
 70
     1
102
RTVSPost2010Prop50
 90
       50
102
RTVSPost2010PropOp50
 70
     1
102
RTVSPost2010Prop51ColorIndex
 90
      256
102
RTVSPost2010Prop51ColorRGB
 90
-16777216
102
RTVSPost2010PropOp51
 70
     0
102
RTVSPost2010Prop52
140
1.0
102
RTVSPost2010PropOp52
 70
     0
102
RTVSPost2010Prop53
 90
        2
102
RTVSPost2010PropOp53
 70
     1
102
RTVSPost2010Prop54
  1
strokes_ogs.tif
102
RTVSPost2010PropOp54
 70
     1
102
RTVSPost2010Prop55
280
     0
102
RTVSPost2010PropOp55
 70
     1
102
RTVSPost2010Prop56
140
1.0
102
RTVSPost2010PropOp56
 70
     1
102
RTVSPost2010Prop57
140
1.0
102
RTVSPost2010PropOp57
 70
     1
102
RTVSPropertyOp0
 70
     1
102
RTVSPropertyOp1
 70
     1
102
RTVSPropertyOp2
 70
     1
102
RTVSPropertyOp3
 70
     1
102
RTVSPropertyOp4
 70
     1
102
RTVSPropertyOp5
 70
     1
102
RTVSPropertyOp6
 70
     1
102
RTVSPropertyOp7
 70
     1
102
RTVSPropertyOp8
 70
     1
102
RTVSPropertyOp9
 70
     1
102
RTVSPropertyOp10
 70
     1
102
RTVSPropertyOp11
 70
     1
102
RTVSPropertyOp12
 70
     1
102
RTVSPropertyOp13
 70
     1
102
RTVSPropertyOp14
 70
     1
102
RTVSPropertyOp15
 70
     1
102
RTVSPropertyOp16
 70
     1
102
RTVSPropertyOp17
 70
     1
102
RTVSPropertyOp18
 70
     1
102
RTVSPropertyOp19
 70
     1
102
RTVSPropertyOp20
 70
     1
102
RTVSPropertyOp21
 70
     1
102
RTVSPropertyOp22
 70
     1
102
RTVSPropertyOp23
 70
     1
102
RTVSPropertyOp24
 70
     1
102
RTVSPropertyOp25
 70
     1
102
RTVSPropertyOp26
 70
     1
102
RTVSPropertyOp27
 70
     1
102
RTVSPropertyOp28
 70
     1
102
RTVSPropertyOp29
 70
     1
102
RTVSPropertyOp30
 70
     1
102
RTVSPropertyOp31
 70
     1
102
RTVSPropertyOp32
 70
     1
102
RTVSPropertyOp33
 70
     1
102
RTVSPropertyOp34
 70
     1
102
RTVSPropertyOp35
 70
     1
102
RTVSPropertyOp36
 70
     1
102
RTVSPropertyOp37
 70
     1
102
RTVSPropertyOp38
 70
     1
102
RTVSPropertyOp39
 70
     1
102
RTVSPropertyOp40
 70
     1
102
RTVSPropertyOp41
 70
     1
102
RTVSPropertyOp42
 70
     1
102
RTVSPropertyOp43
 70
     1
102
RTVSPropertyOp44
 70
     1
102
RTVSPropertyOp45
 70
     1
102
RTVSPropertyOp46
 70
     1
102
RTVSPropertyOp47
 70
     1
102
RTVSPropertyOp48
 70
     1
102
RTVSPropertyOp49
 70
     1
102
RTVSPropertyOp50
 70
     1
102
RTVSPropertyOp51
 70
     0
102
RTVSPropertyOp52
 70
     0
102
RTVSPropertyOp53
 70
     1
102
RTVSPropertyOp54
 70
     1
102
RTVSPropertyOp55
 70
     1
102
RTVSPropertyOp56
 70
     1
102
RTVSPropertyOp57
 70
     1
102
RTVSPropertyOp58
 70
     1
102
RTVSPropertyOp59
 70
     1
102
RTVSPropertyOp60
 70
     1
102
RTVSPropertyOp61
 70
     1
102
RTVSPropertyOp62
 70
     1
  0
XRECORD
  5
2E6
102
{ACAD_REACTORS
330
2E5
102
}
330
2E5
100
AcDbXrecord
280
     1
102
RTVSPost2010Prop28
280
     0
102
RTVSPost2010PropOp28
 70
     1
102
RTVSPost2010Prop29
280
     1
102
RTVSPost2010PropOp29
 70
     1
102
RTVSPost2010Prop30
280
     1
102
RTVSPost2010PropOp30
 70
     1
102
RTVSPost2010Prop31
280
     0
102
RTVSPost2010PropOp31
 70
     1
102
RTVSPost2010Prop32
280
     0
102
RTVSPost2010PropOp32
 70
     1
102
RTVSPost2010Prop33
280
     0
102
RTVSPost2010PropOp33
 70
     1
102
RTVSPost2010Prop34
280
     0
102
RTVSPost2010PropOp34
 70
     1
102
RTVSPost2010Prop35
280
     0
102
RTVSPost2010PropOp35
 70
     1
102
RTVSPost2010Prop36
280
     0
102
RTVSPost2010PropOp36
 70
     1
102
RTVSPost2010Prop37
 90
       50
102
RTVSPost2010PropOp37
 70
     1
102
RTVSPost2010Prop38
140
0.0
102
RTVSPost2010PropOp38
 70
     1
102
RTVSPost2010Prop39
140
1.0
102
RTVSPost2010PropOp39
 70
     1
102
RTVSPost2010Prop40
 90
        0
102
RTVSPost2010PropOp40
 70
     1
102
RTVSPost2010Prop41ColorIndex
 90
       18
102
RTVSPost2010Prop41ColorRGB
 90
        0
102
RTVSPost2010PropOp41
 70
     1
102
RTVSPost2010Prop42
 90
       50
102
RTVSPost2010PropOp42
 70
     1
102
RTVSPost2010Prop43
 90
        3
102
RTVSPost2010PropOp43
 70
     1
102
RTVSPost2010Prop44ColorIndex
 90
        5
102
RTVSPost2010Prop44ColorRGB
 90
      255
102
RTVSPost2010PropOp44
 70
     1
102
RTVSPost2010Prop45
280
     0
102
RTVSPost2010PropOp45
 70
     1
102
RTVSPost2010Prop46
 90
       50
102
RTVSPost2010PropOp46
 70
     1
102
RTVSPost2010Prop47
 90
       50
102
RTVSPost2010PropOp47
 70
     1
102
RTVSPost2010Prop48
 90
       50
102
RTVSPost2010PropOp48
 70
     1
102
RTVSPost2010Prop49
280
     0
102
RTVSPost2010PropOp49
 70
     1
102
RTVSPost2010Prop50
 90
       50
102
RTVSPost2010PropOp50
 70
     1
102
RTVSPost2010Prop51ColorIndex
 90
      256
102
RTVSPost2010Prop51ColorRGB
 90
-16777216
102
RTVSPost2010PropOp51
 70
     0
102
RTVSPost2010Prop52
140
1.0
102
RTVSPost2010PropOp52
 70
     0
102
RTVSPost2010Prop53
 90
        2
102
RTVSPost2010PropOp53
 70
     1
102
RTVSPost2010Prop54
  1
strokes_ogs.tif
102
RTVSPost2010PropOp54
 70
     1
102
RTVSPost2010Prop55
280
     0
102
RTVSPost2010PropOp55
 70
     1
102
RTVSPost2010Prop56
140
1.0
102
RTVSPost2010PropOp56
 70
     1
102
RTVSPost2010Prop57
140
1.0
102
RTVSPost2010PropOp57
 70
     1
102
RTVSPropertyOp0
 70
     1
102
RTVSPropertyOp1
 70
     1
102
RTVSPropertyOp2
 70
     1
102
RTVSPropertyOp3
 70
     1
102
RTVSPropertyOp4
 70
     1
102
RTVSPropertyOp5
 70
     1
102
RTVSPropertyOp6
 70
     1
102
RTVSPropertyOp7
 70
     1
102
RTVSPropertyOp8
 70
     1
102
RTVSPropertyOp9
 70
     1
102
RTVSPropertyOp10
 70
     1
102
RTVSPropertyOp11
 70
     1
102
RTVSPropertyOp12
 70
     1
102
RTVSPropertyOp13
 70
     1
102
RTVSPropertyOp14
 70
     1
102
RTVSPropertyOp15
 70
     1
102
RTVSPropertyOp16
 70
     1
102
RTVSPropertyOp17
 70
     1
102
RTVSPropertyOp18
 70
     1
102
RTVSPropertyOp19
 70
     1
102
RTVSPropertyOp20
 70
     1
102
RTVSPropertyOp21
 70
     1
102
RTVSPropertyOp22
 70
     1
102
RTVSPropertyOp23
 70
     1
102
RTVSPropertyOp24
 70
     1
102
RTVSPropertyOp25
 70
     1
102
RTVSPropertyOp26
 70
     1
102
RTVSPropertyOp27
 70
     1
102
RTVSPropertyOp28
 70
     1
102
RTVSPropertyOp29
 70
     1
102
RTVSPropertyOp30
 70
     1
102
RTVSPropertyOp31
 70
     1
102
RTVSPropertyOp32
 70
     1
102
RTVSPropertyOp33
 70
     1
102
RTVSPropertyOp34
 70
     1
102
RTVSPropertyOp35
 70
     1
102
RTVSPropertyOp36
 70
     1
102
RTVSPropertyOp37
 70
     1
102
RTVSPropertyOp38
 70
     1
102
RTVSPropertyOp39
 70
     1
102
RTVSPropertyOp40
 70
     1
102
RTVSPropertyOp41
 70
     1
102
RTVSPropertyOp42
 70
     1
102
RTVSPropertyOp43
 70
     1
102
RTVSPropertyOp44
 70
     1
102
RTVSPropertyOp45
 70
     1
102
RTVSPropertyOp46
 70
     1
102
RTVSPropertyOp47
 70
     1
102
RTVSPropertyOp48
 70
     1
102
RTVSPropertyOp49
 70
     1
102
RTVSPropertyOp50
 70
     1
102
RTVSPropertyOp51
 70
     0
102
RTVSPropertyOp52
 70
     0
102
RTVSPropertyOp53
 70
     1
102
RTVSPropertyOp54
 70
     1
102
RTVSPropertyOp55
 70
     1
102
RTVSPropertyOp56
 70
     1
102
RTVSPropertyOp57
 70
     1
102
RTVSPropertyOp58
 70
     1
102
RTVSPropertyOp59
 70
     1
102
RTVSPropertyOp60
 70
     1
102
RTVSPropertyOp61
 70
     1
102
RTVSPropertyOp62
 70
     1
  0
XRECORD
  5
2EE
102
{ACAD_REACTORS
330
2ED
102
}
330
2ED
100
AcDbXrecord
280
     1
102
RTVSPost2010Prop28
280
     0
102
RTVSPost2010PropOp28
 70
     1
102
RTVSPost2010Prop29
280
     1
102
RTVSPost2010PropOp29
 70
     1
102
RTVSPost2010Prop30
280
     1
102
RTVSPost2010PropOp30
 70
     1
102
RTVSPost2010Prop31
280
     0
102
RTVSPost2010PropOp31
 70
     1
102
RTVSPost2010Prop32
280
     0
102
RTVSPost2010PropOp32
 70
     1
102
RTVSPost2010Prop33
280
     0
102
RTVSPost2010PropOp33
 70
     1
102
RTVSPost2010Prop34
280
     0
102
RTVSPost2010PropOp34
 70
     1
102
RTVSPost2010Prop35
280
     0
102
RTVSPost2010PropOp35
 70
     1
102
RTVSPost2010Prop36
280
     0
102
RTVSPost2010PropOp36
 70
     1
102
RTVSPost2010Prop37
 90
       50
102
RTVSPost2010PropOp37
 70
     1
102
RTVSPost2010Prop38
140
0.0
102
RTVSPost2010PropOp38
 70
     1
102
RTVSPost2010Prop39
140
1.0
102
RTVSPost2010PropOp39
 70
     1
102
RTVSPost2010Prop40
 90
        0
102
RTVSPost2010PropOp40
 70
     1
102
RTVSPost2010Prop41ColorIndex
 90
       18
102
RTVSPost2010Prop41ColorRGB
 90
        0
102
RTVSPost2010PropOp41
 70
     1
102
RTVSPost2010Prop42
 90
       50
102
RTVSPost2010PropOp42
 70
     1
102
RTVSPost2010Prop43
 90
        3
102
RTVSPost2010PropOp43
 70
     1
102
RTVSPost2010Prop44ColorIndex
 90
        5
102
RTVSPost2010Prop44ColorRGB
 90
      255
102
RTVSPost2010PropOp44
 70
     1
102
RTVSPost2010Prop45
280
     0
102
RTVSPost2010PropOp45
 70
     1
102
RTVSPost2010Prop46
 90
       50
102
RTVSPost2010PropOp46
 70
     1
102
RTVSPost2010Prop47
 90
       50
102
RTVSPost2010PropOp47
 70
     1
102
RTVSPost2010Prop48
 90
       50
102
RTVSPost2010PropOp48
 70
     1
102
RTVSPost2010Prop49
280
     0
102
RTVSPost2010PropOp49
 70
     1
102
RTVSPost2010Prop50
 90
       50
102
RTVSPost2010PropOp50
 70
     1
102
RTVSPost2010Prop51ColorIndex
 90
      256
102
RTVSPost2010Prop51ColorRGB
 90
-16777216
102
RTVSPost2010PropOp51
 70
     0
102
RTVSPost2010Prop52
140
1.0
102
RTVSPost2010PropOp52
 70
     0
102
RTVSPost2010Prop53
 90
        2
102
RTVSPost2010PropOp53
 70
     1
102
RTVSPost2010Prop54
  1
strokes_ogs.tif
102
RTVSPost2010PropOp54
 70
     1
102
RTVSPost2010Prop55
280
     0
102
RTVSPost2010PropOp55
 70
     1
102
RTVSPost2010Prop56
140
1.0
102
RTVSPost2010PropOp56
 70
     1
102
RTVSPost2010Prop57
140
1.0
102
RTVSPost2010PropOp57
 70
     1
102
RTVSPropertyOp0
 70
     1
102
RTVSPropertyOp1
 70
     1
102
RTVSPropertyOp2
 70
     1
102
RTVSPropertyOp3
 70
     1
102
RTVSPropertyOp4
 70
     1
102
RTVSPropertyOp5
 70
     1
102
RTVSPropertyOp6
 70
     1
102
RTVSPropertyOp7
 70
     1
102
RTVSPropertyOp8
 70
     1
102
RTVSPropertyOp9
 70
     1
102
RTVSPropertyOp10
 70
     1
102
RTVSPropertyOp11
 70
     1
102
RTVSPropertyOp12
 70
     1
102
RTVSPropertyOp13
 70
     1
102
RTVSPropertyOp14
 70
     1
102
RTVSPropertyOp15
 70
     1
102
RTVSPropertyOp16
 70
     1
102
RTVSPropertyOp17
 70
     1
102
RTVSPropertyOp18
 70
     1
102
RTVSPropertyOp19
 70
     1
102
RTVSPropertyOp20
 70
     1
102
RTVSPropertyOp21
 70
     1
102
RTVSPropertyOp22
 70
     1
102
RTVSPropertyOp23
 70
     1
102
RTVSPropertyOp24
 70
     1
102
RTVSPropertyOp25
 70
     1
102
RTVSPropertyOp26
 70
     1
102
RTVSPropertyOp27
 70
     1
102
RTVSPropertyOp28
 70
     1
102
RTVSPropertyOp29
 70
     1
102
RTVSPropertyOp30
 70
     1
102
RTVSPropertyOp31
 70
     1
102
RTVSPropertyOp32
 70
     1
102
RTVSPropertyOp33
 70
     1
102
RTVSPropertyOp34
 70
     1
102
RTVSPropertyOp35
 70
     1
102
RTVSPropertyOp36
 70
     1
102
RTVSPropertyOp37
 70
     1
102
RTVSPropertyOp38
 70
     1
102
RTVSPropertyOp39
 70
     1
102
RTVSPropertyOp40
 70
     1
102
RTVSPropertyOp41
 70
     1
102
RTVSPropertyOp42
 70
     1
102
RTVSPropertyOp43
 70
     1
102
RTVSPropertyOp44
 70
     1
102
RTVSPropertyOp45
 70
     1
102
RTVSPropertyOp46
 70
     1
102
RTVSPropertyOp47
 70
     1
102
RTVSPropertyOp48
 70
     1
102
RTVSPropertyOp49
 70
     1
102
RTVSPropertyOp50
 70
     1
102
RTVSPropertyOp51
 70
     0
102
RTVSPropertyOp52
 70
     0
102
RTVSPropertyOp53
 70
     1
102
RTVSPropertyOp54
 70
     1
102
RTVSPropertyOp55
 70
     1
102
RTVSPropertyOp56
 70
     1
102
RTVSPropertyOp57
 70
     1
102
RTVSPropertyOp58
 70
     1
102
RTVSPropertyOp59
 70
     1
102
RTVSPropertyOp60
 70
     1
102
RTVSPropertyOp61
 70
     1
102
RTVSPropertyOp62
 70
     1
  0
XRECORD
  5
2E0
102
{ACAD_REACTORS
330
2DF
102
}
330
2DF
100
AcDbXrecord
280
     1
102
RTVSPost2010Prop28
280
     0
102
RTVSPost2010PropOp28
 70
     1
102
RTVSPost2010Prop29
280
     1
102
RTVSPost2010PropOp29
 70
     1
102
RTVSPost2010Prop30
280
     1
102
RTVSPost2010PropOp30
 70
     1
102
RTVSPost2010Prop31
280
     0
102
RTVSPost2010PropOp31
 70
     1
102
RTVSPost2010Prop32
280
     0
102
RTVSPost2010PropOp32
 70
     1
102
RTVSPost2010Prop33
280
     0
102
RTVSPost2010PropOp33
 70
     1
102
RTVSPost2010Prop34
280
     0
102
RTVSPost2010PropOp34
 70
     1
102
RTVSPost2010Prop35
280
     0
102
RTVSPost2010PropOp35
 70
     1
102
RTVSPost2010Prop36
280
     0
102
RTVSPost2010PropOp36
 70
     1
102
RTVSPost2010Prop37
 90
       50
102
RTVSPost2010PropOp37
 70
     1
102
RTVSPost2010Prop38
140
0.0
102
RTVSPost2010PropOp38
 70
     1
102
RTVSPost2010Prop39
140
1.0
102
RTVSPost2010PropOp39
 70
     1
102
RTVSPost2010Prop40
 90
        0
102
RTVSPost2010PropOp40
 70
     1
102
RTVSPost2010Prop41ColorIndex
 90
       18
102
RTVSPost2010Prop41ColorRGB
 90
        0
102
RTVSPost2010PropOp41
 70
     1
102
RTVSPost2010Prop42
 90
       50
102
RTVSPost2010PropOp42
 70
     1
102
RTVSPost2010Prop43
 90
        3
102
RTVSPost2010PropOp43
 70
     1
102
RTVSPost2010Prop44ColorIndex
 90
        5
102
RTVSPost2010Prop44ColorRGB
 90
      255
102
RTVSPost2010PropOp44
 70
     1
102
RTVSPost2010Prop45
280
     0
102
RTVSPost2010PropOp45
 70
     1
102
RTVSPost2010Prop46
 90
       50
102
RTVSPost2010PropOp46
 70
     1
102
RTVSPost2010Prop47
 90
       50
102
RTVSPost2010PropOp47
 70
     1
102
RTVSPost2010Prop48
 90
       50
102
RTVSPost2010PropOp48
 70
     1
102
RTVSPost2010Prop49
280
     0
102
RTVSPost2010PropOp49
 70
     1
102
RTVSPost2010Prop50
 90
       50
102
RTVSPost2010PropOp50
 70
     1
102
RTVSPost2010Prop51ColorIndex
 90
      256
102
RTVSPost2010Prop51ColorRGB
 90
-16777216
102
RTVSPost2010PropOp51
 70
     0
102
RTVSPost2010Prop52
140
1.0
102
RTVSPost2010PropOp52
 70
     0
102
RTVSPost2010Prop53
 90
        2
102
RTVSPost2010PropOp53
 70
     1
102
RTVSPost2010Prop54
  1
strokes_ogs.tif
102
RTVSPost2010PropOp54
 70
     1
102
RTVSPost2010Prop55
280
     0
102
RTVSPost2010PropOp55
 70
     1
102
RTVSPost2010Prop56
140
1.0
102
RTVSPost2010PropOp56
 70
     1
102
RTVSPost2010Prop57
140
1.0
102
RTVSPost2010PropOp57
 70
     1
102
RTVSPropertyOp0
 70
     1
102
RTVSPropertyOp1
 70
     1
102
RTVSPropertyOp2
 70
     1
102
RTVSPropertyOp3
 70
     1
102
RTVSPropertyOp4
 70
     1
102
RTVSPropertyOp5
 70
     1
102
RTVSPropertyOp6
 70
     1
102
RTVSPropertyOp7
 70
     1
102
RTVSPropertyOp8
 70
     1
102
RTVSPropertyOp9
 70
     1
102
RTVSPropertyOp10
 70
     1
102
RTVSPropertyOp11
 70
     1
102
RTVSPropertyOp12
 70
     1
102
RTVSPropertyOp13
 70
     1
102
RTVSPropertyOp14
 70
     1
102
RTVSPropertyOp15
 70
     1
102
RTVSPropertyOp16
 70
     1
102
RTVSPropertyOp17
 70
     1
102
RTVSPropertyOp18
 70
     1
102
RTVSPropertyOp19
 70
     1
102
RTVSPropertyOp20
 70
     1
102
RTVSPropertyOp21
 70
     1
102
RTVSPropertyOp22
 70
     1
102
RTVSPropertyOp23
 70
     1
102
RTVSPropertyOp24
 70
     1
102
RTVSPropertyOp25
 70
     1
102
RTVSPropertyOp26
 70
     1
102
RTVSPropertyOp27
 70
     1
102
RTVSPropertyOp28
 70
     1
102
RTVSPropertyOp29
 70
     1
102
RTVSPropertyOp30
 70
     1
102
RTVSPropertyOp31
 70
     1
102
RTVSPropertyOp32
 70
     1
102
RTVSPropertyOp33
 70
     1
102
RTVSPropertyOp34
 70
     1
102
RTVSPropertyOp35
 70
     1
102
RTVSPropertyOp36
 70
     1
102
RTVSPropertyOp37
 70
     1
102
RTVSPropertyOp38
 70
     1
102
RTVSPropertyOp39
 70
     1
102
RTVSPropertyOp40
 70
     1
102
RTVSPropertyOp41
 70
     1
102
RTVSPropertyOp42
 70
     1
102
RTVSPropertyOp43
 70
     1
102
RTVSPropertyOp44
 70
     1
102
RTVSPropertyOp45
 70
     1
102
RTVSPropertyOp46
 70
     1
102
RTVSPropertyOp47
 70
     1
102
RTVSPropertyOp48
 70
     1
102
RTVSPropertyOp49
 70
     1
102
RTVSPropertyOp50
 70
     1
102
RTVSPropertyOp51
 70
     0
102
RTVSPropertyOp52
 70
     0
102
RTVSPropertyOp53
 70
     1
102
RTVSPropertyOp54
 70
     1
102
RTVSPropertyOp55
 70
     1
102
RTVSPropertyOp56
 70
     1
102
RTVSPropertyOp57
 70
     1
102
RTVSPropertyOp58
 70
     1
102
RTVSPropertyOp59
 70
     1
102
RTVSPropertyOp60
 70
     1
102
RTVSPropertyOp61
 70
     1
102
RTVSPropertyOp62
 70
     1
  0
XRECORD
  5
2E4
102
{ACAD_REACTORS
330
2E3
102
}
330
2E3
100
AcDbXrecord
280
     1
102
RTVSPost2010Prop28
280
     0
102
RTVSPost2010PropOp28
 70
     1
102
RTVSPost2010Prop29
280
     1
102
RTVSPost2010PropOp29
 70
     1
102
RTVSPost2010Prop30
280
     1
102
RTVSPost2010PropOp30
 70
     1
102
RTVSPost2010Prop31
280
     0
102
RTVSPost2010PropOp31
 70
     1
102
RTVSPost2010Prop32
280
     0
102
RTVSPost2010PropOp32
 70
     1
102
RTVSPost2010Prop33
280
     0
102
RTVSPost2010PropOp33
 70
     1
102
RTVSPost2010Prop34
280
     0
102
RTVSPost2010PropOp34
 70
     1
102
RTVSPost2010Prop35
280
     0
102
RTVSPost2010PropOp35
 70
     1
102
RTVSPost2010Prop36
280
     0
102
RTVSPost2010PropOp36
 70
     1
102
RTVSPost2010Prop37
 90
       50
102
RTVSPost2010PropOp37
 70
     1
102
RTVSPost2010Prop38
140
0.0
102
RTVSPost2010PropOp38
 70
     1
102
RTVSPost2010Prop39
140
1.0
102
RTVSPost2010PropOp39
 70
     1
102
RTVSPost2010Prop40
 90
        0
102
RTVSPost2010PropOp40
 70
     1
102
RTVSPost2010Prop41ColorIndex
 90
       18
102
RTVSPost2010Prop41ColorRGB
 90
        0
102
RTVSPost2010PropOp41
 70
     1
102
RTVSPost2010Prop42
 90
       50
102
RTVSPost2010PropOp42
 70
     1
102
RTVSPost2010Prop43
 90
        3
102
RTVSPost2010PropOp43
 70
     1
102
RTVSPost2010Prop44ColorIndex
 90
        5
102
RTVSPost2010Prop44ColorRGB
 90
      255
102
RTVSPost2010PropOp44
 70
     1
102
RTVSPost2010Prop45
280
     0
102
RTVSPost2010PropOp45
 70
     1
102
RTVSPost2010Prop46
 90
       50
102
RTVSPost2010PropOp46
 70
     1
102
RTVSPost2010Prop47
 90
       50
102
RTVSPost2010PropOp47
 70
     1
102
RTVSPost2010Prop48
 90
       50
102
RTVSPost2010PropOp48
 70
     1
102
RTVSPost2010Prop49
280
     0
102
RTVSPost2010PropOp49
 70
     1
102
RTVSPost2010Prop50
 90
       50
102
RTVSPost2010PropOp50
 70
     1
102
RTVSPost2010Prop51ColorIndex
 90
      256
102
RTVSPost2010Prop51ColorRGB
 90
-16777216
102
RTVSPost2010PropOp51
 70
     0
102
RTVSPost2010Prop52
140
1.0
102
RTVSPost2010PropOp52
 70
     0
102
RTVSPost2010Prop53
 90
        2
102
RTVSPost2010PropOp53
 70
     1
102
RTVSPost2010Prop54
  1
strokes_ogs.tif
102
RTVSPost2010PropOp54
 70
     1
102
RTVSPost2010Prop55
280
     0
102
RTVSPost2010PropOp55
 70
     1
102
RTVSPost2010Prop56
140
1.0
102
RTVSPost2010PropOp56
 70
     1
102
RTVSPost2010Prop57
140
1.0
102
RTVSPost2010PropOp57
 70
     1
102
RTVSPropertyOp0
 70
     1
102
RTVSPropertyOp1
 70
     1
102
RTVSPropertyOp2
 70
     1
102
RTVSPropertyOp3
 70
     1
102
RTVSPropertyOp4
 70
     1
102
RTVSPropertyOp5
 70
     1
102
RTVSPropertyOp6
 70
     1
102
RTVSPropertyOp7
 70
     1
102
RTVSPropertyOp8
 70
     1
102
RTVSPropertyOp9
 70
     1
102
RTVSPropertyOp10
 70
     1
102
RTVSPropertyOp11
 70
     1
102
RTVSPropertyOp12
 70
     1
102
RTVSPropertyOp13
 70
     1
102
RTVSPropertyOp14
 70
     1
102
RTVSPropertyOp15
 70
     1
102
RTVSPropertyOp16
 70
     1
102
RTVSPropertyOp17
 70
     1
102
RTVSPropertyOp18
 70
     1
102
RTVSPropertyOp19
 70
     1
102
RTVSPropertyOp20
 70
     1
102
RTVSPropertyOp21
 70
     1
102
RTVSPropertyOp22
 70
     1
102
RTVSPropertyOp23
 70
     1
102
RTVSPropertyOp24
 70
     1
102
RTVSPropertyOp25
 70
     1
102
RTVSPropertyOp26
 70
     1
102
RTVSPropertyOp27
 70
     1
102
RTVSPropertyOp28
 70
     1
102
RTVSPropertyOp29
 70
     1
102
RTVSPropertyOp30
 70
     1
102
RTVSPropertyOp31
 70
     1
102
RTVSPropertyOp32
 70
     1
102
RTVSPropertyOp33
 70
     1
102
RTVSPropertyOp34
 70
     1
102
RTVSPropertyOp35
 70
     1
102
RTVSPropertyOp36
 70
     1
102
RTVSPropertyOp37
 70
     1
102
RTVSPropertyOp38
 70
     1
102
RTVSPropertyOp39
 70
     1
102
RTVSPropertyOp40
 70
     1
102
RTVSPropertyOp41
 70
     1
102
RTVSPropertyOp42
 70
     1
102
RTVSPropertyOp43
 70
     1
102
RTVSPropertyOp44
 70
     1
102
RTVSPropertyOp45
 70
     1
102
RTVSPropertyOp46
 70
     1
102
RTVSPropertyOp47
 70
     1
102
RTVSPropertyOp48
 70
     1
102
RTVSPropertyOp49
 70
     1
102
RTVSPropertyOp50
 70
     1
102
RTVSPropertyOp51
 70
     0
102
RTVSPropertyOp52
 70
     0
102
RTVSPropertyOp53
 70
     1
102
RTVSPropertyOp54
 70
     1
102
RTVSPropertyOp55
 70
     1
102
RTVSPropertyOp56
 70
     1
102
RTVSPropertyOp57
 70
     1
102
RTVSPropertyOp58
 70
     1
102
RTVSPropertyOp59
 70
     1
102
RTVSPropertyOp60
 70
     1
102
RTVSPropertyOp61
 70
     1
102
RTVSPropertyOp62
 70
     1
  0
XRECORD
  5
2FE
102
{ACAD_REACTORS
330
2FD
102
}
330
2FD
100
AcDbXrecord
280
     1
102
RTVSPost2010Prop28
280
     0
102
RTVSPost2010PropOp28
 70
     1
102
RTVSPost2010Prop29
280
     1
102
RTVSPost2010PropOp29
 70
     1
102
RTVSPost2010Prop30
280
     1
102
RTVSPost2010PropOp30
 70
     1
102
RTVSPost2010Prop31
280
     0
102
RTVSPost2010PropOp31
 70
     1
102
RTVSPost2010Prop32
280
     0
102
RTVSPost2010PropOp32
 70
     1
102
RTVSPost2010Prop33
280
     0
102
RTVSPost2010PropOp33
 70
     1
102
RTVSPost2010Prop34
280
     0
102
RTVSPost2010PropOp34
 70
     1
102
RTVSPost2010Prop35
280
     0
102
RTVSPost2010PropOp35
 70
     1
102
RTVSPost2010Prop36
280
     0
102
RTVSPost2010PropOp36
 70
     1
102
RTVSPost2010Prop37
 90
       50
102
RTVSPost2010PropOp37
 70
     0
102
RTVSPost2010Prop38
140
0.0
102
RTVSPost2010PropOp38
 70
     0
102
RTVSPost2010Prop39
140
1.0
102
RTVSPost2010PropOp39
 70
     0
102
RTVSPost2010Prop40
 90
        0
102
RTVSPost2010PropOp40
 70
     0
102
RTVSPost2010Prop41ColorIndex
 90
       18
102
RTVSPost2010Prop41ColorRGB
 90
        0
102
RTVSPost2010PropOp41
 70
     0
102
RTVSPost2010Prop42
 90
       50
102
RTVSPost2010PropOp42
 70
     0
102
RTVSPost2010Prop43
 90
        3
102
RTVSPost2010PropOp43
 70
     0
102
RTVSPost2010Prop44ColorIndex
 90
        5
102
RTVSPost2010Prop44ColorRGB
 90
      255
102
RTVSPost2010PropOp44
 70
     0
102
RTVSPost2010Prop45
280
     0
102
RTVSPost2010PropOp45
 70
     1
102
RTVSPost2010Prop46
 90
       50
102
RTVSPost2010PropOp46
 70
     0
102
RTVSPost2010Prop47
 90
       50
102
RTVSPost2010PropOp47
 70
     0
102
RTVSPost2010Prop48
 90
       50
102
RTVSPost2010PropOp48
 70
     0
102
RTVSPost2010Prop49
280
     0
102
RTVSPost2010PropOp49
 70
     1
102
RTVSPost2010Prop50
 90
       50
102
RTVSPost2010PropOp50
 70
     0
102
RTVSPost2010Prop51ColorIndex
 90
      256
102
RTVSPost2010Prop51ColorRGB
 90
-16777216
102
RTVSPost2010PropOp51
 70
     0
102
RTVSPost2010Prop52
140
1.0
102
RTVSPost2010PropOp52
 70
     0
102
RTVSPost2010Prop53
 90
        2
102
RTVSPost2010PropOp53
 70
     0
102
RTVSPost2010Prop54
  1
strokes_ogs.tif
102
RTVSPost2010PropOp54
 70
     0
102
RTVSPost2010Prop55
280
     0
102
RTVSPost2010PropOp55
 70
     1
102
RTVSPost2010Prop56
140
1.0
102
RTVSPost2010PropOp56
 70
     0
102
RTVSPost2010Prop57
140
1.0
102
RTVSPost2010PropOp57
 70
     0
102
RTVSPropertyOp0
 70
     0
102
RTVSPropertyOp1
 70
     0
102
RTVSPropertyOp2
 70
     0
102
RTVSPropertyOp3
 70
     0
102
RTVSPropertyOp4
 70
     0
102
RTVSPropertyOp5
 70
     0
102
RTVSPropertyOp6
 70
     0
102
RTVSPropertyOp7
 70
     0
102
RTVSPropertyOp8
 70
     0
102
RTVSPropertyOp9
 70
     0
102
RTVSPropertyOp10
 70
     0
102
RTVSPropertyOp11
 70
     0
102
RTVSPropertyOp12
 70
     0
102
RTVSPropertyOp13
 70
     0
102
RTVSPropertyOp14
 70
     2
102
RTVSPropertyOp15
 70
     0
102
RTVSPropertyOp16
 70
     0
102
RTVSPropertyOp17
 70
     0
102
RTVSPropertyOp18
 70
     0
102
RTVSPropertyOp19
 70
     0
102
RTVSPropertyOp20
 70
     0
102
RTVSPropertyOp21
 70
     0
102
RTVSPropertyOp22
 70
     0
102
RTVSPropertyOp23
 70
     0
102
RTVSPropertyOp24
 70
     0
102
RTVSPropertyOp25
 70
     0
102
RTVSPropertyOp26
 70
     0
102
RTVSPropertyOp27
 70
     0
102
RTVSPropertyOp28
 70
     1
102
RTVSPropertyOp29
 70
     1
102
RTVSPropertyOp30
 70
     1
102
RTVSPropertyOp31
 70
     1
102
RTVSPropertyOp32
 70
     1
102
RTVSPropertyOp33
 70
     1
102
RTVSPropertyOp34
 70
     1
102
RTVSPropertyOp35
 70
     1
102
RTVSPropertyOp36
 70
     1
102
RTVSPropertyOp37
 70
     0
102
RTVSPropertyOp38
 70
     0
102
RTVSPropertyOp39
 70
     0
102
RTVSPropertyOp40
 70
     0
102
RTVSPropertyOp41
 70
     0
102
RTVSPropertyOp42
 70
     0
102
RTVSPropertyOp43
 70
     0
102
RTVSPropertyOp44
 70
     0
102
RTVSPropertyOp45
 70
     1
102
RTVSPropertyOp46
 70
     0
102
RTVSPropertyOp47
 70
     0
102
RTVSPropertyOp48
 70
     0
102
RTVSPropertyOp49
 70
     1
102
RTVSPropertyOp50
 70
     0
102
RTVSPropertyOp51
 70
     0
102
RTVSPropertyOp52
 70
     0
102
RTVSPropertyOp53
 70
     0
102
RTVSPropertyOp54
 70
     0
102
RTVSPropertyOp55
 70
     1
102
RTVSPropertyOp56
 70
     0
102
RTVSPropertyOp57
 70
     0
102
RTVSPropertyOp58
 70
     0
102
RTVSPropertyOp59
 70
     0
102
RTVSPropertyOp60
 70
     0
102
RTVSPropertyOp61
 70
     0
102
RTVSPropertyOp62
 70
     0
  0
XRECORD
  5
2EC
102
{ACAD_REACTORS
330
2EB
102
}
330
2EB
100
AcDbXrecord
280
     1
102
RTVSPost2010Prop28
280
     0
102
RTVSPost2010PropOp28
 70
     1
102
RTVSPost2010Prop29
280
     1
102
RTVSPost2010PropOp29
 70
     1
102
RTVSPost2010Prop30
280
     1
102
RTVSPost2010PropOp30
 70
     1
102
RTVSPost2010Prop31
280
     0
102
RTVSPost2010PropOp31
 70
     1
102
RTVSPost2010Prop32
280
     0
102
RTVSPost2010PropOp32
 70
     1
102
RTVSPost2010Prop33
280
     0
102
RTVSPost2010PropOp33
 70
     1
102
RTVSPost2010Prop34
280
     0
102
RTVSPost2010PropOp34
 70
     1
102
RTVSPost2010Prop35
280
     0
102
RTVSPost2010PropOp35
 70
     1
102
RTVSPost2010Prop36
280
     0
102
RTVSPost2010PropOp36
 70
     1
102
RTVSPost2010Prop37
 90
       50
102
RTVSPost2010PropOp37
 70
     1
102
RTVSPost2010Prop38
140
0.0
102
RTVSPost2010PropOp38
 70
     1
102
RTVSPost2010Prop39
140
1.0
102
RTVSPost2010PropOp39
 70
     1
102
RTVSPost2010Prop40
 90
        0
102
RTVSPost2010PropOp40
 70
     1
102
RTVSPost2010Prop41ColorIndex
 90
       18
102
RTVSPost2010Prop41ColorRGB
 90
        0
102
RTVSPost2010PropOp41
 70
     1
102
RTVSPost2010Prop42
 90
       50
102
RTVSPost2010PropOp42
 70
     1
102
RTVSPost2010Prop43
 90
        3
102
RTVSPost2010PropOp43
 70
     1
102
RTVSPost2010Prop44ColorIndex
 90
        5
102
RTVSPost2010Prop44ColorRGB
 90
      255
102
RTVSPost2010PropOp44
 70
     1
102
RTVSPost2010Prop45
280
     0
102
RTVSPost2010PropOp45
 70
     1
102
RTVSPost2010Prop46
 90
       50
102
RTVSPost2010PropOp46
 70
     1
102
RTVSPost2010Prop47
 90
       50
102
RTVSPost2010PropOp47
 70
     1
102
RTVSPost2010Prop48
 90
       50
102
RTVSPost2010PropOp48
 70
     1
102
RTVSPost2010Prop49
280
     0
102
RTVSPost2010PropOp49
 70
     1
102
RTVSPost2010Prop50
 90
       50
102
RTVSPost2010PropOp50
 70
     1
102
RTVSPost2010Prop51ColorIndex
 90
      256
102
RTVSPost2010Prop51ColorRGB
 90
-16777216
102
RTVSPost2010PropOp51
 70
     0
102
RTVSPost2010Prop52
140
1.0
102
RTVSPost2010PropOp52
 70
     0
102
RTVSPost2010Prop53
 90
        2
102
RTVSPost2010PropOp53
 70
     1
102
RTVSPost2010Prop54
  1
strokes_ogs.tif
102
RTVSPost2010PropOp54
 70
     1
102
RTVSPost2010Prop55
280
     0
102
RTVSPost2010PropOp55
 70
     1
102
RTVSPost2010Prop56
140
1.0
102
RTVSPost2010PropOp56
 70
     1
102
RTVSPost2010Prop57
140
1.0
102
RTVSPost2010PropOp57
 70
     1
102
RTVSPropertyOp0
 70
     1
102
RTVSPropertyOp1
 70
     1
102
RTVSPropertyOp2
 70
     1
102
RTVSPropertyOp3
 70
     1
102
RTVSPropertyOp4
 70
     1
102
RTVSPropertyOp5
 70
     1
102
RTVSPropertyOp6
 70
     1
102
RTVSPropertyOp7
 70
     1
102
RTVSPropertyOp8
 70
     1
102
RTVSPropertyOp9
 70
     1
102
RTVSPropertyOp10
 70
     1
102
RTVSPropertyOp11
 70
     1
102
RTVSPropertyOp12
 70
     1
102
RTVSPropertyOp13
 70
     1
102
RTVSPropertyOp14
 70
     1
102
RTVSPropertyOp15
 70
     1
102
RTVSPropertyOp16
 70
     1
102
RTVSPropertyOp17
 70
     1
102
RTVSPropertyOp18
 70
     1
102
RTVSPropertyOp19
 70
     1
102
RTVSPropertyOp20
 70
     1
102
RTVSPropertyOp21
 70
     1
102
RTVSPropertyOp22
 70
     1
102
RTVSPropertyOp23
 70
     1
102
RTVSPropertyOp24
 70
     1
102
RTVSPropertyOp25
 70
     1
102
RTVSPropertyOp26
 70
     1
102
RTVSPropertyOp27
 70
     1
102
RTVSPropertyOp28
 70
     1
102
RTVSPropertyOp29
 70
     1
102
RTVSPropertyOp30
 70
     1
102
RTVSPropertyOp31
 70
     1
102
RTVSPropertyOp32
 70
     1
102
RTVSPropertyOp33
 70
     1
102
RTVSPropertyOp34
 70
     1
102
RTVSPropertyOp35
 70
     1
102
RTVSPropertyOp36
 70
     1
102
RTVSPropertyOp37
 70
     1
102
RTVSPropertyOp38
 70
     1
102
RTVSPropertyOp39
 70
     1
102
RTVSPropertyOp40
 70
     1
102
RTVSPropertyOp41
 70
     1
102
RTVSPropertyOp42
 70
     1
102
RTVSPropertyOp43
 70
     1
102
RTVSPropertyOp44
 70
     1
102
RTVSPropertyOp45
 70
     1
102
RTVSPropertyOp46
 70
     1
102
RTVSPropertyOp47
 70
     1
102
RTVSPropertyOp48
 70
     1
102
RTVSPropertyOp49
 70
     1
102
RTVSPropertyOp50
 70
     1
102
RTVSPropertyOp51
 70
     0
102
RTVSPropertyOp52
 70
     0
102
RTVSPropertyOp53
 70
     1
102
RTVSPropertyOp54
 70
     1
102
RTVSPropertyOp55
 70
     1
102
RTVSPropertyOp56
 70
     1
102
RTVSPropertyOp57
 70
     1
102
RTVSPropertyOp58
 70
     1
102
RTVSPropertyOp59
 70
     1
102
RTVSPropertyOp60
 70
     1
102
RTVSPropertyOp61
 70
     1
102
RTVSPropertyOp62
 70
     1
  0
XRECORD
  5
2D0
102
{ACAD_REACTORS
330
2CF
102
}
330
2CF
100
AcDbXrecord
280
     1
102
RTVSPost2010Prop28
280
     0
102
RTVSPost2010PropOp28
 70
     1
102
RTVSPost2010Prop29
280
     1
102
RTVSPost2010PropOp29
 70
     1
102
RTVSPost2010Prop30
280
     1
102
RTVSPost2010PropOp30
 70
     1
102
RTVSPost2010Prop31
280
     0
102
RTVSPost2010PropOp31
 70
     1
102
RTVSPost2010Prop32
280
     0
102
RTVSPost2010PropOp32
 70
     1
102
RTVSPost2010Prop33
280
     0
102
RTVSPost2010PropOp33
 70
     1
102
RTVSPost2010Prop34
280
     0
102
RTVSPost2010PropOp34
 70
     1
102
RTVSPost2010Prop35
280
     0
102
RTVSPost2010PropOp35
 70
     1
102
RTVSPost2010Prop36
280
     0
102
RTVSPost2010PropOp36
 70
     1
102
RTVSPost2010Prop37
 90
       50
102
RTVSPost2010PropOp37
 70
     1
102
RTVSPost2010Prop38
140
0.0
102
RTVSPost2010PropOp38
 70
     1
102
RTVSPost2010Prop39
140
1.0
102
RTVSPost2010PropOp39
 70
     1
102
RTVSPost2010Prop40
 90
        0
102
RTVSPost2010PropOp40
 70
     1
102
RTVSPost2010Prop41ColorIndex
 90
       18
102
RTVSPost2010Prop41ColorRGB
 90
        0
102
RTVSPost2010PropOp41
 70
     1
102
RTVSPost2010Prop42
 90
       50
102
RTVSPost2010PropOp42
 70
     1
102
RTVSPost2010Prop43
 90
        3
102
RTVSPost2010PropOp43
 70
     1
102
RTVSPost2010Prop44ColorIndex
 90
        5
102
RTVSPost2010Prop44ColorRGB
 90
      255
102
RTVSPost2010PropOp44
 70
     1
102
RTVSPost2010Prop45
280
     0
102
RTVSPost2010PropOp45
 70
     1
102
RTVSPost2010Prop46
 90
       50
102
RTVSPost2010PropOp46
 70
     1
102
RTVSPost2010Prop47
 90
       50
102
RTVSPost2010PropOp47
 70
     1
102
RTVSPost2010Prop48
 90
       50
102
RTVSPost2010PropOp48
 70
     1
102
RTVSPost2010Prop49
280
     0
102
RTVSPost2010PropOp49
 70
     1
102
RTVSPost2010Prop50
 90
       50
102
RTVSPost2010PropOp50
 70
     1
102
RTVSPost2010Prop51ColorIndex
 90
      256
102
RTVSPost2010Prop51ColorRGB
 90
-16777216
102
RTVSPost2010PropOp51
 70
     0
102
RTVSPost2010Prop52
140
1.0
102
RTVSPost2010PropOp52
 70
     0
102
RTVSPost2010Prop53
 90
        2
102
RTVSPost2010PropOp53
 70
     1
102
RTVSPost2010Prop54
  1
strokes_ogs.tif
102
RTVSPost2010PropOp54
 70
     1
102
RTVSPost2010Prop55
280
     0
102
RTVSPost2010PropOp55
 70
     1
102
RTVSPost2010Prop56
140
1.0
102
RTVSPost2010PropOp56
 70
     1
102
RTVSPost2010Prop57
140
1.0
102
RTVSPost2010PropOp57
 70
     1
102
RTVSPropertyOp0
 70
     1
102
RTVSPropertyOp1
 70
     1
102
RTVSPropertyOp2
 70
     1
102
RTVSPropertyOp3
 70
     1
102
RTVSPropertyOp4
 70
     1
102
RTVSPropertyOp5
 70
     1
102
RTVSPropertyOp6
 70
     1
102
RTVSPropertyOp7
 70
     1
102
RTVSPropertyOp8
 70
     1
102
RTVSPropertyOp9
 70
     1
102
RTVSPropertyOp10
 70
     1
102
RTVSPropertyOp11
 70
     1
102
RTVSPropertyOp12
 70
     1
102
RTVSPropertyOp13
 70
     1
102
RTVSPropertyOp14
 70
     1
102
RTVSPropertyOp15
 70
     1
102
RTVSPropertyOp16
 70
     1
102
RTVSPropertyOp17
 70
     1
102
RTVSPropertyOp18
 70
     1
102
RTVSPropertyOp19
 70
     1
102
RTVSPropertyOp20
 70
     1
102
RTVSPropertyOp21
 70
     1
102
RTVSPropertyOp22
 70
     1
102
RTVSPropertyOp23
 70
     1
102
RTVSPropertyOp24
 70
     1
102
RTVSPropertyOp25
 70
     1
102
RTVSPropertyOp26
 70
     1
102
RTVSPropertyOp27
 70
     1
102
RTVSPropertyOp28
 70
     1
102
RTVSPropertyOp29
 70
     1
102
RTVSPropertyOp30
 70
     1
102
RTVSPropertyOp31
 70
     1
102
RTVSPropertyOp32
 70
     1
102
RTVSPropertyOp33
 70
     1
102
RTVSPropertyOp34
 70
     1
102
RTVSPropertyOp35
 70
     1
102
RTVSPropertyOp36
 70
     1
102
RTVSPropertyOp37
 70
     1
102
RTVSPropertyOp38
 70
     1
102
RTVSPropertyOp39
 70
     1
102
RTVSPropertyOp40
 70
     1
102
RTVSPropertyOp41
 70
     1
102
RTVSPropertyOp42
 70
     1
102
RTVSPropertyOp43
 70
     1
102
RTVSPropertyOp44
 70
     1
102
RTVSPropertyOp45
 70
     1
102
RTVSPropertyOp46
 70
     1
102
RTVSPropertyOp47
 70
     1
102
RTVSPropertyOp48
 70
     1
102
RTVSPropertyOp49
 70
     1
102
RTVSPropertyOp50
 70
     1
102
RTVSPropertyOp51
 70
     0
102
RTVSPropertyOp52
 70
     0
102
RTVSPropertyOp53
 70
     1
102
RTVSPropertyOp54
 70
     1
102
RTVSPropertyOp55
 70
     1
102
RTVSPropertyOp56
 70
     1
102
RTVSPropertyOp57
 70
     1
102
RTVSPropertyOp58
 70
     1
102
RTVSPropertyOp59
 70
     1
102
RTVSPropertyOp60
 70
     1
102
RTVSPropertyOp61
 70
     1
102
RTVSPropertyOp62
 70
     1
  0
XRECORD
  5
2D2
102
{ACAD_REACTORS
330
2D1
102
}
330
2D1
100
AcDbXrecord
280
     1
102
RTVSPost2010Prop28
280
     0
102
RTVSPost2010PropOp28
 70
     1
102
RTVSPost2010Prop29
280
     1
102
RTVSPost2010PropOp29
 70
     1
102
RTVSPost2010Prop30
280
     1
102
RTVSPost2010PropOp30
 70
     1
102
RTVSPost2010Prop31
280
     0
102
RTVSPost2010PropOp31
 70
     1
102
RTVSPost2010Prop32
280
     0
102
RTVSPost2010PropOp32
 70
     1
102
RTVSPost2010Prop33
280
     0
102
RTVSPost2010PropOp33
 70
     1
102
RTVSPost2010Prop34
280
     0
102
RTVSPost2010PropOp34
 70
     1
102
RTVSPost2010Prop35
280
     0
102
RTVSPost2010PropOp35
 70
     1
102
RTVSPost2010Prop36
280
     0
102
RTVSPost2010PropOp36
 70
     1
102
RTVSPost2010Prop37
 90
       50
102
RTVSPost2010PropOp37
 70
     1
102
RTVSPost2010Prop38
140
0.0
102
RTVSPost2010PropOp38
 70
     1
102
RTVSPost2010Prop39
140
1.0
102
RTVSPost2010PropOp39
 70
     1
102
RTVSPost2010Prop40
 90
        0
102
RTVSPost2010PropOp40
 70
     1
102
RTVSPost2010Prop41ColorIndex
 90
       18
102
RTVSPost2010Prop41ColorRGB
 90
        0
102
RTVSPost2010PropOp41
 70
     1
102
RTVSPost2010Prop42
 90
       50
102
RTVSPost2010PropOp42
 70
     1
102
RTVSPost2010Prop43
 90
        3
102
RTVSPost2010PropOp43
 70
     1
102
RTVSPost2010Prop44ColorIndex
 90
        5
102
RTVSPost2010Prop44ColorRGB
 90
      255
102
RTVSPost2010PropOp44
 70
     1
102
RTVSPost2010Prop45
280
     0
102
RTVSPost2010PropOp45
 70
     1
102
RTVSPost2010Prop46
 90
       50
102
RTVSPost2010PropOp46
 70
     1
102
RTVSPost2010Prop47
 90
       50
102
RTVSPost2010PropOp47
 70
     1
102
RTVSPost2010Prop48
 90
       50
102
RTVSPost2010PropOp48
 70
     1
102
RTVSPost2010Prop49
280
     0
102
RTVSPost2010PropOp49
 70
     1
102
RTVSPost2010Prop50
 90
       50
102
RTVSPost2010PropOp50
 70
     1
102
RTVSPost2010Prop51ColorIndex
 90
      256
102
RTVSPost2010Prop51ColorRGB
 90
-16777216
102
RTVSPost2010PropOp51
 70
     0
102
RTVSPost2010Prop52
140
1.0
102
RTVSPost2010PropOp52
 70
     0
102
RTVSPost2010Prop53
 90
        2
102
RTVSPost2010PropOp53
 70
     1
102
RTVSPost2010Prop54
  1
strokes_ogs.tif
102
RTVSPost2010PropOp54
 70
     1
102
RTVSPost2010Prop55
280
     0
102
RTVSPost2010PropOp55
 70
     1
102
RTVSPost2010Prop56
140
1.0
102
RTVSPost2010PropOp56
 70
     1
102
RTVSPost2010Prop57
140
1.0
102
RTVSPost2010PropOp57
 70
     1
102
RTVSPropertyOp0
 70
     1
102
RTVSPropertyOp1
 70
     1
102
RTVSPropertyOp2
 70
     1
102
RTVSPropertyOp3
 70
     1
102
RTVSPropertyOp4
 70
     1
102
RTVSPropertyOp5
 70
     1
102
RTVSPropertyOp6
 70
     1
102
RTVSPropertyOp7
 70
     1
102
RTVSPropertyOp8
 70
     1
102
RTVSPropertyOp9
 70
     1
102
RTVSPropertyOp10
 70
     1
102
RTVSPropertyOp11
 70
     1
102
RTVSPropertyOp12
 70
     1
102
RTVSPropertyOp13
 70
     1
102
RTVSPropertyOp14
 70
     1
102
RTVSPropertyOp15
 70
     1
102
RTVSPropertyOp16
 70
     1
102
RTVSPropertyOp17
 70
     1
102
RTVSPropertyOp18
 70
     1
102
RTVSPropertyOp19
 70
     1
102
RTVSPropertyOp20
 70
     1
102
RTVSPropertyOp21
 70
     1
102
RTVSPropertyOp22
 70
     1
102
RTVSPropertyOp23
 70
     1
102
RTVSPropertyOp24
 70
     1
102
RTVSPropertyOp25
 70
     1
102
RTVSPropertyOp26
 70
     1
102
RTVSPropertyOp27
 70
     1
102
RTVSPropertyOp28
 70
     1
102
RTVSPropertyOp29
 70
     1
102
RTVSPropertyOp30
 70
     1
102
RTVSPropertyOp31
 70
     1
102
RTVSPropertyOp32
 70
     1
102
RTVSPropertyOp33
 70
     1
102
RTVSPropertyOp34
 70
     1
102
RTVSPropertyOp35
 70
     1
102
RTVSPropertyOp36
 70
     1
102
RTVSPropertyOp37
 70
     1
102
RTVSPropertyOp38
 70
     1
102
RTVSPropertyOp39
 70
     1
102
RTVSPropertyOp40
 70
     1
102
RTVSPropertyOp41
 70
     1
102
RTVSPropertyOp42
 70
     1
102
RTVSPropertyOp43
 70
     1
102
RTVSPropertyOp44
 70
     1
102
RTVSPropertyOp45
 70
     1
102
RTVSPropertyOp46
 70
     1
102
RTVSPropertyOp47
 70
     1
102
RTVSPropertyOp48
 70
     1
102
RTVSPropertyOp49
 70
     1
102
RTVSPropertyOp50
 70
     1
102
RTVSPropertyOp51
 70
     0
102
RTVSPropertyOp52
 70
     0
102
RTVSPropertyOp53
 70
     1
102
RTVSPropertyOp54
 70
     1
102
RTVSPropertyOp55
 70
     1
102
RTVSPropertyOp56
 70
     1
102
RTVSPropertyOp57
 70
     1
102
RTVSPropertyOp58
 70
     1
102
RTVSPropertyOp59
 70
     1
102
RTVSPropertyOp60
 70
     1
102
RTVSPropertyOp61
 70
     1
102
RTVSPropertyOp62
 70
     1
  0
XRECORD
  5
2D4
102
{ACAD_REACTORS
330
2D3
102
}
330
2D3
100
AcDbXrecord
280
     1
102
RTVSPost2010Prop28
280
     0
102
RTVSPost2010PropOp28
 70
     1
102
RTVSPost2010Prop29
280
     1
102
RTVSPost2010PropOp29
 70
     1
102
RTVSPost2010Prop30
280
     1
102
RTVSPost2010PropOp30
 70
     1
102
RTVSPost2010Prop31
280
     0
102
RTVSPost2010PropOp31
 70
     1
102
RTVSPost2010Prop32
280
     0
102
RTVSPost2010PropOp32
 70
     1
102
RTVSPost2010Prop33
280
     0
102
RTVSPost2010PropOp33
 70
     1
102
RTVSPost2010Prop34
280
     0
102
RTVSPost2010PropOp34
 70
     1
102
RTVSPost2010Prop35
280
     0
102
RTVSPost2010PropOp35
 70
     1
102
RTVSPost2010Prop36
280
     0
102
RTVSPost2010PropOp36
 70
     1
102
RTVSPost2010Prop37
 90
       50
102
RTVSPost2010PropOp37
 70
     1
102
RTVSPost2010Prop38
140
0.0
102
RTVSPost2010PropOp38
 70
     1
102
RTVSPost2010Prop39
140
1.0
102
RTVSPost2010PropOp39
 70
     1
102
RTVSPost2010Prop40
 90
        0
102
RTVSPost2010PropOp40
 70
     1
102
RTVSPost2010Prop41ColorIndex
 90
       18
102
RTVSPost2010Prop41ColorRGB
 90
        0
102
RTVSPost2010PropOp41
 70
     1
102
RTVSPost2010Prop42
 90
       50
102
RTVSPost2010PropOp42
 70
     1
102
RTVSPost2010Prop43
 90
        3
102
RTVSPost2010PropOp43
 70
     1
102
RTVSPost2010Prop44ColorIndex
 90
        5
102
RTVSPost2010Prop44ColorRGB
 90
      255
102
RTVSPost2010PropOp44
 70
     1
102
RTVSPost2010Prop45
280
     0
102
RTVSPost2010PropOp45
 70
     1
102
RTVSPost2010Prop46
 90
       50
102
RTVSPost2010PropOp46
 70
     1
102
RTVSPost2010Prop47
 90
       50
102
RTVSPost2010PropOp47
 70
     1
102
RTVSPost2010Prop48
 90
       50
102
RTVSPost2010PropOp48
 70
     1
102
RTVSPost2010Prop49
280
     0
102
RTVSPost2010PropOp49
 70
     1
102
RTVSPost2010Prop50
 90
       50
102
RTVSPost2010PropOp50
 70
     1
102
RTVSPost2010Prop51ColorIndex
 90
      256
102
RTVSPost2010Prop51ColorRGB
 90
-16777216
102
RTVSPost2010PropOp51
 70
     0
102
RTVSPost2010Prop52
140
1.0
102
RTVSPost2010PropOp52
 70
     0
102
RTVSPost2010Prop53
 90
        2
102
RTVSPost2010PropOp53
 70
     1
102
RTVSPost2010Prop54
  1
strokes_ogs.tif
102
RTVSPost2010PropOp54
 70
     1
102
RTVSPost2010Prop55
280
     0
102
RTVSPost2010PropOp55
 70
     1
102
RTVSPost2010Prop56
140
1.0
102
RTVSPost2010PropOp56
 70
     1
102
RTVSPost2010Prop57
140
1.0
102
RTVSPost2010PropOp57
 70
     1
102
RTVSPropertyOp0
 70
     1
102
RTVSPropertyOp1
 70
     1
102
RTVSPropertyOp2
 70
     1
102
RTVSPropertyOp3
 70
     1
102
RTVSPropertyOp4
 70
     1
102
RTVSPropertyOp5
 70
     1
102
RTVSPropertyOp6
 70
     1
102
RTVSPropertyOp7
 70
     1
102
RTVSPropertyOp8
 70
     1
102
RTVSPropertyOp9
 70
     1
102
RTVSPropertyOp10
 70
     1
102
RTVSPropertyOp11
 70
     1
102
RTVSPropertyOp12
 70
     1
102
RTVSPropertyOp13
 70
     1
102
RTVSPropertyOp14
 70
     1
102
RTVSPropertyOp15
 70
     1
102
RTVSPropertyOp16
 70
     1
102
RTVSPropertyOp17
 70
     1
102
RTVSPropertyOp18
 70
     1
102
RTVSPropertyOp19
 70
     1
102
RTVSPropertyOp20
 70
     1
102
RTVSPropertyOp21
 70
     1
102
RTVSPropertyOp22
 70
     1
102
RTVSPropertyOp23
 70
     1
102
RTVSPropertyOp24
 70
     1
102
RTVSPropertyOp25
 70
     1
102
RTVSPropertyOp26
 70
     1
102
RTVSPropertyOp27
 70
     1
102
RTVSPropertyOp28
 70
     1
102
RTVSPropertyOp29
 70
     1
102
RTVSPropertyOp30
 70
     1
102
RTVSPropertyOp31
 70
     1
102
RTVSPropertyOp32
 70
     1
102
RTVSPropertyOp33
 70
     1
102
RTVSPropertyOp34
 70
     1
102
RTVSPropertyOp35
 70
     1
102
RTVSPropertyOp36
 70
     1
102
RTVSPropertyOp37
 70
     1
102
RTVSPropertyOp38
 70
     1
102
RTVSPropertyOp39
 70
     1
102
RTVSPropertyOp40
 70
     1
102
RTVSPropertyOp41
 70
     1
102
RTVSPropertyOp42
 70
     1
102
RTVSPropertyOp43
 70
     1
102
RTVSPropertyOp44
 70
     1
102
RTVSPropertyOp45
 70
     1
102
RTVSPropertyOp46
 70
     1
102
RTVSPropertyOp47
 70
     1
102
RTVSPropertyOp48
 70
     1
102
RTVSPropertyOp49
 70
     1
102
RTVSPropertyOp50
 70
     1
102
RTVSPropertyOp51
 70
     0
102
RTVSPropertyOp52
 70
     0
102
RTVSPropertyOp53
 70
     1
102
RTVSPropertyOp54
 70
     1
102
RTVSPropertyOp55
 70
     1
102
RTVSPropertyOp56
 70
     1
102
RTVSPropertyOp57
 70
     1
102
RTVSPropertyOp58
 70
     1
102
RTVSPropertyOp59
 70
     1
102
RTVSPropertyOp60
 70
     1
102
RTVSPropertyOp61
 70
     1
102
RTVSPropertyOp62
 70
     1
  0
XRECORD
  5
2D6
102
{ACAD_REACTORS
330
2D5
102
}
330
2D5
100
AcDbXrecord
280
     1
102
RTVSPost2010Prop28
280
     0
102
RTVSPost2010PropOp28
 70
     1
102
RTVSPost2010Prop29
280
     1
102
RTVSPost2010PropOp29
 70
     1
102
RTVSPost2010Prop30
280
     1
102
RTVSPost2010PropOp30
 70
     1
102
RTVSPost2010Prop31
280
     0
102
RTVSPost2010PropOp31
 70
     1
102
RTVSPost2010Prop32
280
     0
102
RTVSPost2010PropOp32
 70
     1
102
RTVSPost2010Prop33
280
     0
102
RTVSPost2010PropOp33
 70
     1
102
RTVSPost2010Prop34
280
     0
102
RTVSPost2010PropOp34
 70
     1
102
RTVSPost2010Prop35
280
     0
102
RTVSPost2010PropOp35
 70
     1
102
RTVSPost2010Prop36
280
     0
102
RTVSPost2010PropOp36
 70
     1
102
RTVSPost2010Prop37
 90
       50
102
RTVSPost2010PropOp37
 70
     1
102
RTVSPost2010Prop38
140
0.0
102
RTVSPost2010PropOp38
 70
     1
102
RTVSPost2010Prop39
140
1.0
102
RTVSPost2010PropOp39
 70
     1
102
RTVSPost2010Prop40
 90
        0
102
RTVSPost2010PropOp40
 70
     1
102
RTVSPost2010Prop41ColorIndex
 90
       18
102
RTVSPost2010Prop41ColorRGB
 90
        0
102
RTVSPost2010PropOp41
 70
     1
102
RTVSPost2010Prop42
 90
       50
102
RTVSPost2010PropOp42
 70
     1
102
RTVSPost2010Prop43
 90
        3
102
RTVSPost2010PropOp43
 70
     1
102
RTVSPost2010Prop44ColorIndex
 90
        5
102
RTVSPost2010Prop44ColorRGB
 90
      255
102
RTVSPost2010PropOp44
 70
     1
102
RTVSPost2010Prop45
280
     0
102
RTVSPost2010PropOp45
 70
     1
102
RTVSPost2010Prop46
 90
       50
102
RTVSPost2010PropOp46
 70
     1
102
RTVSPost2010Prop47
 90
       50
102
RTVSPost2010PropOp47
 70
     1
102
RTVSPost2010Prop48
 90
       50
102
RTVSPost2010PropOp48
 70
     1
102
RTVSPost2010Prop49
280
     0
102
RTVSPost2010PropOp49
 70
     1
102
RTVSPost2010Prop50
 90
       50
102
RTVSPost2010PropOp50
 70
     1
102
RTVSPost2010Prop51ColorIndex
 90
      256
102
RTVSPost2010Prop51ColorRGB
 90
-16777216
102
RTVSPost2010PropOp51
 70
     0
102
RTVSPost2010Prop52
140
1.0
102
RTVSPost2010PropOp52
 70
     0
102
RTVSPost2010Prop53
 90
        2
102
RTVSPost2010PropOp53
 70
     1
102
RTVSPost2010Prop54
  1
strokes_ogs.tif
102
RTVSPost2010PropOp54
 70
     1
102
RTVSPost2010Prop55
280
     0
102
RTVSPost2010PropOp55
 70
     1
102
RTVSPost2010Prop56
140
1.0
102
RTVSPost2010PropOp56
 70
     1
102
RTVSPost2010Prop57
140
1.0
102
RTVSPost2010PropOp57
 70
     1
102
RTVSPropertyOp0
 70
     1
102
RTVSPropertyOp1
 70
     1
102
RTVSPropertyOp2
 70
     1
102
RTVSPropertyOp3
 70
     1
102
RTVSPropertyOp4
 70
     1
102
RTVSPropertyOp5
 70
     1
102
RTVSPropertyOp6
 70
     1
102
RTVSPropertyOp7
 70
     1
102
RTVSPropertyOp8
 70
     1
102
RTVSPropertyOp9
 70
     1
102
RTVSPropertyOp10
 70
     1
102
RTVSPropertyOp11
 70
     1
102
RTVSPropertyOp12
 70
     1
102
RTVSPropertyOp13
 70
     1
102
RTVSPropertyOp14
 70
     1
102
RTVSPropertyOp15
 70
     1
102
RTVSPropertyOp16
 70
     1
102
RTVSPropertyOp17
 70
     1
102
RTVSPropertyOp18
 70
     1
102
RTVSPropertyOp19
 70
     1
102
RTVSPropertyOp20
 70
     1
102
RTVSPropertyOp21
 70
     1
102
RTVSPropertyOp22
 70
     1
102
RTVSPropertyOp23
 70
     1
102
RTVSPropertyOp24
 70
     1
102
RTVSPropertyOp25
 70
     1
102
RTVSPropertyOp26
 70
     1
102
RTVSPropertyOp27
 70
     1
102
RTVSPropertyOp28
 70
     1
102
RTVSPropertyOp29
 70
     1
102
RTVSPropertyOp30
 70
     1
102
RTVSPropertyOp31
 70
     1
102
RTVSPropertyOp32
 70
     1
102
RTVSPropertyOp33
 70
     1
102
RTVSPropertyOp34
 70
     1
102
RTVSPropertyOp35
 70
     1
102
RTVSPropertyOp36
 70
     1
102
RTVSPropertyOp37
 70
     1
102
RTVSPropertyOp38
 70
     1
102
RTVSPropertyOp39
 70
     1
102
RTVSPropertyOp40
 70
     1
102
RTVSPropertyOp41
 70
     1
102
RTVSPropertyOp42
 70
     1
102
RTVSPropertyOp43
 70
     1
102
RTVSPropertyOp44
 70
     1
102
RTVSPropertyOp45
 70
     1
102
RTVSPropertyOp46
 70
     1
102
RTVSPropertyOp47
 70
     1
102
RTVSPropertyOp48
 70
     1
102
RTVSPropertyOp49
 70
     1
102
RTVSPropertyOp50
 70
     1
102
RTVSPropertyOp51
 70
     0
102
RTVSPropertyOp52
 70
     0
102
RTVSPropertyOp53
 70
     1
102
RTVSPropertyOp54
 70
     1
102
RTVSPropertyOp55
 70
     1
102
RTVSPropertyOp56
 70
     1
102
RTVSPropertyOp57
 70
     1
102
RTVSPropertyOp58
 70
     1
102
RTVSPropertyOp59
 70
     1
102
RTVSPropertyOp60
 70
     1
102
RTVSPropertyOp61
 70
     1
102
RTVSPropertyOp62
 70
     1
  0
XRECORD
  5
2DE
102
{ACAD_REACTORS
330
2DD
102
}
330
2DD
100
AcDbXrecord
280
     1
102
RTVSPost2010Prop28
280
     0
102
RTVSPost2010PropOp28
 70
     1
102
RTVSPost2010Prop29
280
     1
102
RTVSPost2010PropOp29
 70
     1
102
RTVSPost2010Prop30
280
     1
102
RTVSPost2010PropOp30
 70
     1
102
RTVSPost2010Prop31
280
     0
102
RTVSPost2010PropOp31
 70
     1
102
RTVSPost2010Prop32
280
     0
102
RTVSPost2010PropOp32
 70
     1
102
RTVSPost2010Prop33
280
     0
102
RTVSPost2010PropOp33
 70
     1
102
RTVSPost2010Prop34
280
     0
102
RTVSPost2010PropOp34
 70
     1
102
RTVSPost2010Prop35
280
     0
102
RTVSPost2010PropOp35
 70
     1
102
RTVSPost2010Prop36
280
     0
102
RTVSPost2010PropOp36
 70
     1
102
RTVSPost2010Prop37
 90
       50
102
RTVSPost2010PropOp37
 70
     1
102
RTVSPost2010Prop38
140
0.0
102
RTVSPost2010PropOp38
 70
     1
102
RTVSPost2010Prop39
140
1.0
102
RTVSPost2010PropOp39
 70
     1
102
RTVSPost2010Prop40
 90
        0
102
RTVSPost2010PropOp40
 70
     1
102
RTVSPost2010Prop41ColorIndex
 90
       18
102
RTVSPost2010Prop41ColorRGB
 90
        0
102
RTVSPost2010PropOp41
 70
     1
102
RTVSPost2010Prop42
 90
       50
102
RTVSPost2010PropOp42
 70
     1
102
RTVSPost2010Prop43
 90
        3
102
RTVSPost2010PropOp43
 70
     1
102
RTVSPost2010Prop44ColorIndex
 90
        5
102
RTVSPost2010Prop44ColorRGB
 90
      255
102
RTVSPost2010PropOp44
 70
     1
102
RTVSPost2010Prop45
280
     0
102
RTVSPost2010PropOp45
 70
     1
102
RTVSPost2010Prop46
 90
       50
102
RTVSPost2010PropOp46
 70
     1
102
RTVSPost2010Prop47
 90
       50
102
RTVSPost2010PropOp47
 70
     1
102
RTVSPost2010Prop48
 90
       50
102
RTVSPost2010PropOp48
 70
     1
102
RTVSPost2010Prop49
280
     0
102
RTVSPost2010PropOp49
 70
     1
102
RTVSPost2010Prop50
 90
       50
102
RTVSPost2010PropOp50
 70
     1
102
RTVSPost2010Prop51ColorIndex
 90
      256
102
RTVSPost2010Prop51ColorRGB
 90
-16777216
102
RTVSPost2010PropOp51
 70
     0
102
RTVSPost2010Prop52
140
1.0
102
RTVSPost2010PropOp52
 70
     0
102
RTVSPost2010Prop53
 90
        2
102
RTVSPost2010PropOp53
 70
     1
102
RTVSPost2010Prop54
  1
strokes_ogs.tif
102
RTVSPost2010PropOp54
 70
     1
102
RTVSPost2010Prop55
280
     0
102
RTVSPost2010PropOp55
 70
     1
102
RTVSPost2010Prop56
140
1.0
102
RTVSPost2010PropOp56
 70
     1
102
RTVSPost2010Prop57
140
1.0
102
RTVSPost2010PropOp57
 70
     1
102
RTVSPropertyOp0
 70
     1
102
RTVSPropertyOp1
 70
     1
102
RTVSPropertyOp2
 70
     1
102
RTVSPropertyOp3
 70
     1
102
RTVSPropertyOp4
 70
     1
102
RTVSPropertyOp5
 70
     1
102
RTVSPropertyOp6
 70
     1
102
RTVSPropertyOp7
 70
     1
102
RTVSPropertyOp8
 70
     1
102
RTVSPropertyOp9
 70
     1
102
RTVSPropertyOp10
 70
     1
102
RTVSPropertyOp11
 70
     1
102
RTVSPropertyOp12
 70
     1
102
RTVSPropertyOp13
 70
     1
102
RTVSPropertyOp14
 70
     1
102
RTVSPropertyOp15
 70
     1
102
RTVSPropertyOp16
 70
     1
102
RTVSPropertyOp17
 70
     1
102
RTVSPropertyOp18
 70
     1
102
RTVSPropertyOp19
 70
     1
102
RTVSPropertyOp20
 70
     1
102
RTVSPropertyOp21
 70
     1
102
RTVSPropertyOp22
 70
     1
102
RTVSPropertyOp23
 70
     1
102
RTVSPropertyOp24
 70
     1
102
RTVSPropertyOp25
 70
     1
102
RTVSPropertyOp26
 70
     1
102
RTVSPropertyOp27
 70
     1
102
RTVSPropertyOp28
 70
     1
102
RTVSPropertyOp29
 70
     1
102
RTVSPropertyOp30
 70
     1
102
RTVSPropertyOp31
 70
     1
102
RTVSPropertyOp32
 70
     1
102
RTVSPropertyOp33
 70
     1
102
RTVSPropertyOp34
 70
     1
102
RTVSPropertyOp35
 70
     1
102
RTVSPropertyOp36
 70
     1
102
RTVSPropertyOp37
 70
     1
102
RTVSPropertyOp38
 70
     1
102
RTVSPropertyOp39
 70
     1
102
RTVSPropertyOp40
 70
     1
102
RTVSPropertyOp41
 70
     1
102
RTVSPropertyOp42
 70
     1
102
RTVSPropertyOp43
 70
     1
102
RTVSPropertyOp44
 70
     1
102
RTVSPropertyOp45
 70
     1
102
RTVSPropertyOp46
 70
     1
102
RTVSPropertyOp47
 70
     1
102
RTVSPropertyOp48
 70
     1
102
RTVSPropertyOp49
 70
     1
102
RTVSPropertyOp50
 70
     1
102
RTVSPropertyOp51
 70
     0
102
RTVSPropertyOp52
 70
     0
102
RTVSPropertyOp53
 70
     1
102
RTVSPropertyOp54
 70
     1
102
RTVSPropertyOp55
 70
     1
102
RTVSPropertyOp56
 70
     1
102
RTVSPropertyOp57
 70
     1
102
RTVSPropertyOp58
 70
     1
102
RTVSPropertyOp59
 70
     1
102
RTVSPropertyOp60
 70
     1
102
RTVSPropertyOp61
 70
     1
102
RTVSPropertyOp62
 70
     1
  0
XRECORD
  5
2FA
102
{ACAD_REACTORS
330
2F9
102
}
330
2F9
100
AcDbXrecord
280
     1
102
RTVSPost2010Prop28
280
     0
102
RTVSPost2010PropOp28
 70
     1
102
RTVSPost2010Prop29
280
     1
102
RTVSPost2010PropOp29
 70
     1
102
RTVSPost2010Prop30
280
     1
102
RTVSPost2010PropOp30
 70
     1
102
RTVSPost2010Prop31
280
     0
102
RTVSPost2010PropOp31
 70
     1
102
RTVSPost2010Prop32
280
     0
102
RTVSPost2010PropOp32
 70
     1
102
RTVSPost2010Prop33
280
     0
102
RTVSPost2010PropOp33
 70
     1
102
RTVSPost2010Prop34
280
     0
102
RTVSPost2010PropOp34
 70
     1
102
RTVSPost2010Prop35
280
     0
102
RTVSPost2010PropOp35
 70
     1
102
RTVSPost2010Prop36
280
     0
102
RTVSPost2010PropOp36
 70
     1
102
RTVSPost2010Prop37
 90
       50
102
RTVSPost2010PropOp37
 70
     0
102
RTVSPost2010Prop38
140
0.0
102
RTVSPost2010PropOp38
 70
     0
102
RTVSPost2010Prop39
140
1.0
102
RTVSPost2010PropOp39
 70
     0
102
RTVSPost2010Prop40
 90
        0
102
RTVSPost2010PropOp40
 70
     0
102
RTVSPost2010Prop41ColorIndex
 90
       18
102
RTVSPost2010Prop41ColorRGB
 90
        0
102
RTVSPost2010PropOp41
 70
     0
102
RTVSPost2010Prop42
 90
       50
102
RTVSPost2010PropOp42
 70
     0
102
RTVSPost2010Prop43
 90
        3
102
RTVSPost2010PropOp43
 70
     0
102
RTVSPost2010Prop44ColorIndex
 90
        5
102
RTVSPost2010Prop44ColorRGB
 90
      255
102
RTVSPost2010PropOp44
 70
     0
102
RTVSPost2010Prop45
280
     0
102
RTVSPost2010PropOp45
 70
     1
102
RTVSPost2010Prop46
 90
       50
102
RTVSPost2010PropOp46
 70
     0
102
RTVSPost2010Prop47
 90
       50
102
RTVSPost2010PropOp47
 70
     0
102
RTVSPost2010Prop48
 90
       50
102
RTVSPost2010PropOp48
 70
     0
102
RTVSPost2010Prop49
280
     0
102
RTVSPost2010PropOp49
 70
     1
102
RTVSPost2010Prop50
 90
       50
102
RTVSPost2010PropOp50
 70
     0
102
RTVSPost2010Prop51ColorIndex
 90
      256
102
RTVSPost2010Prop51ColorRGB
 90
-16777216
102
RTVSPost2010PropOp51
 70
     0
102
RTVSPost2010Prop52
140
1.0
102
RTVSPost2010PropOp52
 70
     0
102
RTVSPost2010Prop53
 90
        2
102
RTVSPost2010PropOp53
 70
     0
102
RTVSPost2010Prop54
  1
strokes_ogs.tif
102
RTVSPost2010PropOp54
 70
     0
102
RTVSPost2010Prop55
280
     0
102
RTVSPost2010PropOp55
 70
     1
102
RTVSPost2010Prop56
140
1.0
102
RTVSPost2010PropOp56
 70
     0
102
RTVSPost2010Prop57
140
1.0
102
RTVSPost2010PropOp57
 70
     0
102
RTVSPropertyOp0
 70
     0
102
RTVSPropertyOp1
 70
     0
102
RTVSPropertyOp2
 70
     0
102
RTVSPropertyOp3
 70
     0
102
RTVSPropertyOp4
 70
     0
102
RTVSPropertyOp5
 70
     0
102
RTVSPropertyOp6
 70
     0
102
RTVSPropertyOp7
 70
     0
102
RTVSPropertyOp8
 70
     0
102
RTVSPropertyOp9
 70
     0
102
RTVSPropertyOp10
 70
     0
102
RTVSPropertyOp11
 70
     0
102
RTVSPropertyOp12
 70
     0
102
RTVSPropertyOp13
 70
     0
102
RTVSPropertyOp14
 70
     2
102
RTVSPropertyOp15
 70
     0
102
RTVSPropertyOp16
 70
     0
102
RTVSPropertyOp17
 70
     0
102
RTVSPropertyOp18
 70
     0
102
RTVSPropertyOp19
 70
     0
102
RTVSPropertyOp20
 70
     0
102
RTVSPropertyOp21
 70
     0
102
RTVSPropertyOp22
 70
     0
102
RTVSPropertyOp23
 70
     0
102
RTVSPropertyOp24
 70
     0
102
RTVSPropertyOp25
 70
     0
102
RTVSPropertyOp26
 70
     0
102
RTVSPropertyOp27
 70
     0
102
RTVSPropertyOp28
 70
     1
102
RTVSPropertyOp29
 70
     1
102
RTVSPropertyOp30
 70
     1
102
RTVSPropertyOp31
 70
     1
102
RTVSPropertyOp32
 70
     1
102
RTVSPropertyOp33
 70
     1
102
RTVSPropertyOp34
 70
     1
102
RTVSPropertyOp35
 70
     1
102
RTVSPropertyOp36
 70
     1
102
RTVSPropertyOp37
 70
     0
102
RTVSPropertyOp38
 70
     0
102
RTVSPropertyOp39
 70
     0
102
RTVSPropertyOp40
 70
     0
102
RTVSPropertyOp41
 70
     0
102
RTVSPropertyOp42
 70
     0
102
RTVSPropertyOp43
 70
     0
102
RTVSPropertyOp44
 70
     0
102
RTVSPropertyOp45
 70
     1
102
RTVSPropertyOp46
 70
     0
102
RTVSPropertyOp47
 70
     0
102
RTVSPropertyOp48
 70
     0
102
RTVSPropertyOp49
 70
     1
102
RTVSPropertyOp50
 70
     0
102
RTVSPropertyOp51
 70
     0
102
RTVSPropertyOp52
 70
     0
102
RTVSPropertyOp53
 70
     0
102
RTVSPropertyOp54
 70
     0
102
RTVSPropertyOp55
 70
     1
102
RTVSPropertyOp56
 70
     0
102
RTVSPropertyOp57
 70
     0
102
RTVSPropertyOp58
 70
     0
102
RTVSPropertyOp59
 70
     0
102
RTVSPropertyOp60
 70
     0
102
RTVSPropertyOp61
 70
     0
102
RTVSPropertyOp62
 70
     0
  0
XRECORD
  5
2EA
102
{ACAD_REACTORS
330
2E9
102
}
330
2E9
100
AcDbXrecord
280
     1
102
RTVSPost2010Prop28
280
     0
102
RTVSPost2010PropOp28
 70
     1
102
RTVSPost2010Prop29
280
     1
102
RTVSPost2010PropOp29
 70
     1
102
RTVSPost2010Prop30
280
     1
102
RTVSPost2010PropOp30
 70
     1
102
RTVSPost2010Prop31
280
     0
102
RTVSPost2010PropOp31
 70
     1
102
RTVSPost2010Prop32
280
     0
102
RTVSPost2010PropOp32
 70
     1
102
RTVSPost2010Prop33
280
     0
102
RTVSPost2010PropOp33
 70
     1
102
RTVSPost2010Prop34
280
     0
102
RTVSPost2010PropOp34
 70
     1
102
RTVSPost2010Prop35
280
     0
102
RTVSPost2010PropOp35
 70
     1
102
RTVSPost2010Prop36
280
     0
102
RTVSPost2010PropOp36
 70
     1
102
RTVSPost2010Prop37
 90
       50
102
RTVSPost2010PropOp37
 70
     1
102
RTVSPost2010Prop38
140
0.0
102
RTVSPost2010PropOp38
 70
     1
102
RTVSPost2010Prop39
140
1.0
102
RTVSPost2010PropOp39
 70
     1
102
RTVSPost2010Prop40
 90
        0
102
RTVSPost2010PropOp40
 70
     1
102
RTVSPost2010Prop41ColorIndex
 90
       18
102
RTVSPost2010Prop41ColorRGB
 90
        0
102
RTVSPost2010PropOp41
 70
     1
102
RTVSPost2010Prop42
 90
       50
102
RTVSPost2010PropOp42
 70
     1
102
RTVSPost2010Prop43
 90
        3
102
RTVSPost2010PropOp43
 70
     1
102
RTVSPost2010Prop44ColorIndex
 90
        5
102
RTVSPost2010Prop44ColorRGB
 90
      255
102
RTVSPost2010PropOp44
 70
     1
102
RTVSPost2010Prop45
280
     0
102
RTVSPost2010PropOp45
 70
     1
102
RTVSPost2010Prop46
 90
       50
102
RTVSPost2010PropOp46
 70
     1
102
RTVSPost2010Prop47
 90
       50
102
RTVSPost2010PropOp47
 70
     1
102
RTVSPost2010Prop48
 90
       50
102
RTVSPost2010PropOp48
 70
     1
102
RTVSPost2010Prop49
280
     0
102
RTVSPost2010PropOp49
 70
     1
102
RTVSPost2010Prop50
 90
       50
102
RTVSPost2010PropOp50
 70
     1
102
RTVSPost2010Prop51ColorIndex
 90
      256
102
RTVSPost2010Prop51ColorRGB
 90
-16777216
102
RTVSPost2010PropOp51
 70
     0
102
RTVSPost2010Prop52
140
1.0
102
RTVSPost2010PropOp52
 70
     0
102
RTVSPost2010Prop53
 90
        2
102
RTVSPost2010PropOp53
 70
     1
102
RTVSPost2010Prop54
  1
strokes_ogs.tif
102
RTVSPost2010PropOp54
 70
     1
102
RTVSPost2010Prop55
280
     0
102
RTVSPost2010PropOp55
 70
     1
102
RTVSPost2010Prop56
140
1.0
102
RTVSPost2010PropOp56
 70
     1
102
RTVSPost2010Prop57
140
1.0
102
RTVSPost2010PropOp57
 70
     1
102
RTVSPropertyOp0
 70
     1
102
RTVSPropertyOp1
 70
     1
102
RTVSPropertyOp2
 70
     1
102
RTVSPropertyOp3
 70
     1
102
RTVSPropertyOp4
 70
     1
102
RTVSPropertyOp5
 70
     1
102
RTVSPropertyOp6
 70
     1
102
RTVSPropertyOp7
 70
     1
102
RTVSPropertyOp8
 70
     1
102
RTVSPropertyOp9
 70
     1
102
RTVSPropertyOp10
 70
     1
102
RTVSPropertyOp11
 70
     1
102
RTVSPropertyOp12
 70
     1
102
RTVSPropertyOp13
 70
     1
102
RTVSPropertyOp14
 70
     1
102
RTVSPropertyOp15
 70
     1
102
RTVSPropertyOp16
 70
     1
102
RTVSPropertyOp17
 70
     1
102
RTVSPropertyOp18
 70
     1
102
RTVSPropertyOp19
 70
     1
102
RTVSPropertyOp20
 70
     1
102
RTVSPropertyOp21
 70
     1
102
RTVSPropertyOp22
 70
     1
102
RTVSPropertyOp23
 70
     1
102
RTVSPropertyOp24
 70
     1
102
RTVSPropertyOp25
 70
     1
102
RTVSPropertyOp26
 70
     1
102
RTVSPropertyOp27
 70
     1
102
RTVSPropertyOp28
 70
     1
102
RTVSPropertyOp29
 70
     1
102
RTVSPropertyOp30
 70
     1
102
RTVSPropertyOp31
 70
     1
102
RTVSPropertyOp32
 70
     1
102
RTVSPropertyOp33
 70
     1
102
RTVSPropertyOp34
 70
     1
102
RTVSPropertyOp35
 70
     1
102
RTVSPropertyOp36
 70
     1
102
RTVSPropertyOp37
 70
     1
102
RTVSPropertyOp38
 70
     1
102
RTVSPropertyOp39
 70
     1
102
RTVSPropertyOp40
 70
     1
102
RTVSPropertyOp41
 70
     1
102
RTVSPropertyOp42
 70
     1
102
RTVSPropertyOp43
 70
     1
102
RTVSPropertyOp44
 70
     1
102
RTVSPropertyOp45
 70
     1
102
RTVSPropertyOp46
 70
     1
102
RTVSPropertyOp47
 70
     1
102
RTVSPropertyOp48
 70
     1
102
RTVSPropertyOp49
 70
     1
102
RTVSPropertyOp50
 70
     1
102
RTVSPropertyOp51
 70
     0
102
RTVSPropertyOp52
 70
     0
102
RTVSPropertyOp53
 70
     1
102
RTVSPropertyOp54
 70
     1
102
RTVSPropertyOp55
 70
     1
102
RTVSPropertyOp56
 70
     1
102
RTVSPropertyOp57
 70
     1
102
RTVSPropertyOp58
 70
     1
102
RTVSPropertyOp59
 70
     1
102
RTVSPropertyOp60
 70
     1
102
RTVSPropertyOp61
 70
     1
102
RTVSPropertyOp62
 70
     1
  0
XRECORD
  5
2FC
102
{ACAD_REACTORS
330
2FB
102
}
330
2FB
100
AcDbXrecord
280
     1
102
RTVSPost2010Prop28
280
     0
102
RTVSPost2010PropOp28
 70
     1
102
RTVSPost2010Prop29
280
     1
102
RTVSPost2010PropOp29
 70
     1
102
RTVSPost2010Prop30
280
     1
102
RTVSPost2010PropOp30
 70
     1
102
RTVSPost2010Prop31
280
     0
102
RTVSPost2010PropOp31
 70
     1
102
RTVSPost2010Prop32
280
     0
102
RTVSPost2010PropOp32
 70
     1
102
RTVSPost2010Prop33
280
     0
102
RTVSPost2010PropOp33
 70
     1
102
RTVSPost2010Prop34
280
     0
102
RTVSPost2010PropOp34
 70
     1
102
RTVSPost2010Prop35
280
     0
102
RTVSPost2010PropOp35
 70
     1
102
RTVSPost2010Prop36
280
     0
102
RTVSPost2010PropOp36
 70
     1
102
RTVSPost2010Prop37
 90
       50
102
RTVSPost2010PropOp37
 70
     0
102
RTVSPost2010Prop38
140
0.0
102
RTVSPost2010PropOp38
 70
     0
102
RTVSPost2010Prop39
140
1.0
102
RTVSPost2010PropOp39
 70
     0
102
RTVSPost2010Prop40
 90
        0
102
RTVSPost2010PropOp40
 70
     0
102
RTVSPost2010Prop41ColorIndex
 90
       18
102
RTVSPost2010Prop41ColorRGB
 90
        0
102
RTVSPost2010PropOp41
 70
     0
102
RTVSPost2010Prop42
 90
       50
102
RTVSPost2010PropOp42
 70
     0
102
RTVSPost2010Prop43
 90
        3
102
RTVSPost2010PropOp43
 70
     0
102
RTVSPost2010Prop44ColorIndex
 90
        5
102
RTVSPost2010Prop44ColorRGB
 90
      255
102
RTVSPost2010PropOp44
 70
     0
102
RTVSPost2010Prop45
280
     0
102
RTVSPost2010PropOp45
 70
     1
102
RTVSPost2010Prop46
 90
       50
102
RTVSPost2010PropOp46
 70
     0
102
RTVSPost2010Prop47
 90
       50
102
RTVSPost2010PropOp47
 70
     0
102
RTVSPost2010Prop48
 90
       50
102
RTVSPost2010PropOp48
 70
     0
102
RTVSPost2010Prop49
280
     0
102
RTVSPost2010PropOp49
 70
     1
102
RTVSPost2010Prop50
 90
       50
102
RTVSPost2010PropOp50
 70
     0
102
RTVSPost2010Prop51ColorIndex
 90
      256
102
RTVSPost2010Prop51ColorRGB
 90
-16777216
102
RTVSPost2010PropOp51
 70
     0
102
RTVSPost2010Prop52
140
1.0
102
RTVSPost2010PropOp52
 70
     0
102
RTVSPost2010Prop53
 90
        2
102
RTVSPost2010PropOp53
 70
     0
102
RTVSPost2010Prop54
  1
strokes_ogs.tif
102
RTVSPost2010PropOp54
 70
     0
102
RTVSPost2010Prop55
280
     0
102
RTVSPost2010PropOp55
 70
     1
102
RTVSPost2010Prop56
140
1.0
102
RTVSPost2010PropOp56
 70
     0
102
RTVSPost2010Prop57
140
1.0
102
RTVSPost2010PropOp57
 70
     0
102
RTVSPropertyOp0
 70
     0
102
RTVSPropertyOp1
 70
     0
102
RTVSPropertyOp2
 70
     0
102
RTVSPropertyOp3
 70
     0
102
RTVSPropertyOp4
 70
     0
102
RTVSPropertyOp5
 70
     0
102
RTVSPropertyOp6
 70
     0
102
RTVSPropertyOp7
 70
     0
102
RTVSPropertyOp8
 70
     0
102
RTVSPropertyOp9
 70
     0
102
RTVSPropertyOp10
 70
     0
102
RTVSPropertyOp11
 70
     0
102
RTVSPropertyOp12
 70
     0
102
RTVSPropertyOp13
 70
     0
102
RTVSPropertyOp14
 70
     2
102
RTVSPropertyOp15
 70
     0
102
RTVSPropertyOp16
 70
     0
102
RTVSPropertyOp17
 70
     0
102
RTVSPropertyOp18
 70
     0
102
RTVSPropertyOp19
 70
     0
102
RTVSPropertyOp20
 70
     0
102
RTVSPropertyOp21
 70
     0
102
RTVSPropertyOp22
 70
     0
102
RTVSPropertyOp23
 70
     0
102
RTVSPropertyOp24
 70
     0
102
RTVSPropertyOp25
 70
     0
102
RTVSPropertyOp26
 70
     0
102
RTVSPropertyOp27
 70
     0
102
RTVSPropertyOp28
 70
     1
102
RTVSPropertyOp29
 70
     1
102
RTVSPropertyOp30
 70
     1
102
RTVSPropertyOp31
 70
     1
102
RTVSPropertyOp32
 70
     1
102
RTVSPropertyOp33
 70
     1
102
RTVSPropertyOp34
 70
     1
102
RTVSPropertyOp35
 70
     1
102
RTVSPropertyOp36
 70
     1
102
RTVSPropertyOp37
 70
     0
102
RTVSPropertyOp38
 70
     0
102
RTVSPropertyOp39
 70
     0
102
RTVSPropertyOp40
 70
     0
102
RTVSPropertyOp41
 70
     0
102
RTVSPropertyOp42
 70
     0
102
RTVSPropertyOp43
 70
     0
102
RTVSPropertyOp44
 70
     0
102
RTVSPropertyOp45
 70
     1
102
RTVSPropertyOp46
 70
     0
102
RTVSPropertyOp47
 70
     0
102
RTVSPropertyOp48
 70
     0
102
RTVSPropertyOp49
 70
     1
102
RTVSPropertyOp50
 70
     0
102
RTVSPropertyOp51
 70
     0
102
RTVSPropertyOp52
 70
     0
102
RTVSPropertyOp53
 70
     0
102
RTVSPropertyOp54
 70
     0
102
RTVSPropertyOp55
 70
     1
102
RTVSPropertyOp56
 70
     0
102
RTVSPropertyOp57
 70
     0
102
RTVSPropertyOp58
 70
     0
102
RTVSPropertyOp59
 70
     0
102
RTVSPropertyOp60
 70
     0
102
RTVSPropertyOp61
 70
     0
102
RTVSPropertyOp62
 70
     0
  0
XRECORD
  5
2E2
102
{ACAD_REACTORS
330
2E1
102
}
330
2E1
100
AcDbXrecord
280
     1
102
RTVSPost2010Prop28
280
     0
102
RTVSPost2010PropOp28
 70
     1
102
RTVSPost2010Prop29
280
     1
102
RTVSPost2010PropOp29
 70
     1
102
RTVSPost2010Prop30
280
     1
102
RTVSPost2010PropOp30
 70
     1
102
RTVSPost2010Prop31
280
     0
102
RTVSPost2010PropOp31
 70
     1
102
RTVSPost2010Prop32
280
     0
102
RTVSPost2010PropOp32
 70
     1
102
RTVSPost2010Prop33
280
     0
102
RTVSPost2010PropOp33
 70
     1
102
RTVSPost2010Prop34
280
     0
102
RTVSPost2010PropOp34
 70
     1
102
RTVSPost2010Prop35
280
     0
102
RTVSPost2010PropOp35
 70
     1
102
RTVSPost2010Prop36
280
     0
102
RTVSPost2010PropOp36
 70
     1
102
RTVSPost2010Prop37
 90
       50
102
RTVSPost2010PropOp37
 70
     1
102
RTVSPost2010Prop38
140
0.0
102
RTVSPost2010PropOp38
 70
     1
102
RTVSPost2010Prop39
140
1.0
102
RTVSPost2010PropOp39
 70
     1
102
RTVSPost2010Prop40
 90
        0
102
RTVSPost2010PropOp40
 70
     1
102
RTVSPost2010Prop41ColorIndex
 90
       18
102
RTVSPost2010Prop41ColorRGB
 90
        0
102
RTVSPost2010PropOp41
 70
     1
102
RTVSPost2010Prop42
 90
       50
102
RTVSPost2010PropOp42
 70
     1
102
RTVSPost2010Prop43
 90
        3
102
RTVSPost2010PropOp43
 70
     1
102
RTVSPost2010Prop44ColorIndex
 90
        5
102
RTVSPost2010Prop44ColorRGB
 90
      255
102
RTVSPost2010PropOp44
 70
     1
102
RTVSPost2010Prop45
280
     0
102
RTVSPost2010PropOp45
 70
     1
102
RTVSPost2010Prop46
 90
       50
102
RTVSPost2010PropOp46
 70
     1
102
RTVSPost2010Prop47
 90
       50
102
RTVSPost2010PropOp47
 70
     1
102
RTVSPost2010Prop48
 90
       50
102
RTVSPost2010PropOp48
 70
     1
102
RTVSPost2010Prop49
280
     0
102
RTVSPost2010PropOp49
 70
     1
102
RTVSPost2010Prop50
 90
       50
102
RTVSPost2010PropOp50
 70
     1
102
RTVSPost2010Prop51ColorIndex
 90
      256
102
RTVSPost2010Prop51ColorRGB
 90
-16777216
102
RTVSPost2010PropOp51
 70
     0
102
RTVSPost2010Prop52
140
1.0
102
RTVSPost2010PropOp52
 70
     0
102
RTVSPost2010Prop53
 90
        2
102
RTVSPost2010PropOp53
 70
     1
102
RTVSPost2010Prop54
  1
strokes_ogs.tif
102
RTVSPost2010PropOp54
 70
     1
102
RTVSPost2010Prop55
280
     0
102
RTVSPost2010PropOp55
 70
     1
102
RTVSPost2010Prop56
140
1.0
102
RTVSPost2010PropOp56
 70
     1
102
RTVSPost2010Prop57
140
1.0
102
RTVSPost2010PropOp57
 70
     1
102
RTVSPropertyOp0
 70
     1
102
RTVSPropertyOp1
 70
     1
102
RTVSPropertyOp2
 70
     1
102
RTVSPropertyOp3
 70
     1
102
RTVSPropertyOp4
 70
     1
102
RTVSPropertyOp5
 70
     1
102
RTVSPropertyOp6
 70
     1
102
RTVSPropertyOp7
 70
     1
102
RTVSPropertyOp8
 70
     1
102
RTVSPropertyOp9
 70
     1
102
RTVSPropertyOp10
 70
     1
102
RTVSPropertyOp11
 70
     1
102
RTVSPropertyOp12
 70
     1
102
RTVSPropertyOp13
 70
     1
102
RTVSPropertyOp14
 70
     1
102
RTVSPropertyOp15
 70
     1
102
RTVSPropertyOp16
 70
     1
102
RTVSPropertyOp17
 70
     1
102
RTVSPropertyOp18
 70
     1
102
RTVSPropertyOp19
 70
     1
102
RTVSPropertyOp20
 70
     1
102
RTVSPropertyOp21
 70
     1
102
RTVSPropertyOp22
 70
     1
102
RTVSPropertyOp23
 70
     1
102
RTVSPropertyOp24
 70
     1
102
RTVSPropertyOp25
 70
     1
102
RTVSPropertyOp26
 70
     1
102
RTVSPropertyOp27
 70
     1
102
RTVSPropertyOp28
 70
     1
102
RTVSPropertyOp29
 70
     1
102
RTVSPropertyOp30
 70
     1
102
RTVSPropertyOp31
 70
     1
102
RTVSPropertyOp32
 70
     1
102
RTVSPropertyOp33
 70
     1
102
RTVSPropertyOp34
 70
     1
102
RTVSPropertyOp35
 70
     1
102
RTVSPropertyOp36
 70
     1
102
RTVSPropertyOp37
 70
     1
102
RTVSPropertyOp38
 70
     1
102
RTVSPropertyOp39
 70
     1
102
RTVSPropertyOp40
 70
     1
102
RTVSPropertyOp41
 70
     1
102
RTVSPropertyOp42
 70
     1
102
RTVSPropertyOp43
 70
     1
102
RTVSPropertyOp44
 70
     1
102
RTVSPropertyOp45
 70
     1
102
RTVSPropertyOp46
 70
     1
102
RTVSPropertyOp47
 70
     1
102
RTVSPropertyOp48
 70
     1
102
RTVSPropertyOp49
 70
     1
102
RTVSPropertyOp50
 70
     1
102
RTVSPropertyOp51
 70
     0
102
RTVSPropertyOp52
 70
     0
102
RTVSPropertyOp53
 70
     1
102
RTVSPropertyOp54
 70
     1
102
RTVSPropertyOp55
 70
     1
102
RTVSPropertyOp56
 70
     1
102
RTVSPropertyOp57
 70
     1
102
RTVSPropertyOp58
 70
     1
102
RTVSPropertyOp59
 70
     1
102
RTVSPropertyOp60
 70
     1
102
RTVSPropertyOp61
 70
     1
102
RTVSPropertyOp62
 70
     1
  0
XRECORD
  5
2F8
102
{ACAD_REACTORS
330
2F7
102
}
330
2F7
100
AcDbXrecord
280
     1
102
RTVSPost2010Prop28
280
     0
102
RTVSPost2010PropOp28
 70
     1
102
RTVSPost2010Prop29
280
     1
102
RTVSPost2010PropOp29
 70
     1
102
RTVSPost2010Prop30
280
     1
102
RTVSPost2010PropOp30
 70
     1
102
RTVSPost2010Prop31
280
     0
102
RTVSPost2010PropOp31
 70
     1
102
RTVSPost2010Prop32
280
     0
102
RTVSPost2010PropOp32
 70
     1
102
RTVSPost2010Prop33
280
     0
102
RTVSPost2010PropOp33
 70
     1
102
RTVSPost2010Prop34
280
     0
102
RTVSPost2010PropOp34
 70
     1
102
RTVSPost2010Prop35
280
     0
102
RTVSPost2010PropOp35
 70
     1
102
RTVSPost2010Prop36
280
     0
102
RTVSPost2010PropOp36
 70
     1
102
RTVSPost2010Prop37
 90
       50
102
RTVSPost2010PropOp37
 70
     1
102
RTVSPost2010Prop38
140
0.0
102
RTVSPost2010PropOp38
 70
     1
102
RTVSPost2010Prop39
140
1.0
102
RTVSPost2010PropOp39
 70
     1
102
RTVSPost2010Prop40
 90
        0
102
RTVSPost2010PropOp40
 70
     1
102
RTVSPost2010Prop41ColorIndex
 90
       18
102
RTVSPost2010Prop41ColorRGB
 90
        0
102
RTVSPost2010PropOp41
 70
     1
102
RTVSPost2010Prop42
 90
       50
102
RTVSPost2010PropOp42
 70
     1
102
RTVSPost2010Prop43
 90
        3
102
RTVSPost2010PropOp43
 70
     1
102
RTVSPost2010Prop44ColorIndex
 90
        5
102
RTVSPost2010Prop44ColorRGB
 90
      255
102
RTVSPost2010PropOp44
 70
     1
102
RTVSPost2010Prop45
280
     0
102
RTVSPost2010PropOp45
 70
     1
102
RTVSPost2010Prop46
 90
       50
102
RTVSPost2010PropOp46
 70
     1
102
RTVSPost2010Prop47
 90
       50
102
RTVSPost2010PropOp47
 70
     1
102
RTVSPost2010Prop48
 90
       50
102
RTVSPost2010PropOp48
 70
     1
102
RTVSPost2010Prop49
280
     0
102
RTVSPost2010PropOp49
 70
     1
102
RTVSPost2010Prop50
 90
       50
102
RTVSPost2010PropOp50
 70
     1
102
RTVSPost2010Prop51ColorIndex
 90
      256
102
RTVSPost2010Prop51ColorRGB
 90
-16777216
102
RTVSPost2010PropOp51
 70
     0
102
RTVSPost2010Prop52
140
1.0
102
RTVSPost2010PropOp52
 70
     0
102
RTVSPost2010Prop53
 90
        2
102
RTVSPost2010PropOp53
 70
     1
102
RTVSPost2010Prop54
  1
strokes_ogs.tif
102
RTVSPost2010PropOp54
 70
     1
102
RTVSPost2010Prop55
280
     0
102
RTVSPost2010PropOp55
 70
     1
102
RTVSPost2010Prop56
140
1.0
102
RTVSPost2010PropOp56
 70
     1
102
RTVSPost2010Prop57
140
1.0
102
RTVSPost2010PropOp57
 70
     1
102
RTVSPropertyOp0
 70
     1
102
RTVSPropertyOp1
 70
     1
102
RTVSPropertyOp2
 70
     1
102
RTVSPropertyOp3
 70
     1
102
RTVSPropertyOp4
 70
     1
102
RTVSPropertyOp5
 70
     1
102
RTVSPropertyOp6
 70
     1
102
RTVSPropertyOp7
 70
     1
102
RTVSPropertyOp8
 70
     1
102
RTVSPropertyOp9
 70
     1
102
RTVSPropertyOp10
 70
     1
102
RTVSPropertyOp11
 70
     1
102
RTVSPropertyOp12
 70
     1
102
RTVSPropertyOp13
 70
     1
102
RTVSPropertyOp14
 70
     1
102
RTVSPropertyOp15
 70
     1
102
RTVSPropertyOp16
 70
     1
102
RTVSPropertyOp17
 70
     1
102
RTVSPropertyOp18
 70
     1
102
RTVSPropertyOp19
 70
     1
102
RTVSPropertyOp20
 70
     1
102
RTVSPropertyOp21
 70
     1
102
RTVSPropertyOp22
 70
     1
102
RTVSPropertyOp23
 70
     1
102
RTVSPropertyOp24
 70
     1
102
RTVSPropertyOp25
 70
     1
102
RTVSPropertyOp26
 70
     1
102
RTVSPropertyOp27
 70
     1
102
RTVSPropertyOp28
 70
     1
102
RTVSPropertyOp29
 70
     1
102
RTVSPropertyOp30
 70
     1
102
RTVSPropertyOp31
 70
     1
102
RTVSPropertyOp32
 70
     1
102
RTVSPropertyOp33
 70
     1
102
RTVSPropertyOp34
 70
     1
102
RTVSPropertyOp35
 70
     1
102
RTVSPropertyOp36
 70
     1
102
RTVSPropertyOp37
 70
     1
102
RTVSPropertyOp38
 70
     1
102
RTVSPropertyOp39
 70
     1
102
RTVSPropertyOp40
 70
     1
102
RTVSPropertyOp41
 70
     1
102
RTVSPropertyOp42
 70
     1
102
RTVSPropertyOp43
 70
     1
102
RTVSPropertyOp44
 70
     1
102
RTVSPropertyOp45
 70
     1
102
RTVSPropertyOp46
 70
     1
102
RTVSPropertyOp47
 70
     1
102
RTVSPropertyOp48
 70
     1
102
RTVSPropertyOp49
 70
     1
102
RTVSPropertyOp50
 70
     1
102
RTVSPropertyOp51
 70
     0
102
RTVSPropertyOp52
 70
     0
102
RTVSPropertyOp53
 70
     1
102
RTVSPropertyOp54
 70
     1
102
RTVSPropertyOp55
 70
     1
102
RTVSPropertyOp56
 70
     1
102
RTVSPropertyOp57
 70
     1
102
RTVSPropertyOp58
 70
     1
102
RTVSPropertyOp59
 70
     1
102
RTVSPropertyOp60
 70
     1
102
RTVSPropertyOp61
 70
     1
102
RTVSPropertyOp62
 70
     1
  0
XRECORD
  5
2F6
102
{ACAD_REACTORS
330
2F5
102
}
330
2F5
100
AcDbXrecord
280
     1
102
RTVSPost2010Prop28
280
     0
102
RTVSPost2010PropOp28
 70
     1
102
RTVSPost2010Prop29
280
     1
102
RTVSPost2010PropOp29
 70
     1
102
RTVSPost2010Prop30
280
     1
102
RTVSPost2010PropOp30
 70
     1
102
RTVSPost2010Prop31
280
     0
102
RTVSPost2010PropOp31
 70
     1
102
RTVSPost2010Prop32
280
     0
102
RTVSPost2010PropOp32
 70
     1
102
RTVSPost2010Prop33
280
     0
102
RTVSPost2010PropOp33
 70
     1
102
RTVSPost2010Prop34
280
     0
102
RTVSPost2010PropOp34
 70
     1
102
RTVSPost2010Prop35
280
     0
102
RTVSPost2010PropOp35
 70
     1
102
RTVSPost2010Prop36
280
     0
102
RTVSPost2010PropOp36
 70
     1
102
RTVSPost2010Prop37
 90
       50
102
RTVSPost2010PropOp37
 70
     1
102
RTVSPost2010Prop38
140
0.0
102
RTVSPost2010PropOp38
 70
     1
102
RTVSPost2010Prop39
140
1.0
102
RTVSPost2010PropOp39
 70
     1
102
RTVSPost2010Prop40
 90
        0
102
RTVSPost2010PropOp40
 70
     1
102
RTVSPost2010Prop41ColorIndex
 90
       18
102
RTVSPost2010Prop41ColorRGB
 90
        0
102
RTVSPost2010PropOp41
 70
     1
102
RTVSPost2010Prop42
 90
       50
102
RTVSPost2010PropOp42
 70
     1
102
RTVSPost2010Prop43
 90
        3
102
RTVSPost2010PropOp43
 70
     1
102
RTVSPost2010Prop44ColorIndex
 90
        5
102
RTVSPost2010Prop44ColorRGB
 90
      255
102
RTVSPost2010PropOp44
 70
     1
102
RTVSPost2010Prop45
280
     0
102
RTVSPost2010PropOp45
 70
     1
102
RTVSPost2010Prop46
 90
       50
102
RTVSPost2010PropOp46
 70
     1
102
RTVSPost2010Prop47
 90
       50
102
RTVSPost2010PropOp47
 70
     1
102
RTVSPost2010Prop48
 90
       50
102
RTVSPost2010PropOp48
 70
     1
102
RTVSPost2010Prop49
280
     0
102
RTVSPost2010PropOp49
 70
     1
102
RTVSPost2010Prop50
 90
       50
102
RTVSPost2010PropOp50
 70
     1
102
RTVSPost2010Prop51ColorIndex
 90
      256
102
RTVSPost2010Prop51ColorRGB
 90
-16777216
102
RTVSPost2010PropOp51
 70
     0
102
RTVSPost2010Prop52
140
1.0
102
RTVSPost2010PropOp52
 70
     0
102
RTVSPost2010Prop53
 90
        2
102
RTVSPost2010PropOp53
 70
     1
102
RTVSPost2010Prop54
  1
strokes_ogs.tif
102
RTVSPost2010PropOp54
 70
     1
102
RTVSPost2010Prop55
280
     0
102
RTVSPost2010PropOp55
 70
     1
102
RTVSPost2010Prop56
140
1.0
102
RTVSPost2010PropOp56
 70
     1
102
RTVSPost2010Prop57
140
1.0
102
RTVSPost2010PropOp57
 70
     1
102
RTVSPropertyOp0
 70
     1
102
RTVSPropertyOp1
 70
     1
102
RTVSPropertyOp2
 70
     1
102
RTVSPropertyOp3
 70
     1
102
RTVSPropertyOp4
 70
     1
102
RTVSPropertyOp5
 70
     1
102
RTVSPropertyOp6
 70
     1
102
RTVSPropertyOp7
 70
     1
102
RTVSPropertyOp8
 70
     1
102
RTVSPropertyOp9
 70
     1
102
RTVSPropertyOp10
 70
     1
102
RTVSPropertyOp11
 70
     1
102
RTVSPropertyOp12
 70
     1
102
RTVSPropertyOp13
 70
     1
102
RTVSPropertyOp14
 70
     1
102
RTVSPropertyOp15
 70
     1
102
RTVSPropertyOp16
 70
     1
102
RTVSPropertyOp17
 70
     1
102
RTVSPropertyOp18
 70
     1
102
RTVSPropertyOp19
 70
     1
102
RTVSPropertyOp20
 70
     1
102
RTVSPropertyOp21
 70
     1
102
RTVSPropertyOp22
 70
     1
102
RTVSPropertyOp23
 70
     1
102
RTVSPropertyOp24
 70
     1
102
RTVSPropertyOp25
 70
     1
102
RTVSPropertyOp26
 70
     1
102
RTVSPropertyOp27
 70
     1
102
RTVSPropertyOp28
 70
     1
102
RTVSPropertyOp29
 70
     1
102
RTVSPropertyOp30
 70
     1
102
RTVSPropertyOp31
 70
     1
102
RTVSPropertyOp32
 70
     1
102
RTVSPropertyOp33
 70
     1
102
RTVSPropertyOp34
 70
     1
102
RTVSPropertyOp35
 70
     1
102
RTVSPropertyOp36
 70
     1
102
RTVSPropertyOp37
 70
     1
102
RTVSPropertyOp38
 70
     1
102
RTVSPropertyOp39
 70
     1
102
RTVSPropertyOp40
 70
     1
102
RTVSPropertyOp41
 70
     1
102
RTVSPropertyOp42
 70
     1
102
RTVSPropertyOp43
 70
     1
102
RTVSPropertyOp44
 70
     1
102
RTVSPropertyOp45
 70
     1
102
RTVSPropertyOp46
 70
     1
102
RTVSPropertyOp47
 70
     1
102
RTVSPropertyOp48
 70
     1
102
RTVSPropertyOp49
 70
     1
102
RTVSPropertyOp50
 70
     1
102
RTVSPropertyOp51
 70
     0
102
RTVSPropertyOp52
 70
     0
102
RTVSPropertyOp53
 70
     1
102
RTVSPropertyOp54
 70
     1
102
RTVSPropertyOp55
 70
     1
102
RTVSPropertyOp56
 70
     1
102
RTVSPropertyOp57
 70
     1
102
RTVSPropertyOp58
 70
     1
102
RTVSPropertyOp59
 70
     1
102
RTVSPropertyOp60
 70
     1
102
RTVSPropertyOp61
 70
     1
102
RTVSPropertyOp62
 70
     1
  0
XRECORD
  5
2F0
102
{ACAD_REACTORS
330
2EF
102
}
330
2EF
100
AcDbXrecord
280
     1
102
RTVSPost2010Prop28
280
     0
102
RTVSPost2010PropOp28
 70
     1
102
RTVSPost2010Prop29
280
     1
102
RTVSPost2010PropOp29
 70
     1
102
RTVSPost2010Prop30
280
     1
102
RTVSPost2010PropOp30
 70
     1
102
RTVSPost2010Prop31
280
     0
102
RTVSPost2010PropOp31
 70
     1
102
RTVSPost2010Prop32
280
     0
102
RTVSPost2010PropOp32
 70
     1
102
RTVSPost2010Prop33
280
     0
102
RTVSPost2010PropOp33
 70
     1
102
RTVSPost2010Prop34
280
     0
102
RTVSPost2010PropOp34
 70
     1
102
RTVSPost2010Prop35
280
     0
102
RTVSPost2010PropOp35
 70
     1
102
RTVSPost2010Prop36
280
     0
102
RTVSPost2010PropOp36
 70
     1
102
RTVSPost2010Prop37
 90
       50
102
RTVSPost2010PropOp37
 70
     1
102
RTVSPost2010Prop38
140
0.0
102
RTVSPost2010PropOp38
 70
     1
102
RTVSPost2010Prop39
140
1.0
102
RTVSPost2010PropOp39
 70
     1
102
RTVSPost2010Prop40
 90
        0
102
RTVSPost2010PropOp40
 70
     1
102
RTVSPost2010Prop41ColorIndex
 90
       18
102
RTVSPost2010Prop41ColorRGB
 90
        0
102
RTVSPost2010PropOp41
 70
     1
102
RTVSPost2010Prop42
 90
       50
102
RTVSPost2010PropOp42
 70
     1
102
RTVSPost2010Prop43
 90
        3
102
RTVSPost2010PropOp43
 70
     1
102
RTVSPost2010Prop44ColorIndex
 90
        5
102
RTVSPost2010Prop44ColorRGB
 90
      255
102
RTVSPost2010PropOp44
 70
     1
102
RTVSPost2010Prop45
280
     0
102
RTVSPost2010PropOp45
 70
     1
102
RTVSPost2010Prop46
 90
       50
102
RTVSPost2010PropOp46
 70
     1
102
RTVSPost2010Prop47
 90
       50
102
RTVSPost2010PropOp47
 70
     1
102
RTVSPost2010Prop48
 90
       50
102
RTVSPost2010PropOp48
 70
     1
102
RTVSPost2010Prop49
280
     0
102
RTVSPost2010PropOp49
 70
     1
102
RTVSPost2010Prop50
 90
       50
102
RTVSPost2010PropOp50
 70
     1
102
RTVSPost2010Prop51ColorIndex
 90
      256
102
RTVSPost2010Prop51ColorRGB
 90
-16777216
102
RTVSPost2010PropOp51
 70
     0
102
RTVSPost2010Prop52
140
1.0
102
RTVSPost2010PropOp52
 70
     0
102
RTVSPost2010Prop53
 90
        2
102
RTVSPost2010PropOp53
 70
     1
102
RTVSPost2010Prop54
  1
strokes_ogs.tif
102
RTVSPost2010PropOp54
 70
     1
102
RTVSPost2010Prop55
280
     0
102
RTVSPost2010PropOp55
 70
     1
102
RTVSPost2010Prop56
140
1.0
102
RTVSPost2010PropOp56
 70
     1
102
RTVSPost2010Prop57
140
1.0
102
RTVSPost2010PropOp57
 70
     1
102
RTVSPropertyOp0
 70
     1
102
RTVSPropertyOp1
 70
     1
102
RTVSPropertyOp2
 70
     1
102
RTVSPropertyOp3
 70
     1
102
RTVSPropertyOp4
 70
     1
102
RTVSPropertyOp5
 70
     1
102
RTVSPropertyOp6
 70
     1
102
RTVSPropertyOp7
 70
     1
102
RTVSPropertyOp8
 70
     1
102
RTVSPropertyOp9
 70
     1
102
RTVSPropertyOp10
 70
     1
102
RTVSPropertyOp11
 70
     1
102
RTVSPropertyOp12
 70
     1
102
RTVSPropertyOp13
 70
     1
102
RTVSPropertyOp14
 70
     1
102
RTVSPropertyOp15
 70
     1
102
RTVSPropertyOp16
 70
     1
102
RTVSPropertyOp17
 70
     1
102
RTVSPropertyOp18
 70
     1
102
RTVSPropertyOp19
 70
     1
102
RTVSPropertyOp20
 70
     1
102
RTVSPropertyOp21
 70
     1
102
RTVSPropertyOp22
 70
     1
102
RTVSPropertyOp23
 70
     1
102
RTVSPropertyOp24
 70
     1
102
RTVSPropertyOp25
 70
     1
102
RTVSPropertyOp26
 70
     1
102
RTVSPropertyOp27
 70
     1
102
RTVSPropertyOp28
 70
     1
102
RTVSPropertyOp29
 70
     1
102
RTVSPropertyOp30
 70
     1
102
RTVSPropertyOp31
 70
     1
102
RTVSPropertyOp32
 70
     1
102
RTVSPropertyOp33
 70
     1
102
RTVSPropertyOp34
 70
     1
102
RTVSPropertyOp35
 70
     1
102
RTVSPropertyOp36
 70
     1
102
RTVSPropertyOp37
 70
     1
102
RTVSPropertyOp38
 70
     1
102
RTVSPropertyOp39
 70
     1
102
RTVSPropertyOp40
 70
     1
102
RTVSPropertyOp41
 70
     1
102
RTVSPropertyOp42
 70
     1
102
RTVSPropertyOp43
 70
     1
102
RTVSPropertyOp44
 70
     1
102
RTVSPropertyOp45
 70
     1
102
RTVSPropertyOp46
 70
     1
102
RTVSPropertyOp47
 70
     1
102
RTVSPropertyOp48
 70
     1
102
RTVSPropertyOp49
 70
     1
102
RTVSPropertyOp50
 70
     1
102
RTVSPropertyOp51
 70
     0
102
RTVSPropertyOp52
 70
     0
102
RTVSPropertyOp53
 70
     1
102
RTVSPropertyOp54
 70
     1
102
RTVSPropertyOp55
 70
     1
102
RTVSPropertyOp56
 70
     1
102
RTVSPropertyOp57
 70
     1
102
RTVSPropertyOp58
 70
     1
102
RTVSPropertyOp59
 70
     1
102
RTVSPropertyOp60
 70
     1
102
RTVSPropertyOp61
 70
     1
102
RTVSPropertyOp62
 70
     1
  0
XRECORD
  5
2F2
102
{ACAD_REACTORS
330
2F1
102
}
330
2F1
100
AcDbXrecord
280
     1
102
RTVSPost2010Prop28
280
     0
102
RTVSPost2010PropOp28
 70
     1
102
RTVSPost2010Prop29
280
     1
102
RTVSPost2010PropOp29
 70
     1
102
RTVSPost2010Prop30
280
     1
102
RTVSPost2010PropOp30
 70
     1
102
RTVSPost2010Prop31
280
     0
102
RTVSPost2010PropOp31
 70
     1
102
RTVSPost2010Prop32
280
     0
102
RTVSPost2010PropOp32
 70
     1
102
RTVSPost2010Prop33
280
     0
102
RTVSPost2010PropOp33
 70
     1
102
RTVSPost2010Prop34
280
     0
102
RTVSPost2010PropOp34
 70
     1
102
RTVSPost2010Prop35
280
     0
102
RTVSPost2010PropOp35
 70
     1
102
RTVSPost2010Prop36
280
     0
102
RTVSPost2010PropOp36
 70
     1
102
RTVSPost2010Prop37
 90
       50
102
RTVSPost2010PropOp37
 70
     1
102
RTVSPost2010Prop38
140
0.0
102
RTVSPost2010PropOp38
 70
     1
102
RTVSPost2010Prop39
140
1.0
102
RTVSPost2010PropOp39
 70
     1
102
RTVSPost2010Prop40
 90
        0
102
RTVSPost2010PropOp40
 70
     1
102
RTVSPost2010Prop41ColorIndex
 90
       18
102
RTVSPost2010Prop41ColorRGB
 90
        0
102
RTVSPost2010PropOp41
 70
     1
102
RTVSPost2010Prop42
 90
       50
102
RTVSPost2010PropOp42
 70
     1
102
RTVSPost2010Prop43
 90
        3
102
RTVSPost2010PropOp43
 70
     1
102
RTVSPost2010Prop44ColorIndex
 90
        5
102
RTVSPost2010Prop44ColorRGB
 90
      255
102
RTVSPost2010PropOp44
 70
     1
102
RTVSPost2010Prop45
280
     0
102
RTVSPost2010PropOp45
 70
     1
102
RTVSPost2010Prop46
 90
       50
102
RTVSPost2010PropOp46
 70
     1
102
RTVSPost2010Prop47
 90
       50
102
RTVSPost2010PropOp47
 70
     1
102
RTVSPost2010Prop48
 90
       50
102
RTVSPost2010PropOp48
 70
     1
102
RTVSPost2010Prop49
280
     0
102
RTVSPost2010PropOp49
 70
     1
102
RTVSPost2010Prop50
 90
       50
102
RTVSPost2010PropOp50
 70
     1
102
RTVSPost2010Prop51ColorIndex
 90
      256
102
RTVSPost2010Prop51ColorRGB
 90
-16777216
102
RTVSPost2010PropOp51
 70
     0
102
RTVSPost2010Prop52
140
1.0
102
RTVSPost2010PropOp52
 70
     0
102
RTVSPost2010Prop53
 90
        2
102
RTVSPost2010PropOp53
 70
     1
102
RTVSPost2010Prop54
  1
strokes_ogs.tif
102
RTVSPost2010PropOp54
 70
     1
102
RTVSPost2010Prop55
280
     0
102
RTVSPost2010PropOp55
 70
     1
102
RTVSPost2010Prop56
140
1.0
102
RTVSPost2010PropOp56
 70
     1
102
RTVSPost2010Prop57
140
1.0
102
RTVSPost2010PropOp57
 70
     1
102
RTVSPropertyOp0
 70
     1
102
RTVSPropertyOp1
 70
     1
102
RTVSPropertyOp2
 70
     1
102
RTVSPropertyOp3
 70
     1
102
RTVSPropertyOp4
 70
     1
102
RTVSPropertyOp5
 70
     1
102
RTVSPropertyOp6
 70
     1
102
RTVSPropertyOp7
 70
     1
102
RTVSPropertyOp8
 70
     1
102
RTVSPropertyOp9
 70
     1
102
RTVSPropertyOp10
 70
     1
102
RTVSPropertyOp11
 70
     1
102
RTVSPropertyOp12
 70
     1
102
RTVSPropertyOp13
 70
     1
102
RTVSPropertyOp14
 70
     1
102
RTVSPropertyOp15
 70
     1
102
RTVSPropertyOp16
 70
     1
102
RTVSPropertyOp17
 70
     1
102
RTVSPropertyOp18
 70
     1
102
RTVSPropertyOp19
 70
     1
102
RTVSPropertyOp20
 70
     1
102
RTVSPropertyOp21
 70
     1
102
RTVSPropertyOp22
 70
     1
102
RTVSPropertyOp23
 70
     1
102
RTVSPropertyOp24
 70
     1
102
RTVSPropertyOp25
 70
     1
102
RTVSPropertyOp26
 70
     1
102
RTVSPropertyOp27
 70
     1
102
RTVSPropertyOp28
 70
     1
102
RTVSPropertyOp29
 70
     1
102
RTVSPropertyOp30
 70
     1
102
RTVSPropertyOp31
 70
     1
102
RTVSPropertyOp32
 70
     1
102
RTVSPropertyOp33
 70
     1
102
RTVSPropertyOp34
 70
     1
102
RTVSPropertyOp35
 70
     1
102
RTVSPropertyOp36
 70
     1
102
RTVSPropertyOp37
 70
     1
102
RTVSPropertyOp38
 70
     1
102
RTVSPropertyOp39
 70
     1
102
RTVSPropertyOp40
 70
     1
102
RTVSPropertyOp41
 70
     1
102
RTVSPropertyOp42
 70
     1
102
RTVSPropertyOp43
 70
     1
102
RTVSPropertyOp44
 70
     1
102
RTVSPropertyOp45
 70
     1
102
RTVSPropertyOp46
 70
     1
102
RTVSPropertyOp47
 70
     1
102
RTVSPropertyOp48
 70
     1
102
RTVSPropertyOp49
 70
     1
102
RTVSPropertyOp50
 70
     1
102
RTVSPropertyOp51
 70
     0
102
RTVSPropertyOp52
 70
     0
102
RTVSPropertyOp53
 70
     1
102
RTVSPropertyOp54
 70
     1
102
RTVSPropertyOp55
 70
     1
102
RTVSPropertyOp56
 70
     1
102
RTVSPropertyOp57
 70
     1
102
RTVSPropertyOp58
 70
     1
102
RTVSPropertyOp59
 70
     1
102
RTVSPropertyOp60
 70
     1
102
RTVSPropertyOp61
 70
     1
102
RTVSPropertyOp62
 70
     1
  0
XRECORD
  5
2E8
102
{ACAD_REACTORS
330
2E7
102
}
330
2E7
100
AcDbXrecord
280
     1
102
RTVSPost2010Prop28
280
     0
102
RTVSPost2010PropOp28
 70
     1
102
RTVSPost2010Prop29
280
     1
102
RTVSPost2010PropOp29
 70
     1
102
RTVSPost2010Prop30
280
     1
102
RTVSPost2010PropOp30
 70
     1
102
RTVSPost2010Prop31
280
     0
102
RTVSPost2010PropOp31
 70
     1
102
RTVSPost2010Prop32
280
     0
102
RTVSPost2010PropOp32
 70
     1
102
RTVSPost2010Prop33
280
     0
102
RTVSPost2010PropOp33
 70
     1
102
RTVSPost2010Prop34
280
     0
102
RTVSPost2010PropOp34
 70
     1
102
RTVSPost2010Prop35
280
     0
102
RTVSPost2010PropOp35
 70
     1
102
RTVSPost2010Prop36
280
     0
102
RTVSPost2010PropOp36
 70
     1
102
RTVSPost2010Prop37
 90
       50
102
RTVSPost2010PropOp37
 70
     1
102
RTVSPost2010Prop38
140
0.0
102
RTVSPost2010PropOp38
 70
     1
102
RTVSPost2010Prop39
140
1.0
102
RTVSPost2010PropOp39
 70
     1
102
RTVSPost2010Prop40
 90
        0
102
RTVSPost2010PropOp40
 70
     1
102
RTVSPost2010Prop41ColorIndex
 90
       18
102
RTVSPost2010Prop41ColorRGB
 90
        0
102
RTVSPost2010PropOp41
 70
     1
102
RTVSPost2010Prop42
 90
       50
102
RTVSPost2010PropOp42
 70
     1
102
RTVSPost2010Prop43
 90
        3
102
RTVSPost2010PropOp43
 70
     1
102
RTVSPost2010Prop44ColorIndex
 90
        5
102
RTVSPost2010Prop44ColorRGB
 90
      255
102
RTVSPost2010PropOp44
 70
     1
102
RTVSPost2010Prop45
280
     0
102
RTVSPost2010PropOp45
 70
     1
102
RTVSPost2010Prop46
 90
       50
102
RTVSPost2010PropOp46
 70
     1
102
RTVSPost2010Prop47
 90
       50
102
RTVSPost2010PropOp47
 70
     1
102
RTVSPost2010Prop48
 90
       50
102
RTVSPost2010PropOp48
 70
     1
102
RTVSPost2010Prop49
280
     0
102
RTVSPost2010PropOp49
 70
     1
102
RTVSPost2010Prop50
 90
       50
102
RTVSPost2010PropOp50
 70
     1
102
RTVSPost2010Prop51ColorIndex
 90
      256
102
RTVSPost2010Prop51ColorRGB
 90
-16777216
102
RTVSPost2010PropOp51
 70
     0
102
RTVSPost2010Prop52
140
1.0
102
RTVSPost2010PropOp52
 70
     0
102
RTVSPost2010Prop53
 90
        2
102
RTVSPost2010PropOp53
 70
     1
102
RTVSPost2010Prop54
  1
strokes_ogs.tif
102
RTVSPost2010PropOp54
 70
     1
102
RTVSPost2010Prop55
280
     0
102
RTVSPost2010PropOp55
 70
     1
102
RTVSPost2010Prop56
140
1.0
102
RTVSPost2010PropOp56
 70
     1
102
RTVSPost2010Prop57
140
1.0
102
RTVSPost2010PropOp57
 70
     1
102
RTVSPropertyOp0
 70
     1
102
RTVSPropertyOp1
 70
     1
102
RTVSPropertyOp2
 70
     1
102
RTVSPropertyOp3
 70
     1
102
RTVSPropertyOp4
 70
     1
102
RTVSPropertyOp5
 70
     1
102
RTVSPropertyOp6
 70
     1
102
RTVSPropertyOp7
 70
     1
102
RTVSPropertyOp8
 70
     1
102
RTVSPropertyOp9
 70
     1
102
RTVSPropertyOp10
 70
     1
102
RTVSPropertyOp11
 70
     1
102
RTVSPropertyOp12
 70
     1
102
RTVSPropertyOp13
 70
     1
102
RTVSPropertyOp14
 70
     1
102
RTVSPropertyOp15
 70
     1
102
RTVSPropertyOp16
 70
     1
102
RTVSPropertyOp17
 70
     1
102
RTVSPropertyOp18
 70
     1
102
RTVSPropertyOp19
 70
     1
102
RTVSPropertyOp20
 70
     1
102
RTVSPropertyOp21
 70
     1
102
RTVSPropertyOp22
 70
     1
102
RTVSPropertyOp23
 70
     1
102
RTVSPropertyOp24
 70
     1
102
RTVSPropertyOp25
 70
     1
102
RTVSPropertyOp26
 70
     1
102
RTVSPropertyOp27
 70
     1
102
RTVSPropertyOp28
 70
     1
102
RTVSPropertyOp29
 70
     1
102
RTVSPropertyOp30
 70
     1
102
RTVSPropertyOp31
 70
     1
102
RTVSPropertyOp32
 70
     1
102
RTVSPropertyOp33
 70
     1
102
RTVSPropertyOp34
 70
     1
102
RTVSPropertyOp35
 70
     1
102
RTVSPropertyOp36
 70
     1
102
RTVSPropertyOp37
 70
     1
102
RTVSPropertyOp38
 70
     1
102
RTVSPropertyOp39
 70
     1
102
RTVSPropertyOp40
 70
     1
102
RTVSPropertyOp41
 70
     1
102
RTVSPropertyOp42
 70
     1
102
RTVSPropertyOp43
 70
     1
102
RTVSPropertyOp44
 70
     1
102
RTVSPropertyOp45
 70
     1
102
RTVSPropertyOp46
 70
     1
102
RTVSPropertyOp47
 70
     1
102
RTVSPropertyOp48
 70
     1
102
RTVSPropertyOp49
 70
     1
102
RTVSPropertyOp50
 70
     1
102
RTVSPropertyOp51
 70
     0
102
RTVSPropertyOp52
 70
     0
102
RTVSPropertyOp53
 70
     1
102
RTVSPropertyOp54
 70
     1
102
RTVSPropertyOp55
 70
     1
102
RTVSPropertyOp56
 70
     1
102
RTVSPropertyOp57
 70
     1
102
RTVSPropertyOp58
 70
     1
102
RTVSPropertyOp59
 70
     1
102
RTVSPropertyOp60
 70
     1
102
RTVSPropertyOp61
 70
     1
102
RTVSPropertyOp62
 70
     1
  0
XRECORD
  5
2DC
102
{ACAD_REACTORS
330
2DB
102
}
330
2DB
100
AcDbXrecord
280
     1
102
RTVSPost2010Prop28
280
     0
102
RTVSPost2010PropOp28
 70
     1
102
RTVSPost2010Prop29
280
     1
102
RTVSPost2010PropOp29
 70
     1
102
RTVSPost2010Prop30
280
     1
102
RTVSPost2010PropOp30
 70
     1
102
RTVSPost2010Prop31
280
     0
102
RTVSPost2010PropOp31
 70
     1
102
RTVSPost2010Prop32
280
     0
102
RTVSPost2010PropOp32
 70
     1
102
RTVSPost2010Prop33
280
     0
102
RTVSPost2010PropOp33
 70
     1
102
RTVSPost2010Prop34
280
     0
102
RTVSPost2010PropOp34
 70
     1
102
RTVSPost2010Prop35
280
     0
102
RTVSPost2010PropOp35
 70
     1
102
RTVSPost2010Prop36
280
     0
102
RTVSPost2010PropOp36
 70
     1
102
RTVSPost2010Prop37
 90
       50
102
RTVSPost2010PropOp37
 70
     1
102
RTVSPost2010Prop38
140
0.0
102
RTVSPost2010PropOp38
 70
     1
102
RTVSPost2010Prop39
140
1.0
102
RTVSPost2010PropOp39
 70
     1
102
RTVSPost2010Prop40
 90
        0
102
RTVSPost2010PropOp40
 70
     1
102
RTVSPost2010Prop41ColorIndex
 90
       18
102
RTVSPost2010Prop41ColorRGB
 90
        0
102
RTVSPost2010PropOp41
 70
     1
102
RTVSPost2010Prop42
 90
       50
102
RTVSPost2010PropOp42
 70
     1
102
RTVSPost2010Prop43
 90
        3
102
RTVSPost2010PropOp43
 70
     1
102
RTVSPost2010Prop44ColorIndex
 90
        5
102
RTVSPost2010Prop44ColorRGB
 90
      255
102
RTVSPost2010PropOp44
 70
     1
102
RTVSPost2010Prop45
280
     0
102
RTVSPost2010PropOp45
 70
     1
102
RTVSPost2010Prop46
 90
       50
102
RTVSPost2010PropOp46
 70
     1
102
RTVSPost2010Prop47
 90
       50
102
RTVSPost2010PropOp47
 70
     1
102
RTVSPost2010Prop48
 90
       50
102
RTVSPost2010PropOp48
 70
     1
102
RTVSPost2010Prop49
280
     0
102
RTVSPost2010PropOp49
 70
     1
102
RTVSPost2010Prop50
 90
       50
102
RTVSPost2010PropOp50
 70
     1
102
RTVSPost2010Prop51ColorIndex
 90
      256
102
RTVSPost2010Prop51ColorRGB
 90
-16777216
102
RTVSPost2010PropOp51
 70
     0
102
RTVSPost2010Prop52
140
1.0
102
RTVSPost2010PropOp52
 70
     0
102
RTVSPost2010Prop53
 90
        2
102
RTVSPost2010PropOp53
 70
     1
102
RTVSPost2010Prop54
  1
strokes_ogs.tif
102
RTVSPost2010PropOp54
 70
     1
102
RTVSPost2010Prop55
280
     0
102
RTVSPost2010PropOp55
 70
     1
102
RTVSPost2010Prop56
140
1.0
102
RTVSPost2010PropOp56
 70
     1
102
RTVSPost2010Prop57
140
1.0
102
RTVSPost2010PropOp57
 70
     1
102
RTVSPropertyOp0
 70
     1
102
RTVSPropertyOp1
 70
     1
102
RTVSPropertyOp2
 70
     1
102
RTVSPropertyOp3
 70
     1
102
RTVSPropertyOp4
 70
     1
102
RTVSPropertyOp5
 70
     1
102
RTVSPropertyOp6
 70
     1
102
RTVSPropertyOp7
 70
     1
102
RTVSPropertyOp8
 70
     1
102
RTVSPropertyOp9
 70
     1
102
RTVSPropertyOp10
 70
     1
102
RTVSPropertyOp11
 70
     1
102
RTVSPropertyOp12
 70
     1
102
RTVSPropertyOp13
 70
     1
102
RTVSPropertyOp14
 70
     1
102
RTVSPropertyOp15
 70
     1
102
RTVSPropertyOp16
 70
     1
102
RTVSPropertyOp17
 70
     1
102
RTVSPropertyOp18
 70
     1
102
RTVSPropertyOp19
 70
     1
102
RTVSPropertyOp20
 70
     1
102
RTVSPropertyOp21
 70
     1
102
RTVSPropertyOp22
 70
     1
102
RTVSPropertyOp23
 70
     1
102
RTVSPropertyOp24
 70
     1
102
RTVSPropertyOp25
 70
     1
102
RTVSPropertyOp26
 70
     1
102
RTVSPropertyOp27
 70
     1
102
RTVSPropertyOp28
 70
     1
102
RTVSPropertyOp29
 70
     1
102
RTVSPropertyOp30
 70
     1
102
RTVSPropertyOp31
 70
     1
102
RTVSPropertyOp32
 70
     1
102
RTVSPropertyOp33
 70
     1
102
RTVSPropertyOp34
 70
     1
102
RTVSPropertyOp35
 70
     1
102
RTVSPropertyOp36
 70
     1
102
RTVSPropertyOp37
 70
     1
102
RTVSPropertyOp38
 70
     1
102
RTVSPropertyOp39
 70
     1
102
RTVSPropertyOp40
 70
     1
102
RTVSPropertyOp41
 70
     1
102
RTVSPropertyOp42
 70
     1
102
RTVSPropertyOp43
 70
     1
102
RTVSPropertyOp44
 70
     1
102
RTVSPropertyOp45
 70
     1
102
RTVSPropertyOp46
 70
     1
102
RTVSPropertyOp47
 70
     1
102
RTVSPropertyOp48
 70
     1
102
RTVSPropertyOp49
 70
     1
102
RTVSPropertyOp50
 70
     1
102
RTVSPropertyOp51
 70
     0
102
RTVSPropertyOp52
 70
     0
102
RTVSPropertyOp53
 70
     1
102
RTVSPropertyOp54
 70
     1
102
RTVSPropertyOp55
 70
     1
102
RTVSPropertyOp56
 70
     1
102
RTVSPropertyOp57
 70
     1
102
RTVSPropertyOp58
 70
     1
102
RTVSPropertyOp59
 70
     1
102
RTVSPropertyOp60
 70
     1
102
RTVSPropertyOp61
 70
     1
102
RTVSPropertyOp62
 70
     1
  0
XRECORD
  5
2F4
102
{ACAD_REACTORS
330
2F3
102
}
330
2F3
100
AcDbXrecord
280
     1
102
RTVSPost2010Prop28
280
     0
102
RTVSPost2010PropOp28
 70
     1
102
RTVSPost2010Prop29
280
     1
102
RTVSPost2010PropOp29
 70
     1
102
RTVSPost2010Prop30
280
     1
102
RTVSPost2010PropOp30
 70
     1
102
RTVSPost2010Prop31
280
     0
102
RTVSPost2010PropOp31
 70
     1
102
RTVSPost2010Prop32
280
     0
102
RTVSPost2010PropOp32
 70
     1
102
RTVSPost2010Prop33
280
     0
102
RTVSPost2010PropOp33
 70
     1
102
RTVSPost2010Prop34
280
     0
102
RTVSPost2010PropOp34
 70
     1
102
RTVSPost2010Prop35
280
     0
102
RTVSPost2010PropOp35
 70
     1
102
RTVSPost2010Prop36
280
     0
102
RTVSPost2010PropOp36
 70
     1
102
RTVSPost2010Prop37
 90
       50
102
RTVSPost2010PropOp37
 70
     1
102
RTVSPost2010Prop38
140
0.0
102
RTVSPost2010PropOp38
 70
     1
102
RTVSPost2010Prop39
140
1.0
102
RTVSPost2010PropOp39
 70
     1
102
RTVSPost2010Prop40
 90
        0
102
RTVSPost2010PropOp40
 70
     1
102
RTVSPost2010Prop41ColorIndex
 90
       18
102
RTVSPost2010Prop41ColorRGB
 90
        0
102
RTVSPost2010PropOp41
 70
     1
102
RTVSPost2010Prop42
 90
       50
102
RTVSPost2010PropOp42
 70
     1
102
RTVSPost2010Prop43
 90
        3
102
RTVSPost2010PropOp43
 70
     1
102
RTVSPost2010Prop44ColorIndex
 90
        5
102
RTVSPost2010Prop44ColorRGB
 90
      255
102
RTVSPost2010PropOp44
 70
     1
102
RTVSPost2010Prop45
280
     0
102
RTVSPost2010PropOp45
 70
     1
102
RTVSPost2010Prop46
 90
       50
102
RTVSPost2010PropOp46
 70
     1
102
RTVSPost2010Prop47
 90
       50
102
RTVSPost2010PropOp47
 70
     1
102
RTVSPost2010Prop48
 90
       50
102
RTVSPost2010PropOp48
 70
     1
102
RTVSPost2010Prop49
280
     0
102
RTVSPost2010PropOp49
 70
     1
102
RTVSPost2010Prop50
 90
       50
102
RTVSPost2010PropOp50
 70
     1
102
RTVSPost2010Prop51ColorIndex
 90
      256
102
RTVSPost2010Prop51ColorRGB
 90
-16777216
102
RTVSPost2010PropOp51
 70
     0
102
RTVSPost2010Prop52
140
1.0
102
RTVSPost2010PropOp52
 70
     0
102
RTVSPost2010Prop53
 90
        2
102
RTVSPost2010PropOp53
 70
     1
102
RTVSPost2010Prop54
  1
strokes_ogs.tif
102
RTVSPost2010PropOp54
 70
     1
102
RTVSPost2010Prop55
280
     0
102
RTVSPost2010PropOp55
 70
     1
102
RTVSPost2010Prop56
140
1.0
102
RTVSPost2010PropOp56
 70
     1
102
RTVSPost2010Prop57
140
1.0
102
RTVSPost2010PropOp57
 70
     1
102
RTVSPropertyOp0
 70
     1
102
RTVSPropertyOp1
 70
     1
102
RTVSPropertyOp2
 70
     1
102
RTVSPropertyOp3
 70
     1
102
RTVSPropertyOp4
 70
     1
102
RTVSPropertyOp5
 70
     1
102
RTVSPropertyOp6
 70
     1
102
RTVSPropertyOp7
 70
     1
102
RTVSPropertyOp8
 70
     1
102
RTVSPropertyOp9
 70
     1
102
RTVSPropertyOp10
 70
     1
102
RTVSPropertyOp11
 70
     1
102
RTVSPropertyOp12
 70
     1
102
RTVSPropertyOp13
 70
     1
102
RTVSPropertyOp14
 70
     1
102
RTVSPropertyOp15
 70
     1
102
RTVSPropertyOp16
 70
     1
102
RTVSPropertyOp17
 70
     1
102
RTVSPropertyOp18
 70
     1
102
RTVSPropertyOp19
 70
     1
102
RTVSPropertyOp20
 70
     1
102
RTVSPropertyOp21
 70
     1
102
RTVSPropertyOp22
 70
     1
102
RTVSPropertyOp23
 70
     1
102
RTVSPropertyOp24
 70
     1
102
RTVSPropertyOp25
 70
     1
102
RTVSPropertyOp26
 70
     1
102
RTVSPropertyOp27
 70
     1
102
RTVSPropertyOp28
 70
     1
102
RTVSPropertyOp29
 70
     1
102
RTVSPropertyOp30
 70
     1
102
RTVSPropertyOp31
 70
     1
102
RTVSPropertyOp32
 70
     1
102
RTVSPropertyOp33
 70
     1
102
RTVSPropertyOp34
 70
     1
102
RTVSPropertyOp35
 70
     1
102
RTVSPropertyOp36
 70
     1
102
RTVSPropertyOp37
 70
     1
102
RTVSPropertyOp38
 70
     1
102
RTVSPropertyOp39
 70
     1
102
RTVSPropertyOp40
 70
     1
102
RTVSPropertyOp41
 70
     1
102
RTVSPropertyOp42
 70
     1
102
RTVSPropertyOp43
 70
     1
102
RTVSPropertyOp44
 70
     1
102
RTVSPropertyOp45
 70
     1
102
RTVSPropertyOp46
 70
     1
102
RTVSPropertyOp47
 70
     1
102
RTVSPropertyOp48
 70
     1
102
RTVSPropertyOp49
 70
     1
102
RTVSPropertyOp50
 70
     1
102
RTVSPropertyOp51
 70
     0
102
RTVSPropertyOp52
 70
     0
102
RTVSPropertyOp53
 70
     1
102
RTVSPropertyOp54
 70
     1
102
RTVSPropertyOp55
 70
     1
102
RTVSPropertyOp56
 70
     1
102
RTVSPropertyOp57
 70
     1
102
RTVSPropertyOp58
 70
     1
102
RTVSPropertyOp59
 70
     1
102
RTVSPropertyOp60
 70
     1
102
RTVSPropertyOp61
 70
     1
102
RTVSPropertyOp62
 70
     1
  0
ENDSEC
  0
EOF
