  0
SECTION
  2
HEADER
  9
$ACADVER
  1
AC1018
  9
$ACADMAINTVER
 70
   104
  9
$DWGCODEPAGE
  3
ANSI_932
  9
$INSBASE
 10
0.0
 20
0.0
 30
0.0
  9
$EXTMIN
 10
1.401765784477419
 20
0.9521019910243211
 30
-0.0000000000112498
  9
$EXTMAX
 10
51.40372773804862
 20
25.58368274847207
 30
0.0000000000002956
  9
$LIMMIN
 10
-7.802724090086712
 20
-5.240718038693557
  9
$LIMMAX
 10
60.84960099982902
 20
30.42174694445282
  9
$ORTHOMODE
 70
     0
  9
$REGENMODE
 70
     1
  9
$FILLMODE
 70
     1
  9
$QTEXTMODE
 70
     0
  9
$MIRRTEXT
 70
     0
  9
$LTSCALE
 40
1.0
  9
$ATTMODE
 70
     1
  9
$TEXTSIZE
 40
2.5
  9
$TRACEWID
 40
1.0
  9
$TEXTSTYLE
  7
Standard
  9
$CLAYER
  8
0
  9
$CELTYPE
  6
ByLayer
  9
$CECOLOR
 62
   256
  9
$CELTSCALE
 40
1.0
  9
$DISPSILH
 70
     0
  9
$DIMSCALE
 40
1.0
  9
$DIMASZ
 40
2.5
  9
$DIMEXO
 40
0.625
  9
$DIMDLI
 40
3.75
  9
$DIMRND
 40
0.0
  9
$DIMDLE
 40
0.0
  9
$DIMEXE
 40
1.25
  9
$DIMTP
 40
0.0
  9
$DIMTM
 40
0.0
  9
$DIMTXT
 40
2.5
  9
$DIMCEN
 40
2.5
  9
$DIMTSZ
 40
0.0
  9
$DIMTOL
 70
     0
  9
$DIMLIM
 70
     0
  9
$DIMTIH
 70
     0
  9
$DIMTOH
 70
     0
  9
$DIMSE1
 70
     0
  9
$DIMSE2
 70
     0
  9
$DIMTAD
 70
     1
  9
$DIMZIN
 70
     8
  9
$DIMBLK
  1

  9
$DIMASO
 70
     1
  9
$DIMSHO
 70
     1
  9
$DIMPOST
  1

  9
$DIMAPOST
  1

  9
$DIMALT
 70
     0
  9
$DIMALTD
 70
     3
  9
$DIMALTF
 40
0.03937007874016
  9
$DIMLFAC
 40
1.0
  9
$DIMTOFL
 70
     1
  9
$DIMTVP
 40
0.0
  9
$DIMTIX
 70
     0
  9
$DIMSOXD
 70
     0
  9
$DIMSAH
 70
     0
  9
$DIMBLK1
  1

  9
$DIMBLK2
  1

  9
$DIMSTYLE
  2
ISO-25
  9
$DIMCLRD
 70
     0
  9
$DIMCLRE
 70
     0
  9
$DIMCLRT
 70
     0
  9
$DIMTFAC
 40
1.0
  9
$DIMGAP
 40
0.625
  9
$DIMJUST
 70
     0
  9
$DIMSD1
 70
     0
  9
$DIMSD2
 70
     0
  9
$DIMTOLJ
 70
     0
  9
$DIMTZIN
 70
     8
  9
$DIMALTZ
 70
     0
  9
$DIMALTTZ
 70
     0
  9
$DIMUPT
 70
     0
  9
$DIMDEC
 70
     2
  9
$DIMTDEC
 70
     2
  9
$DIMALTU
 70
     2
  9
$DIMALTTD
 70
     3
  9
$DIMTXSTY
  7
Standard
  9
$DIMAUNIT
 70
     0
  9
$DIMADEC
 70
     0
  9
$DIMALTRND
 40
0.0
  9
$DIMAZIN
 70
     0
  9
$DIMDSEP
 70
    44
  9
$DIMATFIT
 70
     3
  9
$DIMFRAC
 70
     0
  9
$DIMLDRBLK
  1

  9
$DIMLUNIT
 70
     2
  9
$DIMLWD
 70
    -2
  9
$DIMLWE
 70
    -2
  9
$DIMTMOVE
 70
     0
  9
$LUNITS
 70
     2
  9
$LUPREC
 70
     4
  9
$SKETCHINC
 40
1.0
  9
$FILLETRAD
 40
0.0
  9
$AUNITS
 70
     0
  9
$AUPREC
 70
     0
  9
$MENU
  1
.
  9
$ELEVATION
 40
0.0
  9
$PELEVATION
 40
0.0
  9
$THICKNESS
 40
0.0
  9
$LIMCHECK
 70
     0
  9
$CHAMFERA
 40
0.0
  9
$CHAMFERB
 40
0.0
  9
$CHAMFERC
 40
0.0
  9
$CHAMFERD
 40
0.0
  9
$SKPOLY
 70
     0
  9
$TDCREATE
 40
2458197.649120370
  9
$TDUCREATE
 40
2458197.315787037
  9
$TDUPDATE
 40
2458940.372395833
  9
$TDUUPDATE
 40
2458940.039062500
  9
$TDINDWG
 40
0.0356018519
  9
$TDUSRTIMER
 40
0.0356018519
  9
$USRTIMER
 70
     1
  9
$ANGBASE
 50
0.0
  9
$ANGDIR
 70
     0
  9
$PDMODE
 70
     0
  9
$PDSIZE
 40
0.0
  9
$PLINEWID
 40
0.0
  9
$SPLFRAME
 70
     0
  9
$SPLINETYPE
 70
     6
  9
$SPLINESEGS
 70
     8
  9
$HANDSEED
  5
424
  9
$SURFTAB1
 70
     6
  9
$SURFTAB2
 70
     6
  9
$SURFTYPE
 70
     6
  9
$SURFU
 70
     6
  9
$SURFV
 70
     6
  9
$UCSBASE
  2

  9
$UCSNAME
  2

  9
$UCSORG
 10
0.0
 20
0.0
 30
0.0
  9
$UCSXDIR
 10
1.0
 20
0.0
 30
0.0
  9
$UCSYDIR
 10
0.0
 20
1.0
 30
0.0
  9
$UCSORTHOREF
  2

  9
$UCSORTHOVIEW
 70
     0
  9
$UCSORGTOP
 10
0.0
 20
0.0
 30
0.0
  9
$UCSORGBOTTOM
 10
0.0
 20
0.0
 30
0.0
  9
$UCSORGLEFT
 10
0.0
 20
0.0
 30
0.0
  9
$UCSORGRIGHT
 10
0.0
 20
0.0
 30
0.0
  9
$UCSORGFRONT
 10
0.0
 20
0.0
 30
0.0
  9
$UCSORGBACK
 10
0.0
 20
0.0
 30
0.0
  9
$PUCSBASE
  2

  9
$PUCSNAME
  2

  9
$PUCSORG
 10
0.0
 20
0.0
 30
0.0
  9
$PUCSXDIR
 10
1.0
 20
0.0
 30
0.0
  9
$PUCSYDIR
 10
0.0
 20
1.0
 30
0.0
  9
$PUCSORTHOREF
  2

  9
$PUCSORTHOVIEW
 70
     0
  9
$PUCSORGTOP
 10
0.0
 20
0.0
 30
0.0
  9
$PUCSORGBOTTOM
 10
0.0
 20
0.0
 30
0.0
  9
$PUCSORGLEFT
 10
0.0
 20
0.0
 30
0.0
  9
$PUCSORGRIGHT
 10
0.0
 20
0.0
 30
0.0
  9
$PUCSORGFRONT
 10
0.0
 20
0.0
 30
0.0
  9
$PUCSORGBACK
 10
0.0
 20
0.0
 30
0.0
  9
$USERI1
 70
     0
  9
$USERI2
 70
     0
  9
$USERI3
 70
     0
  9
$USERI4
 70
     0
  9
$USERI5
 70
     0
  9
$USERR1
 40
0.0
  9
$USERR2
 40
0.0
  9
$USERR3
 40
0.0
  9
$USERR4
 40
0.0
  9
$USERR5
 40
0.0
  9
$WORLDVIEW
 70
     1
  9
$SHADEDGE
 70
     3
  9
$SHADEDIF
 70
    70
  9
$TILEMODE
 70
     1
  9
$MAXACTVP
 70
    64
  9
$PINSBASE
 10
0.0
 20
0.0
 30
0.0
  9
$PLIMCHECK
 70
     0
  9
$PEXTMIN
 10
0.0
 20
0.0
 30
0.0
  9
$PEXTMAX
 10
0.0
 20
0.0
 30
0.0
  9
$PLIMMIN
 10
0.0
 20
0.0
  9
$PLIMMAX
 10
12.0
 20
9.0
  9
$UNITMODE
 70
     0
  9
$VISRETAIN
 70
     1
  9
$PLINEGEN
 70
     0
  9
$PSLTSCALE
 70
     1
  9
$TREEDEPTH
 70
  3020
  9
$CMLSTYLE
  2
Standard
  9
$CMLJUST
 70
     0
  9
$CMLSCALE
 40
20.0
  9
$PROXYGRAPHICS
 70
     1
  9
$MEASUREMENT
 70
     1
  9
$CELWEIGHT
370
    -1
  9
$ENDCAPS
280
     0
  9
$JOINSTYLE
280
     0
  9
$LWDISPLAY
290
     0
  9
$INSUNITS
 70
     4
  9
$HYPERLINKBASE
  1

  9
$STYLESHEET
  1

  9
$XEDIT
290
     1
  9
$CEPSNTYPE
380
     0
  9
$PSTYLEMODE
290
     1
  9
$FINGERPRINTGUID
  2
{0D8C1C81-1118-124D-99F4-44AAB1AAE7D1}
  9
$VERSIONGUID
  2
{F76DDB16-8F77-A445-84D4-973C53745D77}
  9
$EXTNAMES
290
     1
  9
$PSVPSCALE
 40
0.0
  9
$OLESTARTUP
290
     0
  9
$SORTENTS
280
   127
  9
$INDEXCTL
280
     0
  9
$HIDETEXT
280
     1
  9
$XCLIPFRAME
290
     0
  9
$HALOGAP
280
     0
  9
$OBSCOLOR
 70
   257
  9
$OBSLTYPE
280
     0
  9
$INTERSECTIONDISPLAY
280
     0
  9
$INTERSECTIONCOLOR
 70
   257
  9
$DIMASSOC
280
     2
  9
$PROJECTNAME
  1

  0
ENDSEC
  0
SECTION
  2
CLASSES
  0
CLASS
  1
ACDBDICTIONARYWDFLT
  2
AcDbDictionaryWithDefault
  3
ObjectDBX Classes
 90
        0
 91
        1
280
     0
281
     0
  0
CLASS
  1
DICTIONARYVAR
  2
AcDbDictionaryVar
  3
ObjectDBX Classes
 90
        0
 91
       12
280
     0
281
     0
  0
CLASS
  1
TABLESTYLE
  2
AcDbTableStyle
  3
ObjectDBX Classes
 90
     4095
 91
        1
280
     0
281
     0
  0
CLASS
  1
MATERIAL
  2
AcDbMaterial
  3
ObjectDBX Classes
 90
     1153
 91
        3
280
     0
281
     0
  0
CLASS
  1
VISUALSTYLE
  2
AcDbVisualStyle
  3
ObjectDBX Classes
 90
     4095
 91
        3
280
     0
281
     0
  0
CLASS
  1
SCALE
  2
AcDbScale
  3
ObjectDBX Classes
 90
     1153
 91
       17
280
     0
281
     0
  0
CLASS
  1
MLEADERSTYLE
  2
AcDbMLeaderStyle
  3
ACDB_MLEADERSTYLE_CLASS
 90
     4095
 91
        0
280
     0
281
     0
  0
CLASS
  1
CELLSTYLEMAP
  2
AcDbCellStyleMap
  3
ObjectDBX Classes
 90
     1152
 91
        1
280
     0
281
     0
  0
CLASS
  1
EXACXREFPANELOBJECT
  2
ExAcXREFPanelObject
  3
EXAC_ESW
 90
     1025
 91
        0
280
     1
281
     0
  0
CLASS
  1
NPOCOLLECTION
  2
AcDbImpNonPersistentObjectsCollection
  3
ObjectDBX Classes
 90
     1153
 91
        0
280
     0
281
     0
  0
CLASS
  1
LAYER_INDEX
  2
AcDbLayerIndex
  3
ObjectDBX Classes
 90
        0
 91
        0
280
     0
281
     0
  0
CLASS
  1
SPATIAL_INDEX
  2
AcDbSpatialIndex
  3
ObjectDBX Classes
 90
        0
 91
        0
280
     0
281
     0
  0
CLASS
  1
IDBUFFER
  2
AcDbIdBuffer
  3
ObjectDBX Classes
 90
        0
 91
        0
280
     0
281
     0
  0
CLASS
  1
ACDBSECTIONVIEWSTYLE
  2
AcDbSectionViewStyle
  3
ObjectDBX Classes
 90
     1025
 91
        0
280
     0
281
     0
  0
CLASS
  1
ACDBDETAILVIEWSTYLE
  2
AcDbDetailViewStyle
  3
ObjectDBX Classes
 90
     1025
 91
        0
280
     0
281
     0
  0
CLASS
  1
SORTENTSTABLE
  2
AcDbSortentsTable
  3
ObjectDBX Classes
 90
        0
 91
        2
280
     0
281
     0
  0
CLASS
  1
SOLID_BACKGROUND
  2
AcDbSolidBackground
  3
SCENEOE
 90
     4095
 91
        0
280
     0
281
     0
  0
CLASS
  1
DIMASSOC
  2
AcDbDimAssoc
  3
"AcDbDimAssoc|Product Desc:     AcDim ARX App For Dimension|Company:          Autodesk, Inc.|WEB Address:      www.autodesk.com"
 90
        0
 91
        0
280
     0
281
     0
  0
ENDSEC
  0
SECTION
  2
TABLES
  0
TABLE
  2
VPORT
  5
2A
330
0
100
AcDbSymbolTable
 70
     1
  0
VPORT
  5
2B
330
2A
100
AcDbSymbolTableRecord
100
AcDbViewportTableRecord
  2
*Active
 70
     0
 10
0.0
 20
0.0
 11
1.0
 21
1.0
 12
26.52343845487115
 22
12.59051445287963
 13
0.0
 23
0.0
 14
10.0
 24
10.0
 15
10.0
 25
10.0
 16
0.0
 26
0.0
 36
1.0
 17
0.0
 27
0.0
 37
0.0
 40
35.98423158449808
 41
2.396084337349397
 42
50.0
 43
0.0
 44
0.0
 50
0.0
 51
0.0
 71
     0
 72
  1000
 73
     1
 74
     3
 75
     0
 76
     1
 77
     0
 78
     0
281
     0
 65
     1
110
0.0
120
0.0
130
0.0
111
1.0
121
0.0
131
0.0
112
0.0
122
1.0
132
0.0
 79
     0
146
0.0
1001
ACAD_NAV_VCDISPLAY
1070
     3
  0
ENDTAB
  0
TABLE
  2
LTYPE
  5
25
330
0
100
AcDbSymbolTable
 70
     1
  0
LTYPE
  5
26
330
25
100
AcDbSymbolTableRecord
100
AcDbLinetypeTableRecord
  2
ByBlock
 70
     0
  3

 72
    65
 73
     0
 40
0.0
  0
LTYPE
  5
27
330
25
100
AcDbSymbolTableRecord
100
AcDbLinetypeTableRecord
  2
ByLayer
 70
     0
  3

 72
    65
 73
     0
 40
0.0
  0
LTYPE
  5
15
330
25
100
AcDbSymbolTableRecord
100
AcDbLinetypeTableRecord
  2
Continuous
 70
     0
  3
Solid line
 72
    65
 73
     0
 40
0.0
  0
ENDTAB
  0
TABLE
  2
LAYER
  5
1F
102
{ACAD_XDICTIONARY
360
20
102
}
330
0
100
AcDbSymbolTable
 70
     1
  0
LAYER
  5
6
102
{ACAD_XDICTIONARY
360
7
102
}
330
1F
100
AcDbSymbolTableRecord
100
AcDbLayerTableRecord
  2
0
 70
     0
 62
     7
  6
Continuous
370
    -3
390
8
  0
ENDTAB
  0
TABLE
  2
STYLE
  5
22
330
0
100
AcDbSymbolTable
 70
     1
  0
STYLE
  5
23
330
22
100
AcDbSymbolTableRecord
100
AcDbTextStyleTableRecord
  2
Standard
 70
     0
 40
0.0
 41
1.0
 50
0.0
 71
     0
 42
2.5
  3
arial.ttf
  4

1001
ACAD
1000
Arial
1071
       34
  0
ENDTAB
  0
TABLE
  2
VIEW
  5
28
330
0
100
AcDbSymbolTable
 70
     0
  0
ENDTAB
  0
TABLE
  2
UCS
  5
29
330
0
100
AcDbSymbolTable
 70
     0
  0
ENDTAB
  0
TABLE
  2
APPID
  5
2F
330
0
100
AcDbSymbolTable
 70
     6
  0
APPID
  5
14
330
2F
100
AcDbSymbolTableRecord
100
AcDbRegAppTableRecord
  2
ACAD
 70
     0
  0
APPID
  5
1A
330
2F
100
AcDbSymbolTableRecord
100
AcDbRegAppTableRecord
  2
ACAD_PSEXT
 70
     0
  0
APPID
  5
33
330
2F
100
AcDbSymbolTableRecord
100
AcDbRegAppTableRecord
  2
AcadAnnotative
 70
     0
  0
APPID
  5
34
330
2F
100
AcDbSymbolTableRecord
100
AcDbRegAppTableRecord
  2
ACAD_DSTYLE_DIMJAG
 70
     0
  0
APPID
  5
35
330
2F
100
AcDbSymbolTableRecord
100
AcDbRegAppTableRecord
  2
ACAD_DSTYLE_DIMTALN
 70
     0
  0
APPID
  5
2E
330
2F
100
AcDbSymbolTableRecord
100
AcDbRegAppTableRecord
  2
ACAD_NAV_VCDISPLAY
 70
     0
  0
ENDTAB
  0
TABLE
  2
DIMSTYLE
  5
30
330
0
100
AcDbSymbolTable
 70
     2
100
AcDbDimStyleTable
 71
     2
340
31
340
32
  0
DIMSTYLE
105
32
330
30
100
AcDbSymbolTableRecord
100
AcDbDimStyleTableRecord
  2
Annotative
 70
     0
 40
0.0
 41
2.5
 42
0.625
 43
3.75
 44
1.25
 73
     0
 74
     0
 77
     1
 78
     8
140
2.5
141
2.5
143
0.03937007874016
147
0.625
171
     3
172
     1
271
     2
272
     2
274
     3
278
    44
283
     0
284
     8
340
23
1001
AcadAnnotative
1000
AnnotativeData
1002
{
1070
     1
1070
     1
1002
}
1001
ACAD_DSTYLE_DIMJAG
1070
   388
1040
1.5
1001
ACAD_DSTYLE_DIMTALN
1070
   392
1070
     0
  0
DIMSTYLE
105
31
330
30
100
AcDbSymbolTableRecord
100
AcDbDimStyleTableRecord
  2
ISO-25
 70
     0
 41
2.5
 42
0.625
 43
3.75
 44
1.25
 73
     0
 74
     0
 77
     1
 78
     8
140
2.5
141
2.5
143
0.03937007874016
147
0.625
171
     3
172
     1
271
     2
272
     2
274
     3
278
    44
283
     0
284
     8
340
23
  0
ENDTAB
  0
TABLE
  2
BLOCK_RECORD
  5
1
330
0
100
AcDbSymbolTable
 70
     0
  0
BLOCK_RECORD
  5
2
102
{ACAD_XDICTIONARY
360
3
102
}
330
1
100
AcDbSymbolTableRecord
100
AcDbBlockTableRecord
  2
*Model_Space
340
17
  0
BLOCK_RECORD
  5
1B
330
1
100
AcDbSymbolTableRecord
100
AcDbBlockTableRecord
  2
*Paper_Space
340
1E
  0
ENDTAB
  0
ENDSEC
  0
SECTION
  2
BLOCKS
  0
BLOCK
  5
5
330
2
100
AcDbEntity
  8
0
100
AcDbBlockBegin
  2
*Model_Space
 70
     0
 10
0.0
 20
0.0
 30
0.0
  3
*Model_Space
  1

  0
ENDBLK
  5
16
330
2
100
AcDbEntity
  8
0
100
AcDbBlockEnd
  0
BLOCK
  5
1C
330
1B
100
AcDbEntity
 67
     1
  8
0
100
AcDbBlockBegin
  2
*Paper_Space
 70
     0
 10
0.0
 20
0.0
 30
0.0
  3
*Paper_Space
  1

  0
ENDBLK
  5
1D
330
1B
100
AcDbEntity
 67
     1
  8
0
100
AcDbBlockEnd
  0
ENDSEC
  0
SECTION
  2
ENTITIES
  0
LINE
  5
5C
330
2
100
AcDbEntity
  8
0
100
AcDbLine
 10
35.57836917994884
 20
14.83594325733233
 30
0.0
 11
35.55398969680599
 21
14.85705650906519
 31
0.0
  0
LINE
  5
5D
330
2
100
AcDbEntity
  8
0
100
AcDbLine
 10
35.23007538416833
 20
15.13757453245897
 30
0.0
 11
35.14658191989913
 21
15.20988199356612
 31
0.0
  0
LINE
  5
5E
330
2
100
AcDbEntity
  8
0
100
AcDbLine
 10
51.36785391569912
 20
21.78701785711904
 30
0.0
 11
49.29151749141457
 21
22.33902182791154
 31
0.0
  0
LINE
  5
5F
330
2
100
AcDbEntity
  8
0
100
AcDbLine
 10
51.32842061238104
 20
21.45402110581613
 30
0.0
 11
51.34472577271587
 21
21.47469322257498
 31
0.0
  0
LINE
  5
60
330
2
100
AcDbEntity
  8
0
100
AcDbLine
 10
40.65173682327169
 20
11.42741533606127
 30
0.0
 11
40.66804176460236
 21
11.4374082082907
 31
0.0
  0
LINE
  5
61
330
2
100
AcDbEntity
  8
0
100
AcDbLine
 10
40.65173682327169
 20
11.42741533606127
 30
0.0
 11
40.66804176460236
 21
11.4374082082907
 31
0.0
  0
LINE
  5
62
330
2
100
AcDbEntity
  8
0
100
AcDbLine
 10
51.36785391569912
 20
21.78701785711904
 30
0.0
 11
49.29151749141457
 21
22.33902182791154
 31
0.0
  0
LINE
  5
63
330
2
100
AcDbEntity
  8
0
100
AcDbLine
 10
51.32842061238104
 20
21.45402110581613
 30
0.0
 11
51.34472577271587
 21
21.47469322257498
 31
0.0
  0
LINE
  5
64
330
2
100
AcDbEntity
  8
0
100
AcDbLine
 10
48.0081452524306
 20
19.64083486550612
 30
0.0
 11
48.0081452524306
 21
23.31072741768342
 31
0.0
  0
SPLINE
  5
65
330
2
100
AcDbEntity
  8
0
100
AcDbSpline
210
0.0
220
0.0
230
1.0
 70
     8
 71
     3
 72
    11
 73
     7
 74
     0
 42
0.000000001
 43
0.0000000001
 40
0.0
 40
0.0
 40
0.0
 40
0.0
 40
0.1879883906709527
 40
0.5137232285899182
 40
0.8123528292435111
 40
1.0
 40
1.0
 40
1.0
 40
1.0
 10
47.08114467845514
 20
24.89206716917114
 30
0.0
 10
47.06299151317216
 20
24.90679205545934
 30
0.0
 10
47.01338364831945
 20
24.94703132820169
 30
0.0
 10
46.93109195732092
 20
24.98757806561241
 30
0.0
 10
46.84351299084162
 20
25.00714387994711
 30
0.0
 10
46.79324019309968
 20
24.99475881213864
 30
0.0
 10
46.7625279540741
 20
24.99089462076671
 30
0.0
  0
LINE
  5
66
330
2
100
AcDbEntity
  8
0
100
AcDbLine
 10
46.7625279540741
 20
24.99089462076671
 30
0.0
 11
46.7116142931134
 21
24.97619711282614
 31
0.0
  0
LINE
  5
67
330
2
100
AcDbEntity
  8
0
100
AcDbLine
 10
47.25751442458327
 20
24.73932648856709
 30
0.0
 11
47.08114467846137
 21
24.892067169175
 31
0.0
  0
LINE
  5
68
330
2
100
AcDbEntity
  8
0
100
AcDbLine
 10
45.44302992141317
 20
19.95292341509365
 30
0.0
 11
45.47242482778046
 21
19.92746667944143
 31
0.0
  0
LINE
  5
69
330
2
100
AcDbEntity
  8
0
100
AcDbLine
 10
44.55875447746496
 20
25.57664534999916
 30
0.0
 11
44.48238417569195
 21
25.55459914284523
 31
0.0
  0
SPLINE
  5
6A
330
2
100
AcDbEntity
  8
0
100
AcDbSpline
210
0.0
220
0.0
230
1.0
 70
     8
 71
     3
 72
    13
 73
     9
 74
     0
 42
0.000000001
 43
0.0000000001
 40
0.0
 40
0.0
 40
0.0
 40
0.0
 40
0.0682813755680727
 40
0.2399576333842559
 40
0.4120076354124342
 40
0.5976252281947545
 40
0.7970297021613753
 40
1.0
 40
1.0
 40
1.0
 40
1.0
 10
44.50002720082852
 20
25.5548477509968
 30
0.0
 10
44.48737380196312
 20
25.55312362937991
 30
0.0
 10
44.44290663034041
 20
25.54706463980308
 30
0.0
 10
44.37761884415616
 20
25.50052786062107
 30
0.0
 10
44.31280821577266
 20
25.42225550987981
 30
0.0
 10
44.26576357606565
 20
25.31525875448997
 30
0.0
 10
44.23472281589299
 20
25.18191130171207
 30
0.0
 10
44.23082483510957
 20
25.07427974424159
 30
0.0
 10
44.22885857286842
 20
25.01998705293139
 30
0.0
  0
SPLINE
  5
6B
330
2
100
AcDbEntity
  8
0
100
AcDbSpline
210
0.0
220
0.0
230
1.0
 70
     8
 71
     3
 72
    11
 73
     7
 74
     0
 42
0.000000001
 43
0.0000000001
 40
0.0
 40
0.0
 40
0.0
 40
0.0
 40
0.1879882756085025
 40
0.5137232954322199
 40
0.8123527438023533
 40
1.0
 40
1.0
 40
1.0
 40
1.0
 10
46.03502353805955
 20
25.26892546171604
 30
0.0
 10
46.01687037752066
 20
25.28365033623371
 30
0.0
 10
45.96726248881398
 20
25.3238896066753
 30
0.0
 10
45.88497092896506
 20
25.36443643366333
 30
0.0
 10
45.79739155427307
 20
25.384002024825
 30
0.0
 10
45.74711895878197
 20
25.3716170827185
 30
0.0
 10
45.72771948001357
 20
25.36683790990882
 30
0.0
  0
LINE
  5
6C
330
2
100
AcDbEntity
  8
0
100
AcDbLine
 10
45.71640684104403
 20
25.36775288960725
 30
0.0
 11
45.64003653927097
 21
25.3457066824533
 31
0.0
  0
LINE
  5
6D
330
2
100
AcDbEntity
  8
0
100
AcDbLine
 10
48.13782231005601
 20
19.85016247418054
 30
0.0
 11
48.13782231005601
 21
22.66931460103103
 31
0.0
  0
LINE
  5
6E
330
2
100
AcDbEntity
  8
0
100
AcDbLine
 10
46.5578942979255
 20
24.81610610076175
 30
0.0
 11
46.03502353805875
 21
25.26892546171959
 31
0.0
  0
SPLINE
  5
6F
330
2
100
AcDbEntity
  8
0
100
AcDbSpline
210
0.0
220
0.0
230
1.0
 70
     8
 71
     3
 72
     9
 73
     5
 74
     0
 42
0.000000001
 43
0.0000000001
 40
0.0
 40
0.0
 40
0.0
 40
0.0
 40
0.7487670789459279
 40
1.0
 40
1.0
 40
1.0
 40
1.0
 10
48.0576378090053
 20
23.17603298390668
 30
0.0
 10
48.04710417354831
 20
23.21464282349891
 30
0.0
 10
48.03303620000456
 20
23.26620737631889
 30
0.0
 10
48.01277929413837
 20
23.31364581323239
 30
0.0
 10
48.00769009250608
 20
23.32556391030843
 30
0.0
  0
SPLINE
  5
70
330
2
100
AcDbEntity
  8
0
100
AcDbSpline
210
0.0
220
0.0
230
1.0
 70
     8
 71
     3
 72
    11
 73
     7
 74
     0
 42
0.000000001
 43
0.0000000001
 40
0.0
 40
0.0
 40
0.0
 40
0.0
 40
0.1823949509310294
 40
0.5301344911159821
 40
0.8763525928643282
 40
1.0
 40
1.0
 40
1.0
 40
1.0
 10
48.13782231004449
 20
22.66931460102861
 30
0.0
 10
48.13729848101423
 20
22.6984062940876
 30
0.0
 10
48.13577596169582
 20
22.78296186877216
 30
0.0
 10
48.11754344205916
 20
22.93190744651772
 30
0.0
 10
48.09000242778589
 20
23.07504353273928
 30
0.0
 10
48.06438037700531
 20
23.15499370498308
 30
0.0
 10
48.0576378090053
 20
23.17603298390668
 30
0.0
  0
LINE
  5
71
330
2
100
AcDbEntity
  8
0
100
AcDbLine
 10
42.05167289125269
 20
23.84840964453927
 30
0.0
 11
42.05167289125269
 21
19.21433333144096
 31
0.0
  0
SPLINE
  5
72
330
2
100
AcDbEntity
  8
0
100
AcDbSpline
210
0.0
220
0.0
230
1.0
 70
     8
 71
     3
 72
    11
 73
     7
 74
     0
 42
0.000000001
 43
0.0000000001
 40
0.0
 40
0.0
 40
0.0
 40
0.0
 40
0.0615144683829876
 40
0.4379837727788095
 40
0.7831259404656309
 40
1.0
 40
1.0
 40
1.0
 40
1.0
 10
42.87792515816294
 20
24.94223120240584
 30
0.0
 10
42.87276701477779
 20
24.94628915486713
 30
0.0
 10
42.8360409703244
 20
24.97518182638746
 30
0.0
 10
42.7670493120638
 20
25.00689184074262
 30
0.0
 10
42.67958091503092
 20
25.02712316926186
 30
0.0
 10
42.6292985109799
 20
25.01467937510652
 30
0.0
 10
42.60989524722787
 20
25.00987749212923
 30
0.0
  0
LINE
  5
73
330
2
100
AcDbEntity
  8
0
100
AcDbLine
 10
42.59858251343575
 20
25.01079244444103
 30
0.0
 11
42.52221221166272
 21
24.9887462373106
 31
0.0
  0
SPLINE
  5
74
330
2
100
AcDbEntity
  8
0
100
AcDbSpline
210
0.0
220
0.0
230
1.0
 70
     8
 71
     3
 72
    13
 73
     9
 74
     0
 42
0.000000001
 43
0.0000000001
 40
0.018117231278195
 40
0.018117231278195
 40
0.018117231278195
 40
0.018117231278195
 40
0.0682813607393682
 40
0.2399576565967162
 40
0.4120075410240191
 40
0.5976252459462402
 40
0.7970296788197448
 40
1.0
 40
1.0
 40
1.0
 40
1.0
 10
42.31277912965224
 20
24.38186622024524
 30
0.0
 10
42.30351009272655
 20
24.38051143573528
 30
0.0
 10
42.26285008722518
 20
24.37344100314896
 30
0.0
 10
42.20043299520613
 20
24.32895062737504
 30
0.0
 10
42.13562255734109
 20
24.25067793586539
 30
0.0
 10
42.08857784309396
 20
24.14368163082685
 30
0.0
 10
42.05753728942886
 20
24.01033384079362
 30
0.0
 10
42.05363920572927
 20
23.9027023239853
 30
0.0
 10
42.05167289126115
 20
23.84840964454753
 30
0.0
  0
LINE
  5
75
330
2
100
AcDbEntity
  8
0
100
AcDbLine
 10
42.84631616837997
 20
24.68876619307686
 30
0.0
 11
42.84631616837997
 21
19.69923728145333
 31
0.0
  0
SPLINE
  5
76
330
2
100
AcDbEntity
  8
0
100
AcDbSpline
210
0.0
220
0.0
230
1.0
 70
     8
 71
     3
 72
    11
 73
     7
 74
     0
 42
0.000000001
 43
0.0000000001
 40
0.0
 40
0.0
 40
0.0
 40
0.0
 40
0.1879884777688069
 40
0.5137232892134433
 40
0.812352741402616
 40
1.0
 40
1.0
 40
1.0
 40
1.0
 10
44.18216181790303
 20
25.34501302236556
 30
0.0
 10
44.16400865670853
 20
25.35973791979488
 30
0.0
 10
44.11440082015841
 20
25.39997720908801
 30
0.0
 10
44.03210928700072
 20
25.4405240263637
 30
0.0
 10
43.94452992807334
 20
25.46008961291306
 30
0.0
 10
43.89425733321512
 20
25.44770467076156
 30
0.0
 10
43.87485785469092
 20
25.44292549793451
 30
0.0
  0
LINE
  5
77
330
2
100
AcDbEntity
  8
0
100
AcDbLine
 10
43.86354509717975
 20
25.44384044341216
 30
0.0
 11
43.78717477170263
 21
25.42179422941506
 31
0.0
  0
LINE
  5
78
330
2
100
AcDbEntity
  8
0
100
AcDbLine
 10
43.17621207299867
 20
25.24542449013634
 30
0.0
 11
43.09984174749803
 21
25.22337827613925
 31
0.0
  0
SPLINE
  5
79
330
2
100
AcDbEntity
  8
0
100
AcDbSpline
210
0.0
220
0.0
230
1.0
 70
     8
 71
     3
 72
    13
 73
     9
 74
     0
 42
0.000000001
 43
0.0000000001
 40
0.0
 40
0.0
 40
0.0
 40
0.0
 40
0.0682813681940211
 40
0.2399576400680132
 40
0.4120076511094359
 40
0.5976252536157714
 40
0.7970296741004094
 40
1.0
 40
1.0
 40
1.0
 40
1.0
 10
43.09984174749803
 20
25.22337827613925
 30
0.0
 10
43.09033598251069
 20
25.22048742814505
 30
0.0
 10
43.06036423291868
 20
25.21584378178892
 30
0.0
 10
42.99507636978594
 20
25.16930698522343
 30
0.0
 10
42.93026578309765
 20
25.09103462621441
 30
0.0
 10
42.8832210711993
 20
24.98403794199654
 30
0.0
 10
42.85218059936421
 20
24.85069025439836
 30
0.0
 10
42.84828249390845
 20
24.74305882879856
 30
0.0
 10
42.84631616838264
 20
24.68876619307192
 30
0.0
  0
LINE
  5
7A
330
2
100
AcDbEntity
  8
0
100
AcDbLine
 10
44.26117211989726
 20
25.27658809368101
 30
0.0
 11
44.18216181789857
 21
25.34501302236765
 31
0.0
  0
LINE
  5
7B
330
2
100
AcDbEntity
  8
0
100
AcDbLine
 10
49.03367178351932
 20
17.67986393327838
 30
0.0
 11
49.03367178351932
 21
17.96385198720849
 31
0.0
  0
LINE
  5
7C
330
2
100
AcDbEntity
  8
0
100
AcDbLine
 10
40.10398382437759
 20
14.54862903222029
 30
0.0
 11
40.11631240708832
 21
14.42674803814075
 31
0.0
  0
LINE
  5
7D
330
2
100
AcDbEntity
  8
0
100
AcDbLine
 10
50.07318260715088
 20
14.42674806678319
 30
0.0
 11
50.08551136324481
 21
14.54862904244975
 31
0.0
  0
LINE
  5
7E
330
2
100
AcDbEntity
  8
0
100
AcDbLine
 10
46.25931370419738
 20
17.09874531866084
 30
0.0
 11
46.22651402766264
 21
18.76196007943933
 31
0.0
  0
LINE
  5
7F
330
2
100
AcDbEntity
  8
0
100
AcDbLine
 10
49.09962609044517
 20
16.16919052659113
 30
0.0
 11
49.03273367683491
 21
17.70135206613462
 31
0.0
  0
LINE
  5
80
330
2
100
AcDbEntity
  8
0
100
AcDbLine
 10
47.98600566559001
 20
16.70977232190699
 30
0.0
 11
47.97125240365069
 21
17.30286903255622
 31
0.0
  0
SPLINE
  5
81
330
2
100
AcDbEntity
  8
0
100
AcDbSpline
210
0.0
220
0.0
230
1.0
 70
     8
 71
     3
 72
    12
 73
     8
 74
     0
 42
0.000000001
 43
0.0000000001
 40
0.0
 40
0.0
 40
0.0
 40
0.0
 40
0.2172996888766184
 40
0.4484507993344711
 40
0.6939463816800317
 40
0.9509289809439568
 40
1.0
 40
1.0
 40
1.0
 40
1.0
 10
46.22635112535058
 20
18.7620254633693
 30
0.0
 10
46.22484444686577
 20
18.77416069390912
 30
0.0
 10
46.22173504908269
 20
18.79920469587629
 30
0.0
 10
46.19947744245397
 20
18.83415061937391
 30
0.0
 10
46.16567502713882
 20
18.86160865652882
 30
0.0
 10
46.10917373137616
 20
18.87294524345142
 30
0.0
 10
46.10917373137616
 20
18.87294524345143
 30
0.0
 10
46.10917373137616
 20
18.87294524345142
 30
0.0
  0
LINE
  5
82
330
2
100
AcDbEntity
  8
0
100
AcDbLine
 10
45.95384144645846
 20
18.89088066508397
 30
0.0
 11
45.93299663757657
 21
19.53601845403164
 31
0.0
  0
LINE
  5
83
330
2
100
AcDbEntity
  8
0
100
AcDbLine
 10
47.39112076948581
 20
19.03831903449222
 30
0.0
 11
47.32267500778948
 21
18.97395524687023
 31
0.0
  0
ARC
  5
84
330
2
100
AcDbEntity
  8
0
100
AcDbCircle
 10
35.55258102253726
 20
14.80770100292264
 30
0.0
 40
0.0382446597149383
100
AcDbArc
 50
357.7506137228002
 51
47.60062473420016
  0
LWPOLYLINE
  5
85
330
2
100
AcDbEntity
  8
0
100
AcDbPolyline
 90
       17
 70
   128
 43
0.0
 10
49.9504212951543
 20
20.79174156648303
 10
50.05961151452331
 20
20.78126380415527
 10
50.17191120423359
 20
20.80423584437654
 10
50.27022597519445
 20
20.85716102324309
 10
50.33958645289861
 20
20.93198197852883
 10
50.36943504144462
 20
21.01730700326432
 10
50.35522611008258
 20
21.10014717952693
 10
50.29912297826928
 20
21.1678897099471
 10
50.2096675339256
 20
21.21022238016989
 10
50.10047807322867
 20
21.22070036150183
 10
49.98817838351839
 20
21.19772870061659
 10
49.88986361255747
 20
21.14480314241402
 10
49.82050313485334
 20
21.06998294580033
 10
49.79065454630735
 20
20.98465716239278
 10
49.80486347766936
 20
20.90181736546619
 10
49.86096639045496
 20
20.83407464538976
 10
49.9504212951543
 20
20.79174156648303
  0
ARC
  5
86
330
2
100
AcDbEntity
  8
0
100
AcDbCircle
 10
49.6272088945397
 20
21.84107617310201
 30
0.0
 40
0.3658200570180566
100
AcDbArc
 50
255.3680685672997
 51
323.9707419273996
  0
LWPOLYLINE
  5
87
330
2
100
AcDbEntity
  8
0
100
AcDbPolyline
 90
        7
 70
   128
 43
0.0
 10
49.50417759008122
 20
21.86056338770904
 10
49.47424114920561
 20
21.84018155162278
 10
49.40488045249728
 20
21.7653607860168
 10
49.37503208295547
 20
21.68003557160155
 10
49.38924101431748
 20
21.597196154011
 10
49.44534392710311
 20
21.52945305459854
 10
49.53479959047449
 20
21.48712019469598
  0
LWPOLYLINE
  5
88
330
2
100
AcDbEntity
  8
0
100
AcDbPolyline
 90
       17
 70
   128
 43
0.0
 10
48.91260858844707
 20
20.48276620823853
 10
49.02179820949936
 20
20.47228852607669
 10
49.13409789918614
 20
20.49526056629796
 10
49.23241288915122
 20
20.54818555548473
 10
49.30177336687887
 20
20.62300613143446
 10
49.33162195540136
 20
20.70833115619345
 10
49.31741302406287
 20
20.79117095312004
 10
49.26130989224954
 20
20.85891424218876
 10
49.17185422890165
 20
20.90124672275527
 10
49.0626649871854
 20
20.91172489374348
 10
48.9503652974751
 20
20.88875247418615
 10
48.85205052653775
 20
20.83582729534315
 10
48.7826898298059
 20
20.76100728838571
 10
48.75284146028758
 20
20.67568169465794
 10
48.76705017262189
 20
20.59284208738761
 10
48.82315292509921
 20
20.52509906814108
 10
48.91260858844707
 20
20.48276620823853
  0
LINE
  5
89
330
2
100
AcDbEntity
  8
0
100
AcDbLine
 10
50.64384389756561
 20
20.6423861558989
 30
0.0
 11
51.07376781796424
 21
21.33637891286955
 31
0.0
  0
ARC
  5
8A
330
2
100
AcDbEntity
  8
0
100
AcDbCircle
 10
48.64515154300305
 20
21.93184212946631
 30
0.0
 40
2.378543217161533
100
AcDbArc
 50
300.3553409425995
 51
327.1719230532992
  0
LINE
  5
8B
330
2
100
AcDbEntity
  8
0
100
AcDbLine
 10
49.84717529781447
 20
19.87937855395613
 30
0.0
 11
49.81800913916392
 21
19.8616993015801
 31
0.0
  0
ARC
  5
8C
330
2
100
AcDbEntity
  8
0
100
AcDbCircle
 10
50.11850816882334
 20
19.3485901744744
 30
0.0
 40
0.5946264736372155
100
AcDbArc
 50
120.3550959841994
 51
147.1721080805996
  0
LINE
  5
8D
330
2
100
AcDbEntity
  8
0
100
AcDbLine
 10
49.61884187972993
 20
19.67094749594017
 30
0.0
 11
49.2277130046762
 21
19.03957890191911
 31
0.0
  0
LINE
  5
8E
330
2
100
AcDbEntity
  8
0
100
AcDbLine
 10
47.87809457411689
 20
19.3983814019864
 30
0.0
 11
48.26922344917061
 21
20.02974999600746
 31
0.0
  0
ARC
  5
8F
330
2
100
AcDbEntity
  8
0
100
AcDbCircle
 10
47.95443223321426
 20
20.23458665708702
 30
0.0
 40
0.375568325828912
100
AcDbArc
 50
326.9476888077999
 51
3.494595321800197
  0
LINE
  5
90
330
2
100
AcDbEntity
  8
0
100
AcDbLine
 10
48.3293022095037
 20
20.25747919371064
 30
0.0
 11
48.32719161455725
 21
20.2834736057714
 31
0.0
  0
ARC
  5
91
330
2
100
AcDbEntity
  8
0
100
AcDbCircle
 10
49.82666361221312
 20
20.37504399252854
 30
0.0
 40
1.502265425108139
100
AcDbArc
 50
146.9475251309002
 51
183.4946228521993
  0
LINE
  5
92
330
2
100
AcDbEntity
  8
0
100
AcDbLine
 10
48.56750769228523
 20
21.19438993703515
 30
0.0
 11
49.2333046729119
 21
22.26913352141492
 31
0.0
  0
ARC
  5
93
330
2
100
AcDbEntity
  8
0
100
AcDbCircle
 10
50.06762738809658
 20
22.3882834186061
 30
0.0
 40
0.7739800597634213
100
AcDbArc
 50
191.6417945294987
 51
255.7339540909
  0
ARC
  5
94
330
2
100
AcDbEntity
  8
0
100
AcDbCircle
 10
50.08392994756572
 20
22.4089527035019
 30
0.0
 40
0.7739761768394117
100
AcDbArc
 50
191.6415514819003
 51
255.7340629378
  0
LINE
  5
95
330
2
100
AcDbEntity
  8
0
100
AcDbLine
 10
49.32290012345707
 20
22.28088065352423
 30
0.0
 11
49.32587510441881
 21
22.25277339274696
 31
0.0
  0
LINE
  5
96
330
2
100
AcDbEntity
  8
0
100
AcDbLine
 10
51.39923708738603
 20
21.72887709139216
 30
0.0
 11
51.40221130967569
 21
21.70076961161072
 31
0.0
  0
LWPOLYLINE
  5
97
330
2
100
AcDbEntity
  8
0
100
AcDbPolyline
 90
        9
 70
   128
 43
0.0
 10
50.93137310113843
 20
21.38284221571534
 10
51.0317143895929
 20
21.36468023219472
 10
51.12634529555283
 20
21.36473687126658
 10
51.21162943305641
 20
21.38301062936719
 10
51.28428989889076
 20
21.41879882650976
 10
51.34153351032789
 20
21.47072638987273
 10
51.38116123825968
 20
21.53679758485459
 10
51.40164978638546
 20
21.61447406289217
 10
51.40221130967569
 20
21.70076961161072
  0
LINE
  5
98
330
2
100
AcDbEntity
  8
0
100
AcDbLine
 10
49.89320450967186
 20
21.65884409160949
 30
0.0
 11
50.93137310113843
 21
21.38284221571534
 31
0.0
  0
LWPOLYLINE
  5
99
330
2
100
AcDbEntity
  8
0
100
AcDbPolyline
 90
        9
 70
   128
 43
0.0
 10
49.22762227926004
 20
22.2924837827292
 10
49.24279501219027
 20
22.31363495748595
 10
49.25841504259712
 20
22.32898699967307
 10
49.27374348616059
 20
22.33781122118734
 10
49.28805178225748
 20
22.33968917588983
 10
49.30066343559892
 20
22.33453229618941
 10
49.31097919992393
 20
22.32258562234535
 10
49.31851082639595
 20
22.30441478478169
 10
49.32290012345707
 20
22.28088065352423
  0
LWPOLYLINE
  5
9A
330
2
100
AcDbEntity
  8
0
100
AcDbPolyline
 90
        9
 70
   128
 43
0.0
 10
49.2333046729119
 20
22.26913352141492
 10
49.24497592292921
 20
22.28540417656262
 10
49.2569913489893
 20
22.29721305592879
 10
49.26878231683279
 20
22.30400074130177
 10
49.27978913162977
 20
22.3054458359663
 10
49.28948981199711
 20
22.30147883467806
 10
49.29742542264228
 20
22.29228893080685
 10
49.30321815663538
 20
22.27831077517845
 10
49.30659496312221
 20
22.26020853676537
  0
LINE
  5
9B
330
2
100
AcDbEntity
  8
0
100
AcDbLine
 10
49.30659496312221
 20
22.26020853676537
 30
0.0
 11
49.30956940443959
 21
22.23210010865559
 31
0.0
  0
LINE
  5
9C
330
2
100
AcDbEntity
  8
0
100
AcDbLine
 10
48.56182507960568
 20
21.21774000869317
 30
0.0
 11
49.22762227926004
 21
22.2924837827292
 31
0.0
  0
LINE
  5
9D
330
2
100
AcDbEntity
  8
0
100
AcDbLine
 10
49.87689956834124
 20
21.63817140585837
 30
0.0
 11
50.91506815980778
 21
21.36216952994068
 31
0.0
  0
ARC
  5
9E
330
2
100
AcDbEntity
  8
0
100
AcDbCircle
 10
51.3393876738624
 20
21.73411200063901
 30
0.0
 40
0.0600779208557067
100
AcDbArc
 50
355.0011742449004
 51
61.71732043809983
  0
ARC
  5
9F
330
2
100
AcDbEntity
  8
0
100
AcDbCircle
 10
51.05372353546838
 20
21.71420422425579
 30
0.0
 40
0.378356629629869
100
AcDbArc
 50
248.5020821936008
 51
316.5543378904995
  0
LINE
  5
A0
330
2
100
AcDbEntity
  8
0
100
AcDbLine
 10
48.32719161455725
 20
20.2834736057714
 30
0.0
 11
48.32150960021791
 21
20.30682397657602
 31
0.0
  0
ARC
  5
A1
330
2
100
AcDbEntity
  8
0
100
AcDbCircle
 10
49.82098156321128
 20
20.39839493046768
 30
0.0
 40
1.502265425084389
100
AcDbArc
 50
146.9475645501999
 51
183.4946445227995
  0
ARC
  5
A2
330
2
100
AcDbEntity
  8
0
100
AcDbCircle
 10
47.653209326771
 20
19.53535228166346
 30
0.0
 40
0.2633142539862202
100
AcDbArc
 50
318.3505909783006
 51
328.6556555852
  0
LINE
  5
A3
330
2
100
AcDbEntity
  8
0
100
AcDbLine
 10
47.2175160345538
 20
18.66218175239394
 30
0.0
 11
47.84996439279882
 21
19.36036130947032
 31
0.0
  0
ARC
  5
A4
330
2
100
AcDbEntity
  8
0
100
AcDbCircle
 10
50.30495351130726
 20
16.14566824420541
 30
0.0
 40
3.983103113106488
100
AcDbArc
 50
140.8171563771011
 51
165.0903763725005
  0
LINE
  5
A5
330
2
100
AcDbEntity
  8
0
100
AcDbLine
 10
46.42982179453649
 20
17.08258448647966
 30
0.0
 11
46.45595002205631
 21
17.17050118152354
 31
0.0
  0
LINE
  5
A6
330
2
100
AcDbEntity
  8
0
100
AcDbLine
 10
46.41541842689684
 20
17.08456929963209
 30
0.0
 11
46.4427710248941
 21
17.17660573638994
 31
0.0
  0
ARC
  5
A7
330
2
100
AcDbEntity
  8
0
100
AcDbCircle
 10
50.35099990799699
 20
16.13600111900374
 30
0.0
 40
4.044392534423989
100
AcDbArc
 50
140.8171923834004
 51
165.0903439451994
  0
LINE
  5
A8
330
2
100
AcDbEntity
  8
0
100
AcDbLine
 10
47.21605332920633
 20
18.69123514362048
 30
0.0
 11
47.84850190645556
 21
19.38941451106411
 31
0.0
  0
ARC
  5
A9
330
2
100
AcDbEntity
  8
0
100
AcDbCircle
 10
47.68124435849683
 20
19.53816720784069
 30
0.0
 40
0.2238357704893684
100
AcDbArc
 50
318.3512853065002
 51
328.6554538090001
  0
LINE
  5
AA
330
2
100
AcDbEntity
  8
0
100
AcDbLine
 10
47.87241234077336
 20
19.42173158313477
 30
0.0
 11
48.26354083649104
 21
20.05310044700153
 31
0.0
  0
LINE
  5
AB
330
2
100
AcDbEntity
  8
0
100
AcDbLine
 10
48.32362019516437
 20
20.28082956451527
 30
0.0
 11
48.3293022095037
 21
20.25747919371064
 31
0.0
  0
ARC
  5
AC
330
2
100
AcDbEntity
  8
0
100
AcDbCircle
 10
47.94875588796265
 20
20.25793643147973
 30
0.0
 40
0.3755627036349007
100
AcDbArc
 50
326.9472538296997
 51
3.494738859799967
  0
LINE
  5
AD
330
2
100
AcDbEntity
  8
0
100
AcDbLine
 10
48.32362019516437
 20
20.28082956451527
 30
0.0
 11
48.32150960021791
 21
20.30682397657602
 31
0.0
  0
LINE
  5
AE
330
2
100
AcDbEntity
  8
0
100
AcDbLine
 10
49.19958331220803
 20
19.00155882407699
 30
0.0
 11
48.56713495396298
 21
18.3033792669771
 31
0.0
  0
ARC
  5
AF
330
2
100
AcDbEntity
  8
0
100
AcDbCircle
 10
49.00286349649421
 20
19.17652087722992
 30
0.0
 40
0.2632686953385199
100
AcDbArc
 50
318.3501954757003
 51
328.6569820875993
  0
ARC
  5
B0
330
2
100
AcDbEntity
  8
0
100
AcDbCircle
 10
51.65457044213592
 20
15.78686597457107
 30
0.0
 40
3.983101435370529
100
AcDbArc
 50
140.8171407100994
 51
165.0903725617999
  0
LINE
  5
B1
330
2
100
AcDbEntity
  8
0
100
AcDbLine
 10
47.80556864229542
 20
16.8116987362014
 30
0.0
 11
47.79529366509486
 21
16.77712516520236
 31
0.0
  0
ARC
  5
B2
330
2
100
AcDbEntity
  8
0
100
AcDbCircle
 10
40.94792387078975
 20
12.99441902789615
 30
0.0
 40
0.0686850247622378
100
AcDbArc
 50
286.5285807606996
 51
309.2427109257007
  0
LINE
  5
B3
330
2
100
AcDbEntity
  8
0
100
AcDbLine
 10
40.99137448495777
 20
12.9412243218076
 30
0.0
 11
41.12513555806706
 21
13.04512930807028
 31
0.0
  0
LINE
  5
B4
330
2
100
AcDbEntity
  8
0
100
AcDbLine
 10
40.98991188910067
 20
12.90942005474374
 30
0.0
 11
41.14657731537088
 21
13.03111736825419
 31
0.0
  0
ARC
  5
B5
330
2
100
AcDbEntity
  8
0
100
AcDbCircle
 10
40.93879751634487
 20
12.97199691209163
 30
0.0
 40
0.0807993946626241
100
AcDbArc
 50
286.5269312509994
 51
309.2428260459001
  0
LINE
  5
B6
330
2
100
AcDbEntity
  8
0
100
AcDbLine
 10
40.57065332157876
 20
12.7902978305523
 30
0.0
 11
40.96178219660896
 21
12.89453565305963
 31
0.0
  0
LINE
  5
B7
330
2
100
AcDbEntity
  8
0
100
AcDbLine
 10
40.57633533589457
 20
12.82433486145778
 30
0.0
 11
40.96746432046216
 21
12.9285722098127
 31
0.0
  0
LWPOLYLINE
  5
B8
330
2
100
AcDbEntity
  8
0
100
AcDbPolyline
 90
       17
 70
   128
 43
0.0
 10
40.23907390615438
 20
12.53612696547587
 10
40.1298836867619
 20
12.55990271539619
 10
40.01758399707511
 20
12.57479974468319
 10
39.91926922611424
 20
12.57854957537588
 10
39.84990874841007
 20
12.57058272019676
 10
39.82006015986408
 20
12.55211027822379
 10
39.83426909122609
 20
12.52594587014542
 10
39.89037222301591
 20
12.49607165060848
 10
39.9798276673596
 20
12.46703696797825
 10
40.08901712808002
 20
12.44326099903024
 10
40.20131681779032
 20
12.42836434907928
 10
40.2996315887512
 20
12.42461413905056
 10
40.36899206645535
 20
12.43258175290175
 10
40.39884065500134
 20
12.45105343620265
 10
40.38463172363933
 20
12.47721822361706
 10
40.32852881085371
 20
12.5070918741617
 10
40.23907390615438
 20
12.53612696547587
  0
LWPOLYLINE
  5
B9
330
2
100
AcDbEntity
  8
0
100
AcDbPolyline
 90
       17
 70
   128
 43
0.0
 10
40.65469561083418
 20
12.26001731666649
 10
40.54550636914146
 20
12.28379309593472
 10
40.43320667943116
 20
12.29869050455775
 10
40.3348916894661
 20
12.30244014559417
 10
40.26553121176195
 20
12.29447253174299
 10
40.23568262321595
 20
12.27600084841857
 10
40.24989155457795
 20
12.24983568169164
 10
40.30599468636776
 20
12.21996222080325
 10
40.3954495910671
 20
12.1909271295126
 10
40.50463959143188
 20
12.16715156924854
 10
40.61693928114219
 20
12.15225416062551
 10
40.71525405210308
 20
12.14850470926885
 10
40.78461474881141
 20
12.15647137476821
 10
40.81446311835323
 20
12.17494400642095
 10
40.80025418699121
 20
12.20110917314787
 10
40.74415127418207
 20
12.23098244435648
 10
40.65469561083418
 20
12.26001731666649
  0
LWPOLYLINE
  5
BA
330
2
100
AcDbEntity
  8
0
100
AcDbPolyline
 90
       17
 70
   128
 43
0.0
 10
41.2768866128616
 20
12.42583410296537
 10
41.16769699180933
 20
12.44960977271976
 10
41.05539730209901
 20
12.46450680200676
 10
40.95708231215748
 20
12.46825682237922
 10
40.88772183442982
 20
12.46028958786406
 10
40.85787324590734
 20
12.44181714586758
 10
40.87208217724582
 20
12.4156523584767
 10
40.92818530905916
 20
12.38577889758831
 10
41.01764097240702
 20
12.35674364596579
 10
41.12683021412327
 20
12.33296824603359
 10
41.23912990383359
 20
12.31807083741055
 10
41.33744467477095
 20
12.31432100671788
 10
41.40680537150278
 20
12.32228843088929
 10
41.4366537410211
 20
12.340760683206
 10
41.42244502868678
 20
12.36692528094063
 10
41.36634227620951
 20
12.39679923065538
 10
41.2768866128616
 20
12.42583410296537
  0
LINE
  5
BB
330
2
100
AcDbEntity
  8
0
100
AcDbLine
 10
39.54565130374308
 20
12.71056783700013
 30
0.0
 11
38.87985410411222
 21
12.53312982565545
 31
0.0
  0
ARC
  5
BC
330
2
100
AcDbEntity
  8
0
100
AcDbCircle
 10
40.19172018101186
 20
9.66974381214575
 30
0.0
 40
3.108700008744404
100
AcDbArc
 50
87.22324214760021
 51
101.9949842043006
  0
LINE
  5
BD
330
2
100
AcDbEntity
  8
0
100
AcDbLine
 10
40.34231990349423
 20
12.77479380658796
 30
0.0
 11
40.37148606212126
 21
12.77424143300699
 31
0.0
  0
ARC
  5
BE
330
2
100
AcDbEntity
  8
0
100
AcDbCircle
 10
40.40913246396551
 20
13.55055329504972
 30
0.0
 40
0.7772241367353971
100
AcDbArc
 50
267.2236782686998
 51
281.9944888260003
  0
LWPOLYLINE
  5
BF
330
2
100
AcDbEntity
  8
0
100
AcDbPolyline
 90
        9
 70
   128
 43
0.0
 10
41.860192991805
 20
12.37846154087644
 10
41.85914198104529
 20
12.38670583496535
 10
41.86057555274586
 20
12.39455123453555
 10
41.86448793432513
 20
12.40196357679229
 10
41.87086140201197
 20
12.40891119182135
 10
41.87966957759561
 20
12.41536496920957
 10
41.8908744522218
 20
12.42129699313138
 10
41.90442794693563
 20
12.42668111912477
 10
41.92027175213808
 20
12.431495330485
  0
LINE
  5
C0
330
2
100
AcDbEntity
  8
0
100
AcDbLine
 10
41.860192991805
 20
12.37846154087644
 30
0.0
 11
41.86230358675142
 21
12.37069875477269
 31
0.0
  0
LWPOLYLINE
  5
C1
330
2
100
AcDbEntity
  8
0
100
AcDbPolyline
 90
        9
 70
   128
 43
0.0
 10
41.62198750902345
 20
12.15856405586388
 10
41.68536370750957
 20
12.17782093060575
 10
41.7395778466497
 20
12.19935887182799
 10
41.78439696588894
 20
12.22308571994626
 10
41.81962972684881
 20
12.24890034067284
 10
41.84512451664708
 20
12.27669207768243
 10
41.86077252557306
 20
12.3063417673496
 10
41.86650735201967
 20
12.33772225697015
 10
41.86230358675142
 20
12.37069875477269
  0
LINE
  5
C2
330
2
100
AcDbEntity
  8
0
100
AcDbLine
 10
41.62198750902345
 20
12.15856405586388
 30
0.0
 11
40.95619052837327
 21
11.98112585486296
 31
0.0
  0
LINE
  5
C3
330
2
100
AcDbEntity
  8
0
100
AcDbLine
 10
42.22823293063303
 20
12.51356840428081
 30
0.0
 11
41.92027175213808
 21
12.431495330485
 31
0.0
  0
ARC
  5
C4
330
2
100
AcDbEntity
  8
0
100
AcDbCircle
 10
40.41481999825434
 20
13.5845193827332
 30
0.0
 40
0.777153595290331
100
AcDbArc
 50
267.2230627940002
 51
281.9951776995001
  0
ARC
  5
C5
330
2
100
AcDbEntity
  8
0
100
AcDbCircle
 10
40.19740178972432
 20
9.70379036334857
 30
0.0
 40
3.108690212685194
100
AcDbArc
 50
87.22322886449923
 51
101.9950220696003
  0
LINE
  5
C6
330
2
100
AcDbEntity
  8
0
100
AcDbLine
 10
40.34800175750172
 20
12.80883053832334
 30
0.0
 11
40.37716867480079
 21
12.80827838374653
 31
0.0
  0
ARC
  5
C7
330
2
100
AcDbEntity
  8
0
100
AcDbCircle
 10
38.9859325670118
 20
12.38847426264978
 30
0.0
 40
0.1793819171643756
100
AcDbArc
 50
126.2532496232998
 51
180.6738386778989
  0
LINE
  5
C8
330
2
100
AcDbEntity
  8
0
100
AcDbLine
 10
38.80656305522981
 20
12.38636465372778
 30
0.0
 11
38.80358883294017
 21
12.35266243774727
 31
0.0
  0
LINE
  5
C9
330
2
100
AcDbEntity
  8
0
100
AcDbLine
 10
38.79025811392269
 20
12.37637140213877
 30
0.0
 11
38.7872838916095
 21
12.34266994483035
 31
0.0
  0
ARC
  5
CA
330
2
100
AcDbEntity
  8
0
100
AcDbCircle
 10
39.0234377953221
 20
12.37911470367189
 30
0.0
 40
0.2331958179860951
100
AcDbArc
 50
126.2530898266998
 51
180.6740396362988
  0
LINE
  5
CB
330
2
100
AcDbEntity
  8
0
100
AcDbLine
 10
39.55133293874638
 20
12.74460437907923
 30
0.0
 11
38.88553671679176
 21
12.56716677639501
 31
0.0
  0
ARC
  5
CC
330
2
100
AcDbEntity
  8
0
100
AcDbCircle
 10
40.43642643847269
 20
11.81821742075439
 30
0.0
 40
0.4438468017306584
100
AcDbArc
 50
253.7997989797993
 51
357.7327917724994
  0
LINE
  5
CD
330
2
100
AcDbEntity
  8
0
100
AcDbLine
 10
40.31259563296746
 20
11.39199457410864
 30
0.0
 11
39.2744270414774
 21
11.66799645000281
 31
0.0
  0
ARC
  5
CE
330
2
100
AcDbEntity
  8
0
100
AcDbCircle
 10
39.46628578824825
 20
12.30416430868377
 30
0.0
 40
0.6644692040381885
100
AcDbArc
 50
175.8143866076007
 51
253.2174715212001
  0
LINE
  5
CF
330
2
100
AcDbEntity
  8
0
100
AcDbLine
 10
40.88290023818646
 20
11.83436090191593
 30
0.0
 11
40.87992579686909
 21
11.80065887561522
 31
0.0
  0
ARC
  5
D0
330
2
100
AcDbEntity
  8
0
100
AcDbCircle
 10
39.44998036145401
 20
12.2941711294534
 30
0.0
 40
0.6644687699479931
100
AcDbArc
 50
175.814324529701
 51
253.2175039567996
  0
ARC
  5
D1
330
2
100
AcDbEntity
  8
0
100
AcDbCircle
 10
41.06226480053978
 20
11.83647331492864
 30
0.0
 40
0.1793770010792399
100
AcDbArc
 50
126.2527411961007
 51
180.674752879799
  0
LINE
  5
D2
330
2
100
AcDbEntity
  8
0
100
AcDbLine
 10
40.2962906916368
 20
11.3820017018792
 30
0.0
 11
39.25812210017024
 21
11.65800357777337
 31
0.0
  0
ARC
  5
D3
330
2
100
AcDbEntity
  8
0
100
AcDbCircle
 10
40.42157459247873
 20
11.81514249256729
 30
0.0
 40
0.4508957755229889
100
AcDbArc
 50
253.8677402178003
 51
300.6941754636002
  0
LWPOLYLINE
  5
D4
330
2
100
AcDbEntity
  8
0
100
AcDbPolyline
 90
       17
 70
   128
 43
0.0
 10
40.23907390615438
 20
12.53612696547587
 10
40.1298836867619
 20
12.55990271539619
 10
40.01758399707511
 20
12.57479974468319
 10
39.91926922611424
 20
12.57854957537588
 10
39.84990874841007
 20
12.57058272019676
 10
39.82006015986408
 20
12.55211027822379
 10
39.83426909122609
 20
12.52594587014542
 10
39.89037222301591
 20
12.49607165060848
 10
39.9798276673596
 20
12.46703696797825
 10
40.08901712808002
 20
12.44326099903024
 10
40.20131681779032
 20
12.42836434907928
 10
40.2996315887512
 20
12.42461413905056
 10
40.36899206645535
 20
12.43258175290175
 10
40.39884065500134
 20
12.45105343620265
 10
40.38463172363933
 20
12.47721822361706
 10
40.32852881085371
 20
12.5070918741617
 10
40.23907390615438
 20
12.53612696547587
  0
LWPOLYLINE
  5
D5
330
2
100
AcDbEntity
  8
0
100
AcDbPolyline
 90
       17
 70
   128
 43
0.0
 10
41.2768866128616
 20
12.42583410296537
 10
41.16769699180933
 20
12.44960977271976
 10
41.05539730209901
 20
12.46450680200676
 10
40.95708231215748
 20
12.46825682237922
 10
40.88772183442982
 20
12.46028958786406
 10
40.85787324590734
 20
12.44181714586758
 10
40.87208217724582
 20
12.4156523584767
 10
40.92818530905916
 20
12.38577889758831
 10
41.01764097240702
 20
12.35674364596579
 10
41.12683021412327
 20
12.33296824603359
 10
41.23912990383359
 20
12.31807083741055
 10
41.33744467477095
 20
12.31432100671788
 10
41.40680537150278
 20
12.32228843088929
 10
41.4366537410211
 20
12.340760683206
 10
41.42244502868678
 20
12.36692528094063
 10
41.36634227620951
 20
12.39679923065538
 10
41.2768866128616
 20
12.42583410296537
  0
LWPOLYLINE
  5
D6
330
2
100
AcDbEntity
  8
0
100
AcDbPolyline
 90
        9
 70
   128
 43
0.0
 10
41.86230358675142
 20
12.37069875477269
 10
41.86650735201967
 20
12.33772225697015
 10
41.86077252557306
 20
12.3063417673496
 10
41.84512451664708
 20
12.27669207768243
 10
41.81962972684881
 20
12.24890034067284
 10
41.78439696588894
 20
12.22308571994626
 10
41.7395778466497
 20
12.19935887182799
 10
41.68536370750957
 20
12.17782093060575
 10
41.62198750902345
 20
12.15856405586388
  0
LWPOLYLINE
  5
D7
330
2
100
AcDbEntity
  8
0
100
AcDbPolyline
 90
        9
 70
   128
 43
0.0
 10
41.92027175213808
 20
12.431495330485
 10
41.90442794693563
 20
12.42668111912477
 10
41.8908744522218
 20
12.42129699313138
 10
41.87966957759561
 20
12.41536496920957
 10
41.87086140201197
 20
12.40891119182135
 10
41.86448793432513
 20
12.40196357679229
 10
41.86057555274586
 20
12.39455123453555
 10
41.85914198104529
 20
12.38670583496535
 10
41.860192991805
 20
12.37846154087644
  0
LWPOLYLINE
  5
D8
330
2
100
AcDbEntity
  8
0
100
AcDbPolyline
 90
       17
 70
   128
 43
0.0
 10
40.65469561083418
 20
12.26001731666649
 10
40.54550636914146
 20
12.28379309593472
 10
40.43320667943116
 20
12.29869050455775
 10
40.3348916894661
 20
12.30244014559417
 10
40.26553121176195
 20
12.29447253174299
 10
40.23568262321595
 20
12.27600084841857
 10
40.24989155457795
 20
12.24983568169164
 10
40.30599468636776
 20
12.21996222080325
 10
40.3954495910671
 20
12.1909271295126
 10
40.50463959143188
 20
12.16715156924854
 10
40.61693928114219
 20
12.15225416062551
 10
40.71525405210308
 20
12.14850470926885
 10
40.78461474881141
 20
12.15647137476821
 10
40.81446311835323
 20
12.17494400642095
 10
40.80025418699121
 20
12.20110917314787
 10
40.74415127418207
 20
12.23098244435648
 10
40.65469561083418
 20
12.26001731666649
  0
LWPOLYLINE
  5
D9
330
2
100
AcDbEntity
  8
0
100
AcDbPolyline
 90
       17
 70
   128
 43
0.0
 10
49.9504212951543
 20
20.79174156648303
 10
50.05961151452331
 20
20.78126380415527
 10
50.17191120423359
 20
20.80423584437654
 10
50.27022597519445
 20
20.85716102324309
 10
50.33958645289861
 20
20.93198197852883
 10
50.36943504144462
 20
21.01730700326432
 10
50.35522611008258
 20
21.10014717952693
 10
50.29912297826928
 20
21.1678897099471
 10
50.2096675339256
 20
21.21022238016989
 10
50.10047807322867
 20
21.22070036150183
 10
49.98817838351839
 20
21.19772870061659
 10
49.88986361255747
 20
21.14480314241402
 10
49.82050313485334
 20
21.06998294580033
 10
49.79065454630735
 20
20.98465716239278
 10
49.80486347766936
 20
20.90181736546619
 10
49.86096639045496
 20
20.83407464538976
 10
49.9504212951543
 20
20.79174156648303
  0
LWPOLYLINE
  5
DA
330
2
100
AcDbEntity
  8
0
100
AcDbPolyline
 90
       17
 70
   128
 43
0.0
 10
48.91260858844707
 20
20.48276620823853
 10
49.02179820949936
 20
20.47228852607669
 10
49.13409789918614
 20
20.49526056629796
 10
49.23241288915122
 20
20.54818555548473
 10
49.30177336687887
 20
20.62300613143446
 10
49.33162195540136
 20
20.70833115619345
 10
49.31741302406287
 20
20.79117095312004
 10
49.26130989224954
 20
20.85891424218876
 10
49.17185422890165
 20
20.90124672275527
 10
49.0626649871854
 20
20.91172489374348
 10
48.9503652974751
 20
20.88875247418615
 10
48.85205052653775
 20
20.83582729534315
 10
48.7826898298059
 20
20.76100728838571
 10
48.75284146028758
 20
20.67568169465794
 10
48.76705017262189
 20
20.59284208738761
 10
48.82315292509921
 20
20.52509906814108
 10
48.91260858844707
 20
20.48276620823853
  0
LWPOLYLINE
  5
DB
330
2
100
AcDbEntity
  8
0
100
AcDbPolyline
 90
        7
 70
   128
 43
0.0
 10
49.50417759008122
 20
21.86056338770904
 10
49.47424114920561
 20
21.84018155162278
 10
49.40488045249728
 20
21.7653607860168
 10
49.37503208295547
 20
21.68003557160155
 10
49.38924101431748
 20
21.597196154011
 10
49.44534392710311
 20
21.52945305459854
 10
49.53479959047449
 20
21.48712019469598
  0
LWPOLYLINE
  5
DC
330
2
100
AcDbEntity
  8
0
100
AcDbPolyline
 90
        9
 70
   128
 43
0.0
 10
50.93137310113843
 20
21.38284221571534
 10
51.0317143895929
 20
21.36468023219472
 10
51.12634529555283
 20
21.36473687126658
 10
51.21162943305641
 20
21.38301062936719
 10
51.28428989889076
 20
21.41879882650976
 10
51.34153351032789
 20
21.47072638987273
 10
51.38116123825968
 20
21.53679758485459
 10
51.40164978638546
 20
21.61447406289217
 10
51.40221130967569
 20
21.70076961161072
  0
LWPOLYLINE
  5
DD
330
2
100
AcDbEntity
  8
0
100
AcDbPolyline
 90
        9
 70
   128
 43
0.0
 10
49.22762227926004
 20
22.2924837827292
 10
49.24279501219027
 20
22.31363495748595
 10
49.25841504259712
 20
22.32898699967307
 10
49.27374348616059
 20
22.33781122118734
 10
49.28805178225748
 20
22.33968917588983
 10
49.30066343559892
 20
22.33453229618941
 10
49.31097919992393
 20
22.32258562234535
 10
49.31851082639595
 20
22.30441478478169
 10
49.32290012345707
 20
22.28088065352423
  0
LWPOLYLINE
  5
DE
330
2
100
AcDbEntity
  8
0
100
AcDbPolyline
 90
        9
 70
   128
 43
0.0
 10
49.2333046729119
 20
22.26913352141492
 10
49.24497592292921
 20
22.28540417656262
 10
49.2569913489893
 20
22.29721305592879
 10
49.26878231683279
 20
22.30400074130177
 10
49.27978913162977
 20
22.3054458359663
 10
49.28948981199711
 20
22.30147883467806
 10
49.29742542264228
 20
22.29228893080685
 10
49.30321815663538
 20
22.27831077517845
 10
49.30659496312221
 20
22.26020853676537
  0
ARC
  5
DF
330
2
100
AcDbEntity
  8
0
100
AcDbCircle
 10
46.15918910515344
 20
23.282380049518
 30
0.0
 40
1.849005339656009
100
AcDbArc
 50
1.338275182220137
 51
41.5466016651512
  0
LINE
  5
E0
330
2
100
AcDbEntity
  8
0
100
AcDbLine
 10
47.54301526437711
 20
24.50869400079075
 30
0.0
 11
47.25751442458327
 21
24.73932648856709
 31
0.0
  0
LINE
  5
E1
330
2
100
AcDbEntity
  8
0
100
AcDbLine
 10
46.50218121112646
 20
24.4797701413316
 30
0.0
 11
46.50218121112646
 21
19.70038175307678
 31
0.0
  0
LWPOLYLINE
  5
E2
330
2
100
AcDbEntity
  8
0
100
AcDbPolyline
 90
        7
 70
   128
 43
0.0
 10
46.7116142931134
 20
24.97619711282614
 10
46.71120512863183
 20
24.97607956622902
 10
46.63993456730278
 20
24.93649329200522
 10
46.58144430481092
 20
24.86370244804039
 10
46.53798214508006
 20
24.76050510831278
 10
46.51121825449937
 20
24.63086722614518
 10
46.50218121112646
 20
24.4797701413316
  0
LWPOLYLINE
  5
E3
330
2
100
AcDbEntity
  8
0
100
AcDbPolyline
 90
        5
 70
   128
 43
0.0
 10
44.22885857286977
 20
25.01998705293972
 10
44.22885857286977
 20
20.02833257658744
 10
44.23090510621213
 20
20.02101410798299
 10
44.23481769901186
 20
20.01452474783555
 10
44.24067320621634
 20
20.00841190168667
  0
LINE
  5
E4
330
2
100
AcDbEntity
  8
0
100
AcDbLine
 10
44.36658537625287
 20
19.89936876381459
 30
0.0
 11
44.24067320621634
 21
20.00841190168667
 31
0.0
  0
LWPOLYLINE
  5
E5
330
2
100
AcDbEntity
  8
0
100
AcDbPolyline
 90
        5
 70
   128
 43
0.0
 10
44.81964066374021
 20
25.48752700235807
 10
44.72788587094647
 20
25.55133608105888
 10
44.63965724048306
 20
25.58138799291845
 10
44.55834525823823
 20
25.57652785081023
 10
44.5583428882213
 20
25.57652653441878
  0
LINE
  5
E6
330
2
100
AcDbEntity
  8
0
100
AcDbLine
 10
45.43484336115835
 20
24.95474583792934
 30
0.0
 11
44.81964066374021
 21
25.48752700235807
 31
0.0
  0
LINE
  5
E7
330
2
100
AcDbEntity
  8
0
100
AcDbLine
 10
45.47701402945122
 20
19.92401715042061
 30
0.0
 11
45.47491061374079
 21
19.92551374166227
 31
0.0
  0
LINE
  5
E8
330
2
100
AcDbEntity
  8
0
100
AcDbLine
 10
45.44551570737347
 20
19.95097047731449
 30
0.0
 11
45.47491061374079
 21
19.92551374166227
 31
0.0
  0
LINE
  5
E9
330
2
100
AcDbEntity
  8
0
100
AcDbLine
 10
45.44551570737347
 20
19.95097047731449
 30
0.0
 11
45.48388189615198
 21
19.92367908422534
 31
0.0
  0
ARC
  5
EA
330
2
100
AcDbEntity
  8
0
100
AcDbCircle
 10
45.46836332944454
 20
19.98107572528756
 30
0.0
 40
0.0377933828914049
100
AcDbArc
 50
177.5870192579989
 51
232.8042323887997
  0
LINE
  5
EB
330
2
100
AcDbEntity
  8
0
100
AcDbLine
 10
45.43060345728403
 20
19.98266690270242
 30
0.0
 11
45.43060345728403
 21
24.84927971095877
 31
0.0
  0
LINE
  5
EC
330
2
100
AcDbEntity
  8
0
100
AcDbLine
 10
45.47491061374079
 20
19.92551374166227
 30
0.0
 11
45.47242482778046
 21
19.92746667944143
 31
0.0
  0
LINE
  5
ED
330
2
100
AcDbEntity
  8
0
100
AcDbLine
 10
44.49437658789986
 20
25.55761154142283
 30
0.0
 11
44.48238417569195
 21
25.55459914284523
 31
0.0
  0
LWPOLYLINE
  5
EE
330
2
100
AcDbEntity
  8
0
100
AcDbPolyline
 90
        7
 70
   128
 43
0.0
 10
45.43060345728403
 20
24.84927971095877
 10
45.43964055542564
 20
25.00037674834065
 10
45.46640439126117
 20
25.13001467793997
 10
45.50986649622335
 20
25.23321206509927
 10
45.56835681346037
 20
25.30600286163239
 10
45.63962732004427
 20
25.34558918326438
 10
45.64003653927097
 20
25.3457066824533
  0
LINE
  5
EF
330
2
100
AcDbEntity
  8
0
100
AcDbLine
 10
42.41712793719105
 20
19.53000148042633
 30
0.0
 11
42.45869867620178
 21
19.49400016439495
 31
0.0
  0
LINE
  5
F0
330
2
100
AcDbEntity
  8
0
100
AcDbLine
 10
42.51235264663352
 20
19.44753446299859
 30
0.0
 11
42.45869867620178
 21
19.49400016439495
 31
0.0
  0
LINE
  5
F1
330
2
100
AcDbEntity
  8
0
100
AcDbLine
 10
42.3276913797652
 20
19.59401003214826
 30
0.0
 11
42.41712793719105
 21
19.53000148042633
 31
0.0
  0
ARC
  5
F2
330
2
100
AcDbEntity
  8
0
100
AcDbCircle
 10
42.3505395651847
 20
19.62411554519329
 30
0.0
 40
0.0377939345987063
100
AcDbArc
 50
177.5874566717
 51
232.8037949750995
  0
LINE
  5
F3
330
2
100
AcDbEntity
  8
0
100
AcDbLine
 10
42.31277912965226
 20
19.6257064575362
 30
0.0
 11
42.31277912965226
 21
24.49231926581607
 31
0.0
  0
LWPOLYLINE
  5
F4
330
2
100
AcDbEntity
  8
0
100
AcDbPolyline
 90
        7
 70
   128
 43
0.0
 10
42.31277912965226
 20
24.49231926581607
 10
42.32181611827999
 20
24.64341639801431
 10
42.34858006362936
 20
24.77305423277374
 10
42.39204216861508
 20
24.87625161993304
 10
42.45053237633825
 20
24.94904251130603
 10
42.52180299241246
 20
24.98862873812168
 10
42.52221221166272
 20
24.9887462373106
  0
LINE
  5
F5
330
2
100
AcDbEntity
  8
0
100
AcDbLine
 10
43.68209049725446
 20
19.96304947255431
 30
0.0
 11
43.72366123626519
 21
19.92704815652292
 31
0.0
  0
LINE
  5
F6
330
2
100
AcDbEntity
  8
0
100
AcDbLine
 10
43.76775365054957
 20
19.88886300563641
 30
0.0
 11
43.72366123626519
 21
19.92704815652292
 31
0.0
  0
LINE
  5
F7
330
2
100
AcDbEntity
  8
0
100
AcDbLine
 10
43.76775365054957
 20
19.81818520303088
 30
0.0
 11
43.76775365054957
 21
19.88886300563641
 31
0.0
  0
LINE
  5
F8
330
2
100
AcDbEntity
  8
0
100
AcDbLine
 10
43.59265391610104
 20
20.02705801740958
 30
0.0
 11
43.68209049725446
 21
19.96304947255431
 31
0.0
  0
ARC
  5
F9
330
2
100
AcDbEntity
  8
0
100
AcDbCircle
 10
43.61550207755776
 20
20.05716349127701
 30
0.0
 40
0.0377938889063062
100
AcDbArc
 50
177.5873839265005
 51
232.8037880098
  0
LINE
  5
FA
330
2
100
AcDbEntity
  8
0
100
AcDbLine
 10
43.57774168971569
 20
20.05875444966419
 30
0.0
 11
43.57774168971569
 21
24.92536725792053
 31
0.0
  0
LWPOLYLINE
  5
FB
330
2
100
AcDbEntity
  8
0
100
AcDbPolyline
 90
        4
 70
   128
 43
0.0
 10
42.84631616837997
 20
19.69923728145333
 10
42.84836270172235
 20
19.68979324812013
 10
42.85227524711384
 20
19.68330387428641
 10
42.85813075431831
 20
19.67719102813754
  0
LINE
  5
FC
330
2
100
AcDbEntity
  8
0
100
AcDbLine
 10
42.90222316860269
 20
19.63900587725103
 30
0.0
 11
42.85813075431831
 21
19.67719102813754
 31
0.0
  0
LINE
  5
FD
330
2
100
AcDbEntity
  8
0
100
AcDbLine
 10
42.90222316860269
 20
19.60000259439465
 30
0.0
 11
42.90222316860269
 21
19.63900587725103
 31
0.0
  0
LWPOLYLINE
  5
FE
330
2
100
AcDbEntity
  8
0
100
AcDbPolyline
 90
        5
 70
   128
 43
0.0
 10
43.43709825925039
 20
25.15630614249523
 10
43.34534346645667
 20
25.22011522119604
 10
43.25711483599326
 20
25.25016713305562
 10
43.17580285374845
 20
25.2453069909474
 10
43.17580048372557
 20
25.24530567454749
  0
LINE
  5
FF
330
2
100
AcDbEntity
  8
0
100
AcDbLine
 10
43.58198168840636
 20
25.03083341226368
 30
0.0
 11
43.43709825925039
 21
25.15630614249523
 31
0.0
  0
LWPOLYLINE
  5
100
330
2
100
AcDbEntity
  8
0
100
AcDbPolyline
 90
        7
 70
   128
 43
0.0
 10
43.57774168971569
 20
24.92536725792053
 10
43.58677867834343
 20
25.07646439014231
 10
43.6135426236693
 20
25.20610222490172
 10
43.65700472865496
 20
25.30929961206103
 10
43.71549504589202
 20
25.38209040859413
 10
43.78676555247589
 20
25.42167673022615
 10
43.78717477170263
 20
25.42179422941506
  0
LINE
  5
101
330
2
100
AcDbEntity
  8
0
100
AcDbLine
 10
47.59120630254502
 20
19.10537778473021
 30
0.0
 11
45.93209041924621
 21
19.54646157456802
 31
0.0
  0
ARC
  5
102
330
2
100
AcDbEntity
  8
0
100
AcDbCircle
 10
47.83651126784521
 20
17.61973252876556
 30
0.0
 40
1.199003669992681
100
AcDbArc
 50
3.903302713498991
 51
43.88170829670071
  0
ELLIPSE
  5
103
330
2
100
AcDbEntity
  8
0
100
AcDbEllipse
 10
45.09474760064259
 20
17.80601967145132
 30
0.0
 11
3.934287714751686
 21
-0.5432300199937278
 31
0.0
210
0.0
220
0.0
230
0.9999999999999998
 40
0.3517094056999999
 41
3.364292861008334
 42
3.373254865492339
  0
LINE
  5
104
330
2
100
AcDbEntity
  8
0
100
AcDbLine
 10
41.21542056027066
 20
18.30515270179836
 30
0.0
 11
41.21542056027066
 21
17.99596408346193
 31
0.0
  0
LINE
  5
105
330
2
100
AcDbEntity
  8
0
100
AcDbLine
 10
45.71992281623477
 20
19.9083493571605
 30
0.0
 11
45.71992281623477
 21
19.60009270959163
 31
0.0
  0
LWPOLYLINE
  5
106
330
2
100
AcDbEntity
  8
0
100
AcDbPolyline
 90
       16
 70
   128
 43
0.0
 10
41.21542056027066
 20
18.30515270179836
 10
41.30695614810274
 20
18.50416671918755
 10
41.4392150131116
 20
18.69737165362628
 10
41.61077481750239
 20
18.88269049040182
 10
41.81979116789945
 20
19.0581307364238
 10
42.06401696574032
 20
19.22180631758546
 10
42.34082651586655
 20
19.37195743578552
 10
42.64724409023775
 20
19.50696968874818
 10
42.97997475028329
 20
19.62539194535479
 10
43.33544170394129
 20
19.72595067018221
 10
43.70982319494113
 20
19.80756487154364
 10
44.09909415750255
 20
19.86935711469697
 10
44.49906959021609
 20
19.91066288171621
 10
44.90544916959144
 20
19.93103839236063
 10
45.31386390895379
 20
19.93026446358539
 10
45.71992281623477
 20
19.9083493571605
  0
LINE
  5
107
330
2
100
AcDbEntity
  8
0
100
AcDbLine
 10
47.81422015856475
 20
19.35157042216571
 30
0.0
 11
45.71992281623477
 21
19.9083493571605
 31
0.0
  0
ARC
  5
108
330
2
100
AcDbEntity
  8
0
100
AcDbCircle
 10
47.92631886068469
 20
17.94893477741391
 30
0.0
 40
1.107453393552915
100
AcDbArc
 50
0.7717877943996298
 51
35.4724682836004
  0
LWPOLYLINE
  5
109
330
2
100
AcDbEntity
  8
0
100
AcDbPolyline
 90
       60
 70
   128
 43
0.0
 10
43.50915971010336
 20
12.75979494656439
 10
43.16731214364572
 20
12.85341293179599
 10
42.84730304938636
 20
12.96466873928218
 10
42.55275850833257
 20
13.09230163021194
 10
42.28701577537554
 20
13.23486560563783
 10
42.05308574538805
 20
13.3907452671008
 10
41.85361882438674
 20
13.55817442260271
 10
41.69087546031255
 20
13.73525613241458
 10
41.566699128713
 20
13.91998391415124
 10
41.48249689529217
 20
14.11026470822752
 10
41.43922314340375
 20
14.30394260685451
 10
41.43736775163475
 20
14.49882310897033
 10
41.47695209399851
 20
14.69269826626113
 10
41.55752743541697
 20
14.88337128770381
 10
41.67818079267505
 20
15.06868168697461
 10
41.8375453085593
 20
15.246530025971
 10
42.03381532554438
 20
15.41490110630347
 10
42.26476675678006
 20
15.57188717308612
 10
42.52778313437272
 20
15.71570959620954
 10
42.8198842272334
 20
15.84473876449464
 10
43.13776028046362
 20
15.95751282102646
 10
43.47780995194545
 20
16.0527537987513
 10
43.83618004907807
 20
16.12938275824404
 10
44.20881028577356
 20
16.18653131723337
 10
44.59147862474125
 20
16.22355208437654
 10
44.97984911023055
 20
16.24002551282293
 10
45.36952156504881
 20
16.23576501608861
 10
45.75608057281144
 20
16.21081884281965
 10
46.13514625288465
 20
16.16546968729728
 10
46.50242412530733
 20
16.1002312553308
 10
46.85375227730302
 20
16.01584278694273
 10
47.18515041791213
 20
15.9132605203084
 10
47.49286325041449
 20
15.79364663017553
 10
47.77340453906108
 20
15.65835647019429
 10
48.02359549740527
 20
15.50892284830883
 10
48.24060142631738
 20
15.3470389709573
 10
48.42196369334569
 20
15.174539070502
 10
48.56562729361549
 20
14.99337760295984
 10
48.66996434740463
 20
14.80560714638146
 10
48.73379284878756
 20
14.61335537477078
 10
48.75638947292363
 20
14.41880038802698
 10
48.73749817100133
 20
14.22414662390653
 10
48.67733308292568
 20
14.03159977739995
 10
48.57657596714074
 20
13.84334121246938
 10
48.43636818288501
 20
13.66150402533589
 10
48.25829860124509
 20
13.48814869120505
 10
48.0443846939223
 20
13.32523914410937
 10
47.79705027151531
 20
13.17462143000897
 10
47.51909762196922
 20
13.03800200769349
 10
47.2136761506723
 20
12.91692883324522
 10
46.88424631434974
 20
12.8127737413844
 10
46.53454079042035
 20
12.72671681031531
 10
46.16852187166467
 20
12.65973305105533
 10
45.79033659745818
 20
12.61258160469427
 10
45.40426996419651
 20
12.58579653427154
 10
45.01469653724697
 20
12.57968132843668
 10
44.62602986996527
 20
12.59430542696547
 10
44.24267417406068
 20
12.62950304025853
 10
43.868972646014
 20
12.68487530253365
 10
43.50915971010336
 20
12.75979494656439
  0
ARC
  5
10A
330
2
100
AcDbEntity
  8
0
100
AcDbCircle
 10
45.09474760882614
 20
19.97264813591511
 30
0.0
 40
4.263845424719518
100
AcDbArc
 50
247.1574837647
 51
292.8425157903002
  0
LWPOLYLINE
  5
10B
330
2
100
AcDbEntity
  8
0
100
AcDbPolyline
 90
       70
 70
   128
 43
0.0
 10
40.77778557845418
 20
13.30644357544558
 10
40.56902566102542
 20
13.50788800024949
 10
40.39776682839394
 20
13.71798945753318
 10
40.26542923198119
 20
13.93500732994527
 10
40.17310853715399
 20
14.1571429866248
 10
40.12157002123458
 20
14.38255584495829
 10
40.1112411070876
 20
14.60937815889988
 10
40.14220682620869
 20
14.83573033684773
 10
40.21421076413651
 20
15.05973676730065
 10
40.32665674349062
 20
15.27954122515438
 10
40.47861235265951
 20
15.49332243172187
 10
40.66881894669375
 20
15.69930882739191
 10
40.89570004311686
 20
15.89579363997765
 10
41.1573756500383
 20
16.08114875708997
 10
41.45167784992466
 20
16.25383794944691
 10
41.77616738228247
 20
16.41243076203633
 10
42.12815582151743
 20
16.55561270965072
 10
42.50472641777049
 20
16.68219736242359
 10
42.9027586321354
 20
16.79113595750987
 10
43.31895454859117
 20
16.88152552926043
 10
43.74986499000993
 20
16.95261745990927
 10
44.19191990179478
 20
17.00382220430708
 10
44.64145567439777
 20
17.03471591274596
 10
45.09474772184387
 20
17.04504224890821
 10
45.54803953678764
 20
17.03471597240597
 10
45.99757544387844
 20
17.0038222782648
 10
46.43963016382001
 20
16.95261736525753
 10
46.87054045915763
 20
16.88152555900813
 10
47.28673645937726
 20
16.79113583659078
 10
47.68476878391445
 20
16.68219739125416
 10
48.06133949003411
 20
16.55561276049223
 10
48.41332769820116
 20
16.41243074557515
 10
48.73781748382592
 20
16.25383802530943
 10
49.03211953920671
 20
16.08114871850028
 10
49.29379519466507
 20
15.89579365547467
 10
49.52067628372771
 20
15.69930886870947
 10
49.71088284258205
 20
15.49332245460291
 10
49.86283846823564
 20
15.27954127303288
 10
49.97528422463492
 20
15.05973671408401
 10
50.04728864511033
 20
14.83573034157444
 10
50.0782543039835
 20
14.60937812727089
 10
50.0679250639523
 20
14.3825558523188
 10
50.01638665552434
 20
14.15714283654592
 10
49.92406612831894
 20
13.93500730214939
 10
49.79172827925068
 20
13.71798953697012
 10
49.62046977360869
 20
13.50788793219427
 10
49.41170950167675
 20
13.30644368039733
 10
49.16717773904932
 20
13.11532563427256
 10
48.88890038011741
 20
12.93611778898874
 10
48.57918370534367
 20
12.77030476945362
 10
48.24059364871766
 20
12.61926104027178
 10
47.87593635974106
 20
12.48423770785626
 10
47.48823307097536
 20
12.36635400080597
 10
47.08069672281996
 20
12.26658647586615
 10
46.65670409521219
 20
12.18576198456188
 10
46.21976851986604
 20
12.12455030171903
 10
45.77351096485372
 20
12.08345830714431
 10
45.32162868112187
 20
12.06282700412998
 10
44.86786645460079
 20
12.06282701384209
 10
44.41598425458578
 20
12.08345834048995
 10
43.96972653855963
 20
12.12455023488667
 10
43.53279106012283
 20
12.18576192647744
 10
43.10879857241149
 20
12.26658652198096
 10
42.70126224024696
 20
12.36635406126551
 10
42.31355892523743
 20
12.48423776925643
 10
41.9489016599179
 20
12.6192610304421
 10
41.61031176381185
 20
12.77030489230102
 10
41.30059458083464
 20
12.93611768869317
 10
41.02231759839333
 20
13.11532566717138
 10
40.77778557845418
 20
13.30644357544558
  0
LWPOLYLINE
  5
10C
330
2
100
AcDbEntity
  8
0
100
AcDbPolyline
 90
       64
 70
   128
 43
0.0
 10
41.42897159805164
 20
13.33150167915832
 10
41.23645861427601
 20
13.51925692318838
 10
41.08229076016782
 20
13.71566315684774
 10
40.96800099591362
 20
13.9187686205541
 10
40.89472431354568
 20
14.12655446751005
 10
40.8631896309182
 20
14.33695580021525
 10
40.873709875119
 20
14.54788164699656
 10
40.92618079460748
 20
14.75723548255644
 10
41.02008082143468
 20
14.9629368102438
 10
41.15447665082921
 20
15.1629412971051
 10
41.32803267690772
 20
15.35526107347681
 10
41.53902406919748
 20
15.53798494582759
 10
41.7853535859401
 20
15.70929690636221
 10
42.06457364836323
 20
15.8674941383497
 10
42.373908947824
 20
16.01100466925241
 10
42.71028490073831
 20
16.13840228680863
 10
43.07035886078021
 20
16.24842060675316
 10
43.45055210031216
 20
16.33996635153029
 10
43.84708612564318
 20
16.41212958058517
 10
44.25602005788909
 20
16.46419321684578
 10
44.67328940306216
 20
16.49563993962867
 10
45.09474747142236
 20
16.50615693392308
 10
45.51620577066231
 20
16.49563983773398
 10
45.93347525135787
 20
16.46419326860443
 10
46.3424090493041
 20
16.41212950620416
 10
46.73894298122971
 20
16.33996627336323
 10
47.11913632032827
 20
16.24842055184337
 10
47.47921042659245
 20
16.13840228441
 10
47.81558621219066
 20
16.01100470617249
 10
48.12492142083279
 20
15.86749417940858
 10
48.40414147036914
 20
15.70929684277504
 10
48.65047135718253
 20
15.53798499789193
 10
48.86146269169356
 20
15.35526114221399
 10
49.03501856757559
 20
15.16294124993206
 10
49.1694143674811
 20
14.96293675354681
 10
49.2633142869344
 20
14.75723541567703
 10
49.31578547241194
 20
14.54788163878947
 10
49.32630564820479
 20
14.33695584343759
 10
49.29477081959021
 20
14.1265544376683
 10
49.22149423932859
 20
13.9187685919822
 10
49.10720442206941
 20
13.71566318205685
 10
48.95303673715855
 20
13.51925691222994
 10
48.7605237324773
 20
13.33150156724586
 10
48.53157872986935
 20
13.15426336748164
 10
48.26847673568039
 20
12.98930380228328
 10
47.9738329063421
 20
12.83826203353338
 10
47.65057551451285
 20
12.70263937835948
 10
47.30191701355282
 20
12.58378374885519
 10
46.9313227136237
 20
12.482876310509
 10
46.54247559082292
 20
12.40092005906562
 10
46.13924041009876
 20
12.33872921071046
 10
45.7256247354981
 20
12.29692199303891
 10
45.30573895754085
 20
12.27591416370366
 10
44.88375623074002
 20
12.27591414703084
 10
44.46387059371392
 20
12.29692207144114
 10
44.05025474603575
 20
12.33872921364996
 10
43.64701958186685
 20
12.40091997318533
 10
43.25817264218489
 20
12.48287631634096
 10
42.88757823681017
 20
12.58378384037934
 10
42.53891977989554
 20
12.70263942485055
 10
42.21566247705069
 20
12.83826208254064
 10
41.92101837676145
 20
12.98930373401643
 10
41.65791672821017
 20
13.15426348990576
 10
41.42897159805164
 20
13.33150167915832
  0
LWPOLYLINE
  5
10D
330
2
100
AcDbEntity
  8
0
100
AcDbPolyline
 90
       37
 70
   128
 43
0.0
 10
40.10398382437759
 20
14.54862903222029
 10
40.0988997506928
 20
14.73171130041216
 10
40.12994240713775
 20
14.95862409186459
 10
40.20212476995757
 20
15.18318515455989
 10
40.31484920523996
 20
15.40353404956804
 10
40.46718114479477
 20
15.61784457647512
 10
40.65785850246384
 20
15.82434114769081
 10
40.88530149332965
 20
16.02131262359621
 10
41.14762535660505
 20
16.20712648044232
 10
41.44265615723287
 20
16.38024348743991
 10
41.76794923811129
 20
16.53922910278437
 10
42.12080930263379
 20
16.68276559333714
 10
42.498312475651
 20
16.80966371364172
 10
42.89733051840068
 20
16.91887197231912
 10
43.31455699815533
 20
17.00948545097801
 10
43.74653455862872
 20
17.08075342359909
 10
44.18968408414642
 20
17.13208499375863
 10
44.64033296957484
 20
17.16305523231898
 10
45.09474757465745
 20
17.17340721228836
 10
45.54916202387626
 20
17.16305526500616
 10
45.99981096675416
 20
17.13208508006224
 10
46.44296042649771
 20
17.0807533801651
 10
46.87493840950595
 20
17.00948550372433
 10
47.29216465435964
 20
16.918871980244
 10
47.69118281149096
 20
16.80966365812053
 10
48.06868562666573
 20
16.68276544462218
 10
48.4215458926495
 20
16.53922899289426
 10
48.74683913193148
 20
16.38024357047479
 10
49.04186978732468
 20
16.20712651832653
 10
49.304193701277
 20
16.0213125434303
 10
49.53163664548715
 20
15.82434117583943
 10
49.72231393378407
 20
15.6178446016372
 10
49.87464613605927
 20
15.40353405431827
 10
49.98737034570595
 20
15.18318523867651
 10
50.05955263985919
 20
14.95862403563793
 10
50.09059538542963
 20
14.73171141493492
 10
50.08551136324481
 20
14.54862904244975
  0
SPLINE
  5
10E
330
2
100
AcDbEntity
  8
0
100
AcDbSpline
210
0.0
220
0.0
230
1.0
 70
     8
 71
     3
 72
    22
 73
    18
 74
     0
 42
0.000000001
 43
0.0000000001
 40
0.0
 40
0.0
 40
0.0
 40
0.0
 40
0.3809934063478925
 40
0.817357022805935
 40
0.9264660642152987
 40
0.9537482369082326
 40
0.9674076599284424
 40
0.9707006482481476
 40
0.9731220329259631
 40
0.9740614250382339
 40
0.9750102468384916
 40
0.9756816991518883
 40
0.9763519183063824
 40
0.9774208799966768
 40
0.9800753756693454
 40
0.9900740700490258
 40
1.0
 40
1.0
 40
1.0
 40
1.0
 10
41.2098964569618
 20
17.98358380235191
 30
0.0
 10
41.19934507011946
 20
17.75339414489217
 30
0.0
 10
41.17670885124467
 20
17.25956110220115
 30
0.0
 10
41.14912600861464
 20
16.69423004249571
 30
0.0
 10
41.12956430419429
 20
16.33627112660934
 30
0.0
 10
41.12331684239666
 20
16.23942748019985
 30
0.0
 10
41.12113510924086
 20
16.20988223907239
 30
0.0
 10
41.11989565779739
 20
16.19655959429545
 30
0.0
 10
41.11938695248135
 20
16.19191382898661
 30
0.0
 10
41.11899614297683
 20
16.18907873168874
 30
0.0
 10
41.11873617329218
 20
16.18758903279729
 30
0.0
 10
41.11850752244003
 20
16.18672279166116
 30
0.0
 10
41.11830038064176
 20
16.18635335072233
 30
0.0
 10
41.11802271145212
 20
16.18670579192551
 30
0.0
 10
41.11759231640843
 20
16.19104187139609
 30
0.0
 10
41.11747715481958
 20
16.20157200647796
 30
0.0
 10
41.11770957882614
 20
16.21232943269401
 30
0.0
 10
41.11782536642488
 20
16.21768850282258
 30
0.0
  0
LWPOLYLINE
  5
10F
330
2
100
AcDbEntity
  8
0
100
AcDbPolyline
 90
       16
 70
   128
 43
0.0
 10
41.20989645695344
 20
17.98358380234981
 10
41.30182716494481
 20
18.18961325951438
 10
41.43733210580573
 20
18.38953961690993
 10
41.61485510126127
 20
18.58106602752664
 10
41.832356336786
 20
18.76199210364512
 10
42.0873370721564
 20
18.93023938495569
 10
42.37686841760814
 20
19.08387481868519
 10
42.69762361963351
 20
19.22113360954269
 10
43.04591797465215
 20
19.34043870775265
 10
43.41775008368023
 20
19.44041954636402
 10
43.80884803326459
 20
19.51992764839662
 10
44.2147191751358
 20
19.57804922700082
 10
44.63070024879435
 20
19.61411687253941
 10
45.05201249580768
 20
19.6277162324387
 10
45.47381568193098
 20
19.61869085804037
 10
45.89126403608561
 20
19.58714457035469
  0
SPLINE
  5
110
330
2
100
AcDbEntity
  8
0
100
AcDbSpline
210
0.0
220
0.0
230
1.0
 70
     8
 71
     3
 72
     8
 73
     4
 74
     0
 42
0.000000001
 43
0.0000000001
 40
0.0
 40
0.0
 40
0.0
 40
0.0
 40
1.0
 40
1.0
 40
1.0
 40
1.0
 10
45.90478617553574
 20
19.58445883098647
 30
0.0
 10
45.90033319186276
 20
19.58577822727301
 30
0.0
 10
45.89582590993365
 20
19.58667392468434
 30
0.0
 10
45.89126411586606
 20
19.58714489008825
 30
0.0
  0
LINE
  5
111
330
2
100
AcDbEntity
  8
0
100
AcDbLine
 10
45.83059259578396
 20
17.13666763449865
 30
0.0
 11
45.82934307037278
 21
18.85701629803531
 31
0.0
  0
LINE
  5
112
330
2
100
AcDbEntity
  8
0
100
AcDbLine
 10
45.93597420197872
 20
19.44386163455723
 30
0.0
 11
46.91401799924671
 21
19.18384404003358
 31
0.0
  0
ELLIPSE
  5
113
330
2
100
AcDbEntity
  8
0
100
AcDbEllipse
 10
46.91425892178997
 20
19.13315733701305
 30
0.0
 11
-0.0406333435592799
 21
0.0424886846881177
 31
0.0
210
0.0
220
0.0
230
1.0
 40
0.7602689299000001
 41
3.835360514067596
 42
5.388703548342457
  0
LINE
  5
114
330
2
100
AcDbEntity
  8
0
100
AcDbLine
 10
46.96732208636627
 20
19.06842740776055
 30
0.0
 11
46.96615524377013
 21
19.12024415180908
 31
0.0
  0
LINE
  5
115
330
2
100
AcDbEntity
  8
0
100
AcDbLine
 10
47.3789652842898
 20
18.95899022551401
 30
0.0
 11
46.96732208636627
 21
19.06842740776055
 31
0.0
  0
LINE
  5
116
330
2
100
AcDbEntity
  8
0
100
AcDbLine
 10
47.37964209869038
 20
19.01031675168718
 30
0.0
 11
47.3789652842898
 21
18.95899022551401
 31
0.0
  0
ELLIPSE
  5
117
330
2
100
AcDbEntity
  8
0
100
AcDbEllipse
 10
47.43154672460455
 20
18.99563393518115
 30
0.0
 11
-0.0406333435592799
 21
0.0424886846881311
 31
0.0
210
0.0
220
0.0
230
1.0
 40
0.7602689299
 41
5.388703548342328
 42
6.942046582617757
  0
LINE
  5
118
330
2
100
AcDbEntity
  8
0
100
AcDbLine
 10
47.43130588210964
 20
19.04632065755532
 30
0.0
 11
47.51705795846326
 21
19.02352309732884
 31
0.0
  0
ARC
  5
119
330
2
100
AcDbEntity
  8
0
100
AcDbCircle
 10
45.12884422584774
 20
11.37875096386948
 30
0.0
 40
7.558041666961626
100
AcDbArc
 50
82.54734944020075
 51
84.27963881550054
  0
SPLINE
  5
11A
330
2
100
AcDbEntity
  8
0
100
AcDbSpline
210
0.0
220
0.0
230
1.0
 70
     8
 71
     3
 72
    11
 73
     7
 74
     0
 42
0.000000001
 43
0.0000000001
 40
0.0
 40
0.0
 40
0.0
 40
0.0
 40
0.1896389501919505
 40
0.3784778568445759
 40
0.6494236007530364
 40
1.0
 40
1.0
 40
1.0
 40
1.0
 10
45.90478623316339
 20
19.58445890719411
 30
0.0
 10
45.90839530010234
 20
19.58298615099353
 30
0.0
 10
45.91559820814882
 20
19.58004685181536
 30
0.0
 10
45.92476932586168
 20
19.57047558061881
 30
0.0
 10
45.93225710038837
 20
19.55581590549624
 30
0.0
 10
45.93309608171312
 20
19.54320049866078
 30
0.0
 10
45.93356931835494
 20
19.53608463971336
 30
0.0
  0
ARC
  5
11B
330
2
100
AcDbEntity
  8
0
100
AcDbCircle
 10
45.87656839544157
 20
18.85199647059926
 30
0.0
 40
0.0474913675875888
100
AcDbArc
 50
83.21452828962989
 51
173.9325142324637
  0
POLYLINE
  5
11C
330
2
100
AcDbEntity
  8
0
100
AcDb2dPolyline
 66
     1
 10
0.0
 20
0.0
 30
0.0
 70
     2
  0
VERTEX
  5
11D
330
11C
100
AcDbEntity
  8
0
100
AcDbVertex
100
AcDb2dVertex
 10
32.24764734582668
 20
15.06621527441198
 30
0.0
 42
-0.0579364963769022
  0
VERTEX
  5
11E
330
11C
100
AcDbEntity
  8
0
100
AcDbVertex
100
AcDb2dVertex
 10
34.97426711672517
 20
15.16218393079607
 30
0.0
 42
-0.0673598873385097
 70
     1
  0
VERTEX
  5
11F
330
11C
100
AcDbEntity
  8
0
100
AcDbVertex
100
AcDb2dVertex
 10
37.1684554402022
 20
14.68284881644105
 30
0.0
 42
-0.011450306815309
  0
VERTEX
  5
120
330
11C
100
AcDbEntity
  8
0
100
AcDbVertex
100
AcDb2dVertex
 10
38.48113757589045
 20
14.16993785920283
 30
0.0
 42
-0.0314694829932428
 70
     1
  0
VERTEX
  5
121
330
11C
100
AcDbEntity
  8
0
100
AcDbVertex
100
AcDb2dVertex
 10
38.94140390925662
 20
13.942866440899
 30
0.0
 42
-0.0818384679004543
  0
VERTEX
  5
122
330
11C
100
AcDbEntity
  8
0
100
AcDbVertex
100
AcDb2dVertex
 10
39.39257157793513
 20
13.57462209481754
 30
0.0
 42
-0.0499084419776045
 70
     1
  0
VERTEX
  5
123
330
11C
100
AcDbEntity
  8
0
100
AcDbVertex
100
AcDb2dVertex
 10
39.94759465723186
 20
12.80242735967463
 30
0.0
  0
SEQEND
  5
124
330
11C
100
AcDbEntity
  8
0
  0
POLYLINE
  5
125
330
2
100
AcDbEntity
  8
0
100
AcDb2dPolyline
 66
     1
 10
0.0
 20
0.0
 30
0.0
  0
VERTEX
  5
126
330
125
100
AcDbEntity
  8
0
100
AcDbVertex
100
AcDb2dVertex
 10
32.24764734582668
 20
14.82829575392929
 30
0.0
 42
-0.0587115938237388
  0
VERTEX
  5
127
330
125
100
AcDbEntity
  8
0
100
AcDbVertex
100
AcDb2dVertex
 10
34.95534285992307
 20
14.92778697337232
 30
0.0
 42
-0.0673598873385097
  0
VERTEX
  5
128
330
125
100
AcDbEntity
  8
0
100
AcDbVertex
100
AcDb2dVertex
 10
37.08790933061822
 20
14.46191356489458
 30
0.0
 42
-0.0114503068153089
  0
VERTEX
  5
129
330
125
100
AcDbEntity
  8
0
100
AcDbVertex
100
AcDb2dVertex
 10
38.39056080065366
 20
13.95292194058687
 30
0.0
 42
-0.0314694829932429
  0
VERTEX
  5
12A
330
125
100
AcDbEntity
  8
0
100
AcDbVertex
100
AcDb2dVertex
 10
38.82430683190762
 20
13.73893425702078
 30
0.0
 42
-0.081838467900454
  0
VERTEX
  5
12B
330
125
100
AcDbEntity
  8
0
100
AcDbVertex
100
AcDb2dVertex
 10
39.21623390786243
 20
13.4190422527481
 30
0.0
 42
-0.0443687761746195
  0
VERTEX
  5
12C
330
125
100
AcDbEntity
  8
0
100
AcDbVertex
100
AcDb2dVertex
 10
39.69278822652922
 20
12.77125185296572
 30
0.0
 42
-0.0499084419776047
  0
SEQEND
  5
12D
330
125
100
AcDbEntity
  8
0
  0
POLYLINE
  5
12E
330
2
100
AcDbEntity
  8
0
100
AcDb2dPolyline
 66
     1
 10
0.0
 20
0.0
 30
0.0
 70
     2
  0
VERTEX
  5
12F
330
12E
100
AcDbEntity
  8
0
100
AcDbVertex
100
AcDb2dVertex
 10
40.57633533589457
 20
12.82433486145778
 30
0.0
 42
-0.0488455962787705
  0
VERTEX
  5
130
330
12E
100
AcDbEntity
  8
0
100
AcDbVertex
100
AcDb2dVertex
 10
39.97031445064083
 20
13.44090125539127
 30
0.0
 42
-0.0597583052236917
 70
     1
  0
VERTEX
  5
131
330
12E
100
AcDbEntity
  8
0
100
AcDbVertex
100
AcDb2dVertex
 10
39.59463377329841
 20
14.04040817521366
 30
0.0
 42
-0.0048941852910339
  0
VERTEX
  5
132
330
12E
100
AcDbEntity
  8
0
100
AcDbVertex
100
AcDb2dVertex
 10
39.42188719652779
 20
14.41645629426471
 30
0.0
 42
-0.021488261389958
 70
     1
  0
VERTEX
  5
133
330
12E
100
AcDbEntity
  8
0
100
AcDbVertex
100
AcDb2dVertex
 10
39.38709839932811
 20
14.5040993286214
 30
0.0
 42
-0.0429133047917358
  0
VERTEX
  5
134
330
12E
100
AcDbEntity
  8
0
100
AcDbVertex
100
AcDb2dVertex
 10
39.2392011067121
 20
15.08544691756127
 30
0.0
 42
-0.0165742420476657
 70
     1
  0
VERTEX
  5
135
330
12E
100
AcDbEntity
  8
0
100
AcDbVertex
100
AcDb2dVertex
 10
39.03786764349924
 20
16.6230381040152
 30
0.0
 42
-0.0135478280119832
  0
VERTEX
  5
136
330
12E
100
AcDbEntity
  8
0
100
AcDbVertex
100
AcDb2dVertex
 10
39.00078299736904
 20
17.15225173610675
 30
0.0
 42
-0.0065323148410047
 70
     1
  0
VERTEX
  5
137
330
12E
100
AcDbEntity
  8
0
100
AcDbVertex
100
AcDb2dVertex
 10
38.96800215806755
 20
18.25187322078442
 30
0.0
 42
-0.0630061926651922
  0
VERTEX
  5
138
330
12E
100
AcDbEntity
  8
0
100
AcDbVertex
100
AcDb2dVertex
 10
39.13950710934169
 20
19.81750910577774
 30
0.0
 42
-0.1013177687733093
 70
     1
  0
VERTEX
  5
139
330
12E
100
AcDbEntity
  8
0
100
AcDbVertex
100
AcDb2dVertex
 10
39.55654031188202
 20
20.71051411054121
 30
0.0
 42
-0.1072686604705578
  0
VERTEX
  5
13A
330
12E
100
AcDbEntity
  8
0
100
AcDbVertex
100
AcDb2dVertex
 10
40.00994563143229
 20
21.10676297452461
 30
0.0
 42
-0.0617534728423686
 70
     1
  0
VERTEX
  5
13B
330
12E
100
AcDbEntity
  8
0
100
AcDbVertex
100
AcDb2dVertex
 10
40.97346624450642
 20
21.4929005058734
 30
0.0
 42
-0.055592915443311
  0
VERTEX
  5
13C
330
12E
100
AcDbEntity
  8
0
100
AcDbVertex
100
AcDb2dVertex
 10
41.46352050709189
 20
21.56533014067923
 30
0.0
 42
-0.0467035193712873
 70
     1
  0
VERTEX
  5
13D
330
12E
100
AcDbEntity
  8
0
100
AcDbVertex
100
AcDb2dVertex
 10
42.05167289125269
 20
21.53137148799011
 30
0.0
  0
SEQEND
  5
13E
330
12E
100
AcDbEntity
  8
0
  0
POLYLINE
  5
13F
330
2
100
AcDbEntity
  8
0
100
AcDb2dPolyline
 66
     1
 10
0.0
 20
0.0
 30
0.0
  0
VERTEX
  5
140
330
13F
100
AcDbEntity
  8
0
100
AcDbVertex
100
AcDb2dVertex
 10
40.85830807710877
 20
12.89948165960425
 30
0.0
 42
-0.0588834903819056
  0
VERTEX
  5
141
330
13F
100
AcDbEntity
  8
0
100
AcDbVertex
100
AcDb2dVertex
 10
40.15329244098769
 20
13.58861420740848
 30
0.0
 42
-0.059758305223691
  0
VERTEX
  5
142
330
13F
100
AcDbEntity
  8
0
100
AcDbVertex
100
AcDb2dVertex
 10
39.80735378258307
 20
14.14065915423607
 30
0.0
 42
-0.0048941852910339
  0
VERTEX
  5
143
330
13F
100
AcDbEntity
  8
0
100
AcDbVertex
100
AcDb2dVertex
 10
39.63652889186511
 20
14.51252399834751
 30
0.0
 42
-0.0214882613899575
  0
VERTEX
  5
144
330
13F
100
AcDbEntity
  8
0
100
AcDbVertex
100
AcDb2dVertex
 10
39.60919383010537
 20
14.58138891894819
 30
0.0
 42
-0.0429133047917362
  0
VERTEX
  5
145
330
13F
100
AcDbEntity
  8
0
100
AcDbVertex
100
AcDb2dVertex
 10
39.47123048934098
 20
15.12368860609467
 30
0.0
 42
-0.0165742420476656
  0
VERTEX
  5
146
330
13F
100
AcDbEntity
  8
0
100
AcDbVertex
100
AcDb2dVertex
 10
39.27192060776306
 20
16.64582562394043
 30
0.0
 42
-0.0135478280119832
  0
VERTEX
  5
147
330
13F
100
AcDbEntity
  8
0
100
AcDbVertex
100
AcDb2dVertex
 10
39.23572662212906
 20
17.16232915292074
 30
0.0
 42
-0.0065323148410048
  0
VERTEX
  5
148
330
13F
100
AcDbEntity
  8
0
100
AcDbVertex
100
AcDb2dVertex
 10
39.2031288689108
 20
18.25580908067205
 30
0.0
 42
-0.0630061926651915
  0
VERTEX
  5
149
330
13F
100
AcDbEntity
  8
0
100
AcDbVertex
100
AcDb2dVertex
 10
39.36820574291561
 20
19.76276427820073
 30
0.0
 42
-0.1013177687733092
  0
VERTEX
  5
14A
330
13F
100
AcDbEntity
  8
0
100
AcDbVertex
100
AcDb2dVertex
 10
39.74532264923939
 20
20.57029538765832
 30
0.0
 42
-0.1072686604705569
  0
VERTEX
  5
14B
330
13F
100
AcDbEntity
  8
0
100
AcDbVertex
100
AcDb2dVertex
 10
40.1236165578272
 20
20.90090141512721
 30
0.0
 42
-0.0617534728423686
  0
VERTEX
  5
14C
330
13F
100
AcDbEntity
  8
0
100
AcDbVertex
100
AcDb2dVertex
 10
41.03342301786741
 20
21.26551262916675
 30
0.0
 42
-0.0555929154433105
  0
VERTEX
  5
14D
330
13F
100
AcDbEntity
  8
0
100
AcDbVertex
100
AcDb2dVertex
 10
41.47190579155229
 20
21.33032003845054
 30
0.0
 42
-0.046703519371287
  0
VERTEX
  5
14E
330
13F
100
AcDbEntity
  8
0
100
AcDbVertex
100
AcDb2dVertex
 10
42.0162955415857
 20
21.29888814605878
 30
0.0
 42
-0.046703519371287
  0
SEQEND
  5
14F
330
13F
100
AcDbEntity
  8
0
  0
ELLIPSE
  5
150
330
2
100
AcDbEntity
  8
0
100
AcDbEllipse
 10
32.399544102516
 20
12.83417281668721
 30
0.0
 11
0.2497888010047623
 21
0.0
 31
0.0
210
0.0
220
0.0
230
1.0
 40
0.6171303644892954
 41
2.338171018760502
 42
7.380107028926092
  0
POLYLINE
  5
151
330
2
100
AcDbEntity
  8
0
100
AcDb2dPolyline
 66
     1
 10
0.0
 20
0.0
 30
0.0
 70
     2
  0
VERTEX
  5
152
330
151
100
AcDbEntity
  8
0
100
AcDbVertex
100
AcDb2dVertex
 10
32.59268980211171
 20
12.56369316771622
 30
0.0
 42
0.0880096562533022
  0
VERTEX
  5
153
330
151
100
AcDbEntity
  8
0
100
AcDbVertex
100
AcDb2dVertex
 10
34.75214600827433
 20
10.9659548090688
 30
0.0
 42
0.1052464360854266
 70
     1
  0
VERTEX
  5
154
330
151
100
AcDbEntity
  8
0
100
AcDbVertex
100
AcDb2dVertex
 10
36.93487457912681
 20
10.40464676069295
 30
0.0
 42
0.0272445652114519
  0
VERTEX
  5
155
330
151
100
AcDbEntity
  8
0
100
AcDbVertex
100
AcDb2dVertex
 10
38.56918440548399
 20
10.42506271910645
 30
0.0
 42
0.0519632746712641
 70
     1
  0
VERTEX
  5
156
330
151
100
AcDbEntity
  8
0
100
AcDbVertex
100
AcDb2dVertex
 10
39.41530969603185
 20
10.57100306864022
 30
0.0
 42
0.0852429863494019
  0
VERTEX
  5
157
330
151
100
AcDbEntity
  8
0
100
AcDbVertex
100
AcDb2dVertex
 10
40.19173092160943
 20
10.94100280422476
 30
0.0
 42
0.0614300481464292
 70
     1
  0
VERTEX
  5
158
330
151
100
AcDbEntity
  8
0
100
AcDbVertex
100
AcDb2dVertex
 10
41.07203161074838
 20
11.74075202962275
 30
0.0
  0
SEQEND
  5
159
330
151
100
AcDbEntity
  8
0
  0
ELLIPSE
  5
15A
330
2
100
AcDbEntity
  8
0
100
AcDbEllipse
 10
40.86799162689477
 20
12.05275706758725
 30
0.0
 11
-0.2094248027160554
 21
0.1409843732179151
 31
0.0
210
0.0
220
0.0
230
1.0
 40
0.4166265049422468
 41
5.360526688532012
 42
10.17506547030871
  0
ELLIPSE
  5
15B
330
2
100
AcDbEntity
  8
0
100
AcDbEllipse
 10
41.07177209767647
 20
11.84123459837666
 30
0.0
 11
-0.0028668902687241
 21
0.1007353506333149
 31
0.0
210
0.0
220
0.0
230
1.0
 40
0.5558262378430172
 41
0.0
 42
6.283185307179584
  0
ELLIPSE
  5
15C
330
2
100
AcDbEntity
  8
0
100
AcDbEllipse
 10
32.56064904241323
 20
12.64312121314149
 30
0.0
 11
-0.0289787803055089
 21
0.0808935821997731
 31
0.0
210
0.0
220
0.0
230
0.9999999999999998
 40
0.5293258385647972
 41
0.0
 42
6.283185307179584
  0
POLYLINE
  5
15D
330
2
100
AcDbEntity
  8
0
100
AcDb2dPolyline
 66
     1
 10
0.0
 20
0.0
 30
0.0
 70
     2
  0
VERTEX
  5
15E
330
15D
100
AcDbEntity
  8
0
100
AcDbVertex
100
AcDb2dVertex
 10
40.98061635960211
 20
12.93427447863771
 30
0.0
 42
-0.0218393142536468
  0
VERTEX
  5
15F
330
15D
100
AcDbEntity
  8
0
100
AcDbVertex
100
AcDb2dVertex
 10
40.74539256248684
 20
13.0843295240782
 30
0.0
 42
-0.0343968148298645
 70
     1
  0
VERTEX
  5
160
330
15D
100
AcDbEntity
  8
0
100
AcDbVertex
100
AcDb2dVertex
 10
40.60757932862098
 20
13.19583706823588
 30
0.0
 42
-0.0059965664963173
  0
VERTEX
  5
161
330
15D
100
AcDbEntity
  8
0
100
AcDbVertex
100
AcDb2dVertex
 10
40.38307487975843
 20
13.40966128632791
 30
0.0
 42
-0.0241183618853061
 70
     1
  0
VERTEX
  5
162
330
15D
100
AcDbEntity
  8
0
100
AcDbVertex
100
AcDb2dVertex
 10
40.33052826907308
 20
13.46611837835636
 30
0.0
 42
-0.0277437468749824
  0
VERTEX
  5
163
330
15D
100
AcDbEntity
  8
0
100
AcDbVertex
100
AcDb2dVertex
 10
40.23555454585168
 20
13.59213537559434
 30
0.0
 42
-0.019152459699147
 70
     1
  0
VERTEX
  5
164
330
15D
100
AcDbEntity
  8
0
100
AcDbVertex
100
AcDb2dVertex
 10
40.11572362363764
 20
13.78668202333538
 30
0.0
 42
-0.0274890521344218
  0
VERTEX
  5
165
330
15D
100
AcDbEntity
  8
0
100
AcDbVertex
100
AcDb2dVertex
 10
40.00747996451763
 20
14.00581858157316
 30
0.0
 42
-0.0242781119376193
 70
     1
  0
VERTEX
  5
166
330
15D
100
AcDbEntity
  8
0
100
AcDbVertex
100
AcDb2dVertex
 10
39.91122953025362
 20
14.26522986619448
 30
0.0
 42
-0.0309058680573905
  0
VERTEX
  5
167
330
15D
100
AcDbEntity
  8
0
100
AcDbVertex
100
AcDb2dVertex
 10
39.84713374299005
 20
14.52164376792589
 30
0.0
 42
-0.0198968455354462
 70
     1
  0
VERTEX
  5
168
330
15D
100
AcDbEntity
  8
0
100
AcDbVertex
100
AcDb2dVertex
 10
39.78850829013443
 20
14.92774857968861
 30
0.0
 42
-0.0259011632680318
  0
VERTEX
  5
169
330
15D
100
AcDbEntity
  8
0
100
AcDbVertex
100
AcDb2dVertex
 10
39.7789018375561
 20
15.1130685939993
 30
0.0
 42
-0.0053073994048922
 70
     1
  0
VERTEX
  5
16A
330
15D
100
AcDbEntity
  8
0
100
AcDbVertex
100
AcDb2dVertex
 10
39.78850829013443
 20
16.01804872138491
 30
0.0
 42
-0.038929241233674
  0
VERTEX
  5
16B
330
15D
100
AcDbEntity
  8
0
100
AcDbVertex
100
AcDb2dVertex
 10
39.87571332196836
 20
16.89559448644954
 30
0.0
 42
-0.0315179927272688
 70
     1
  0
VERTEX
  5
16C
330
15D
100
AcDbEntity
  8
0
100
AcDbVertex
100
AcDb2dVertex
 10
40.13436818635527
 20
17.95308712602906
 30
0.0
 42
-0.1777444106017377
  0
VERTEX
  5
16D
330
15D
100
AcDbEntity
  8
0
100
AcDbVertex
100
AcDb2dVertex
 10
40.5404174964854
 20
18.48202635485138
 30
0.0
 42
-0.0985740322038722
 70
     1
  0
VERTEX
  5
16E
330
15D
100
AcDbEntity
  8
0
100
AcDbVertex
100
AcDb2dVertex
 10
41.63861453328973
 20
18.90514387085889
 30
0.0
 42
-0.0952204189020359
  0
SEQEND
  5
16F
330
15D
100
AcDbEntity
  8
0
  0
POLYLINE
  5
170
330
2
100
AcDbEntity
  8
0
100
AcDb2dPolyline
 66
     1
 10
0.0
 20
0.0
 30
0.0
  0
VERTEX
  5
171
330
170
100
AcDbEntity
  8
0
100
AcDbVertex
100
AcDb2dVertex
 10
41.00112374751763
 20
12.96974768713717
 30
0.0
 42
-0.0218393142536473
  0
VERTEX
  5
172
330
170
100
AcDbEntity
  8
0
100
AcDbVertex
100
AcDb2dVertex
 10
40.76891618775926
 20
13.1178786005842
 30
0.0
 42
-0.0343968148298637
  0
VERTEX
  5
173
330
170
100
AcDbEntity
  8
0
100
AcDbVertex
100
AcDb2dVertex
 10
40.63548039959513
 20
13.22584426268752
 30
0.0
 42
-0.0059965664963174
  0
VERTEX
  5
174
330
170
100
AcDbEntity
  8
0
100
AcDbVertex
100
AcDb2dVertex
 10
40.41168760790241
 20
13.43899067889787
 30
0.0
 42
-0.0241183618853074
  0
VERTEX
  5
175
330
170
100
AcDbEntity
  8
0
100
AcDbVertex
100
AcDb2dVertex
 10
40.36183257551884
 20
13.49255588728429
 30
0.0
 42
-0.0277437468749829
  0
VERTEX
  5
176
330
170
100
AcDbEntity
  8
0
100
AcDbVertex
100
AcDb2dVertex
 10
40.26959352151876
 20
13.61494435663031
 30
0.0
 42
-0.0191524596991465
  0
VERTEX
  5
177
330
170
100
AcDbEntity
  8
0
100
AcDbVertex
100
AcDb2dVertex
 10
40.15140825464185
 20
13.80681926719982
 30
0.0
 42
-0.0274890521344221
  0
VERTEX
  5
178
330
170
100
AcDbEntity
  8
0
100
AcDbVertex
100
AcDb2dVertex
 10
40.04515840281231
 20
14.02191941285716
 30
0.0
 42
-0.0242781119376193
  0
VERTEX
  5
179
330
170
100
AcDbEntity
  8
0
100
AcDbVertex
100
AcDb2dVertex
 10
39.95029133736684
 20
14.2776022833153
 30
0.0
 42
-0.0309058680573906
  0
VERTEX
  5
17A
330
170
100
AcDbEntity
  8
0
100
AcDbVertex
100
AcDb2dVertex
 10
39.88742277859289
 20
14.52910668227334
 30
0.0
 42
-0.0198968455354461
  0
VERTEX
  5
17B
330
170
100
AcDbEntity
  8
0
100
AcDbVertex
100
AcDb2dVertex
 10
39.82926307715018
 20
14.93198518394953
 30
0.0
 42
-0.0259011632680318
  0
VERTEX
  5
17C
330
170
100
AcDbEntity
  8
0
100
AcDbVertex
100
AcDb2dVertex
 10
39.81987623786121
 20
15.1130685939993
 30
0.0
 42
-0.0053073994048922
  0
VERTEX
  5
17D
330
170
100
AcDbEntity
  8
0
100
AcDbVertex
100
AcDb2dVertex
 10
39.82947345746433
 20
16.01717892485904
 30
0.0
 42
-0.0389292412336741
  0
VERTEX
  5
17E
330
170
100
AcDbEntity
  8
0
100
AcDbVertex
100
AcDb2dVertex
 10
39.91604850634843
 20
16.88838516044844
 30
0.0
 42
-0.0315179927272688
  0
VERTEX
  5
17F
330
170
100
AcDbEntity
  8
0
100
AcDbVertex
100
AcDb2dVertex
 10
40.17347727029372
 20
17.94086497262393
 30
0.0
 42
-0.1777444106017369
  0
VERTEX
  5
180
330
170
100
AcDbEntity
  8
0
100
AcDbVertex
100
AcDb2dVertex
 10
40.56233054158374
 20
18.44740381977837
 30
0.0
 42
-0.0932273013246131
  0
VERTEX
  5
181
330
170
100
AcDbEntity
  8
0
100
AcDbVertex
100
AcDb2dVertex
 10
41.58363699417734
 20
18.85337622375832
 30
0.0
 42
-0.0985740322038722
  0
SEQEND
  5
182
330
170
100
AcDbEntity
  8
0
  0
POLYLINE
  5
183
330
2
100
AcDbEntity
  8
0
100
AcDb2dPolyline
 66
     1
 10
0.0
 20
0.0
 30
0.0
 70
     2
  0
VERTEX
  5
184
330
183
100
AcDbEntity
  8
0
100
AcDbVertex
100
AcDb2dVertex
 10
32.45434317656294
 20
12.49818459456756
 30
0.0
 42
-0.140431352309824
  0
VERTEX
  5
185
330
183
100
AcDbEntity
  8
0
100
AcDbVertex
100
AcDb2dVertex
 10
32.26728806945717
 20
12.51030760294009
 30
0.0
 42
-0.1464093172914803
 70
     1
  0
VERTEX
  5
186
330
183
100
AcDbEntity
  8
0
100
AcDbVertex
100
AcDb2dVertex
 10
32.17150399111576
 20
12.58080902786691
 30
0.0
 42
-0.031911303659213
  0
VERTEX
  5
187
330
183
100
AcDbEntity
  8
0
100
AcDbVertex
100
AcDb2dVertex
 10
32.11454296700703
 20
12.66742237242928
 30
0.0
 42
-0.0660890035132398
 70
     1
  0
VERTEX
  5
188
330
183
100
AcDbEntity
  8
0
100
AcDbVertex
100
AcDb2dVertex
 10
32.09563746248863
 20
12.71395063957043
 30
0.0
 42
-0.0360069354738484
  0
VERTEX
  5
189
330
183
100
AcDbEntity
  8
0
100
AcDbVertex
100
AcDb2dVertex
 10
32.05826967882322
 20
12.91702297038167
 30
0.0
 42
-0.0273003078104753
 70
     1
  0
VERTEX
  5
18A
330
183
100
AcDbEntity
  8
0
100
AcDbVertex
100
AcDb2dVertex
 10
32.04319664008413
 20
13.18878841950075
 30
0.0
 42
-0.0014826684145109
  0
VERTEX
  5
18B
330
183
100
AcDbEntity
  8
0
100
AcDbVertex
100
AcDb2dVertex
 10
32.04399839849309
 20
13.56243767713816
 30
0.0
 42
-0.0025506127775922
 70
     1
  0
VERTEX
  5
18C
330
183
100
AcDbEntity
  8
0
100
AcDbVertex
100
AcDb2dVertex
 10
32.04621650500457
 20
13.77962969093254
 30
0.0
 42
-0.0018144405403504
  0
VERTEX
  5
18D
330
183
100
AcDbEntity
  8
0
100
AcDbVertex
100
AcDb2dVertex
 10
32.04914379271579
 20
13.93414756154914
 30
0.0
 42
-0.0007140255589696
 70
     1
  0
VERTEX
  5
18E
330
183
100
AcDbEntity
  8
0
100
AcDbVertex
100
AcDb2dVertex
 10
32.05856792985276
 20
14.32675572684353
 30
0.0
 42
-0.0213702727696047
  0
VERTEX
  5
18F
330
183
100
AcDbEntity
  8
0
100
AcDbVertex
100
AcDb2dVertex
 10
32.08951668076184
 20
14.78010326783787
 30
0.0
 42
-0.0598989219417819
 70
     1
  0
VERTEX
  5
190
330
183
100
AcDbEntity
  8
0
100
AcDbVertex
100
AcDb2dVertex
 10
32.12667881194732
 20
14.93842598470202
 30
0.0
 42
-0.0608786226021745
  0
VERTEX
  5
191
330
183
100
AcDbEntity
  8
0
100
AcDbVertex
100
AcDb2dVertex
 10
32.14839559871317
 20
14.98098722230876
 30
0.0
 42
-0.0360776436672317
 70
     1
  0
VERTEX
  5
192
330
183
100
AcDbEntity
  8
0
100
AcDbVertex
100
AcDb2dVertex
 10
32.1980631731813
 20
15.04425592220053
 30
0.0
 42
-0.0757818336882323
  0
VERTEX
  5
193
330
183
100
AcDbEntity
  8
0
100
AcDbVertex
100
AcDb2dVertex
 10
32.30017705557985
 20
15.12714511125667
 30
0.0
 42
-0.067141599442933
 70
     1
  0
VERTEX
  5
194
330
183
100
AcDbEntity
  8
0
100
AcDbVertex
100
AcDb2dVertex
 10
32.43693872635529
 20
15.18440326325956
 30
0.0
 42
-0.0478185630672815
  0
VERTEX
  5
195
330
183
100
AcDbEntity
  8
0
100
AcDbVertex
100
AcDb2dVertex
 10
32.71326636538696
 20
15.23094161136812
 30
0.0
 42
-0.0165378206647022
 70
     1
  0
VERTEX
  5
196
330
183
100
AcDbEntity
  8
0
100
AcDbVertex
100
AcDb2dVertex
 10
33.52129309294067
 20
15.26183501294862
 30
0.0
 42
-0.003214330272172
  0
VERTEX
  5
197
330
183
100
AcDbEntity
  8
0
100
AcDbVertex
100
AcDb2dVertex
 10
34.2838630523986
 20
15.26085378716745
 30
0.0
 42
-0.0089959631516532
 70
     1
  0
VERTEX
  5
198
330
183
100
AcDbEntity
  8
0
100
AcDbVertex
100
AcDb2dVertex
 10
34.55626488514599
 20
15.2538496609549
 30
0.0
 42
-0.0136795676844653
  0
VERTEX
  5
199
330
183
100
AcDbEntity
  8
0
100
AcDbVertex
100
AcDb2dVertex
 10
35.08445552492047
 20
15.21625542244425
 30
0.0
 42
-0.0148808110540049
 70
     1
  0
VERTEX
  5
19A
330
183
100
AcDbEntity
  8
0
100
AcDbVertex
100
AcDb2dVertex
 10
35.56726023651147
 20
15.15403200353309
 30
0.0
 42
-0.0157545217365838
  0
VERTEX
  5
19B
330
183
100
AcDbEntity
  8
0
100
AcDbVertex
100
AcDb2dVertex
 10
36.12401837630761
 20
15.04728057310856
 30
0.0
 42
-0.0192142976299121
 70
     1
  0
VERTEX
  5
19C
330
183
100
AcDbEntity
  8
0
100
AcDbVertex
100
AcDb2dVertex
 10
36.57334781662613
 20
14.92805294480802
 30
0.0
 42
-0.0044399277784729
  0
VERTEX
  5
19D
330
183
100
AcDbEntity
  8
0
100
AcDbVertex
100
AcDb2dVertex
 10
36.94043718559783
 20
14.81180957323857
 30
0.0
 42
-0.011822496659233
 70
     1
  0
VERTEX
  5
19E
330
183
100
AcDbEntity
  8
0
100
AcDbVertex
100
AcDb2dVertex
 10
37.07682115181088
 20
14.76368886428708
 30
0.0
 42
-0.0019464705613524
  0
VERTEX
  5
19F
330
183
100
AcDbEntity
  8
0
100
AcDbVertex
100
AcDb2dVertex
 10
37.23060115108758
 20
14.70462053726648
 30
0.0
 42
-0.0006915624935536
 70
     1
  0
VERTEX
  5
1A0
330
183
100
AcDbEntity
  8
0
100
AcDbVertex
100
AcDb2dVertex
 10
37.66254544854581
 20
14.53608618012793
 30
0.0
 42
-0.0025869934724771
  0
VERTEX
  5
1A1
330
183
100
AcDbEntity
  8
0
100
AcDbVertex
100
AcDb2dVertex
 10
38.51216977186092
 20
14.1981472892301
 30
0.0
 42
-0.016206233204635
 70
     1
  0
VERTEX
  5
1A2
330
183
100
AcDbEntity
  8
0
100
AcDbVertex
100
AcDb2dVertex
 10
38.64570633008577
 20
14.13912917286075
 30
0.0
 42
-0.014381738385334
  0
VERTEX
  5
1A3
330
183
100
AcDbEntity
  8
0
100
AcDbVertex
100
AcDb2dVertex
 10
38.72486442891687
 20
14.098187797547
 30
0.0
 42
-0.0059598337410936
 70
     1
  0
VERTEX
  5
1A4
330
183
100
AcDbEntity
  8
0
100
AcDbVertex
100
AcDb2dVertex
 10
38.91167362349984
 20
13.99172307254392
 30
0.0
 42
-0.0041890655417465
  0
VERTEX
  5
1A5
330
183
100
AcDbEntity
  8
0
100
AcDbVertex
100
AcDb2dVertex
 10
38.99660752299427
 20
13.94100731459034
 30
0.0
 42
-0.0039028169218749
 70
     1
  0
VERTEX
  5
1A6
330
183
100
AcDbEntity
  8
0
100
AcDbVertex
100
AcDb2dVertex
 10
39.08687774886955
 20
13.88510381970713
 30
0.0
 42
-0.0279871645229435
  0
VERTEX
  5
1A7
330
183
100
AcDbEntity
  8
0
100
AcDbVertex
100
AcDb2dVertex
 10
39.24657092971995
 20
13.77151917518453
 30
0.0
 42
-0.0355566708235577
 70
     1
  0
VERTEX
  5
1A8
330
183
100
AcDbEntity
  8
0
100
AcDbVertex
100
AcDb2dVertex
 10
39.35998154589345
 20
13.66685932738342
 30
0.0
 42
-0.0072531525995857
  0
VERTEX
  5
1A9
330
183
100
AcDbEntity
  8
0
100
AcDbVertex
100
AcDb2dVertex
 10
39.44190702146766
 20
13.57712070008859
 30
0.0
 42
-0.0093084219315826
 70
     1
  0
VERTEX
  5
1AA
330
183
100
AcDbEntity
  8
0
100
AcDbVertex
100
AcDb2dVertex
 10
39.50339505173059
 20
13.50511794097788
 30
0.0
 42
-0.0012227726203102
  0
VERTEX
  5
1AB
330
183
100
AcDbEntity
  8
0
100
AcDbVertex
100
AcDb2dVertex
 10
39.55070578114744
 20
13.44729391075164
 30
0.0
 42
-0.0007986422688353
 70
     1
  0
VERTEX
  5
1AC
330
183
100
AcDbEntity
  8
0
100
AcDbVertex
100
AcDb2dVertex
 10
39.62278297355419
 20
13.35846956081518
 30
0.0
 42
-0.0055985934759021
  0
VERTEX
  5
1AD
330
183
100
AcDbEntity
  8
0
100
AcDbVertex
100
AcDb2dVertex
 10
39.65903561415194
 20
13.31260658698073
 30
0.0
 42
-0.0011125570844872
 70
     1
  0
VERTEX
  5
1AE
330
183
100
AcDbEntity
  8
0
100
AcDbVertex
100
AcDb2dVertex
 10
39.83834616465177
 20
13.07939487583211
 30
0.0
 42
-0.0386465022707797
  0
VERTEX
  5
1AF
330
183
100
AcDbEntity
  8
0
100
AcDbVertex
100
AcDb2dVertex
 10
39.89379481952438
 20
12.99401769100313
 30
0.0
 42
-0.0186550653561879
 70
     1
  0
VERTEX
  5
1B0
330
183
100
AcDbEntity
  8
0
100
AcDbVertex
100
AcDb2dVertex
 10
39.98758583384999
 20
12.80539190176469
 30
0.0
  0
SEQEND
  5
1B1
330
183
100
AcDbEntity
  8
0
  0
POLYLINE
  5
1B2
330
2
100
AcDbEntity
  8
0
100
AcDb2dPolyline
 66
     1
 10
0.0
 20
0.0
 30
0.0
  0
VERTEX
  5
1B3
330
1B2
100
AcDbEntity
  8
0
100
AcDbVertex
100
AcDb2dVertex
 10
32.49193645094105
 20
12.46562786394447
 30
0.0
 42
-0.1604413511802042
  0
VERTEX
  5
1B4
330
1B2
100
AcDbEntity
  8
0
100
AcDbVertex
100
AcDb2dVertex
 10
32.2534785940176
 20
12.47173040930904
 30
0.0
 42
-0.1464093172914807
  0
VERTEX
  5
1B5
330
1B2
100
AcDbEntity
  8
0
100
AcDbVertex
100
AcDb2dVertex
 10
32.13877449916796
 20
12.55615782430193
 30
0.0
 42
-0.031911303659214
  0
VERTEX
  5
1B6
330
1B2
100
AcDbEntity
  8
0
100
AcDbVertex
100
AcDb2dVertex
 10
32.07894255697633
 20
12.64713660682849
 30
0.0
 42
-0.0660890035132383
  0
VERTEX
  5
1B7
330
1B2
100
AcDbEntity
  8
0
100
AcDbVertex
100
AcDb2dVertex
 10
32.05597730391239
 20
12.70365630607711
 30
0.0
 42
-0.0360069354738485
  0
VERTEX
  5
1B8
330
1B2
100
AcDbEntity
  8
0
100
AcDbVertex
100
AcDb2dVertex
 10
32.01754289544471
 20
12.912525126898
 30
0.0
 42
-0.0273003078104755
  0
VERTEX
  5
1B9
330
1B2
100
AcDbEntity
  8
0
100
AcDbVertex
100
AcDb2dVertex
 10
32.00222225354074
 20
13.18875483743619
 30
0.0
 42
-0.0014826684145108
  0
VERTEX
  5
1BA
330
1B2
100
AcDbEntity
  8
0
100
AcDbVertex
100
AcDb2dVertex
 10
32.00302453337735
 20
13.56264709977651
 30
0.0
 42
-0.0025506127775922
  0
VERTEX
  5
1BB
330
1B2
100
AcDbEntity
  8
0
100
AcDbVertex
100
AcDb2dVertex
 10
32.00524690892861
 20
13.78025712836866
 30
0.0
 42
-0.0018144405403504
  0
VERTEX
  5
1BC
330
1B2
100
AcDbEntity
  8
0
100
AcDbVertex
100
AcDb2dVertex
 10
32.00817982941845
 20
13.93507232710761
 30
0.0
 42
-0.0007140255589697
  0
VERTEX
  5
1BD
330
1B2
100
AcDbEntity
  8
0
100
AcDbVertex
100
AcDb2dVertex
 10
32.01760677485428
 20
14.32779748571838
 30
0.0
 42
-0.0213702727696045
  0
VERTEX
  5
1BE
330
1B2
100
AcDbEntity
  8
0
100
AcDbVertex
100
AcDb2dVertex
 10
32.04879396986763
 20
14.78463783482825
 30
0.0
 42
-0.0598989219417823
  0
VERTEX
  5
1BF
330
1B2
100
AcDbEntity
  8
0
100
AcDbVertex
100
AcDb2dVertex
 10
32.08819146233234
 20
14.95248391484758
 30
0.0
 42
-0.0608786226021762
  0
VERTEX
  5
1C0
330
1B2
100
AcDbEntity
  8
0
100
AcDbVertex
100
AcDb2dVertex
 10
32.11442645500958
 20
15.00390007364612
 30
0.0
 42
-0.0360776436672334
  0
VERTEX
  5
1C1
330
1B2
100
AcDbEntity
  8
0
100
AcDbVertex
100
AcDb2dVertex
 10
32.16774050665939
 20
15.07181381354519
 30
0.0
 42
-0.0757818336882313
  0
VERTEX
  5
1C2
330
1B2
100
AcDbEntity
  8
0
100
AcDbVertex
100
AcDb2dVertex
 10
32.27944263806153
 20
15.16248609894151
 30
0.0
 42
-0.0671415994429316
  0
VERTEX
  5
1C3
330
1B2
100
AcDbEntity
  8
0
100
AcDbVertex
100
AcDb2dVertex
 10
32.42630937598089
 20
15.22397494999365
 30
0.0
 42
-0.047818563067282
  0
VERTEX
  5
1C4
330
1B2
100
AcDbEntity
  8
0
100
AcDbVertex
100
AcDb2dVertex
 10
32.71034789024366
 20
15.27181194270029
 30
0.0
 42
-0.0165378206647023
  0
VERTEX
  5
1C5
330
1B2
100
AcDbEntity
  8
0
100
AcDbVertex
100
AcDb2dVertex
 10
33.52108240744897
 20
15.30280887159029
 30
0.0
 42
-0.003214330272172
  0
VERTEX
  5
1C6
330
1B2
100
AcDbEntity
  8
0
100
AcDbVertex
100
AcDb2dVertex
 10
34.28417918204891
 20
15.30182696793739
 30
0.0
 42
-0.0089959631516534
  0
VERTEX
  5
1C7
330
1B2
100
AcDbEntity
  8
0
100
AcDbVertex
100
AcDb2dVertex
 10
34.55805482515577
 20
15.29478494640798
 30
0.0
 42
-0.0136795676844651
  0
VERTEX
  5
1C8
330
1B2
100
AcDbEntity
  8
0
100
AcDbVertex
100
AcDb2dVertex
 10
35.08848143727127
 20
15.25703156142413
 30
0.0
 42
-0.014880811054005
  0
VERTEX
  5
1C9
330
1B2
100
AcDbEntity
  8
0
100
AcDbVertex
100
AcDb2dVertex
 10
35.57370453637715
 20
15.19449646299574
 30
0.0
 42
-0.0157545217365838
  0
VERTEX
  5
1CA
330
1B2
100
AcDbEntity
  8
0
100
AcDbVertex
100
AcDb2dVertex
 10
36.13299798131303
 20
15.08725891942642
 30
0.0
 42
-0.0192142976299119
  0
VERTEX
  5
1CB
330
1B2
100
AcDbEntity
  8
0
100
AcDbVertex
100
AcDb2dVertex
 10
36.58537014214977
 20
14.96722391836456
 30
0.0
 42
-0.0044399277784728
  0
VERTEX
  5
1CC
330
1B2
100
AcDbEntity
  8
0
100
AcDbVertex
100
AcDb2dVertex
 10
36.95315323926626
 20
14.85076086923069
 30
0.0
 42
-0.0118224966592331
  0
VERTEX
  5
1CD
330
1B2
100
AcDbEntity
  8
0
100
AcDbVertex
100
AcDb2dVertex
 10
37.09136422479284
 20
14.80199552831052
 30
0.0
 42
-0.0019464705613525
  0
VERTEX
  5
1CE
330
1B2
100
AcDbEntity
  8
0
100
AcDbVertex
100
AcDb2dVertex
 10
37.24544203105793
 20
14.74281281085772
 30
0.0
 42
-0.0006915624935536
  0
VERTEX
  5
1CF
330
1B2
100
AcDbEntity
  8
0
100
AcDbVertex
100
AcDb2dVertex
 10
37.67749192095808
 20
14.57423725406817
 30
0.0
 42
-0.002586993472477
  0
VERTEX
  5
1D0
330
1B2
100
AcDbEntity
  8
0
100
AcDbVertex
100
AcDb2dVertex
 10
38.52751022243629
 20
14.23614165797741
 30
0.0
 42
-0.0162062332046352
  0
VERTEX
  5
1D1
330
1B2
100
AcDbEntity
  8
0
100
AcDbVertex
100
AcDb2dVertex
 10
38.66347560781622
 20
14.17605009171852
 30
0.0
 42
-0.0143817383853333
  0
VERTEX
  5
1D2
330
1B2
100
AcDbEntity
  8
0
100
AcDbVertex
100
AcDb2dVertex
 10
38.74472694694484
 20
14.13402607119337
 30
0.0
 42
-0.0059598337410936
  0
VERTEX
  5
1D3
330
1B2
100
AcDbEntity
  8
0
100
AcDbVertex
100
AcDb2dVertex
 10
38.93238476743201
 20
14.02707770445239
 30
0.0
 42
-0.0041890655417466
  0
VERTEX
  5
1D4
330
1B2
100
AcDbEntity
  8
0
100
AcDbVertex
100
AcDb2dVertex
 10
39.01790813976511
 20
13.97600996028385
 30
0.0
 42
-0.0039028169218747
  0
VERTEX
  5
1D5
330
1B2
100
AcDbEntity
  8
0
100
AcDbVertex
100
AcDb2dVertex
 10
39.10872218081721
 20
13.91976968581844
 30
0.0
 42
-0.0279871645229441
  0
VERTEX
  5
1D6
330
1B2
100
AcDbEntity
  8
0
100
AcDbVertex
100
AcDb2dVertex
 10
39.27215038297331
 20
13.80352844027485
 30
0.0
 42
-0.0355566708235577
  0
VERTEX
  5
1D7
330
1B2
100
AcDbEntity
  8
0
100
AcDbVertex
100
AcDb2dVertex
 10
39.38983827679889
 20
13.6949213497625
 30
0.0
 42
-0.0072531525995856
  0
VERTEX
  5
1D8
330
1B2
100
AcDbEntity
  8
0
100
AcDbVertex
100
AcDb2dVertex
 10
39.47256521205893
 20
13.60430482836286
 30
0.0
 42
-0.009308421931583
  0
VERTEX
  5
1D9
330
1B2
100
AcDbEntity
  8
0
100
AcDbVertex
100
AcDb2dVertex
 10
39.53504389682995
 20
13.53114200838175
 30
0.0
 42
-0.0012227726203104
  0
VERTEX
  5
1DA
330
1B2
100
AcDbEntity
  8
0
100
AcDbVertex
100
AcDb2dVertex
 10
39.58248153318138
 20
13.47316287020193
 30
0.0
 42
-0.0007986422688354
  0
VERTEX
  5
1DB
330
1B2
100
AcDbEntity
  8
0
100
AcDbVertex
100
AcDb2dVertex
 10
39.6546412034689
 20
13.38423687862407
 30
0.0
 42
-0.0055985934759025
  0
VERTEX
  5
1DC
330
1B2
100
AcDbEntity
  8
0
100
AcDbVertex
100
AcDb2dVertex
 10
39.69146284468052
 20
13.33765406590796
 30
0.0
 42
-0.0011125570844871
  0
VERTEX
  5
1DD
330
1B2
100
AcDbEntity
  8
0
100
AcDbVertex
100
AcDb2dVertex
 10
39.87088454066475
 20
13.1042977986887
 30
0.0
 42
-0.0386465022707779
  0
VERTEX
  5
1DE
330
1B2
100
AcDbEntity
  8
0
100
AcDbVertex
100
AcDb2dVertex
 10
39.92977800956158
 20
13.01361645410465
 30
0.0
 42
-0.0186550653561878
  0
VERTEX
  5
1DF
330
1B2
100
AcDbEntity
  8
0
100
AcDbVertex
100
AcDb2dVertex
 10
40.02492985192559
 20
12.82225386470888
 30
0.0
 42
-0.0186550653561878
  0
SEQEND
  5
1E0
330
1B2
100
AcDbEntity
  8
0
  0
ELLIPSE
  5
1E1
330
2
100
AcDbEntity
  8
0
100
AcDbEllipse
 10
33.50761432419049
 20
15.13564490221756
 30
0.0
 11
0.050154228385033
 21
0.2063453898120468
 31
0.0
210
0.0
220
0.0
230
1.0
 40
0.599081730434667
 41
5.790206389109433
 42
10.09668287260925
  0
ELLIPSE
  5
1E2
330
2
100
AcDbEntity
  8
0
100
AcDbEllipse
 10
33.50761432419049
 20
15.13564490221756
 30
0.0
 11
0.050154228385033
 21
0.2063453898120468
 31
0.0
210
0.0
220
0.0
230
1.0
 40
0.599081730434667
 41
11.42526399616216
 42
11.79291214271248
  0
ELLIPSE
  5
1E3
330
2
100
AcDbEntity
  8
0
100
AcDbEllipse
 10
35.26654787362708
 20
15.075302621707
 30
0.0
 11
0.050154228385033
 21
0.2063453898120468
 31
0.0
210
0.0
220
0.0
230
1.0
 40
0.599081730434667
 41
5.643445939596632
 42
10.07078199827907
  0
ELLIPSE
  5
1E4
330
2
100
AcDbEntity
  8
0
100
AcDbEllipse
 10
35.26654787362708
 20
15.075302621707
 30
0.0
 11
0.050154228385033
 21
0.2063453898120468
 31
0.0
210
0.0
220
0.0
230
1.0
 40
0.599081730434667
 41
11.34076676328964
 42
11.66418511205984
  0
ELLIPSE
  5
1E5
330
2
100
AcDbEntity
  8
0
100
AcDbEllipse
 10
37.01793248500275
 20
14.65290645321914
 30
0.0
 11
0.050154228385033
 21
0.2063453898120468
 31
0.0
210
0.0
220
0.0
230
1.0
 40
0.599081730434667
 41
5.536593985268075
 42
10.10259306787276
  0
ELLIPSE
  5
1E6
330
2
100
AcDbEntity
  8
0
100
AcDbEllipse
 10
37.01793248500275
 20
14.65290645321914
 30
0.0
 11
0.050154228385033
 21
0.2063453898120468
 31
0.0
210
0.0
220
0.0
230
1.0
 40
0.599081730434667
 41
11.31498564901198
 42
11.54986508292695
  0
ELLIPSE
  5
1E7
330
2
100
AcDbEntity
  8
0
100
AcDbEllipse
 10
38.73912062918298
 20
13.97405545168308
 30
0.0
 11
0.050154228385033
 21
0.2063453898120468
 31
0.0
210
0.0
220
0.0
230
1.0
 40
0.599081730434667
 41
5.299767657730858
 42
9.921751780704795
  0
ELLIPSE
  5
1E8
330
2
100
AcDbEntity
  8
0
100
AcDbEllipse
 10
38.73912062918298
 20
13.97405545168308
 30
0.0
 11
0.050154228385033
 21
0.2063453898120468
 31
0.0
210
0.0
220
0.0
230
1.0
 40
0.599081730434667
 41
11.18291168813883
 42
11.33587204171408
  0
SPLINE
  5
1E9
330
2
100
AcDbEntity
  8
0
100
AcDbSpline
210
0.0
220
0.0
230
1.0
 70
     8
 71
     3
 72
    12
 73
     8
 74
     0
 42
0.000000001
 43
0.0000000001
 40
0.0
 40
0.0
 40
0.0
 40
0.0
 40
0.0561527116454317
 40
0.2973809050237443
 40
0.5349953206127607
 40
0.7911384943783137
 40
1.0
 40
1.0
 40
1.0
 40
1.0
 10
3.529914517483685
 20
5.826271738701152
 30
0.0
 10
3.53466783804329
 20
5.825094362338647
 30
0.0
 10
3.559841097329233
 20
5.81885905797006
 30
0.0
 10
3.607049727324962
 20
5.835378668485338
 30
0.0
 10
3.660175708969767
 20
5.873667850095328
 30
0.0
 10
3.701043521564958
 20
5.929262301449911
 30
0.0
 10
3.718744062992044
 20
5.975151244090826
 30
0.0
 10
3.726694438325207
 20
5.995762721945212
 30
0.0
  0
SPLINE
  5
1EA
330
2
100
AcDbEntity
  8
0
100
AcDbSpline
210
0.0
220
0.0
230
1.0
 70
     8
 71
     3
 72
    14
 73
    10
 74
     0
 42
0.000000001
 43
0.0000000001
 40
0.0
 40
0.0
 40
0.0
 40
0.0
 40
0.0895666099134426
 40
0.2574446574809165
 40
0.4265404418782642
 40
0.5984839071749279
 40
0.7563954180467296
 40
0.9018621575732323
 40
1.0
 40
1.0
 40
1.0
 40
1.0
 10
3.726694438325207
 20
5.995762721945212
 30
0.0
 10
3.731140068145176
 20
6.011033407839432
 30
0.0
 10
3.743918308243927
 20
6.054926511567918
 30
0.0
 10
3.751607829536368
 20
6.134217994302675
 30
0.0
 10
3.742662495387449
 20
6.226021520660848
 30
0.0
 10
3.7153537100567
 20
6.305794450879265
 30
0.0
 10
3.672992746044009
 20
6.364345592079509
 30
0.0
 10
3.624402274034817
 20
6.400057533811331
 30
0.0
 10
3.589535078161773
 20
6.403070500771592
 30
0.0
 10
3.575488579746142
 20
6.404284295990095
 30
0.0
  0
LINE
  5
1EB
330
2
100
AcDbEntity
  8
0
100
AcDbLine
 10
3.38936057378229
 20
5.832863339805831
 30
0.0
 11
3.533473804431693
 21
5.823560293935415
 31
0.0
  0
LINE
  5
1EC
330
2
100
AcDbEntity
  8
0
100
AcDbLine
 10
3.577400085110213
 20
6.406942503144321
 30
0.0
 11
3.433517518597014
 21
6.419324816132695
 31
0.0
  0
LINE
  5
1ED
330
2
100
AcDbEntity
  8
0
100
AcDbLine
 10
3.178890936467439
 20
6.524183537506905
 30
0.0
 11
2.91084501743937
 21
6.541485647322582
 31
0.0
  0
SPLINE
  5
1EE
330
2
100
AcDbEntity
  8
0
100
AcDbSpline
210
0.0
220
0.0
230
1.0
 70
     8
 71
     3
 72
    12
 73
     8
 74
     0
 42
0.000000001
 43
0.0000000001
 40
0.0
 40
0.0
 40
0.0
 40
0.0
 40
0.0561526623884076
 40
0.2973808932933741
 40
0.5349958086800302
 40
0.7911384618867823
 40
1.0
 40
1.0
 40
1.0
 40
1.0
 10
3.878322594798451
 20
6.884091145084552
 30
0.0
 10
3.883075915574757
 20
6.882913734311088
 30
0.0
 10
3.908249197097696
 20
6.876678242480547
 30
0.0
 10
3.955457882434551
 20
6.893197999829315
 30
0.0
 10
4.00858364833903
 20
6.93148733697925
 30
0.0
 10
4.049451657187038
 20
6.987081642071492
 30
0.0
 10
4.067152151767128
 20
7.032970547483998
 30
0.0
 10
4.075102515639876
 20
7.053582033457015
 30
0.0
  0
SPLINE
  5
1EF
330
2
100
AcDbEntity
  8
0
100
AcDbSpline
210
0.0
220
0.0
230
1.0
 70
     8
 71
     3
 72
    14
 73
    10
 74
     0
 42
0.000000001
 43
0.0000000001
 40
0.0
 40
0.0
 40
0.0
 40
0.0
 40
0.0895670159676381
 40
0.2574451310446296
 40
0.4265406876876749
 40
0.5984844361673513
 40
0.7563960547221375
 40
0.9018622010086328
 40
1.0
 40
1.0
 40
1.0
 40
1.0
 10
4.075102515639876
 20
7.053582033457015
 30
0.0
 10
4.079548142261678
 20
7.068852780259112
 30
0.0
 10
4.092326338742442
 20
7.112745940806417
 30
0.0
 10
4.100015982028953
 20
7.192037478216311
 30
0.0
 10
4.091070321376864
 20
7.28384081273983
 30
0.0
 10
4.06376258759127
 20
7.363614187008582
 30
0.0
 10
4.021398335385775
 20
7.422164281518266
 30
0.0
 10
3.972810639039654
 20
7.457876887883095
 30
0.0
 10
3.937943259829815
 20
7.460889957881704
 30
0.0
 10
3.923896657060907
 20
7.462103797245138
 30
0.0
  0
LINE
  5
1F0
330
2
100
AcDbEntity
  8
0
100
AcDbLine
 10
3.737767133141822
 20
6.890682213122344
 30
0.0
 11
3.881881881750743
 21
6.881379795189852
 31
0.0
  0
LINE
  5
1F1
330
2
100
AcDbEntity
  8
0
100
AcDbLine
 10
3.925808162429358
 20
7.464761814655286
 30
0.0
 11
3.781925595916252
 21
7.477144127643613
 31
0.0
  0
LINE
  5
1F2
330
2
100
AcDbEntity
  8
0
100
AcDbLine
 10
3.527299013786581
 20
7.582002849017822
 30
0.0
 11
3.259253094746682
 21
7.599304958833547
 31
0.0
  0
LINE
  5
1F3
330
2
100
AcDbEntity
  8
0
100
AcDbLine
 10
3.810622934893242
 20
7.949914314243045
 30
0.0
 11
3.696005461657613
 21
7.956922505290624
 31
0.0
  0
LINE
  5
1F4
330
2
100
AcDbEntity
  8
0
100
AcDbLine
 10
3.785902986820254
 20
3.603677879650474
 30
0.0
 11
3.835347042407835
 21
3.753798755331253
 31
0.0
  0
LINE
  5
1F5
330
2
100
AcDbEntity
  8
0
100
AcDbLine
 10
5.134896939653877
 20
2.792454012052695
 30
0.0
 11
5.173815557556295
 21
2.910616109319431
 31
0.0
  0
LINE
  5
1F6
330
2
100
AcDbEntity
  8
0
100
AcDbLine
 10
5.052653095466911
 20
2.152942100442744
 30
0.0
 11
5.411358567091152
 21
2.122072539994723
 31
0.0
  0
LINE
  5
1F7
330
2
100
AcDbEntity
  8
0
100
AcDbLine
 10
5.864010953336197
 20
1.740646424381756
 30
0.0
 11
5.979131683319995
 21
1.730356241928809
 31
0.0
  0
SPLINE
  5
1F8
330
2
100
AcDbEntity
  8
0
100
AcDbSpline
210
0.0
220
0.0
230
1.0
 70
     8
 71
     3
 72
     9
 73
     5
 74
     0
 42
0.000000001
 43
0.0000000001
 40
0.0
 40
0.0
 40
0.0
 40
0.0
 40
0.6184372295390216
 40
1.0
 40
1.0
 40
1.0
 40
1.0
 10
5.295349442728863
 20
7.228316861148073
 30
0.0
 10
5.278127289471878
 20
7.24116684576616
 30
0.0
 10
5.250279429682031
 20
7.261945000774067
 30
0.0
 10
5.215829996531304
 20
7.264454695236803
 30
0.0
 10
5.202685375377495
 20
7.265412301209003
 30
0.0
  0
LINE
  5
1F9
330
2
100
AcDbEntity
  8
0
100
AcDbLine
 10
5.203356507407914
 20
7.268026658253509
 30
0.0
 11
4.088018188356549
 21
7.367723976060581
 31
0.0
  0
LINE
  5
1FA
330
2
100
AcDbEntity
  8
0
100
AcDbLine
 10
6.199175235593472
 20
6.445580763937483
 30
0.0
 11
5.295349442723924
 21
7.228316861150029
 31
0.0
  0
SPLINE
  5
1FB
330
2
100
AcDbEntity
  8
0
100
AcDbSpline
210
0.0
220
0.0
230
1.0
 70
     8
 71
     3
 72
     9
 73
     5
 74
     0
 42
0.000000001
 43
0.0000000001
 40
0.0
 40
0.0
 40
0.0
 40
0.0
 40
0.4962257895678297
 40
1.0
 40
1.0
 40
1.0
 40
1.0
 10
4.755652710507266
 20
3.520260515868901
 30
0.0
 10
4.763237835095658
 20
3.526648948945094
 30
0.0
 10
4.778523466652679
 20
3.539522993806306
 30
0.0
 10
4.789475736413166
 20
3.554510579020744
 30
0.0
 10
4.794993207464113
 20
3.562060937928427
 30
0.0
  0
SPLINE
  5
1FC
330
2
100
AcDbEntity
  8
0
100
AcDbSpline
210
0.0
220
0.0
230
1.0
 70
     8
 71
     3
 72
    10
 73
     6
 74
     0
 42
0.000000001
 43
0.0000000001
 40
0.0
 40
0.0
 40
0.0
 40
0.0
 40
0.4246994035048667
 40
0.9248441483348596
 40
1.0
 40
1.0
 40
1.0
 40
1.0
 10
4.691862294589206
 20
3.487832020662779
 30
0.0
 10
4.701126876213468
 20
3.490444946452845
 30
0.0
 10
4.721301837683263
 20
3.496134968871128
 30
0.0
 10
4.743357092660946
 20
3.508886875796369
 30
0.0
 10
4.754232034866916
 20
3.518946368536525
 30
0.0
 10
4.755652710507266
 20
3.520260515868947
 30
0.0
  0
LINE
  5
1FD
330
2
100
AcDbEntity
  8
0
100
AcDbLine
 10
4.794993207464582
 20
3.562060937923861
 30
0.0
 11
4.82444614867607
 21
3.601311347805738
 31
0.0
  0
LINE
  5
1FE
330
2
100
AcDbEntity
  8
0
100
AcDbLine
 10
4.671504306866367
 20
3.484094989529941
 30
0.0
 11
4.691862294583707
 21
3.487832020665667
 31
0.0
  0
SPLINE
  5
1FF
330
2
100
AcDbEntity
  8
0
100
AcDbSpline
210
0.0
220
0.0
230
1.0
 70
     8
 71
     2
 72
     6
 73
     3
 74
     0
 42
0.000000001
 43
0.0000000001
 40
0.0
 40
0.0
 40
0.0
 40
1.0
 40
1.0
 40
1.0
 10
4.66850477088111
 20
3.483436223779083
 30
0.0
 10
4.670016696020141
 20
3.483770386716724
 30
0.0
 10
4.671504306868044
 20
3.484094989530035
 30
0.0
  0
SPLINE
  5
200
330
2
100
AcDbEntity
  8
0
100
AcDbSpline
210
0.0
220
0.0
230
1.0
 70
     8
 71
     3
 72
    12
 73
     8
 74
     0
 42
0.000000001
 43
0.0000000001
 40
0.0
 40
0.0
 40
0.0
 40
0.0
 40
0.067366168286369
 40
0.3069842954474938
 40
0.5348031355017388
 40
0.7837831707209901
 40
1.0
 40
1.0
 40
1.0
 40
1.0
 10
6.077305241960818
 20
2.294923871575493
 30
0.0
 10
6.082930432822944
 20
2.293899626146259
 30
0.0
 10
6.108564149234137
 20
2.289232190407209
 30
0.0
 10
6.153849910294201
 20
2.304372846168392
 30
0.0
 10
6.203847064553293
 20
2.337556217437871
 30
0.0
 10
6.240893872991716
 20
2.384211135151451
 30
0.0
 10
6.255821402052372
 20
2.422022986222917
 30
0.0
 10
6.262759503421413
 20
2.439597392182574
 30
0.0
  0
LINE
  5
201
330
2
100
AcDbEntity
  8
0
100
AcDbLine
 10
5.487604120244117
 20
2.328613756021993
 30
0.0
 11
6.076769550369355
 21
2.292591365586854
 31
0.0
  0
LINE
  5
202
330
2
100
AcDbEntity
  8
0
100
AcDbLine
 10
6.576939595666946
 20
2.986083291268332
 30
0.0
 11
6.73699146221967
 21
3.116599964380585
 31
0.0
  0
SPLINE
  5
203
330
2
100
AcDbEntity
  8
0
100
AcDbSpline
210
0.0
220
0.0
230
1.0
 70
     8
 71
     3
 72
    11
 73
     7
 74
     0
 42
0.000000001
 43
0.0000000001
 40
0.0
 40
0.0
 40
0.0
 40
0.0
 40
0.1430693510064041
 40
0.4273942590745158
 40
0.7122227007896443
 40
1.0
 40
1.0
 40
1.0
 40
1.0
 10
6.322914186097538
 20
2.622234286061419
 30
0.0
 10
6.329820573039345
 20
2.641488969209541
 30
0.0
 10
6.350452176587829
 20
2.699008913068252
 30
0.0
 10
6.401343975240799
 20
2.793170288984028
 30
0.0
 10
6.479777554482062
 20
2.899000742654765
 30
0.0
 10
6.544441244941051
 20
2.956956286806017
 30
0.0
 10
6.576939595668623
 20
2.986083291266655
 30
0.0
  0
LINE
  5
204
330
2
100
AcDbEntity
  8
0
100
AcDbLine
 10
6.262759503419921
 20
2.439597392182434
 30
0.0
 11
6.322914186098934
 21
2.622234286064447
 31
0.0
  0
LINE
  5
205
330
2
100
AcDbEntity
  8
0
100
AcDbLine
 10
6.486325335773436
 20
7.299734164490326
 30
0.0
 11
5.799961757404346
 21
5.215830024156824
 31
0.0
  0
LINE
  5
206
330
2
100
AcDbEntity
  8
0
100
AcDbLine
 10
6.448075676495683
 20
8.030215582389995
 30
0.0
 11
6.026431603095229
 21
8.188850098114146
 31
0.0
  0
LINE
  5
207
330
2
100
AcDbEntity
  8
0
100
AcDbLine
 10
6.917758690751433
 20
7.865388741527764
 30
0.0
 11
6.801770684807092
 21
7.965837301208091
 31
0.0
  0
LINE
  5
208
330
2
100
AcDbEntity
  8
0
100
AcDbLine
 10
6.770956741596318
 20
7.978218435589527
 30
0.0
 11
6.620517665761482
 21
7.989545194595036
 31
0.0
  0
LINE
  5
209
330
2
100
AcDbEntity
  8
0
100
AcDbLine
 10
5.212160229305187
 20
8.255266485317259
 30
0.0
 11
5.196481364901529
 21
8.207664494466417
 31
0.0
  0
LINE
  5
20A
330
2
100
AcDbEntity
  8
0
100
AcDbLine
 10
5.205841875664415
 20
8.18442399503859
 30
0.0
 11
4.952470880484636
 21
8.203501483736733
 31
0.0
  0
LINE
  5
20B
330
2
100
AcDbEntity
  8
0
100
AcDbLine
 10
4.741967205863335
 20
8.312362118046138
 30
0.0
 11
4.102303236687451
 21
8.360525800745584
 31
0.0
  0
LINE
  5
20C
330
2
100
AcDbEntity
  8
0
100
AcDbLine
 10
4.952510927334657
 20
8.203467505890611
 30
0.0
 11
4.890079061921259
 21
8.256552400895518
 31
0.0
  0
LINE
  5
20D
330
2
100
AcDbEntity
  8
0
100
AcDbLine
 10
1.401930548030577
 20
3.48318014513296
 30
0.0
 11
1.401930548030577
 21
3.437339711179102
 31
0.0
  0
LINE
  5
20E
330
2
100
AcDbEntity
  8
0
100
AcDbLine
 10
3.519398071322321
 20
8.009630982479905
 30
0.0
 11
3.215711537521272
 21
7.831778125315837
 31
0.0
  0
LINE
  5
20F
330
2
100
AcDbEntity
  8
0
100
AcDbLine
 10
9.687519106926806
 20
7.742826528338353
 30
0.0
 11
9.926830886116551
 21
7.724807869077196
 31
0.0
  0
LINE
  5
210
330
2
100
AcDbEntity
  8
0
100
AcDbLine
 10
9.958832094766169
 20
8.765884490027818
 30
0.0
 11
9.773512163626072
 21
8.926376258224875
 31
0.0
  0
LINE
  5
211
330
2
100
AcDbEntity
  8
0
100
AcDbLine
 10
8.952245050506142
 20
6.094692546817597
 30
0.0
 11
9.032523431137772
 21
6.131404372835218
 31
0.0
  0
SPLINE
  5
212
330
2
100
AcDbEntity
  8
0
100
AcDbSpline
210
0.0
220
0.0
230
1.0
 70
     8
 71
     3
 72
    10
 73
     6
 74
     0
 42
0.000000001
 43
0.0000000001
 40
0.0
 40
0.0
 40
0.0
 40
0.0
 40
0.223414656091903
 40
0.6496074072459033
 40
1.0
 40
1.0
 40
1.0
 40
1.0
 10
9.072734959325952
 20
6.194262947365659
 30
0.0
 10
9.078552823184768
 20
6.20675036204145
 30
0.0
 10
9.095469025206607
 20
6.243059157590769
 30
0.0
 10
9.14028634594074
 20
6.284869611195301
 30
0.0
 10
9.171608684078648
 20
6.302748903881317
 30
0.0
 10
9.185741213564735
 20
6.310815978247301
 30
0.0
  0
LINE
  5
213
330
2
100
AcDbEntity
  8
0
100
AcDbLine
 10
9.060569324057528
 20
6.170840101453945
 30
0.0
 11
9.072734959325298
 21
6.19426294737055
 31
0.0
  0
LINE
  5
214
330
2
100
AcDbEntity
  8
0
100
AcDbLine
 10
7.865029153188331
 20
9.141381443506913
 30
0.0
 11
7.81594333285388
 21
8.992351191853522
 31
0.0
  0
LINE
  5
215
330
2
100
AcDbEntity
  8
0
100
AcDbLine
 10
9.228589830256424
 20
5.594671152101845
 30
0.0
 11
9.257996473973552
 21
5.569204251598115
 31
0.0
  0
SPLINE
  5
216
330
2
100
AcDbEntity
  8
0
100
AcDbSpline
210
0.0
220
0.0
230
1.0
 70
     8
 71
     3
 72
    12
 73
     8
 74
     0
 42
0.000000001
 43
0.0000000001
 40
0.0
 40
0.0
 40
0.0
 40
0.0
 40
0.0606925764686208
 40
0.3204610155387727
 40
0.5571976569296279
 40
0.7857352886232667
 40
1.0
 40
1.0
 40
1.0
 40
1.0
 10
14.09742510167276
 20
9.449778680551505
 30
0.0
 10
14.09272527125734
 20
9.443626194773717
 30
0.0
 10
14.06790984051729
 20
9.411140642912927
 30
0.0
 10
14.04630759882347
 20
9.342695702430818
 30
0.0
 10
14.03787136632073
 20
9.255028975101676
 30
0.0
 10
14.05419202378678
 20
9.173795565134438
 30
0.0
 10
14.0840239439014
 20
9.130878468302732
 30
0.0
 10
14.09845911537966
 20
9.110111596786163
 30
0.0
  0
SPLINE
  5
217
330
2
100
AcDbEntity
  8
0
100
AcDbSpline
210
0.0
220
0.0
230
1.0
 70
     8
 71
     3
 72
    13
 73
     9
 74
     0
 42
0.000000001
 43
0.0000000001
 40
0.0
 40
0.0
 40
0.0
 40
0.0
 40
0.1303754809643037
 40
0.303283450701318
 40
0.4791018037484784
 40
0.6622248062783119
 40
0.8520685611530565
 40
1.0
 40
1.0
 40
1.0
 40
1.0
 10
14.51025128664449
 20
9.578555695745729
 30
0.0
 10
14.49307368678574
 20
9.589108567463471
 30
0.0
 10
14.45311462606819
 20
9.613656981978952
 30
0.0
 10
14.37726775987433
 20
9.622551624312496
 30
0.0
 10
14.29347974245195
 20
9.610209514598459
 30
0.0
 10
14.21184457573088
 20
9.572149709572913
 30
0.0
 10
14.14223022828833
 20
9.517662488732648
 30
0.0
 10
14.11107137784759
 20
9.470454019830944
 30
0.0
 10
14.09742510167276
 20
9.449778680551505
 30
0.0
  0
LINE
  5
218
330
2
100
AcDbEntity
  8
0
100
AcDbLine
 10
14.5821956093242
 20
9.532741491456922
 30
0.0
 11
14.51025128664449
 21
9.578555695745729
 31
0.0
  0
LINE
  5
219
330
2
100
AcDbEntity
  8
0
100
AcDbLine
 10
14.10248020467102
 20
9.104731176411291
 30
0.0
 11
14.1303167742623
 21
9.073306503747312
 31
0.0
  0
SPLINE
  5
21A
330
2
100
AcDbEntity
  8
0
100
AcDbSpline
210
0.0
220
0.0
230
1.0
 70
     8
 71
     3
 72
    12
 73
     8
 74
     0
 42
0.000000001
 43
0.0000000001
 40
0.0
 40
0.0
 40
0.0
 40
0.0
 40
0.0606937166279216
 40
0.3204616990037354
 40
0.5571981577917608
 40
0.7857356728127672
 40
1.0
 40
1.0
 40
1.0
 40
1.0
 10
28.2570262891625
 20
13.53730345915898
 30
0.0
 10
28.25232625109227
 20
13.53115092899785
 30
0.0
 10
28.22751013718389
 20
13.49866568376734
 30
0.0
 10
28.20590862139132
 20
13.43022024823614
 30
0.0
 10
28.19747204566807
 20
13.34255362482129
 30
0.0
 10
28.21379312252401
 20
13.26132037245052
 30
0.0
 10
28.24362485315015
 20
13.21840317318254
 30
0.0
 10
28.25805992338284
 20
13.19763626584529
 30
0.0
  0
SPLINE
  5
21B
330
2
100
AcDbEntity
  8
0
100
AcDbSpline
210
0.0
220
0.0
230
1.0
 70
     8
 71
     3
 72
    13
 73
     9
 74
     0
 42
0.000000001
 43
0.0000000001
 40
0.0
 40
0.0
 40
0.0
 40
0.0
 40
0.1303755812226645
 40
0.3032836839253981
 40
0.4791021721763542
 40
0.6622244685674682
 40
0.8520687492924226
 40
1.0
 40
1.0
 40
1.0
 40
1.0
 10
28.66985209464767
 20
13.66608036480485
 30
0.0
 10
28.65267449462998
 20
13.67663323710469
 30
0.0
 10
28.61271543354256
 20
13.70118165297414
 30
0.0
 10
28.53686857084183
 20
13.71007628251976
 30
0.0
 10
28.45308067247063
 20
13.69773424510302
 30
0.0
 10
28.3714456205035
 20
13.65967432485021
 30
0.0
 10
28.30183125451254
 20
13.60518734032246
 30
0.0
 10
28.27067249466311
 20
13.55797878800477
 30
0.0
 10
28.2570262891625
 20
13.53730345915898
 30
0.0
  0
LINE
  5
21C
330
2
100
AcDbEntity
  8
0
100
AcDbLine
 10
28.26208120242028
 20
13.19225590024068
 30
0.0
 11
28.28991758226809
 21
13.16083117279796
 31
0.0
  0
LINE
  5
21D
330
2
100
AcDbEntity
  8
0
100
AcDbLine
 10
28.28991758226809
 20
13.16083117279796
 30
0.0
 11
28.35943966799436
 21
13.09556685803405
 31
0.0
  0
LINE
  5
21E
330
2
100
AcDbEntity
  8
0
100
AcDbLine
 10
28.78296539109694
 20
13.58461234519869
 30
0.0
 11
28.7153701156457
 21
13.63930823531512
 31
0.0
  0
LINE
  5
21F
330
2
100
AcDbEntity
  8
0
100
AcDbLine
 10
14.1303167742623
 20
9.073306503747312
 30
0.0
 11
14.19983904973195
 21
9.00804224375031
 31
0.0
  0
LINE
  5
220
330
2
100
AcDbEntity
  8
0
100
AcDbLine
 10
14.6233649625781
 20
9.497087785681902
 30
0.0
 11
14.5821956093242
 21
9.532741491456922
 31
0.0
  0
LINE
  5
221
330
2
100
AcDbEntity
  8
0
100
AcDbLine
 10
32.32344062719221
 20
14.3080059719827
 30
0.0
 11
32.27250670759362
 21
14.29330261588884
 31
0.0
  0
LINE
  5
222
330
2
100
AcDbEntity
  8
0
100
AcDbLine
 10
35.57836423521427
 20
14.8359550922665
 30
0.0
 11
35.55400033243314
 21
14.85705485101023
 31
0.0
  0
LINE
  5
223
330
2
100
AcDbEntity
  8
0
100
AcDbLine
 10
35.55400033243314
 20
14.85705485101023
 30
0.0
 11
32.28481904257065
 21
17.68824889759978
 31
0.0
  0
LINE
  5
224
330
2
100
AcDbEntity
  8
0
100
AcDbLine
 10
32.17907132719962
 20
17.6855930419458
 30
0.0
 11
9.971927919704445
 21
11.2749429298198
 31
0.0
  0
LINE
  5
225
330
2
100
AcDbEntity
  8
0
100
AcDbLine
 10
32.3010072183171
 20
12.64175574157767
 30
0.0
 11
35.4181123569025
 21
9.942263505296635
 31
0.0
  0
LINE
  5
226
330
2
100
AcDbEntity
  8
0
100
AcDbLine
 10
36.38420936145084
 20
10.26443772578237
 30
0.0
 11
36.38420936145084
 21
10.31537154457494
 31
0.0
  0
LINE
  5
227
330
2
100
AcDbEntity
  8
0
100
AcDbLine
 10
13.26345227452505
 20
4.47209168159536
 30
0.0
 11
34.61675484277814
 21
10.63625917453576
 31
0.0
  0
LINE
  5
228
330
2
100
AcDbEntity
  8
0
100
AcDbLine
 10
6.028061735737651
 20
5.226332454934977
 30
0.0
 11
6.088755919883382
 21
5.173769749617685
 31
0.0
  0
LINE
  5
229
330
2
100
AcDbEntity
  8
0
100
AcDbLine
 10
6.690983201323572
 20
7.452401371559151
 30
0.0
 11
6.673561734892349
 21
7.399510251039375
 31
0.0
  0
LINE
  5
22A
330
2
100
AcDbEntity
  8
0
100
AcDbLine
 10
11.01013823533898
 20
4.445380254924749
 30
0.0
 11
10.05289567244729
 21
4.517456016809209
 31
0.0
  0
LINE
  5
22B
330
2
100
AcDbEntity
  8
0
100
AcDbLine
 10
11.07397351148266
 20
4.31409365525797
 30
0.0
 11
11.09139345995427
 21
4.366984527315075
 31
0.0
  0
ARC
  5
22C
330
2
100
AcDbEntity
  8
0
100
AcDbCircle
 10
6.858741063322142
 20
8.021153525931401
 30
0.0
 40
0.0288937077371311
100
AcDbArc
 50
99.61106931520331
 51
162.1753033699016
  0
LINE
  5
22D
330
2
100
AcDbEntity
  8
0
100
AcDbLine
 10
7.054624368117309
 20
8.072190752206282
 30
0.0
 11
7.00264686063215
 21
8.066351496278203
 31
0.0
  0
LINE
  5
22E
330
2
100
AcDbEntity
  8
0
100
AcDbLine
 10
6.997543526123099
 20
8.065778053013742
 30
0.0
 11
6.853916992018373
 21
8.049641675791933
 31
0.0
  0
LINE
  5
22F
330
2
100
AcDbEntity
  8
0
100
AcDbLine
 10
6.831234324698307
 20
8.029998053982017
 30
0.0
 11
6.808252622010229
 21
7.96022370486269
 31
0.0
  0
LINE
  5
230
330
2
100
AcDbEntity
  8
0
100
AcDbLine
 10
4.955410564550334
 20
2.196562114880859
 30
0.0
 11
4.026522971718414
 21
3.001002367531524
 31
0.0
  0
LINE
  5
231
330
2
100
AcDbEntity
  8
0
100
AcDbLine
 10
4.678861754657358
 20
2.97444940303125
 30
0.0
 11
4.026522971718414
 21
3.001002367531524
 31
0.0
  0
ELLIPSE
  5
232
330
2
100
AcDbEntity
  8
0
100
AcDbEllipse
 10
4.658789261403217
 20
2.989883796263735
 30
0.0
 11
0.0334364189192574
 21
-0.0112830374469445
 31
0.0
210
0.0
220
0.0
230
1.0
 40
0.3166888303999999
 41
5.458480189693617
 42
6.942010053889517
  0
LINE
  5
233
330
2
100
AcDbEntity
  8
0
100
AcDbLine
 10
4.366870486900879
 20
3.265043980146324
 30
0.0
 11
4.687414827833812
 21
2.98744443785578
 31
0.0
  0
ELLIPSE
  5
234
330
2
100
AcDbEntity
  8
0
100
AcDbEllipse
 10
4.338244909225178
 20
3.267483348293749
 30
0.0
 11
0.0334364189192439
 21
-0.0112830374469445
 31
0.0
210
0.0
220
0.0
230
1.0
 40
0.3166888304
 41
0.6588247467100106
 42
2.142354610904445
  0
LINE
  5
235
330
2
100
AcDbEntity
  8
0
100
AcDbLine
 10
3.596460671723086
 20
3.373447244530513
 30
0.0
 11
4.323163700935566
 21
3.28249295363099
 31
0.0
  0
LINE
  5
236
330
2
100
AcDbEntity
  8
0
100
AcDbLine
 10
3.596460671723086
 20
3.373447244530513
 30
0.0
 11
2.667573044661882
 21
4.177887526834853
 31
0.0
  0
LINE
  5
237
330
2
100
AcDbEntity
  8
0
100
AcDbLine
 10
2.718935349259762
 20
4.543187845245576
 30
0.0
 11
3.769841945795995
 21
3.633076035631439
 31
0.0
  0
ELLIPSE
  5
238
330
2
100
AcDbEntity
  8
0
100
AcDbEllipse
 10
3.674420997776817
 20
3.641206559523521
 30
0.0
 11
0.1114547297308332
 21
-0.0376101248231462
 31
0.0
210
0.0
220
0.0
230
1.0
 40
0.3166888304
 41
5.458480189693979
 42
6.942010053889137
  0
LINE
  5
239
330
2
100
AcDbEntity
  8
0
100
AcDbLine
 10
3.594113419220967
 20
3.595750347175851
 30
0.0
 11
3.741327157178144
 21
3.589757961997527
 31
0.0
  0
ELLIPSE
  5
23A
330
2
100
AcDbEntity
  8
0
100
AcDbEllipse
 10
3.627565869831023
 20
3.570025868555912
 30
0.0
 11
0.0557273648654133
 21
-0.0188050624115831
 31
0.0
210
0.0
220
0.0
230
1.0
 40
0.3166888304
 41
2.316887536104295
 42
3.800417400299778
  0
LINE
  5
23B
330
2
100
AcDbEntity
  8
0
100
AcDbLine
 10
3.584776121587356
 20
3.569829505256773
 30
0.0
 11
3.57985526593228
 21
3.574091091249954
 31
0.0
  0
ELLIPSE
  5
23C
330
2
100
AcDbEntity
  8
0
100
AcDbEllipse
 10
3.632486710030025
 20
3.565764295936894
 30
0.0
 11
0.0557273648654133
 21
-0.0188050624115831
 31
0.0
210
0.0
220
0.0
230
1.0
 40
0.3166888304
 41
3.800417400299803
 42
5.283947264494716
  0
LINE
  5
23D
330
2
100
AcDbEntity
  8
0
100
AcDbLine
 10
3.657623782495086
 20
3.540748759167257
 30
0.0
 11
4.232646582542972
 21
3.46877832856008
 31
0.0
  0
ELLIPSE
  5
23E
330
2
100
AcDbEntity
  8
0
100
AcDbEllipse
 10
4.333193017726109
 20
3.368715713786382
 30
0.0
 11
0.2229094594616664
 21
-0.0752202496463124
 31
0.0
210
0.0
220
0.0
230
0.9999999999999998
 40
0.3166888304
 41
0.6588247467096388
 42
2.14235461090486
  0
LINE
  5
23F
330
2
100
AcDbEntity
  8
0
100
AcDbLine
 10
4.524034162906829
 20
3.352454491561986
 30
0.0
 11
5.102774843913646
 21
2.851250359596671
 31
0.0
  0
ELLIPSE
  5
240
330
2
100
AcDbEntity
  8
0
100
AcDbEllipse
 10
4.911933703837899
 20
2.867511577410078
 30
0.0
 11
0.2229094594616664
 21
-0.0752202496463057
 31
0.0
210
0.0
220
0.0
230
1.0
 40
0.3166888304
 41
5.458480189694113
 42
6.942010053889237
  0
LINE
  5
241
330
2
100
AcDbEntity
  8
0
100
AcDbLine
 10
5.045745252974487
 20
2.764614224185582
 30
0.0
 11
4.52956523625702
 21
2.785625309602461
 31
0.0
  0
ELLIPSE
  5
242
330
2
100
AcDbEntity
  8
0
100
AcDbEllipse
 10
4.563017680632849
 20
2.759900836381573
 30
0.0
 11
0.0557273648654199
 21
-0.0188050624115831
 31
0.0
210
0.0
220
0.0
230
1.0
 40
0.3166888304
 41
2.316887536104025
 42
3.800417400300071
  0
LINE
  5
243
330
2
100
AcDbEntity
  8
0
100
AcDbLine
 10
4.520227911228058
 20
2.759704491396858
 30
0.0
 11
4.515307082968245
 21
2.763966053688302
 31
0.0
  0
ELLIPSE
  5
244
330
2
100
AcDbEntity
  8
0
100
AcDbEllipse
 10
4.567938520831759
 20
2.755639263762556
 30
0.0
 11
0.0557273648654133
 21
-0.0188050624115831
 31
0.0
210
0.0
220
0.0
230
1.0
 40
0.3166888304
 41
3.800417400300069
 42
5.283947264494716
  0
LINE
  5
245
330
2
100
AcDbEntity
  8
0
100
AcDbLine
 10
4.75707115381164
 20
2.710097857166384
 30
0.0
 11
4.593075572147714
 21
2.730623745319125
 31
0.0
  0
ELLIPSE
  5
246
330
2
100
AcDbEntity
  8
0
100
AcDbEllipse
 10
4.807344028586332
 20
2.660066434311416
 30
0.0
 11
0.1114547297308332
 21
-0.0376101248231529
 31
0.0
210
0.0
220
0.0
230
1.0
 40
0.3166888304
 41
0.6588247467096168
 42
2.142354610904783
  0
LINE
  5
247
330
2
100
AcDbEntity
  8
0
100
AcDbLine
 10
4.902764957679416
 20
2.65193592680473
 30
0.0
 11
5.953671608994337
 21
1.741824069763509
 31
0.0
  0
LINE
  5
248
330
2
100
AcDbEntity
  8
0
100
AcDbLine
 10
5.411358567091152
 20
2.122072539994723
 30
0.0
 11
5.838550879022374
 21
1.752114252216501
 31
0.0
  0
ELLIPSE
  5
249
330
2
100
AcDbEntity
  8
0
100
AcDbEllipse
 10
3.802346558003559
 20
7.832574201680948
 30
0.0
 11
0.0088269467416181
 21
0.1173026930388763
 31
0.0
210
0.0
220
0.0
230
0.9999999999999998
 40
0.5778770211000001
 41
5.877920137287945
 42
7.448640311660927
  0
LINE
  5
24A
330
2
100
AcDbEntity
  8
0
100
AcDbLine
 10
4.543072110878799
 20
7.327047913228605
 30
0.0
 11
3.837184928153362
 21
7.938364145675505
 31
0.0
  0
LINE
  5
24B
330
2
100
AcDbEntity
  8
0
100
AcDbLine
 10
3.171483576635637
 20
4.674423004160784
 30
0.0
 11
3.55036897406126
 21
5.824775527782787
 31
0.0
  0
LINE
  5
24C
330
2
100
AcDbEntity
  8
0
100
AcDbLine
 10
3.70940721407182
 20
6.307641663612793
 30
0.0
 11
3.89877705138031
 21
6.882595029037176
 31
0.0
  0
ARC
  5
24D
330
2
100
AcDbEntity
  8
0
100
AcDbCircle
 10
3.55709402769466
 20
4.522112144485074
 30
0.0
 40
0.4146010346568484
100
AcDbArc
 50
158.4466572452005
 51
209.5566189156512
  0
ELLIPSE
  5
24E
330
2
100
AcDbEntity
  8
0
100
AcDbEllipse
 10
2.753781180747711
 20
4.648969753413616
 30
0.0
 11
0.0088371421385088
 21
0.1172954158184943
 31
0.0
210
0.0
220
0.0
230
0.9999999999999998
 40
0.5779408021000001
 41
1.165636268090271
 42
2.736356442463288
  0
LINE
  5
24F
330
2
100
AcDbEntity
  8
0
100
AcDbLine
 10
3.743533907317335
 20
7.883518123705352
 30
0.0
 11
2.694962604409266
 21
4.699897378482903
 31
0.0
  0
LWPOLYLINE
  5
250
330
2
100
AcDbEntity
  8
0
100
AcDbPolyline
 90
        7
 70
   128
 43
0.0
 10
3.611765532944254
 20
7.311326557976228
 10
3.590843121394531
 20
7.21319855900294
 10
3.590176879297668
 20
7.111547605231445
 10
3.609850912491396
 20
7.01863496095223
 10
3.647489165633718
 20
6.945666560187003
 10
3.6985532515803
 20
6.9014437645375
 10
3.737767133141822
 20
6.890682213122344
  0
LWPOLYLINE
  5
251
330
2
100
AcDbEntity
  8
0
100
AcDbPolyline
 90
        5
 70
   128
 43
0.0
 10
3.781925595916252
 20
7.477144127643613
 10
3.760715013203842
 20
7.476683983929989
 10
3.702152721030017
 20
7.451524232160386
 10
3.650424020479992
 20
7.39409622759989
 10
3.611765532944254
 20
7.311326557976228
  0
LWPOLYLINE
  5
252
330
2
100
AcDbEntity
  8
0
100
AcDbPolyline
 90
        7
 70
   128
 43
0.0
 10
3.263358973572984
 20
6.253507684659712
 10
3.242435044087123
 20
6.155379247491975
 10
3.241768801990264
 20
6.053728293720526
 10
3.261442835184084
 20
5.960815649441265
 10
3.29908108831448
 20
5.887847153798432
 10
3.35014517426125
 20
5.843624358148929
 10
3.38936057378229
 20
5.832863339805831
  0
LWPOLYLINE
  5
253
330
2
100
AcDbEntity
  8
0
100
AcDbPolyline
 90
        5
 70
   128
 43
0.0
 10
3.433517518597014
 20
6.419324816132695
 10
3.412306935896435
 20
6.418864482675552
 10
3.353746161658747
 20
6.393705169100353
 10
3.302015943160849
 20
6.336276916088925
 10
3.263358973572984
 20
6.253507684659712
  0
LINE
  5
254
330
2
100
AcDbEntity
  8
0
100
AcDbLine
 10
3.531253124184754
 20
6.50414216645422
 30
0.0
 11
3.632292164861887
 21
6.810912161792376
 31
0.0
  0
ELLIPSE
  5
255
330
2
100
AcDbEntity
  8
0
100
AcDbEllipse
 10
3.548898497668115
 20
6.488863874261307
 30
0.0
 11
0.002651142641556
 21
0.0351886247455442
 31
0.0
210
0.0
220
0.0
230
1.0
 40
0.5779408021000001
 41
1.165636268090297
 42
2.73635644246337
  0
LINE
  5
256
330
2
100
AcDbEntity
  8
0
100
AcDbLine
 10
3.538443852217405
 20
6.457129094612797
 30
0.0
 11
3.604964658032965
 21
6.399520386889589
 31
0.0
  0
LINE
  5
257
330
2
100
AcDbEntity
  8
0
100
AcDbLine
 10
3.643094112158649
 20
6.384710528825598
 30
0.0
 11
3.760369852865991
 21
6.740777785990195
 31
0.0
  0
LINE
  5
258
330
2
100
AcDbEntity
  8
0
100
AcDbLine
 10
3.660386527484966
 20
6.827365885716613
 30
0.0
 11
3.760369852865991
 21
6.740777785990195
 31
0.0
  0
ELLIPSE
  5
259
330
2
100
AcDbEntity
  8
0
100
AcDbEllipse
 10
3.649935970499971
 20
6.795629055436346
 30
0.0
 11
0.0026480840224794
 21
0.0351908079116609
 31
0.0
210
0.0
220
0.0
230
0.9999999999999998
 40
0.5778770211000001
 41
5.877920137287437
 42
7.448640311660861
  0
LINE
  5
25A
330
2
100
AcDbEntity
  8
0
100
AcDbLine
 10
3.453402408017545
 20
7.357642673836654
 30
0.0
 11
3.104994330698403
 21
6.299823172582216
 31
0.0
  0
LINE
  5
25B
330
2
100
AcDbEntity
  8
0
100
AcDbLine
 10
3.628914916133833
 20
7.890525876558529
 30
0.0
 11
3.453402408017545
 21
7.357642673836654
 31
0.0
  0
LINE
  5
25C
330
2
100
AcDbEntity
  8
0
100
AcDbLine
 10
3.104994330698403
 20
6.299823172582216
 30
0.0
 11
2.915076154890442
 21
5.723200020707237
 31
0.0
  0
LWPOLYLINE
  5
25D
330
2
100
AcDbEntity
  8
0
100
AcDbPolyline
 90
       17
 70
   128
 43
0.0
 10
3.71869573990164
 20
6.010557785821701
 10
3.736291829481995
 20
6.09869251459686
 10
3.733418764211574
 20
6.188816306954153
 10
3.710514559086529
 20
6.267208587151385
 10
3.671064630959808
 20
6.321934702319293
 10
3.621077121600162
 20
6.344663680059248
 10
3.568159978286587
 20
6.331934613762921
 10
3.520370890396307
 20
6.285685533049029
 10
3.484984592228762
 20
6.212957576849142
 10
3.4673885026485
 20
6.124822848074028
 10
3.470261567918829
 20
6.034699245460162
 10
3.493165882601442
 20
5.956306775531244
 10
3.532615810716329
 20
5.90158066035155
 10
3.582603320087713
 20
5.878851682611594
 10
3.635520353843816
 20
5.891580938651394
 10
3.683309441734095
 20
5.937829829621813
 10
3.71869573990164
 20
6.010557785821701
  0
ARC
  5
25E
330
2
100
AcDbEntity
  8
0
100
AcDbCircle
 10
3.132588585837631
 20
4.553747229264732
 30
0.0
 40
0.5979213739638901
100
AcDbArc
 50
158.4462968151021
 51
218.9476879695054
  0
LWPOLYLINE
  5
25F
330
2
100
AcDbEntity
  8
0
100
AcDbPolyline
 90
       10
 70
   128
 43
0.0
 10
2.91084501743937
 20
6.541485647322582
 10
2.863469951339467
 20
6.53570176132186
 10
2.797127236834818
 20
6.49684840520365
 10
2.739278707943753
 20
6.425590704635315
 10
2.695587569175923
 20
6.328904505487372
 10
2.67033056399542
 20
6.216253878343303
 10
2.665979736927891
 20
6.098665998700512
 10
2.682961882884292
 20
5.987651196663934
 10
2.719613789189114
 20
5.894075927317851
 10
2.772347994669662
 20
5.827100559959509
  0
LWPOLYLINE
  5
260
330
2
100
AcDbEntity
  8
0
100
AcDbPolyline
 90
        3
 70
   128
 43
0.0
 10
3.177320192328544
 20
4.345358157730931
 10
3.191024211160819
 20
4.323602359552811
 10
3.216222488644834
 20
4.29568664474379
  0
LINE
  5
261
330
2
100
AcDbEntity
  8
0
100
AcDbLine
 10
2.915076154890442
 20
5.723200020707237
 30
0.0
 11
2.889974514795063
 21
5.725233005371675
 31
0.0
  0
LINE
  5
262
330
2
100
AcDbEntity
  8
0
100
AcDbLine
 10
2.576477677898981
 20
4.773407484018326
 30
0.0
 11
2.889974514795063
 21
5.725233005371675
 31
0.0
  0
LWPOLYLINE
  5
263
330
2
100
AcDbEntity
  8
0
100
AcDbPolyline
 90
       17
 70
   128
 43
0.0
 10
4.067103817220786
 20
7.068377287076138
 10
4.084699906801141
 20
7.156511826107779
 10
4.081826841530808
 20
7.246635618465072
 10
4.058922636393841
 20
7.32502789866235
 10
4.019472708278954
 20
7.379754013830257
 10
3.969485198919308
 20
7.402482991570213
 10
3.916568055605729
 20
7.389753925273886
 10
3.868778967715449
 20
7.343504844559994
 10
3.833392669547905
 20
7.270777078115365
 10
3.815796579967642
 20
7.182642349328419
 10
3.818669645237974
 20
7.092518556971127
 10
3.841573959920584
 20
7.014126181908029
 10
3.881023888035475
 20
6.959400066740121
 10
3.931011397395025
 20
6.936671089000165
 10
3.983928431162961
 20
6.949400250162359
 10
4.031717519053241
 20
6.995649330876251
 10
4.067103817220786
 20
7.068377287076138
  0
LINE
  5
264
330
2
100
AcDbEntity
  8
0
100
AcDbLine
 10
3.216222488644834
 20
4.29568664474379
 30
0.0
 11
3.835832538537701
 21
3.759088601099216
 31
0.0
  0
LINE
  5
265
330
2
100
AcDbEntity
  8
0
100
AcDbLine
 10
2.772347994669662
 20
5.827100559959509
 30
0.0
 11
2.889974514795063
 21
5.725233005371675
 31
0.0
  0
LWPOLYLINE
  5
266
330
2
100
AcDbEntity
  8
0
100
AcDbPolyline
 90
       10
 70
   128
 43
0.0
 10
3.259253094746682
 20
7.599304958833547
 10
3.211878028658613
 20
7.593521262576297
 10
3.145535314153963
 20
7.554667716714568
 10
3.087686785262896
 20
7.483410205889706
 10
3.043995646483327
 20
7.386724006741809
 10
3.018738641314474
 20
7.274073379597741
 10
3.014387814246941
 20
7.156485310211477
 10
3.031369960191696
 20
7.045470508174899
 10
3.068021866508257
 20
6.951895428572289
 10
3.120756071976973
 20
6.884919871470428
  0
LINE
  5
267
330
2
100
AcDbEntity
  8
0
100
AcDbLine
 10
3.760369852865991
 20
6.740777785990195
 30
0.0
 11
3.613120884621562
 21
6.752703455432905
 31
0.0
  0
LINE
  5
268
330
2
100
AcDbEntity
  8
0
100
AcDbLine
 10
3.263484232209584
 20
6.781019332218154
 30
0.0
 11
3.238382592102468
 21
6.78305231688264
 31
0.0
  0
LINE
  5
269
330
2
100
AcDbEntity
  8
0
100
AcDbLine
 10
3.120756071976973
 20
6.884919871470428
 30
0.0
 11
3.238382592102468
 21
6.78305231688264
 31
0.0
  0
ELLIPSE
  5
26A
330
2
100
AcDbEntity
  8
0
100
AcDbEllipse
 10
3.687728488695189
 20
7.83958211804685
 30
0.0
 11
0.0088269467416181
 21
0.1173026930388763
 31
0.0
210
0.0
220
0.0
230
0.9999999999999998
 40
0.5778770211000001
 41
0.0081150858514489
 42
1.165455004481329
  0
ELLIPSE
  5
26B
330
2
100
AcDbEntity
  8
0
100
AcDbEllipse
 10
4.385910930956608
 20
3.528775340672385
 30
0.0
 11
0.2086300257803847
 21
-0.1181647097745797
 31
0.0
210
0.0
220
0.0
230
1.0
 40
0.165794471
 41
0.6896272446617182
 42
2.173157108856921
  0
ARC
  5
26C
330
2
100
AcDbEntity
  8
0
100
AcDbCircle
 10
4.158691541614807
 20
7.28268242055058
 30
0.0
 40
0.1121621409916238
100
AcDbArc
 50
51.27721473400147
 51
145.8445444761049
  0
LINE
  5
26D
330
2
100
AcDbEntity
  8
0
100
AcDbLine
 10
4.283846901677229
 20
3.624228245853773
 30
0.0
 11
4.267842241545743
 21
3.631029171697436
 31
0.0
  0
LINE
  5
26E
330
2
100
AcDbEntity
  8
0
100
AcDbLine
 10
3.813634853930835
 20
3.687877700265696
 30
0.0
 11
4.267842241545743
 21
3.631029171697436
 31
0.0
  0
LINE
  5
26F
330
2
100
AcDbEntity
  8
0
100
AcDbLine
 10
5.138071642628148
 20
2.958416993194399
 30
0.0
 11
4.559330961621334
 21
3.459621125147929
 31
0.0
  0
LINE
  5
270
330
2
100
AcDbEntity
  8
0
100
AcDbLine
 10
4.248239038285877
 20
7.353402115705597
 30
0.0
 11
4.228854901672406
 21
7.370189270442061
 31
0.0
  0
ELLIPSE
  5
271
330
2
100
AcDbEntity
  8
0
100
AcDbEllipse
 10
4.964651617068398
 20
3.027571204307865
 30
0.0
 11
0.2086300257803847
 21
-0.1181647097745665
 31
0.0
210
0.0
220
0.0
230
1.0
 40
0.165794471
 41
0.0331063377241576
 42
0.689627244661631
  0
LINE
  5
272
330
2
100
AcDbEntity
  8
0
100
AcDbLine
 10
4.127310033352966
 20
3.307006063766955
 30
0.0
 11
4.026522971718414
 21
3.001002367531524
 31
0.0
  0
LINE
  5
273
330
2
100
AcDbEntity
  8
0
100
AcDbLine
 10
4.981115010711612
 20
2.76724488568997
 30
0.0
 11
5.504060008545025
 21
2.314361232789843
 31
0.0
  0
LINE
  5
274
330
2
100
AcDbEntity
  8
0
100
AcDbLine
 10
6.047321002336946
 20
1.796669843282776
 30
0.0
 11
6.248687167004899
 21
2.408045815191537
 31
0.0
  0
ELLIPSE
  5
275
330
2
100
AcDbEntity
  8
0
100
AcDbEllipse
 10
5.988508487497586
 20
1.847613731454281
 30
0.0
 11
0.0088269467416115
 21
0.1173026930388764
 31
0.0
210
0.0
220
0.0
230
0.9999999999999998
 40
0.5778770211
 41
2.736327483698102
 42
4.30704765807106
  0
ARC
  5
276
330
2
100
AcDbEntity
  8
0
100
AcDbCircle
 10
5.57326825446502
 20
2.393060100183466
 30
0.0
 40
0.1048012072189969
100
AcDbArc
 50
228.6714130374034
 51
314.9203592104971
  0
ARC
  5
277
330
2
100
AcDbEntity
  8
0
100
AcDbCircle
 10
5.06854713908697
 20
2.318576726219329
 30
0.0
 40
0.1663954623141196
100
AcDbArc
 50
227.1621517867994
 51
264.5187678972925
  0
ELLIPSE
  5
278
330
2
100
AcDbEntity
  8
0
100
AcDbEllipse
 10
5.873388326085528
 20
1.857903978060786
 30
0.0
 11
0.0088269467416181
 21
0.1173026930388763
 31
0.0
210
0.0
220
0.0
230
0.9999999999999998
 40
0.5778770211000001
 41
2.736327483698255
 42
3.133477567738518
  0
LINE
  5
279
330
2
100
AcDbEntity
  8
0
100
AcDbLine
 10
4.534631727065146
 20
5.388727994871601
 30
0.0
 11
4.149140400638444
 21
5.079329833959839
 31
0.0
  0
ELLIPSE
  5
27A
330
2
100
AcDbEntity
  8
0
100
AcDbEllipse
 10
3.903476958327889
 20
4.49854137909482
 30
0.0
 11
0.0088371421385088
 21
0.1172954158184943
 31
0.0
210
0.0
220
0.0
230
0.9999999999999998
 40
0.5779408021000001
 41
1.16563626809024
 42
2.736356442463259
  0
ELLIPSE
  5
27B
330
2
100
AcDbEntity
  8
0
100
AcDbEllipse
 10
4.298014425944639
 20
5.7740013007641
 30
0.0
 11
0.3873352101200431
 21
0.4425787694696004
 31
0.0
210
0.0
220
0.0
230
1.0
 40
0.7540258493000001
 41
4.482373612415839
 42
5.224320880421761
  0
ELLIPSE
  5
27C
330
2
100
AcDbEntity
  8
0
100
AcDbEllipse
 10
4.386513605104223
 20
4.693400989497998
 30
0.0
 11
0.3885133144086272
 21
0.4415507422425177
 31
0.0
210
0.0
220
0.0
230
1.0
 40
0.7560319662000003
 41
1.342801356481428
 42
2.084748624487349
  0
LINE
  5
27D
330
2
100
AcDbEntity
  8
0
100
AcDbLine
 10
3.904812940525257
 20
4.732105806309199
 30
0.0
 11
3.844658257846244
 21
4.549468912438927
 31
0.0
  0
LINE
  5
27E
330
2
100
AcDbEntity
  8
0
100
AcDbLine
 10
5.17119915645506
 20
3.264702267885139
 30
0.0
 11
6.218607773875689
 21
2.357619797054057
 31
0.0
  0
LINE
  5
27F
330
2
100
AcDbEntity
  8
0
100
AcDbLine
 10
3.868630893151191
 20
4.392759474067418
 30
0.0
 11
4.794070432140447
 21
3.591305323624789
 31
0.0
  0
LINE
  5
280
330
2
100
AcDbEntity
  8
0
100
AcDbLine
 10
5.220419250117902
 20
7.077346308766861
 30
0.0
 11
4.778689369672033
 21
5.73618573877496
 31
0.0
  0
ELLIPSE
  5
281
330
2
100
AcDbEntity
  8
0
100
AcDbEllipse
 10
5.279231976238246
 20
7.026402321483168
 30
0.0
 11
0.0088269467416181
 21
0.1173026930388763
 31
0.0
210
0.0
220
0.0
230
0.9999999999999998
 40
0.5778770211000001
 41
5.877920137287912
 42
7.44864031166087
  0
LINE
  5
282
330
2
100
AcDbEntity
  8
0
100
AcDbLine
 10
5.700508041331517
 20
6.797527404611996
 30
0.0
 11
5.314070270942288
 21
7.132192330748798
 31
0.0
  0
LINE
  5
283
330
2
100
AcDbEntity
  8
0
100
AcDbLine
 10
5.178514362907126
 20
3.335351960733429
 30
0.0
 11
4.860328939589656
 21
3.610908620433125
 31
0.0
  0
LINE
  5
284
330
2
100
AcDbEntity
  8
0
100
AcDbLine
 10
4.981337729240888
 20
3.186487109397125
 30
0.0
 11
5.178514362907126
 21
3.335351960733429
 31
0.0
  0
LINE
  5
285
330
2
100
AcDbEntity
  8
0
100
AcDbLine
 10
4.663152305923418
 20
3.462043769108559
 30
0.0
 11
4.981337729240888
 21
3.186487109397125
 31
0.0
  0
ELLIPSE
  5
286
330
2
100
AcDbEntity
  8
0
100
AcDbEllipse
 10
5.107716351366779
 20
3.225701491424536
 30
0.0
 11
0.06938224109174
 21
0.1106983013327101
 31
0.0
210
0.0
220
0.0
230
1.0
 40
0.2945542466
 41
5.171606599400139
 42
6.237537654344468
  0
ELLIPSE
  5
287
330
2
100
AcDbEntity
  8
0
100
AcDbEllipse
 10
5.096812403259068
 20
3.217469198236017
 30
0.0
 11
0.1189752356000904
 21
0.0255020238232932
 31
0.0
210
0.0
220
0.0
230
1.0
 40
0.2601647544
 41
3.335243632973681
 42
4.401174687917908
  0
ELLIPSE
  5
288
330
2
100
AcDbEntity
  8
0
100
AcDbEllipse
 10
5.105129385478036
 20
3.235922109747133
 30
0.0
 11
-0.0311955052734117
 21
0.0582340822192586
 31
0.0
210
0.0
220
0.0
230
1.0
 40
0.8730488701
 41
2.500405314970203
 42
4.062474995505384
  0
LINE
  5
289
330
2
100
AcDbEntity
  8
0
100
AcDbLine
 10
5.164483069545408
 20
3.222366609084406
 30
0.0
 11
5.167698575461621
 21
3.256448652480146
 31
0.0
  0
LINE
  5
28A
330
2
100
AcDbEntity
  8
0
100
AcDbLine
 10
5.066695965486744
 20
3.180193711594436
 30
0.0
 11
5.099718046830673
 21
3.172963315928252
 31
0.0
  0
LINE
  5
28B
330
2
100
AcDbEntity
  8
0
100
AcDbLine
 10
6.713230027117052
 20
6.605379232753181
 30
0.0
 11
6.564430332983143
 21
6.153602322007856
 31
0.0
  0
LWPOLYLINE
  5
28C
330
2
100
AcDbEntity
  8
0
100
AcDbPolyline
 90
        9
 70
   128
 43
0.0
 10
6.713230027117052
 20
6.605379232753181
 10
6.785790882577799
 20
6.582294402769353
 10
6.835978731709957
 20
6.528334690756713
 10
6.856152234275011
 20
6.451714741442392
 10
6.843240585460339
 20
6.364099416231953
 10
6.799209525361543
 20
6.278827319329099
 10
6.730762303602443
 20
6.208880459246511
 10
6.648318101622525
 20
6.164906986101382
 10
6.564430332983143
 20
6.153602322007856
  0
ARC
  5
28D
330
2
100
AcDbEntity
  8
0
100
AcDbCircle
 10
7.356130735153342
 20
7.168129522830211
 30
0.0
 40
0.0786621903023775
100
AcDbArc
 50
333.6487475794987
 51
82.98636861719677
  0
LINE
  5
28E
330
2
100
AcDbEntity
  8
0
100
AcDbLine
 10
7.426619116343996
 20
7.133213505025903
 30
0.0
 11
6.903912887720146
 21
5.546195749404198
 31
0.0
  0
ARC
  5
28F
330
2
100
AcDbEntity
  8
0
100
AcDbCircle
 10
6.76280496628096
 20
5.593159834255745
 30
0.0
 40
0.1487180915684839
100
AcDbArc
 50
287.7679507352946
 51
341.5913261540979
  0
LINE
  5
290
330
2
100
AcDbEntity
  8
0
100
AcDbLine
 10
6.808188176048961
 20
5.451535560097957
 30
0.0
 11
6.022792281644125
 21
5.224811294565268
 31
0.0
  0
ARC
  5
291
330
2
100
AcDbEntity
  8
0
100
AcDbCircle
 10
5.966166752532739
 20
5.414803061285867
 30
0.0
 40
0.1982506543896978
100
AcDbArc
 50
266.2240578527004
 51
286.5962675312991
  0
LINE
  5
292
330
2
100
AcDbEntity
  8
0
100
AcDbLine
 10
5.953110969774584
 20
5.216982767820555
 30
0.0
 11
5.836998725157538
 21
5.225725611948062
 31
0.0
  0
LINE
  5
293
330
2
100
AcDbEntity
  8
0
100
AcDbLine
 10
7.365735819587388
 20
7.246203094126524
 30
0.0
 11
6.52336230351489
 21
7.309629716699523
 31
0.0
  0
LWPOLYLINE
  5
294
330
2
100
AcDbEntity
  8
0
100
AcDbPolyline
 90
        6
 70
   128
 43
0.0
 10
6.486325335773436
 20
7.299734164490326
 10
6.488039338984382
 20
7.3027544372875
 10
6.493072920172451
 20
7.306423897934481
 10
6.500853490183498
 20
7.308846416258148
 10
6.511080800825023
 20
7.30992893003663
 10
6.52336230351489
 20
7.309629716699523
  0
LWPOLYLINE
  5
295
330
2
100
AcDbEntity
  8
0
100
AcDbPolyline
 90
        9
 70
   128
 43
0.0
 10
5.836998725157538
 20
5.225725611948062
 10
5.824717222467672
 20
5.22602478969134
 10
5.814489911826147
 20
5.224942311494951
 10
5.806709341803362
 20
5.222519781314499
 10
5.801675760627031
 20
5.218850451115427
 10
5.799580904130241
 20
5.214074947992015
 10
5.800506775633838
 20
5.20837730498688
 10
5.804416851628317
 20
5.201975967160391
 10
5.811161387416056
 20
5.19511729466139
  0
LINE
  5
296
330
2
100
AcDbEntity
  8
0
100
AcDbLine
 10
9.092943719902208
 20
2.353010425035575
 30
0.0
 11
9.086778559677025
 21
2.358349610402725
 31
0.0
  0
LINE
  5
297
330
2
100
AcDbEntity
  8
0
100
AcDbLine
 10
5.969672408165685
 20
5.05784272389293
 30
0.0
 11
5.811161387416056
 21
5.19511729466139
 31
0.0
  0
LINE
  5
298
330
2
100
AcDbEntity
  8
0
100
AcDbLine
 10
5.289138291529244
 20
7.846764441175924
 30
0.0
 11
5.171511661858108
 21
7.948632090641316
 31
0.0
  0
LINE
  5
299
330
2
100
AcDbEntity
  8
0
100
AcDbLine
 10
5.624173264442205
 20
7.821538031817702
 30
0.0
 11
5.289138291529244
 21
7.846764441175924
 31
0.0
  0
LINE
  5
29A
330
2
100
AcDbEntity
  8
0
100
AcDbLine
 10
5.506546634771162
 20
7.923405681271356
 30
0.0
 11
5.624173264442205
 21
7.821538031817702
 31
0.0
  0
LINE
  5
29B
330
2
100
AcDbEntity
  8
0
100
AcDbLine
 10
5.171511661858108
 20
7.948632090641316
 30
0.0
 11
5.506546634771162
 21
7.923405681271356
 31
0.0
  0
LINE
  5
29C
330
2
100
AcDbEntity
  8
0
100
AcDbLine
 10
5.60265531657463
 20
1.051972612663249
 30
0.0
 11
5.834432011736325
 21
1.755681065296164
 31
0.0
  0
LINE
  5
29D
330
2
100
AcDbEntity
  8
0
100
AcDbLine
 10
4.113624232071305
 20
3.265456976314987
 30
0.0
 11
4.055230918639594
 21
3.316027069161919
 31
0.0
  0
LINE
  5
29E
330
2
100
AcDbEntity
  8
0
100
AcDbLine
 10
3.006400154083934
 20
7.532373064870618
 30
0.0
 11
1.9131541819633
 21
4.213112479498057
 31
0.0
  0
ARC
  5
29F
330
2
100
AcDbEntity
  8
0
100
AcDbCircle
 10
6.765533496289418
 20
7.922991016663349
 30
0.0
 40
0.0550632258541845
100
AcDbArc
 50
333.6488063391012
 51
82.98770571809695
  0
ARC
  5
2A0
330
2
100
AcDbEntity
  8
0
100
AcDbCircle
 10
6.770758393277574
 20
7.976018548080938
 30
0.0
 40
0.0022088112425625
100
AcDbArc
 50
47.32038030139879
 51
84.84797494359753
  0
ARC
  5
2A1
330
2
100
AcDbEntity
  8
0
100
AcDbCircle
 10
5.801917190479926
 20
7.608274805345597
 30
0.0
 40
0.6221546346344168
100
AcDbArc
 50
68.87912926580006
 51
84.5949662208975
  0
ARC
  5
2A2
330
2
100
AcDbEntity
  8
0
100
AcDbCircle
 10
6.683421053012285
 20
8.640087885028835
 30
0.0
 40
0.6540259775223943
100
AcDbArc
 50
248.8786432781042
 51
264.5952845953962
  0
ARC
  5
2A3
330
2
100
AcDbEntity
  8
0
100
AcDbCircle
 10
5.503882318764365
 20
1.08484486203072
 30
0.0
 40
0.1040994230256315
100
AcDbArc
 50
287.7674011092009
 51
341.5922464559994
  0
LINE
  5
2A4
330
2
100
AcDbEntity
  8
0
100
AcDbLine
 10
1.849524782704193
 20
4.177987541298271
 30
0.0
 11
5.535648625579153
 21
0.9857106518613951
 31
0.0
  0
ARC
  5
2A5
330
2
100
AcDbEntity
  8
0
100
AcDbCircle
 10
1.877879254493695
 20
4.22485138646672
 30
0.0
 40
0.0371769074131614
100
AcDbArc
 50
287.7671483982978
 51
341.5934186932954
  0
LINE
  5
2A6
330
2
100
AcDbEntity
  8
0
100
AcDbLine
 10
3.150670717546923
 20
2.538314726034089
 30
0.0
 11
2.94693503915267
 21
2.479501301646962
 31
0.0
  0
LWPOLYLINE
  5
2A7
330
2
100
AcDbEntity
  8
0
100
AcDbPolyline
 90
        9
 70
   128
 43
0.0
 10
2.94693503915267
 20
2.479501301646962
 10
2.877924090675282
 20
2.449240605129327
 10
2.837324896656717
 20
2.408077787421602
 10
2.831321074843085
 20
2.362280316810775
 10
2.860827494673785
 20
2.318820677857368
 10
2.921348587490712
 20
2.284314203810138
 10
3.003674044372395
 20
2.264015199603742
 10
3.095269733017246
 20
2.26101375745066
 10
3.182188271111325
 20
2.275766026453174
  0
LINE
  5
2A8
330
2
100
AcDbEntity
  8
0
100
AcDbLine
 10
3.182188271111325
 20
2.275766026453174
 30
0.0
 11
3.385923949505674
 21
2.334579450828515
 31
0.0
  0
LWPOLYLINE
  5
2A9
330
2
100
AcDbEntity
  8
0
100
AcDbPolyline
 90
        9
 70
   128
 43
0.0
 10
3.385923949505674
 20
2.334579450828515
 10
3.454936415930934
 20
2.36484058555234
 10
3.49553409200153
 20
2.406002965053829
 10
3.50153791380352
 20
2.451800435676487
 10
3.472033011932335
 20
2.495260512812514
 10
3.411510401155798
 20
2.529766548665339
 10
3.329184944285852
 20
2.550065552871735
 10
3.237590773588966
 20
2.553067433219175
 10
3.150670717546923
 20
2.538314726034089
  0
LINE
  5
2AA
330
2
100
AcDbEntity
  8
0
100
AcDbLine
 10
5.48150349118891
 20
0.970080297906871
 30
0.0
 11
5.535648625579153
 21
0.9857106518613951
 31
0.0
  0
ARC
  5
2AB
330
2
100
AcDbEntity
  8
0
100
AcDbCircle
 10
5.363533641701508
 20
1.400371621617685
 30
0.0
 40
0.4461698204167698
100
AcDbArc
 50
262.2008268918018
 51
285.3316431664972
  0
LINE
  5
2AC
330
2
100
AcDbEntity
  8
0
100
AcDbLine
 10
4.125449850142448
 20
1.116089457693721
 30
0.0
 11
5.302987828664324
 21
0.9583289617106895
 31
0.0
  0
ARC
  5
2AD
330
2
100
AcDbEntity
  8
0
100
AcDbCircle
 10
4.150441599506155
 20
1.394797490164616
 30
0.0
 40
0.2798262941586855
100
AcDbArc
 50
233.1444269821997
 51
264.8759916605935
  0
LINE
  5
2AE
330
2
100
AcDbEntity
  8
0
100
AcDbLine
 10
3.98260179618768
 20
1.170894485896206
 30
0.0
 11
1.433448157608854
 21
3.378526295049375
 31
0.0
  0
ARC
  5
2AF
330
2
100
AcDbEntity
  8
0
100
AcDbCircle
 10
1.478246677836146
 20
3.440385158634766
 30
0.0
 40
0.0763768709669456
100
AcDbArc
 50
182.2852148176459
 51
234.0877427972317
  0
LINE
  5
2B0
330
2
100
AcDbEntity
  8
0
100
AcDbLine
 10
1.889223763025331
 20
4.189447649789542
 30
0.0
 11
1.835078628623257
 21
4.173817295823232
 31
0.0
  0
ARC
  5
2B1
330
2
100
AcDbEntity
  8
0
100
AcDbCircle
 10
1.870161223822471
 20
4.000156656833318
 30
0.0
 40
0.1771688630131205
100
AcDbArc
 50
101.4210714680931
 51
144.7560980463017
  0
LWPOLYLINE
  5
2B2
330
2
100
AcDbEntity
  8
0
100
AcDbPolyline
 90
        6
 70
   128
 43
0.0
 10
5.26506891343055
 20
8.269402585776852
 10
5.247523724036916
 20
8.26982997079707
 10
5.232913233316882
 20
8.268283617418068
 10
5.22179949698502
 20
8.264823062807369
 10
5.214608217377655
 20
8.259581000050394
 10
5.212160229305187
 20
8.255266485317259
  0
LINE
  5
2B3
330
2
100
AcDbEntity
  8
0
100
AcDbLine
 10
1.725466886029145
 20
4.1023934145676
 30
0.0
 11
1.409947091231376
 21
3.513624264916872
 31
0.0
  0
ARC
  5
2B4
330
2
100
AcDbEntity
  8
0
100
AcDbCircle
 10
4.719368829678167
 20
8.025536429305111
 30
0.0
 40
0.2872461705964775
100
AcDbArc
 50
53.53729464470021
 51
85.22747148609594
  0
LWPOLYLINE
  5
2B5
330
2
100
AcDbEntity
  8
0
100
AcDbPolyline
 90
        3
 70
   128
 43
0.0
 10
3.84758472632701
 20
8.309837584609946
 10
3.84706071695119
 20
8.309092166771236
 10
3.846615440229509
 20
8.308099788664597
  0
ARC
  5
2B6
330
2
100
AcDbEntity
  8
0
100
AcDbCircle
 10
4.043128458801085
 20
7.904270743077985
 30
0.0
 40
0.4596750767328305
100
AcDbArc
 50
82.44019616819752
 51
109.3018013701013
  0
ARC
  5
2B7
330
2
100
AcDbEntity
  8
0
100
AcDbCircle
 10
3.522591152692292
 20
7.394374965414149
 30
0.0
 40
0.5343188397385397
100
AcDbArc
 50
125.0532852855033
 51
165.0326126333989
  0
ARC
  5
2B8
330
2
100
AcDbEntity
  8
0
100
AcDbCircle
 10
1.465712957635304
 20
3.482662483759421
 30
0.0
 40
0.0637845102580107
100
AcDbArc
 50
150.9605160887984
 51
179.534994665199
  0
LINE
  5
2B9
330
2
100
AcDbEntity
  8
0
100
AcDbLine
 10
3.846615440229509
 20
8.308099788664597
 30
0.0
 11
3.726925578869767
 21
8.166311108087544
 31
0.0
  0
ARC
  5
2BA
330
2
100
AcDbEntity
  8
0
100
AcDbCircle
 10
3.690249951382888
 20
8.220201887060133
 30
0.0
 40
0.0651867909192477
100
AcDbArc
 50
257.7914719907968
 51
304.2374325905981
  0
ARC
  5
2BB
330
2
100
AcDbEntity
  8
0
100
AcDbCircle
 10
3.458020157282827
 20
8.097113140333725
 30
0.0
 40
0.1068661605682633
100
AcDbArc
 50
305.0536892742026
 51
345.0319929205971
  0
LINE
  5
2BC
330
2
100
AcDbEntity
  8
0
100
AcDbLine
 10
3.676464882816873
 20
8.156489332605827
 30
0.0
 11
3.654222419841492
 21
8.158164072207142
 31
0.0
  0
ARC
  5
2BD
330
2
100
AcDbEntity
  8
0
100
AcDbCircle
 10
3.655821613505221
 20
8.067805022206288
 30
0.0
 40
0.09037320032766
100
AcDbArc
 50
91.01392702580204
 51
163.0906939452
  0
LINE
  5
2BE
330
2
100
AcDbEntity
  8
0
100
AcDbLine
 10
3.569355576018164
 20
8.094090754056946
 30
0.0
 11
3.561260369915768
 21
8.069511785852219
 31
0.0
  0
ARC
  5
2BF
330
2
100
AcDbEntity
  8
0
100
AcDbCircle
 10
10.13386347734577
 20
2.666682572184823
 30
0.0
 40
0.1341867388056523
100
AcDbArc
 50
286.6490829758923
 51
308.1274944216974
  0
LINE
  5
2C0
330
2
100
AcDbEntity
  8
0
100
AcDbLine
 10
9.386913320626248
 20
2.311397013401152
 30
0.0
 11
10.17230921503108
 21
2.538121278922102
 31
0.0
  0
ARC
  5
2C1
330
2
100
AcDbEntity
  8
0
100
AcDbCircle
 10
9.330287791514862
 20
2.501388780110058
 30
0.0
 40
0.198250654390036
100
AcDbArc
 50
266.2240578527004
 51
286.5962675312991
  0
LINE
  5
2C2
330
2
100
AcDbEntity
  8
0
100
AcDbLine
 10
9.201119764139662
 20
2.312311330772208
 30
0.0
 11
9.317232008756707
 21
2.303568486656438
 31
0.0
  0
ARC
  5
2C3
330
2
100
AcDbEntity
  8
0
100
AcDbCircle
 10
9.218727716093106
 20
2.523224992544109
 30
0.0
 40
0.2116473781888428
100
AcDbArc
 50
233.5365937101961
 51
265.2277757242018
  0
ARC
  5
2C4
330
2
100
AcDbEntity
  8
0
100
AcDbCircle
 10
8.231162608811931
 20
8.87166160124153
 30
0.0
 40
0.0288949838476367
100
AcDbArc
 50
99.61260672580433
 51
162.1737659591987
  0
LINE
  5
2C5
330
2
100
AcDbEntity
  8
0
100
AcDbLine
 10
8.433611570562135
 20
8.92343795676593
 30
0.0
 11
8.226337559995734
 21
8.900150879846997
 31
0.0
  0
LINE
  5
2C6
330
2
100
AcDbEntity
  8
0
100
AcDbLine
 10
9.888618991085483
 20
8.813882362316761
 30
0.0
 11
8.433611570562135
 21
8.92343795676593
 31
0.0
  0
ARC
  5
2C7
330
2
100
AcDbEntity
  8
0
100
AcDbCircle
 10
9.886700040526523
 20
8.798268651962937
 30
0.0
 40
0.0157311894653509
100
AcDbArc
 50
333.6434646951031
 51
82.99339176569528
  0
LINE
  5
2C8
330
2
100
AcDbEntity
  8
0
100
AcDbLine
 10
9.810211007571105
 20
8.516251893498997
 30
0.0
 11
9.900795954031071
 21
8.791284702901084
 31
0.0
  0
LINE
  5
2C9
330
2
100
AcDbEntity
  8
0
100
AcDbLine
 10
8.527505639334542
 20
8.612833245920729
 30
0.0
 11
9.810211007571105
 21
8.516251893498997
 31
0.0
  0
LINE
  5
2CA
330
2
100
AcDbEntity
  8
0
100
AcDbLine
 10
6.977441403372782
 20
8.046592193837266
 30
0.0
 11
6.848529837954934
 21
7.655198942788695
 31
0.0
  0
ARC
  5
2CB
330
2
100
AcDbEntity
  8
0
100
AcDbCircle
 10
7.004045979524317
 20
8.038504946751269
 30
0.0
 40
0.02780660061173
100
AcDbArc
 50
91.01248601779753
 51
163.0918007758038
  0
LINE
  5
2CC
330
2
100
AcDbEntity
  8
0
100
AcDbLine
 10
7.003554628694651
 20
8.066307205871856
 30
0.0
 11
7.132781926895457
 21
8.056576838311389
 31
0.0
  0
LINE
  5
2CD
330
2
100
AcDbEntity
  8
0
100
AcDbLine
 10
7.132781926895457
 20
8.056576838311389
 30
0.0
 11
8.019198646614512
 21
8.32046990019757
 31
0.0
  0
LINE
  5
2CE
330
2
100
AcDbEntity
  8
0
100
AcDbLine
 10
8.203654892675761
 20
8.880507258037081
 30
0.0
 11
8.019198646614512
 21
8.32046990019757
 31
0.0
  0
LINE
  5
2CF
330
2
100
AcDbEntity
  8
0
100
AcDbLine
 10
8.220490928373482
 20
7.4511892376082
 30
0.0
 11
8.537046426487297
 21
8.412301067553391
 31
0.0
  0
LINE
  5
2D0
330
2
100
AcDbEntity
  8
0
100
AcDbLine
 10
9.819751794723856
 20
8.315719715131614
 30
0.0
 11
9.740112756982956
 21
8.073924817705968
 31
0.0
  0
LINE
  5
2D1
330
2
100
AcDbEntity
  8
0
100
AcDbLine
 10
9.500802495741083
 20
8.091943725429842
 30
0.0
 11
9.263884517420304
 21
7.372626449581805
 31
0.0
  0
LINE
  5
2D2
330
2
100
AcDbEntity
  8
0
100
AcDbLine
 10
9.263884517420304
 20
7.372626449581805
 30
0.0
 11
8.220490928373482
 21
7.4511892376082
 31
0.0
  0
ARC
  5
2D3
330
2
100
AcDbEntity
  8
0
100
AcDbCircle
 10
9.931462962079478
 20
7.78883104920234
 30
0.0
 40
0.0639606382095144
100
AcDbArc
 50
226.969013919705
 51
295.3354855813935
  0
LINE
  5
2D4
330
2
100
AcDbEntity
  8
0
100
AcDbLine
 10
9.776071420614087
 20
7.838850978784757
 30
0.0
 11
9.887816620206489
 21
7.742076797190726
 31
0.0
  0
ARC
  5
2D5
330
2
100
AcDbEntity
  8
0
100
AcDbCircle
 10
9.959635143115697
 20
7.987217440714962
 30
0.0
 40
0.2360259461195584
100
AcDbArc
 50
158.4468754029974
 51
218.9470807937983
  0
ARC
  5
2D6
330
2
100
AcDbEntity
  8
0
100
AcDbCircle
 10
9.734103426715098
 20
8.345142513158178
 30
0.0
 40
0.0905612719921316
100
AcDbArc
 50
341.0408574851015
 51
24.40699054409735
  0
ARC
  5
2D7
330
2
100
AcDbEntity
  8
0
100
AcDbCircle
 10
9.981483104366116
 20
8.457405231395897
 30
0.0
 40
0.1810995880213074
100
AcDbArc
 50
161.0380058708977
 51
204.4098498788006
  0
LINE
  5
2D8
330
2
100
AcDbEntity
  8
0
100
AcDbLine
 10
9.263884517420304
 20
7.372626449581805
 30
0.0
 11
9.345133108612223
 21
7.302263105583861
 31
0.0
  0
LINE
  5
2D9
330
2
100
AcDbEntity
  8
0
100
AcDbLine
 10
6.971171795493201
 20
7.481010902000974
 30
0.0
 11
6.860516601659302
 21
7.576841110920558
 31
0.0
  0
LINE
  5
2DA
330
2
100
AcDbEntity
  8
0
100
AcDbLine
 10
6.860516601659302
 20
7.576841110920558
 30
0.0
 11
8.191084325731409
 21
7.476656102541673
 31
0.0
  0
LINE
  5
2DB
330
2
100
AcDbEntity
  8
0
100
AcDbLine
 10
8.191084325731409
 20
7.476656102541673
 30
0.0
 11
8.220490928373482
 21
7.4511892376082
 31
0.0
  0
ARC
  5
2DC
330
2
100
AcDbEntity
  8
0
100
AcDbCircle
 10
9.305093250816572
 20
7.263131341029403
 30
0.0
 40
0.0559864734559975
100
AcDbArc
 50
6.368136345499464
 51
44.34285004420474
  0
ARC
  5
2DD
330
2
100
AcDbEntity
  8
0
100
AcDbCircle
 10
9.720318947823063
 20
8.005235560458164
 30
0.0
 40
0.2360207164804174
100
AcDbArc
 50
158.446168294299
 51
218.947801727599
  0
LINE
  5
2DE
330
2
100
AcDbEntity
  8
0
100
AcDbLine
 10
9.648506358976359
 20
7.760095894646287
 30
0.0
 11
9.536761159372311
 21
7.856870076240317
 31
0.0
  0
ARC
  5
2DF
330
2
100
AcDbEntity
  8
0
100
AcDbCircle
 10
9.693474182908726
 20
7.808980469142174
 30
0.0
 40
0.0664214333808492
100
AcDbArc
 50
227.3897431828998
 51
264.8561861738975
  0
ARC
  5
2E0
330
2
100
AcDbEntity
  8
0
100
AcDbCircle
 10
8.698777736129553
 20
8.553986583829368
 30
0.0
 40
0.1810995880213477
100
AcDbArc
 50
161.0380058708977
 51
204.4098498788006
  0
ARC
  5
2E1
330
2
100
AcDbEntity
  8
0
100
AcDbCircle
 10
6.931214876502785
 20
7.441933655098448
 30
0.0
 40
0.0558890561838519
100
AcDbArc
 50
6.491114374099543
 51
44.36230848150007
  0
ARC
  5
2E2
330
2
100
AcDbEntity
  8
0
100
AcDbCircle
 10
8.451405480952807
 20
8.441724218718535
 30
0.0
 40
0.0905543669662383
100
AcDbArc
 50
341.0391203479009
 51
24.40872768130068
  0
ELLIPSE
  5
2E3
330
2
100
AcDbEntity
  8
0
100
AcDbEllipse
 10
10.00015200637617
 20
9.521347556364773
 30
0.0
 11
0.2840399231638343
 21
1.013099095697159
 31
0.0
210
0.0
220
0.0
230
1.0
 40
0.033449368
 41
2.272263534317461
 42
2.34174625460599
  0
SPLINE
  5
2E4
330
2
100
AcDbEntity
  8
0
100
AcDbSpline
210
0.0
220
0.0
230
1.0
 70
     8
 71
     3
 72
    11
 73
     7
 74
     0
 42
0.000000001
 43
0.0000000001
 40
0.0
 40
0.0
 40
0.0
 40
0.0
 40
0.2517137385180087
 40
0.5017633876615959
 40
0.7884835531649208
 40
1.0
 40
1.0
 40
1.0
 40
1.0
 10
9.767721199579703
 20
8.930402161268256
 30
0.0
 10
9.771593929821698
 20
8.927602768516953
 30
0.0
 10
9.779313787534686
 20
8.922022489909272
 30
0.0
 10
9.788221655675783
 20
8.907069597145573
 30
0.0
 10
9.79317390148352
 20
8.89061859754388
 30
0.0
 10
9.791622372052252
 20
8.87952318543572
 30
0.0
 10
9.790963701082809
 20
8.874812848846344
 30
0.0
  0
ARC
  5
2E5
330
2
100
AcDbEntity
  8
0
100
AcDbCircle
 10
6.921698360695355
 20
7.626296122062402
 30
0.0
 40
0.0786702343069679
100
AcDbArc
 50
158.4451304928023
 51
218.9496259357013
  0
LINE
  5
2E6
330
2
100
AcDbEntity
  8
0
100
AcDbLine
 10
9.499245123583488
 20
9.008790572835865
 30
0.0
 11
8.97355764898975
 21
9.048372299038776
 31
0.0
  0
LINE
  5
2E7
330
2
100
AcDbEntity
  8
0
100
AcDbLine
 10
9.499245123583488
 20
9.008790572835865
 30
0.0
 11
9.760477561185897
 21
8.933379524728563
 31
0.0
  0
ARC
  5
2E8
330
2
100
AcDbEntity
  8
0
100
AcDbCircle
 10
9.750698824586887
 20
8.899288582091658
 30
0.0
 40
0.0354657025805734
100
AcDbArc
 50
61.31673829750072
 51
73.99485028310414
  0
ELLIPSE
  5
2E9
330
2
100
AcDbEntity
  8
0
100
AcDbEllipse
 10
8.252140023117597
 20
8.90373453098773
 30
0.0
 11
0.0545841768022461
 21
-0.0222435974023176
 31
0.0
210
0.0
220
0.0
230
0.9999999999999998
 40
0.2713924154
 41
1.896947681047104
 42
2.246013531439856
  0
LINE
  5
2EA
330
2
100
AcDbEntity
  8
0
100
AcDbLine
 10
8.295967525273891
 20
8.90797366608383
 30
0.0
 11
8.240370242327884
 21
8.92489440639753
 31
0.0
  0
LINE
  5
2EB
330
2
100
AcDbEntity
  8
0
100
AcDbLine
 10
7.824250174318066
 20
8.978491336112186
 30
0.0
 11
8.054088241224022
 21
8.779445731421976
 31
0.0
  0
ELLIPSE
  5
2EC
330
2
100
AcDbEntity
  8
0
100
AcDbEllipse
 10
7.870630784578338
 20
8.970388446357361
 30
0.0
 11
0.0545841768014506
 21
-0.0222435974019899
 31
0.0
210
0.0
220
0.0
230
1.0
 40
0.2713924154
 41
2.246013531444893
 42
3.816809858235645
  0
LINE
  5
2ED
330
2
100
AcDbEntity
  8
0
100
AcDbLine
 10
7.841224302656584
 20
8.995855452630896
 30
0.0
 11
8.222732710798961
 21
8.9292013788653
 31
0.0
  0
LINE
  5
2EE
330
2
100
AcDbEntity
  8
0
100
AcDbLine
 10
7.059203215380701
 20
8.086091106095514
 30
0.0
 11
7.051498121413462
 21
8.062697182421604
 31
0.0
  0
LINE
  5
2EF
330
2
100
AcDbEntity
  8
0
100
AcDbLine
 10
7.056754768458592
 20
8.086275524400605
 30
0.0
 11
7.059203215380701
 21
8.086091106095514
 31
0.0
  0
LWPOLYLINE
  5
2F0
330
2
100
AcDbEntity
  8
0
100
AcDbPolyline
 90
        9
 70
   128
 43
0.0
 10
7.051162655343286
 20
8.098858189994547
 10
7.050393056708177
 20
8.096626455234135
 10
7.050063662417848
 20
8.094405104409702
 10
7.05018813399122
 20
8.092292952895965
 10
7.050760399648634
 20
8.090384068269491
 10
7.051756172235791
 20
8.088763844402823
 10
7.053129913374935
 20
8.087504709693165
 10
7.054820905233267
 20
8.086662567057526
 10
7.056754768458592
 20
8.086275524400605
  0
LINE
  5
2F1
330
2
100
AcDbEntity
  8
0
100
AcDbLine
 10
7.313225409413615
 20
8.688837685624649
 30
0.0
 11
7.051162655343286
 21
8.098858189994547
 31
0.0
  0
ARC
  5
2F2
330
2
100
AcDbEntity
  8
0
100
AcDbCircle
 10
7.351429946994269
 20
8.673329971691334
 30
0.0
 40
0.0412319764628874
100
AcDbArc
 50
90.72684154310181
 51
157.9071328554996
  0
LINE
  5
2F3
330
2
100
AcDbEntity
  8
0
100
AcDbLine
 10
7.526703265350551
 20
8.701322209056309
 30
0.0
 11
7.350906901321586
 21
8.714558630494229
 31
0.0
  0
LINE
  5
2F4
330
2
100
AcDbEntity
  8
0
100
AcDbLine
 10
8.176334068061649
 20
8.797554948916802
 30
0.0
 11
7.526703265350551
 21
8.701322209056309
 31
0.0
  0
ARC
  5
2F5
330
2
100
AcDbEntity
  8
0
100
AcDbCircle
 10
8.853178779126228
 20
9.569806747221916
 30
0.0
 40
0.5351494707684504
100
AcDbArc
 50
248.3883789471947
 51
282.9996079636007
  0
SPLINE
  5
2F6
330
2
100
AcDbEntity
  8
0
100
AcDbSpline
210
0.0
220
0.0
230
1.0
 70
     8
 71
     3
 72
     9
 73
     5
 74
     0
 42
0.000000001
 43
0.0000000001
 40
0.0
 40
0.0
 40
0.0
 40
0.0
 40
0.3637854744933605
 40
1.0
 40
1.0
 40
1.0
 40
1.0
 10
8.693155587639346
 20
6.444510726015652
 30
0.0
 10
8.69132985400363
 20
6.45436374092182
 30
0.0
 10
8.68631114445159
 20
6.481448425707162
 30
0.0
 10
8.680219202089894
 20
6.507746181343696
 30
0.0
 10
8.676343419870946
 20
6.52447719546784
 30
0.0
  0
SPLINE
  5
2F7
330
2
100
AcDbEntity
  8
0
100
AcDbSpline
210
0.0
220
0.0
230
1.0
 70
     8
 71
     3
 72
     9
 73
     5
 74
     0
 42
0.000000001
 43
0.0000000001
 40
0.0
 40
0.0
 40
0.0
 40
0.0
 40
0.4931078804754943
 40
1.0
 40
1.0
 40
1.0
 40
1.0
 10
9.018618392973131
 20
6.420005040607527
 30
0.0
 10
9.009311198637206
 20
6.40376215247142
 30
0.0
 10
8.990436638516822
 20
6.370822325753463
 30
0.0
 10
8.979963129749101
 20
6.333929321736889
 30
0.0
 10
8.97465419069103
 20
6.315228548735255
 30
0.0
  0
SPLINE
  5
2F8
330
2
100
AcDbEntity
  8
0
100
AcDbSpline
210
0.0
220
0.0
230
1.0
 70
     8
 71
     3
 72
     9
 73
     5
 74
     0
 42
0.000000001
 43
0.0000000001
 40
0.0
 40
0.0
 40
0.0
 40
0.0
 40
0.3964137364449641
 40
1.0
 40
1.0
 40
1.0
 40
1.0
 10
8.97465419069103
 20
6.315228548735255
 30
0.0
 10
8.967211851559696
 20
6.306538291683883
 30
0.0
 10
8.948437680921621
 20
6.284616102182326
 30
0.0
 10
8.927934125796721
 20
6.265780959796154
 30
0.0
 10
8.91555846156924
 20
6.254412326579767
 30
0.0
  0
LINE
  5
2F9
330
2
100
AcDbEntity
  8
0
100
AcDbLine
 10
8.691623475533834
 20
6.271273311579117
 30
0.0
 11
8.70299042805777
 21
6.335683745653858
 31
0.0
  0
SPLINE
  5
2FA
330
2
100
AcDbEntity
  8
0
100
AcDbSpline
210
0.0
220
0.0
230
1.0
 70
     8
 71
     3
 72
     9
 73
     5
 74
     0
 42
0.000000001
 43
0.0000000001
 40
0.0
 40
0.0
 40
0.0
 40
0.0
 40
0.3822979274184181
 40
1.0
 40
1.0
 40
1.0
 40
1.0
 10
8.702990428063451
 20
6.335683745658471
 30
0.0
 10
8.703681457383812
 20
6.35003099960117
 30
0.0
 10
8.705489024913699
 20
6.387559986586724
 30
0.0
 10
8.697864977517436
 20
6.42276470097399
 30
0.0
 10
8.693155587639346
 20
6.444510726015652
 30
0.0
  0
LINE
  5
2FB
330
2
100
AcDbEntity
  8
0
100
AcDbLine
 10
8.676343419870946
 20
6.524477195468586
 30
0.0
 11
8.68012190121264
 21
6.56060138415985
 31
0.0
  0
ARC
  5
2FC
330
2
100
AcDbEntity
  8
0
100
AcDbCircle
 10
8.814099585609177
 20
6.166465695755888
 30
0.0
 40
0.4162847112157209
100
AcDbArc
 50
62.6137987147038
 51
108.7743259455003
  0
LINE
  5
2FD
330
2
100
AcDbEntity
  8
0
100
AcDbLine
 10
8.915038899928713
 20
6.159397040819492
 30
0.0
 11
8.912353653431097
 21
6.15746150206189
 31
0.0
  0
LWPOLYLINE
  5
2FE
330
2
100
AcDbEntity
  8
0
100
AcDbPolyline
 90
        9
 70
   128
 43
0.0
 10
8.733100926321537
 20
6.170958819274632
 10
8.733700807084233
 20
6.182400904925575
 10
8.743576596434898
 20
6.190603160300646
 10
8.761922595637674
 20
6.194897729207063
 10
8.787249182957225
 20
6.194935931483577
 10
8.817493081348036
 20
6.190713959568544
 10
8.850195606667742
 20
6.182575412141858
 10
8.882697834195742
 20
6.171182597278523
 10
8.912353653431097
 20
6.15746150206189
  0
LINE
  5
2FF
330
2
100
AcDbEntity
  8
0
100
AcDbLine
 10
8.733100926321537
 20
6.170958819274632
 30
0.0
 11
8.731789420963163
 21
6.173195072049638
 31
0.0
  0
LINE
  5
300
330
2
100
AcDbEntity
  8
0
100
AcDbLine
 10
8.731789420963163
 20
6.173195072049638
 30
0.0
 11
8.691623475533834
 21
6.271273311579117
 31
0.0
  0
LINE
  5
301
330
2
100
AcDbEntity
  8
0
100
AcDbLine
 10
8.915558461571848
 20
6.254412326583308
 30
0.0
 11
8.915038899928713
 21
6.159397040819492
 31
0.0
  0
LINE
  5
302
330
2
100
AcDbEntity
  8
0
100
AcDbLine
 10
8.656076203809007
 20
9.07227732008606
 30
0.0
 11
8.422347430070907
 21
9.089875883459843
 31
0.0
  0
LINE
  5
303
330
2
100
AcDbEntity
  8
0
100
AcDbLine
 10
8.913665158789473
 20
6.157362896768333
 30
0.0
 11
8.963656438058453
 21
6.114069178959159
 31
0.0
  0
LINE
  5
304
330
2
100
AcDbEntity
  8
0
100
AcDbLine
 10
8.913665158789473
 20
6.157362896768333
 30
0.0
 11
8.915038899928713
 21
6.159397040819492
 31
0.0
  0
LINE
  5
305
330
2
100
AcDbEntity
  8
0
100
AcDbLine
 10
9.034902453481667
 20
6.521931519637226
 30
0.0
 11
9.005584706545775
 21
6.536095793622532
 31
0.0
  0
LINE
  5
306
330
2
100
AcDbEntity
  8
0
100
AcDbLine
 10
9.034902453481667
 20
6.521931519637226
 30
0.0
 11
9.018618392968754
 21
6.420005040610602
 31
0.0
  0
LWPOLYLINE
  5
307
330
2
100
AcDbEntity
  8
0
100
AcDbPolyline
 90
        9
 70
   128
 43
0.0
 10
8.962344932700077
 20
6.114167784252714
 10
8.961745051937477
 20
6.102725698601725
 10
8.951869262586811
 20
6.094523443226654
 10
8.933523263383943
 20
6.090228874320237
 10
8.90819819401226
 20
6.090191015360522
 10
8.877952777673581
 20
6.094412643958802
 10
8.845250252353871
 20
6.102551191385442
 10
8.812748024825875
 20
6.113944006248823
 10
8.783092205590516
 20
6.127665101465456
  0
LINE
  5
308
330
2
100
AcDbEntity
  8
0
100
AcDbLine
 10
8.78178070023214
 20
6.127763706759013
 30
0.0
 11
8.783092205590516
 21
6.127665101465456
 31
0.0
  0
LINE
  5
309
330
2
100
AcDbEntity
  8
0
100
AcDbLine
 10
8.731789420963163
 20
6.171057424568187
 30
0.0
 11
8.78178070023214
 21
6.127763706759013
 31
0.0
  0
LINE
  5
30A
330
2
100
AcDbEntity
  8
0
100
AcDbLine
 10
8.731789420963163
 20
6.171057424568187
 30
0.0
 11
8.733100926321537
 21
6.170958819274632
 31
0.0
  0
LINE
  5
30B
330
2
100
AcDbEntity
  8
0
100
AcDbLine
 10
8.912353653431097
 20
6.15746150206189
 30
0.0
 11
8.913665158789473
 21
6.157362896768333
 31
0.0
  0
LINE
  5
30C
330
2
100
AcDbEntity
  8
0
100
AcDbLine
 10
8.962344932700077
 20
6.114167784252714
 30
0.0
 11
8.963656438058453
 21
6.114069178959159
 31
0.0
  0
LINE
  5
30D
330
2
100
AcDbEntity
  8
0
100
AcDbLine
 10
8.422347430070907
 20
9.089875883459843
 30
0.0
 11
8.303325535402297
 21
9.116037223676148
 31
0.0
  0
LWPOLYLINE
  5
30E
330
2
100
AcDbEntity
  8
0
100
AcDbPolyline
 90
        3
 70
   128
 43
0.0
 10
9.045881631711218
 20
6.141549150542083
 10
9.034721482553802
 20
6.132474799126766
 10
9.032523431137772
 20
6.131404372835218
  0
LINE
  5
30F
330
2
100
AcDbEntity
  8
0
100
AcDbLine
 10
9.204727503634103
 20
6.324236622843223
 30
0.0
 11
9.188466288137849
 21
6.312417207293863
 31
0.0
  0
ARC
  5
310
330
2
100
AcDbEntity
  8
0
100
AcDbCircle
 10
8.274486509632904
 20
8.987887883481082
 30
0.0
 40
0.1313542644925864
100
AcDbArc
 50
77.31730820779643
 51
85.32930291050435
  0
LINE
  5
311
330
2
100
AcDbEntity
  8
0
100
AcDbLine
 10
8.285182527852267
 20
9.118805941804025
 30
0.0
 11
7.891483495245097
 21
9.148449683480158
 31
0.0
  0
LINE
  5
312
330
2
100
AcDbEntity
  8
0
100
AcDbLine
 10
8.731789420963163
 20
6.173195072049638
 30
0.0
 11
8.731789420963163
 21
6.171057424568187
 31
0.0
  0
SPLINE
  5
313
330
2
100
AcDbEntity
  8
0
100
AcDbSpline
210
0.0
220
0.0
230
1.0
 70
     8
 71
     3
 72
     9
 73
     5
 74
     0
 42
0.000000001
 43
0.0000000001
 40
0.0
 40
0.0
 40
0.0
 40
0.0
 40
0.690265050481048
 40
1.0
 40
1.0
 40
1.0
 40
1.0
 10
9.221140740192709
 20
6.349418792551063
 30
0.0
 10
9.215760575332165
 20
6.356785841736193
 30
0.0
 10
9.207966229005496
 20
6.367458624864914
 30
0.0
 10
9.200033158005268
 20
6.377837414460893
 30
0.0
 10
9.197576008659485
 20
6.381052088332511
 30
0.0
  0
LINE
  5
314
330
2
100
AcDbEntity
  8
0
100
AcDbLine
 10
9.204727503634103
 20
6.324236622843223
 30
0.0
 11
9.221140740196712
 21
6.349418792550968
 31
0.0
  0
LWPOLYLINE
  5
315
330
2
100
AcDbEntity
  8
0
100
AcDbPolyline
 90
        6
 70
   128
 43
0.0
 10
7.891483495245097
 20
9.148449683480158
 10
7.882710141574342
 20
9.148662872277858
 10
7.875404950993019
 20
9.147889837887158
 10
7.869848082821217
 20
9.146159465710049
 10
7.86625238824476
 20
9.14353838690452
 10
7.865029153188331
 20
9.141381443506913
  0
ARC
  5
316
330
2
100
AcDbEntity
  8
0
100
AcDbCircle
 10
9.251362085214115
 20
5.620838340654412
 30
0.0
 40
0.034640969202782
100
AcDbArc
 50
206.3093621142017
 51
267.201958473101
  0
ARC
  5
317
330
2
100
AcDbEntity
  8
0
100
AcDbCircle
 10
9.558158846440452
 20
5.760160976980271
 30
0.0
 40
0.3715735848281863
100
AcDbArc
 50
168.1565985803998
 51
204.5995217088995
  0
LINE
  5
318
330
2
100
AcDbEntity
  8
0
100
AcDbLine
 10
9.279173863291653
 20
6.09352190685327
 30
0.0
 11
9.194495244782171
 21
5.836421804230937
 31
0.0
  0
LINE
  5
319
330
2
100
AcDbEntity
  8
0
100
AcDbLine
 10
9.759268311357082
 20
5.793897116238104
 30
0.0
 11
9.843946929866564
 21
6.050997218860391
 31
0.0
  0
ARC
  5
31A
330
2
100
AcDbEntity
  8
0
100
AcDbCircle
 10
9.20170201340273
 20
6.063275604492147
 30
0.0
 40
0.6192293166112003
100
AcDbArc
 50
308.3912028773998
 51
334.2132946608982
  0
ARC
  5
31B
330
2
100
AcDbEntity
  8
0
100
AcDbCircle
 10
9.547907734383642
 20
5.623325874099238
 30
0.0
 40
0.0594277700362878
100
AcDbArc
 50
268.1090752518036
 51
310.1931445754983
  0
LINE
  5
31C
330
2
100
AcDbEntity
  8
0
100
AcDbLine
 10
9.2496710645255
 20
5.586238670185085
 30
0.0
 11
9.545946803863706
 21
5.563930465156056
 31
0.0
  0
ARC
  5
31D
330
2
100
AcDbEntity
  8
0
100
AcDbCircle
 10
9.327073555413097
 20
5.967271685382435
 30
0.0
 40
0.3680609785965058
100
AcDbArc
 50
305.8579809468014
 51
16.63386199700214
  0
ARC
  5
31E
330
2
100
AcDbEntity
  8
0
100
AcDbCircle
 10
9.672478551487625
 20
5.796377294232211
 30
0.0
 40
0.3691538645597289
100
AcDbArc
 50
126.1985519929035
 51
197.4443547745024
  0
ARC
  5
31F
330
2
100
AcDbEntity
  8
0
100
AcDbCircle
 10
9.332922986713466
 20
5.691420501506895
 30
0.0
 40
0.0138511529059671
100
AcDbArc
 50
204.3362626065012
 51
267.2102901677973
  0
LINE
  5
320
330
2
100
AcDbEntity
  8
0
100
AcDbLine
 10
9.366944537848851
 20
5.674973090261756
 30
0.0
 11
9.332248845754378
 21
5.67758576368144
 31
0.0
  0
LINE
  5
321
330
2
100
AcDbEntity
  8
0
100
AcDbLine
 10
9.526082962296548
 20
5.662990991757592
 30
0.0
 11
9.366944537848851
 21
5.674973090261756
 31
0.0
  0
ARC
  5
322
330
2
100
AcDbEntity
  8
0
100
AcDbCircle
 10
9.526822978032704
 20
5.686954141406204
 30
0.0
 40
0.0239745732886241
100
AcDbArc
 50
268.2311879514998
 51
311.3935721910029
  0
ARC
  5
323
330
2
100
AcDbEntity
  8
0
100
AcDbCircle
 10
9.231108657119946
 20
6.037808703976677
 30
0.0
 40
0.619229316611251
100
AcDbArc
 50
308.3912028773998
 51
334.2132946608982
  0
ARC
  5
324
330
2
100
AcDbEntity
  8
0
100
AcDbCircle
 10
9.5773143781126
 20
5.597858973583768
 30
0.0
 40
0.0594277700362878
100
AcDbArc
 50
268.1090752518036
 51
310.1931445754983
  0
LINE
  5
325
330
2
100
AcDbEntity
  8
0
100
AcDbLine
 10
9.788674955074299
 20
5.768430215734374
 30
0.0
 11
9.873353573595615
 21
6.025530318356707
 31
0.0
  0
LINE
  5
326
330
2
100
AcDbEntity
  8
0
100
AcDbLine
 10
9.279077708254458
 20
5.560771769681355
 30
0.0
 11
9.575353447580923
 21
5.538463564652326
 31
0.0
  0
ARC
  5
327
330
2
100
AcDbEntity
  8
0
100
AcDbCircle
 10
9.28124909409432
 20
5.596768062547484
 30
0.0
 40
0.0360617250843899
100
AcDbArc
 50
229.849277062706
 51
266.5479592276035
  0
ARC
  5
328
330
2
100
AcDbEntity
  8
0
100
AcDbCircle
 10
9.709455833416743
 20
5.767339373450784
 30
0.0
 40
0.3774574546695253
100
AcDbArc
 50
124.0986910639975
 51
193.8826501116992
  0
LINE
  5
329
330
2
100
AcDbEntity
  8
0
100
AcDbLine
 10
9.513513844835067
 20
6.085146568308458
 30
0.0
 11
9.679731969492717
 21
6.072630730885222
 31
0.0
  0
ARC
  5
32A
330
2
100
AcDbEntity
  8
0
100
AcDbCircle
 10
9.512688143741218
 20
6.061587371836496
 30
0.0
 40
0.0235736615847885
100
AcDbArc
 50
87.99272310400047
 51
129.0223704634997
  0
LINE
  5
32B
330
2
100
AcDbEntity
  8
0
100
AcDbLine
 10
14.10248020467102
 20
9.104731176411291
 30
0.0
 11
14.09910201581234
 21
9.10865733010484
 31
0.0
  0
LINE
  5
32C
330
2
100
AcDbEntity
  8
0
100
AcDbLine
 10
28.26208120242028
 20
13.19225590024068
 30
0.0
 11
28.25870301356169
 21
13.19618205393422
 31
0.0
  0
LWPOLYLINE
  5
32D
330
2
100
AcDbEntity
  8
0
100
AcDbPolyline
 90
       12
 70
   128
 43
0.0
 10
28.35943966799436
 20
13.09556685803405
 10
28.36509989893854
 20
13.09086197826858
 10
28.43787269762529
 20
13.05522837397556
 10
28.52509368596436
 20
13.0504638065393
 10
28.61731156285857
 20
13.07708481456373
 10
28.70453274095296
 20
13.13220649787122
 10
28.77730534988449
 20
13.2098554423031
 10
28.82774366011126
 20
13.30161732422127
 10
28.8503819275146
 20
13.39754834948535
 10
28.84276639234296
 20
13.48725264719188
 10
28.80572319674309
 20
13.56100974483683
 10
28.78296539109694
 20
13.58461234519869
  0
LWPOLYLINE
  5
32E
330
2
100
AcDbEntity
  8
0
100
AcDbPolyline
 90
       12
 70
   128
 43
0.0
 10
14.19983904973195
 20
9.00804224375031
 10
14.20549871144572
 20
9.003337199660505
 10
14.27827207936288
 20
8.967703759691865
 10
14.36549249848338
 20
8.962939027931225
 10
14.45771075485279
 20
8.989560145501299
 10
14.54493193294717
 20
9.044681828820568
 10
14.61770454187862
 20
9.12233077324071
 10
14.66814285210548
 20
9.214092655158841
 10
14.69078074002187
 20
9.310023570877232
 10
14.68316596382412
 20
9.399728087686916
 10
14.64612200925027
 20
9.473484966240494
 10
14.6233649625781
 20
9.497087785681902
  0
LWPOLYLINE
  5
32F
330
2
100
AcDbEntity
  8
0
100
AcDbPolyline
 90
       19
 70
   128
 43
0.0
 10
28.21535528341273
 20
13.25952461050965
 10
28.21829497561807
 20
13.18747348963568
 10
28.24688548883648
 20
13.09835669472591
 10
28.30175012964057
 20
13.028823476041
 10
28.37844435211366
 20
12.984507324703
 10
28.47075463396747
 20
12.96899832636942
 10
28.5712028141609
 20
12.98355300554481
 10
28.67165061485546
 20
13.02699200068691
 10
28.76396108645284
 20
13.09579641987952
 10
28.84065530892593
 20
13.18439200120979
 10
28.89551994972992
 20
13.28560133503569
 10
28.92411046294834
 20
13.39122487044142
 10
28.92411046294834
 20
13.49270582314271
 10
28.89551994972992
 20
13.58182261805243
 10
28.84065530892593
 20
13.65135574185973
 10
28.76396108645284
 20
13.69567208294126
 10
28.67165061485546
 20
13.71118093164202
 10
28.5712028141609
 20
13.69662645687814
 10
28.5712028141609
 20
13.69662645687814
  0
LWPOLYLINE
  5
330
330
2
100
AcDbEntity
  8
0
100
AcDbPolyline
 90
       19
 70
   128
 43
0.0
 10
14.05575409593165
 20
9.171999831901528
 10
14.05869435735576
 20
9.099948875351985
 10
14.08728487057418
 20
9.010832080442213
 10
14.1421495113899
 20
8.941298861757308
 10
14.21884373385134
 20
8.896982710419303
 10
14.31115382596169
 20
8.881473657306983
 10
14.41160162666808
 20
8.896028226936731
 10
14.51204942737447
 20
8.939467222078835
 10
14.60436027844697
 20
9.008271750817089
 10
14.68105450092015
 20
9.09686733214735
 10
14.73591914173588
 20
9.198076665973257
 10
14.76450965494256
 20
9.30370020137899
 10
14.76450965494256
 20
9.405181154092058
 10
14.73591914173588
 20
9.494297948990046
 10
14.68105450092015
 20
9.563831072809131
 10
14.60436027844697
 20
9.608147413890563
 10
14.51204942737447
 20
9.623656153033945
 10
14.41160162666808
 20
9.609101678270063
 10
14.41160162666808
 20
9.609101678270063
  0
ARC
  5
331
330
2
100
AcDbEntity
  8
0
100
AcDbCircle
 10
32.191115666883
 20
12.73180464830617
 30
0.0
 40
0.7166687200802345
100
AcDbArc
 50
8.749285570098935
 51
43.73463283130219
  0
LINE
  5
332
330
2
100
AcDbEntity
  8
0
100
AcDbLine
 10
32.70894422429758
 20
13.22725155712978
 30
0.0
 11
32.35606433528417
 21
13.53285450550248
 31
0.0
  0
ARC
  5
333
330
2
100
AcDbEntity
  8
0
100
AcDbCircle
 10
32.52024164214502
 20
13.68376574402042
 30
0.0
 40
0.2229986322830872
100
AcDbArc
 50
179.5143540286999
 51
222.5891186933038
  0
LINE
  5
334
330
2
100
AcDbEntity
  8
0
100
AcDbLine
 10
32.29725102044282
 20
14.24592786196999
 30
0.0
 11
32.29725102044282
 21
13.68565588482304
 31
0.0
  0
LWPOLYLINE
  5
335
330
2
100
AcDbEntity
  8
0
100
AcDbPolyline
 90
        9
 70
   128
 43
0.0
 10
32.35606433528417
 20
14.29686178156858
 10
32.34459046359425
 20
14.30484105454259
 10
32.3335575238754
 20
14.30859901452234
 10
32.32338946813284
 20
14.30799126689201
 10
32.31447705520115
 20
14.3030410551873
 10
32.30716295222796
 20
14.29393850215692
 10
32.30172793154461
 20
14.2810338738395
 10
32.2983811208899
 20
14.26482258987488
 10
32.29725102044282
 20
14.24592786196999
  0
LINE
  5
336
330
2
100
AcDbEntity
  8
0
100
AcDbLine
 10
32.35606433528417
 20
14.29686178156858
 30
0.0
 11
32.47369096495531
 21
14.19499413211488
 31
0.0
  0
LWPOLYLINE
  5
337
330
2
100
AcDbEntity
  8
0
100
AcDbPolyline
 90
       11
 70
   128
 43
0.0
 10
32.47369096495531
 20
14.19499413211488
 10
32.54406568058808
 20
14.14884819372938
 10
32.61035051933045
 20
14.13498498251254
 10
32.66869321459708
 20
14.15421024315704
 10
32.71570302685225
 20
14.2054065776781
 10
32.74864793061281
 20
14.28559871699619
 10
32.76561345946985
 20
14.39012599762397
 10
32.76561345946985
 20
14.51291378932779
 10
32.74864793061281
 20
14.64682622790203
 10
32.71570302685225
 20
14.78408061437636
 10
32.67921958447568
 20
14.88700431478224
  0
LWPOLYLINE
  5
338
330
2
100
AcDbEntity
  8
0
100
AcDbPolyline
 90
        3
 70
   128
 43
0.0
 10
32.5625465145266
 20
15.10977905233692
 10
32.54406568058808
 20
15.13792360253918
 10
32.48886240559161
 20
15.19734087040493
  0
LINE
  5
339
330
2
100
AcDbEntity
  8
0
100
AcDbLine
 10
32.45363300930313
 20
15.23104113608763
 30
0.0
 11
32.35606433528417
 21
15.31553808640879
 31
0.0
  0
ARC
  5
33A
330
2
100
AcDbEntity
  8
0
100
AcDbCircle
 10
32.52024211767408
 20
15.46644950911822
 30
0.0
 40
0.2229991070374093
100
AcDbArc
 50
179.514378016001
 51
222.5890708546996
  0
LINE
  5
33B
330
2
100
AcDbEntity
  8
0
100
AcDbLine
 10
32.29725102044282
 20
17.65849373932783
 30
0.0
 11
32.29725102044282
 21
15.46833956059512
 31
0.0
  0
LINE
  5
33C
330
2
100
AcDbEntity
  8
0
100
AcDbLine
 10
35.59079621308645
 20
14.80619993398277
 30
0.0
 11
35.59079621308645
 21
11.03400617620104
 31
0.0
  0
ARC
  5
33D
330
2
100
AcDbEntity
  8
0
100
AcDbCircle
 10
32.46930772254643
 20
13.66906238792661
 30
0.0
 40
0.2229986322830738
100
AcDbArc
 50
179.5143540286999
 51
222.5891186933038
  0
LINE
  5
33E
330
2
100
AcDbEntity
  8
0
100
AcDbLine
 10
32.24631710084424
 20
14.23122450586439
 30
0.0
 11
32.24631710084424
 21
13.67095252871744
 31
0.0
  0
LINE
  5
33F
330
2
100
AcDbEntity
  8
0
100
AcDbLine
 10
32.30513041568559
 20
13.51815114940867
 30
0.0
 11
32.65801030469899
 21
13.21254820103592
 31
0.0
  0
ARC
  5
340
330
2
100
AcDbEntity
  8
0
100
AcDbCircle
 10
10.03346567006607
 20
7.522820930302248
 30
0.0
 40
0.0746893699910177
100
AcDbArc
 50
177.7639509145997
 51
291.3846800217993
  0
LINE
  5
341
330
2
100
AcDbEntity
  8
0
100
AcDbLine
 10
9.958833171108491
 20
7.52573504907103
 30
0.0
 11
9.958833171108491
 21
11.24390377993579
 31
0.0
  0
LINE
  5
342
330
2
100
AcDbEntity
  8
0
100
AcDbLine
 10
32.16597657860358
 20
15.46439971332913
 30
0.0
 11
32.16597657860358
 21
17.65455389206185
 31
0.0
  0
ARC
  5
343
330
2
100
AcDbEntity
  8
0
100
AcDbCircle
 10
32.02123347942827
 20
15.47155769447811
 30
0.0
 40
0.1449199829269751
100
AcDbArc
 50
287.2087967792031
 51
357.1688579939019
  0
LINE
  5
344
330
2
100
AcDbEntity
  8
0
100
AcDbLine
 10
32.06410873939466
 20
15.33312535167607
 30
0.0
 11
31.35103538293903
 21
15.12727880452152
 31
0.0
  0
ARC
  5
345
330
2
100
AcDbEntity
  8
0
100
AcDbCircle
 10
31.39391041472161
 20
14.98884663878277
 30
0.0
 40
0.144919746280079
100
AcDbArc
 50
107.2087313155016
 51
177.1689234576004
  0
LINE
  5
346
330
2
100
AcDbEntity
  8
0
100
AcDbLine
 10
31.24916754373012
 20
14.99600444286841
 30
0.0
 11
31.24916754373012
 21
13.67172518966718
 31
0.0
  0
ARC
  5
347
330
2
100
AcDbEntity
  8
0
100
AcDbCircle
 10
31.10442594054174
 20
13.67888200153709
 30
0.0
 40
0.144918431031374
100
AcDbArc
 50
287.208524705999
 51
357.1692905096015
  0
LINE
  5
348
330
2
100
AcDbEntity
  8
0
100
AcDbLine
 10
31.14730008401989
 20
13.54045093755976
 30
0.0
 11
10.0606994923577
 21
7.453273673610643
 31
0.0
  0
LINE
  5
349
330
2
100
AcDbEntity
  8
0
100
AcDbLine
 10
29.0080796351423
 20
14.70559476745672
 30
0.0
 11
28.1931388189647
 21
14.47034161766013
 31
0.0
  0
LINE
  5
34A
330
2
100
AcDbEntity
  8
0
100
AcDbLine
 10
29.0080796351423
 20
15.01119771582946
 30
0.0
 11
29.0080796351423
 21
14.70559476745672
 31
0.0
  0
LINE
  5
34B
330
2
100
AcDbEntity
  8
0
100
AcDbLine
 10
29.0080796351423
 20
15.01119771582946
 30
0.0
 11
28.1931388189647
 21
14.77594456603293
 31
0.0
  0
LINE
  5
34C
330
2
100
AcDbEntity
  8
0
100
AcDbLine
 10
28.1931388189647
 20
14.77594456603293
 30
0.0
 11
28.1931388189647
 21
14.47034161766013
 31
0.0
  0
LINE
  5
34D
330
2
100
AcDbEntity
  8
0
100
AcDbLine
 10
14.84847882714825
 20
10.61807009839428
 30
0.0
 11
14.03353763148362
 21
10.38281683905205
 31
0.0
  0
LINE
  5
34E
330
2
100
AcDbEntity
  8
0
100
AcDbLine
 10
14.84847882714825
 20
10.92367304676703
 30
0.0
 11
14.84847882714825
 21
10.61807009839428
 31
0.0
  0
LINE
  5
34F
330
2
100
AcDbEntity
  8
0
100
AcDbLine
 10
14.84847882714825
 20
10.92367304676703
 30
0.0
 11
14.03353763148362
 21
10.68841978742485
 31
0.0
  0
LINE
  5
350
330
2
100
AcDbEntity
  8
0
100
AcDbLine
 10
14.03353763148362
 20
10.68841978742485
 30
0.0
 11
14.03353763148362
 21
10.38281683905205
 31
0.0
  0
LWPOLYLINE
  5
351
330
2
100
AcDbEntity
  8
0
100
AcDbPolyline
 90
        7
 70
   128
 43
0.0
 10
32.27250670759362
 20
14.29330261588884
 10
32.27245554853435
 20
14.29328791078641
 10
32.26354313560257
 20
14.28833769909348
 10
32.25622903262947
 20
14.27923514606311
 10
32.25079401194602
 20
14.26633051774565
 10
32.24744720129131
 20
14.25011923378107
 10
32.24631710084424
 20
14.23122450586439
  0
ARC
  5
352
330
2
100
AcDbEntity
  8
0
100
AcDbCircle
 10
32.10178216378744
 20
12.6981714122654
 30
0.0
 40
0.7576102068765631
100
AcDbArc
 50
9.722545797199273
 51
42.76137260430008
  0
ARC
  5
353
330
2
100
AcDbEntity
  8
0
100
AcDbCircle
 10
32.259934099463
 20
17.65994965648726
 30
0.0
 40
0.0373453114393285
100
AcDbArc
 50
357.7657421884997
 51
111.3844477884976
  0
ARC
  5
354
330
2
100
AcDbEntity
  8
0
100
AcDbCircle
 10
35.5525631654973
 20
14.80770049254638
 30
0.0
 40
0.0382624829826215
100
AcDbArc
 50
357.752426936099
 51
47.5988115208987
  0
LWPOLYLINE
  5
355
330
2
100
AcDbEntity
  8
0
100
AcDbPolyline
 90
        7
 70
   128
 43
0.0
 10
9.958833171108491
 20
11.24390377993579
 10
9.959398221326161
 20
11.25335090671183
 10
9.961071571874775
 20
11.2614568333035
 10
9.963789136989273
 20
11.26790895772459
 10
9.967446188475964
 20
11.27246023423978
 10
9.971902394941714
 20
11.274935434958
 10
9.971927919704445
 20
11.2749429298198
  0
LWPOLYLINE
  5
356
330
2
100
AcDbEntity
  8
0
100
AcDbPolyline
 90
        9
 70
   128
 43
0.0
 10
32.19538318124565
 20
17.68002056724001
 10
32.18964624540069
 20
17.68401020373289
 10
32.18412983031399
 20
17.68588942090507
 10
32.17904580244863
 20
17.68558554708405
 10
32.17458959598279
 20
17.68311034636583
 10
32.17093254449619
 20
17.67855906985064
 10
32.16821497936995
 20
17.67210694542951
 10
32.16654162882124
 20
17.66400101883788
 10
32.16597657860358
 20
17.65455389206185
  0
LINE
  5
357
330
2
100
AcDbEntity
  8
0
100
AcDbLine
 10
32.19538318124565
 20
17.68002056724001
 30
0.0
 11
32.24631710084424
 21
17.69472392334557
 31
0.0
  0
ARC
  5
358
330
2
100
AcDbEntity
  8
0
100
AcDbCircle
 10
33.26447921048487
 20
12.49957743131105
 30
0.0
 40
0.3802902335524772
100
AcDbArc
 50
57.13646885050122
 51
107.6021069081028
  0
LINE
  5
359
330
2
100
AcDbEntity
  8
0
100
AcDbLine
 10
33.47083987264117
 20
12.81900807926225
 30
0.0
 11
36.35269175187257
 21
10.32325114190031
 31
0.0
  0
LWPOLYLINE
  5
35A
330
2
100
AcDbEntity
  8
0
100
AcDbPolyline
 90
        9
 70
   128
 43
0.0
 10
36.26658270314945
 20
10.16257006805953
 10
36.30407002824698
 20
10.17600145535718
 10
36.33559514217945
 20
10.19283122648514
 10
36.35994849825207
 20
10.21241282445385
 10
36.37619357722394
 20
10.23399382508975
 10
36.38370565683933
 20
10.25674458520767
 10
36.38219673934059
 20
10.27979099063602
 10
36.3717248220337
 20
10.3022476178513
 10
36.35269175187257
 20
10.32325114190031
  0
LINE
  5
35B
330
2
100
AcDbEntity
  8
0
100
AcDbLine
 10
36.26658270314945
 20
10.16257006805953
 30
0.0
 11
35.47201537891148
 21
9.933198238784349
 31
0.0
  0
LINE
  5
35C
330
2
100
AcDbEntity
  8
0
100
AcDbLine
 10
33.14947756456395
 20
12.86206230432882
 30
0.0
 11
32.35491024032598
 21
12.63269047506538
 31
0.0
  0
LWPOLYLINE
  5
35D
330
2
100
AcDbEntity
  8
0
100
AcDbPolyline
 90
        9
 70
   128
 43
0.0
 10
34.2338668396436
 20
11.51126055021382
 10
34.16485513219232
 20
11.48099963459307
 10
34.12425669715947
 20
11.43983703598846
 10
34.11825287534575
 20
11.39403956537759
 10
34.14775853619082
 20
11.35057970733289
 10
34.20828038799347
 20
11.316073452377
 10
34.29060584486342
 20
11.2957744481706
 10
34.38220077454602
 20
11.29277278692618
 10
34.46912007160235
 20
11.30752527502003
  0
LINE
  5
35E
330
2
100
AcDbEntity
  8
0
100
AcDbLine
 10
34.46912007160235
 20
11.30752527502003
 30
0.0
 11
34.67285575000834
 21
11.36633869940711
 31
0.0
  0
LWPOLYLINE
  5
35F
330
2
100
AcDbEntity
  8
0
100
AcDbPolyline
 90
        9
 70
   128
 43
0.0
 10
34.67285575000834
 20
11.36633869940711
 10
34.7418682164336
 20
11.39659983411919
 10
34.78246589250429
 20
11.43776221363247
 10
34.78846971430618
 20
11.48355968424334
 10
34.75896405346111
 20
11.52701954228799
 10
34.69844220165856
 20
11.56152579724394
 10
34.61611674478862
 20
11.58182480145033
 10
34.5245225740799
 20
11.58482668179781
 10
34.43760251804968
 20
11.5700739746009
  0
LINE
  5
360
330
2
100
AcDbEntity
  8
0
100
AcDbLine
 10
34.43760251804968
 20
11.5700739746009
 30
0.0
 11
34.2338668396436
 21
11.51126055021382
 31
0.0
  0
ARC
  5
361
330
2
100
AcDbEntity
  8
0
100
AcDbCircle
 10
33.26447921048487
 20
12.5505112501154
 30
0.0
 40
0.3802902335525338
100
AcDbArc
 50
57.13646885050122
 51
107.6021069081028
  0
LINE
  5
362
330
2
100
AcDbEntity
  8
0
100
AcDbLine
 10
33.14947756456395
 20
12.91299612313318
 30
0.0
 11
32.35491024032598
 21
12.68362429386969
 31
0.0
  0
LINE
  5
363
330
2
100
AcDbEntity
  8
0
100
AcDbLine
 10
36.35269175187257
 20
10.37418496069288
 30
0.0
 11
33.47083987264117
 21
12.86994189805482
 31
0.0
  0
ARC
  5
364
330
2
100
AcDbEntity
  8
0
100
AcDbCircle
 10
32.33584621631068
 20
12.68137368268488
 30
0.0
 40
0.0522828051709458
100
AcDbArc
 50
177.7643096007013
 51
291.3849844368014
  0
ARC
  5
365
330
2
100
AcDbEntity
  8
0
100
AcDbCircle
 10
32.349463554247
 20
12.69753370046758
 30
0.0
 40
0.0149378037620537
100
AcDbArc
 50
177.763632320301
 51
291.3844626884983
  0
ARC
  5
366
330
2
100
AcDbEntity
  8
0
100
AcDbCircle
 10
35.45316360246922
 20
9.985892740178883
 30
0.0
 40
0.0559651673111648
100
AcDbArc
 50
231.2219891423981
 51
289.6849767793981
  0
LINE
  5
367
330
2
100
AcDbEntity
  8
0
100
AcDbLine
 10
32.3345371278733
 20
12.69811660447563
 30
0.0
 11
32.3345371278733
 21
13.49268418960942
 31
0.0
  0
LWPOLYLINE
  5
368
330
2
100
AcDbEntity
  8
0
100
AcDbPolyline
 90
       13
 70
   128
 43
0.0
 10
32.79817036602171
 20
12.8115824762372
 10
32.79617636754455
 20
12.82345807946588
 10
32.77064426979834
 20
12.92216569735947
 10
32.7315268660886
 20
13.01289413715665
 10
32.68354229289946
 20
13.0847001939742
 10
32.63247820695279
 20
13.12892298962366
 10
32.58449363376374
 20
13.14022865154377
 10
32.54537623005381
 20
13.11725354243882
 10
32.51984424185334
 20
13.06276872018291
 10
32.51097707238587
 20
12.98334594231754
 10
32.51984424185334
 20
12.8885648238339
 10
32.54537623005381
 20
12.78985727708083
 10
32.56309117894784
 20
12.74372101561302
  0
LINE
  5
369
330
2
100
AcDbEntity
  8
0
100
AcDbLine
 10
32.28360320827472
 20
12.68341324838177
 30
0.0
 11
32.28360320827472
 21
13.54386320085957
 31
0.0
  0
LINE
  5
36A
330
2
100
AcDbEntity
  8
0
100
AcDbLine
 10
10.03031395396251
 20
7.257744766887487
 30
0.0
 11
32.18561861488913
 21
13.65682593548747
 31
0.0
  0
ARC
  5
36B
330
2
100
AcDbEntity
  8
0
100
AcDbCircle
 10
32.21845396854119
 20
13.73794193518821
 30
0.0
 40
0.0445995979250385
100
AcDbArc
 50
179.5141860577003
 51
222.5891435567013
  0
LINE
  5
36C
330
2
100
AcDbEntity
  8
0
100
AcDbLine
 10
31.53324336490147
 20
15.14592189833567
 30
0.0
 11
31.53324336490147
 21
14.89125267981799
 31
0.0
  0
LINE
  5
36D
330
2
100
AcDbEntity
  8
0
100
AcDbLine
 10
31.53324336490147
 20
14.89125267981799
 30
0.0
 11
31.88978042261628
 21
14.99417606294095
 31
0.0
  0
LINE
  5
36E
330
2
100
AcDbEntity
  8
0
100
AcDbLine
 10
31.88978042261628
 20
14.99417606294095
 30
0.0
 11
31.88978042261628
 21
15.24884528145859
 31
0.0
  0
LINE
  5
36F
330
2
100
AcDbEntity
  8
0
100
AcDbLine
 10
31.88978042261628
 20
14.28110270648523
 30
0.0
 11
31.88978042261628
 21
14.48483800539258
 31
0.0
  0
LINE
  5
370
330
2
100
AcDbEntity
  8
0
100
AcDbLine
 10
31.88978042261628
 20
14.48483800539258
 30
0.0
 11
31.53324336490147
 21
14.38191462226962
 31
0.0
  0
LINE
  5
371
330
2
100
AcDbEntity
  8
0
100
AcDbLine
 10
31.53324336490147
 20
14.38191462226962
 30
0.0
 11
31.53324336490147
 21
14.17817932335057
 31
0.0
  0
LINE
  5
372
330
2
100
AcDbEntity
  8
0
100
AcDbLine
 10
31.53324336490147
 20
14.17817932335057
 30
0.0
 11
31.88978042261628
 21
14.28110270648523
 31
0.0
  0
LINE
  5
373
330
2
100
AcDbEntity
  8
0
100
AcDbLine
 10
32.17385597383469
 20
13.73832009300145
 30
0.0
 11
32.17385597383469
 21
15.01575770379923
 31
0.0
  0
LINE
  5
374
330
2
100
AcDbEntity
  8
0
100
AcDbLine
 10
32.17385597383469
 20
15.07841667673992
 30
0.0
 11
32.16597657859836
 21
15.46439971332471
 31
0.0
  0
LINE
  5
375
330
2
100
AcDbEntity
  8
0
100
AcDbLine
 10
32.18561861488913
 20
13.65682593548747
 30
0.0
 11
32.23266928867613
 21
13.61607885673047
 31
0.0
  0
LINE
  5
376
330
2
100
AcDbEntity
  8
0
100
AcDbLine
 10
32.23266928867613
 20
13.61607885673047
 30
0.0
 11
32.25214301811456
 21
13.62170043819362
 31
0.0
  0
LINE
  5
377
330
2
100
AcDbEntity
  8
0
100
AcDbLine
 10
13.1935649393533
 20
4.520639864417248
 30
0.0
 11
13.24061561314029
 21
4.479892785660256
 31
0.0
  0
LINE
  5
378
330
2
100
AcDbEntity
  8
0
100
AcDbLine
 10
13.1935649393533
 20
4.520639864417248
 30
0.0
 11
13.04435539980876
 21
4.477566780511502
 31
0.0
  0
LINE
  5
379
330
2
100
AcDbEntity
  8
0
100
AcDbLine
 10
32.23266928867613
 20
13.66701268146319
 30
0.0
 11
32.18561861488913
 21
13.70775976022019
 31
0.0
  0
LINE
  5
37A
330
2
100
AcDbEntity
  8
0
100
AcDbLine
 10
32.23266928867613
 20
13.66701268146319
 30
0.0
 11
32.23266928867613
 21
13.61607885673047
 31
0.0
  0
LINE
  5
37B
330
2
100
AcDbEntity
  8
0
100
AcDbLine
 10
32.23266928867613
 20
13.66701268146319
 30
0.0
 11
32.24631714130775
 21
13.67095247714991
 31
0.0
  0
ARC
  5
37C
330
2
100
AcDbEntity
  8
0
100
AcDbCircle
 10
36.30605658920531
 20
10.31134185605649
 30
0.0
 40
0.0782565920446983
100
AcDbArc
 50
2.95165295259915
 51
53.42130466590006
  0
ARC
  5
37D
330
2
100
AcDbEntity
  8
0
100
AcDbCircle
 10
13.2592384287267
 20
4.497082374272183
 30
0.0
 40
0.0253434649753817
100
AcDbArc
 50
222.7082226247959
 51
279.570991519398
  0
LINE
  5
37E
330
2
100
AcDbEntity
  8
0
100
AcDbLine
 10
9.927250261223353
 20
7.22799284151347
 30
0.0
 11
10.03234980749685
 21
7.258332467180572
 31
0.0
  0
ARC
  5
37F
330
2
100
AcDbEntity
  8
0
100
AcDbCircle
 10
9.921586237173801
 20
7.246998534563322
 30
0.0
 40
0.0198317305481691
100
AcDbArc
 50
266.2273906944015
 51
286.5949634005968
  0
LINE
  5
380
330
2
100
AcDbEntity
  8
0
100
AcDbLine
 10
13.01996656116338
 20
4.474826670292735
 30
0.0
 11
9.834314011140925
 21
7.23368270624184
 31
0.0
  0
ARC
  5
381
330
2
100
AcDbEntity
  8
0
100
AcDbCircle
 10
13.02453488485616
 20
4.54407414685159
 30
0.0
 40
0.0693980013512453
100
AcDbArc
 50
266.2256106960968
 51
286.5951008251002
  0
LINE
  5
382
330
2
100
AcDbEntity
  8
0
100
AcDbLine
 10
7.51785401629716
 20
7.408100972047538
 30
0.0
 11
9.920281371061232
 21
7.227209778642613
 31
0.0
  0
LINE
  5
383
330
2
100
AcDbEntity
  8
0
100
AcDbLine
 10
9.881519060009701
 20
4.711136538740236
 30
0.0
 11
13.01996656116338
 21
4.474826670292735
 31
0.0
  0
LINE
  5
384
330
2
100
AcDbEntity
  8
0
100
AcDbLine
 10
6.7399218220005
 20
7.29332382052366
 30
0.0
 11
6.741406373205645
 21
7.297830525257895
 31
0.0
  0
LINE
  5
385
330
2
100
AcDbEntity
  8
0
100
AcDbLine
 10
7.728055648296791
 20
7.200287803574141
 30
0.0
 11
7.174293762117461
 21
5.518984769082823
 31
0.0
  0
ARC
  5
386
330
2
100
AcDbEntity
  8
0
100
AcDbCircle
 10
7.033191514656703
 20
5.565943032946321
 30
0.0
 40
0.1487108697623665
100
AcDbArc
 50
287.7671609107023
 51
341.5927637648003
  0
LINE
  5
387
330
2
100
AcDbEntity
  8
0
100
AcDbLine
 10
7.078570568394148
 20
5.424325010548763
 30
0.0
 11
6.165761321284168
 21
5.160819678282482
 31
0.0
  0
LINE
  5
388
330
2
100
AcDbEntity
  8
0
100
AcDbLine
 10
7.463300743387904
 20
5.920124754928883
 30
0.0
 11
7.397103117625441
 21
5.719139123955283
 31
0.0
  0
ARC
  5
389
330
2
100
AcDbEntity
  8
0
100
AcDbCircle
 10
7.44101182034803
 20
5.701797956317673
 30
0.0
 40
0.0472090062374008
100
AcDbArc
 50
158.4491067602005
 51
218.9439832005041
  0
LINE
  5
38A
330
2
100
AcDbEntity
  8
0
100
AcDbLine
 10
7.404294502943876
 20
5.672124249556601
 30
0.0
 11
7.721886359236382
 21
5.397081633976902
 31
0.0
  0
LWPOLYLINE
  5
38B
330
2
100
AcDbEntity
  8
0
100
AcDbPolyline
 90
        9
 70
   128
 43
0.0
 10
7.721886359236382
 20
5.397081633976902
 10
7.725530418522751
 20
5.394710773131798
 10
7.72943534622399
 20
5.393650257340908
 10
7.733451187573102
 20
5.393940949524083
 10
7.737424267767774
 20
5.395571882399632
 10
7.741203256209544
 20
5.398480838983529
 10
7.744640074346595
 20
5.402555089061184
 10
7.747605325708757
 20
5.407638784419642
 10
7.749982951871807
 20
5.413536223021313
  0
LINE
  5
38C
330
2
100
AcDbEntity
  8
0
100
AcDbLine
 10
7.749982951871807
 20
5.413536223021313
 30
0.0
 11
7.81618057763427
 21
5.614521853983175
 31
0.0
  0
ARC
  5
38D
330
2
100
AcDbEntity
  8
0
100
AcDbCircle
 10
7.669832433530054
 20
5.672327225294482
 30
0.0
 40
0.1573506918801307
100
AcDbArc
 50
338.4467067232989
 51
38.94685972650222
  0
LINE
  5
38E
330
2
100
AcDbEntity
  8
0
100
AcDbLine
 10
7.792208677707407
 20
5.771237766170383
 30
0.0
 11
7.55695547313218
 21
5.974973017650651
 31
0.0
  0
LWPOLYLINE
  5
38F
330
2
100
AcDbEntity
  8
0
100
AcDbPolyline
 90
        9
 70
   128
 43
0.0
 10
7.55695547313218
 20
5.974973017650651
 10
7.544812132471097
 20
5.982877304872147
 10
7.531795182538608
 20
5.986412100753049
 10
7.518407618069829
 20
5.985442609561792
 10
7.50516304199067
 20
5.980005842911328
 10
7.49256941322017
 20
5.97031022895627
 10
7.481111292298056
 20
5.956728842722984
 10
7.471228151319511
 20
5.93978324648321
 10
7.463300743387904
 20
5.920124754928883
  0
LINE
  5
390
330
2
100
AcDbEntity
  8
0
100
AcDbLine
 10
9.855405834699574
 20
4.691421526705646
 30
0.0
 11
9.757851998065746
 21
4.395232257358852
 31
0.0
  0
LINE
  5
391
330
2
100
AcDbEntity
  8
0
100
AcDbLine
 10
9.80490267185274
 20
4.35448517860186
 30
0.0
 11
9.757851998065746
 21
4.395232257358852
 31
0.0
  0
LINE
  5
392
330
2
100
AcDbEntity
  8
0
100
AcDbLine
 10
9.80490267185274
 20
4.35448517860186
 30
0.0
 11
9.61239372218284
 21
3.769997434581179
 31
0.0
  0
LWPOLYLINE
  5
393
330
2
100
AcDbEntity
  8
0
100
AcDbPolyline
 90
        9
 70
   128
 43
0.0
 10
9.550118127242374
 20
3.718619450932468
 10
9.555325905253649
 20
3.731947606423172
 10
9.561667796590899
 20
3.743811311814299
 10
9.568972724453168
 20
3.753889342689278
 10
9.577039783413386
 20
3.761907932910663
 10
9.585652902680728
 20
3.767650541851777
 10
9.594576214047215
 20
3.770961070954921
 10
9.603571985899495
 20
3.771750748628816
 10
9.61239372218284
 20
3.769997434581179
  0
LINE
  5
394
330
2
100
AcDbEntity
  8
0
100
AcDbLine
 10
9.550118127242374
 20
3.718619450932468
 30
0.0
 11
9.466499035048688
 21
3.46474250970736
 31
0.0
  0
ARC
  5
395
330
2
100
AcDbEntity
  8
0
100
AcDbCircle
 10
9.599057901589322
 20
3.417967539344521
 30
0.0
 40
0.1405693812778921
100
AcDbArc
 50
160.564005555001
 51
207.8755931541978
  0
LINE
  5
396
330
2
100
AcDbEntity
  8
0
100
AcDbLine
 10
9.474799505549935
 20
3.352243860484334
 30
0.0
 11
9.200670598588185
 21
2.519946757673912
 31
0.0
  0
LINE
  5
397
330
2
100
AcDbEntity
  8
0
100
AcDbLine
 10
9.200670598588185
 20
2.519946757673912
 30
0.0
 11
9.153619924812932
 21
2.560693836430905
 31
0.0
  0
LINE
  5
398
330
2
100
AcDbEntity
  8
0
100
AcDbLine
 10
9.153619924812932
 20
2.560693836430905
 30
0.0
 11
9.088818809372664
 21
2.363944213285249
 31
0.0
  0
LINE
  5
399
330
2
100
AcDbEntity
  8
0
100
AcDbLine
 10
6.025080743824158
 20
5.225471916693129
 30
0.0
 11
5.971713670798997
 21
5.063436449566282
 31
0.0
  0
LINE
  5
39A
330
2
100
AcDbEntity
  8
0
100
AcDbLine
 10
7.495645025067673
 20
4.641328027677344
 30
0.0
 11
7.561842650830136
 21
4.842313706077986
 31
0.0
  0
ARC
  5
39B
330
2
100
AcDbEntity
  8
0
100
AcDbCircle
 10
7.517938730958469
 20
4.859655532589282
 30
0.0
 40
0.0472047998333584
100
AcDbArc
 50
338.4462305090001
 51
38.94700718389577
  0
LINE
  5
39C
330
2
100
AcDbEntity
  8
0
100
AcDbLine
 10
7.55465121074112
 20
4.889328533036117
 30
0.0
 11
7.237059354440507
 21
5.164371148629371
 31
0.0
  0
LWPOLYLINE
  5
39D
330
2
100
AcDbEntity
  8
0
100
AcDbPolyline
 90
        9
 70
   128
 43
0.0
 10
7.237059354440507
 20
5.164371148629371
 10
7.23341681310201
 20
5.1667425425347
 10
7.229511885400864
 20
5.167803058325588
 10
7.225496098830348
 20
5.16751231870359
 10
7.221521473304374
 20
5.165880971358895
 10
7.217744002810572
 20
5.16297245295771
 10
7.214305666713816
 20
5.158897764685651
 10
7.211341933299525
 20
5.15381441265573
 10
7.208962816595512
 20
5.147916607011953
  0
LINE
  5
39E
330
2
100
AcDbEntity
  8
0
100
AcDbLine
 10
7.208962816595512
 20
5.147916607011953
 30
0.0
 11
7.142765190821311
 21
4.946930928611314
 31
0.0
  0
ARC
  5
39F
330
2
100
AcDbEntity
  8
0
100
AcDbCircle
 10
7.289111795969599
 20
4.889126753833194
 30
0.0
 40
0.1573488209645191
100
AcDbArc
 50
158.4469060871004
 51
218.9477876243998
  0
LINE
  5
3A0
330
2
100
AcDbEntity
  8
0
100
AcDbLine
 10
7.166738608696046
 20
4.790215407191469
 30
0.0
 11
7.401991813271273
 21
4.586480155711155
 31
0.0
  0
LWPOLYLINE
  5
3A1
330
2
100
AcDbEntity
  8
0
100
AcDbPolyline
 90
        9
 70
   128
 43
0.0
 10
7.401991813271273
 20
4.586480155711155
 10
7.414135126537185
 20
4.578576034507918
 10
7.427150531138281
 20
4.575040776719044
 10
7.440538150385844
 20
4.576010220471475
 10
7.453782726465004
 20
4.581447034560767
 10
7.466377845799854
 20
4.5911429681191
 10
7.477835994105582
 20
4.604724378065908
 10
7.487717562357474
 20
4.621669630988884
 10
7.495645025067673
 20
4.641328027677344
  0
ARC
  5
3A2
330
2
100
AcDbEntity
  8
0
100
AcDbCircle
 10
7.484527048120103
 20
7.107553572573364
 30
0.0
 40
0.3023721208609795
100
AcDbArc
 50
53.53777866929662
 51
85.22706836750108
  0
LINE
  5
3A3
330
2
100
AcDbEntity
  8
0
100
AcDbLine
 10
6.689560540124098
 20
7.369920276875005
 30
0.0
 11
6.736611104353617
 21
7.329173292983879
 31
0.0
  0
ARC
  5
3A4
330
2
100
AcDbEntity
  8
0
100
AcDbCircle
 10
6.138830550932883
 20
5.236105233852669
 30
0.0
 40
0.0799573715796858
100
AcDbArc
 50
231.2247871519006
 51
289.6828904016961
  0
LINE
  5
3A5
330
2
100
AcDbEntity
  8
0
100
AcDbLine
 10
6.743891885448935
 20
7.466537661762217
 30
0.0
 11
7.509686542946131
 21
7.408877151632646
 31
0.0
  0
LINE
  5
3A6
330
2
100
AcDbEntity
  8
0
100
AcDbLine
 10
7.711275133688364
 20
7.309989031106187
 30
0.0
 11
7.664224569458752
 21
7.350736014985573
 31
0.0
  0
ARC
  5
3A7
330
2
100
AcDbEntity
  8
0
100
AcDbCircle
 10
7.625610285979707
 20
7.240751221325647
 30
0.0
 40
0.1101469038809544
100
AcDbArc
 50
338.4471897567049
 51
38.94655127820062
  0
ARC
  5
3A8
330
2
100
AcDbEntity
  8
0
100
AcDbCircle
 10
6.71213735003478
 20
7.309390736350167
 30
0.0
 40
0.0314692579765935
100
AcDbArc
 50
338.4477632986965
 51
38.94920519329671
  0
ARC
  5
3A9
330
2
100
AcDbEntity
  8
0
100
AcDbCircle
 10
5.872936628974088
 20
5.096312860586772
 30
0.0
 40
0.1041045743137738
100
AcDbArc
 50
287.7679525381047
 51
341.5907760378013
  0
ARC
  5
3AA
330
2
100
AcDbEntity
  8
0
100
AcDbCircle
 10
8.990041767547847
 20
2.396820624305692
 30
0.0
 40
0.1041045743136854
100
AcDbArc
 50
287.7679525381047
 51
341.5907760379012
  0
LINE
  5
3AB
330
2
100
AcDbEntity
  8
0
100
AcDbLine
 10
9.021810600441149
 20
2.297681814300729
 30
0.0
 11
5.904705461855741
 21
4.99717405058181
 31
0.0
  0
ARC
  5
3AC
330
2
100
AcDbEntity
  8
0
100
AcDbCircle
 10
8.106134105990555
 20
2.429026195558
 30
0.0
 40
0.3802849035279894
100
AcDbArc
 50
237.1360984817998
 51
287.6022525421922
  0
LINE
  5
3AD
330
2
100
AcDbEntity
  8
0
100
AcDbLine
 10
7.899774271302121
 20
2.109601358573085
 30
0.0
 11
5.017922392070726
 21
4.605358295946764
 31
0.0
  0
LWPOLYLINE
  5
3AE
330
2
100
AcDbEntity
  8
0
100
AcDbPolyline
 90
        9
 70
   128
 43
0.0
 10
5.10402992284597
 20
4.766038931593142
 10
5.066544115708058
 20
4.752607982478158
 10
5.035019001763846
 20
4.735778211350201
 10
5.010664886729077
 20
4.716196394290154
 10
4.994419807745376
 20
4.694615393654261
 10
4.986908487103967
 20
4.671864852627617
 10
4.988415886654742
 20
4.648818009004918
 10
4.998889321909501
 20
4.626361819984035
 10
5.017922392070726
 20
4.605358295946764
  0
LINE
  5
3AF
330
2
100
AcDbEntity
  8
0
100
AcDbLine
 10
5.10402992284597
 20
4.766038931593142
 30
0.0
 11
5.904705461855741
 21
4.99717405058181
 31
0.0
  0
LINE
  5
3B0
330
2
100
AcDbEntity
  8
0
100
AcDbLine
 10
9.021810600441149
 20
2.297681814300729
 30
0.0
 11
8.221135061431471
 21
2.066546695312108
 31
0.0
  0
LWPOLYLINE
  5
3B1
330
2
100
AcDbEntity
  8
0
100
AcDbPolyline
 90
        9
 70
   128
 43
0.0
 10
6.90149255439308
 20
3.621083724620904
 10
6.988412610435123
 20
3.635836431817821
 10
7.080008299079882
 20
3.632834989664738
 10
7.162332238001955
 20
3.612535547263892
 10
7.222854848778492
 20
3.578029511411067
 10
7.252359750649674
 20
3.534569434275088
 10
7.24635744679556
 20
3.48877240184688
 10
7.205758252777087
 20
3.447609584139154
 10
7.136745786351827
 20
3.417348449427116
  0
LINE
  5
3B2
330
2
100
AcDbEntity
  8
0
100
AcDbLine
 10
6.697758393934865
 20
3.562270738439966
 30
0.0
 11
6.90149255439308
 21
3.621083724620904
 31
0.0
  0
LWPOLYLINE
  5
3B3
330
2
100
AcDbEntity
  8
0
100
AcDbPolyline
 90
        9
 70
   128
 43
0.0
 10
6.933011625893616
 20
3.358535463234392
 10
6.846091569863403
 20
3.343782756049306
 10
6.754495881218552
 20
3.346784198202295
 10
6.672171942284737
 20
3.367083640603143
 10
6.611649331519942
 20
3.401589676455968
 10
6.582144429637111
 20
3.445049753591995
 10
6.588146733502966
 20
3.490846786020249
 10
6.628745927509605
 20
3.532009603716142
 10
6.697758393934865
 20
3.562270738439966
  0
LINE
  5
3B4
330
2
100
AcDbEntity
  8
0
100
AcDbLine
 10
7.136745786351827
 20
3.417348449427116
 30
0.0
 11
6.933011625893616
 21
3.358535463234392
 31
0.0
  0
LWPOLYLINE
  5
3B5
330
2
100
AcDbEntity
  8
0
100
AcDbPolyline
 90
        6
 70
   128
 43
0.0
 10
6.690983201323572
 20
7.452401371559151
 10
6.693431079850395
 20
7.456716170901579
 10
6.700622469003405
 20
7.461958138792734
 10
6.711737723283139
 20
7.465418941842578
 10
6.726348104457528
 20
7.466965390099232
 10
6.743891885448935
 20
7.466537661762217
  0
ARC
  5
3B6
330
2
100
AcDbEntity
  8
0
100
AcDbCircle
 10
9.882011844813622
 20
4.683332380279281
 30
0.0
 40
0.0278085250331631
100
AcDbArc
 50
91.01537091239954
 51
163.0889158813005
  0
LINE
  5
3B7
330
2
100
AcDbEntity
  8
0
100
AcDbLine
 10
7.55695547313218
 20
5.974973017650651
 30
0.0
 11
7.509093117296636
 21
5.978576863351369
 31
0.0
  0
LINE
  5
3B8
330
2
100
AcDbEntity
  8
0
100
AcDbLine
 10
7.509093117296636
 20
5.978576863351369
 30
0.0
 11
7.506445860583077
 21
5.980734648990759
 31
0.0
  0
ARC
  5
3B9
330
2
100
AcDbEntity
  8
0
100
AcDbCircle
 10
9.502853478559082
 20
3.449141526117642
 30
0.0
 40
0.1112302661647325
100
AcDbArc
 50
271.0145916048997
 51
343.0899246265995
  0
LINE
  5
3BA
330
2
100
AcDbEntity
  8
0
100
AcDbLine
 10
9.69289199475277
 20
3.670664527200854
 30
0.0
 11
9.609274420495125
 21
3.416787929292496
 31
0.0
  0
ARC
  5
3BB
330
2
100
AcDbEntity
  8
0
100
AcDbCircle
 10
9.636502169795491
 20
3.69859788887148
 30
0.0
 40
0.0629292066761428
100
AcDbArc
 50
333.6479453033992
 51
82.98683627680162
  0
LINE
  5
3BC
330
2
100
AcDbEntity
  8
0
100
AcDbLine
 10
9.835809648067023
 20
4.342856794972544
 30
0.0
 11
9.960250862477874
 21
4.333486836828397
 31
0.0
  0
LINE
  5
3BD
330
2
100
AcDbEntity
  8
0
100
AcDbLine
 10
10.00554485364981
 20
4.471003679723914
 30
0.0
 11
9.960250862477874
 21
4.333486836828397
 31
0.0
  0
ARC
  5
3BE
330
2
100
AcDbEntity
  8
0
100
AcDbCircle
 10
9.855759363288584
 20
3.226738065553925
 30
0.0
 40
0.0235981617480616
100
AcDbArc
 50
153.6475781335
 51
262.9889434904018
  0
LINE
  5
3BF
330
2
100
AcDbEntity
  8
0
100
AcDbLine
 10
10.03475468883953
 20
3.189621875961075
 30
0.0
 11
9.852878951013128
 21
3.203316356333841
 31
0.0
  0
ARC
  5
3C0
330
2
100
AcDbEntity
  8
0
100
AcDbCircle
 10
10.03229384737793
 20
3.328636872297023
 30
0.0
 40
0.139036775516888
100
AcDbArc
 50
271.0141431408977
 51
343.0903272024994
  0
LINE
  5
3C1
330
2
100
AcDbEntity
  8
0
100
AcDbLine
 10
10.30468343917611
 20
3.711324172380964
 30
0.0
 11
10.16531929747733
 21
3.288196118440893
 31
0.0
  0
ARC
  5
3C2
330
2
100
AcDbEntity
  8
0
100
AcDbCircle
 10
10.23419406626378
 20
3.746239590254285
 30
0.0
 40
0.0786628126804524
100
AcDbArc
 50
333.6494597713016
 51
82.98569660479783
  0
LINE
  5
3C3
330
2
100
AcDbEntity
  8
0
100
AcDbLine
 10
10.06192288663358
 20
3.838007756221168
 30
0.0
 11
10.24380014240776
 21
3.824313666615717
 31
0.0
  0
ARC
  5
3C4
330
2
100
AcDbEntity
  8
0
100
AcDbCircle
 10
10.06266135969131
 20
3.796303346629553
 30
0.0
 40
0.0417109472651191
100
AcDbArc
 50
91.01444831259879
 51
163.0903211841984
  0
LINE
  5
3C5
330
2
100
AcDbEntity
  8
0
100
AcDbLine
 10
9.834613506598515
 20
3.237213082629407
 30
0.0
 11
10.02275380763645
 21
3.808435552144112
 31
0.0
  0
LINE
  5
3C6
330
2
100
AcDbEntity
  8
0
100
AcDbLine
 10
10.43843224257346
 20
2.692157923537056
 30
0.0
 11
10.99219412874096
 21
4.37346095804016
 31
0.0
  0
ARC
  5
3C7
330
2
100
AcDbEntity
  8
0
100
AcDbCircle
 10
10.29732999510087
 20
2.739116187400556
 30
0.0
 40
0.1487108697623533
100
AcDbArc
 50
287.7671609107023
 51
341.5927637648003
  0
LINE
  5
3C8
330
2
100
AcDbEntity
  8
0
100
AcDbLine
 10
10.34270904883841
 20
2.597498165014782
 30
0.0
 11
10.21671202552975
 21
2.561125957351355
 31
0.0
  0
SPLINE
  5
3C9
330
2
100
AcDbEntity
  8
0
100
AcDbSpline
210
0.0
220
0.0
230
1.0
 70
     8
 71
     3
 72
    11
 73
     7
 74
     0
 42
0.000000001
 43
0.0000000001
 40
0.0
 40
0.0
 40
0.0
 40
0.0
 40
0.2500008980131977
 40
0.4999945491153201
 40
0.7499934820642217
 40
1.0
 40
1.0
 40
1.0
 40
1.0
 10
9.474799505544996
 20
3.352243860480281
 30
0.0
 10
9.47655532581335
 20
3.35066358500388
 30
0.0
 10
9.480066915452994
 20
3.347503079859378
 30
0.0
 10
9.488160269308671
 20
3.343130186957076
 30
0.0
 10
9.496987626583969
 20
3.339626320530889
 30
0.0
 10
9.502211207232754
 20
3.338494578465089
 30
0.0
 10
9.504823037177519
 20
3.337928698848013
 30
0.0
  0
ARC
  5
3CA
330
2
100
AcDbEntity
  8
0
100
AcDbCircle
 10
10.06065316571713
 20
4.462188969983763
 30
0.0
 40
0.0558088269628111
100
AcDbArc
 50
97.99005346269856
 51
170.9123793011009
  0
LWPOLYLINE
  5
3CB
330
2
100
AcDbEntity
  8
0
100
AcDbPolyline
 90
        9
 70
   128
 43
0.0
 10
11.01092414200965
 20
4.384430423558209
 10
11.00849574460211
 20
4.386011321214329
 10
11.0058929289393
 20
4.386718446180505
 10
11.00321577439974
 20
4.386524588139971
 10
11.00056656655479
 20
4.385437137690312
 10
10.99804716788474
 20
4.383497896541031
 10
10.9957564982873
 20
4.380781844257599
 10
10.99377868860753
 20
4.377392327027118
 10
10.99219412874096
 20
4.37346095804016
  0
LINE
  5
3CC
330
2
100
AcDbEntity
  8
0
100
AcDbLine
 10
11.01092414200965
 20
4.384430423558209
 30
0.0
 11
11.05797470623917
 21
4.343683439678821
 31
0.0
  0
LINE
  5
3CD
330
2
100
AcDbEntity
  8
0
100
AcDbLine
 10
11.02834560844087
 20
4.437321733821457
 30
0.0
 11
11.07539617267049
 21
4.396574749942116
 31
0.0
  0
LWPOLYLINE
  5
3CE
330
2
100
AcDbEntity
  8
0
100
AcDbPolyline
 90
        9
 70
   128
 43
0.0
 10
11.02106482735729
 20
4.299957365054904
 10
11.0386086083487
 20
4.299529636717888
 10
11.05321898952309
 20
4.301076084962756
 10
11.06433424380282
 20
4.304536888024387
 10
11.07152563295583
 20
4.309778855915496
 10
11.07451695268043
 20
4.316600566640021
 10
11.0731954863242
 20
4.324740588104564
 10
11.06761045486016
 20
4.333885442581122
 10
11.05797470623917
 20
4.343683439678821
  0
LINE
  5
3CF
330
2
100
AcDbEntity
  8
0
100
AcDbLine
 10
10.96926947338275
 20
4.303857464818909
 30
0.0
 11
11.02106482735729
 21
4.299957365054904
 31
0.0
  0
LWPOLYLINE
  5
3D0
330
2
100
AcDbEntity
  8
0
100
AcDbPolyline
 90
        5
 70
   128
 43
0.0
 10
11.07539617267049
 20
4.396574749942116
 10
11.08503040334351
 20
4.386776314649967
 10
11.09061543480764
 20
4.377631460173407
 10
11.09193841911165
 20
4.36949187690327
 10
11.09139345995427
 20
4.366984527315075
  0
ARC
  5
3D1
330
2
100
AcDbEntity
  8
0
100
AcDbCircle
 10
9.840843609247833
 20
4.403124393892609
 30
0.0
 40
0.0604774689077991
100
AcDbArc
 50
233.5382219833973
 51
265.2253486921031
  0
SPLINE
  5
3D2
330
2
100
AcDbEntity
  8
0
100
AcDbSpline
210
0.0
220
0.0
230
1.0
 70
     8
 71
     3
 72
    11
 73
     7
 74
     0
 42
0.000000001
 43
0.0000000001
 40
0.0
 40
0.0
 40
0.0
 40
0.0
 40
0.2499849550576336
 40
0.5000043246191953
 40
0.7500107420831888
 40
1.0
 40
1.0
 40
1.0
 40
1.0
 10
9.644185660924986
 20
3.761056267149731
 30
0.0
 10
9.641426565227348
 20
3.761174408280187
 30
0.0
 10
9.635907993997719
 20
3.761410706805051
 30
0.0
 10
9.626638274638512
 20
3.763570724665218
 30
0.0
 10
9.618100912173755
 20
3.766599128186356
 30
0.0
 10
9.614296075320378
 20
3.768864691703644
 30
0.0
 10
9.612393722183583
 20
3.769997434585931
 30
0.0
  0
LINE
  5
3D3
330
2
100
AcDbEntity
  8
0
100
AcDbLine
 10
3.660386527484966
 20
6.827365885716613
 30
0.0
 11
3.644672213796681
 21
6.82877047857481
 31
0.0
  0
LINE
  5
3D4
330
2
100
AcDbEntity
  8
0
100
AcDbLine
 10
6.183227389891097
 20
6.379480185857056
 30
0.0
 11
5.700508041331517
 21
6.797527404611996
 31
0.0
  0
ARC
  5
3D5
330
2
100
AcDbEntity
  8
0
100
AcDbCircle
 10
4.769883108545545
 20
3.575906460803851
 30
0.0
 40
0.0286731860630103
100
AcDbArc
 50
331.1040592006979
 51
32.48287448140534
  0
ELLIPSE
  5
3D6
330
2
100
AcDbEntity
  8
0
100
AcDbEllipse
 10
4.78953093281321
 20
3.50125814700727
 30
0.0
 11
0.06938224109174
 21
0.1106983013327101
 31
0.0
210
0.0
220
0.0
230
1.0
 40
0.2945542466
 41
6.237537654344557
 42
6.941786914968744
  0
ELLIPSE
  5
3D7
330
2
100
AcDbEntity
  8
0
100
AcDbEllipse
 10
4.778626984705404
 20
3.49302585381875
 30
0.0
 11
0.1189752356000837
 21
0.0255020238232999
 31
0.0
210
0.0
220
0.0
230
1.0
 40
0.2601647544
 41
2.693902237372129
 42
3.335243632973141
  0
LINE
  5
3D8
330
2
100
AcDbEntity
  8
0
100
AcDbLine
 10
6.814875112767484
 20
7.898549991231311
 30
0.0
 11
6.618545492984107
 21
7.302462907802848
 31
0.0
  0
LINE
  5
3D9
330
2
100
AcDbEntity
  8
0
100
AcDbLine
 10
3.603133182151513
 20
8.141230116955588
 30
0.0
 11
4.543292578411151
 21
7.327028196185688
 31
0.0
  0
LINE
  5
3DA
330
2
100
AcDbEntity
  8
0
100
AcDbLine
 10
9.320302610604542
 20
5.685712564608913
 30
0.0
 11
9.329023765867187
 21
5.678159822603557
 31
0.0
  0
LINE
  5
3DB
330
2
100
AcDbEntity
  8
0
100
AcDbLine
 10
9.855405834699574
 20
4.691421526705646
 30
0.0
 11
7.557246398439524
 21
6.681685980456244
 31
0.0
  0
LINE
  5
3DC
330
2
100
AcDbEntity
  8
0
100
AcDbLine
 10
28.66985209464767
 20
13.66608036480485
 30
0.0
 11
28.7153701156457
 21
13.63930823531512
 31
0.0
  0
LINE
  5
3DD
330
2
100
AcDbEntity
  8
0
100
AcDbLine
 10
3.84758472632701
 20
8.309837584609946
 30
0.0
 11
3.891185590128699
 21
8.338107741072585
 31
0.0
  0
LINE
  5
3DE
330
2
100
AcDbEntity
  8
0
100
AcDbLine
 10
5.196481364901529
 20
8.207664494466417
 30
0.0
 11
5.205841875664415
 21
8.18442399503859
 31
0.0
  0
ARC
  5
3DF
330
2
100
AcDbEntity
  8
0
100
AcDbCircle
 10
6.708924636168521
 20
7.399510251039375
 30
0.0
 40
0.0353629012761764
100
AcDbArc
 50
180.0
 51
236.7986991297107
  0
LINE
  5
3E0
330
2
100
AcDbEntity
  8
0
100
AcDbLine
 10
31.88978042261628
 20
15.24884528145859
 30
0.0
 11
31.53324336490147
 21
15.14592189833567
 31
0.0
  0
ARC
  5
3E1
330
2
100
AcDbEntity
  8
0
100
AcDbCircle
 10
11.01013823533898
 20
4.420782180876026
 30
0.0
 40
0.0245980740487363
100
AcDbArc
 50
42.25196494832522
 51
90.0
  0
ARC
  5
3E2
330
2
100
AcDbEntity
  8
0
100
AcDbCircle
 10
9.024018718064873
 20
6.170840101453945
 30
0.0
 40
0.0365506059926088
100
AcDbArc
 50
306.7378456754334
 51
0.0
  0
ARC
  5
3E3
330
2
100
AcDbEntity
  8
0
100
AcDbCircle
 10
8.761390819802088
 20
6.041748152440842
 30
0.0
 40
0.5526162139226117
100
AcDbArc
 50
37.87897658188891
 51
60.33423412112917
  0
LINE
  5
3E4
330
2
100
AcDbEntity
  8
0
100
AcDbLine
 10
8.364112011696288
 20
6.604030699231881
 30
0.0
 11
8.444390392327921
 21
6.640742525249502
 31
0.0
  0
SPLINE
  5
3E5
330
2
100
AcDbEntity
  8
0
100
AcDbSpline
210
0.0
220
0.0
230
1.0
 70
     8
 71
     3
 72
    10
 73
     6
 74
     0
 42
0.000000001
 43
0.0000000001
 40
0.0
 40
0.0
 40
0.0
 40
0.0
 40
0.223414656091903
 40
0.6496074072459033
 40
1.0
 40
1.0
 40
1.0
 40
1.0
 10
8.484601920516098
 20
6.703601099779941
 30
0.0
 10
8.490419784374914
 20
6.716088514455734
 30
0.0
 10
8.507335986396753
 20
6.752397310005052
 30
0.0
 10
8.552153307130886
 20
6.794207763609536
 30
0.0
 10
8.583475645268794
 20
6.812087056295554
 30
0.0
 10
8.597608174754885
 20
6.820154130661583
 30
0.0
  0
LINE
  5
3E6
330
2
100
AcDbEntity
  8
0
100
AcDbLine
 10
8.472436285247674
 20
6.680178253868181
 30
0.0
 11
8.484601920515448
 21
6.703601099784787
 31
0.0
  0
SPLINE
  5
3E7
330
2
100
AcDbEntity
  8
0
100
AcDbSpline
210
0.0
220
0.0
230
1.0
 70
     8
 71
     3
 72
     9
 73
     5
 74
     0
 42
0.000000001
 43
0.0000000001
 40
0.0
 40
0.0
 40
0.0
 40
0.0
 40
0.3637854744933605
 40
1.0
 40
1.0
 40
1.0
 40
1.0
 10
8.105022548829495
 20
6.953848878429935
 30
0.0
 10
8.103196815193776
 20
6.963701893336056
 30
0.0
 10
8.098178105641739
 20
6.990786578121445
 30
0.0
 10
8.092086163280043
 20
7.017084333757933
 30
0.0
 10
8.088210381061095
 20
7.033815347882123
 30
0.0
  0
SPLINE
  5
3E8
330
2
100
AcDbEntity
  8
0
100
AcDbSpline
210
0.0
220
0.0
230
1.0
 70
     8
 71
     3
 72
     9
 73
     5
 74
     0
 42
0.000000001
 43
0.0000000001
 40
0.0
 40
0.0
 40
0.0
 40
0.0
 40
0.4931078804754943
 40
1.0
 40
1.0
 40
1.0
 40
1.0
 10
8.43048535416328
 20
6.929343193021765
 30
0.0
 10
8.421178159827352
 20
6.913100304885702
 30
0.0
 10
8.402303599706968
 20
6.880160478167747
 30
0.0
 10
8.391830090939251
 20
6.843267474151124
 30
0.0
 10
8.386521151881179
 20
6.824566701149537
 30
0.0
  0
SPLINE
  5
3E9
330
2
100
AcDbEntity
  8
0
100
AcDbSpline
210
0.0
220
0.0
230
1.0
 70
     8
 71
     3
 72
     9
 73
     5
 74
     0
 42
0.000000001
 43
0.0000000001
 40
0.0
 40
0.0
 40
0.0
 40
0.0
 40
0.3964137364449641
 40
1.0
 40
1.0
 40
1.0
 40
1.0
 10
8.386521151881179
 20
6.824566701149537
 30
0.0
 10
8.379078812749845
 20
6.815876444098167
 30
0.0
 10
8.360304642111771
 20
6.793954254596608
 30
0.0
 10
8.33980108698687
 20
6.775119112210438
 30
0.0
 10
8.327425422759386
 20
6.763750478994051
 30
0.0
  0
LINE
  5
3EA
330
2
100
AcDbEntity
  8
0
100
AcDbLine
 10
8.103490436723891
 20
6.780611463993352
 30
0.0
 11
8.114857389247916
 21
6.845021898068141
 31
0.0
  0
SPLINE
  5
3EB
330
2
100
AcDbEntity
  8
0
100
AcDbSpline
210
0.0
220
0.0
230
1.0
 70
     8
 71
     3
 72
     9
 73
     5
 74
     0
 42
0.000000001
 43
0.0000000001
 40
0.0
 40
0.0
 40
0.0
 40
0.0
 40
0.3822979274184181
 40
1.0
 40
1.0
 40
1.0
 40
1.0
 10
8.1148573892536
 20
6.845021898072706
 30
0.0
 10
8.115548418573961
 20
6.859369152015407
 30
0.0
 10
8.117355986103845
 20
6.896898139001006
 30
0.0
 10
8.109731938707582
 20
6.932102853388274
 30
0.0
 10
8.105022548829495
 20
6.953848878429935
 30
0.0
  0
LINE
  5
3EC
330
2
100
AcDbEntity
  8
0
100
AcDbLine
 10
8.088210381061095
 20
7.033815347882869
 30
0.0
 11
8.091988862402786
 21
7.069939536574134
 31
0.0
  0
ARC
  5
3ED
330
2
100
AcDbEntity
  8
0
100
AcDbCircle
 10
8.225966546799327
 20
6.675803848170172
 30
0.0
 40
0.4162847112157209
100
AcDbArc
 50
62.6137987147038
 51
108.7743259455003
  0
LINE
  5
3EE
330
2
100
AcDbEntity
  8
0
100
AcDbLine
 10
8.326905861118859
 20
6.668735193233727
 30
0.0
 11
8.324220614621246
 21
6.666799654476173
 31
0.0
  0
LWPOLYLINE
  5
3EF
330
2
100
AcDbEntity
  8
0
100
AcDbPolyline
 90
        9
 70
   128
 43
0.0
 10
8.144967887511686
 20
6.680296971688868
 10
8.145567768274379
 20
6.691739057339857
 10
8.155443557624952
 20
6.69994131271493
 10
8.17378955682782
 20
6.704235881621347
 10
8.199116144147374
 20
6.704274083897859
 10
8.229360042538182
 20
6.700052111982827
 10
8.262062567857888
 20
6.69191356455614
 10
8.294564795385888
 20
6.680520749692758
 10
8.324220614621246
 20
6.666799654476173
  0
LINE
  5
3F0
330
2
100
AcDbEntity
  8
0
100
AcDbLine
 10
8.144967887511686
 20
6.680296971688868
 30
0.0
 11
8.143656382153309
 21
6.682533224463874
 31
0.0
  0
LINE
  5
3F1
330
2
100
AcDbEntity
  8
0
100
AcDbLine
 10
8.143656382153309
 20
6.682533224463874
 30
0.0
 11
8.103490436723891
 21
6.780611463993352
 31
0.0
  0
LINE
  5
3F2
330
2
100
AcDbEntity
  8
0
100
AcDbLine
 10
8.327425422761994
 20
6.763750478997591
 30
0.0
 11
8.326905861118859
 21
6.668735193233727
 31
0.0
  0
LINE
  5
3F3
330
2
100
AcDbEntity
  8
0
100
AcDbLine
 10
8.325532119979623
 20
6.66670104918257
 30
0.0
 11
8.375523399248599
 21
6.623407331373396
 31
0.0
  0
LINE
  5
3F4
330
2
100
AcDbEntity
  8
0
100
AcDbLine
 10
8.325532119979623
 20
6.66670104918257
 30
0.0
 11
8.326905861118859
 21
6.668735193233727
 31
0.0
  0
LINE
  5
3F5
330
2
100
AcDbEntity
  8
0
100
AcDbLine
 10
8.446769414671813
 20
7.031269672051463
 30
0.0
 11
8.417451667735921
 21
7.045433946036814
 31
0.0
  0
LINE
  5
3F6
330
2
100
AcDbEntity
  8
0
100
AcDbLine
 10
8.446769414671813
 20
7.031269672051463
 30
0.0
 11
8.4304853541589
 21
6.929343193024839
 31
0.0
  0
LWPOLYLINE
  5
3F7
330
2
100
AcDbEntity
  8
0
100
AcDbPolyline
 90
        9
 70
   128
 43
0.0
 10
8.374211893890226
 20
6.623505936666997
 10
8.37361201312753
 20
6.612063851016008
 10
8.363736223776864
 20
6.603861595640937
 10
8.345390224574089
 20
6.599567026734519
 10
8.32006515520241
 20
6.599529167774804
 10
8.289819738863727
 20
6.603750796373086
 10
8.25711721354402
 20
6.611889343799726
 10
8.224614986016021
 20
6.623282158663107
 10
8.194959166780662
 20
6.637003253879694
  0
LINE
  5
3F8
330
2
100
AcDbEntity
  8
0
100
AcDbLine
 10
8.193647661422193
 20
6.637101859173249
 30
0.0
 11
8.194959166780662
 21
6.637003253879694
 31
0.0
  0
LINE
  5
3F9
330
2
100
AcDbEntity
  8
0
100
AcDbLine
 10
8.143656382153309
 20
6.680395576982471
 30
0.0
 11
8.193647661422193
 21
6.637101859173249
 31
0.0
  0
LINE
  5
3FA
330
2
100
AcDbEntity
  8
0
100
AcDbLine
 10
8.143656382153309
 20
6.680395576982471
 30
0.0
 11
8.144967887511686
 21
6.680296971688868
 31
0.0
  0
LINE
  5
3FB
330
2
100
AcDbEntity
  8
0
100
AcDbLine
 10
8.324220614621246
 20
6.666799654476173
 30
0.0
 11
8.325532119979623
 21
6.66670104918257
 31
0.0
  0
LINE
  5
3FC
330
2
100
AcDbEntity
  8
0
100
AcDbLine
 10
8.374211893890226
 20
6.623505936666997
 30
0.0
 11
8.375523399248599
 21
6.623407331373396
 31
0.0
  0
LWPOLYLINE
  5
3FD
330
2
100
AcDbEntity
  8
0
100
AcDbPolyline
 90
        3
 70
   128
 43
0.0
 10
8.457748592901364
 20
6.650887302956366
 10
8.446588443743948
 20
6.641812951541048
 10
8.444390392327921
 20
6.640742525249502
  0
LINE
  5
3FE
330
2
100
AcDbEntity
  8
0
100
AcDbLine
 10
8.616594464824157
 20
6.833574775257506
 30
0.0
 11
8.600333249327995
 21
6.821755359708147
 31
0.0
  0
LINE
  5
3FF
330
2
100
AcDbEntity
  8
0
100
AcDbLine
 10
8.143656382153309
 20
6.682533224463874
 30
0.0
 11
8.143656382153309
 21
6.680395576982471
 31
0.0
  0
SPLINE
  5
400
330
2
100
AcDbEntity
  8
0
100
AcDbSpline
210
0.0
220
0.0
230
1.0
 70
     8
 71
     3
 72
     9
 73
     5
 74
     0
 42
0.000000001
 43
0.0000000001
 40
0.0
 40
0.0
 40
0.0
 40
0.0
 40
0.690265050481048
 40
1.0
 40
1.0
 40
1.0
 40
1.0
 10
8.633007701382855
 20
6.858756944965346
 30
0.0
 10
8.627627536522314
 20
6.866123994150429
 30
0.0
 10
8.619833190195642
 20
6.876796777279198
 30
0.0
 10
8.611900119195418
 20
6.887175566875177
 30
0.0
 10
8.609442969849631
 20
6.890390240746794
 30
0.0
  0
LINE
  5
401
330
2
100
AcDbEntity
  8
0
100
AcDbLine
 10
8.616594464824157
 20
6.833574775257506
 30
0.0
 11
8.63300770138677
 21
6.858756944965252
 31
0.0
  0
ARC
  5
402
330
2
100
AcDbEntity
  8
0
100
AcDbCircle
 10
8.435885679255019
 20
6.680178253868181
 30
0.0
 40
0.0365506059926088
100
AcDbArc
 50
306.7378456754334
 51
0.0
  0
ARC
  5
403
330
2
100
AcDbEntity
  8
0
100
AcDbCircle
 10
8.173257780992145
 20
6.551086304855077
 30
0.0
 40
0.5526162139226117
100
AcDbArc
 50
37.87897658188891
 51
60.33423412112917
  0
LINE
  5
404
330
2
100
AcDbEntity
  8
0
100
AcDbLine
 10
5.26506891343055
 20
8.269402585776852
 30
0.0
 11
5.860521530988989
 21
8.2276631493355
 31
0.0
  0
ENDSEC
  0
SECTION
  2
OBJECTS
  0
DICTIONARY
  5
A
330
0
100
AcDbDictionary
281
     1
  3
ACAD_COLOR
350
42
  3
ACAD_GROUP
350
37
  3
ACAD_LAYOUT
350
18
  3
ACAD_MATERIAL
350
C
  3
ACAD_MLEADERSTYLE
350
45
  3
ACAD_MLINESTYLE
350
38
  3
ACAD_PLOTSETTINGS
350
39
  3
ACAD_PLOTSTYLENAME
350
9
  3
ACAD_SCALELIST
350
43
  3
ACAD_TABLESTYLE
350
44
  3
ACAD_VISUALSTYLE
350
2D
  3
ACDB_RECOMPOSE_DATA
350
414
  3
AcDbVariableDictionary
350
406
  3
AcDsDecomposeData
350
41A
  0
DICTIONARY
  5
20
330
1F
100
AcDbDictionary
280
     1
281
     1
  3
ACAD_LAYERSTATES
360
21
  0
DICTIONARY
  5
7
330
6
100
AcDbDictionary
280
     1
281
     1
  0
DICTIONARY
  5
3
330
2
100
AcDbDictionary
280
     1
281
     1
  3
ACAD_SORTENTS
360
405
  0
DICTIONARY
  5
42
102
{ACAD_REACTORS
330
A
102
}
330
A
100
AcDbDictionary
281
     1
  0
DICTIONARY
  5
37
102
{ACAD_REACTORS
330
A
102
}
330
A
100
AcDbDictionary
281
     1
  0
DICTIONARY
  5
18
102
{ACAD_REACTORS
330
A
102
}
330
A
100
AcDbDictionary
281
     1
  3
Model
350
17
  3
レイアウト1
350
1E
  0
DICTIONARY
  5
C
102
{ACAD_REACTORS
330
A
102
}
330
A
100
AcDbDictionary
281
     1
  3
ByBlock
350
3E
  3
ByLayer
350
3A
  3
Global
350
B
  0
DICTIONARY
  5
45
102
{ACAD_REACTORS
330
A
102
}
330
A
100
AcDbDictionary
281
     1
  0
DICTIONARY
  5
38
102
{ACAD_REACTORS
330
A
102
}
330
A
100
AcDbDictionary
281
     1
  3
Standard
350
46
  0
DICTIONARY
  5
39
102
{ACAD_REACTORS
330
A
102
}
330
A
100
AcDbDictionary
281
     1
  0
ACDBDICTIONARYWDFLT
  5
9
102
{ACAD_REACTORS
330
A
102
}
330
A
100
AcDbDictionary
281
     1
  3
Normal
350
8
100
AcDbDictionaryWithDefault
340
8
  0
DICTIONARY
  5
43
102
{ACAD_REACTORS
330
A
102
}
330
A
100
AcDbDictionary
281
     1
  3
A0
350
4B
  3
A1
350
4C
  3
A2
350
4D
  3
A3
350
4E
  3
A4
350
4F
  3
A5
350
50
  3
A6
350
51
  3
A7
350
52
  3
A8
350
53
  3
A9
350
54
  3
B0
350
55
  3
B1
350
56
  3
B2
350
57
  3
B3
350
58
  3
B4
350
59
  3
B5
350
5A
  3
B6
350
5B
  0
DICTIONARY
  5
44
102
{ACAD_REACTORS
330
A
102
}
330
A
100
AcDbDictionary
281
     1
  3
Standard
350
47
  0
DICTIONARY
  5
2D
102
{ACAD_REACTORS
330
A
102
}
330
A
100
AcDbDictionary
281
     1
  3
2dWireframe
350
2C
  3
Realistic
350
49
  3
Wireframe
350
4A
  0
XRECORD
  5
414
102
{ACAD_REACTORS
330
A
102
}
330
A
100
AcDbXrecord
280
     1
 90
        1
330
47
  0
DICTIONARY
  5
406
102
{ACAD_REACTORS
330
A
102
}
330
A
100
AcDbDictionary
281
     1
  3
CANNOSCALE
350
40C
  3
CMLEADERSTYLE
350
408
  3
CTABLESTYLE
350
407
  3
CVIEWDETAILSTYLE
350
409
  3
CVIEWSECTIONSTYLE
350
40A
  3
LAYEREVAL
350
40E
  3
LAYERNOTIFY
350
40F
  3
LIGHTINGUNITS
350
40D
  3
MSLTSCALE
350
40B
  3
PSOLHEIGHT
350
411
  3
PSOLWIDTH
350
410
  3
XCLIPFRAME
350
412
  0
DICTIONARY
  5
41A
102
{ACAD_REACTORS
330
A
102
}
330
A
100
AcDbDictionary
281
     1
  3
AcDsRecords
350
41C
  3
AcDsSchemas
350
41B
1001
ACAD
1070
     2
  0
DICTIONARY
  5
21
102
{ACAD_REACTORS
330
20
102
}
330
20
100
AcDbDictionary
281
     1
  0
SORTENTSTABLE
  5
405
102
{ACAD_REACTORS
330
3
102
}
330
3
100
AcDbSortentsTable
330
2
  0
LAYOUT
  5
17
102
{ACAD_XDICTIONARY
360
19
102
}
102
{ACAD_REACTORS
330
18
102
}
330
18
100
AcDbPlotSettings
  1

  2
none_device
  4
ISO_A4_(210.00_x_297.00_MM)
  6

 40
7.5
 41
20.0
 42
7.5
 43
20.0
 44
210.0
 45
297.0
 46
11.54999923706054
 47
-13.65000009536743
 48
0.0
 49
0.0
140
0.0
141
0.0
142
1.0
143
8.704084754739808
 70
 11952
 72
     1
 73
     0
 74
     0
  7

 75
     0
147
0.1148885871608098
 76
     0
 77
     2
 78
   300
148
0.0
149
0.0
100
AcDbLayout
  1
Model
 70
     1
 71
     0
 10
0.0
 20
0.0
 11
12.0
 21
9.0
 12
0.0
 22
0.0
 32
0.0
 14
0.0
 24
0.0
 34
0.0
 15
0.0
 25
0.0
 35
0.0
146
0.0
 13
0.0
 23
0.0
 33
0.0
 16
1.0
 26
0.0
 36
0.0
 17
0.0
 27
1.0
 37
0.0
 76
     0
330
2
331
2B
1001
ACAD_PSEXT
1000
None
1000
None
1000
Not applicable
1000
The layout will not be plotted unless a new plotter configuration name is selected.
1070
     0
  0
LAYOUT
  5
1E
102
{ACAD_REACTORS
330
18
102
}
330
18
100
AcDbPlotSettings
  1

  2
C:\Documents and Settings\basas\Application Data\Autodesk\AutoCAD 2005\R16.1\enu\plotters\Default Windows System Printer.pc3
  4

  6

 40
0.0
 41
0.0
 42
0.0
 43
0.0
 44
0.0
 45
0.0
 46
0.0
 47
0.0
 48
0.0
 49
0.0
140
0.0
141
0.0
142
1.0
143
1.0
 70
   688
 72
     0
 73
     0
 74
     5
  7

 75
    16
147
1.0
 76
     0
 77
     2
 78
   300
148
0.0
149
0.0
100
AcDbLayout
  1
レイアウト1
 70
     1
 71
     1
 10
0.0
 20
0.0
 11
12.0
 21
9.0
 12
0.0
 22
0.0
 32
0.0
 14
0.0
 24
0.0
 34
0.0
 15
0.0
 25
0.0
 35
0.0
146
0.0
 13
0.0
 23
0.0
 33
0.0
 16
1.0
 26
0.0
 36
0.0
 17
0.0
 27
1.0
 37
0.0
 76
     0
330
1B
  0
MATERIAL
  5
3E
102
{ACAD_XDICTIONARY
360
3F
102
}
102
{ACAD_REACTORS
330
C
102
}
330
C
100
AcDbMaterial
  1
ByBlock
  0
MATERIAL
  5
3A
102
{ACAD_XDICTIONARY
360
3B
102
}
102
{ACAD_REACTORS
330
C
102
}
330
C
100
AcDbMaterial
  1
ByLayer
  0
MATERIAL
  5
B
102
{ACAD_XDICTIONARY
360
D
102
}
102
{ACAD_REACTORS
330
C
102
}
330
C
100
AcDbMaterial
  1
Global
 43
0.0007999999797903
 43
0.0
 43
0.0
 43
0.0
 43
0.0
 43
0.0007999999797903
 43
0.0
 43
0.0
 43
0.0
 43
0.0
 43
1.0
 43
0.0
 43
0.0
 43
0.0
 43
0.0
 43
1.0
 49
0.0007999999797903
 49
0.0
 49
0.0
 49
0.0
 49
0.0
 49
0.0007999999797903
 49
0.0
 49
0.0
 49
0.0
 49
0.0
 49
1.0
 49
0.0
 49
0.0
 49
0.0
 49
0.0
 49
1.0
142
0.0007999999797903
142
0.0
142
0.0
142
0.0
142
0.0
142
0.0007999999797903
142
0.0
142
0.0
142
0.0
142
0.0
142
1.0
142
0.0
142
0.0
142
0.0
142
0.0
142
1.0
144
0.0007999999797903
144
0.0
144
0.0
144
0.0
144
0.0
144
0.0007999999797903
144
0.0
144
0.0
144
0.0
144
0.0
144
1.0
144
0.0
144
0.0
144
0.0
144
0.0
144
1.0
1001
ACAD
1070
    -1
1070
     3
1070
     0
1000

1071
        0
1070
     0
  0
MLINESTYLE
  5
46
102
{ACAD_REACTORS
330
38
102
}
330
38
100
AcDbMlineStyle
  2
STANDARD
 70
     0
  3

 62
   256
 51
90.0
 52
90.0
 71
     2
 49
0.5
 62
   256
  6
BYLAYER
 49
-0.5
 62
   256
  6
BYLAYER
  0
ACDBPLACEHOLDER
  5
8
102
{ACAD_REACTORS
330
9
102
}
330
9
  0
SCALE
  5
4B
102
{ACAD_REACTORS
330
43
102
}
330
43
100
AcDbScale
 70
     0
300
1:1
140
1.0
141
1.0
290
     1
  0
SCALE
  5
4C
102
{ACAD_REACTORS
330
43
102
}
330
43
100
AcDbScale
 70
     0
300
1:2
140
1.0
141
2.0
290
     0
  0
SCALE
  5
4D
102
{ACAD_REACTORS
330
43
102
}
330
43
100
AcDbScale
 70
     0
300
1:4
140
1.0
141
4.0
290
     0
  0
SCALE
  5
4E
102
{ACAD_REACTORS
330
43
102
}
330
43
100
AcDbScale
 70
     0
300
1:5
140
1.0
141
5.0
290
     0
  0
SCALE
  5
4F
102
{ACAD_REACTORS
330
43
102
}
330
43
100
AcDbScale
 70
     0
300
1:8
140
1.0
141
8.0
290
     0
  0
SCALE
  5
50
102
{ACAD_REACTORS
330
43
102
}
330
43
100
AcDbScale
 70
     0
300
1:10
140
1.0
141
10.0
290
     0
  0
SCALE
  5
51
102
{ACAD_REACTORS
330
43
102
}
330
43
100
AcDbScale
 70
     0
300
1:16
140
1.0
141
16.0
290
     0
  0
SCALE
  5
52
102
{ACAD_REACTORS
330
43
102
}
330
43
100
AcDbScale
 70
     0
300
1:20
140
1.0
141
20.0
290
     0
  0
SCALE
  5
53
102
{ACAD_REACTORS
330
43
102
}
330
43
100
AcDbScale
 70
     0
300
1:30
140
1.0
141
30.0
290
     0
  0
SCALE
  5
54
102
{ACAD_REACTORS
330
43
102
}
330
43
100
AcDbScale
 70
     0
300
1:40
140
1.0
141
40.0
290
     0
  0
SCALE
  5
55
102
{ACAD_REACTORS
330
43
102
}
330
43
100
AcDbScale
 70
     0
300
1:50
140
1.0
141
50.0
290
     0
  0
SCALE
  5
56
102
{ACAD_REACTORS
330
43
102
}
330
43
100
AcDbScale
 70
     0
300
1:100
140
1.0
141
100.0
290
     0
  0
SCALE
  5
57
102
{ACAD_REACTORS
330
43
102
}
330
43
100
AcDbScale
 70
     0
300
2:1
140
2.0
141
1.0
290
     0
  0
SCALE
  5
58
102
{ACAD_REACTORS
330
43
102
}
330
43
100
AcDbScale
 70
     0
300
4:1
140
4.0
141
1.0
290
     0
  0
SCALE
  5
59
102
{ACAD_REACTORS
330
43
102
}
330
43
100
AcDbScale
 70
     0
300
8:1
140
8.0
141
1.0
290
     0
  0
SCALE
  5
5A
102
{ACAD_REACTORS
330
43
102
}
330
43
100
AcDbScale
 70
     0
300
10:1
140
10.0
141
1.0
290
     0
  0
SCALE
  5
5B
102
{ACAD_REACTORS
330
43
102
}
330
43
100
AcDbScale
 70
     0
300
100:1
140
100.0
141
1.0
290
     0
  0
TABLESTYLE
  5
47
102
{ACAD_XDICTIONARY
360
48
102
}
102
{ACAD_REACTORS
330
44
102
}
330
44
100
AcDbTableStyle
  3
Standard
 70
     0
 71
     0
 40
1.5
 41
1.5
280
     0
281
     0
  7
Standard
140
4.5
170
     2
 62
     0
 63
     7
283
     0
274
    -2
284
     1
 64
     0
275
    -2
285
     1
 65
     0
276
    -2
286
     1
 66
     0
277
    -2
287
     1
 67
     0
278
    -2
288
     1
 68
     0
279
    -2
289
     1
 69
     0
  7
Standard
140
6.0
170
     5
 62
     0
 63
     7
283
     0
274
    -2
284
     1
 64
     0
275
    -2
285
     1
 65
     0
276
    -2
286
     1
 66
     0
277
    -2
287
     1
 67
     0
278
    -2
288
     1
 68
     0
279
    -2
289
     1
 69
     0
  7
Standard
140
4.5
170
     5
 62
     0
 63
     7
283
     0
274
    -2
284
     1
 64
     0
275
    -2
285
     1
 65
     0
276
    -2
286
     1
 66
     0
277
    -2
287
     1
 67
     0
278
    -2
288
     1
 68
     0
279
    -2
289
     1
 69
     0
  0
VISUALSTYLE
  5
2C
102
{ACAD_XDICTIONARY
360
41D
102
}
102
{ACAD_REACTORS
330
2D
102
}
330
2D
100
AcDbVisualStyle
  2

 70
     4
 71
     0
 72
     2
 73
     1
 90
        0
 40
-0.6
 41
-30.0
 62
     5
 63
     7
421
 16777215
 74
     1
 91
        4
 64
     7
 65
   257
 75
     1
175
     1
 42
1.0
 92
        0
 66
   257
 43
1.0
 76
     1
 77
     6
 78
     2
 67
     7
 79
     5
170
     0
171
     0
290
     0
174
     0
 93
        1
 44
0.0
173
     0
291
     0
 45
0.0
1001
ACAD
1000
AcDbSavedByObjectVersion
1070
     0
  0
VISUALSTYLE
  5
49
102
{ACAD_XDICTIONARY
360
420
102
}
102
{ACAD_REACTORS
330
2D
102
}
330
2D
100
AcDbVisualStyle
  2

 70
     8
 71
     2
 72
     3
 73
     0
 90
        2
 40
-0.6
 41
30.0
 62
     5
 63
     7
421
 16777215
 74
     0
 91
        0
 64
     7
 65
   257
 75
     1
175
     1
 42
1.0
 92
        8
 66
   257
 43
1.0
 76
     1
 77
     6
 78
     2
 67
     7
 79
     3
170
     0
171
     0
290
     0
174
     0
 93
       13
 44
0.0
173
     0
291
     0
 45
0.0
1001
ACAD
1000
AcDbSavedByObjectVersion
1070
     0
  0
VISUALSTYLE
  5
4A
102
{ACAD_XDICTIONARY
360
422
102
}
102
{ACAD_REACTORS
330
2D
102
}
330
2D
100
AcDbVisualStyle
  2

 70
     5
 71
     0
 72
     2
 73
     0
 90
        0
 40
-0.6
 41
-30.0
 62
     5
 63
     7
421
 16777215
 74
     1
 91
        4
 64
     7
 65
   257
 75
     1
175
     1
 42
1.0
 92
        0
 66
   257
 43
1.0
 76
     1
 77
     6
 78
     2
 67
     7
 79
     3
170
     0
171
     0
290
     0
174
     0
 93
        1
 44
0.0
173
     0
291
     0
 45
0.0
1001
ACAD
1000
AcDbSavedByObjectVersion
1070
     0
  0
DICTIONARYVAR
  5
40C
102
{ACAD_REACTORS
330
406
102
}
330
406
100
DictionaryVariables
280
     0
  1
1:1
  0
DICTIONARYVAR
  5
408
102
{ACAD_REACTORS
330
406
102
}
330
406
100
DictionaryVariables
280
     0
  1
STANDARD
  0
DICTIONARYVAR
  5
407
102
{ACAD_REACTORS
330
406
102
}
330
406
100
DictionaryVariables
280
     0
  1
STANDARD
  0
DICTIONARYVAR
  5
409
102
{ACAD_REACTORS
330
406
102
}
330
406
100
DictionaryVariables
280
     0
  1

  0
DICTIONARYVAR
  5
40A
102
{ACAD_REACTORS
330
406
102
}
330
406
100
DictionaryVariables
280
     0
  1

  0
DICTIONARYVAR
  5
40E
102
{ACAD_REACTORS
330
406
102
}
330
406
100
DictionaryVariables
280
     0
  1
0
  0
DICTIONARYVAR
  5
40F
102
{ACAD_REACTORS
330
406
102
}
330
406
100
DictionaryVariables
280
     0
  1
0
  0
DICTIONARYVAR
  5
40D
102
{ACAD_REACTORS
330
406
102
}
330
406
100
DictionaryVariables
280
     0
  1
2
  0
DICTIONARYVAR
  5
40B
102
{ACAD_REACTORS
330
406
102
}
330
406
100
DictionaryVariables
280
     0
  1
1
  0
DICTIONARYVAR
  5
411
102
{ACAD_REACTORS
330
406
102
}
330
406
100
DictionaryVariables
280
     0
  1
80.000000
  0
DICTIONARYVAR
  5
410
102
{ACAD_REACTORS
330
406
102
}
330
406
100
DictionaryVariables
280
     0
  1
5.000000
  0
DICTIONARYVAR
  5
412
102
{ACAD_REACTORS
330
406
102
}
330
406
100
DictionaryVariables
280
     0
  1
2
  0
DICTIONARY
  5
41C
102
{ACAD_REACTORS
330
41A
102
}
330
41A
100
AcDbDictionary
281
     1
  0
DICTIONARY
  5
41B
102
{ACAD_REACTORS
330
41A
102
}
330
41A
100
AcDbDictionary
281
     1
  3
3046180873552
350
415
  3
3046180873568
350
416
  3
3046180873584
350
417
  3
3046180873600
350
418
  3
3046180873616
350
419
  0
DICTIONARY
  5
19
330
17
100
AcDbDictionary
280
     1
281
     1
  0
DICTIONARY
  5
3F
330
3E
100
AcDbDictionary
280
     1
281
     1
  3
ACAD_XREC_ROUNDTRIP
360
40
  3
FBXASSET
360
41
  0
DICTIONARY
  5
3B
330
3A
100
AcDbDictionary
280
     1
281
     1
  3
ACAD_XREC_ROUNDTRIP
360
3C
  3
FBXASSET
360
3D
  0
DICTIONARY
  5
D
330
B
100
AcDbDictionary
280
     1
281
     1
  3
ACAD_XREC_ROUNDTRIP
360
E
  3
BUMPTILE
360
F
  3
DIFFUSETILE
360
10
  3
FBXASSET
360
11
  3
OPACITYTILE
360
12
  3
REFLECTIONTILE
360
13
  0
DICTIONARY
  5
48
330
47
100
AcDbDictionary
280
     1
281
     1
  3
ACAD_ROUNDTRIP_2008_TABLESTYLE_CELLSTYLEMAP
360
413
  3
ACAD_XREC_ROUNDTRIP
360
41F
  0
DICTIONARY
  5
41D
330
2C
100
AcDbDictionary
280
     1
281
     1
  3
ACAD_XREC_ROUNDTRIP
360
41E
  0
DICTIONARY
  5
420
330
49
100
AcDbDictionary
280
     1
281
     1
  3
ACAD_XREC_ROUNDTRIP
360
421
  0
DICTIONARY
  5
422
330
4A
100
AcDbDictionary
280
     1
281
     1
  3
ACAD_XREC_ROUNDTRIP
360
423
  0
XRECORD
  5
415
102
{ACAD_REACTORS
330
41B
102
}
330
41B
100
AcDbXrecord
280
     1
  1
AcDb_Thumbnail_Schema
102
{ATTRRECORD
341
416
  2
AcDbDs::TreatedAsObjectData
280
     1
291
     1
102
ATTRRECORD}
102
{ATTRRECORD
341
417
  2
AcDbDs::Legacy
280
     1
291
     1
102
ATTRRECORD}
  2
AcDbDs::ID
280
    10
 91
        8
102
{ATTRRECORD
341
418
  2
AcDs:Indexable
280
     1
291
     1
102
ATTRRECORD}
102
{ATTRRECORD
341
419
  2
AcDbDs::HandleAttribute
280
     7
282
     1
102
ATTRRECORD}
  2
Thumbnail_Data
280
    15
 91
        0
  0
XRECORD
  5
416
102
{ACAD_REACTORS
330
41B
102
}
330
41B
100
AcDbXrecord
280
     1
  1
AcDbDs::TreatedAsObjectDataSchema
  2
AcDbDs::TreatedAsObjectData
280
     1
 91
        0
  0
XRECORD
  5
417
102
{ACAD_REACTORS
330
41B
102
}
330
41B
100
AcDbXrecord
280
     1
  1
AcDbDs::LegacySchema
  2
AcDbDs::Legacy
280
     1
 91
        0
  0
XRECORD
  5
418
102
{ACAD_REACTORS
330
41B
102
}
330
41B
100
AcDbXrecord
280
     1
  1
AcDbDs::IndexedPropertySchema
  2
AcDs:Indexable
280
     1
 91
        0
  0
XRECORD
  5
419
102
{ACAD_REACTORS
330
41B
102
}
330
41B
100
AcDbXrecord
280
     1
  1
AcDbDs::HandleAttributeSchema
  2
AcDbDs::HandleAttribute
280
     7
 91
        1
284
     1
  0
XRECORD
  5
40
102
{ACAD_REACTORS
330
3F
102
}
330
3F
100
AcDbXrecord
280
     1
102
MATERIAL
148
0.0
149
0.0
149
0.0
 93
        0
 94
      127
282
     0
 72
     1
 77
     1
171
     1
175
     1
179
     1
273
     0
  0
XRECORD
  5
41
102
{ACAD_REACTORS
330
3F
102
}
330
3F
100
AcDbXrecord
280
     1
 70
     1
 90
429727718
  1
D62C5603-E3A1-4AEA-B7FB-FE5D8D0755AF
310
504B03040A0000080000CC70623B3DEE336E79000000790000001B0000006175746F6465736B2D64657369676E2D7061636B6167652E786D6C3C3F786D6C2076657273696F6E3D22312E302220656E636F64696E673D227574662D3822203F3E3C666F726D6174733E3C666F726D61743E687474703A2F2F736368656D612E
310
6175746F6465736B2E636F6D2F64657369676E2D7061636B6167652F323030393C2F666F726D61743E3C2F666F726D6174733E504B0304140006080800CC70623BD486FD9CA0000000F4000000130000005B436F6E74656E745F54797065735D2E786D6C7D8EC10E82300C865F65E91D8A1E8C310C0EEA1BF002731658846E
310
D98AC1B77784ABF1D8FE5FBFBF75BBCE937A534CCEB38643598122B6FEE978D0B0485F9C41B54DDD7D022595594E1A469170414C76A4D9A4D207E29CF43ECE46F218070CC6BECC4078ACAA135ACF422C856C0E68EA1BF5669944DDD7BCDE7B1F8E415D77AECB980613C2E4AC91FC167A2B244592486606FC29C8FD7F045B9A
310
EF7053A7E60B504B0304140006080800CC70623B853B8169EB0000007C01000008000000636F72652E786D6C8D90416EC3201045AF62CDB6C206821CC7C244919D9CA01740401C94182C03558F5F9C3852BBEB6A467FFE9B197D7EFC9E1EC5975982F5AE035262288C535E5B377690E21535501C055FBC8FBF6C503839990E
310
5619041F179FE64D52DE45E362569DD7661365082642A11EB9E920A89B99642953CC8E702F67A9EE7234257977194EC9EAE275C4EABCCF5EAD5940D4AC6F0E35A568B8F43562CD7046CD199FD07E60174276A7BE677B5EADB0E0D14EEFFB6A31321A0D82627C4084204C3F096B71DD52F6819B16635EADF63F509AF53FA164
310
5DDCD1EDDD17164090FCC8732078B56691CB33A85CD7DCC40F504B0304140006080800CC70623B55019EA25F0000007C00000007000000636E782E786D6C4DCB3B0E80201045D1AD90E915ED2CF8AC45050C11660C8261F98AB1B07AC9C97D42D718D865D3E909258CFD00CCE24AC6E326A164D74DC0B4128928FF32603847
310
2BA13128B1252AC747C6BAB984FC68F0B87FE8960A5C09FE86CFB69FBA01504B0304140006080800CC70623BDBABAAF470010000D40300000C0000006662782F636F72652E786D6CC553D16E823014FD95A6AF4B694182CC941A83FA05FB810A9511A125A5257EFE2E82712ECEB8A7F100CD39F7F69E734AF9FADC366850B6
310
AF8DCE7018308C942E4C59EB2AC3DE1D498AD15A706B8CFB56869196ADCAF00863C12B6B7C374385D14E6907A836A59A41D9F7CA615434B0C8705F7CAA5606D23BA8E84F41278B93AC54100640439DE0BDB320004D43C63716C7C399D30917DCFBBA9CD9BA8469F5B156168B24CED3F7248AC8769F27244EB73B92EED8862C
310
B7F13E0C179B3C8F979C8ECD82BBBABDAA2BAC924E9558448CBD9330242CFA08E3154B5651FCC6D215639C8EE5774DBE2B5F6CF2B5768B68963BB5F5588420E442FC700B1139D4CB01F450C1E918227C2E09DF070D8140C84E1E9AAB8F1340832A9CB13130A5F1376A908D57309505ECF2A0DF179C4E9D30F5B239B87E3823
310
7A79C6F31DE1A8A5AEC08474B03C7837EAE4938639B44E5932B833D2C6B6B279CDC613877FA26EE21F4A2A4C63EC7F29A2F301D1F9F7A0E37D145F504B0304140006080800CC70623B9C113CC27E0000009D0000000B0000006662782F636E782E786D6C4DCCDF0A83201C86E15B91DFB94BFB330DD428C8FB886521330DA7
310
6397BF1A1DECE883878F57749FCDA1B7892F1BBC047A23808C7F84D9FA55424E0BE6803A256208E9EF06C84F9B91703228B1C690F78B66B34CD9A5439DF5CF0BFBF65E35BCA1B8D6A5C6F540381E886698B5741C695F9503EBA150A2F8958E3DC3EA0B504B0304140006080800CC70623B7DF2F77C2A010000120200003100
310
00006662782F41393633353835312D344632462D344230382D423046372D3739314545314133324237412F636F72652E786D6C8D51DB8EC22014FC15C2939B0D2DB4B45643319AE817EC0F6041255A68B86CFCFC856D4D76DF7CE190393373060EDB3DC707F856CE6B6B7A480A0C81328395DA5C7B18C3057510EC3873D686
310
3F34088C18550F330C39BB3A1BA7051AAC09CA84841A2BD5020AEF55806078A44B0FFD7053A328440C89E1EFC52486BBB8AA8214A99D789CF9E05200300FC927E4FB4D5B375D43103D5527440FB843077C5AA3F5861C8F645F5787F59E95B390B318B55CE45AA638FAA2957BD7248B390B7A7CC51F9C124149C82B8C378810
310
84AB2F42B7B8DD56F413775B8C5999E9FF4471926F8AA236A1AE96B8B3CC434E5839373893369E1FAF30EA395917409EB7F26AF8801C171837A4A6AC9C89E9F9C9B1A58BA30FD6A5EF5DDDCF894B9AD9B6A59C957943A9FCAE2FD5BC4DFE03504B0304140006080800CC70623BAD7543B64E01000033030000300000006662
310
782F41393633353835312D344632462D344230382D423046372D3739314545314133324237412F636E782E786D6CD593CD6EC32010845F0571AD6CE3D48AD20813A9873E410FBD12D82434182C7EAAE6EDBB2424CD25871E7B41D6EC30B3FA84F9E67BB2E40B4234DE8DB46F1925E094D7C6ED479AD3AE5951B2113C789FEE
310
6C943839C1488B4C05DF079FE72A69D8C96C13AAD6B8631503449F83828872B949AC57D26200B826A308D316B4064D6E46FCDA41C05550DC9E483A00797BFD207EFB092A45DE9514C1BBD22178396BD39D891265658C238DEA00936C654E5E433CB65A26D9F6EDB5EBC14EBF49A45CB856E66048291F6939A9A81BB5C89177
310
38143CA680F4AA299D66A042CEB3354A2684DC9D8D178FE0D9B8B41CAAD720F880EE7EF93C0C18769E099ECC04D5A102C8049A8A05632F4DDF376CF1DE0F6BB65C2F8627B65A33C6BB62177CEBBDAD973006829F89F22E814B54F4BC2BE347F8AA8F681390B50FA73F804400B5F542E796F19FF974E7F78DB802FE05E20750
310
4B0304140006080800CC70623BE75B7789680500003C100000340000006662782F41393633353835312D344632462D344230382D423046372D3739314545314133324237412F6F626A656374732E786D6CAD575B8F9B3818FD2B887D06C22499CB8AA1CA655245D5B455A356FB305264C061D8018C6C3393D95FBFC7600890
310
A4CD5EF210B0B1BFEBF98E3F7B1FF6596ABC522E1296DF9BAE3D320D9A872C4AF2F8DE2CE5CEBA358D0FBEC719939D65A691938CDE9B6ADAF4BD98B3B2D05311DD91329583D9D5FC0F438434A7A611A644887B5384CF34233629258BA878B12322891DEFF6B66BD70BFB62634E8AE781D082709A4B588AF91C528CDA28B73F
310
1C998EEF39EABBEFA97FBD6A7C7E9553F9D3D79FE442923C3C523610337627CB87ABE99D359D4CC6D6E4FACAB5E6ABF9D2726FC6A3C5F56271377BB88362213924694B38DD99FE47C48627A1E7D49F5A8BB5E1A74C0A599ED3B0F21F1E56366B89112D681E218F0915D0D6F17AD41FBA2A369DCF6335D62ABBD39779D5DDD1
310
11D4D8DE3CBB96B2E04FB8202E41051754A1AA8E8F76B4C6DFE810B580B1547F4B84911149794252234D024EF8BBE963A95AE27B3D310A9D5C215C7960FAEE415ED75694C6AFB17BCACA5D99A60A9AA65F217B0BFC53292ACB92BF283FAD0D3621576592CB5BED907C2FA8E9DF794E35E97BEA31BED21FEB401ABB94C44839
310
DCACBF0E1C5DA8DA5B2F4DFFD32AD86F543D9E565E7056502E157C00AD2671CD534549AB752FCA9CDA00677A313F04E51B22FF19E57B300579E3C97EB29F682D92935CEC18CF901B7B54FD8C51F362B56FC72FE0B3C1EAE335EDCCBF5AEC39ADB17DC238973F804BA5E6F6BFE7AF1FB32E523BE9F3BD571418E3631DCA4D48
310
5250CF639223210A9446CA30052EDF057BD35F8329C1ECD84552BF0DC8D18BE7BCE23BFE6BD960AB4A7DE79923A103BEBD80F911CBAA2C60DB19B01CF164A5583B772EE6D3FFA56666CBCDA74DC97724A48F9A58967497E489C4D979006FD7A05E227A1EBDD0F737C623387A9C844D3709995625106D157315F8B8392CD4E0
310
A0B9A720C4BE9829CEF37EA1E13111214D53925356365ADA634861B52519DD27A00AEB808EAF0628E6F435519D446F45CF2C9CF5214F0A15B2F6D06B79DA3EE3CBF7F56780D2F4E7EF73A0F5E5B02A38D07DC852C6B7C1FBB6664213E0C39E3EBA7FF4E1AD23EA2829407C85E586727488B751B2DB9502BC7B228A3FD68B6E
310
A65A22397E690AA8D158D7E404EC8CDA235CC3B7D1898680131CEC2CDF2638C65196279577750F15884AEE19F94199155B92B13297978469D4F8D358DF0AEF7631E28DC8F0D9F437D5D39A83B2231A1D52D543813A824EF8D44BCFF2FA6A31BD1E8DAD87F1CCB526B3879935BF59CDADD5C37479BB1CDD4CA7B3556B516589
310
EF352754B706114D9C885EC9131DE6EFEB43D99AFE2391C2F958179413D7CFEF6B1B6DB1E7600F00DE6E5C67454A339A4BA2E0FBA85ED26F045D454F463DBFCE484C2F90F2E5E3666003662ED8F755951A7D1BECD5B30B550B2785C8E7320B7292A4838DDA71BBC863ED7613CAF659337A3354231D4FF4A182A54904C2898C
310
98B28C4AD0CE056CCF332A80986E571EE9DBC305BB5FEB7E509220A58D25CF042D712A806AC0AD0C657FDEF80D2D9CEAA2EE4D1C76F60BFE74219A06527D6F82DF6412526107381E55E353090704D085B52408A8913C4ED159D79BDA71BB4BC506F4831350EB6F975CD22D69BF7AC49B91A2C0A9DDA3D5CA36AD20FC478E37
310
E61844E2352865EBCB61A275A65283CAAA9DD27703B4102F5AF51EF5F573B75CBB5AD38BC845F7A49F82A0966A49C2E3EA5EA0ECD326CD965F1DB402C6FA8B51A4658C5C5E2EC9E214602E55810345408596591009A82E7E7FFACA19EEA299B14A0081A705CB3296EBC14CDF658DCD336EA6D1136881AAEB87B81AB9EE53D5
310
F5EB8BC8362082DA24122F98680A4E7930C01A0079749CEA14382A0783E5EBA5A10F8C098456A03D6A4AEB6BB881E2513747552A5DB22C7EDAF83BD5528081A365F7FF06504B0304140006080000CC70623B000000000000000000000000350000006662782F41393633353835312D344632462D344230382D423046372D37
310
39314545314133324237412F76657274696365732E62696E504B0304140006080800CC70623BF270F1330600000004000000360000006662782F41393633353835312D344632462D344230382D423046372D3739314545314133324237412F747269616E676C65732E62696E636660600000504B0304140006080000CC7062
310
3B000000000000000000000000370000006662782F41393633353835312D344632462D344230382D423046372D3739314545314133324237412F617474726962757465732E62696E504B0304140006080800CC70623B08DA0BD19000000041010000360000006662782F41393633353835312D344632462D344230382D4230
310
46372D3739314545314133324237412F6469726563746F72792E786D6C858F410AC3201045AF22B36F53E9A60B35CBEEBAE80D244E44489C6234F4F835464A48035D0DF398FF9F8AF63D0E6CC63039F212F8F9020C7D47C6792B21C5FE7403D62A1188E2E60C98D7234A5830286103A55745067B9D86B8A3CF9C7F90C11DE6
310
07FB144396D7B6A82D282E9A152AD114D5EF2CB866EEE831B8EEA07A7BB5A8D7D61A2BAAEB7FD5F70921FF497D00504B0304140006080800CC70623BEDD1DC58FD000000A00100003B0000006662782F41393633353835312D344632462D344230382D423046372D3739314545314133324237412F7265736F75726365732F
310
636F72652E786D6C8D504B6E833010BD0A9A6D65B00922041947112427E8052C33A156828DFCA97AFC9A40A576D7CDCCE87D344F8F9FBFE667F689CE6B6B3A6039850C8DB2A336530731DC4903D95970676DF82583CCC8193B5861107C72362E3BA4AC096842428D1D7107A5F7182053CF7474E0D507CE32973124857FE48B
310
540F3961CEF244279DE03EB81420DB9EAC1384436FA353E879B1B182C7A8C75DA3C7F453DF353A1075D537A7BA6464B8F535A99AE14A9A2BBD90E350DD183B5CFABE3AF262350B1EF4FC9351399401471025A527C218A1E53BAB5A5AB765F5469B96525EACF23FA6B88CFF34456DC2A1DCE36E360F82A5202F42F062ED2BAD
310
579969AFDD8A6F504B010214000A0000080000CC70623B3DEE336E79000000790000001B00000000000000000000000000000000006175746F6465736B2D64657369676E2D7061636B6167652E786D6C504B01021400140006080800CC70623BD486FD9CA0000000F40000001300000000000000000000000000B20000005B
310
436F6E74656E745F54797065735D2E786D6C504B01021400140006080800CC70623B853B8169EB0000007C010000080000000000000000000000000083010000636F72652E786D6C504B01021400140006080800CC70623B55019EA25F0000007C000000070000000000000000000000000094020000636E782E786D6C504B
310
01021400140006080800CC70623BDBABAAF470010000D40300000C00000000000000000000000000180300006662782F636F72652E786D6C504B01021400140006080800CC70623B9C113CC27E0000009D0000000B00000000000000000000000000B20400006662782F636E782E786D6C504B01021400140006080800CC70
310
623B7DF2F77C2A010000120200003100000000000000000000000000590500006662782F41393633353835312D344632462D344230382D423046372D3739314545314133324237412F636F72652E786D6C504B01021400140006080800CC70623BAD7543B64E010000330300003000000000000000000000000000D2060000
310
6662782F41393633353835312D344632462D344230382D423046372D3739314545314133324237412F636E782E786D6C504B01021400140006080800CC70623BE75B7789680500003C10000034000000000000000000000000006E0800006662782F41393633353835312D344632462D344230382D423046372D3739314545
310
314133324237412F6F626A656374732E786D6C504B01021400140006080000CC70623B0000000000000000000000003500000000000000000000000000280E00006662782F41393633353835312D344632462D344230382D423046372D3739314545314133324237412F76657274696365732E62696E504B01021400140006
310
080800CC70623BF270F133060000000400000036000000000000000000000000007B0E00006662782F41393633353835312D344632462D344230382D423046372D3739314545314133324237412F747269616E676C65732E62696E504B01021400140006080000CC70623B0000000000000000000000003700000000000000
310
000000000000D50E00006662782F41393633353835312D344632462D344230382D423046372D3739314545314133324237412F617474726962757465732E62696E504B01021400140006080800CC70623B08DA0BD1900000004101000036000000000000000000000000002A0F00006662782F41393633353835312D344632
310
462D344230382D423046372D3739314545314133324237412F6469726563746F72792E786D6C504B01021400140006080800CC70623BEDD1DC58FD000000A00100003B000000000000000000000000000E1000006662782F41393633353835312D344632462D344230382D423046372D3739314545314133324237412F7265
310
736F75726365732F636F72652E786D6C504B0506000000000E000E0080040000641100000000
  0
XRECORD
  5
3C
102
{ACAD_REACTORS
330
3B
102
}
330
3B
100
AcDbXrecord
280
     1
102
MATERIAL
148
0.0
149
0.0
149
0.0
 93
        0
 94
      127
282
     0
 72
     1
 77
     1
171
     1
175
     1
179
     1
273
     0
  0
XRECORD
  5
3D
102
{ACAD_REACTORS
330
3B
102
}
330
3B
100
AcDbXrecord
280
     1
 70
     1
 90
429727718
  1
30362254-06B7-45E0-A893-8CFA70E3D6BC
310
504B03040A0000080000CC70623B3DEE336E79000000790000001B0000006175746F6465736B2D64657369676E2D7061636B6167652E786D6C3C3F786D6C2076657273696F6E3D22312E302220656E636F64696E673D227574662D3822203F3E3C666F726D6174733E3C666F726D61743E687474703A2F2F736368656D612E
310
6175746F6465736B2E636F6D2F64657369676E2D7061636B6167652F323030393C2F666F726D61743E3C2F666F726D6174733E504B0304140006080800CC70623BD486FD9CA0000000F4000000130000005B436F6E74656E745F54797065735D2E786D6C7D8EC10E82300C865F65E91D8A1E8C310C0EEA1BF002731658846E
310
D98AC1B77784ABF1D8FE5FBFBF75BBCE937A534CCEB38643598122B6FEE978D0B0485F9C41B54DDD7D022595594E1A469170414C76A4D9A4D207E29CF43ECE46F218070CC6BECC4078ACAA135ACF422C856C0E68EA1BF5669944DDD7BCDE7B1F8E415D77AECB980613C2E4AC91FC167A2B244592486606FC29C8FD7F045B9A
310
EF7053A7E60B504B0304140006080800CC70623B1EC5D7A3EB0000007C01000008000000636F72652E786D6C8D90416EC3201045AF82665B6103C6756C6122AB4D4ED00B204C5C94182C03558F5F9C3852BBEB6A467FFE9B197D71FC9E6FE8CBACC17AD7032D0820E3B41FAD9B7A48F1820F808E52ACDEC75F36404ECDA687
310
4D0629A6D5A76597B477D1B89855E747B38B2A041301E95B6E7A08FAD3CCAA50296647B8168BD2573599823EBB0CA76447F43862C7BCCF5EAC59410E4DDD9C7973C2755553CCCFA4C603E3040F1565ED3B1FDE4E432BCA0D9622DAF9795FAF464533826484B498524CD807E51D79ED187F21878E10516EF63F505AC67F42C9
310
BA58B1FDDD071640D2FCC87D2045B96591CB3DA85CB7DCE40F504B0304140006080800CC70623B55019EA25F0000007C00000007000000636E782E786D6C4DCB3B0E80201045D1AD90E915ED2CF8AC45050C11660C8261F98AB1B07AC9C97D42D718D865D3E909258CFD00CCE24AC6E326A164D74DC0B4128928FF32603847
310
2BA13128B1252AC747C6BAB984FC68F0B87FE8960A5C09FE86CFB69FBA01504B0304140006080800CC70623B8C9102E971010000D40300000C0000006662782F636F72652E786D6CC5535B6E833010BC8AE5DF0A6C08340F1947A84D4ED00B38C6A128602363A31CBFCB234A53A551FA553EC09AD9F5CE8C31DB9E9B1AF5CA
310
7695D1198E428A91D2D214952E33ECDD315861B4E5CC1AE3BE9561A445A3323CC098B3D21ADFCE9034DA29ED00D5A6503328BA4E398C640D8B0C77F253352214DE4145770A5B214FA2546114020D759C75CE8200340D19DE981F0F6746269C33EFAB6266AB02A655C74A59CCF365BADC27CB5D902ED22848F6340DF238A141
310
BE88E2F57B92BFEDF23523433367AE6A2EEAA455C2A902F398D2751045018D3FA264435F3771F242571B4A1919CA6F9A7C5B3CD9E42BED16F12C776AEB308F40C848FC700B1139D4891EF410CEC810227CC6846F8386402064270EF5C5C709A05E49676C024C61FC95EA45ED154CA5211D1FF4FB8291A913A68E9B83EBBB33
310
E2A7673CDE118E5AE8124C0807CB8377834E366998436B950D7A7746DAD846D4CFD978E0F04FD455FC5D49D2D4C6FE9722321F10997F0F32DC47FE05504B0304140006080800CC70623BFFEA85907E0000009D0000000B0000006662782F636E782E786D6C4DCCD10A83201886E15B91FFDC95D95A811AB6F23E625948A6C3
310
E9D8E5AF46073BFAE0E1E365ED67B3E8ADC3CB78C7815C7240DA3DFC64DCC221C519D7805AC182F7F1EF06C88D9BE6703008B6049F9E274D7A1E938DBB5AE3D6131B2589BA0D3D965551E0B2EA732C9B9A624AAEB41E3A557677029960D9AFB4EF11165F504B0304140006080800CC70623B4FEEA4082C0100001202000031
310
0000006662782F39464131463745442D413632322D343644302D413938332D3331353338454246344243312F636F72652E786D6C8D515B6EC32010BC0AE2AB55850DD871ED0813254D72825EC00192A2C460F1A872FC42ED48ED5F7E00CDCECCCEB26C731F6FE05B39AFADE921293004CA082BB5B9F43086336A21D870E6AC
310
0D7F68109861543DCC30E4ECE26C9C164858139409093556AA051CBC570102714B8F1E7AF1A5C6A11862480C7F2DA6415C878B2A4891CA89C7990F2E050073937C42DE1DB7E4F87ED8A36D4329AA9B3D46DBAEAD504556557BD81DEBDD0761E52CE42C462D17B996298E3E6BE59E35C962CE821E1FF18553435012728A7187
310
0841987E927A8D9B35ADDF70BBC6989599FE4F1427F9A4286A132ABAC49D651EF234CD5CE04CDA78BA3DC2A8FB645D00B9DF8B57E215725C60BCA2A463E54C4CE327C7A65E1C7DB02E7DEFCBF594B864C5CA6CDBD49C957943E9FA5D5FBAF336F90F504B0304140006080800CC70623BAD7543B64E01000033030000300000
310
006662782F39464131463745442D413632322D343644302D413938332D3331353338454246344243312F636E782E786D6CD593CD6EC32010845F0571AD6CE3D48AD20813A9873E410FBD12D82434182C7EAAE6EDBB2424CD25871E7B41D6EC30B3FA84F9E67BB2E40B4234DE8DB46F1925E094D7C6ED479AD3AE5951B2113C
310
789FEE6C943839C1488B4C05DF079FE72A69D8C96C13AAD6B8631503449F83828872B949AC57D26200B826A308D316B4064D6E46FCDA41C05550DC9E483A00797BFD207EFB092A45DE9514C1BBD22178396BD39D891265658C238DEA00936C654E5E433CB65A26D9F6EDB5EBC14EBF49A45CB856E66048291F6939A9A81BB5
310
C8917738143CA680F4AA299D66A042CEB3354A2684DC9D8D178FE0D9B8B41CAAD720F880EE7EF93C0C18769E099ECC04D5A102C8049A8A05632F4DDF376CF1DE0F6BB65C2F8627B65A33C6BB62177CEBBDAD973006829F89F22E814B54F4BC2BE347F8AA8F681390B50FA73F804400B5F542E796F19FF974E7F78DB802FE05
310
E207504B0304140006080800CC70623B16AB87BA640500003C100000340000006662782F39464131463745442D413632322D343644302D413938332D3331353338454246344243312F6F626A656374732E786D6CAD575B6FA33818FD2B887DE6924B3BED8A326A92B68A663B534DD4D13E548A0C38942D60649B369D5FBFC7
310
600890A493BDE42160637FD7F31D7FF63E6FB3D478A55C242CBF3247B66B1A340F5994E4F19559CA8D75611A9F7D8F33263BCB4C232719BD32D5B4E97B316765A1A722BA21652A07B3B7B33F0D11D29C9A46981221AE4C113ED38CD8A4942CA2E2C58E882476BCD9DA23BB5ED8171B73523C0F841684D35CC252CCE79062D4
310
468DFA43D7747CCF51DF7D4FFDEB5593E3AB9CCA9FBEFE241792E4E19EB28198C968BAB8199F5D5A67D3E9C49A9E8F47D6EC76B6B0469F26EEFC7C3EBFBCBEB98462213924694B38DD98FE1D62C393D073EA4FADC5DAF04326852CCF6958F90F0F2B9BB5C48816348F90C7840A68EB78EDF68723159BCEE7891A6B95DDE9D3
310
BCEAEEE8086A6C6F9E5D4B59F0175C10A7A0820BAA5055C7473B5AE3CFDD452D602CD5DF12616444529E90D448938013FE6EFA58AA96F85E4F8C42275708571E98FE6827AF6B2B4AE3D7D83D64E5A64C53054DD3AF90BD06FEA9149565C94FCA0F6B834DC85599E4F2423B24DF0B6AFA979E534DFA9E7A4CC6FA631D486393
310
921829879BF5D781A373557BCB85E97FB90DB62B558F8795179C15944B051F40AB495CF35451D26A4727654E6D8033BD98EF82F21D91FF8AF2DD9982BCF1643BDD4EB516C9492E368C67C88DED563FC36D5EACF66DFF057C3658BDBFA69DF9578B3DA735B64F18C7F20770A9D45CFCF7FCF563D6456A277DBEF78A02637CA2
310
43B90A490AEAB94F72244481D24819A6C0E59B606BFA4B3025981DBB48EAB701D97BF19C577CC77F2D1B6C55A9EF3C732474C0B727303F625995056C3B02963D9EAC146BE78EC5FCEC7FA999EBC5EACBAAE41B12D27B4D2C0BBA49F244E2ECDC81B76B502F113D8F5EE8FB1BE3111CDD4FC2AA9B844CAB1288B68AB90A7CDC
310
1C166AB0D3DC5310625FCC14E779BFD0709F8890A629C9292B1B2DED31A4B0DA928CEE135085754027E3018A397D4D5427D15BD1330B677DC8934285AC3DF45A9EB68FF8F2B8FC0A509AFEECFD0FF2DE25CC6047F7214B195F07EFEB9A094D800F7BFAE8FED187B78EA8A3A400F115961BCAD1215E47C966530AF0EE8128FE
310
58CEBB996A8964FFA529A046635D9353B0336A8F700DDF46271A024E70B0B37C9DE01847591E54DED53D54202AB947E4076556AC49C6CA5C9E1226B7F1A7B1BE15DEED62C41B91E1B3E9AFAAA735036547343A925075041DF0A9979E893B391F8FCFA6967B3EFB644DCF6E5CEBFAE272625DCC6FAF3FB93793C5F90CE1EF57
310
407342756B10D1C489E8953CD1617E5CEECAD6F4EF8914CE5D5D504E5C3F1F9736DA62CFC11E00BCDDB8CC8A9466349744C1F75EBDA4DF09BA8A9E8C7A7E9991989E20E5DBDD6A6003664ED8F7A04A8DBE0DF6EAD9B9AA858342E47399053949D2C146EDB85DE4B176BB0965FBAC19BD19AA918E27FA50C1D22402E144464C
310
59462568E704B6E71915404CB72B8FF4EDE184DDAF753F284990D2C6926782963815403548A70C657FDEF80D2D9CEAA2AE4C1C76F60BFE74219A06527D6582DF6412526107381E55E353090704D085B52408D0933C4ED159D79BDA71BB4BC506F4831350EB6F979CD22D69BF7AC49B91A2C0A9DDA3D5CA36AD20FC478E37E6
310
1844E2352865EBCB6EA275A652E3836BE04EFB400BF1A2556F515F1FBB35B2AB35BD889C744FFA1004B5544B121E57F70215746DD2F5E2C1412B602CBF19455AC6C8E5E9922C4E01E65215385004546899059180EAFCF7A707CE7017CD8CDB0410789AB32C63B91E5CEBBBACB17AC6CD347A022D5075FD106377347AAABA7E
310
7D11590744509B44E205134DC1290F06580320F78E537D3D73540E06CB970B431F185308AD40BBD794D6D77003C5A36E8EAA54BA64597CD8F83BD552A080A365F7FF06504B0304140006080000CC70623B000000000000000000000000350000006662782F39464131463745442D413632322D343644302D413938332D3331
310
353338454246344243312F76657274696365732E62696E504B0304140006080800CC70623BF270F1330600000004000000360000006662782F39464131463745442D413632322D343644302D413938332D3331353338454246344243312F747269616E676C65732E62696E636660600000504B0304140006080000CC70623B
310
000000000000000000000000370000006662782F39464131463745442D413632322D343644302D413938332D3331353338454246344243312F617474726962757465732E62696E504B0304140006080800CC70623B08DA0BD19000000041010000360000006662782F39464131463745442D413632322D343644302D413938
310
332D3331353338454246344243312F6469726563746F72792E786D6C858F410AC3201045AF22B36F53E9A60B35CBEEBAE80D244E44489C6234F4F835464A48035D0DF398FF9F8AF63D0E6CC63039F212F8F9020C7D47C6792B21C5FE7403D62A1188E2E60C98D7234A5830286103A55745067B9D86B8A3CF9C7F90C11DE607
310
FB144396D7B6A82D282E9A152AD114D5EF2CB866EEE831B8EEA07A7BB5A8D7D61A2BAAEB7FD5F70921FF497D00504B0304140006080800CC70623B0D6EF93BFE000000A00100003B0000006662782F39464131463745442D413632322D343644302D413938332D3331353338454246344243312F7265736F75726365732F63
310
6F72652E786D6C8D50596E833010BD0A9ADFCA60B334011947A8694ED00B586642AC041B79A97AFC9A40A5F6AF3F33A3B7689E1E3F7DCD8FEC139DD7D6F4C0720A191A65476DA61E62B892236427C19DB5E1970C322367EC618541F0C9D9B8EC90B226A009093576C41D94DE63804C3DD2D18357379C652E63480A7FCF17A9
310
EE72C29CE5894E3AC17D702940B63D59270887DE46A7D0F36263058F518FBB468FE9A7BE6A7420864373B8D4873369AA8691FA421B3294352543C5CAF65C0F6FEF43CB8BD52C78D0F34F46E550061C419494B6843142CB0F5677F4B52BEB177AEC28E5C52AFF638ACBF84F53D42654E51E77B379102C05791282176B5F693D
310
CB4C7BED567C03504B010214000A0000080000CC70623B3DEE336E79000000790000001B00000000000000000000000000000000006175746F6465736B2D64657369676E2D7061636B6167652E786D6C504B01021400140006080800CC70623BD486FD9CA0000000F40000001300000000000000000000000000B20000005B
310
436F6E74656E745F54797065735D2E786D6C504B01021400140006080800CC70623B1EC5D7A3EB0000007C010000080000000000000000000000000083010000636F72652E786D6C504B01021400140006080800CC70623B55019EA25F0000007C000000070000000000000000000000000094020000636E782E786D6C504B
310
01021400140006080800CC70623B8C9102E971010000D40300000C00000000000000000000000000180300006662782F636F72652E786D6C504B01021400140006080800CC70623BFFEA85907E0000009D0000000B00000000000000000000000000B30400006662782F636E782E786D6C504B01021400140006080800CC70
310
623B4FEEA4082C0100001202000031000000000000000000000000005A0500006662782F39464131463745442D413632322D343644302D413938332D3331353338454246344243312F636F72652E786D6C504B01021400140006080800CC70623BAD7543B64E010000330300003000000000000000000000000000D5060000
310
6662782F39464131463745442D413632322D343644302D413938332D3331353338454246344243312F636E782E786D6C504B01021400140006080800CC70623B16AB87BA640500003C1000003400000000000000000000000000710800006662782F39464131463745442D413632322D343644302D413938332D3331353338
310
454246344243312F6F626A656374732E786D6C504B01021400140006080000CC70623B0000000000000000000000003500000000000000000000000000270E00006662782F39464131463745442D413632322D343644302D413938332D3331353338454246344243312F76657274696365732E62696E504B01021400140006
310
080800CC70623BF270F133060000000400000036000000000000000000000000007A0E00006662782F39464131463745442D413632322D343644302D413938332D3331353338454246344243312F747269616E676C65732E62696E504B01021400140006080000CC70623B0000000000000000000000003700000000000000
310
000000000000D40E00006662782F39464131463745442D413632322D343644302D413938332D3331353338454246344243312F617474726962757465732E62696E504B01021400140006080800CC70623B08DA0BD190000000410100003600000000000000000000000000290F00006662782F39464131463745442D413632
310
322D343644302D413938332D3331353338454246344243312F6469726563746F72792E786D6C504B01021400140006080800CC70623B0D6EF93BFE000000A00100003B000000000000000000000000000D1000006662782F39464131463745442D413632322D343644302D413938332D3331353338454246344243312F7265
310
736F75726365732F636F72652E786D6C504B0506000000000E000E0080040000641100000000
  0
XRECORD
  5
E
102
{ACAD_REACTORS
330
D
102
}
330
D
100
AcDbXrecord
280
     1
102
MATERIAL
148
0.0
149
0.0
149
0.0
 93
        0
 94
      127
282
     0
 72
     1
 77
     1
171
     1
175
     1
179
     1
273
     0
  0
XRECORD
  5
F
102
{ACAD_REACTORS
330
D
102
}
330
D
100
AcDbXrecord
280
     1
270
     1
271
     1
  0
XRECORD
  5
10
102
{ACAD_REACTORS
330
D
102
}
330
D
100
AcDbXrecord
280
     1
270
     1
271
     1
  0
XRECORD
  5
11
102
{ACAD_REACTORS
330
D
102
}
330
D
100
AcDbXrecord
280
     1
 70
     0
 90
1673772943
  1
ECE7A1D2-D628-4531-984C-D00F80459256
310
504B03040A0000080000CC70623B3DEE336E79000000790000001B0000006175746F6465736B2D64657369676E2D7061636B6167652E786D6C3C3F786D6C2076657273696F6E3D22312E302220656E636F64696E673D227574662D3822203F3E3C666F726D6174733E3C666F726D61743E687474703A2F2F736368656D612E
310
6175746F6465736B2E636F6D2F64657369676E2D7061636B6167652F323030393C2F666F726D61743E3C2F666F726D6174733E504B0304140006080800CC70623BD486FD9CA0000000F4000000130000005B436F6E74656E745F54797065735D2E786D6C7D8EC10E82300C865F65E91D8A1E8C310C0EEA1BF002731658846E
310
D98AC1B77784ABF1D8FE5FBFBF75BBCE937A534CCEB38643598122B6FEE978D0B0485F9C41B54DDD7D022595594E1A469170414C76A4D9A4D207E29CF43ECE46F218070CC6BECC4078ACAA135ACF422C856C0E68EA1BF5669944DDD7BCDE7B1F8E415D77AECB980613C2E4AC91FC167A2B244592486606FC29C8FD7F045B9A
310
EF7053A7E60B504B0304140006080800CC70623BD9DDAED0EC0000007C01000008000000636F72652E786D6C8D90416EC3201045AF82665B61836D9CD8C2444DD39CA01740405C94182C03558F5F9C3852BBEB6A467FFE9B197D7EF89E6EE8CB2CC17A37002D0820E394D7D68D03A478C17B4007C117EFE32F1B20272733C0
310
2A83E0E3E2D3BC49CABB685CCCAAF3DA6CA20CC14440EA969B0182FA34932C648AD911AEC52CD5558EA6A0CF2EC329598D1E47ACCEFBECC59A050463A7EA5833865FEBDD0E37353BE3EE8DBDE3F6786A48D375FBF6CC78B9C282473B3DEFABC5C86834888A900E538A49F5419B9EB47DD5BC907D4F082F57FB1F28CDFA9F50
310
B22ED6D5F6EE030B20687EE43E10BC5CB3C8E51E54AE6B6EE207504B0304140006080800CC70623B55019EA25F0000007C00000007000000636E782E786D6C4DCB3B0E80201045D1AD90E915ED2CF8AC45050C11660C8261F98AB1B07AC9C97D42D718D865D3E909258CFD00CCE24AC6E326A164D74DC0B4128928FF326038
310
472BA13128B1252AC747C6BAB984FC68F0B87FE8960A5C09FE86CFB69FBA01504B0304140006080800CC70623BA24EB22D72010000D40300000C0000006662782F636F72652E786D6CC5535B6E833010BC8AE5DF0A6C5E49888CA3A6694ED00B38E05014B091B1518EDFE511A5A9D228FD2A1F60CDEC7A67C6986DCE4D8D7A
310
69BA4AAB0C073EC548AA5C17952A33ECECD15B61B4E1CC686DBF9561A44423333CC098B3D268D7CE50AE9595CA02AA74216750749DB418E5352C32DCE59FB211BE70162ABA93DF8AFC244AE9073ED050C759670D0840D390E18DF9F1706664C23973AE2A66B62A605A75ACA4C13C4976E1364A12EF355A2EBD384AF65EFA96
310
BC7B8BED2EA6719AAE16FB8491A199335B351775B991C2CA02F390D2D40B028F861F41BCA68B7518BFD0D59A524686F29B26D7164F36B94AD9289CE54E6D1DE6010819891F6E21228B3AD1831EC219194284CF98F06DD01008846CC5A1BEF83801D4CBDC6A1303536877A57A513B0953A94FC707FDBE6064EA84A9E3E6E0FA
310
EE8CF0E9198F7784A316AA0413C2C2F2E0ECA0934D1AE6D05A69BCDE9E91D2A611F573361E38FC1375157F5752AE6B6DFE4B11990F88CCBF0719EE23FF02504B0304140006080800CC70623B408A7D3B7C0000009D0000000B0000006662782F636E782E786D6C4DCCD10A83201886E15B91FFDC552A92A0064DBC8F581632
310
D3703A76F9ABD1C18E3E78F878E5F0D9027ABBFCF2292AE86E2D20171F69F6715550CB827B40839639A5F2770314A7CD293819B45C73AAFB45B35BA61ACAA1C1C7E7855C58C15BC331339661262CC762340413D68D77DA5B42298546CBE6573AF60CEB2F504B0304140006080800CC70623B449FB9BD290100001202000031
310
0000006662782F36394639363044362D344446342D343946362D394244322D3234314243333846323333332F636F72652E786D6C8D515B6EC32010BC0AE22B55850D98B871848994463E412FE002495162B07854397EA176A4F62F3F2C9A9D991D587EB84F37F0AD7D30CEF6905418026DA553C65E7A98E219ED203808EE9D
310
8B7F6810D871D23D2C3014FCE25D9A57483A1BB58D19B54EE9151C43D0110279CB971E06F9A5A7B11A53CC8C70ADE6515EC78BAE4895DB992778883E0700CB907242D17643D7E2538BD869608875438BBAE38922CAC8F1BDD90DB4691A5E2F42C153326A951B95E398B3D1FE599322163C9AE9115F7A3D46ADA0A018778810
310
84E907617BDCEE297BC5BB3DC6BC2EF47FA234AB2745C9D8D8D035EE220B50105E2F0DC1954B9FB747187D9F9D8FA0CCDB042D5FA0C015C65B42DF78BD10F3F3B363CB56C7109DCFDFBBB97E662ED92EB62D13BC2E1BCAE5777DB9966D8A1F504B0304140006080800CC70623BAD7543B64E01000033030000300000006662
310
782F36394639363044362D344446342D343946362D394244322D3234314243333846323333332F636E782E786D6CD593CD6EC32010845F0571AD6CE3D48AD20813A9873E410FBD12D82434182C7EAAE6EDBB2424CD25871E7B41D6EC30B3FA84F9E67BB2E40B4234DE8DB46F1925E094D7C6ED479AD3AE5951B2113C789FEE
310
6C943839C1488B4C05DF079FE72A69D8C96C13AAD6B8631503449F83828872B949AC57D26200B826A308D316B4064D6E46FCDA41C05550DC9E483A00797BFD207EFB092A45DE9514C1BBD22178396BD39D891265658C238DEA00936C654E5E433CB65A26D9F6EDB5EBC14EBF49A45CB856E66048291F6939A9A81BB5C89177
310
38143CA680F4AA299D66A042CEB3354A2684DC9D8D178FE0D9B8B41CAAD720F880EE7EF93C0C18769E099ECC04D5A102C8049A8A05632F4DDF376CF1DE0F6BB65C2F8627B65A33C6BB62177CEBBDAD973006829F89F22E814B54F4BC2BE347F8AA8F681390B50FA73F804400B5F542E796F19FF974E7F78DB802FE05E20750
310
4B0304140006080800CC70623B8D05915C650500003B100000340000006662782F36394639363044362D344446342D343946362D394244322D3234314243333846323333332F6F626A656374732E786D6CAD575B6FA33814FE2B887D06429276DA1565D4266D158D3A339A6846FB502932E050B66023DB74D2FDF5FB190C01
310
9276B2973C046C8ECFF53B17071F77456EBD502133CEAE6CDF9DD81665314F32965ED995DA3A17B6F5310C04E7AA47665B8C14F4CAD6DB7618A48257A5D94AE89654B91AEDDEDDFC61C998326A5B714EA4BCB265FC440BE2924AF184CA6737218AB8E976E7FA6E4338649B0A523E8D98964450A6A029F619B8588D52FE7039
310
B1BD30F0F4F730D0FF866AF6369557DB33949F31A9088B0F848DD8CCFCF9F2767A76E99CCDE733677E3EF59D9BBB9BA5E37F984D16E78BC5E5F5ED25044B25C0C96822E8D60EEFE11B91C581D77CEA34368A1F5329E68CD1B8B61F16D63A1B8E092D294B10C78C4A48EB593D192E7DED9BDEE7995E1B91FDEDD3ACEA9FE831
310
6A756F9F7D4D79F4274C90A7A04248AA51D5F8C718DAE06FB2F75AC4796EBE65D22A88A22223B995679120E2D50E41AA49C260C046A35368846B0BECD0DFF3EBEB8AD4F835768F69B9ADF25C43D30E6B646F807FAA64AD59F61715C7A54127C4AACA98BA3006A9D792DAE165E0D59B61A01FB3A9F9D838D2DAE62445C86166
310
F37564E842E7DE6A69879FEEA2DD5AE7E371E1A5E025154AC307D06A03D73EB5978C58FFA4C8E9033066E0F3BD53BEC1F39F91BE7B55103791EDE6BBB991A2046172CB4581D8B893FA674DDA17A77B3B7C413D1B511FD2743BFF8A38F03A658705E3ADF8015C3A3417FF3D7E439FF591DA0B5F18BC20C1B8981957AE6392A3
310
F43C640C01D1A0B4728E2DD4F26DB4B3C3152A252A3B4E913CEC1C72F012782FF88EFF8637AA552DBEF76408E8A8DE9E50F9E1CB3A2DA0DB1B6039A893B56063DC5B3E3FFB5F72E67AB9FEB4AEC496C4F4C1149625DD662C53E89D7BF0F6151A046260D1337DFDC94502430F83B0EE07A130A224BCAD7DAE1D9FB6CD422FF6
310
920702629C4BB9AE79C12F243C6432A6794E18E5552BA56B431AAB5D91317302B2B071E86C3A42B1A02F999E24061403B5D0EB639195DA655DD3EBEAB4FB862DDF579F014AD0E73C22F99E28DA57FB98E75C6CA2D74D53086D600F4786E0FE3144B771A8A7B900F03594DB8A633CBC49B2EDB69228BB479CF863B5E807AAAB
310
23872F6DFEB4129B949CA33823F58830E86D65621E10047D9DB34D862E8EAC3C2ABC2F7B2C40D67CDFE01F5545B92105AF983AC54D93D69E56FB8E797F88913F898A9FEC705D3F9D1B54EC8426FB500D40A03BD0119B06E1B95DDC7EB8F6975367793EBD70E66733DFB9BC982F9CE564727731999F5D4ECFCE3B8D6A4DC2A0
310
6D50FD148437D110834A64C6CDDF57FBACB5C307A2A477DFE4939736CFEF2B175371E0E10CF0DD1D5C15654E0BCA14D1E87DD02FF93782A162C0A3D95F1524A52770F972BF1EE9809D13CE7DD599467F8ECE9ADD85CE85A34CD45355448C64F9E8A031DC2D596ACC6E5DD93D9B82DE2EF5CAF81363A8E47996A0DE24564A79
310
4115AACE09C55E14540231FDA13C319787134EBF34E3A022514E5B4D9E0826E25C02D5805B15ABE1BEF51B26383D445DD9E875EE33FE4C22DA16427D65A3BCA92CA6D28DD01DF5DC53330704308475351050232CCD31583787BA75774AFB06E5070DD0C8EF484E19968C5D83BA5B90B244D31E54D55A372320FE4786B7EA58
310
44E135AA5467CB7EA333A61683CC6A8C3257034C10CF46F40EF9F5BE59BE5BD30C3C72D235E95D10345C1D45445A5F0BB47E46A5EBE5570F9380B5FA629579952296A773720405982B9DE04011506178964401AA8BDF1FBF0A8EAB6861DD6580C0E38217056766716DAEB2D6FA0917D3E4116581EADB879C4E7CFFB11EFACD
310
3D641311495D92C8676CB409A72D18610D803CE8A626049E8EC1887CB5B44CC39883690DDA8399B4B9855B481E7D71D4A9D22F96E5BB73BF5793020C02137BF837504B0304140006080000CC70623B000000000000000000000000350000006662782F36394639363044362D344446342D343946362D394244322D32343142
310
43333846323333332F76657274696365732E62696E504B0304140006080800CC70623BF270F1330600000004000000360000006662782F36394639363044362D344446342D343946362D394244322D3234314243333846323333332F747269616E676C65732E62696E636660600000504B0304140006080000CC70623B0000
310
00000000000000000000370000006662782F36394639363044362D344446342D343946362D394244322D3234314243333846323333332F617474726962757465732E62696E504B0304140006080800CC70623B08DA0BD19000000041010000360000006662782F36394639363044362D344446342D343946362D394244322D
310
3234314243333846323333332F6469726563746F72792E786D6C858F410AC3201045AF22B36F53E9A60B35CBEEBAE80D244E44489C6234F4F835464A48035D0DF398FF9F8AF63D0E6CC63039F212F8F9020C7D47C6792B21C5FE7403D62A1188E2E60C98D7234A5830286103A55745067B9D86B8A3CF9C7F90C11DE607FB14
310
4396D7B6A82D282E9A152AD114D5EF2CB866EEE831B8EEA07A7BB5A8D7D61A2BAAEB7FD5F70921FF497D00504B0304140006080800CC70623BCA768048FE000000A00100003B0000006662782F36394639363044362D344446342D343946362D394244322D3234314243333846323333332F7265736F75726365732F636F72
310
652E786D6C8D50596E833010BD0A9ADFCA60D600328E9AA639412F609909B1126CE4A5EAF16B0295DABFFECC8CDEA2797AECF8353F924FB44E193D409E5248504B332A3D0D10FC95B4901C39B3C6F85F3248B49871801506CE266BC2B243D2688FDA47549B11775038871E12F988C7004EDE7016A9083E2ADC3D5D84BC8B09
310
D33C8D74D471E6BC8D0192EDC93A815B742658898E651BCB59086ADC356A8C3FD555A1055ED7E7E254D615792D0F075295F585746FF53B694EE78A565DD736979A65AB9933AFE69F8CD2A2F038022F28ED489E135A7CE4554F9BBEA85E68DB53CAB255FEC71496F19FA6A0B42F8B3DEE6673C0F318E4497096AD7DC5F52C33
310
EEB55BFE0D504B010214000A0000080000CC70623B3DEE336E79000000790000001B00000000000000000000000000000000006175746F6465736B2D64657369676E2D7061636B6167652E786D6C504B01021400140006080800CC70623BD486FD9CA0000000F40000001300000000000000000000000000B20000005B436F
310
6E74656E745F54797065735D2E786D6C504B01021400140006080800CC70623BD9DDAED0EC0000007C010000080000000000000000000000000083010000636F72652E786D6C504B01021400140006080800CC70623B55019EA25F0000007C000000070000000000000000000000000095020000636E782E786D6C504B0102
310
1400140006080800CC70623BA24EB22D72010000D40300000C00000000000000000000000000190300006662782F636F72652E786D6C504B01021400140006080800CC70623B408A7D3B7C0000009D0000000B00000000000000000000000000B50400006662782F636E782E786D6C504B01021400140006080800CC70623B
310
449FB9BD290100001202000031000000000000000000000000005A0500006662782F36394639363044362D344446342D343946362D394244322D3234314243333846323333332F636F72652E786D6C504B01021400140006080800CC70623BAD7543B64E010000330300003000000000000000000000000000D20600006662
310
782F36394639363044362D344446342D343946362D394244322D3234314243333846323333332F636E782E786D6C504B01021400140006080800CC70623B8D05915C650500003B10000034000000000000000000000000006E0800006662782F36394639363044362D344446342D343946362D394244322D32343142433338
310
46323333332F6F626A656374732E786D6C504B01021400140006080000CC70623B0000000000000000000000003500000000000000000000000000250E00006662782F36394639363044362D344446342D343946362D394244322D3234314243333846323333332F76657274696365732E62696E504B010214001400060808
310
00CC70623BF270F13306000000040000003600000000000000000000000000780E00006662782F36394639363044362D344446342D343946362D394244322D3234314243333846323333332F747269616E676C65732E62696E504B01021400140006080000CC70623B00000000000000000000000037000000000000000000
310
00000000D20E00006662782F36394639363044362D344446342D343946362D394244322D3234314243333846323333332F617474726962757465732E62696E504B01021400140006080800CC70623B08DA0BD190000000410100003600000000000000000000000000270F00006662782F36394639363044362D344446342D
310
343946362D394244322D3234314243333846323333332F6469726563746F72792E786D6C504B01021400140006080800CC70623BCA768048FE000000A00100003B000000000000000000000000000B1000006662782F36394639363044362D344446342D343946362D394244322D3234314243333846323333332F7265736F
310
75726365732F636F72652E786D6C504B0506000000000E000E0080040000621100000000
  0
XRECORD
  5
12
102
{ACAD_REACTORS
330
D
102
}
330
D
100
AcDbXrecord
280
     1
270
     1
271
     1
  0
XRECORD
  5
13
102
{ACAD_REACTORS
330
D
102
}
330
D
100
AcDbXrecord
280
     1
270
     1
271
     1
  0
CELLSTYLEMAP
  5
413
102
{ACAD_REACTORS
330
48
102
}
330
48
100
AcDbCellStyleMap
 90
        3
300
CELLSTYLE
  1
TABLEFORMAT_BEGIN
 90
        5
170
     1
 91
        0
 92
    32768
 62
   257
 93
        1
300
CONTENTFORMAT
  1
CONTENTFORMAT_BEGIN
 90
        0
 91
        0
 92
      512
 93
        0
300

 40
0.0
140
1.0
 94
        5
 62
     0
340
23
144
6.0
309
CONTENTFORMAT_END
171
     1
301
MARGIN
  1
CELLMARGIN_BEGIN
 40
1.5
 40
1.5
 40
1.5
 40
1.5
 40
0.18
 40
0.18
309
CELLMARGIN_END
 94
        6
 95
        1
302
GRIDFORMAT
  1
GRIDFORMAT_BEGIN
 90
        0
 91
        1
 62
     0
 92
       -2
340
26
 93
        0
 40
1.125
309
GRIDFORMAT_END
 95
        2
302
GRIDFORMAT
  1
GRIDFORMAT_BEGIN
 90
        0
 91
        1
 62
     0
 92
       -2
340
26
 93
        0
 40
1.125
309
GRIDFORMAT_END
 95
        4
302
GRIDFORMAT
  1
GRIDFORMAT_BEGIN
 90
        0
 91
        1
 62
     0
 92
       -2
340
26
 93
        0
 40
1.125
309
GRIDFORMAT_END
 95
        8
302
GRIDFORMAT
  1
GRIDFORMAT_BEGIN
 90
        0
 91
        1
 62
     0
 92
       -2
340
26
 93
        0
 40
1.125
309
GRIDFORMAT_END
 95
       16
302
GRIDFORMAT
  1
GRIDFORMAT_BEGIN
 90
        0
 91
        1
 62
     0
 92
       -2
340
26
 93
        0
 40
1.125
309
GRIDFORMAT_END
 95
       32
302
GRIDFORMAT
  1
GRIDFORMAT_BEGIN
 90
        0
 91
        1
 62
     0
 92
       -2
340
26
 93
        0
 40
1.125
309
GRIDFORMAT_END
309
TABLEFORMAT_END
  1
CELLSTYLE_BEGIN
 90
        1
 91
        1
300
_TITLE
309
CELLSTYLE_END
300
CELLSTYLE
  1
TABLEFORMAT_BEGIN
 90
        5
170
     1
 91
        0
 92
        0
 62
   257
 93
        1
300
CONTENTFORMAT
  1
CONTENTFORMAT_BEGIN
 90
        0
 91
        0
 92
      512
 93
        0
300

 40
0.0
140
1.0
 94
        5
 62
     0
340
23
144
4.5
309
CONTENTFORMAT_END
171
     1
301
MARGIN
  1
CELLMARGIN_BEGIN
 40
1.5
 40
1.5
 40
1.5
 40
1.5
 40
0.18
 40
0.18
309
CELLMARGIN_END
 94
        6
 95
        1
302
GRIDFORMAT
  1
GRIDFORMAT_BEGIN
 90
        0
 91
        1
 62
     0
 92
       -2
340
26
 93
        0
 40
1.125
309
GRIDFORMAT_END
 95
        2
302
GRIDFORMAT
  1
GRIDFORMAT_BEGIN
 90
        0
 91
        1
 62
     0
 92
       -2
340
26
 93
        0
 40
1.125
309
GRIDFORMAT_END
 95
        4
302
GRIDFORMAT
  1
GRIDFORMAT_BEGIN
 90
        0
 91
        1
 62
     0
 92
       -2
340
26
 93
        0
 40
1.125
309
GRIDFORMAT_END
 95
        8
302
GRIDFORMAT
  1
GRIDFORMAT_BEGIN
 90
        0
 91
        1
 62
     0
 92
       -2
340
26
 93
        0
 40
1.125
309
GRIDFORMAT_END
 95
       16
302
GRIDFORMAT
  1
GRIDFORMAT_BEGIN
 90
        0
 91
        1
 62
     0
 92
       -2
340
26
 93
        0
 40
1.125
309
GRIDFORMAT_END
 95
       32
302
GRIDFORMAT
  1
GRIDFORMAT_BEGIN
 90
        0
 91
        1
 62
     0
 92
       -2
340
26
 93
        0
 40
1.125
309
GRIDFORMAT_END
309
TABLEFORMAT_END
  1
CELLSTYLE_BEGIN
 90
        2
 91
        1
300
_HEADER
309
CELLSTYLE_END
300
CELLSTYLE
  1
TABLEFORMAT_BEGIN
 90
        5
170
     1
 91
        0
 92
        0
 62
   257
 93
        1
300
CONTENTFORMAT
  1
CONTENTFORMAT_BEGIN
 90
        0
 91
        0
 92
      512
 93
        0
300

 40
0.0
140
1.0
 94
        2
 62
     0
340
23
144
4.5
309
CONTENTFORMAT_END
171
     1
301
MARGIN
  1
CELLMARGIN_BEGIN
 40
1.5
 40
1.5
 40
1.5
 40
1.5
 40
0.18
 40
0.18
309
CELLMARGIN_END
 94
        6
 95
        1
302
GRIDFORMAT
  1
GRIDFORMAT_BEGIN
 90
        0
 91
        1
 62
     0
 92
       -2
340
26
 93
        0
 40
1.125
309
GRIDFORMAT_END
 95
        2
302
GRIDFORMAT
  1
GRIDFORMAT_BEGIN
 90
        0
 91
        1
 62
     0
 92
       -2
340
26
 93
        0
 40
1.125
309
GRIDFORMAT_END
 95
        4
302
GRIDFORMAT
  1
GRIDFORMAT_BEGIN
 90
        0
 91
        1
 62
     0
 92
       -2
340
26
 93
        0
 40
1.125
309
GRIDFORMAT_END
 95
        8
302
GRIDFORMAT
  1
GRIDFORMAT_BEGIN
 90
        0
 91
        1
 62
     0
 92
       -2
340
26
 93
        0
 40
1.125
309
GRIDFORMAT_END
 95
       16
302
GRIDFORMAT
  1
GRIDFORMAT_BEGIN
 90
        0
 91
        1
 62
     0
 92
       -2
340
26
 93
        0
 40
1.125
309
GRIDFORMAT_END
 95
       32
302
GRIDFORMAT
  1
GRIDFORMAT_BEGIN
 90
        0
 91
        1
 62
     0
 92
       -2
340
26
 93
        0
 40
1.125
309
GRIDFORMAT_END
309
TABLEFORMAT_END
  1
CELLSTYLE_BEGIN
 90
        3
 91
        2
300
_DATA
309
CELLSTYLE_END
  0
XRECORD
  5
41F
102
{ACAD_REACTORS
330
48
102
}
330
48
100
AcDbXrecord
280
     1
102
ACAD_ROUNDTRIP_PRE2007_TABLESTYLE
 90
      512
 91
        0
  1

 92
      512
 93
        0
  2

 94
      512
 95
        0
  3

  0
XRECORD
  5
41E
102
{ACAD_REACTORS
330
41D
102
}
330
41D
100
AcDbXrecord
280
     1
102
RTVSPost2010Prop28
280
     1
102
RTVSPost2010PropOp28
 70
     1
102
RTVSPost2010Prop29
280
     1
102
RTVSPost2010PropOp29
 70
     1
102
RTVSPost2010Prop30
280
     0
102
RTVSPost2010PropOp30
 70
     1
102
RTVSPost2010Prop31
280
     0
102
RTVSPost2010PropOp31
 70
     1
102
RTVSPost2010Prop32
280
     0
102
RTVSPost2010PropOp32
 70
     1
102
RTVSPost2010Prop33
280
     0
102
RTVSPost2010PropOp33
 70
     1
102
RTVSPost2010Prop34
280
     0
102
RTVSPost2010PropOp34
 70
     1
102
RTVSPost2010Prop35
280
     0
102
RTVSPost2010PropOp35
 70
     1
102
RTVSPost2010Prop36
280
     0
102
RTVSPost2010PropOp36
 70
     1
102
RTVSPost2010Prop37
 90
       50
102
RTVSPost2010PropOp37
 70
     1
102
RTVSPost2010Prop38
140
0.0
102
RTVSPost2010PropOp38
 70
     1
102
RTVSPost2010Prop39
140
1.0
102
RTVSPost2010PropOp39
 70
     1
102
RTVSPost2010Prop40
 90
        0
102
RTVSPost2010PropOp40
 70
     1
102
RTVSPost2010Prop41ColorIndex
 90
       18
102
RTVSPost2010Prop41ColorRGB
 90
        0
102
RTVSPost2010PropOp41
 70
     1
102
RTVSPost2010Prop42
 90
       50
102
RTVSPost2010PropOp42
 70
     1
102
RTVSPost2010Prop43
 90
        3
102
RTVSPost2010PropOp43
 70
     1
102
RTVSPost2010Prop44ColorIndex
 90
        5
102
RTVSPost2010Prop44ColorRGB
 90
      255
102
RTVSPost2010PropOp44
 70
     1
102
RTVSPost2010Prop45
280
     0
102
RTVSPost2010PropOp45
 70
     1
102
RTVSPost2010Prop46
 90
       50
102
RTVSPost2010PropOp46
 70
     1
102
RTVSPost2010Prop47
 90
       50
102
RTVSPost2010PropOp47
 70
     1
102
RTVSPost2010Prop48
 90
       50
102
RTVSPost2010PropOp48
 70
     1
102
RTVSPost2010Prop49
280
     0
102
RTVSPost2010PropOp49
 70
     1
102
RTVSPost2010Prop50
 90
       50
102
RTVSPost2010PropOp50
 70
     1
102
RTVSPost2010Prop51ColorIndex
 90
      256
102
RTVSPost2010Prop51ColorRGB
 90
-16777216
102
RTVSPost2010PropOp51
 70
     0
102
RTVSPost2010Prop52
140
1.0
102
RTVSPost2010PropOp52
 70
     0
102
RTVSPost2010Prop53
 90
        2
102
RTVSPost2010PropOp53
 70
     1
102
RTVSPost2010Prop54
  1
strokes_ogs.tif
102
RTVSPost2010PropOp54
 70
     1
102
RTVSPost2010Prop55
280
     0
102
RTVSPost2010PropOp55
 70
     1
102
RTVSPost2010Prop56
140
1.0
102
RTVSPost2010PropOp56
 70
     1
102
RTVSPost2010Prop57
140
1.0
102
RTVSPost2010PropOp57
 70
     1
102
RTVSPropertyOp0
 70
     1
102
RTVSPropertyOp1
 70
     1
102
RTVSPropertyOp2
 70
     1
102
RTVSPropertyOp3
 70
     1
102
RTVSPropertyOp4
 70
     1
102
RTVSPropertyOp5
 70
     1
102
RTVSPropertyOp6
 70
     1
102
RTVSPropertyOp7
 70
     1
102
RTVSPropertyOp8
 70
     1
102
RTVSPropertyOp9
 70
     1
102
RTVSPropertyOp10
 70
     1
102
RTVSPropertyOp11
 70
     1
102
RTVSPropertyOp12
 70
     1
102
RTVSPropertyOp13
 70
     1
102
RTVSPropertyOp14
 70
     1
102
RTVSPropertyOp15
 70
     1
102
RTVSPropertyOp16
 70
     1
102
RTVSPropertyOp17
 70
     1
102
RTVSPropertyOp18
 70
     1
102
RTVSPropertyOp19
 70
     1
102
RTVSPropertyOp20
 70
     1
102
RTVSPropertyOp21
 70
     1
102
RTVSPropertyOp22
 70
     1
102
RTVSPropertyOp23
 70
     1
102
RTVSPropertyOp24
 70
     1
102
RTVSPropertyOp25
 70
     1
102
RTVSPropertyOp26
 70
     1
102
RTVSPropertyOp27
 70
     1
102
RTVSPropertyOp28
 70
     1
102
RTVSPropertyOp29
 70
     1
102
RTVSPropertyOp30
 70
     1
102
RTVSPropertyOp31
 70
     1
102
RTVSPropertyOp32
 70
     1
102
RTVSPropertyOp33
 70
     1
102
RTVSPropertyOp34
 70
     1
102
RTVSPropertyOp35
 70
     1
102
RTVSPropertyOp36
 70
     1
102
RTVSPropertyOp37
 70
     1
102
RTVSPropertyOp38
 70
     1
102
RTVSPropertyOp39
 70
     1
102
RTVSPropertyOp40
 70
     1
102
RTVSPropertyOp41
 70
     1
102
RTVSPropertyOp42
 70
     1
102
RTVSPropertyOp43
 70
     1
102
RTVSPropertyOp44
 70
     1
102
RTVSPropertyOp45
 70
     1
102
RTVSPropertyOp46
 70
     1
102
RTVSPropertyOp47
 70
     1
102
RTVSPropertyOp48
 70
     1
102
RTVSPropertyOp49
 70
     1
102
RTVSPropertyOp50
 70
     1
102
RTVSPropertyOp51
 70
     0
102
RTVSPropertyOp52
 70
     0
102
RTVSPropertyOp53
 70
     1
102
RTVSPropertyOp54
 70
     1
102
RTVSPropertyOp55
 70
     1
102
RTVSPropertyOp56
 70
     1
102
RTVSPropertyOp57
 70
     1
102
RTVSPropertyOp58
 70
     1
102
RTVSPropertyOp59
 70
     1
102
RTVSPropertyOp60
 70
     1
102
RTVSPropertyOp61
 70
     1
102
RTVSPropertyOp62
 70
     1
  0
XRECORD
  5
421
102
{ACAD_REACTORS
330
420
102
}
330
420
100
AcDbXrecord
280
     1
102
RTVSPost2010Prop28
280
     0
102
RTVSPost2010PropOp28
 70
     1
102
RTVSPost2010Prop29
280
     1
102
RTVSPost2010PropOp29
 70
     1
102
RTVSPost2010Prop30
280
     1
102
RTVSPost2010PropOp30
 70
     1
102
RTVSPost2010Prop31
280
     0
102
RTVSPost2010PropOp31
 70
     1
102
RTVSPost2010Prop32
280
     0
102
RTVSPost2010PropOp32
 70
     1
102
RTVSPost2010Prop33
280
     0
102
RTVSPost2010PropOp33
 70
     1
102
RTVSPost2010Prop34
280
     0
102
RTVSPost2010PropOp34
 70
     1
102
RTVSPost2010Prop35
280
     0
102
RTVSPost2010PropOp35
 70
     1
102
RTVSPost2010Prop36
280
     0
102
RTVSPost2010PropOp36
 70
     1
102
RTVSPost2010Prop37
 90
       50
102
RTVSPost2010PropOp37
 70
     1
102
RTVSPost2010Prop38
140
0.0
102
RTVSPost2010PropOp38
 70
     1
102
RTVSPost2010Prop39
140
1.0
102
RTVSPost2010PropOp39
 70
     1
102
RTVSPost2010Prop40
 90
        0
102
RTVSPost2010PropOp40
 70
     1
102
RTVSPost2010Prop41ColorIndex
 90
       18
102
RTVSPost2010Prop41ColorRGB
 90
        0
102
RTVSPost2010PropOp41
 70
     1
102
RTVSPost2010Prop42
 90
       50
102
RTVSPost2010PropOp42
 70
     1
102
RTVSPost2010Prop43
 90
        3
102
RTVSPost2010PropOp43
 70
     1
102
RTVSPost2010Prop44ColorIndex
 90
        5
102
RTVSPost2010Prop44ColorRGB
 90
      255
102
RTVSPost2010PropOp44
 70
     1
102
RTVSPost2010Prop45
280
     0
102
RTVSPost2010PropOp45
 70
     1
102
RTVSPost2010Prop46
 90
       50
102
RTVSPost2010PropOp46
 70
     1
102
RTVSPost2010Prop47
 90
       50
102
RTVSPost2010PropOp47
 70
     1
102
RTVSPost2010Prop48
 90
       50
102
RTVSPost2010PropOp48
 70
     1
102
RTVSPost2010Prop49
280
     0
102
RTVSPost2010PropOp49
 70
     1
102
RTVSPost2010Prop50
 90
       50
102
RTVSPost2010PropOp50
 70
     1
102
RTVSPost2010Prop51ColorIndex
 90
      256
102
RTVSPost2010Prop51ColorRGB
 90
-16777216
102
RTVSPost2010PropOp51
 70
     0
102
RTVSPost2010Prop52
140
1.0
102
RTVSPost2010PropOp52
 70
     0
102
RTVSPost2010Prop53
 90
        2
102
RTVSPost2010PropOp53
 70
     1
102
RTVSPost2010Prop54
  1
strokes_ogs.tif
102
RTVSPost2010PropOp54
 70
     1
102
RTVSPost2010Prop55
280
     0
102
RTVSPost2010PropOp55
 70
     1
102
RTVSPost2010Prop56
140
1.0
102
RTVSPost2010PropOp56
 70
     1
102
RTVSPost2010Prop57
140
1.0
102
RTVSPost2010PropOp57
 70
     1
102
RTVSPropertyOp0
 70
     1
102
RTVSPropertyOp1
 70
     1
102
RTVSPropertyOp2
 70
     1
102
RTVSPropertyOp3
 70
     1
102
RTVSPropertyOp4
 70
     1
102
RTVSPropertyOp5
 70
     1
102
RTVSPropertyOp6
 70
     1
102
RTVSPropertyOp7
 70
     1
102
RTVSPropertyOp8
 70
     1
102
RTVSPropertyOp9
 70
     1
102
RTVSPropertyOp10
 70
     1
102
RTVSPropertyOp11
 70
     1
102
RTVSPropertyOp12
 70
     1
102
RTVSPropertyOp13
 70
     1
102
RTVSPropertyOp14
 70
     1
102
RTVSPropertyOp15
 70
     1
102
RTVSPropertyOp16
 70
     1
102
RTVSPropertyOp17
 70
     1
102
RTVSPropertyOp18
 70
     1
102
RTVSPropertyOp19
 70
     1
102
RTVSPropertyOp20
 70
     1
102
RTVSPropertyOp21
 70
     1
102
RTVSPropertyOp22
 70
     1
102
RTVSPropertyOp23
 70
     1
102
RTVSPropertyOp24
 70
     1
102
RTVSPropertyOp25
 70
     1
102
RTVSPropertyOp26
 70
     1
102
RTVSPropertyOp27
 70
     1
102
RTVSPropertyOp28
 70
     1
102
RTVSPropertyOp29
 70
     1
102
RTVSPropertyOp30
 70
     1
102
RTVSPropertyOp31
 70
     1
102
RTVSPropertyOp32
 70
     1
102
RTVSPropertyOp33
 70
     1
102
RTVSPropertyOp34
 70
     1
102
RTVSPropertyOp35
 70
     1
102
RTVSPropertyOp36
 70
     1
102
RTVSPropertyOp37
 70
     1
102
RTVSPropertyOp38
 70
     1
102
RTVSPropertyOp39
 70
     1
102
RTVSPropertyOp40
 70
     1
102
RTVSPropertyOp41
 70
     1
102
RTVSPropertyOp42
 70
     1
102
RTVSPropertyOp43
 70
     1
102
RTVSPropertyOp44
 70
     1
102
RTVSPropertyOp45
 70
     1
102
RTVSPropertyOp46
 70
     1
102
RTVSPropertyOp47
 70
     1
102
RTVSPropertyOp48
 70
     1
102
RTVSPropertyOp49
 70
     1
102
RTVSPropertyOp50
 70
     1
102
RTVSPropertyOp51
 70
     0
102
RTVSPropertyOp52
 70
     0
102
RTVSPropertyOp53
 70
     1
102
RTVSPropertyOp54
 70
     1
102
RTVSPropertyOp55
 70
     1
102
RTVSPropertyOp56
 70
     1
102
RTVSPropertyOp57
 70
     1
102
RTVSPropertyOp58
 70
     1
102
RTVSPropertyOp59
 70
     1
102
RTVSPropertyOp60
 70
     1
102
RTVSPropertyOp61
 70
     1
102
RTVSPropertyOp62
 70
     1
  0
XRECORD
  5
423
102
{ACAD_REACTORS
330
422
102
}
330
422
100
AcDbXrecord
280
     1
102
RTVSPost2010Prop28
280
     0
102
RTVSPost2010PropOp28
 70
     1
102
RTVSPost2010Prop29
280
     1
102
RTVSPost2010PropOp29
 70
     1
102
RTVSPost2010Prop30
280
     1
102
RTVSPost2010PropOp30
 70
     1
102
RTVSPost2010Prop31
280
     0
102
RTVSPost2010PropOp31
 70
     1
102
RTVSPost2010Prop32
280
     0
102
RTVSPost2010PropOp32
 70
     1
102
RTVSPost2010Prop33
280
     0
102
RTVSPost2010PropOp33
 70
     1
102
RTVSPost2010Prop34
280
     0
102
RTVSPost2010PropOp34
 70
     1
102
RTVSPost2010Prop35
280
     0
102
RTVSPost2010PropOp35
 70
     1
102
RTVSPost2010Prop36
280
     0
102
RTVSPost2010PropOp36
 70
     1
102
RTVSPost2010Prop37
 90
       50
102
RTVSPost2010PropOp37
 70
     1
102
RTVSPost2010Prop38
140
0.0
102
RTVSPost2010PropOp38
 70
     1
102
RTVSPost2010Prop39
140
1.0
102
RTVSPost2010PropOp39
 70
     1
102
RTVSPost2010Prop40
 90
        0
102
RTVSPost2010PropOp40
 70
     1
102
RTVSPost2010Prop41ColorIndex
 90
       18
102
RTVSPost2010Prop41ColorRGB
 90
        0
102
RTVSPost2010PropOp41
 70
     1
102
RTVSPost2010Prop42
 90
       50
102
RTVSPost2010PropOp42
 70
     1
102
RTVSPost2010Prop43
 90
        3
102
RTVSPost2010PropOp43
 70
     1
102
RTVSPost2010Prop44ColorIndex
 90
        5
102
RTVSPost2010Prop44ColorRGB
 90
      255
102
RTVSPost2010PropOp44
 70
     1
102
RTVSPost2010Prop45
280
     0
102
RTVSPost2010PropOp45
 70
     1
102
RTVSPost2010Prop46
 90
       50
102
RTVSPost2010PropOp46
 70
     1
102
RTVSPost2010Prop47
 90
       50
102
RTVSPost2010PropOp47
 70
     1
102
RTVSPost2010Prop48
 90
       50
102
RTVSPost2010PropOp48
 70
     1
102
RTVSPost2010Prop49
280
     0
102
RTVSPost2010PropOp49
 70
     1
102
RTVSPost2010Prop50
 90
       50
102
RTVSPost2010PropOp50
 70
     1
102
RTVSPost2010Prop51ColorIndex
 90
      256
102
RTVSPost2010Prop51ColorRGB
 90
-16777216
102
RTVSPost2010PropOp51
 70
     0
102
RTVSPost2010Prop52
140
1.0
102
RTVSPost2010PropOp52
 70
     0
102
RTVSPost2010Prop53
 90
        2
102
RTVSPost2010PropOp53
 70
     1
102
RTVSPost2010Prop54
  1
strokes_ogs.tif
102
RTVSPost2010PropOp54
 70
     1
102
RTVSPost2010Prop55
280
     0
102
RTVSPost2010PropOp55
 70
     1
102
RTVSPost2010Prop56
140
1.0
102
RTVSPost2010PropOp56
 70
     1
102
RTVSPost2010Prop57
140
1.0
102
RTVSPost2010PropOp57
 70
     1
102
RTVSPropertyOp0
 70
     1
102
RTVSPropertyOp1
 70
     1
102
RTVSPropertyOp2
 70
     1
102
RTVSPropertyOp3
 70
     1
102
RTVSPropertyOp4
 70
     1
102
RTVSPropertyOp5
 70
     1
102
RTVSPropertyOp6
 70
     1
102
RTVSPropertyOp7
 70
     1
102
RTVSPropertyOp8
 70
     1
102
RTVSPropertyOp9
 70
     1
102
RTVSPropertyOp10
 70
     1
102
RTVSPropertyOp11
 70
     1
102
RTVSPropertyOp12
 70
     1
102
RTVSPropertyOp13
 70
     1
102
RTVSPropertyOp14
 70
     1
102
RTVSPropertyOp15
 70
     1
102
RTVSPropertyOp16
 70
     1
102
RTVSPropertyOp17
 70
     1
102
RTVSPropertyOp18
 70
     1
102
RTVSPropertyOp19
 70
     1
102
RTVSPropertyOp20
 70
     1
102
RTVSPropertyOp21
 70
     1
102
RTVSPropertyOp22
 70
     1
102
RTVSPropertyOp23
 70
     1
102
RTVSPropertyOp24
 70
     1
102
RTVSPropertyOp25
 70
     1
102
RTVSPropertyOp26
 70
     1
102
RTVSPropertyOp27
 70
     1
102
RTVSPropertyOp28
 70
     1
102
RTVSPropertyOp29
 70
     1
102
RTVSPropertyOp30
 70
     1
102
RTVSPropertyOp31
 70
     1
102
RTVSPropertyOp32
 70
     1
102
RTVSPropertyOp33
 70
     1
102
RTVSPropertyOp34
 70
     1
102
RTVSPropertyOp35
 70
     1
102
RTVSPropertyOp36
 70
     1
102
RTVSPropertyOp37
 70
     1
102
RTVSPropertyOp38
 70
     1
102
RTVSPropertyOp39
 70
     1
102
RTVSPropertyOp40
 70
     1
102
RTVSPropertyOp41
 70
     1
102
RTVSPropertyOp42
 70
     1
102
RTVSPropertyOp43
 70
     1
102
RTVSPropertyOp44
 70
     1
102
RTVSPropertyOp45
 70
     1
102
RTVSPropertyOp46
 70
     1
102
RTVSPropertyOp47
 70
     1
102
RTVSPropertyOp48
 70
     1
102
RTVSPropertyOp49
 70
     1
102
RTVSPropertyOp50
 70
     1
102
RTVSPropertyOp51
 70
     0
102
RTVSPropertyOp52
 70
     0
102
RTVSPropertyOp53
 70
     1
102
RTVSPropertyOp54
 70
     1
102
RTVSPropertyOp55
 70
     1
102
RTVSPropertyOp56
 70
     1
102
RTVSPropertyOp57
 70
     1
102
RTVSPropertyOp58
 70
     1
102
RTVSPropertyOp59
 70
     1
102
RTVSPropertyOp60
 70
     1
102
RTVSPropertyOp61
 70
     1
102
RTVSPropertyOp62
 70
     1
  0
ENDSEC
  0
EOF
