  0
SECTION
  2
HEADER
  9
$ACADVER
  1
AC1018
  9
$ACADMAINTVER
 70
   104
  9
$DWGCODEPAGE
  3
ANSI_932
  9
$INSBASE
 10
0.0
 20
0.0
 30
0.0
  9
$EXTMIN
 10
2.023445422272644
 20
1.476917822973831
 30
-0.0000000349181948
  9
$EXTMAX
 10
52.02974602100659
 20
22.8769969643362
 30
0.0000000814935747
  9
$LIMMIN
 10
-5.82188290986221
 20
-5.877871485390073
  9
$LIMMAX
 10
58.71257376236724
 20
26.61654454317233
  9
$ORTHOMODE
 70
     0
  9
$REGENMODE
 70
     1
  9
$FILLMODE
 70
     1
  9
$QTEXTMODE
 70
     0
  9
$MIRRTEXT
 70
     0
  9
$LTSCALE
 40
1.0
  9
$ATTMODE
 70
     1
  9
$TEXTSIZE
 40
2.5
  9
$TRACEWID
 40
1.0
  9
$TEXTSTYLE
  7
Standard
  9
$CLAYER
  8
0
  9
$CELTYPE
  6
ByLayer
  9
$CECOLOR
 62
   256
  9
$CELTSCALE
 40
1.0
  9
$DISPSILH
 70
     0
  9
$DIMSCALE
 40
1.0
  9
$DIMASZ
 40
2.5
  9
$DIMEXO
 40
0.625
  9
$DIMDLI
 40
3.75
  9
$DIMRND
 40
0.0
  9
$DIMDLE
 40
0.0
  9
$DIMEXE
 40
1.25
  9
$DIMTP
 40
0.0
  9
$DIMTM
 40
0.0
  9
$DIMTXT
 40
2.5
  9
$DIMCEN
 40
2.5
  9
$DIMTSZ
 40
0.0
  9
$DIMTOL
 70
     0
  9
$DIMLIM
 70
     0
  9
$DIMTIH
 70
     0
  9
$DIMTOH
 70
     0
  9
$DIMSE1
 70
     0
  9
$DIMSE2
 70
     0
  9
$DIMTAD
 70
     1
  9
$DIMZIN
 70
     8
  9
$DIMBLK
  1

  9
$DIMASO
 70
     1
  9
$DIMSHO
 70
     1
  9
$DIMPOST
  1

  9
$DIMAPOST
  1

  9
$DIMALT
 70
     0
  9
$DIMALTD
 70
     3
  9
$DIMALTF
 40
0.03937007874016
  9
$DIMLFAC
 40
1.0
  9
$DIMTOFL
 70
     1
  9
$DIMTVP
 40
0.0
  9
$DIMTIX
 70
     0
  9
$DIMSOXD
 70
     0
  9
$DIMSAH
 70
     0
  9
$DIMBLK1
  1

  9
$DIMBLK2
  1

  9
$DIMSTYLE
  2
ISO-25
  9
$DIMCLRD
 70
     0
  9
$DIMCLRE
 70
     0
  9
$DIMCLRT
 70
     0
  9
$DIMTFAC
 40
1.0
  9
$DIMGAP
 40
0.625
  9
$DIMJUST
 70
     0
  9
$DIMSD1
 70
     0
  9
$DIMSD2
 70
     0
  9
$DIMTOLJ
 70
     0
  9
$DIMTZIN
 70
     8
  9
$DIMALTZ
 70
     0
  9
$DIMALTTZ
 70
     0
  9
$DIMUPT
 70
     0
  9
$DIMDEC
 70
     2
  9
$DIMTDEC
 70
     2
  9
$DIMALTU
 70
     2
  9
$DIMALTTD
 70
     3
  9
$DIMTXSTY
  7
Standard
  9
$DIMAUNIT
 70
     0
  9
$DIMADEC
 70
     0
  9
$DIMALTRND
 40
0.0
  9
$DIMAZIN
 70
     0
  9
$DIMDSEP
 70
    44
  9
$DIMATFIT
 70
     3
  9
$DIMFRAC
 70
     0
  9
$DIMLDRBLK
  1

  9
$DIMLUNIT
 70
     2
  9
$DIMLWD
 70
    -2
  9
$DIMLWE
 70
    -2
  9
$DIMTMOVE
 70
     0
  9
$LUNITS
 70
     2
  9
$LUPREC
 70
     4
  9
$SKETCHINC
 40
1.0
  9
$FILLETRAD
 40
0.0
  9
$AUNITS
 70
     0
  9
$AUPREC
 70
     0
  9
$MENU
  1
.
  9
$ELEVATION
 40
0.0
  9
$PELEVATION
 40
0.0
  9
$THICKNESS
 40
0.0
  9
$LIMCHECK
 70
     0
  9
$CHAMFERA
 40
0.0
  9
$CHAMFERB
 40
0.0
  9
$CHAMFERC
 40
0.0
  9
$CHAMFERD
 40
0.0
  9
$SKPOLY
 70
     0
  9
$TDCREATE
 40
2458206.677268519
  9
$TDUCREATE
 40
2458206.343935185
  9
$TDUPDATE
 40
2458940.381354167
  9
$TDUUPDATE
 40
2458940.048020833
  9
$TDINDWG
 40
0.0092361111
  9
$TDUSRTIMER
 40
0.0092361111
  9
$USRTIMER
 70
     1
  9
$ANGBASE
 50
0.0
  9
$ANGDIR
 70
     0
  9
$PDMODE
 70
     0
  9
$PDSIZE
 40
0.0
  9
$PLINEWID
 40
0.0
  9
$SPLFRAME
 70
     0
  9
$SPLINETYPE
 70
     6
  9
$SPLINESEGS
 70
     8
  9
$HANDSEED
  5
3A6
  9
$SURFTAB1
 70
     6
  9
$SURFTAB2
 70
     6
  9
$SURFTYPE
 70
     6
  9
$SURFU
 70
     6
  9
$SURFV
 70
     6
  9
$UCSBASE
  2

  9
$UCSNAME
  2

  9
$UCSORG
 10
0.0
 20
0.0
 30
0.0
  9
$UCSXDIR
 10
1.0
 20
0.0
 30
0.0
  9
$UCSYDIR
 10
0.0
 20
1.0
 30
0.0
  9
$UCSORTHOREF
  2

  9
$UCSORTHOVIEW
 70
     0
  9
$UCSORGTOP
 10
0.0
 20
0.0
 30
0.0
  9
$UCSORGBOTTOM
 10
0.0
 20
0.0
 30
0.0
  9
$UCSORGLEFT
 10
0.0
 20
0.0
 30
0.0
  9
$UCSORGRIGHT
 10
0.0
 20
0.0
 30
0.0
  9
$UCSORGFRONT
 10
0.0
 20
0.0
 30
0.0
  9
$UCSORGBACK
 10
0.0
 20
0.0
 30
0.0
  9
$PUCSBASE
  2

  9
$PUCSNAME
  2

  9
$PUCSORG
 10
0.0
 20
0.0
 30
0.0
  9
$PUCSXDIR
 10
1.0
 20
0.0
 30
0.0
  9
$PUCSYDIR
 10
0.0
 20
1.0
 30
0.0
  9
$PUCSORTHOREF
  2

  9
$PUCSORTHOVIEW
 70
     0
  9
$PUCSORGTOP
 10
0.0
 20
0.0
 30
0.0
  9
$PUCSORGBOTTOM
 10
0.0
 20
0.0
 30
0.0
  9
$PUCSORGLEFT
 10
0.0
 20
0.0
 30
0.0
  9
$PUCSORGRIGHT
 10
0.0
 20
0.0
 30
0.0
  9
$PUCSORGFRONT
 10
0.0
 20
0.0
 30
0.0
  9
$PUCSORGBACK
 10
0.0
 20
0.0
 30
0.0
  9
$USERI1
 70
     0
  9
$USERI2
 70
     0
  9
$USERI3
 70
     0
  9
$USERI4
 70
     0
  9
$USERI5
 70
     0
  9
$USERR1
 40
0.0
  9
$USERR2
 40
0.0
  9
$USERR3
 40
0.0
  9
$USERR4
 40
0.0
  9
$USERR5
 40
0.0
  9
$WORLDVIEW
 70
     1
  9
$SHADEDGE
 70
     3
  9
$SHADEDIF
 70
    70
  9
$TILEMODE
 70
     1
  9
$MAXACTVP
 70
    64
  9
$PINSBASE
 10
0.0
 20
0.0
 30
0.0
  9
$PLIMCHECK
 70
     0
  9
$PEXTMIN
 10
0.0
 20
0.0
 30
0.0
  9
$PEXTMAX
 10
0.0
 20
0.0
 30
0.0
  9
$PLIMMIN
 10
0.0
 20
0.0
  9
$PLIMMAX
 10
12.0
 20
9.0
  9
$UNITMODE
 70
     0
  9
$VISRETAIN
 70
     1
  9
$PLINEGEN
 70
     0
  9
$PSLTSCALE
 70
     1
  9
$TREEDEPTH
 70
  3020
  9
$CMLSTYLE
  2
Standard
  9
$CMLJUST
 70
     0
  9
$CMLSCALE
 40
20.0
  9
$PROXYGRAPHICS
 70
     1
  9
$MEASUREMENT
 70
     1
  9
$CELWEIGHT
370
    -1
  9
$ENDCAPS
280
     0
  9
$JOINSTYLE
280
     0
  9
$LWDISPLAY
290
     0
  9
$INSUNITS
 70
     4
  9
$HYPERLINKBASE
  1

  9
$STYLESHEET
  1

  9
$XEDIT
290
     1
  9
$CEPSNTYPE
380
     0
  9
$PSTYLEMODE
290
     1
  9
$FINGERPRINTGUID
  2
{8EA3B412-06F3-AC41-BA54-8B41DDA06C8B}
  9
$VERSIONGUID
  2
{99EB9B7A-74A3-1446-855A-1ED6C7A7C287}
  9
$EXTNAMES
290
     1
  9
$PSVPSCALE
 40
0.0
  9
$OLESTARTUP
290
     0
  9
$SORTENTS
280
   127
  9
$INDEXCTL
280
     0
  9
$HIDETEXT
280
     1
  9
$XCLIPFRAME
290
     0
  9
$HALOGAP
280
     0
  9
$OBSCOLOR
 70
   257
  9
$OBSLTYPE
280
     0
  9
$INTERSECTIONDISPLAY
280
     0
  9
$INTERSECTIONCOLOR
 70
   257
  9
$DIMASSOC
280
     2
  9
$PROJECTNAME
  1

  0
ENDSEC
  0
SECTION
  2
CLASSES
  0
CLASS
  1
ACDBDICTIONARYWDFLT
  2
AcDbDictionaryWithDefault
  3
ObjectDBX Classes
 90
        0
 91
        1
280
     0
281
     0
  0
CLASS
  1
DICTIONARYVAR
  2
AcDbDictionaryVar
  3
ObjectDBX Classes
 90
        0
 91
       12
280
     0
281
     0
  0
CLASS
  1
TABLESTYLE
  2
AcDbTableStyle
  3
ObjectDBX Classes
 90
     4095
 91
        1
280
     0
281
     0
  0
CLASS
  1
MATERIAL
  2
AcDbMaterial
  3
ObjectDBX Classes
 90
     1153
 91
        3
280
     0
281
     0
  0
CLASS
  1
VISUALSTYLE
  2
AcDbVisualStyle
  3
ObjectDBX Classes
 90
     4095
 91
        3
280
     0
281
     0
  0
CLASS
  1
SCALE
  2
AcDbScale
  3
ObjectDBX Classes
 90
     1153
 91
       17
280
     0
281
     0
  0
CLASS
  1
MLEADERSTYLE
  2
AcDbMLeaderStyle
  3
ACDB_MLEADERSTYLE_CLASS
 90
     4095
 91
        0
280
     0
281
     0
  0
CLASS
  1
CELLSTYLEMAP
  2
AcDbCellStyleMap
  3
ObjectDBX Classes
 90
     1152
 91
        1
280
     0
281
     0
  0
CLASS
  1
EXACXREFPANELOBJECT
  2
ExAcXREFPanelObject
  3
EXAC_ESW
 90
     1025
 91
        0
280
     1
281
     0
  0
CLASS
  1
NPOCOLLECTION
  2
AcDbImpNonPersistentObjectsCollection
  3
ObjectDBX Classes
 90
     1153
 91
        0
280
     0
281
     0
  0
CLASS
  1
LAYER_INDEX
  2
AcDbLayerIndex
  3
ObjectDBX Classes
 90
        0
 91
        0
280
     0
281
     0
  0
CLASS
  1
SPATIAL_INDEX
  2
AcDbSpatialIndex
  3
ObjectDBX Classes
 90
        0
 91
        0
280
     0
281
     0
  0
CLASS
  1
IDBUFFER
  2
AcDbIdBuffer
  3
ObjectDBX Classes
 90
        0
 91
        0
280
     0
281
     0
  0
CLASS
  1
ACDBSECTIONVIEWSTYLE
  2
AcDbSectionViewStyle
  3
ObjectDBX Classes
 90
     1025
 91
        0
280
     0
281
     0
  0
CLASS
  1
ACDBDETAILVIEWSTYLE
  2
AcDbDetailViewStyle
  3
ObjectDBX Classes
 90
     1025
 91
        0
280
     0
281
     0
  0
CLASS
  1
SORTENTSTABLE
  2
AcDbSortentsTable
  3
ObjectDBX Classes
 90
        0
 91
        2
280
     0
281
     0
  0
CLASS
  1
DIMASSOC
  2
AcDbDimAssoc
  3
"AcDbDimAssoc|Product Desc:     AcDim ARX App For Dimension|Company:          Autodesk, Inc.|WEB Address:      www.autodesk.com"
 90
        0
 91
        0
280
     0
281
     0
  0
ENDSEC
  0
SECTION
  2
TABLES
  0
TABLE
  2
VPORT
  5
2A
330
0
100
AcDbSymbolTable
 70
     1
  0
VPORT
  5
2B
330
2A
100
AcDbSymbolTableRecord
100
AcDbViewportTableRecord
  2
*Active
 70
     0
 10
0.0
 20
0.0
 11
1.0
 21
1.0
 12
26.44534542625252
 22
10.36933652889112
 13
0.0
 23
0.0
 14
10.0
 24
10.0
 15
10.0
 25
10.0
 16
0.0
 26
0.0
 36
1.0
 17
0.0
 27
0.0
 37
0.0
 40
32.78759872957198
 41
2.396084337349397
 42
50.0
 43
0.0
 44
0.0
 50
0.0
 51
0.0
 71
     0
 72
  1000
 73
     1
 74
     3
 75
     0
 76
     1
 77
     0
 78
     0
281
     0
 65
     1
110
0.0
120
0.0
130
0.0
111
1.0
121
0.0
131
0.0
112
0.0
122
1.0
132
0.0
 79
     0
146
0.0
1001
ACAD_NAV_VCDISPLAY
1070
     3
  0
ENDTAB
  0
TABLE
  2
LTYPE
  5
25
330
0
100
AcDbSymbolTable
 70
     1
  0
LTYPE
  5
26
330
25
100
AcDbSymbolTableRecord
100
AcDbLinetypeTableRecord
  2
ByBlock
 70
     0
  3

 72
    65
 73
     0
 40
0.0
  0
LTYPE
  5
27
330
25
100
AcDbSymbolTableRecord
100
AcDbLinetypeTableRecord
  2
ByLayer
 70
     0
  3

 72
    65
 73
     0
 40
0.0
  0
LTYPE
  5
15
330
25
100
AcDbSymbolTableRecord
100
AcDbLinetypeTableRecord
  2
Continuous
 70
     0
  3
Solid line
 72
    65
 73
     0
 40
0.0
  0
ENDTAB
  0
TABLE
  2
LAYER
  5
1F
102
{ACAD_XDICTIONARY
360
20
102
}
330
0
100
AcDbSymbolTable
 70
     1
  0
LAYER
  5
6
102
{ACAD_XDICTIONARY
360
7
102
}
330
1F
100
AcDbSymbolTableRecord
100
AcDbLayerTableRecord
  2
0
 70
     0
 62
     7
  6
Continuous
370
    -3
390
8
  0
ENDTAB
  0
TABLE
  2
STYLE
  5
22
330
0
100
AcDbSymbolTable
 70
     1
  0
STYLE
  5
23
330
22
100
AcDbSymbolTableRecord
100
AcDbTextStyleTableRecord
  2
Standard
 70
     0
 40
0.0
 41
1.0
 50
0.0
 71
     0
 42
2.5
  3
arial.ttf
  4

1001
ACAD
1000
Arial
1071
       34
  0
ENDTAB
  0
TABLE
  2
VIEW
  5
28
330
0
100
AcDbSymbolTable
 70
     0
  0
ENDTAB
  0
TABLE
  2
UCS
  5
29
330
0
100
AcDbSymbolTable
 70
     0
  0
ENDTAB
  0
TABLE
  2
APPID
  5
2F
330
0
100
AcDbSymbolTable
 70
     6
  0
APPID
  5
14
330
2F
100
AcDbSymbolTableRecord
100
AcDbRegAppTableRecord
  2
ACAD
 70
     0
  0
APPID
  5
1A
330
2F
100
AcDbSymbolTableRecord
100
AcDbRegAppTableRecord
  2
ACAD_PSEXT
 70
     0
  0
APPID
  5
33
330
2F
100
AcDbSymbolTableRecord
100
AcDbRegAppTableRecord
  2
AcadAnnotative
 70
     0
  0
APPID
  5
34
330
2F
100
AcDbSymbolTableRecord
100
AcDbRegAppTableRecord
  2
ACAD_DSTYLE_DIMJAG
 70
     0
  0
APPID
  5
35
330
2F
100
AcDbSymbolTableRecord
100
AcDbRegAppTableRecord
  2
ACAD_DSTYLE_DIMTALN
 70
     0
  0
APPID
  5
2E
330
2F
100
AcDbSymbolTableRecord
100
AcDbRegAppTableRecord
  2
ACAD_NAV_VCDISPLAY
 70
     0
  0
ENDTAB
  0
TABLE
  2
DIMSTYLE
  5
30
330
0
100
AcDbSymbolTable
 70
     2
100
AcDbDimStyleTable
 71
     2
340
31
340
32
  0
DIMSTYLE
105
32
330
30
100
AcDbSymbolTableRecord
100
AcDbDimStyleTableRecord
  2
Annotative
 70
     0
 40
0.0
 41
2.5
 42
0.625
 43
3.75
 44
1.25
 73
     0
 74
     0
 77
     1
 78
     8
140
2.5
141
2.5
143
0.03937007874016
147
0.625
171
     3
172
     1
271
     2
272
     2
274
     3
278
    44
283
     0
284
     8
340
23
1001
AcadAnnotative
1000
AnnotativeData
1002
{
1070
     1
1070
     1
1002
}
1001
ACAD_DSTYLE_DIMJAG
1070
   388
1040
1.5
1001
ACAD_DSTYLE_DIMTALN
1070
   392
1070
     0
  0
DIMSTYLE
105
31
330
30
100
AcDbSymbolTableRecord
100
AcDbDimStyleTableRecord
  2
ISO-25
 70
     0
 41
2.5
 42
0.625
 43
3.75
 44
1.25
 73
     0
 74
     0
 77
     1
 78
     8
140
2.5
141
2.5
143
0.03937007874016
147
0.625
171
     3
172
     1
271
     2
272
     2
274
     3
278
    44
283
     0
284
     8
340
23
  0
ENDTAB
  0
TABLE
  2
BLOCK_RECORD
  5
1
330
0
100
AcDbSymbolTable
 70
     0
  0
BLOCK_RECORD
  5
2
102
{ACAD_XDICTIONARY
360
3
102
}
330
1
100
AcDbSymbolTableRecord
100
AcDbBlockTableRecord
  2
*Model_Space
340
17
  0
BLOCK_RECORD
  5
1B
330
1
100
AcDbSymbolTableRecord
100
AcDbBlockTableRecord
  2
*Paper_Space
340
1E
  0
ENDTAB
  0
ENDSEC
  0
SECTION
  2
BLOCKS
  0
BLOCK
  5
5
330
2
100
AcDbEntity
  8
0
100
AcDbBlockBegin
  2
*Model_Space
 70
     0
 10
0.0
 20
0.0
 30
0.0
  3
*Model_Space
  1

  0
ENDBLK
  5
16
330
2
100
AcDbEntity
  8
0
100
AcDbBlockEnd
  0
BLOCK
  5
1C
330
1B
100
AcDbEntity
 67
     1
  8
0
100
AcDbBlockBegin
  2
*Paper_Space
 70
     0
 10
0.0
 20
0.0
 30
0.0
  3
*Paper_Space
  1

  0
ENDBLK
  5
1D
330
1B
100
AcDbEntity
 67
     1
  8
0
100
AcDbBlockEnd
  0
ENDSEC
  0
SECTION
  2
ENTITIES
  0
LINE
  5
5C
330
2
100
AcDbEntity
  8
0
100
AcDbLine
 10
51.98345590625614
 20
18.15222754345731
 30
0.0
 11
50.99055086890788
 21
19.01210852934203
 31
0.0
  0
LINE
  5
5D
330
2
100
AcDbEntity
  8
0
100
AcDbLine
 10
33.45171169252031
 20
19.01210852934203
 30
0.0
 11
32.45880665517206
 21
18.15222754345731
 31
0.0
  0
LINE
  5
5E
330
2
100
AcDbEntity
  8
0
100
AcDbLine
 10
40.12433569161264
 20
21.71768057597537
 30
0.0
 11
40.12433569161264
 21
18.4091548691051
 31
0.0
  0
SPLINE
  5
5F
330
2
100
AcDbEntity
  8
0
100
AcDbSpline
210
0.0
220
0.0
230
1.0
 70
     8
 71
     3
 72
    12
 73
     8
 74
     0
 42
0.000000001
 43
0.0000000001
 40
0.0
 40
0.0
 40
0.0
 40
0.0
 40
0.1814292812455417
 40
0.4157921650614981
 40
0.6513173281689703
 40
0.8893818971947931
 40
1.0
 40
1.0
 40
1.0
 40
1.0
 10
42.03012921476868
 20
22.69667814817283
 30
0.0
 10
41.98721694168461
 20
22.72684286019865
 30
0.0
 10
41.92932030246989
 20
22.77069301662742
 30
0.0
 10
41.8183816120878
 20
22.80856723023126
 30
0.0
 10
41.68934133108201
 20
22.82420375301232
 30
0.0
 10
41.5774346434902
 20
22.81411176924962
 30
0.0
 10
41.51065420979813
 20
22.79670726449118
 30
0.0
 10
41.48946839967247
 20
22.79118575897291
 30
0.0
  0
LINE
  5
60
330
2
100
AcDbEntity
  8
0
100
AcDbLine
 10
42.05495184070241
 20
22.67518112352027
 30
0.0
 11
42.03012921476868
 21
22.69667814817283
 31
0.0
  0
SPLINE
  5
61
330
2
100
AcDbEntity
  8
0
100
AcDbSpline
210
0.0
220
0.0
230
1.0
 70
     8
 71
     3
 72
    16
 73
    12
 74
     0
 42
0.000000001
 43
0.0000000001
 40
0.0
 40
0.0
 40
0.0
 40
0.0
 40
0.0698495378242813
 40
0.1990379081207492
 40
0.3285182403160749
 40
0.4581529125746114
 40
0.587925197279928
 40
0.7178828956211265
 40
0.8480723407691126
 40
0.9707891010511591
 40
1.0
 40
1.0
 40
1.0
 40
1.0
 10
40.80156361096115
 20
22.59260475150327
 30
0.0
 10
40.77654861249679
 20
22.58456106389068
 30
0.0
 10
40.70526778343078
 20
22.56164038601856
 30
0.0
 10
40.59036843276357
 20
22.50292694387153
 30
0.0
 10
40.46390249824257
 20
22.41115699389661
 30
0.0
 10
40.35141598719219
 20
22.2986386770567
 30
0.0
 10
40.25739338509645
 20
22.17025592639801
 30
0.0
 10
40.1855426326909
 20
22.03077380842317
 30
0.0
 10
40.14007171554157
 20
21.88847497974447
 30
0.0
 10
40.12527252725541
 20
21.78340832058072
 30
0.0
 10
40.12448676828226
 20
21.72828001170491
 30
0.0
 10
40.12433569160483
 20
21.71768057597384
 30
0.0
  0
LINE
  5
62
330
2
100
AcDbEntity
  8
0
100
AcDbLine
 10
41.48946839966753
 20
22.79118575897841
 30
0.0
 11
41.05952790673513
 21
22.66707262930987
 31
0.0
  0
LINE
  5
63
330
2
100
AcDbEntity
  8
0
100
AcDbLine
 10
41.05952790673513
 20
22.66707262930987
 30
0.0
 11
40.80156361096375
 21
22.59260475150877
 31
0.0
  0
LINE
  5
64
330
2
100
AcDbEntity
  8
0
100
AcDbLine
 10
45.12932911023375
 20
21.79992137452103
 30
0.0
 11
45.09209517133316
 21
21.83216691148997
 31
0.0
  0
LINE
  5
65
330
2
100
AcDbEntity
  8
0
100
AcDbLine
 10
39.48785833911141
 20
21.27598109480481
 30
0.0
 11
39.48785833911141
 21
18.21447587711659
 31
0.0
  0
SPLINE
  5
66
330
2
100
AcDbEntity
  8
0
100
AcDbSpline
210
0.0
220
0.0
230
1.0
 70
     8
 71
     3
 72
    12
 73
     8
 74
     0
 42
0.000000001
 43
0.0000000001
 40
0.0
 40
0.0
 40
0.0
 40
0.0
 40
0.1814292812455437
 40
0.4157921650615009
 40
0.6513173281689825
 40
0.8893818971948025
 40
1.0
 40
1.0
 40
1.0
 40
1.0
 10
43.09576453253334
 20
22.76246205385335
 30
0.0
 10
43.07050156097711
 20
22.78159589771065
 30
0.0
 10
43.01260492176236
 20
22.82544605413944
 30
0.0
 10
42.90166623138029
 20
22.86332026774328
 30
0.0
 10
42.77262595037448
 20
22.87895679052434
 30
0.0
 10
42.66071926278266
 20
22.86886480676162
 30
0.0
 10
42.59393882909062
 20
22.85146030200319
 30
0.0
 10
42.57275301896497
 20
22.84593879648494
 30
0.0
  0
LINE
  5
67
330
2
100
AcDbEntity
  8
0
100
AcDbLine
 10
43.1506477729772
 20
22.71918564870746
 30
0.0
 11
43.11341383407664
 21
22.7514311856764
 31
0.0
  0
LINE
  5
68
330
2
100
AcDbEntity
  8
0
100
AcDbLine
 10
42.57275301895561
 20
22.84593879648197
 30
0.0
 11
42.036521652596
 21
22.6911421346281
 31
0.0
  0
LINE
  5
69
330
2
100
AcDbEntity
  8
0
100
AcDbLine
 10
40.27055670688854
 20
22.18135196623536
 30
0.0
 11
40.16508625848237
 21
22.15090527033821
 31
0.0
  0
SPLINE
  5
6A
330
2
100
AcDbEntity
  8
0
100
AcDbSpline
210
0.0
220
0.0
230
1.0
 70
     8
 71
     3
 72
    16
 73
    12
 74
     0
 42
0.000000001
 43
0.0000000001
 40
0.0
 40
0.0
 40
0.0
 40
0.0
 40
0.0698495378242814
 40
0.1990379081207496
 40
0.3285182403160749
 40
0.4581529125746114
 40
0.5879251972799282
 40
0.7178828956211269
 40
0.8480723407691128
 40
0.9707891010511616
 40
1.0
 40
1.0
 40
1.0
 40
1.0
 10
40.16508625847541
 20
22.15090527034116
 30
0.0
 10
40.14007126001103
 20
22.14286158272856
 30
0.0
 10
40.068790430945
 20
22.11994090485646
 30
0.0
 10
39.95389108027777
 20
22.06122746270941
 30
0.0
 10
39.82742514575681
 20
21.9694575127345
 30
0.0
 10
39.71493863470642
 20
21.85693919589461
 30
0.0
 10
39.62091603261071
 20
21.72855644523588
 30
0.0
 10
39.54906528020514
 20
21.58907432726104
 30
0.0
 10
39.50359436305575
 20
21.44677549858235
 30
0.0
 10
39.48879517476966
 20
21.34170883941857
 30
0.0
 10
39.48800941579651
 20
21.28658053054281
 30
0.0
 10
39.48785833911907
 20
21.27598109481172
 30
0.0
  0
SPLINE
  5
6B
330
2
100
AcDbEntity
  8
0
100
AcDbSpline
210
0.0
220
0.0
230
1.0
 70
     8
 71
     3
 72
    13
 73
     9
 74
     0
 42
0.000000001
 43
0.0000000001
 40
0.0
 40
0.0
 40
0.0
 40
0.0
 40
0.3436729590918618
 40
0.787615553304788
 40
1.0
 40
1.0
 40
1.0
 40
1.080037870459543
 40
1.080037870459543
 40
1.080037870459543
 40
1.080037870459543
 10
44.51504569410992
 20
22.42694304642879
 30
0.0
 10
44.48972901625818
 20
22.4458869029737
 30
0.0
 10
44.43170929516425
 20
22.48930165429352
 30
0.0
 10
44.34270823656331
 20
22.52324779792196
 30
0.0
 10
44.27915816433391
 20
22.52893798992877
 30
0.0
 10
44.2585936498669
 20
22.53077931019385
 30
0.0
 10
44.25084383593001
 20
22.53147321859978
 30
0.0
 10
44.2430940219931
 20
22.53216712700572
 30
0.0
 10
44.23534420805623
 20
22.53286103541165
 30
0.0
  0
LINE
  5
6C
330
2
100
AcDbEntity
  8
0
100
AcDbLine
 10
44.56992893454781
 20
22.3836666412828
 30
0.0
 11
44.53269499564727
 21
22.41591217825172
 31
0.0
  0
LINE
  5
6D
330
2
100
AcDbEntity
  8
0
100
AcDbLine
 10
36.66796089737785
 20
13.69408582777254
 30
0.0
 11
36.67837174284699
 21
13.59116337979946
 31
0.0
  0
LINE
  5
6E
330
2
100
AcDbEntity
  8
0
100
AcDbLine
 10
47.7638908185812
 20
13.59116337979946
 30
0.0
 11
47.77430166403047
 21
13.69408582777254
 31
0.0
  0
SPLINE
  5
6F
330
2
100
AcDbEntity
  8
0
100
AcDbSpline
210
0.0
220
0.0
230
1.0
 70
     8
 71
     3
 72
     9
 73
     5
 74
     0
 42
0.000000001
 43
0.0000000001
 40
0.0
 40
0.0
 40
0.0
 40
0.0
 40
0.2348382332724162
 40
0.9921728383729282
 40
0.9921728383729282
 40
0.9921728383729282
 40
0.9921728383729282
 10
38.82906469969817
 20
17.90866703460852
 30
0.0
 10
38.82137290754755
 20
17.85807626405182
 30
0.0
 10
38.78887569811157
 20
17.64433428635402
 30
0.0
 10
38.75717990167047
 20
17.43030929220314
 30
0.0
 10
38.73299098674066
 20
17.26694036921369
 30
0.0
  0
SPLINE
  5
70
330
2
100
AcDbEntity
  8
0
100
AcDbSpline
210
0.0
220
0.0
230
1.0
 70
     8
 71
     3
 72
     9
 73
     5
 74
     0
 42
0.000000001
 43
0.0000000001
 40
0.0
 40
0.0
 40
0.0
 40
0.0
 40
0.2507808920842258
 40
1.0
 40
1.0
 40
1.0
 40
1.0
 10
45.70088260592742
 20
17.32392635578031
 30
0.0
 10
45.69364883976624
 20
17.37284010219544
 30
0.0
 10
45.66480387434237
 20
17.5678858491365
 30
0.0
 10
45.63529396370269
 20
17.76269753185287
 30
0.0
 10
45.61318457477859
 20
17.9086541669892
 30
0.0
  0
LINE
  5
71
330
2
100
AcDbEntity
  8
0
100
AcDbLine
 10
45.70182600349296
 20
17.27119183271135
 30
0.0
 11
45.70088260592742
 21
17.32392635578031
 31
0.0
  0
LINE
  5
72
330
2
100
AcDbEntity
  8
0
100
AcDbLine
 10
38.02010021769481
 20
16.52326330994448
 30
0.0
 11
37.89684406740231
 21
16.55884429572741
 31
0.0
  0
LINE
  5
73
330
2
100
AcDbEntity
  8
0
100
AcDbLine
 10
46.54538066164323
 20
16.55883337446703
 30
0.0
 11
46.42216234373335
 21
16.52326330994448
 31
0.0
  0
LINE
  5
74
330
2
100
AcDbEntity
  8
0
100
AcDbLine
 10
38.06306625383257
 20
16.96566323374952
 30
0.0
 11
37.82214938816732
 21
17.03520994237654
 31
0.0
  0
LINE
  5
75
330
2
100
AcDbEntity
  8
0
100
AcDbLine
 10
46.62011317326085
 20
17.03520994237654
 30
0.0
 11
46.3791963075956
 21
16.96566323374952
 31
0.0
  0
LWPOLYLINE
  5
76
330
2
100
AcDbEntity
  8
0
100
AcDbPolyline
 90
       17
 70
   128
 43
0.0
 10
41.87361451763226
 20
10.85341957809676
 10
41.7786224407172
 20
10.85016029308208
 10
41.69809204640296
 20
10.84087863460567
 10
41.64428335720669
 20
10.82698765106292
 10
41.6253882582952
 20
10.81060211873972
 10
41.64428335720669
 20
10.79421658641653
 10
41.69809204640296
 20
10.78032560287379
 10
41.7786224407172
 20
10.77104394439738
 10
41.87361451763226
 20
10.76778465938269
 10
41.96860659456718
 20
10.77104394439738
 10
42.04913698888141
 20
10.78032560287379
 10
42.10294567807774
 20
10.79421658641653
 10
42.12184077696931
 20
10.81060211873972
 10
42.10294567807774
 20
10.82698765106292
 10
42.04913698888141
 20
10.84087863460567
 10
41.96860659456718
 20
10.85016029308208
 10
41.87361451763226
 20
10.85341957809676
  0
LWPOLYLINE
  5
77
330
2
100
AcDbEntity
  8
0
100
AcDbPolyline
 90
       17
 70
   128
 43
0.0
 10
42.56864804377603
 20
10.75065767562001
 10
42.473655966861
 20
10.74739839060535
 10
42.39312557254677
 20
10.73811673212893
 10
42.33931688335045
 20
10.72422574858619
 10
42.32042178443898
 20
10.70784021626298
 10
42.33931688335045
 20
10.69145468393978
 10
42.39312557254677
 20
10.67756370039704
 10
42.473655966861
 20
10.66828204192062
 10
42.56864804377603
 20
10.66502275690595
 10
42.66364012071097
 20
10.66828204192062
 10
42.74417051502517
 20
10.67756370039704
 10
42.7979792042215
 20
10.69145468393978
 10
42.81687430311309
 20
10.70784021626298
 10
42.7979792042215
 20
10.72422574858619
 10
42.74417051502517
 20
10.73811673212893
 10
42.66364012071097
 20
10.74739839060535
 10
42.56864804377603
 20
10.75065767562001
  0
LINE
  5
78
330
2
100
AcDbEntity
  8
0
100
AcDbLine
 10
41.22822624335592
 20
10.84727126755866
 30
0.0
 11
41.22822624335592
 21
10.62734339266381
 31
0.0
  0
LWPOLYLINE
  5
79
330
2
100
AcDbEntity
  8
0
100
AcDbPolyline
 90
        8
 70
   128
 43
0.0
 10
41.40068846234978
 20
10.9868964746032
 10
41.37938703458817
 20
10.97835552608465
 10
41.33361292687751
 20
10.95737703750913
 10
41.29589108081602
 20
10.93592705913976
 10
41.26638302712007
 20
10.91409744305277
 10
41.24521512383779
 20
10.89198166700781
 10
41.23247801517648
 20
10.86967443418799
 10
41.22822624335592
 20
10.84727126755866
  0
ARC
  5
7A
330
2
100
AcDbEntity
  8
0
100
AcDbCircle
 10
42.73200889261433
 20
10.48226313108885
 30
0.0
 40
0.4822715907779483
100
AcDbArc
 50
268.2859860206984
 51
358.1767252639003
  0
LINE
  5
7B
330
2
100
AcDbEntity
  8
0
100
AcDbLine
 10
42.71758379937828
 20
10.00020732107729
 30
0.0
 11
41.72467876203002
 21
10.00020732107729
 31
0.0
  0
ARC
  5
7C
330
2
100
AcDbEntity
  8
0
100
AcDbCircle
 10
41.71025366881385
 20
10.48226313108885
 30
0.0
 40
0.4822715907779712
100
AcDbArc
 50
181.8232747360996
 51
271.7140139793016
  0
LINE
  5
7D
330
2
100
AcDbEntity
  8
0
100
AcDbLine
 10
41.22822624335592
 20
10.49569123106062
 30
0.0
 11
41.22822624335592
 21
10.46691880350968
 31
0.0
  0
LINE
  5
7E
330
2
100
AcDbEntity
  8
0
100
AcDbLine
 10
43.21403631805241
 20
10.49569123106062
 30
0.0
 11
43.21403631805241
 21
10.46691880350968
 31
0.0
  0
LINE
  5
7F
330
2
100
AcDbEntity
  8
0
100
AcDbLine
 10
41.22822624335592
 20
10.62734339266381
 30
0.0
 11
41.22822624335592
 21
10.49569123106062
 31
0.0
  0
LINE
  5
80
330
2
100
AcDbEntity
  8
0
100
AcDbLine
 10
43.21403631805241
 20
10.62734339266381
 30
0.0
 11
43.21403631805241
 21
10.49569123106062
 31
0.0
  0
LWPOLYLINE
  5
81
330
2
100
AcDbEntity
  8
0
100
AcDbPolyline
 90
        9
 70
   128
 43
0.0
 10
33.49003502633428
 20
18.01105048974276
 10
33.52216084808753
 20
18.06223497874364
 10
33.51865537129584
 20
18.12573051948412
 10
33.48005227300392
 20
18.1918704914956
 10
33.41222852498474
 20
18.2505856836061
 10
33.32550967807395
 20
18.29293724004738
 10
33.23309789058575
 20
18.312477520272
 10
33.14906201945995
 20
18.30623169376989
 10
33.07042596284369
 20
18.28537347898523
  0
LWPOLYLINE
  5
82
330
2
100
AcDbEntity
  8
0
100
AcDbPolyline
 90
        9
 70
   128
 43
0.0
 10
33.07042596284369
 20
18.28537347898523
 10
33.05406994254489
 20
18.2239661419825
 10
33.05757541933661
 20
18.16047060124202
 10
33.09617851764838
 20
18.09433062923055
 10
33.16400226564768
 20
18.03561543712005
 10
33.25072111255848
 20
17.99326388069862
 10
33.34313290004666
 20
17.97372360045415
 10
33.42716877117248
 20
17.97996942695624
 10
33.49003502633428
 20
18.01105048974276
  0
LWPOLYLINE
  5
83
330
2
100
AcDbEntity
  8
0
100
AcDbPolyline
 90
       17
 70
   128
 43
0.0
 10
34.459249255225
 20
17.37721015077716
 10
34.49137507697827
 20
17.4283946397582
 10
34.48786960018655
 20
17.49189018051852
 10
34.44926650189464
 20
17.55803015253
 10
34.38144275387548
 20
17.61674534462065
 10
34.29472390696469
 20
17.65909690106191
 10
34.20231211947648
 20
17.6786371813064
 10
34.11827624837052
 20
17.67239135478445
 10
34.05540999318886
 20
17.64131029201779
 10
34.0232841714356
 20
17.5901258030169
 10
34.02678964824718
 20
17.52663026225658
 10
34.06539274653909
 20
17.4604902902451
 10
34.1332164945384
 20
17.40177509815444
 10
34.2199353414492
 20
17.35942354171317
 10
34.3123471289374
 20
17.33988326148855
 10
34.39638300006322
 20
17.34612908799066
 10
34.459249255225
 20
17.37721015077716
  0
LINE
  5
84
330
2
100
AcDbEntity
  8
0
100
AcDbLine
 10
35.43666198028264
 20
16.51162604070368
 30
0.0
 11
34.82738313531103
 21
16.91007820753512
 31
0.0
  0
ARC
  5
85
330
2
100
AcDbEntity
  8
0
100
AcDbCircle
 10
34.39567194432636
 20
16.2462113448048
 30
0.0
 40
0.7918925203979114
100
AcDbArc
 50
56.96413735989839
 51
75.62988647090076
  0
LINE
  5
86
330
2
100
AcDbEntity
  8
0
100
AcDbLine
 10
34.59220749142212
 20
17.01332772617214
 30
0.0
 11
34.56365622467111
 21
17.02063246226543
 31
0.0
  0
ARC
  5
87
330
2
100
AcDbEntity
  8
0
100
AcDbCircle
 10
35.34979841311373
 20
20.08909798779441
 30
0.0
 40
3.167570081593253
100
AcDbArc
 50
236.9641373599995
 51
255.6298864709007
  0
LINE
  5
88
330
2
100
AcDbEntity
  8
0
100
AcDbLine
 10
33.62295364913529
 20
17.43363053687317
 30
0.0
 11
32.74028440634819
 21
18.01087275576415
 31
0.0
  0
LINE
  5
89
330
2
100
AcDbEntity
  8
0
100
AcDbLine
 10
36.46567433651599
 20
16.11745034710489
 30
0.0
 11
35.48048117035176
 21
16.48920814645294
 31
0.0
  0
ARC
  5
8A
330
2
100
AcDbEntity
  8
0
100
AcDbCircle
 10
35.56100852683329
 20
16.70064572353644
 30
0.0
 40
0.2262531859185554
100
AcDbArc
 50
236.661092581799
 51
249.1503439898009
  0
ARC
  5
8B
330
2
100
AcDbEntity
  8
0
100
AcDbCircle
 10
35.5851252340031
 20
13.87307526442277
 30
0.0
 40
2.410930574222549
100
AcDbArc
 50
36.76938027299874
 51
68.5781361935983
  0
LWPOLYLINE
  5
8C
330
2
100
AcDbEntity
  8
0
100
AcDbPolyline
 90
       17
 70
   128
 43
0.0
 10
50.4676204206386
 20
17.69413032025002
 10
50.53048667582027
 20
17.66304925748337
 10
50.61452254694607
 20
17.65680343096142
 10
50.70693433441441
 20
17.67634371120591
 10
50.79365318132518
 20
17.71869526764717
 10
50.86147692934439
 20
17.77741045973783
 10
50.90008002763629
 20
17.8435504317493
 10
50.90358550444786
 20
17.90704597250964
 10
50.87145968267475
 20
17.95823046149067
 10
50.80859342751295
 20
17.98931152427718
 10
50.72455755638713
 20
17.99555735077927
 10
50.63214576889893
 20
17.97601707055464
 10
50.54542692198815
 20
17.93366551411338
 10
50.47760317398881
 20
17.87495032202272
 10
50.43900007569692
 20
17.80881035001125
 10
50.43549459888533
 20
17.74531480925093
 10
50.4676204206386
 20
17.69413032025002
  0
LWPOLYLINE
  5
8D
330
2
100
AcDbEntity
  8
0
100
AcDbPolyline
 90
       17
 70
   128
 43
0.0
 10
50.60471077202201
 20
18.31200883479943
 10
50.66757702718377
 20
18.28092777203276
 10
50.75161289830962
 20
18.27468194551083
 10
50.84402468579781
 20
18.29422222575531
 10
50.93074353270862
 20
18.33657378219657
 10
50.99856728070793
 20
18.39528897428724
 10
51.03717037899982
 20
18.46142894629869
 10
51.04067585581142
 20
18.52492448705902
 10
51.00855003405815
 20
18.57610897604007
 10
50.9456837788765
 20
18.60719003882656
 10
50.86164790777053
 20
18.61343586532866
 10
50.76923612028234
 20
18.59389558510406
 10
50.68251727337155
 20
18.5515440286628
 10
50.61469352535236
 20
18.49282883657213
 10
50.57609042706046
 20
18.42668886456064
 10
50.57258495026873
 20
18.3631933238003
 10
50.60471077202201
 20
18.31200883479943
  0
LWPOLYLINE
  5
8E
330
2
100
AcDbEntity
  8
0
100
AcDbPolyline
 90
       17
 70
   128
 43
0.0
 10
49.63549654313127
 20
17.67816849583384
 10
49.69836279829308
 20
17.64708743304733
 10
49.78239866941891
 20
17.64084160654523
 10
49.8748104569071
 20
17.66038188676985
 10
49.96152930381787
 20
17.70273344321112
 10
50.02935305181719
 20
17.76144863532163
 10
50.0679561501091
 20
17.8275886073331
 10
50.07146162692071
 20
17.89108414807357
 10
50.03933580516743
 20
17.94226863707447
 10
49.97646954998577
 20
17.97334969986098
 10
49.89243367887981
 20
17.97959552636306
 10
49.80002189139163
 20
17.96005524611858
 10
49.7133030444808
 20
17.91770368967733
 10
49.64547929646164
 20
17.85898849758666
 10
49.60687619816973
 20
17.7928485255752
 10
49.60337072137801
 20
17.72935298483474
 10
49.63549654313127
 20
17.67816849583384
  0
LINE
  5
8F
330
2
100
AcDbEntity
  8
0
100
AcDbLine
 10
50.81930891229288
 20
17.43363053687317
 30
0.0
 11
51.70197815507999
 21
18.01087275576416
 31
0.0
  0
LINE
  5
90
330
2
100
AcDbEntity
  8
0
100
AcDbLine
 10
49.63103299540295
 20
16.92064221240269
 30
0.0
 11
49.00560058114554
 21
16.51162604070368
 31
0.0
  0
LINE
  5
91
330
2
100
AcDbEntity
  8
0
100
AcDbLine
 10
48.96178139107641
 20
16.48920814645294
 30
0.0
 11
47.97658822491221
 21
16.11745034710489
 31
0.0
  0
ARC
  5
92
330
2
100
AcDbEntity
  8
0
100
AcDbCircle
 10
48.88125403459486
 20
16.7006457235166
 30
0.0
 40
0.2262531859158574
100
AcDbArc
 50
290.8496560101013
 51
303.3389074183014
  0
ARC
  5
93
330
2
100
AcDbEntity
  8
0
100
AcDbCircle
 10
48.87466677005321
 20
13.85008643168482
 30
0.0
 40
2.438746439920285
100
AcDbArc
 50
111.6079876271994
 51
143.0444959061988
  0
LWPOLYLINE
  5
94
330
2
100
AcDbEntity
  8
0
100
AcDbPolyline
 90
        8
 70
   128
 43
0.0
 10
41.22822624335592
 20
10.84727126755866
 10
41.23247801517648
 20
10.86967443418799
 10
41.24521512383779
 20
10.89198166700781
 10
41.26638302712007
 20
10.91409744305277
 10
41.29589108081602
 20
10.93592705913976
 10
41.33361292687751
 20
10.95737703750913
 10
41.37938703458817
 20
10.97835552608465
 10
41.40068846234978
 20
10.9868964746032
  0
ARC
  5
95
330
2
100
AcDbEntity
  8
0
100
AcDbCircle
 10
49.10861771879828
 20
20.09966199345279
 30
0.0
 40
3.167570081593554
100
AcDbArc
 50
284.3701135290991
 51
303.0358626400005
  0
LINE
  5
96
330
2
100
AcDbEntity
  8
0
100
AcDbLine
 10
49.89475990724088
 20
17.03119646792381
 30
0.0
 11
49.86620864048989
 21
17.02389173183051
 31
0.0
  0
ARC
  5
97
330
2
100
AcDbEntity
  8
0
100
AcDbCircle
 10
50.06274418758564
 20
16.25677535044329
 30
0.0
 40
0.7918925203988271
100
AcDbArc
 50
104.3701135290991
 51
123.0358626400005
  0
ARC
  5
98
330
2
100
AcDbEntity
  8
0
100
AcDbCircle
 10
52.21357630338391
 20
19.16440345570926
 30
0.0
 40
1.21102267221279
100
AcDbArc
 50
190.9690890528013
 51
224.3814861082008
  0
LINE
  5
99
330
2
100
AcDbEntity
  8
0
100
AcDbLine
 10
51.02004580755952
 20
18.9587307427419
 30
0.0
 11
51.02467903764867
 21
18.93397081014291
 31
0.0
  0
LINE
  5
9A
330
2
100
AcDbEntity
  8
0
100
AcDbLine
 10
52.01295084490777
 20
18.09884975683735
 30
0.0
 11
52.01758407499692
 21
18.0740898242582
 31
0.0
  0
LWPOLYLINE
  5
9B
330
2
100
AcDbEntity
  8
0
100
AcDbPolyline
 90
        9
 70
   128
 43
0.0
 10
51.84451246421013
 20
17.88743442315007
 10
51.89149492956683
 20
17.85321293273432
 10
51.93378373415159
 20
17.83574080342466
 10
51.96975374288843
 20
17.83568947930939
 10
51.99802264853614
 20
17.85306093279433
 10
52.01750409288199
 20
17.88718758862586
 10
52.02744941494351
 20
17.93675797857117
 10
52.02747642160306
 20
17.99986714034471
 10
52.01758407499692
 20
18.0740898242582
  0
LINE
  5
9C
330
2
100
AcDbEntity
  8
0
100
AcDbLine
 10
51.348059945536
 20
18.3173749160825
 30
0.0
 11
51.84451246421013
 21
17.88743442315007
 31
0.0
  0
LWPOLYLINE
  5
9D
330
2
100
AcDbEntity
  8
0
100
AcDbPolyline
 90
        9
 70
   128
 43
0.0
 10
50.84879299342865
 20
19.00789969760619
 10
50.87606409423133
 20
19.02247927306465
 10
50.90414044034416
 20
19.03122977153035
 10
50.93169098870938
 20
19.03373634951419
 10
50.95740962334874
 20
19.02988017520794
 10
50.98007707558278
 20
19.01984406204881
 10
50.99861872716896
 20
19.00410380196901
 10
51.01215555576286
 20
18.9834056089962
 10
51.02004580755952
 20
18.9587307427419
  0
LINE
  5
9E
330
2
100
AcDbEntity
  8
0
100
AcDbLine
 10
49.8278052666349
 20
18.34020086741572
 30
0.0
 11
50.84879299342865
 21
19.00789969760619
 31
0.0
  0
ARC
  5
9F
330
2
100
AcDbEntity
  8
0
100
AcDbCircle
 10
51.92319039787984
 20
18.08408876404562
 30
0.0
 40
0.0909660637763918
100
AcDbArc
 50
9.338634848400063
 51
48.50877017649954
  0
ARC
  5
A0
330
2
100
AcDbEntity
  8
0
100
AcDbCircle
 10
51.09536461889817
 20
16.33565889461015
 30
0.0
 40
2.371686158049584
100
AcDbArc
 50
122.3069534488992
 51
144.976515639701
  0
ARC
  5
A1
330
2
100
AcDbEntity
  8
0
100
AcDbCircle
 10
48.25386595912266
 20
14.38318340034734
 30
0.0
 40
2.51200776626511
100
AcDbArc
 50
111.6424862235009
 51
145.9342958116003
  0
LINE
  5
A2
330
2
100
AcDbEntity
  8
0
100
AcDbLine
 10
47.32740256937441
 20
16.71810280050502
 30
0.0
 11
48.31259573551879
 21
17.08986059985306
 31
0.0
  0
ARC
  5
A3
330
2
100
AcDbEntity
  8
0
100
AcDbCircle
 10
48.2522002181626
 20
17.24843878266072
 30
0.0
 40
0.1696898894393474
100
AcDbArc
 50
290.8496560101991
 51
303.3389074182009
  0
LINE
  5
A4
330
2
100
AcDbEntity
  8
0
100
AcDbLine
 10
48.34546012807559
 20
17.10667402053118
 30
0.0
 11
48.97089254353106
 21
17.51569019302099
 31
0.0
  0
ARC
  5
A5
330
2
100
AcDbEntity
  8
0
100
AcDbCircle
 10
48.65400270546026
 20
18.01682568620748
 30
0.0
 40
0.5929215395124587
100
AcDbArc
 50
302.3069534488992
 51
324.9765156397011
  0
LINE
  5
A6
330
2
100
AcDbEntity
  8
0
100
AcDbLine
 10
49.13955616167829
 20
17.67654081560472
 30
0.0
 11
49.15315079400628
 21
17.69679837706092
 31
0.0
  0
LWPOLYLINE
  5
A7
330
2
100
AcDbEntity
  8
0
100
AcDbPolyline
 90
       17
 70
   128
 43
0.0
 10
42.56864804377603
 20
10.95275608383686
 10
42.473655966861
 20
10.94949679880233
 10
42.39312557254677
 20
10.94021514034578
 10
42.33931688335045
 20
10.92632415678317
 10
42.32042178443898
 20
10.90993862445998
 10
42.33931688335045
 20
10.89355309215663
 10
42.39312557254677
 20
10.87966210859403
 10
42.473655966861
 20
10.87038045011761
 10
42.56864804377603
 20
10.86712116510294
 10
42.66364012071097
 20
10.87038045011761
 10
42.74417051502517
 20
10.87966210859403
 10
42.7979792042215
 20
10.89355309215663
 10
42.81687430311309
 20
10.90993862445998
 10
42.7979792042215
 20
10.92632415678317
 10
42.74417051502517
 20
10.94021514034578
 10
42.66364012071097
 20
10.94949679880233
 10
42.56864804377603
 20
10.95275608383686
  0
LINE
  5
A8
330
2
100
AcDbEntity
  8
0
100
AcDbLine
 10
41.22822624335592
 20
10.84384587082201
 30
0.0
 11
41.22822624335592
 21
10.62734339266381
 31
0.0
  0
LWPOLYLINE
  5
A9
330
2
100
AcDbEntity
  8
0
100
AcDbPolyline
 90
        8
 70
   128
 43
0.0
 10
43.21403631805241
 20
10.84384587082201
 10
43.20978454625172
 20
10.86624903743149
 10
43.19704743759039
 20
10.88855627027115
 10
43.17587953430813
 20
10.91067204629627
 10
43.14637148061211
 20
10.93250166238326
 10
43.10864963455065
 20
10.95395164077248
 10
43.06287552684003
 20
10.97493012932814
 10
43.0340637833872
 20
10.98633780194853
  0
LINE
  5
AA
330
2
100
AcDbEntity
  8
0
100
AcDbLine
 10
43.21403631805241
 20
10.84384587082201
 30
0.0
 11
43.21403631805241
 21
10.62734339266381
 31
0.0
  0
LWPOLYLINE
  5
AB
330
2
100
AcDbEntity
  8
0
100
AcDbPolyline
 90
       17
 70
   128
 43
0.0
 10
34.30600533337763
 20
18.00565267096507
 10
34.3381311551309
 20
18.05683715996596
 10
34.33462567831931
 20
18.12033270070644
 10
34.29602258002741
 20
18.18647267271789
 10
34.22819883202808
 20
18.24518786482842
 10
34.14147998511729
 20
18.28753942126969
 10
34.0490681976291
 20
18.30707970149432
 10
33.96503232650328
 20
18.30083387499221
 10
33.90216607134151
 20
18.2697528122057
 10
33.8700402495882
 20
18.21856832320481
 10
33.87354572637996
 20
18.15507278246433
 10
33.91214882467185
 20
18.08893281045287
 10
33.97997257269103
 20
18.03021761834234
 10
34.06669141960181
 20
17.98786606192094
 10
34.15910320707015
 20
17.96832578167646
 10
34.24313907819597
 20
17.97457160817856
 10
34.30600533337763
 20
18.00565267096507
  0
ARC
  5
AC
330
2
100
AcDbEntity
  8
0
100
AcDbCircle
 10
32.22868625804427
 20
19.16440345570926
 30
0.0
 40
1.211022672213074
100
AcDbArc
 50
315.6185138917991
 51
349.0309109471987
  0
LWPOLYLINE
  5
AD
330
2
100
AcDbEntity
  8
0
100
AcDbPolyline
 90
        9
 70
   128
 43
0.0
 10
32.42467848643126
 20
18.0740898242582
 10
32.4147861398251
 20
17.99986714034471
 10
32.41481314646481
 20
17.93675797857117
 10
32.4247584685462
 20
17.88718758862586
 10
32.44423991289205
 20
17.85306093279433
 10
32.47250881853974
 20
17.83568947930939
 10
32.50847882727658
 20
17.83574080342466
 10
32.55076763184148
 20
17.85321293273432
 10
32.59775009721805
 20
17.88743442315007
  0
LINE
  5
AE
330
2
100
AcDbEntity
  8
0
100
AcDbLine
 10
32.42931171652041
 20
18.09884975683735
 30
0.0
 11
32.42467848643126
 21
18.0740898242582
 31
0.0
  0
LINE
  5
AF
330
2
100
AcDbEntity
  8
0
100
AcDbLine
 10
33.42221675386865
 20
18.9587307427419
 30
0.0
 11
33.41758352377951
 21
18.93397081014291
 31
0.0
  0
LINE
  5
B0
330
2
100
AcDbEntity
  8
0
100
AcDbLine
 10
32.59775009721805
 20
17.88743442315007
 30
0.0
 11
33.09420261589218
 21
18.3173749160825
 31
0.0
  0
LWPOLYLINE
  5
B1
330
2
100
AcDbEntity
  8
0
100
AcDbPolyline
 90
        9
 70
   128
 43
0.0
 10
33.59346956799953
 20
19.00789969760619
 10
33.56619846719683
 20
19.02247927306465
 10
33.538122121084
 20
19.03122977153035
 10
33.51057157271881
 20
19.03373634951419
 10
33.48485293807945
 20
19.02988017520794
 10
33.4621854858454
 20
19.01984406204881
 10
33.44364383425923
 20
19.00410380196901
 10
33.43010700566532
 20
18.9834056089962
 10
33.42221675386865
 20
18.9587307427419
  0
LINE
  5
B2
330
2
100
AcDbEntity
  8
0
100
AcDbLine
 10
34.61445729479328
 20
18.34020086741572
 30
0.0
 11
33.59346956799953
 21
19.00789969760619
 31
0.0
  0
ARC
  5
B3
330
2
100
AcDbEntity
  8
0
100
AcDbCircle
 10
32.51907216354835
 20
18.08408876404562
 30
0.0
 40
0.0909660637764764
100
AcDbArc
 50
131.4912298235004
 51
170.6613651515999
  0
ARC
  5
B4
330
2
100
AcDbEntity
  8
0
100
AcDbCircle
 10
33.34689794253002
 20
16.33565889461015
 30
0.0
 40
2.371686158050746
100
AcDbArc
 50
35.02348436039884
 51
57.69304655110073
  0
ARC
  5
B5
330
2
100
AcDbEntity
  8
0
100
AcDbCircle
 10
36.19006234326555
 20
17.24843878266072
 30
0.0
 40
0.1696898894384555
100
AcDbArc
 50
236.661092581799
 51
249.1503439898009
  0
LINE
  5
B6
330
2
100
AcDbEntity
  8
0
100
AcDbLine
 10
36.12966682590937
 20
17.08986059985306
 30
0.0
 11
37.11485999205375
 21
16.71810280050502
 31
0.0
  0
ARC
  5
B7
330
2
100
AcDbEntity
  8
0
100
AcDbCircle
 10
36.18839660230552
 20
14.38318340034734
 30
0.0
 40
2.512007766265179
100
AcDbArc
 50
34.06570418839967
 51
68.35751377649905
  0
LINE
  5
B8
330
2
100
AcDbEntity
  8
0
100
AcDbLine
 10
35.47137001789713
 20
17.51569019302099
 30
0.0
 11
36.09680243335257
 21
17.10667402053118
 31
0.0
  0
ARC
  5
B9
330
2
100
AcDbEntity
  8
0
100
AcDbCircle
 10
35.78825985596792
 20
18.01682568620748
 30
0.0
 40
0.5929215395125759
100
AcDbArc
 50
215.0234843603986
 51
237.6930465511008
  0
LINE
  5
BA
330
2
100
AcDbEntity
  8
0
100
AcDbLine
 10
35.28911176742189
 20
17.69679837706092
 30
0.0
 11
35.3027063997499
 21
17.67654081560472
 31
0.0
  0
LINE
  5
BB
330
2
100
AcDbEntity
  8
0
100
AcDbLine
 10
42.22284948754085
 20
18.66247019980458
 30
0.0
 11
42.22284948754085
 21
22.27330960428144
 31
0.0
  0
ARC
  5
BC
330
2
100
AcDbEntity
  8
0
100
AcDbCircle
 10
41.70648714986088
 20
22.29358759636732
 30
0.0
 40
0.5167603513583265
100
AcDbArc
 50
357.7511011825993
 51
47.59820542870055
  0
LINE
  5
BD
330
2
100
AcDbEntity
  8
0
100
AcDbLine
 10
45.29722675705225
 20
21.39804985528223
 30
0.0
 11
45.29722675705225
 21
18.0754773592835
 31
0.0
  0
LINE
  5
BE
330
2
100
AcDbEntity
  8
0
100
AcDbLine
 10
45.0149343410287
 20
21.89616515203099
 30
0.0
 11
45.09209517133316
 21
21.83216691148997
 31
0.0
  0
ARC
  5
BF
330
2
100
AcDbEntity
  8
0
100
AcDbCircle
 10
44.78086441937233
 20
21.41832784736808
 30
0.0
 40
0.5167603513581155
100
AcDbArc
 50
357.7511011825993
 51
47.59820542879981
  0
LINE
  5
C0
330
2
100
AcDbEntity
  8
0
100
AcDbLine
 10
43.31854541979578
 20
22.31731412946866
 30
0.0
 11
43.31854541979578
 21
18.59631140400153
 31
0.0
  0
LINE
  5
C1
330
2
100
AcDbEntity
  8
0
100
AcDbLine
 10
44.30432171970402
 20
18.41412902846966
 30
0.0
 11
44.30432171970402
 21
22.25793084116694
 31
0.0
  0
ARC
  5
C2
330
2
100
AcDbEntity
  8
0
100
AcDbCircle
 10
43.80032723766228
 20
22.27760117664087
 30
0.0
 40
0.504378191469881
100
AcDbArc
 50
357.7649448216986
 51
111.3846782332999
  0
LINE
  5
C3
330
2
100
AcDbEntity
  8
0
100
AcDbLine
 10
43.61641693100025
 20
22.74725462242094
 30
0.0
 11
43.22638365348105
 21
22.63466171354175
 31
0.0
  0
LINE
  5
C4
330
2
100
AcDbEntity
  8
0
100
AcDbLine
 10
39.14503580437589
 20
20.76857328514456
 30
0.0
 11
39.14503580437589
 21
18.0754773592835
 31
0.0
  0
ARC
  5
C5
330
2
100
AcDbEntity
  8
0
100
AcDbCircle
 10
40.10548268182653
 20
20.72669051298978
 30
0.0
 40
0.9613596470611149
100
AcDbArc
 50
128.036487570099
 51
177.5030511755998
  0
LINE
  5
C6
330
2
100
AcDbEntity
  8
0
100
AcDbLine
 10
43.09576453253334
 20
22.76246205385335
 30
0.0
 11
43.11341383407664
 21
22.7514311856764
 31
0.0
  0
ARC
  5
C7
330
2
100
AcDbEntity
  8
0
100
AcDbCircle
 10
42.80218308211581
 20
22.33759212155452
 30
0.0
 40
0.516760351358357
100
AcDbArc
 50
357.7511011825993
 51
47.59820542870055
  0
LINE
  5
C8
330
2
100
AcDbEntity
  8
0
100
AcDbLine
 10
44.7378265813664
 20
21.98179512204397
 30
0.0
 11
44.7378265813664
 21
18.28936091040607
 31
0.0
  0
LINE
  5
C9
330
2
100
AcDbEntity
  8
0
100
AcDbLine
 10
45.03569809257087
 20
18.1839238280574
 30
0.0
 11
45.03569809257087
 21
21.72383082627261
 31
0.0
  0
ARC
  5
CA
330
2
100
AcDbEntity
  8
0
100
AcDbCircle
 10
44.54662490313273
 20
21.75232272647681
 30
0.0
 40
0.4899024117227297
100
AcDbArc
 50
356.6658924962008
 51
73.03118074210132
  0
LINE
  5
CB
330
2
100
AcDbEntity
  8
0
100
AcDbLine
 10
44.51504569410992
 20
22.42694304642879
 30
0.0
 11
44.53269499564727
 21
22.41591217825172
 31
0.0
  0
ARC
  5
CC
330
2
100
AcDbEntity
  8
0
100
AcDbCircle
 10
44.22146424368643
 20
22.00207311412984
 30
0.0
 40
0.5167603513583023
100
AcDbArc
 50
357.7511011825993
 51
47.59820542870055
  0
ARC
  5
CD
330
2
100
AcDbEntity
  8
0
100
AcDbCircle
 10
42.22111343839922
 20
19.72330024550005
 30
0.0
 40
5.644110037342279
100
AcDbArc
 50
267.1490205892011
 51
304.5438631266313
  0
ARC
  5
CE
330
2
100
AcDbEntity
  8
0
100
AcDbCircle
 10
42.06949471197653
 20
18.50047918203805
 30
0.0
 40
4.415660951358301
100
AcDbArc
 50
229.1782061223305
 51
267.9798835934995
  0
SPLINE
  5
CF
330
2
100
AcDbEntity
  8
0
100
AcDbSpline
210
0.0
220
0.0
230
1.0
 70
     8
 71
     3
 72
    12
 73
     8
 74
     0
 42
0.000000001
 43
0.0000000001
 40
0.0
 40
0.0
 40
0.0
 40
0.0
 40
0.1675681985174032
 40
0.4277512044741458
 40
0.6823838153901853
 40
0.9355543983428468
 40
1.0
 40
1.0
 40
1.0
 40
1.0
 10
41.88560667291794
 20
14.09040952778099
 30
0.0
 10
41.8926849357969
 20
14.08989594981943
 30
0.0
 10
41.91075361170834
 20
14.08858493977339
 30
0.0
 10
41.94648987475111
 20
14.08652288104686
 30
0.0
 10
41.98861766769137
 20
14.08465461254271
 30
0.0
 10
42.01867102616592
 20
14.08370577910877
 30
0.0
 10
42.03330644528705
 20
14.08336831264829
 30
0.0
 10
42.03627603070637
 20
14.08329983934579
 30
0.0
  0
LWPOLYLINE
  5
D0
330
2
100
AcDbEntity
  8
0
100
AcDbPolyline
 90
       71
 70
   128
 43
0.0
 10
43.49521372424942
 20
11.55146832287082
 10
43.11924292961686
 20
11.50269164828474
 10
42.73604106807597
 20
11.4709622153514
 10
42.34869345566478
 20
11.45653549079225
 10
41.96031878764464
 20
11.45952763013927
 10
41.57404402846807
 20
11.47991454243824
 10
41.19297923536096
 20
11.51753208424254
 10
40.82019251797226
 20
11.57207738122939
 10
40.45868533575078
 20
11.64311126673481
 10
40.11136833200649
 20
11.73006181770695
 10
39.78103789898878
 20
11.8322289594224
 10
39.47035366312924
 20
11.94879010210864
 10
39.18181707121746
 20
12.0788067639981
 10
38.9177512502359
 20
12.22123212739504
 10
38.68028230289566
 20
12.37491946698958
 10
38.47132218953662
 20
12.53863138270302
 10
38.29255333412764
 20
12.71104976243736
 10
38.14541507840091
 20
12.89078639480043
 10
38.03109209302164
 20
13.07639414609878
 10
37.95050483950401
 20
13.26637861185996
 10
37.90430215898923
 20
13.45921014887552
 10
37.89285604831419
 20
13.65333619097679
 10
37.91625866481371
 20
13.84719374945099
 10
37.97432158440244
 20
14.03922199719924
 10
38.06657731859457
 20
14.22787483567735
 10
38.19228307842806
 20
14.4116333431648
 10
38.35042675508931
 20
14.58901800419733
 10
38.53973506862498
 20
14.75860062180607
 10
38.75868381984552
 20
14.9190158164502
 10
39.00551016213501
 20
15.06897201930246
 10
39.2782267949293
 20
15.20726187122186
 10
39.5746379642218
 20
15.33277194359161
 10
39.89235714159519
 20
15.44449170311994
 10
40.22882623903885
 20
15.54152164800165
 10
40.58133620523466
 20
15.62308055018745
 10
40.94704883717874
 20
15.68851174531813
 10
41.32301963181131
 20
15.73728841990421
 10
41.70622149335218
 20
15.76901785283755
 10
42.09356910576336
 20
15.78344457739669
 10
42.48194377378354
 20
15.78045243804968
 10
42.86821853296006
 20
15.76006552577058
 10
43.2492833260672
 20
15.72244798396628
 10
43.62207004345587
 20
15.66790268695956
 10
43.98357722567742
 20
15.59686880145414
 10
44.3308942294217
 20
15.50991825048199
 10
44.66122466243939
 20
15.40775110878643
 10
44.97190889829892
 20
15.29118996608033
 10
45.26044549021071
 20
15.16117330419084
 10
45.52451131119229
 20
15.01874794081379
 10
45.76198025853252
 20
14.86506060121924
 10
45.97094037189158
 20
14.7013486855058
 10
46.14970922730051
 20
14.52893030575159
 10
46.29684748302725
 20
14.34919367338853
 10
46.41117046840654
 20
14.16358592209017
 10
46.49175772192418
 20
13.97360145632899
 10
46.53796040243892
 20
13.78076991931342
 10
46.549406513114
 20
13.58664387721216
 10
46.5260038965946
 20
13.39278631873795
 10
46.46794097702573
 20
13.20075807100956
 10
46.37568524283361
 20
13.01210523253145
 10
46.24997948300009
 20
12.82834672504401
 10
46.09183580633886
 20
12.65096206399163
 10
45.9025274928032
 20
12.48137944638289
 10
45.68357874158265
 20
12.32096425173876
 10
45.43675239929314
 20
12.17100804888649
 10
45.16403576649887
 20
12.03271819698697
 10
44.86762459720639
 20
11.9072081246172
 10
44.54990541983297
 20
11.79548836506902
 10
44.21343632238933
 20
11.69845842018731
 10
43.86092635619351
 20
11.61689951802135
 10
43.49521372424942
 20
11.55146832287082
  0
LWPOLYLINE
  5
D1
330
2
100
AcDbEntity
  8
0
100
AcDbPolyline
 90
       80
 70
   128
 43
0.0
 10
44.9960533092072
 20
11.32817617068053
 10
45.3691431434258
 20
11.44600693333307
 10
45.72233023308699
 20
11.57828623879894
 10
46.05338161570335
 20
11.72417777470269
 10
46.36020427781923
 20
11.88275916779078
 10
46.64085838777371
 20
12.05302781542167
 10
46.89356955994472
 20
12.23390722441053
 10
47.1167400729474
 20
12.42425381687708
 10
47.30895897089399
 20
12.62286416038139
 10
47.46901098406969
 20
12.82848257639632
 10
47.59588421209151
 20
13.03980907905996
 10
47.68877652157249
 20
13.25550759422505
 10
47.74710061740441
 20
13.47421440639997
 10
47.77048775590444
 20
13.69454678069927
 10
47.7587900760375
 20
13.91511170493557
 10
47.71208153429553
 20
14.13451469662777
 10
47.63065743713869
 20
14.35136861940194
 10
47.5150325738971
 20
14.56430245298397
 10
47.36593796220657
 20
14.77196996108184
 10
47.18431622621468
 20
14.97305820286541
 10
46.97131563698588
 20
15.16629583371221
 10
46.72828285281665
 20
15.35046114311115
 10
46.45675440527353
 20
15.52438977868946
 10
46.15844698457048
 20
15.68698210759055
 10
45.83524658628281
 20
15.83721016877538
 10
45.48919658741138
 20
15.97412417208231
 10
45.12248482743736
 20
16.09685850307854
 10
44.73742977618164
 20
16.20463719581357
 10
44.33646587568711
 20
16.29677883868358
 10
43.92212814880021
 20
16.37270088258691
 10
43.49703617203563
 20
16.4319233238669
 10
43.06387751374145
 20
16.47407173922544
 10
42.62539074243579
 20
16.49887965280862
 10
42.18434811264804
 20
16.50619022096793
 10
41.74353803788096
 20
16.49595722395407
 10
41.30574746138332
 20
16.46824535808902
 10
40.8737442360967
 20
16.42322982666946
 10
40.45025962553833
 20
16.36119523240099
 10
40.03797103575271
 20
16.28253377797617
 10
39.63948508794865
 20
16.18774278641337
 10
39.25732113859925
 20
16.07742155690386
 10
38.89389535121949
 20
15.9522675757669
 10
38.55150542064138
 20
15.81307210674022
 10
38.23231604627706
 20
15.6607151884463
 10
37.93834524611444
 20
15.4961600703511
 10
37.67145159818515
 20
15.32044712290028
 10
37.43332249006993
 20
15.13468725990056
 10
37.22546345066979
 20
14.94005491504704
 10
37.04918863174202
 20
14.73778061668156
 10
36.90561249946919
 20
14.52914320802416
 10
36.79564278834846
 20
14.31546176196731
 10
36.71997476233939
 20
14.09808724140835
 10
36.67908681905492
 20
13.878393958042
 10
36.67323746521365
 20
13.65777088356758
 10
36.70246368235805
 20
13.43761286805948
 10
36.76658069288618
 20
13.2193118214018
 10
36.86518312844285
 20
13.00424791311121
 10
36.99764759268687
 20
12.79378084642952
 10
37.1631366026078
 20
12.5892412619106
 10
37.36060388339063
 20
12.39192232469495
 10
37.58880098334772
 20
12.2030715486317
 10
37.84628516691805
 20
12.02388290911758
 10
38.13142853618803
 20
11.8554892944173
 10
38.44242832296771
 20
11.69895534318409
 10
38.7773182864868
 20
11.55527071347714
 10
39.13398114454585
 20
11.42534382577179
 10
39.51016195976254
 20
11.30999611969905
 10
39.90348239586136
 20
11.20995686057629
 10
40.31145575442578
 20
11.12585852881301
 10
40.73150269653699
 20
11.05823282114465
 10
41.16096755014669
 20
11.00750728907319
 10
41.59713510024056
 20
10.97400263574274
 10
42.03724775507397
 20
10.957930688348
 10
42.4785229807504
 20
10.95939305892384
 10
42.91817089325481
 20
10.97838050189596
 10
43.35341189687556
 20
11.01477297252343
 10
43.78149425790834
 20
11.0683403859148
 10
44.1997115017826
 20
11.13874407159444
 10
44.60541952446892
 20
11.22553891484118
 10
44.9960533092072
 20
11.32817617068053
  0
LWPOLYLINE
  5
D2
330
2
100
AcDbEntity
  8
0
100
AcDbPolyline
 90
       43
 70
   128
 43
0.0
 10
47.77430166403047
 20
13.69408582777254
 10
47.78091099225256
 20
13.79766341148779
 10
47.76919134088648
 20
14.01864261806302
 10
47.72239506750504
 20
14.23845770964915
 10
47.64081803322503
 20
14.45571894446957
 10
47.52497599430717
 20
14.66905272707155
 10
47.37560134143595
 20
14.87711029255164
 10
47.19363846924766
 20
15.07857623404122
 10
46.98023780561483
 20
15.2721768189613
 10
46.7367485382199
 20
15.45668804207815
 10
46.46471008464692
 20
15.6309433640463
 10
46.16584235956891
 20
15.79384108660787
 10
45.84203490096831
 20
15.94435131792067
 10
45.49533492384108
 20
16.08152248383086
 10
45.12793437710364
 20
16.20448734406334
 10
44.74215608527977
 20
16.31246847518233
 10
44.34043906293851
 20
16.40478318572942
 10
43.92532309446211
 20
16.48084783234215
 10
43.49943267662661
 20
16.54018150988553
 10
43.06546042578879
 20
16.58240909168751
 10
42.6261500542312
 20
16.60726360143034
 10
42.18427902361482
 20
16.61458790087058
 10
41.74264098481791
 20
16.60433568345914
 10
41.30402811572428
 20
16.57657176697021
 10
40.87121346812632
 20
16.5314716838683
 10
40.44693343558368
 20
16.46932057135965
 10
40.033870453046
 20
16.39051136883266
 10
39.63463603769719
 20
16.29554233339104
 10
39.25175427803682
 20
16.18501388990233
 10
38.88764587587081
 20
16.05962483472475
 10
38.54461284169293
 20
15.92016791787555
 10
38.22482394082167
 20
15.76752483088606
 10
37.93030098165998
 20
15.60266063245413
 10
37.66290603315463
 20
15.42661764718166
 10
37.42432965227886
 20
15.24050887544542
 10
37.21608019572725
 20
15.04551095685784
 10
37.03947428363893
 20
14.84285673104503
 10
36.89562847539908
 20
14.63382744326294
 10
36.78545221056118
 20
14.41974464396028
 10
36.70964205893358
 20
14.20196183352231
 10
36.66867731668843
 20
13.98185590501818
 10
36.66281697615433
 20
13.76081843898527
 10
36.66796089737785
 20
13.69408582777254
  0
SPLINE
  5
D3
330
2
100
AcDbEntity
  8
0
100
AcDbSpline
210
0.0
220
0.0
230
1.0
 70
     8
 71
     3
 72
     8
 73
     4
 74
     0
 42
0.000000001
 43
0.0000000001
 40
0.0
 40
0.0
 40
0.0
 40
0.0
 40
1.0
 40
1.0
 40
1.0
 40
1.0
 10
38.84164775387372
 20
17.92685027230161
 30
0.0
 10
38.8404885574536
 20
17.92622761276407
 30
0.0
 10
38.83933837549719
 20
17.92553861172278
 30
0.0
 10
38.83819688963257
 20
17.92478554690751
 30
0.0
  0
LWPOLYLINE
  5
D4
330
2
100
AcDbEntity
  8
0
100
AcDbPolyline
 90
       19
 70
   128
 43
0.0
 10
38.84164775387031
 20
17.92685027229999
 10
39.14234174548699
 20
18.07427293602362
 10
39.46865056467322
 20
18.20738303915115
 10
39.81785939641624
 20
18.32507313595415
 10
40.18706290277567
 20
18.42636407162085
 10
40.57318939467989
 20
18.51041312866456
 10
40.97302638767323
 20
18.57652103804473
 10
41.38324732905313
 20
18.62413779705414
 10
41.8004392740653
 20
18.65286724508216
 10
42.22113128070415
 20
18.66247035966229
 10
42.64182328736286
 20
18.65286724508216
 10
43.05901523237503
 20
18.62413779705414
 10
43.46923617375494
 20
18.57652103804473
 10
43.86907316674828
 20
18.51041312866456
 10
44.25519965865247
 20
18.42636407162085
 10
44.62440316501193
 20
18.32507313595415
 10
44.97361199675496
 20
18.20738303915115
 10
45.29992081594116
 20
18.07427293602362
 10
45.60061480755786
 20
17.92685027229999
  0
SPLINE
  5
D5
330
2
100
AcDbEntity
  8
0
100
AcDbSpline
210
0.0
220
0.0
230
1.0
 70
     8
 71
     3
 72
     8
 73
     4
 74
     0
 42
0.000000001
 43
0.0000000001
 40
0.0
 40
0.0
 40
0.0
 40
0.0
 40
1.0
 40
1.0
 40
1.0
 40
1.0
 10
45.6040656717949
 20
17.92478554690748
 30
0.0
 10
45.60292366787384
 20
17.92553895349665
 30
0.0
 10
45.60176809862405
 20
17.92623078480837
 30
0.0
 10
45.60061480755375
 20
17.92685027230161
 30
0.0
  0
ARC
  5
D6
330
2
100
AcDbEntity
  8
0
100
AcDbCircle
 10
43.74494625255929
 20
13.8349489927297
 30
0.0
 40
3.954382785586071
100
AcDbArc
 50
58.94361143680064
 51
60.33924946770405
  0
SPLINE
  5
D7
330
2
100
AcDbEntity
  8
0
100
AcDbSpline
210
0.0
220
0.0
230
1.0
 70
     8
 71
     3
 72
    12
 73
     8
 74
     0
 42
0.000000001
 43
0.0000000001
 40
0.0
 40
0.0
 40
0.0
 40
0.0
 40
0.2500000000000004
 40
0.2500000000000004
 40
0.5000000000000008
 40
0.5000000000000008
 40
1.0
 40
1.0
 40
1.0
 40
1.0
 10
45.85008884417768
 20
17.09875680395508
 30
0.0
 10
45.84977965681203
 20
17.11010968028485
 30
0.0
 10
45.84784906052607
 20
17.12224920518854
 30
0.0
 10
45.84101516227228
 20
17.14685518061647
 30
0.0
 10
45.83611700488388
 20
17.15919153112789
 30
0.0
 10
45.81817861021121
 20
17.19336581781657
 30
0.0
 10
45.80171698230718
 20
17.21240380315245
 30
0.0
 10
45.78493886052828
 20
17.22251056033412
 30
0.0
  0
LWPOLYLINE
  5
D8
330
2
100
AcDbEntity
  8
0
100
AcDbPolyline
 90
        3
 70
   128
 43
0.0
 10
45.88198418022757
 20
15.92665226796895
 10
45.8781352690614
 20
16.06823792839851
 10
45.85008884418162
 20
17.0987568039557
  0
LWPOLYLINE
  5
D9
330
2
100
AcDbEntity
  8
0
100
AcDbPolyline
 90
        3
 70
   128
 43
0.0
 10
38.59217371724657
 20
17.0987568039557
 10
38.56412729236674
 20
16.06823792839851
 10
38.56017044193797
 20
15.92268162479841
  0
SPLINE
  5
DA
330
2
100
AcDbEntity
  8
0
100
AcDbSpline
210
0.0
220
0.0
230
1.0
 70
     8
 71
     3
 72
    12
 73
     8
 74
     0
 42
0.000000001
 43
0.0000000001
 40
0.0
 40
0.0
 40
0.0
 40
0.0
 40
0.2499999999999954
 40
0.2499999999999954
 40
0.4999999999999908
 40
0.4999999999999908
 40
1.0
 40
1.0
 40
1.0
 40
1.0
 10
38.65732370089914
 20
17.22251056033414
 30
0.0
 10
38.64893274146616
 20
17.21745603810403
 30
0.0
 10
38.64071012052428
 20
17.21032676771578
 30
0.0
 10
38.62524865469886
 20
17.19256588315039
 30
0.0
 10
38.61814825456953
 20
17.18204698783925
 30
0.0
 10
38.60017630080304
 20
17.14784103103331
 30
0.0
 10
38.59279223517602
 20
17.12146781450721
 30
0.0
 10
38.5921737172498
 20
17.09875680395508
 30
0.0
  0
ARC
  5
DB
330
2
100
AcDbEntity
  8
0
100
AcDbCircle
 10
40.69256244927724
 20
13.84299525590197
 30
0.0
 40
3.945037446686531
100
AcDbArc
 50
119.7831070302607
 51
121.0575283144982
  0
ELLIPSE
  5
DC
330
2
100
AcDbEntity
  8
0
100
AcDbEllipse
 10
46.39358984680602
 20
16.91814587418539
 30
0.0
 11
-0.0145302563348033
 21
0.0474767078663307
 31
0.0
210
0.0
220
0.0
230
1.0
 40
0.4241965134000001
 41
6.276413276825075
 42
7.084936568821362
  0
LINE
  5
DD
330
2
100
AcDbEntity
  8
0
100
AcDbLine
 10
46.3255135286474
 20
16.47814367473528
 30
0.0
 11
46.36901307903325
 21
16.9467344505148
 31
0.0
  0
LINE
  5
DE
330
2
100
AcDbEntity
  8
0
100
AcDbLine
 10
46.3255135286474
 20
16.47814367473528
 30
0.0
 11
46.33150442357549
 21
16.00018962928557
 31
0.0
  0
LINE
  5
DF
330
2
100
AcDbEntity
  8
0
100
AcDbLine
 10
45.66037678199687
 20
17.59525450290689
 30
0.0
 11
46.3853236964728
 21
16.96743205856727
 31
0.0
  0
LINE
  5
E0
330
2
100
AcDbEntity
  8
0
100
AcDbLine
 10
38.11674903278079
 20
16.47814367473528
 30
0.0
 11
38.11075813785268
 21
16.00018962928568
 31
0.0
  0
LINE
  5
E1
330
2
100
AcDbEntity
  8
0
100
AcDbLine
 10
38.07324948239493
 20
16.9467344505148
 30
0.0
 11
38.11674903278079
 21
16.47814367473528
 31
0.0
  0
ELLIPSE
  5
E2
330
2
100
AcDbEntity
  8
0
100
AcDbEllipse
 10
38.04867271462216
 20
16.91814587418539
 30
0.0
 11
0.0145302563347808
 21
0.0474767078663307
 31
0.0
210
0.0
220
0.0
230
0.9999999999999998
 40
0.4241965134
 41
5.48143404553838
 42
6.289957337533962
  0
LINE
  5
E3
330
2
100
AcDbEntity
  8
0
100
AcDbLine
 10
38.05693886495538
 20
16.96743205856727
 30
0.0
 11
38.78194791914199
 21
17.5953083174663
 31
0.0
  0
SPLINE
  5
E4
330
2
100
AcDbEntity
  8
0
100
AcDbSpline
210
0.0
220
0.0
230
1.0
 70
     8
 71
     3
 72
    10
 73
     6
 74
     0
 42
0.000000001
 43
0.0000000001
 40
0.0
 40
0.0
 40
0.0
 40
0.0
 40
0.1192843903783986
 40
0.5585647750023331
 40
1.0
 40
1.0
 40
1.0
 40
1.0
 10
38.82937952789426
 20
17.90863420767195
 30
0.0
 10
38.82939933958584
 20
17.90946504662398
 30
0.0
 10
38.82949211042563
 20
17.91335555879266
 30
0.0
 10
38.8321319117002
 20
17.91933225570962
 30
0.0
 10
38.83617193542305
 20
17.92296482058501
 30
0.0
 10
38.83819688963257
 20
17.92478554690751
 30
0.0
  0
SPLINE
  5
E5
330
2
100
AcDbEntity
  8
0
100
AcDbSpline
210
0.0
220
0.0
230
1.0
 70
     8
 71
     3
 72
    10
 73
     6
 74
     0
 42
0.000000001
 43
0.0000000001
 40
0.0
 40
0.0
 40
0.0
 40
0.0
 40
0.4411952332106951
 40
0.8802367975535435
 40
1.0
 40
1.0
 40
1.0
 40
1.0
 10
45.6040656717949
 20
17.92478554690748
 30
0.0
 10
45.60609070338157
 20
17.92296485150497
 30
0.0
 10
45.61013088148111
 20
17.91933234831858
 30
0.0
 10
45.61277124436171
 20
17.91335205094295
 30
0.0
 10
45.6128637632513
 20
17.90945761321807
 30
0.0
 10
45.61288359192697
 20
17.90862295617615
 30
0.0
  0
LINE
  5
E6
330
2
100
AcDbEntity
  8
0
100
AcDbLine
 10
38.06510985658043
 20
16.05092164858124
 30
0.0
 11
38.06344836438019
 21
16.37924469953038
 31
0.0
  0
LINE
  5
E7
330
2
100
AcDbEntity
  8
0
100
AcDbLine
 10
37.90648762515865
 20
16.21576252687043
 30
0.0
 11
37.91155731434964
 21
16.50932570881519
 31
0.0
  0
LINE
  5
E8
330
2
100
AcDbEntity
  8
0
100
AcDbLine
 10
38.06344836438019
 20
16.37924469953038
 30
0.0
 11
38.05155556324366
 21
16.4689116954681
 31
0.0
  0
LINE
  5
E9
330
2
100
AcDbEntity
  8
0
100
AcDbLine
 10
46.37716304317822
 20
16.05296457854461
 30
0.0
 11
46.37881419704799
 21
16.37924469953038
 31
0.0
  0
LINE
  5
EA
330
2
100
AcDbEntity
  8
0
100
AcDbLine
 10
46.37881419704799
 20
16.37924469953038
 30
0.0
 11
46.39070699818452
 21
16.4689116954681
 31
0.0
  0
LINE
  5
EB
330
2
100
AcDbEntity
  8
0
100
AcDbLine
 10
46.53070524707853
 20
16.50932570881519
 30
0.0
 11
46.53577493626522
 21
16.21576252686628
 31
0.0
  0
SPLINE
  5
EC
330
2
100
AcDbEntity
  8
0
100
AcDbSpline
210
0.0
220
0.0
230
1.0
 70
     8
 71
     3
 72
     8
 73
     4
 74
     0
 42
0.000000001
 43
0.0000000001
 40
0.0
 40
0.0
 40
0.0
 40
0.0
 40
1.0
 40
1.0
 40
1.0
 40
1.0
 10
37.80855652536722
 20
17.03309083469189
 30
0.0
 10
37.80806698098976
 20
17.032431279007
 30
0.0
 10
37.80757063756936
 20
17.03169251198147
 30
0.0
 10
37.80707429929158
 20
17.03088337855247
 30
0.0
  0
SPLINE
  5
ED
330
2
100
AcDbEntity
  8
0
100
AcDbSpline
210
0.0
220
0.0
230
1.0
 70
     8
 71
     3
 72
     8
 73
     4
 74
     0
 42
0.000000001
 43
0.0000000001
 40
0.0
 40
0.0
 40
0.0
 40
0.0
 40
1.0
 40
1.0
 40
1.0
 40
1.0
 10
37.83499728792086
 20
16.48726278173943
 30
0.0
 10
37.82563868152109
 20
16.66939060144336
 30
0.0
 10
37.81682020341403
 20
16.85133494314198
 30
0.0
 10
37.80855652536722
 20
17.03309083469189
 30
0.0
  0
ARC
  5
EE
330
2
100
AcDbEntity
  8
0
100
AcDbCircle
 10
39.31285442494919
 20
15.48435621722226
 30
0.0
 40
1.786024438423059
100
AcDbArc
 50
143.4852171867002
 51
145.8383162472006
  0
SPLINE
  5
EF
330
2
100
AcDbEntity
  8
0
100
AcDbSpline
210
0.0
220
0.0
230
1.0
 70
     8
 71
     3
 72
    12
 73
     8
 74
     0
 42
0.000000001
 43
0.0000000001
 40
0.0
 40
0.0
 40
0.0
 40
0.0
 40
0.2499999999999984
 40
0.2499999999999984
 40
0.4999999999999969
 40
0.4999999999999969
 40
1.0
 40
1.0
 40
1.0
 40
1.0
 10
37.91155731435184
 20
16.50932570881309
 30
0.0
 10
37.91175186722397
 20
16.52057930875933
 30
0.0
 10
37.91097773253596
 20
16.53037646792913
 30
0.0
 10
37.90765213886273
 20
16.54618406525874
 30
0.0
 10
37.9051013457427
 20
16.55206943539832
 30
0.0
 10
37.89553430140887
 20
16.5624233131651
 30
0.0
 10
37.88653693099349
 20
16.55941315920149
 30
0.0
 10
37.87742057494449
 20
16.54709464076652
 30
0.0
  0
ARC
  5
F0
330
2
100
AcDbEntity
  8
0
100
AcDbCircle
 10
38.91723597563345
 20
16.32597384332196
 30
0.0
 40
1.315049961203996
100
AcDbArc
 50
147.5860389818016
 51
174.3059486323998
  0
SPLINE
  5
F1
330
2
100
AcDbEntity
  8
0
100
AcDbSpline
210
0.0
220
0.0
230
1.0
 70
     8
 71
     3
 72
    12
 73
     8
 74
     0
 42
0.000000001
 43
0.0000000001
 40
0.0
 40
0.0
 40
0.0
 40
0.0
 40
0.2499999999999957
 40
0.2499999999999957
 40
0.4999999999999913
 40
0.4999999999999913
 40
1.0
 40
1.0
 40
1.0
 40
1.0
 10
46.56484198648297
 20
16.54709464076652
 30
0.0
 10
46.56028277688892
 20
16.55325529389712
 30
0.0
 10
46.55580748985408
 20
16.55712273439165
 30
0.0
 10
46.5474091427606
 20
16.56002505394352
 30
0.0
 10
46.54356280545374
 20
16.55898631134073
 30
0.0
 10
46.53397721271556
 20
16.54864588987378
 30
0.0
 10
46.53031605122745
 20
16.53183812061995
 30
0.0
 10
46.53070524707567
 20
16.50932570881306
 30
0.0
  0
ARC
  5
F2
330
2
100
AcDbEntity
  8
0
100
AcDbCircle
 10
45.13311110496206
 20
15.48701654019654
 30
0.0
 40
1.781465378953319
100
AcDbArc
 50
33.95184508790093
 51
36.51688195490029
  0
LINE
  5
F3
330
2
100
AcDbEntity
  8
0
100
AcDbLine
 10
46.60984866714036
 20
16.53780364456465
 30
0.0
 11
46.61084957014695
 21
16.48195770675602
 31
0.0
  0
SPLINE
  5
F4
330
2
100
AcDbEntity
  8
0
100
AcDbSpline
210
0.0
220
0.0
230
1.0
 70
     8
 71
     3
 72
    14
 73
    10
 74
     0
 42
0.000000001
 43
0.0000000001
 40
0.0000000000000001
 40
0.0000000000000001
 40
0.0000000000000001
 40
0.0000000000000001
 40
0.0006000000147734
 40
0.0006000000147734
 40
0.0006000000147734
 40
0.0030000018293978
 40
0.0030000018293978
 40
0.0030000018293978
 40
0.0065523447927329
 40
0.0065523447927329
 40
0.0065523447927329
 40
0.0065523447927329
 10
46.63370603606021
 20
17.03309083469184
 30
0.0
 10
46.63301933334095
 20
17.01798711643712
 30
0.0
 10
46.63232879792197
 20
17.00288208604647
 30
0.0
 10
46.63163443881797
 20
16.98777574879139
 30
0.0
 10
46.62885700138623
 20
16.92735037767245
 30
0.0
 10
46.62601838537166
 20
16.86690406804802
 30
0.0
 10
46.62311915319948
 20
16.80643715020595
 30
0.0
 10
46.6188278804541
 20
16.71693757889658
 30
0.0
 10
46.61440380730127
 20
16.62739273460214
 30
0.0
 10
46.60984866714555
 20
16.53780364456295
 30
0.0
  0
SPLINE
  5
F5
330
2
100
AcDbEntity
  8
0
100
AcDbSpline
210
0.0
220
0.0
230
1.0
 70
     8
 71
     3
 72
     8
 73
     4
 74
     0
 42
0.000000001
 43
0.0000000001
 40
0.0
 40
0.0
 40
0.0
 40
0.0
 40
1.0
 40
1.0
 40
1.0
 40
1.0
 10
46.6351882621359
 20
17.03088337855243
 30
0.0
 10
46.63468938239109
 20
17.03169665509509
 30
0.0
 10
46.63419535836175
 20
17.03243157820654
 30
0.0
 10
46.63370603606021
 20
17.03309083469184
 30
0.0
  0
ARC
  5
F6
330
2
100
AcDbEntity
  8
0
100
AcDbCircle
 10
45.52502658579474
 20
16.32597384332196
 30
0.0
 40
1.315049961204202
100
AcDbArc
 50
5.694051367600244
 51
32.41396101819833
  0
ELLIPSE
  5
F7
330
2
100
AcDbEntity
  8
0
100
AcDbEllipse
 10
38.00201130608231
 20
16.42514029610282
 30
0.0
 11
0.0149771277522266
 21
0.0988056384087525
 31
0.0
210
0.0
220
0.0
230
0.9999999999999998
 40
0.4926395442000002
 41
5.244502075587008
 42
6.218569152574497
  0
ELLIPSE
  5
F8
330
2
100
AcDbEntity
  8
0
100
AcDbEllipse
 10
46.44025125534585
 20
16.42514029610282
 30
0.0
 11
-0.0149771277522153
 21
0.0988056384087524
 31
0.0
210
0.0
220
0.0
230
1.0
 40
0.4926395442000001
 41
0.0646161546056241
 42
1.038683231592795
  0
LINE
  5
F9
330
2
100
AcDbEntity
  8
0
100
AcDbLine
 10
38.07324948239493
 20
16.9467344505148
 30
0.0
 11
37.85327276528993
 21
17.01023625892858
 31
0.0
  0
SPLINE
  5
FA
330
2
100
AcDbEntity
  8
0
100
AcDbSpline
210
0.0
220
0.0
230
1.0
 70
     8
 71
     3
 72
    12
 73
     8
 74
     0
 42
0.000000001
 43
0.0000000001
 40
0.0
 40
0.0
 40
0.0
 40
0.0
 40
0.25
 40
0.25
 40
0.5
 40
0.5
 40
1.0
 40
1.0
 40
1.0
 40
1.0
 10
37.80855652536722
 20
17.03309083469189
 30
0.0
 10
37.81031510103128
 20
17.03546013690394
 30
0.0
 10
37.81358169529138
 20
17.03645624091222
 30
0.0
 10
37.82117989693935
 20
17.03583939795237
 30
0.0
 10
37.82542328939221
 20
17.03431107135995
 30
0.0
 10
37.83818723529564
 20
17.02723397220479
 30
0.0
 10
37.84644025205738
 20
17.01948760542085
 30
0.0
 10
37.85327276528781
 20
17.01023625893711
 30
0.0
  0
SPLINE
  5
FB
330
2
100
AcDbEntity
  8
0
100
AcDbSpline
210
0.0
220
0.0
230
1.0
 70
     8
 71
     3
 72
     8
 73
     4
 74
     0
 42
0.000000001
 43
0.0000000001
 40
0.0
 40
0.0
 40
0.0
 40
0.0
 40
1.0
 40
1.0
 40
1.0
 40
1.0
 10
46.63370603606021
 20
17.03309083469184
 30
0.0
 10
46.63194746039621
 20
17.03546013690394
 30
0.0
 10
46.62868086613609
 20
17.03645624091219
 30
0.0
 10
46.62011317326085
 20
17.03520994237654
 30
0.0
  0
LINE
  5
FC
330
2
100
AcDbEntity
  8
0
100
AcDbLine
 10
29.07759214151589
 20
14.75319035334387
 30
0.0
 11
29.01620015278285
 21
14.80635737517556
 31
0.0
  0
ARC
  5
FD
330
2
100
AcDbEntity
  8
0
100
AcDbCircle
 10
28.68826192488707
 20
11.73354609699936
 30
0.0
 40
0.6969503614586362
100
AcDbArc
 50
186.7979389510452
 51
211.9231966231112
  0
ELLIPSE
  5
FE
330
2
100
AcDbEntity
  8
0
100
AcDbEllipse
 10
28.35173145198837
 20
11.34437575878998
 30
0.0
 11
0.0056951000199927
 21
0.2164168344487888
 31
0.0
210
0.0
220
0.0
230
1.0
 40
0.666547673827923
 41
2.140156346915849
 42
6.71586156097118
  0
ELLIPSE
  5
FF
330
2
100
AcDbEntity
  8
0
100
AcDbEllipse
 10
28.44568312188514
 20
11.135078556325
 30
0.0
 11
-0.0803050594191197
 21
0.0014293624228012
 31
0.0
210
0.0
220
0.0
230
1.0
 40
0.6279380108771444
 41
0.0
 42
6.283185307179585
  0
POLYLINE
  5
100
330
2
100
AcDbEntity
  8
0
100
AcDb2dPolyline
 66
     1
 10
0.0
 20
0.0
 30
0.0
 70
     2
  0
VERTEX
  5
101
330
100
100
AcDbEntity
  8
0
100
AcDbVertex
100
AcDb2dVertex
 10
27.99959620963418
 20
13.30727678249963
 30
0.0
 42
0.0147079805190951
  0
VERTEX
  5
102
330
100
100
AcDbEntity
  8
0
100
AcDbVertex
100
AcDb2dVertex
 10
28.35227014913723
 20
13.59481088157476
 30
0.0
 42
0.0565499357529007
 70
     1
  0
VERTEX
  5
103
330
100
100
AcDbEntity
  8
0
100
AcDbVertex
100
AcDb2dVertex
 10
28.40658052891935
 20
13.65376716423811
 30
0.0
 42
0.0263270558370679
  0
VERTEX
  5
104
330
100
100
AcDbEntity
  8
0
100
AcDbVertex
100
AcDb2dVertex
 10
28.7370704584402
 20
14.1595447387596
 30
0.0
 42
0.0078830553614557
 70
     1
  0
VERTEX
  5
105
330
100
100
AcDbEntity
  8
0
100
AcDbVertex
100
AcDb2dVertex
 10
29.72214471805175
 20
15.91907557216542
 30
0.0
 42
0.0227848685516318
  0
VERTEX
  5
106
330
100
100
AcDbEntity
  8
0
100
AcDbVertex
100
AcDb2dVertex
 10
30.25853913415167
 20
17.03220397644046
 30
0.0
 42
-0.0189428181106947
 70
     1
  0
VERTEX
  5
107
330
100
100
AcDbEntity
  8
0
100
AcDbVertex
100
AcDb2dVertex
 10
30.89332260020525
 20
18.37580173904848
 30
0.0
 42
-0.1211095113645475
  0
VERTEX
  5
108
330
100
100
AcDbEntity
  8
0
100
AcDbVertex
100
AcDb2dVertex
 10
32.18477171672128
 20
19.8473956789771
 30
0.0
 42
-0.2033912596499449
 70
     1
  0
VERTEX
  5
109
330
100
100
AcDbEntity
  8
0
100
AcDbVertex
100
AcDb2dVertex
 10
33.35546519583591
 20
20.09465736720776
 30
0.0
 42
-0.2269591852174869
  0
VERTEX
  5
10A
330
100
100
AcDbEntity
  8
0
100
AcDbVertex
100
AcDb2dVertex
 10
33.86368151909927
 20
19.71665105455705
 30
0.0
 42
-0.1299316004560975
 70
     1
  0
VERTEX
  5
10B
330
100
100
AcDbEntity
  8
0
100
AcDbVertex
100
AcDb2dVertex
 10
34.10396343139641
 20
18.67405028251096
 30
0.0
  0
SEQEND
  5
10C
330
100
100
AcDbEntity
  8
0
  0
POLYLINE
  5
10D
330
2
100
AcDbEntity
  8
0
100
AcDb2dPolyline
 66
     1
 10
0.0
 20
0.0
 30
0.0
  0
VERTEX
  5
10E
330
10D
100
AcDbEntity
  8
0
100
AcDbVertex
100
AcDb2dVertex
 10
28.00013602746522
 20
13.11639616110768
 30
0.0
 42
0.0183784591184367
  0
VERTEX
  5
10F
330
10D
100
AcDbEntity
  8
0
100
AcDbVertex
100
AcDb2dVertex
 10
28.45213706167085
 20
13.47942192687795
 30
0.0
 42
0.0565499357529005
  0
VERTEX
  5
110
330
10D
100
AcDbEntity
  8
0
100
AcDbVertex
100
AcDb2dVertex
 10
28.52976066892184
 20
13.56368573333259
 30
0.0
 42
0.0263270558370679
  0
VERTEX
  5
111
330
10D
100
AcDbEntity
  8
0
100
AcDbVertex
100
AcDb2dVertex
 10
28.86903513429638
 20
14.08290704952518
 30
0.0
 42
0.0078830553614558
  0
VERTEX
  5
112
330
10D
100
AcDbEntity
  8
0
100
AcDbVertex
100
AcDb2dVertex
 10
29.85645990319831
 20
15.84663634160582
 30
0.0
 42
0.0227848685516318
  0
VERTEX
  5
113
330
10D
100
AcDbEntity
  8
0
100
AcDbVertex
100
AcDb2dVertex
 10
30.39888885984332
 20
16.97228765493044
 30
0.0
 42
-0.0189428181106948
  0
VERTEX
  5
114
330
10D
100
AcDbEntity
  8
0
100
AcDbVertex
100
AcDb2dVertex
 10
31.0287346693023
 20
18.30543425630344
 30
0.0
 42
-0.1211095113645475
  0
VERTEX
  5
115
330
10D
100
AcDbEntity
  8
0
100
AcDbVertex
100
AcDb2dVertex
 10
32.27212594622042
 20
19.72226674677663
 30
0.0
 42
-0.203391259649945
  0
VERTEX
  5
116
330
10D
100
AcDbEntity
  8
0
100
AcDbVertex
100
AcDb2dVertex
 10
33.32617143437719
 20
19.94489126081309
 30
0.0
 42
-0.2269591852174862
  0
VERTEX
  5
117
330
10D
100
AcDbEntity
  8
0
100
AcDbVertex
100
AcDb2dVertex
 10
33.72867112313759
 20
19.64551594320343
 30
0.0
 42
-0.11758209930704
  0
VERTEX
  5
118
330
10D
100
AcDbEntity
  8
0
100
AcDbVertex
100
AcDb2dVertex
 10
33.95215269142673
 20
18.77333047053672
 30
0.0
 42
-0.1299316004560976
  0
SEQEND
  5
119
330
10D
100
AcDbEntity
  8
0
  0
POLYLINE
  5
11A
330
2
100
AcDbEntity
  8
0
100
AcDb2dPolyline
 66
     1
 10
0.0
 20
0.0
 30
0.0
 70
     2
  0
VERTEX
  5
11B
330
11A
100
AcDbEntity
  8
0
100
AcDbVertex
100
AcDb2dVertex
 10
34.61445729432977
 20
18.34020086771885
 30
0.0
 42
-0.0408142346358466
  0
VERTEX
  5
11C
330
11A
100
AcDbEntity
  8
0
100
AcDbVertex
100
AcDb2dVertex
 10
35.37981263572977
 20
19.48829427008655
 30
0.0
 42
-0.0611697493178368
 70
     1
  0
VERTEX
  5
11D
330
11A
100
AcDbEntity
  8
0
100
AcDbVertex
100
AcDb2dVertex
 10
36.03629082248151
 20
20.1364868973134
 30
0.0
 42
-0.0260422063245113
  0
VERTEX
  5
11E
330
11A
100
AcDbEntity
  8
0
100
AcDbVertex
100
AcDb2dVertex
 10
37.30304319533914
 20
21.01205151364886
 30
0.0
 42
-0.0377083043789171
 70
     1
  0
VERTEX
  5
11F
330
11A
100
AcDbEntity
  8
0
100
AcDbVertex
100
AcDb2dVertex
 10
38.24835767162714
 20
21.5009937902468
 30
0.0
 42
-0.0594833198369622
  0
VERTEX
  5
120
330
11A
100
AcDbEntity
  8
0
100
AcDbVertex
100
AcDb2dVertex
 10
38.73416762635103
 20
21.64233656369051
 30
0.0
 42
-0.0336993279757298
 70
     1
  0
VERTEX
  5
121
330
11A
100
AcDbEntity
  8
0
100
AcDbVertex
100
AcDb2dVertex
 10
39.62091603261071
 20
21.72855644523588
 30
0.0
  0
SEQEND
  5
122
330
11A
100
AcDbEntity
  8
0
  0
POLYLINE
  5
123
330
2
100
AcDbEntity
  8
0
100
AcDb2dPolyline
 66
     1
 10
0.0
 20
0.0
 30
0.0
  0
VERTEX
  5
124
330
123
100
AcDbEntity
  8
0
100
AcDbVertex
100
AcDb2dVertex
 10
34.7412557899344
 20
18.2541638921724
 30
0.0
 42
-0.0412280768290724
  0
VERTEX
  5
125
330
123
100
AcDbEntity
  8
0
100
AcDbVertex
100
AcDb2dVertex
 10
35.49946857650738
 20
19.39358172117331
 30
0.0
 42
-0.0611697493178367
  0
VERTEX
  5
126
330
123
100
AcDbEntity
  8
0
100
AcDbVertex
100
AcDb2dVertex
 10
36.12947599773698
 20
20.0156376763907
 30
0.0
 42
-0.0260422063245114
  0
VERTEX
  5
127
330
123
100
AcDbEntity
  8
0
100
AcDbVertex
100
AcDb2dVertex
 10
37.38316033535696
 20
20.88216981763136
 30
0.0
 42
-0.0377083043789171
  0
VERTEX
  5
128
330
123
100
AcDbEntity
  8
0
100
AcDbVertex
100
AcDb2dVertex
 10
38.30805893527377
 20
21.36055244945282
 30
0.0
 42
-0.0594833198369626
  0
VERTEX
  5
129
330
123
100
AcDbEntity
  8
0
100
AcDbVertex
100
AcDb2dVertex
 10
38.75912782458412
 20
21.49178756970789
 30
0.0
 42
-0.0306718678517373
  0
VERTEX
  5
12A
330
123
100
AcDbEntity
  8
0
100
AcDbVertex
100
AcDb2dVertex
 10
39.54727474741803
 20
21.5732354651964
 30
0.0
 42
-0.0336993279757294
  0
SEQEND
  5
12B
330
123
100
AcDbEntity
  8
0
  0
POLYLINE
  5
12C
330
2
100
AcDbEntity
  8
0
100
AcDb2dPolyline
 66
     1
 10
0.0
 20
0.0
 30
0.0
 70
     2
  0
VERTEX
  5
12D
330
12C
100
AcDbEntity
  8
0
100
AcDbVertex
100
AcDb2dVertex
 10
27.99621128706639
 20
11.65104930294467
 30
0.0
 42
-0.010244397601292
  0
VERTEX
  5
12E
330
12C
100
AcDbEntity
  8
0
100
AcDbVertex
100
AcDb2dVertex
 10
27.96556577798529
 20
12.06485610859196
 30
0.0
 42
-0.0117355354486352
 70
     1
  0
VERTEX
  5
12F
330
12C
100
AcDbEntity
  8
0
100
AcDbVertex
100
AcDb2dVertex
 10
27.95471339136947
 20
12.42692238174763
 30
0.0
 42
-0.0122705881831081
  0
VERTEX
  5
130
330
12C
100
AcDbEntity
  8
0
100
AcDbVertex
100
AcDb2dVertex
 10
27.97168753380216
 20
13.3674542172868
 30
0.0
 42
-0.1105801249019598
 70
     1
  0
VERTEX
  5
131
330
12C
100
AcDbEntity
  8
0
100
AcDbVertex
100
AcDb2dVertex
 10
27.99913752137918
 20
13.46946983005433
 30
0.0
 42
-0.1875122875448442
  0
VERTEX
  5
132
330
12C
100
AcDbEntity
  8
0
100
AcDbVertex
100
AcDb2dVertex
 10
28.08734437514242
 20
13.5463601605019
 30
0.0
 42
0.1191342593265606
 70
     1
  0
VERTEX
  5
133
330
12C
100
AcDbEntity
  8
0
100
AcDbVertex
100
AcDb2dVertex
 10
28.23794481574694
 20
13.6457604990668
 30
0.0
 42
0.0419399415310854
  0
VERTEX
  5
134
330
12C
100
AcDbEntity
  8
0
100
AcDbVertex
100
AcDb2dVertex
 10
28.58081591426261
 20
14.08173447227965
 30
0.0
 42
0.0238997824364109
 70
     1
  0
VERTEX
  5
135
330
12C
100
AcDbEntity
  8
0
100
AcDbVertex
100
AcDb2dVertex
 10
29.0762949460678
 20
14.91814753195786
 30
0.0
 42
0.0198540029837182
  0
VERTEX
  5
136
330
12C
100
AcDbEntity
  8
0
100
AcDbVertex
100
AcDb2dVertex
 10
29.59692838654727
 20
16.00338851314897
 30
0.0
 42
-0.017051440040954
 70
     1
  0
VERTEX
  5
137
330
12C
100
AcDbEntity
  8
0
100
AcDbVertex
100
AcDb2dVertex
 10
30.19598107962897
 20
17.27024480127584
 30
0.0
 42
-0.014732007632294
  0
VERTEX
  5
138
330
12C
100
AcDbEntity
  8
0
100
AcDbVertex
100
AcDb2dVertex
 10
30.89783470377603
 20
18.53905015301137
 30
0.0
 42
-0.0220053834587809
 70
     1
  0
VERTEX
  5
139
330
12C
100
AcDbEntity
  8
0
100
AcDbVertex
100
AcDb2dVertex
 10
31.42892887590778
 20
19.35191843715302
 30
0.0
 42
-0.0483205150447887
  0
VERTEX
  5
13A
330
12C
100
AcDbEntity
  8
0
100
AcDbVertex
100
AcDb2dVertex
 10
31.61252511875439
 20
19.56154299257705
 30
0.0
 42
-0.0226309934677905
 70
     1
  0
VERTEX
  5
13B
330
12C
100
AcDbEntity
  8
0
100
AcDbVertex
100
AcDb2dVertex
 10
32.0630371289351
 20
19.94851581707879
 30
0.0
 42
-0.1229882588492172
  0
VERTEX
  5
13C
330
12C
100
AcDbEntity
  8
0
100
AcDbVertex
100
AcDb2dVertex
 10
32.84990227642754
 20
20.2995991274947
 30
0.0
 42
-0.1679041999812225
 70
     1
  0
VERTEX
  5
13D
330
12C
100
AcDbEntity
  8
0
100
AcDbVertex
100
AcDb2dVertex
 10
33.48122528445331
 20
20.19915409125225
 30
0.0
 42
-0.0990599538815539
  0
VERTEX
  5
13E
330
12C
100
AcDbEntity
  8
0
100
AcDbVertex
100
AcDb2dVertex
 10
33.9054661741575
 20
19.85046481280992
 30
0.0
 42
-0.112105182288149
 70
     1
  0
VERTEX
  5
13F
330
12C
100
AcDbEntity
  8
0
100
AcDbVertex
100
AcDb2dVertex
 10
34.1223853871683
 20
19.41492284302161
 30
0.0
 42
-0.0151178618587017
  0
VERTEX
  5
140
330
12C
100
AcDbEntity
  8
0
100
AcDbVertex
100
AcDb2dVertex
 10
34.20034947426327
 20
19.04655654225148
 30
0.0
 42
-0.0287215728086756
 70
     1
  0
VERTEX
  5
141
330
12C
100
AcDbEntity
  8
0
100
AcDbVertex
100
AcDb2dVertex
 10
34.22426821550593
 20
18.84969803430843
 30
0.0
 42
-0.0255513500870469
  0
VERTEX
  5
142
330
12C
100
AcDbEntity
  8
0
100
AcDbVertex
100
AcDb2dVertex
 10
34.22546916266654
 20
18.75277888850438
 30
0.0
 42
-0.0163398925305371
 70
     1
  0
VERTEX
  5
143
330
12C
100
AcDbEntity
  8
0
100
AcDbVertex
100
AcDb2dVertex
 10
34.21466391324577
 20
18.60165511037265
 30
0.0
  0
SEQEND
  5
144
330
12C
100
AcDbEntity
  8
0
  0
POLYLINE
  5
145
330
2
100
AcDbEntity
  8
0
100
AcDb2dPolyline
 66
     1
 10
0.0
 20
0.0
 30
0.0
  0
VERTEX
  5
146
330
145
100
AcDbEntity
  8
0
100
AcDbVertex
100
AcDb2dVertex
 10
27.92868928902871
 20
11.64465549843828
 30
0.0
 42
-0.0102443976012921
  0
VERTEX
  5
147
330
145
100
AcDbEntity
  8
0
100
AcDbVertex
100
AcDb2dVertex
 10
27.8978385380411
 20
12.06123368887431
 30
0.0
 42
-0.0117355354486352
  0
VERTEX
  5
148
330
145
100
AcDbEntity
  8
0
100
AcDbVertex
100
AcDb2dVertex
 10
27.88689077765311
 20
12.42648190048083
 30
0.0
 42
-0.012270588183108
  0
VERTEX
  5
149
330
145
100
AcDbEntity
  8
0
100
AcDbVertex
100
AcDb2dVertex
 10
27.9039249803578
 20
13.37034165659605
 30
0.0
 42
-0.1105801249019612
  0
VERTEX
  5
14A
330
145
100
AcDbEntity
  8
0
100
AcDbVertex
100
AcDb2dVertex
 10
27.93907582574441
 20
13.50097687168851
 30
0.0
 42
-0.1875122875448435
  0
VERTEX
  5
14B
330
145
100
AcDbEntity
  8
0
100
AcDbVertex
100
AcDb2dVertex
 10
28.06432731948314
 20
13.61015918952149
 30
0.0
 42
0.1191342593265596
  0
VERTEX
  5
14C
330
145
100
AcDbEntity
  8
0
100
AcDbVertex
100
AcDb2dVertex
 10
28.18833045383295
 20
13.69200459108874
 30
0.0
 42
0.0419399415310854
  0
VERTEX
  5
14D
330
145
100
AcDbEntity
  8
0
100
AcDbVertex
100
AcDb2dVertex
 10
28.52418017934905
 20
14.11905061470978
 30
0.0
 42
0.023899782436411
  0
VERTEX
  5
14E
330
145
100
AcDbEntity
  8
0
100
AcDbVertex
100
AcDb2dVertex
 10
29.01635643474459
 20
14.949888291486
 30
0.0
 42
0.0198540029837182
  0
VERTEX
  5
14F
330
145
100
AcDbEntity
  8
0
100
AcDbVertex
100
AcDb2dVertex
 10
29.53466099386182
 20
16.03027480637099
 30
0.0
 42
-0.017051440040954
  0
VERTEX
  5
150
330
145
100
AcDbEntity
  8
0
100
AcDbVertex
100
AcDb2dVertex
 10
30.13569063881553
 20
17.30131188516837
 30
0.0
 42
-0.014732007632294
  0
VERTEX
  5
151
330
145
100
AcDbEntity
  8
0
100
AcDbVertex
100
AcDb2dVertex
 10
30.8394784277259
 20
18.57361380444789
 30
0.0
 42
-0.0220053834587808
  0
VERTEX
  5
152
330
145
100
AcDbEntity
  8
0
100
AcDbVertex
100
AcDb2dVertex
 10
31.37383637670656
 20
19.39147747514472
 30
0.0
 42
-0.0483205150447887
  0
VERTEX
  5
153
330
145
100
AcDbEntity
  8
0
100
AcDbVertex
100
AcDb2dVertex
 10
31.56604960481234
 20
19.61094063987818
 30
0.0
 42
-0.0226309934677906
  0
VERTEX
  5
154
330
145
100
AcDbEntity
  8
0
100
AcDbVertex
100
AcDb2dVertex
 10
32.02121665050999
 20
20.00191196431207
 30
0.0
 42
-0.1229882588492173
  0
VERTEX
  5
155
330
145
100
AcDbEntity
  8
0
100
AcDbVertex
100
AcDb2dVertex
 10
32.83809856413347
 20
20.36638814853218
 30
0.0
 42
-0.1679041999812227
  0
VERTEX
  5
156
330
145
100
AcDbEntity
  8
0
100
AcDbVertex
100
AcDb2dVertex
 10
33.51317405783753
 20
20.25898198469929
 30
0.0
 42
-0.0990599538815537
  0
VERTEX
  5
157
330
145
100
AcDbEntity
  8
0
100
AcDbVertex
100
AcDb2dVertex
 10
33.95797495535832
 20
19.89339416001984
 30
0.0
 42
-0.1121051822881492
  0
VERTEX
  5
158
330
145
100
AcDbEntity
  8
0
100
AcDbVertex
100
AcDb2dVertex
 10
34.18828469579839
 20
19.43096597479626
 30
0.0
 42
-0.0151178618587018
  0
VERTEX
  5
159
330
145
100
AcDbEntity
  8
0
100
AcDbVertex
100
AcDb2dVertex
 10
34.26709783425742
 20
19.05858805891224
 30
0.0
 42
-0.0287215728086757
  0
VERTEX
  5
15A
330
145
100
AcDbEntity
  8
0
100
AcDbVertex
100
AcDb2dVertex
 10
34.29195564047525
 20
18.85400076089624
 30
0.0
 42
-0.0255513500870464
  0
VERTEX
  5
15B
330
145
100
AcDbEntity
  8
0
100
AcDbVertex
100
AcDb2dVertex
 10
34.29324242078809
 20
18.75015468602432
 30
0.0
 42
-0.0199823944303661
  0
VERTEX
  5
15C
330
145
100
AcDbEntity
  8
0
100
AcDbVertex
100
AcDb2dVertex
 10
34.27825901034204
 20
18.56006560755817
 30
0.0
 42
-0.0163398925305369
  0
SEQEND
  5
15D
330
145
100
AcDbEntity
  8
0
  0
ARC
  5
15E
330
2
100
AcDbEntity
  8
0
100
AcDbCircle
 10
28.43304306954541
 20
11.69395679671274
 30
0.0
 40
0.5067576875914377
100
AcDbArc
 50
185.5830063904138
 51
246.0296138336687
  0
ARC
  5
15F
330
2
100
AcDbEntity
  8
0
100
AcDbCircle
 10
37.27413010848024
 20
13.20568452300272
 30
0.0
 40
5.587651906493662
100
AcDbArc
 50
70.43788412605643
 51
116.3328464185058
  0
ARC
  5
160
330
2
100
AcDbEntity
  8
0
100
AcDbCircle
 10
37.27413010848024
 20
13.20568452300272
 30
0.0
 40
5.519827862415878
100
AcDbArc
 50
70.18752554965939
 51
116.0024116629932
  0
ELLIPSE
  5
161
330
2
100
AcDbEntity
  8
0
100
AcDbEllipse
 10
33.92413884362092
 20
19.62967261737287
 30
0.0
 11
-0.1940772478018594
 21
-0.0931433575586901
 31
0.0
210
0.0
220
0.0
230
0.9999999999999998
 40
0.630150460942089
 41
0.0
 42
6.283185307179585
  0
ELLIPSE
  5
162
330
2
100
AcDbEntity
  8
0
100
AcDbEllipse
 10
31.91751861532003
 20
19.67313991295808
 30
0.0
 11
-0.1018134452011411
 21
0.2150742772888994
 31
0.0
210
0.0
220
0.0
230
1.0
 40
0.689784645962839
 41
0.0
 42
6.283185307179585
  0
ELLIPSE
  5
163
330
2
100
AcDbEntity
  8
0
100
AcDbEllipse
 10
30.11001379666242
 20
16.81575683184404
 30
0.0
 11
-0.1925690905070453
 21
0.1012325984301623
 31
0.0
210
0.0
220
0.0
230
1.0
 40
0.6690787468311579
 41
0.0
 42
6.283185307179585
  0
ELLIPSE
  5
164
330
2
100
AcDbEntity
  8
0
100
AcDbEllipse
 10
28.97392676313335
 20
14.55888354667717
 30
0.0
 11
-0.1330544519243735
 21
0.1398011984003493
 31
0.0
210
0.0
220
0.0
230
1.0
 40
0.61891016768331
 41
0.0
 42
6.283185307179585
  0
ELLIPSE
  5
165
330
2
100
AcDbEntity
  8
0
100
AcDbEllipse
 10
33.19832476088067
 20
17.80383762368886
 30
0.0
 11
0.0623530239743677
 21
0.2348941615441443
 31
0.0
210
0.0
220
0.0
230
1.0
 40
0.6264909224045798
 41
1.701106927512163
 42
6.796647124917027
  0
ELLIPSE
  5
166
330
2
100
AcDbEntity
  8
0
100
AcDbEllipse
 10
33.12835621289155
 20
17.50396777975374
 30
0.0
 11
0.0174251800727949
 21
0.0865207584546451
 31
0.0
210
0.0
220
0.0
230
1.0
 40
0.6488298986685402
 41
0.0
 42
6.283185307179585
  0
ARC
  5
167
330
2
100
AcDbEntity
  8
0
100
AcDbCircle
 10
24.75453513213743
 20
18.72758335385666
 30
0.0
 40
8.472473832099844
100
AcDbArc
 50
296.42771716243
 51
351.1033270128062
  0
SPLINE
  5
168
330
2
100
AcDbEntity
  8
0
100
AcDbSpline
210
0.0
220
0.0
230
1.0
 70
     8
 71
     3
 72
    12
 73
     8
 74
     0
 42
0.000000001
 43
0.0000000001
 40
0.0
 40
0.0
 40
0.0
 40
0.0
 40
0.0561527116454317
 40
0.2973809050237443
 40
0.5349953206127607
 40
0.7911384943783137
 40
1.0
 40
1.0
 40
1.0
 40
1.0
 10
3.823727905824923
 20
5.590219339022591
 30
0.0
 10
3.827740259027957
 20
5.589225496978898
 30
0.0
 10
3.848989406073701
 20
5.583962177759962
 30
0.0
 10
3.888838958696693
 20
5.597906642757132
 30
0.0
 10
3.933683441609975
 20
5.630227147664744
 30
0.0
 10
3.968180609791852
 20
5.677155304974151
 30
0.0
 10
3.983121917284102
 20
5.715890888589849
 30
0.0
 10
3.989832955080369
 20
5.733289363645584
 30
0.0
  0
SPLINE
  5
169
330
2
100
AcDbEntity
  8
0
100
AcDbSpline
210
0.0
220
0.0
230
1.0
 70
     8
 71
     3
 72
    14
 73
    10
 74
     0
 42
0.000000001
 43
0.0000000001
 40
0.0
 40
0.0
 40
0.0
 40
0.0
 40
0.0895666099134426
 40
0.2574446574809165
 40
0.4265404418782642
 40
0.5984839071749279
 40
0.7563954180467296
 40
0.9018621575732323
 40
1.0
 40
1.0
 40
1.0
 40
1.0
 10
3.989832955080369
 20
5.733289363645584
 30
0.0
 10
3.993585581654562
 20
5.746179591580312
 30
0.0
 10
4.00437189659932
 20
5.783230455945008
 30
0.0
 10
4.010862743366455
 20
5.850161652933344
 30
0.0
 10
4.003311845068205
 20
5.927654464203597
 30
0.0
 10
3.980260066649592
 20
5.994992058641668
 30
0.0
 10
3.9445025056965
 20
6.044416004699972
 30
0.0
 10
3.903486518333983
 20
6.074561020588816
 30
0.0
 10
3.874054565809946
 20
6.077104313741892
 30
0.0
 10
3.862197693923748
 20
6.078128897519001
 30
0.0
  0
LINE
  5
16A
330
2
100
AcDbEntity
  8
0
100
AcDbLine
 10
3.70508409480129
 20
5.595783413962157
 30
0.0
 11
3.826732356336367
 21
5.587930565531672
 31
0.0
  0
LINE
  5
16B
330
2
100
AcDbEntity
  8
0
100
AcDbLine
 10
3.863811225890289
 20
6.08037273229846
 30
0.0
 11
3.742357671607568
 21
6.090824838895694
 31
0.0
  0
LINE
  5
16C
330
2
100
AcDbEntity
  8
0
100
AcDbLine
 10
3.52742333895052
 20
6.179337747144876
 30
0.0
 11
3.301161531381566
 21
6.193942732200588
 31
0.0
  0
SPLINE
  5
16D
330
2
100
AcDbEntity
  8
0
100
AcDbSpline
210
0.0
220
0.0
230
1.0
 70
     8
 71
     3
 72
    12
 73
     8
 74
     0
 42
0.000000001
 43
0.0000000001
 40
0.0
 40
0.0
 40
0.0
 40
0.0
 40
0.0561526623884076
 40
0.2973808932933741
 40
0.5349958086800302
 40
0.7911384618867823
 40
1.0
 40
1.0
 40
1.0
 40
1.0
 10
4.117824684580987
 20
6.48314146161146
 30
0.0
 10
4.121837037966939
 20
6.48214759052093
 30
0.0
 10
4.143086203783282
 20
6.476884113062383
 30
0.0
 10
4.182935803120598
 20
6.490828702004036
 30
0.0
 10
4.227780103924049
 20
6.523149338205383
 30
0.0
 10
4.262277437766037
 20
6.570077372052418
 30
0.0
 10
4.277218705713999
 20
6.608812924243046
 30
0.0
 10
4.283929733836354
 20
6.626211406151846
 30
0.0
  0
SPLINE
  5
16E
330
2
100
AcDbEntity
  8
0
100
AcDbSpline
210
0.0
220
0.0
230
1.0
 70
     8
 71
     3
 72
    14
 73
    10
 74
     0
 42
0.000000001
 43
0.0000000001
 40
0.0
 40
0.0
 40
0.0
 40
0.0
 40
0.0895670159676381
 40
0.2574451310446296
 40
0.4265406876876749
 40
0.5984844361673513
 40
0.7563960547221375
 40
0.9018622010086328
 40
1.0
 40
1.0
 40
1.0
 40
1.0
 10
4.283929733836354
 20
6.626211406151846
 30
0.0
 10
4.287682357710922
 20
6.639101685499866
 30
0.0
 10
4.29846863583704
 20
6.676152597826232
 30
0.0
 10
4.304959585581305
 20
6.743083840966716
 30
0.0
 10
4.297408411676556
 20
6.820576490306307
 30
0.0
 10
4.274357520883872
 20
6.887914459574291
 30
0.0
 10
4.238597184315129
 20
6.937337522104514
 30
0.0
 10
4.197583539933794
 20
6.967483099020608
 30
0.0
 10
4.168151432652264
 20
6.970026479149982
 30
0.0
 10
4.156294472679806
 20
6.971051100190525
 30
0.0
  0
LINE
  5
16F
330
2
100
AcDbEntity
  8
0
100
AcDbLine
 10
3.999179592227286
 20
6.488705086580822
 30
0.0
 11
4.120829135096045
 21
6.48085276820269
 31
0.0
  0
LINE
  5
170
330
2
100
AcDbEntity
  8
0
100
AcDbLine
 10
4.157908004650045
 20
6.973294774804011
 30
0.0
 11
4.036454450367402
 21
6.983746881401197
 31
0.0
  0
LINE
  5
171
330
2
100
AcDbEntity
  8
0
100
AcDbLine
 10
3.821520117710276
 20
7.07225978965038
 30
0.0
 11
3.595258310131334
 21
7.08686477470614
 31
0.0
  0
LINE
  5
172
330
2
100
AcDbEntity
  8
0
100
AcDbLine
 10
4.060678328921109
 20
7.382819687182283
 30
0.0
 11
3.96392790359356
 21
7.388735412293716
 31
0.0
  0
LINE
  5
173
330
2
100
AcDbEntity
  8
0
100
AcDbLine
 10
4.039811829053156
 20
3.714092644522135
 30
0.0
 11
4.081548339839637
 21
3.840812054422236
 31
0.0
  0
LINE
  5
174
330
2
100
AcDbEntity
  8
0
100
AcDbLine
 10
5.178519000102325
 20
3.029325723647914
 30
0.0
 11
5.211370822158094
 21
3.129068222286409
 31
0.0
  0
LINE
  5
175
330
2
100
AcDbEntity
  8
0
100
AcDbLine
 10
5.109095668030576
 20
2.489503585682087
 30
0.0
 11
5.411884640490463
 21
2.463446100564782
 31
0.0
  0
LINE
  5
176
330
2
100
AcDbEntity
  8
0
100
AcDbLine
 10
5.793975692216121
 20
2.141478272494403
 30
0.0
 11
5.891150924539143
 21
2.132792166432952
 31
0.0
  0
SPLINE
  5
177
330
2
100
AcDbEntity
  8
0
100
AcDbSpline
210
0.0
220
0.0
230
1.0
 70
     8
 71
     3
 72
     9
 73
     5
 74
     0
 42
0.000000001
 43
0.0000000001
 40
0.0
 40
0.0
 40
0.0
 40
0.0
 40
0.6184372295390216
 40
1.0
 40
1.0
 40
1.0
 40
1.0
 10
5.313959500395514
 20
6.7737078429638
 30
0.0
 10
5.299422007937939
 20
6.784554718594159
 30
0.0
 10
5.275915188226506
 20
6.802093888476258
 30
0.0
 10
5.246835875836027
 20
6.804212361339581
 30
0.0
 10
5.235740292837212
 20
6.805020691714442
 30
0.0
  0
LINE
  5
178
330
2
100
AcDbEntity
  8
0
100
AcDbLine
 10
5.236306806018502
 20
6.807227511921461
 30
0.0
 11
4.294832057831583
 21
6.891383597634685
 31
0.0
  0
LINE
  5
179
330
2
100
AcDbEntity
  8
0
100
AcDbLine
 10
6.076893173709808
 20
6.112987900475918
 30
0.0
 11
5.313959500391345
 21
6.773707842965462
 31
0.0
  0
SPLINE
  5
17A
330
2
100
AcDbEntity
  8
0
100
AcDbSpline
210
0.0
220
0.0
230
1.0
 70
     8
 71
     3
 72
     9
 73
     5
 74
     0
 42
0.000000001
 43
0.0000000001
 40
0.0
 40
0.0
 40
0.0
 40
0.0
 40
0.4962257895678297
 40
1.0
 40
1.0
 40
1.0
 40
1.0
 10
4.858392936971243
 20
3.643678725965596
 30
0.0
 10
4.864795660826281
 20
3.649071303553022
 30
0.0
 10
4.877698504631794
 20
3.659938488815849
 30
0.0
 10
4.886943489080638
 20
3.672589746980897
 30
0.0
 10
4.891600873821744
 20
3.678963124573961
 30
0.0
  0
SPLINE
  5
17B
330
2
100
AcDbEntity
  8
0
100
AcDbSpline
210
0.0
220
0.0
230
1.0
 70
     8
 71
     3
 72
    10
 73
     6
 74
     0
 42
0.000000001
 43
0.0000000001
 40
0.0
 40
0.0
 40
0.0
 40
0.0
 40
0.4246994035048667
 40
0.9248441483348596
 40
1.0
 40
1.0
 40
1.0
 40
1.0
 10
4.804546436104782
 20
3.616305319316901
 30
0.0
 10
4.812366816255607
 20
3.61851093137937
 30
0.0
 10
4.829396820914293
 20
3.623313969463807
 30
0.0
 10
4.84801401111715
 20
3.634078056159542
 30
0.0
 10
4.857193722151932
 20
3.642569433379035
 30
0.0
 10
4.858392936971243
 20
3.643678725965632
 30
0.0
  0
LINE
  5
17C
330
2
100
AcDbEntity
  8
0
100
AcDbLine
 10
4.891600873822135
 20
3.678963124570118
 30
0.0
 11
4.916462568194868
 21
3.712095017493147
 31
0.0
  0
LINE
  5
17D
330
2
100
AcDbEntity
  8
0
100
AcDbLine
 10
4.787361936085765
 20
3.613150832122606
 30
0.0
 11
4.804546436100143
 21
3.616305319319335
 31
0.0
  0
SPLINE
  5
17E
330
2
100
AcDbEntity
  8
0
100
AcDbSpline
210
0.0
220
0.0
230
1.0
 70
     8
 71
     2
 72
     6
 73
     3
 74
     0
 42
0.000000001
 43
0.0000000001
 40
0.0
 40
0.0
 40
0.0
 40
1.0
 40
1.0
 40
1.0
 10
4.784829980231513
 20
3.612594757513844
 30
0.0
 10
4.786106220198551
 20
3.612876829744482
 30
0.0
 10
4.78736193608718
 20
3.613150832122678
 30
0.0
  0
SPLINE
  5
17F
330
2
100
AcDbEntity
  8
0
100
AcDbSpline
210
0.0
220
0.0
230
1.0
 70
     8
 71
     3
 72
    12
 73
     8
 74
     0
 42
0.000000001
 43
0.0000000001
 40
0.0
 40
0.0
 40
0.0
 40
0.0
 40
0.067366168286369
 40
0.3069842954474938
 40
0.5348031355017388
 40
0.7837831707209901
 40
1.0
 40
1.0
 40
1.0
 40
1.0
 10
5.974020780995433
 20
2.609352648465153
 30
0.0
 10
5.978769093736025
 20
2.608488066668662
 30
0.0
 10
6.000406919937358
 20
2.604548210203554
 30
0.0
 10
6.03863334842297
 20
2.617328677642588
 30
0.0
 10
6.080836738562186
 20
2.645339287137746
 30
0.0
 10
6.112108536589674
 20
2.684721442449537
 30
0.0
 10
6.124709100403701
 20
2.716639025086049
 30
0.0
 10
6.130565661706883
 20
2.731473859631563
 30
0.0
  0
LINE
  5
180
330
2
100
AcDbEntity
  8
0
100
AcDbLine
 10
5.476244720054587
 20
2.637790813758973
 30
0.0
 11
5.973568595234783
 21
2.607383743200458
 31
0.0
  0
LINE
  5
181
330
2
100
AcDbEntity
  8
0
100
AcDbLine
 10
6.395770055907012
 20
3.192771266383504
 30
0.0
 11
6.530872372563476
 21
3.302942458257434
 31
0.0
  0
SPLINE
  5
182
330
2
100
AcDbEntity
  8
0
100
AcDbSpline
210
0.0
220
0.0
230
1.0
 70
     8
 71
     3
 72
    11
 73
     7
 74
     0
 42
0.000000001
 43
0.0000000001
 40
0.0
 40
0.0
 40
0.0
 40
0.0
 40
0.1430693510064041
 40
0.4273942590745158
 40
0.7122227007896443
 40
1.0
 40
1.0
 40
1.0
 40
1.0
 10
6.181343182533872
 20
2.885640555724707
 30
0.0
 10
6.187172973186494
 20
2.901893738869805
 30
0.0
 10
6.204588436659517
 20
2.950447234912312
 30
0.0
 10
6.247547010307679
 20
3.029930344355402
 30
0.0
 10
6.313754037363265
 20
3.119263507233656
 30
0.0
 10
6.368337683107178
 20
3.168184700385384
 30
0.0
 10
6.395770055908427
 20
3.192771266382095
 30
0.0
  0
LINE
  5
183
330
2
100
AcDbEntity
  8
0
100
AcDbLine
 10
6.130565661705625
 20
2.731473859631442
 30
0.0
 11
6.181343182535052
 21
2.885640555727261
 31
0.0
  0
LINE
  5
184
330
2
100
AcDbEntity
  8
0
100
AcDbLine
 10
6.319281123304077
 20
6.833992320356749
 30
0.0
 11
5.739910751039524
 21
5.074935815031207
 31
0.0
  0
LINE
  5
185
330
2
100
AcDbEntity
  8
0
100
AcDbLine
 10
6.286993979823354
 20
7.450603260037591
 30
0.0
 11
5.931077536311548
 21
7.584509168401053
 31
0.0
  0
LINE
  5
186
330
2
100
AcDbEntity
  8
0
100
AcDbLine
 10
6.683460854511394
 20
7.311470311904691
 30
0.0
 11
6.585553540807667
 21
7.396260532786912
 31
0.0
  0
LINE
  5
187
330
2
100
AcDbEntity
  8
0
100
AcDbLine
 10
6.559543003081602
 20
7.406711644503347
 30
0.0
 11
6.432554995389427
 21
7.416272741257883
 31
0.0
  0
LINE
  5
188
330
2
100
AcDbEntity
  8
0
100
AcDbLine
 10
5.243738167171226
 20
7.640572293239011
 30
0.0
 11
5.230503389288898
 21
7.600390698485228
 31
0.0
  0
LINE
  5
189
330
2
100
AcDbEntity
  8
0
100
AcDbLine
 10
5.238404744745674
 20
7.580773024661238
 30
0.0
 11
5.024530272928338
 21
7.596876635163379
 31
0.0
  0
LINE
  5
18A
330
2
100
AcDbEntity
  8
0
100
AcDbLine
 10
4.846840785647858
 20
7.688767621533409
 30
0.0
 11
4.306890293481201
 21
7.729423349276875
 31
0.0
  0
LINE
  5
18B
330
2
100
AcDbEntity
  8
0
100
AcDbLine
 10
5.024564077109004
 20
7.596847953925074
 30
0.0
 11
4.971864350250416
 21
7.641657754954573
 31
0.0
  0
LINE
  5
18C
330
2
100
AcDbEntity
  8
0
100
AcDbLine
 10
2.027462918273291
 20
3.612378597470958
 30
0.0
 11
2.027462918273291
 21
3.573683960806642
 31
0.0
  0
LINE
  5
18D
330
2
100
AcDbEntity
  8
0
100
AcDbLine
 10
3.814850806981937
 20
7.433227473080532
 30
0.0
 11
3.558504191740311
 21
7.283099058183711
 31
0.0
  0
LINE
  5
18E
330
2
100
AcDbEntity
  8
0
100
AcDbLine
 10
9.021459509999814
 20
7.208013605693894
 30
0.0
 11
9.223466374824884
 21
7.192803769897179
 31
0.0
  0
LINE
  5
18F
330
2
100
AcDbEntity
  8
0
100
AcDbLine
 10
9.250479102120666
 20
8.071593042004701
 30
0.0
 11
9.094047611761277
 21
8.2070666866096
 31
0.0
  0
LINE
  5
190
330
2
100
AcDbEntity
  8
0
100
AcDbLine
 10
8.400803028201719
 20
5.816797596411346
 30
0.0
 11
8.468567281342686
 21
5.847786630469478
 31
0.0
  0
SPLINE
  5
191
330
2
100
AcDbEntity
  8
0
100
AcDbSpline
210
0.0
220
0.0
230
1.0
 70
     8
 71
     3
 72
    10
 73
     6
 74
     0
 42
0.000000001
 43
0.0000000001
 40
0.0
 40
0.0
 40
0.0
 40
0.0
 40
0.223414656091903
 40
0.6496074072459033
 40
1.0
 40
1.0
 40
1.0
 40
1.0
 10
8.502510469457465
 20
5.900846549255161
 30
0.0
 10
8.50742142052756
 20
5.911387373852132
 30
0.0
 10
8.521700654699602
 20
5.942036203505762
 30
0.0
 10
8.559531665283429
 20
5.977329069900226
 30
0.0
 10
8.585971347223249
 20
5.992421264162539
 30
0.0
 10
8.597900839299233
 20
5.999230809461559
 30
0.0
  0
LINE
  5
192
330
2
100
AcDbEntity
  8
0
100
AcDbLine
 10
8.492241263957005
 20
5.881074953874751
 30
0.0
 11
8.502510469456911
 21
5.900846549259294
 31
0.0
  0
LINE
  5
193
330
2
100
AcDbEntity
  8
0
100
AcDbLine
 10
7.483066861813485
 20
8.388555970367425
 30
0.0
 11
7.441632743080583
 21
8.262757173490314
 31
0.0
  0
LINE
  5
194
330
2
100
AcDbEntity
  8
0
100
AcDbLine
 10
8.634070035605764
 20
5.394721614050689
 30
0.0
 11
8.658892649529894
 21
5.373224599800126
 31
0.0
  0
SPLINE
  5
195
330
2
100
AcDbEntity
  8
0
100
AcDbSpline
210
0.0
220
0.0
230
1.0
 70
     8
 71
     3
 72
    12
 73
     8
 74
     0
 42
0.000000001
 43
0.0000000001
 40
0.0
 40
0.0
 40
0.0
 40
0.0
 40
0.0606925764686208
 40
0.3204610155387727
 40
0.5571976569296279
 40
0.7857352886232667
 40
1.0
 40
1.0
 40
1.0
 40
1.0
 10
12.74393103726043
 20
8.648878964860305
 30
0.0
 10
12.73996383593569
 20
8.643685554126149
 30
0.0
 10
12.7190167376355
 20
8.616263985051165
 30
0.0
 10
12.70078194312377
 20
8.558488526246993
 30
0.0
 10
12.69366078559201
 20
8.484487652586727
 30
0.0
 10
12.70743731116783
 20
8.415917244050676
 30
0.0
 10
12.7326189076378
 20
8.379690242572856
 30
0.0
 10
12.74480386461488
 20
8.362160597264585
 30
0.0
  0
SPLINE
  5
196
330
2
100
AcDbEntity
  8
0
100
AcDbSpline
210
0.0
220
0.0
230
1.0
 70
     8
 71
     3
 72
    13
 73
     9
 74
     0
 42
0.000000001
 43
0.0000000001
 40
0.0
 40
0.0
 40
0.0
 40
0.0
 40
0.1303754809643037
 40
0.303283450701318
 40
0.4791018037484784
 40
0.6622248062783119
 40
0.8520685611530565
 40
1.0
 40
1.0
 40
1.0
 40
1.0
 10
13.09240416142585
 20
8.757581683919898
 30
0.0
 10
13.07790427719769
 20
8.76648953015221
 30
0.0
 10
13.04417420087534
 20
8.787211235826232
 30
0.0
 10
12.98015065929079
 20
8.794719344359892
 30
0.0
 10
12.90942386612285
 20
8.784301173983575
 30
0.0
 10
12.84051432834486
 20
8.75217428948547
 30
0.0
 10
12.78175175459556
 20
8.706180762997814
 30
0.0
 10
12.75545007521146
 20
8.666331346356843
 30
0.0
 10
12.74393103726043
 20
8.648878964860305
 30
0.0
  0
LINE
  5
197
330
2
100
AcDbEntity
  8
0
100
AcDbLine
 10
13.15313350419242
 20
8.718909188131465
 30
0.0
 11
13.09240416142585
 21
8.757581683919898
 31
0.0
  0
LINE
  5
198
330
2
100
AcDbEntity
  8
0
100
AcDbLine
 10
12.74819812980182
 20
8.357618899170791
 30
0.0
 11
12.77169541927775
 21
8.33109283503597
 31
0.0
  0
SPLINE
  5
199
330
2
100
AcDbEntity
  8
0
100
AcDbSpline
210
0.0
220
0.0
230
1.0
 70
     8
 71
     3
 72
    12
 73
     8
 74
     0
 42
0.000000001
 43
0.0000000001
 40
0.0
 40
0.0
 40
0.0
 40
0.0
 40
0.0606937166279216
 40
0.3204616990037354
 40
0.5571981577917608
 40
0.7857356728127672
 40
1.0
 40
1.0
 40
1.0
 40
1.0
 10
24.69627476535678
 20
12.09922339929198
 30
0.0
 10
24.69230738874732
 20
12.09402995109314
 30
0.0
 10
24.67135971377391
 20
12.06660864084964
 30
0.0
 10
24.65312553200693
 20
12.00883276416669
 30
0.0
 10
24.6460040847573
 20
11.93483197822212
 30
0.0
 10
24.65978096434677
 20
11.86626170271574
 30
0.0
 10
24.6849624008665
 20
11.83003461476983
 30
0.0
 10
24.6971472723806
 20
11.81250493922476
 30
0.0
  0
SPLINE
  5
19A
330
2
100
AcDbEntity
  8
0
100
AcDbSpline
210
0.0
220
0.0
230
1.0
 70
     8
 71
     3
 72
    13
 73
     9
 74
     0
 42
0.000000001
 43
0.0000000001
 40
0.0
 40
0.0
 40
0.0
 40
0.0
 40
0.1303755812226645
 40
0.3032836839253981
 40
0.4791021721763542
 40
0.6622244685674682
 40
0.8520687492924226
 40
1.0
 40
1.0
 40
1.0
 40
1.0
 10
25.04474756919156
 20
12.20792602588008
 30
0.0
 10
25.03024768482925
 20
12.21683387260374
 30
0.0
 10
24.99651760819468
 20
12.23755557942068
 30
0.0
 10
24.93249406955873
 20
12.24506367715985
 30
0.0
 10
24.86176737688379
 20
12.23464556781082
 30
0.0
 10
24.79285793597142
 20
12.20251858604757
 30
0.0
 10
24.73409534656511
 20
12.15652525903504
 30
0.0
 10
24.70779374365057
 20
12.11667577198131
 30
0.0
 10
24.69627476535678
 20
12.09922339929198
 30
0.0
  0
LINE
  5
19B
330
2
100
AcDbEntity
  8
0
100
AcDbLine
 10
24.70054169773521
 20
11.80796328736342
 30
0.0
 11
24.72403882704566
 21
11.78143717698899
 31
0.0
  0
LINE
  5
19C
330
2
100
AcDbEntity
  8
0
100
AcDbLine
 10
24.72403882704566
 20
11.78143717698899
 30
0.0
 11
24.78272352121831
 21
11.72634653475211
 31
0.0
  0
LINE
  5
19D
330
2
100
AcDbEntity
  8
0
100
AcDbLine
 10
25.14022829505935
 20
12.13915757963031
 30
0.0
 11
25.08317005197107
 21
12.18532724716044
 31
0.0
  0
LINE
  5
19E
330
2
100
AcDbEntity
  8
0
100
AcDbLine
 10
12.77169541927775
 20
8.33109283503597
 30
0.0
 11
12.83038027361579
 21
8.276002239028708
 31
0.0
  0
LINE
  5
19F
330
2
100
AcDbEntity
  8
0
100
AcDbLine
 10
13.18788520762236
 20
8.688813330136541
 30
0.0
 11
13.15313350419242
 21
8.718909188131465
 31
0.0
  0
LINE
  5
1A0
330
2
100
AcDbEntity
  8
0
100
AcDbLine
 10
28.1287995423916
 20
12.74978560252093
 30
0.0
 11
28.08580541378583
 21
12.73737426666031
 31
0.0
  0
LINE
  5
1A1
330
2
100
AcDbEntity
  8
0
100
AcDbLine
 10
30.87633213576349
 20
13.19543582056192
 30
0.0
 11
30.8557661793681
 21
13.21324646125338
 31
0.0
  0
LINE
  5
1A2
330
2
100
AcDbEntity
  8
0
100
AcDbLine
 10
30.8557661793681
 20
13.21324646125338
 30
0.0
 11
29.19524985736477
 21
14.65129577950283
 31
0.0
  0
LINE
  5
1A3
330
2
100
AcDbEntity
  8
0
100
AcDbLine
 10
29.07759214038902
 20
14.75319035135482
 30
0.0
 11
29.01620015168415
 21
14.80635737316193
 31
0.0
  0
LINE
  5
1A4
330
2
100
AcDbEntity
  8
0
100
AcDbLine
 10
28.96372211698174
 20
14.85180468435477
 30
0.0
 11
28.09619845083484
 21
15.60310221762003
 31
0.0
  0
LINE
  5
1A5
330
2
100
AcDbEntity
  8
0
100
AcDbLine
 10
28.00693512866642
 20
15.60086036777918
 30
0.0
 11
9.261533495460756
 21
10.18952902827886
 31
0.0
  0
LINE
  5
1A6
330
2
100
AcDbEntity
  8
0
100
AcDbLine
 10
28.1098631464919
 20
11.34327738049442
 30
0.0
 11
30.74106098601192
 21
9.064593209088156
 31
0.0
  0
LINE
  5
1A7
330
2
100
AcDbEntity
  8
0
100
AcDbLine
 10
31.55655877582596
 20
9.336545573606667
 30
0.0
 11
31.55655877582596
 21
9.379539617120494
 31
0.0
  0
LINE
  5
1A8
330
2
100
AcDbEntity
  8
0
100
AcDbLine
 10
12.03996135916183
 20
4.447134495180953
 30
0.0
 11
30.06462241044176
 21
9.650405950190281
 31
0.0
  0
LINE
  5
1A9
330
2
100
AcDbEntity
  8
0
100
AcDbLine
 10
5.932453557105259
 20
5.083801083267148
 30
0.0
 11
5.983686479671405
 21
5.039432070827303
 31
0.0
  0
LINE
  5
1AA
330
2
100
AcDbEntity
  8
0
100
AcDbLine
 10
6.492036070517911
 20
6.962861128929362
 30
0.0
 11
6.477330334651749
 21
6.918214896013195
 31
0.0
  0
LINE
  5
1AB
330
2
100
AcDbEntity
  8
0
100
AcDbLine
 10
10.13790327383298
 20
4.424586956672798
 30
0.0
 11
9.329879658524237
 21
4.485427249354812
 31
0.0
  0
LINE
  5
1AC
330
2
100
AcDbEntity
  8
0
100
AcDbLine
 10
10.1917876419267
 20
4.313765857594336
 30
0.0
 11
10.20649209645911
 21
4.358411880779216
 31
0.0
  0
ARC
  5
1AD
330
2
100
AcDbEntity
  8
0
100
AcDbCircle
 10
6.633643140035451
 20
7.442953834588227
 30
0.0
 40
0.0243896365357005
100
AcDbArc
 50
99.61106931520331
 51
162.1753033699015
  0
LINE
  5
1AE
330
2
100
AcDbEntity
  8
0
100
AcDbLine
 10
6.798991341478849
 20
7.486035165996408
 30
0.0
 11
6.755116303801861
 21
7.481106157541678
 31
0.0
  0
LINE
  5
1AF
330
2
100
AcDbEntity
  8
0
100
AcDbLine
 10
6.750808498277963
 20
7.480622104995661
 30
0.0
 11
6.629571065008193
 21
7.467001133294029
 31
0.0
  0
LINE
  5
1B0
330
2
100
AcDbEntity
  8
0
100
AcDbLine
 10
6.61042426610548
 20
7.450419640861573
 30
0.0
 11
6.591025046710268
 21
7.391522007161609
 31
0.0
  0
LINE
  5
1B1
330
2
100
AcDbEntity
  8
0
100
AcDbLine
 10
5.027011706828907
 20
2.526323931049553
 30
0.0
 11
4.24292297104585
 21
3.205364695057258
 31
0.0
  0
LINE
  5
1B2
330
2
100
AcDbEntity
  8
0
100
AcDbLine
 10
4.793572474348464
 20
3.18295091697799
 30
0.0
 11
4.24292297104585
 21
3.205364695057258
 31
0.0
  0
ELLIPSE
  5
1B3
330
2
100
AcDbEntity
  8
0
100
AcDbEllipse
 10
4.776628964734269
 20
3.195979332870965
 30
0.0
 11
0.0282242110259913
 21
-0.009524190694157
 31
0.0
210
0.0
220
0.0
230
1.0
 40
0.3166888303999999
 41
5.458480189693617
 42
6.942010053889517
  0
LINE
  5
1B4
330
2
100
AcDbEntity
  8
0
100
AcDbLine
 10
4.530215701582531
 20
3.428246404132591
 30
0.0
 11
4.800792258944292
 21
3.193920231785995
 31
0.0
  0
ELLIPSE
  5
1B5
330
2
100
AcDbEntity
  8
0
100
AcDbEllipse
 10
4.506052397880333
 20
3.430305513438808
 30
0.0
 11
0.02822421102598
 21
-0.009524190694157
 31
0.0
210
0.0
220
0.0
230
1.0
 40
0.3166888303999999
 41
0.6588247467100106
 42
2.142354610904445
  0
LINE
  5
1B6
330
2
100
AcDbEntity
  8
0
100
AcDbLine
 10
3.879900569074438
 20
3.519751317301495
 30
0.0
 11
4.493322110994023
 21
3.442975359138437
 31
0.0
  0
LINE
  5
1B7
330
2
100
AcDbEntity
  8
0
100
AcDbLine
 10
3.879900569074438
 20
3.519751317301495
 30
0.0
 11
3.095811804397897
 21
4.198792106340341
 31
0.0
  0
LINE
  5
1B8
330
2
100
AcDbEntity
  8
0
100
AcDbLine
 10
3.139167539569554
 20
4.507147893471234
 30
0.0
 11
4.026254449829608
 21
3.738908093813681
 31
0.0
  0
ELLIPSE
  5
1B9
330
2
100
AcDbEntity
  8
0
100
AcDbEllipse
 10
3.945708115615499
 20
3.745771197863078
 30
0.0
 11
0.0940807034199502
 21
-0.0317473023138546
 31
0.0
210
0.0
220
0.0
230
1.0
 40
0.3166888303999999
 41
5.458480189693979
 42
6.942010053889137
  0
LINE
  5
1BA
330
2
100
AcDbEntity
  8
0
100
AcDbLine
 10
3.877919216044042
 20
3.707400888744713
 30
0.0
 11
4.002184664926653
 21
3.702342621463454
 31
0.0
  0
ELLIPSE
  5
1BB
330
2
100
AcDbEntity
  8
0
100
AcDbEllipse
 10
3.90615695967427
 20
3.685686448724811
 30
0.0
 11
0.0470403517099723
 21
-0.0158736511569358
 31
0.0
210
0.0
220
0.0
230
1.0
 40
0.3166888304
 41
2.316887536104295
 42
3.800417400299778
  0
LINE
  5
1BC
330
2
100
AcDbEntity
  8
0
100
AcDbLine
 10
3.870037455157513
 20
3.685520695352536
 30
0.0
 11
3.865883682925725
 21
3.689117967616271
 31
0.0
  0
ELLIPSE
  5
1BD
330
2
100
AcDbEntity
  8
0
100
AcDbEllipse
 10
3.910310718859345
 20
3.68208918775041
 30
0.0
 11
0.0470403517099723
 21
-0.0158736511569358
 31
0.0
210
0.0
220
0.0
230
1.0
 40
0.3166888304
 41
3.800417400299803
 42
5.283947264494716
  0
LINE
  5
1BE
330
2
100
AcDbEntity
  8
0
100
AcDbLine
 10
3.931529320036185
 20
3.660973176779874
 30
0.0
 11
4.41691517707127
 21
3.600221795898032
 31
0.0
  0
ELLIPSE
  5
1BF
330
2
100
AcDbEntity
  8
0
100
AcDbEllipse
 10
4.501788016216301
 20
3.51575735722698
 30
0.0
 11
0.1881614068399003
 21
-0.0634946046277261
 31
0.0
210
0.0
220
0.0
230
1.0
 40
0.3166888304
 41
0.6588247467096388
 42
2.14235461090486
  0
LINE
  5
1C0
330
2
100
AcDbEntity
  8
0
100
AcDbLine
 10
4.662880050833692
 20
3.502031001880433
 30
0.0
 11
5.15140423009783
 21
3.078956652266379
 31
0.0
  0
ELLIPSE
  5
1C1
330
2
100
AcDbEntity
  8
0
100
AcDbEllipse
 10
4.990312199789638
 20
3.092683003889537
 30
0.0
 11
0.1881614068399003
 21
-0.0634946046277205
 31
0.0
210
0.0
220
0.0
230
0.9999999999999998
 40
0.3166888303999999
 41
5.458480189694113
 42
6.942010053889237
  0
LINE
  5
1C2
330
2
100
AcDbEntity
  8
0
100
AcDbLine
 10
5.103264648724612
 20
3.005825717574368
 30
0.0
 11
4.667548917491121
 21
3.02356150770557
 31
0.0
  0
ELLIPSE
  5
1C3
330
2
100
AcDbEntity
  8
0
100
AcDbEllipse
 10
4.695786655858934
 20
3.00184707224309
 30
0.0
 11
0.0470403517099779
 21
-0.0158736511569358
 31
0.0
210
0.0
220
0.0
230
1.0
 40
0.3166888304
 41
2.316887536104025
 42
3.800417400300071
  0
LINE
  5
1C4
330
2
100
AcDbEntity
  8
0
100
AcDbLine
 10
4.659667133479741
 20
3.001681334330314
 30
0.0
 11
4.655513384372721
 21
3.005278586587032
 31
0.0
  0
ELLIPSE
  5
1C5
330
2
100
AcDbEntity
  8
0
100
AcDbEllipse
 10
4.699940415043931
 20
2.998249811268689
 30
0.0
 11
0.0470403517099723
 21
-0.0158736511569358
 31
0.0
210
0.0
220
0.0
230
1.0
 40
0.3166888304
 41
3.800417400300069
 42
5.283947264494716
  0
LINE
  5
1C6
330
2
100
AcDbEntity
  8
0
100
AcDbLine
 10
4.859590267440386
 20
2.959807588335233
 30
0.0
 11
4.72115899836848
 21
2.97713381576759
 31
0.0
  0
ELLIPSE
  5
1C7
330
2
100
AcDbEntity
  8
0
100
AcDbEllipse
 10
4.902026397635746
 20
2.917575271531228
 30
0.0
 11
0.0940807034199502
 21
-0.0317473023138602
 31
0.0
210
0.0
220
0.0
230
1.0
 40
0.3166888304
 41
0.6588247467096168
 42
2.142354610904783
  0
LINE
  5
1C8
330
2
100
AcDbEntity
  8
0
100
AcDbLine
 10
4.982572715874036
 20
2.91071218131301
 30
0.0
 11
5.869659672373653
 21
2.142472341621509
 31
0.0
  0
LINE
  5
1C9
330
2
100
AcDbEntity
  8
0
100
AcDbLine
 10
5.411884640490463
 20
2.463446100564782
 30
0.0
 11
5.772484440060618
 21
2.151158447682996
 31
0.0
  0
ELLIPSE
  5
1CA
330
2
100
AcDbEntity
  8
0
100
AcDbEllipse
 10
4.053692108045336
 20
7.283771038857717
 30
0.0
 11
0.0074509656118446
 21
0.0990170619120793
 31
0.0
210
0.0
220
0.0
230
1.0
 40
0.5778770211000001
 41
5.877920137287945
 42
7.448640311660927
  0
LINE
  5
1CB
330
2
100
AcDbEntity
  8
0
100
AcDbLine
 10
4.678950284382333
 20
6.857048288466299
 30
0.0
 11
4.083099728319625
 21
7.373070006876406
 31
0.0
  0
LINE
  5
1CC
330
2
100
AcDbEntity
  8
0
100
AcDbLine
 10
3.52117066914329
 20
4.617925570596188
 30
0.0
 11
3.840993836732823
 21
5.588956363678205
 31
0.0
  0
LINE
  5
1CD
330
2
100
AcDbEntity
  8
0
100
AcDbLine
 10
3.97524053516365
 20
5.996551320180024
 30
0.0
 11
4.135090615492501
 21
6.481878566349187
 31
0.0
  0
ARC
  5
1CE
330
2
100
AcDbEntity
  8
0
100
AcDbCircle
 10
3.846670561066504
 20
4.489357560504609
 30
0.0
 40
0.3499713029079706
100
AcDbArc
 50
158.4466572452005
 51
209.5566189156511
  0
ELLIPSE
  5
1CF
330
2
100
AcDbEntity
  8
0
100
AcDbEllipse
 10
3.168581458077603
 20
4.596440078321426
 30
0.0
 11
0.007459571707911
 21
0.0990109190950438
 31
0.0
210
0.0
220
0.0
230
1.0
 40
0.5779408021
 41
1.165636268090271
 42
2.736356442463288
  0
LINE
  5
1D0
330
2
100
AcDbEntity
  8
0
100
AcDbLine
 10
4.004047417686162
 20
7.326773610669635
 30
0.0
 11
3.118931765781498
 21
4.639428893615292
 31
0.0
  0
LWPOLYLINE
  5
1D1
330
2
100
AcDbEntity
  8
0
100
AcDbPolyline
 90
        7
 70
   128
 43
0.0
 10
3.892819644944159
 20
6.843777643385283
 10
3.875158705829295
 20
6.760946244566286
 10
3.874596320318406
 20
6.675141063779191
 10
3.891203483481814
 20
6.596712028497271
 10
3.922974529355592
 20
6.5351182451917
 10
3.966078533438269
 20
6.497789082652352
 10
3.999179592227286
 20
6.488705086580822
  0
LWPOLYLINE
  5
1D2
330
2
100
AcDbEntity
  8
0
100
AcDbPolyline
 90
        5
 70
   128
 43
0.0
 10
4.036454450367402
 20
6.983746881401197
 10
4.018550261407908
 20
6.983358466801323
 10
3.969116902636109
 20
6.962120721664157
 10
3.925451886835531
 20
6.913644833040103
 10
3.892819644944159
 20
6.843777643385283
  0
LWPOLYLINE
  5
1D3
330
2
100
AcDbEntity
  8
0
100
AcDbPolyline
 90
        7
 70
   128
 43
0.0
 10
3.598724147508254
 20
5.950855970766617
 10
3.581061927079448
 20
5.868024202060734
 10
3.580499541568559
 20
5.782219021273676
 10
3.59710670473204
 20
5.70378998599172
 10
3.628877750595758
 20
5.64219612259847
 10
3.671981754678586
 20
5.60486696005911
 10
3.70508409480129
 20
5.595783413962157
  0
LWPOLYLINE
  5
1D4
330
2
100
AcDbEntity
  8
0
100
AcDbPolyline
 90
        5
 70
   128
 43
0.0
 10
3.742357671607568
 20
6.090824838895694
 10
3.724453482658056
 20
6.090436264130318
 10
3.675021405200204
 20
6.069198888879989
 10
3.631355108075768
 20
6.020722790534564
 10
3.598724147508254
 20
5.950855970766617
  0
LINE
  5
1D5
330
2
100
AcDbEntity
  8
0
100
AcDbLine
 10
3.824857844952169
 20
6.16242050827408
 30
0.0
 11
3.910146500200251
 21
6.421369922258117
 31
0.0
  0
ELLIPSE
  5
1D6
330
2
100
AcDbEntity
  8
0
100
AcDbEllipse
 10
3.839752584308959
 20
6.149523859742105
 30
0.0
 11
0.0022378715123761
 21
0.0297032757285097
 31
0.0
210
0.0
220
0.0
230
0.9999999999999998
 40
0.5779408021000001
 41
1.165636268090297
 42
2.73635644246337
  0
LINE
  5
1D7
330
2
100
AcDbEntity
  8
0
100
AcDbLine
 10
3.830927652425096
 20
6.122736029387843
 30
0.0
 11
3.887078918668388
 21
6.074107606360822
 31
0.0
  0
LINE
  5
1D8
330
2
100
AcDbEntity
  8
0
100
AcDbLine
 10
3.919264595075534
 20
6.061606370499638
 30
0.0
 11
4.018258906097493
 21
6.362168384330355
 31
0.0
  0
LINE
  5
1D9
330
2
100
AcDbEntity
  8
0
100
AcDbLine
 10
3.933861396859175
 20
6.435258771339785
 30
0.0
 11
4.018258906097493
 21
6.362168384330355
 31
0.0
  0
ELLIPSE
  5
1DA
330
2
100
AcDbEntity
  8
0
100
AcDbEllipse
 10
3.925039916114004
 20
6.408469210014765
 30
0.0
 11
0.0022352896835483
 21
0.0297051185736221
 31
0.0
210
0.0
220
0.0
230
1.0
 40
0.5778770211000001
 41
5.877920137287437
 42
7.448640311660861
  0
LINE
  5
1DB
330
2
100
AcDbEntity
  8
0
100
AcDbLine
 10
3.759142821853137
 20
6.882873810684353
 30
0.0
 11
3.465046043093381
 21
5.989951608013336
 31
0.0
  0
LINE
  5
1DC
330
2
100
AcDbEntity
  8
0
100
AcDbLine
 10
3.907295711034763
 20
7.33268896589423
 30
0.0
 11
3.759142821853137
 21
6.882873810684353
 31
0.0
  0
LINE
  5
1DD
330
2
100
AcDbEntity
  8
0
100
AcDbLine
 10
3.465046043093381
 20
5.989951608013336
 30
0.0
 11
3.304733101548434
 21
5.503214868642656
 31
0.0
  0
LWPOLYLINE
  5
1DE
330
2
100
AcDbEntity
  8
0
100
AcDbPolyline
 90
       17
 70
   128
 43
0.0
 10
3.983081126997792
 20
5.745778111498684
 10
3.997934265031129
 20
5.820174032595238
 10
3.995509065111253
 20
5.896248953779157
 10
3.976175262636985
 20
5.96242111965728
 10
3.942874953202009
 20
6.008616300632292
 10
3.900679704475245
 20
6.027802190894249
 10
3.856011505306499
 20
6.017057384335303
 10
3.815671978977075
 20
5.978017802465626
 10
3.785801843980825
 20
5.916626982227627
 10
3.770948705947566
 20
5.842231061131109
 10
3.773373905867364
 20
5.766156300112618
 10
3.792707800820908
 20
5.699983974078981
 10
3.826008110245902
 20
5.653788793094018
 10
3.868203358982576
 20
5.634602902832061
 10
3.912871465672118
 20
5.645347869556485
 10
3.953210992001537
 20
5.684387291260684
 10
3.983081126997792
 20
5.745778111498684
  0
ARC
  5
1DF
330
2
100
AcDbEntity
  8
0
100
AcDbCircle
 10
3.488338791100735
 20
4.516061236840351
 30
0.0
 40
0.5047149061165763
100
AcDbArc
 50
158.4462968151016
 51
218.9476879695059
  0
LWPOLYLINE
  5
1E0
330
2
100
AcDbEntity
  8
0
100
AcDbPolyline
 90
       10
 70
   128
 43
0.0
 10
3.301161531381566
 20
6.193942732200588
 10
3.261171487405781
 20
6.189060462378914
 10
3.20517055085997
 20
6.156263728829287
 10
3.156339690985078
 20
6.096113974666796
 10
3.119459308443905
 20
6.014499621926375
 10
3.09813947016157
 20
5.919409442550342
 10
3.094466868092904
 20
5.820151650106983
 10
3.108801766585024
 20
5.726442296624616
 10
3.139740221464125
 20
5.647453929024142
 10
3.184253999909278
 20
5.590918960179842
  0
LWPOLYLINE
  5
1E1
330
2
100
AcDbEntity
  8
0
100
AcDbPolyline
 90
        3
 70
   128
 43
0.0
 10
3.52609744893368
 20
4.340156719532948
 10
3.537665228376816
 20
4.321792305559641
 10
3.55893549367998
 20
4.298228208351331
  0
LINE
  5
1E2
330
2
100
AcDbEntity
  8
0
100
AcDbLine
 10
3.304733101548434
 20
5.503214868642656
 30
0.0
 11
3.283544409396286
 21
5.504930943211535
 31
0.0
  0
LINE
  5
1E3
330
2
100
AcDbEntity
  8
0
100
AcDbLine
 10
3.018916761863139
 20
4.701479938500948
 30
0.0
 11
3.283544409396286
 21
5.504930943211535
 31
0.0
  0
LWPOLYLINE
  5
1E4
330
2
100
AcDbEntity
  8
0
100
AcDbPolyline
 90
       17
 70
   128
 43
0.0
 10
4.277177905757548
 20
6.638700314169701
 10
4.292031043790885
 20
6.713096075100753
 10
4.289605843871087
 20
6.789170996284661
 10
4.270272041386753
 20
6.85534316216282
 10
4.236971731961765
 20
6.901538343137843
 10
4.194776483235001
 20
6.920724233399788
 10
4.150108284066255
 20
6.909979426840842
 10
4.109768757736836
 20
6.870939844971178
 10
4.079898622740581
 20
6.809549184908596
 10
4.065045484707322
 20
6.735153263802078
 10
4.06747068462712
 20
6.65907834261817
 10
4.08680457958067
 20
6.592906096662272
 10
4.120104889005657
 20
6.546710915687248
 10
4.162300137732343
 20
6.527525025425291
 10
4.206968244431874
 20
6.538269912062025
 10
4.247307770761299
 20
6.577309493931702
 10
4.277177905757548
 20
6.638700314169701
  0
LINE
  5
1E5
330
2
100
AcDbEntity
  8
0
100
AcDbLine
 10
3.55893549367998
 20
4.298228208351331
 30
0.0
 11
4.081958154815773
 21
3.84527729705514
 31
0.0
  0
LINE
  5
1E6
330
2
100
AcDbEntity
  8
0
100
AcDbLine
 10
3.184253999909278
 20
5.590918960179842
 30
0.0
 11
3.283544409396286
 21
5.504930943211535
 31
0.0
  0
LWPOLYLINE
  5
1E7
330
2
100
AcDbEntity
  8
0
100
AcDbPolyline
 90
       10
 70
   128
 43
0.0
 10
3.595258310131334
 20
7.08686477470614
 10
3.555268266165537
 20
7.08198266504992
 10
3.499267329619732
 20
7.049185771334791
 10
3.450436469744833
 20
6.989036177337765
 10
3.413556087193751
 20
6.907421824597394
 10
3.392236248921248
 20
6.812331645221359
 10
3.388563646852581
 20
6.713073692612523
 10
3.402898545334871
 20
6.619364339130166
 10
3.433837000223881
 20
6.54037613169516
 10
3.478350778659045
 20
6.483841002685346
  0
LINE
  5
1E8
330
2
100
AcDbEntity
  8
0
100
AcDbLine
 10
4.018258906097493
 20
6.362168384330355
 30
0.0
 11
3.893963718771176
 21
6.372235030874944
 31
0.0
  0
LINE
  5
1E9
330
2
100
AcDbEntity
  8
0
100
AcDbLine
 10
3.598829880308196
 20
6.396136911148158
 30
0.0
 11
3.577641188146138
 21
6.397852985717074
 31
0.0
  0
LINE
  5
1EA
330
2
100
AcDbEntity
  8
0
100
AcDbLine
 10
3.478350778659045
 20
6.483841002685346
 30
0.0
 11
3.577641188146138
 21
6.397852985717074
 31
0.0
  0
ELLIPSE
  5
1EB
330
2
100
AcDbEntity
  8
0
100
AcDbEllipse
 10
3.956941179563337
 20
7.289686532106007
 30
0.0
 11
0.0074509656118446
 21
0.0990170619120793
 31
0.0
210
0.0
220
0.0
230
1.0
 40
0.5778770211000001
 41
0.0081150858514489
 42
1.165455004481329
  0
ELLIPSE
  5
1EC
330
2
100
AcDbEntity
  8
0
100
AcDbEllipse
 10
4.546288042115028
 20
3.650866224503732
 30
0.0
 11
0.1761079106049903
 21
-0.099744703897759
 31
0.0
210
0.0
220
0.0
230
0.9999999999999998
 40
0.165794471
 41
0.6896272446617182
 42
2.173157108856921
  0
ARC
  5
1ED
330
2
100
AcDbEntity
  8
0
100
AcDbCircle
 10
4.354488555170375
 20
6.819598673104074
 30
0.0
 40
0.0946778404744574
100
AcDbArc
 50
51.27721473400123
 51
145.8445444761049
  0
LINE
  5
1EE
330
2
100
AcDbEntity
  8
0
100
AcDbLine
 10
4.460134177746343
 20
3.731439534264838
 30
0.0
 11
4.446624390527767
 21
3.737180303533442
 31
0.0
  0
LINE
  5
1EF
330
2
100
AcDbEntity
  8
0
100
AcDbLine
 10
4.063220737506061
 20
3.785167047290372
 30
0.0
 11
4.446624390527767
 21
3.737180303533442
 31
0.0
  0
LINE
  5
1F0
330
2
100
AcDbEntity
  8
0
100
AcDbLine
 10
5.181198817187612
 20
3.169417705793413
 30
0.0
 11
4.692674637923468
 21
3.592492055397515
 31
0.0
  0
LINE
  5
1F1
330
2
100
AcDbEntity
  8
0
100
AcDbLine
 10
4.430077016033869
 20
6.879294288372234
 30
0.0
 11
4.413714559167408
 21
6.893464591685871
 31
0.0
  0
ELLIPSE
  5
1F2
330
2
100
AcDbEntity
  8
0
100
AcDbEllipse
 10
5.034812225688358
 20
3.227791871176241
 30
0.0
 11
0.1761079106049904
 21
-0.0997447038977479
 31
0.0
210
0.0
220
0.0
230
1.0
 40
0.165794471
 41
0.0331063377241576
 42
0.689627244661631
  0
LINE
  5
1F3
330
2
100
AcDbEntity
  8
0
100
AcDbLine
 10
4.327998926791366
 20
3.463667263826299
 30
0.0
 11
4.24292297104585
 21
3.205364695057258
 31
0.0
  0
LINE
  5
1F4
330
2
100
AcDbEntity
  8
0
100
AcDbLine
 10
5.048709237133038
 20
3.008046300634322
 30
0.0
 11
5.4901353961209
 21
2.625760033060578
 31
0.0
  0
LINE
  5
1F5
330
2
100
AcDbEntity
  8
0
100
AcDbLine
 10
5.948710609214129
 20
2.188768528106957
 30
0.0
 11
6.118686979554715
 21
2.704840673543421
 31
0.0
  0
ELLIPSE
  5
1F6
330
2
100
AcDbEntity
  8
0
100
AcDbEllipse
 10
5.899066033525453
 20
2.2317710713431
 30
0.0
 11
0.007450965611839
 21
0.0990170619120794
 31
0.0
210
0.0
220
0.0
230
1.0
 40
0.5778770211000001
 41
2.736327483698102
 42
4.30704765807106
  0
ARC
  5
1F7
330
2
100
AcDbEntity
  8
0
100
AcDbCircle
 10
5.548555173140132
 20
2.692190994049195
 30
0.0
 40
0.0884643596394237
100
AcDbArc
 50
228.6714130374032
 51
314.9203592104973
  0
ARC
  5
1F8
330
2
100
AcDbEntity
  8
0
100
AcDbCircle
 10
5.122512082099079
 20
2.629318397860948
 30
0.0
 40
0.1404570463560098
100
AcDbArc
 50
227.1621517868
 51
264.5187678972925
  0
ELLIPSE
  5
1F9
330
2
100
AcDbEntity
  8
0
100
AcDbEllipse
 10
5.80189128114284
 20
2.240457231557588
 30
0.0
 11
0.0074509656118446
 21
0.0990170619120793
 31
0.0
210
0.0
220
0.0
230
1.0
 40
0.5778770211000001
 41
2.736327483698255
 42
3.133477567738518
  0
LINE
  5
1FA
330
2
100
AcDbEntity
  8
0
100
AcDbLine
 10
4.671825622663261
 20
5.2208817317636
 30
0.0
 11
4.346426285729779
 21
4.959713841574335
 31
0.0
  0
ELLIPSE
  5
1FB
330
2
100
AcDbEntity
  8
0
100
AcDbEllipse
 10
4.139057881419255
 20
4.46946110394851
 30
0.0
 11
0.007459571707911
 21
0.0990109190950438
 31
0.0
210
0.0
220
0.0
230
1.0
 40
0.5779408021
 41
1.16563626809024
 42
2.736356442463259
  0
ELLIPSE
  5
1FC
330
2
100
AcDbEntity
  8
0
100
AcDbEllipse
 10
4.472093209471744
 20
5.546097034109525
 30
0.0
 11
0.3269557883762626
 21
0.3735877521841683
 31
0.0
210
0.0
220
0.0
230
1.0
 40
0.7540258493000001
 41
4.482373612415839
 42
5.224320880421761
  0
ELLIPSE
  5
1FD
330
2
100
AcDbEntity
  8
0
100
AcDbEllipse
 10
4.546796768912692
 20
4.633945188734707
 30
0.0
 11
0.3279502448738895
 21
0.3727199781121988
 31
0.0
210
0.0
220
0.0
230
0.9999999999999998
 40
0.7560319662000002
 41
1.342801356481428
 42
2.084748624487349
  0
LINE
  5
1FE
330
2
100
AcDbEntity
  8
0
100
AcDbLine
 10
4.140185605161337
 20
4.6666165379016
 30
0.0
 11
4.089408084331915
 21
4.512449841815696
 31
0.0
  0
LINE
  5
1FF
330
2
100
AcDbEntity
  8
0
100
AcDbLine
 10
5.2091622765304
 20
3.427957959398337
 30
0.0
 11
6.093296487191806
 21
2.662275272608901
 31
0.0
  0
LINE
  5
200
330
2
100
AcDbEntity
  8
0
100
AcDbLine
 10
4.109643765650829
 20
4.380168921749378
 30
0.0
 11
4.890821944549212
 21
3.70364877393171
 31
0.0
  0
LINE
  5
201
330
2
100
AcDbEntity
  8
0
100
AcDbLine
 10
5.25070973750742
 20
6.646271207497327
 30
0.0
 11
4.87783854599924
 21
5.514176319028609
 31
0.0
  0
ELLIPSE
  5
202
330
2
100
AcDbEntity
  8
0
100
AcDbEllipse
 10
5.300354491541726
 20
6.603268580599016
 30
0.0
 11
0.0074509656118446
 21
0.0990170619120793
 31
0.0
210
0.0
220
0.0
230
1.0
 40
0.5778770211000001
 41
5.877920137287912
 42
7.44864031166087
  0
LINE
  5
203
330
2
100
AcDbEntity
  8
0
100
AcDbLine
 10
5.655960293410165
 20
6.41007163663419
 30
0.0
 11
5.329762048131053
 21
6.69256760371405
 31
0.0
  0
LINE
  5
204
330
2
100
AcDbEntity
  8
0
100
AcDbLine
 10
5.215337158209578
 20
3.487594484610162
 30
0.0
 11
4.946751800585217
 21
3.720196227391362
 31
0.0
  0
LINE
  5
205
330
2
100
AcDbEntity
  8
0
100
AcDbLine
 10
5.048897237372679
 20
3.361935304761544
 30
0.0
 11
5.215337158209578
 21
3.487594484610162
 31
0.0
  0
LINE
  5
206
330
2
100
AcDbEntity
  8
0
100
AcDbLine
 10
4.780311879748324
 20
3.594537047552648
 30
0.0
 11
5.048897237372679
 21
3.361935304761544
 31
0.0
  0
ELLIPSE
  5
207
330
2
100
AcDbEntity
  8
0
100
AcDbEllipse
 10
5.155575434839603
 20
3.395036786001754
 30
0.0
 11
0.0585666491007395
 21
0.0934421902231203
 31
0.0
210
0.0
220
0.0
230
1.0
 40
0.2945542466
 41
5.171606599400139
 42
6.237537654344468
  0
ELLIPSE
  5
208
330
2
100
AcDbEntity
  8
0
100
AcDbEllipse
 10
5.146371239463543
 20
3.388087776876654
 30
0.0
 11
0.1004288815902468
 21
0.0215266624011562
 31
0.0
210
0.0
220
0.0
230
1.0
 40
0.2601647544000001
 41
3.335243632973681
 42
4.401174687917908
  0
ELLIPSE
  5
209
330
2
100
AcDbEntity
  8
0
100
AcDbEllipse
 10
5.153391735941187
 20
3.403664171878503
 30
0.0
 11
-0.0263326203091713
 21
0.0491563115485032
 31
0.0
210
0.0
220
0.0
230
0.9999999999999998
 40
0.8730488701000002
 41
2.500405314970203
 42
4.062474995505384
  0
LINE
  5
20A
330
2
100
AcDbEntity
  8
0
100
AcDbLine
 10
5.203493121150312
 20
3.392221758975622
 30
0.0
 11
5.206207380645441
 21
3.420990951852448
 31
0.0
  0
LINE
  5
20B
330
2
100
AcDbEntity
  8
0
100
AcDbLine
 10
5.120949477130386
 20
3.35662294795436
 30
0.0
 11
5.148823939243667
 21
3.35051965640342
 31
0.0
  0
LINE
  5
20C
330
2
100
AcDbEntity
  8
0
100
AcDbLine
 10
6.510814968681913
 20
6.247876320087358
 30
0.0
 11
6.385210789060289
 21
5.866524271103346
 31
0.0
  0
LWPOLYLINE
  5
20D
330
2
100
AcDbEntity
  8
0
100
AcDbPolyline
 90
        9
 70
   128
 43
0.0
 10
6.510814968681913
 20
6.247876320087358
 10
6.572064736538219
 20
6.228390049307704
 10
6.614429095241441
 20
6.182841801380068
 10
6.63145786841552
 20
6.118165688083657
 10
6.620558941059729
 20
6.044208203766274
 10
6.58339162553687
 20
5.972228675592925
 10
6.525614241070645
 20
5.913185422655344
 10
6.456021783811098
 20
5.876066717192573
 10
6.385210789060289
 20
5.866524271103346
  0
ARC
  5
20E
330
2
100
AcDbEntity
  8
0
100
AcDbCircle
 10
7.053497643408331
 20
6.722902756992189
 30
0.0
 40
0.0664000012747268
100
AcDbArc
 50
333.6487475794982
 51
82.98636861719677
  0
LINE
  5
20F
330
2
100
AcDbEntity
  8
0
100
AcDbLine
 10
7.112998002893888
 20
6.693429593102365
 30
0.0
 11
6.67177339277923
 21
5.353802758517377
 31
0.0
  0
ARC
  5
210
330
2
100
AcDbEntity
  8
0
100
AcDbCircle
 10
6.552661960369084
 20
5.393445886709234
 30
0.0
 40
0.1255352976031206
100
AcDbArc
 50
287.7679507352946
 51
341.5913261540985
  0
LINE
  5
211
330
2
100
AcDbEntity
  8
0
100
AcDbLine
 10
6.590970646853183
 20
5.273898592787452
 30
0.0
 11
5.928005527407862
 21
5.082517047695554
 31
0.0
  0
ARC
  5
212
330
2
100
AcDbEntity
  8
0
100
AcDbCircle
 10
5.880207021026016
 20
5.242892108495933
 30
0.0
 40
0.1673465187479466
100
AcDbArc
 50
266.2240578527004
 51
286.5962675312992
  0
LINE
  5
213
330
2
100
AcDbEntity
  8
0
100
AcDbLine
 10
5.869186427924658
 20
5.075908864223542
 30
0.0
 11
5.771174242388681
 21
5.08328883748617
 31
0.0
  0
LINE
  5
214
330
2
100
AcDbEntity
  8
0
100
AcDbLine
 10
7.061605447376321
 20
6.788805895636938
 30
0.0
 11
6.350544614643323
 21
6.84234531277635
 31
0.0
  0
LWPOLYLINE
  5
215
330
2
100
AcDbEntity
  8
0
100
AcDbPolyline
 90
        6
 70
   128
 43
0.0
 10
6.319281123304077
 20
6.833992320356749
 10
6.320727940573648
 20
6.836541780482523
 10
6.324976866214031
 20
6.839639230359027
 10
6.331544568647255
 20
6.841684116462009
 10
6.340177603616452
 20
6.842597883495385
 10
6.350544614643323
 20
6.84234531277635
  0
LWPOLYLINE
  5
216
330
2
100
AcDbEntity
  8
0
100
AcDbPolyline
 90
        9
 70
   128
 43
0.0
 10
5.771174242388681
 20
5.08328883748617
 10
5.760807231361809
 20
5.083541378159892
 10
5.752174196392606
 20
5.082627641161925
 10
5.745606493949479
 20
5.080582745050442
 10
5.741357568319005
 20
5.077485405287087
 10
5.739589266756048
 20
5.073454327430459
 10
5.740370809563114
 20
5.068644856687914
 10
5.743671366667101
 20
5.063241385996275
 10
5.749364536195968
 20
5.057451871860888
  0
LINE
  5
217
330
2
100
AcDbEntity
  8
0
100
AcDbLine
 10
8.519569004477475
 20
2.658384428650371
 30
0.0
 11
8.514364895041454
 21
2.662891319620752
 31
0.0
  0
LINE
  5
218
330
2
100
AcDbEntity
  8
0
100
AcDbLine
 10
5.883166200494596
 20
4.941576231493185
 30
0.0
 11
5.749364536195968
 21
5.057451871860888
 31
0.0
  0
LINE
  5
219
330
2
100
AcDbEntity
  8
0
100
AcDbLine
 10
5.308716569249218
 20
7.295749244866638
 30
0.0
 11
5.209426067292916
 21
7.381737341922613
 31
0.0
  0
LINE
  5
21A
330
2
100
AcDbEntity
  8
0
100
AcDbLine
 10
5.5915248986764
 20
7.274455233002703
 30
0.0
 11
5.308716569249218
 21
7.295749244866638
 31
0.0
  0
LINE
  5
21B
330
2
100
AcDbEntity
  8
0
100
AcDbLine
 10
5.492234396720176
 20
7.36044333004875
 30
0.0
 11
5.5915248986764
 21
7.274455233002703
 31
0.0
  0
LINE
  5
21C
330
2
100
AcDbEntity
  8
0
100
AcDbLine
 10
5.209426067292916
 20
7.381737341922613
 30
0.0
 11
5.492234396720176
 21
7.36044333004875
 31
0.0
  0
LINE
  5
21D
330
2
100
AcDbEntity
  8
0
100
AcDbLine
 10
5.573361257919078
 20
1.560157795652846
 30
0.0
 11
5.769007638919019
 21
2.15416925112143
 31
0.0
  0
LINE
  5
21E
330
2
100
AcDbEntity
  8
0
100
AcDbLine
 10
4.316446525071372
 20
3.428595020742688
 30
0.0
 11
4.26715580393334
 21
3.471282037422385
 31
0.0
  0
LINE
  5
21F
330
2
100
AcDbEntity
  8
0
100
AcDbLine
 10
3.381821136340645
 20
7.030366502443761
 30
0.0
 11
2.458994888261889
 21
4.228526047039778
 31
0.0
  0
ARC
  5
220
330
2
100
AcDbEntity
  8
0
100
AcDbCircle
 10
6.554965155784101
 20
7.360093305082568
 30
0.0
 40
0.0464797414469899
100
AcDbArc
 50
333.6488063391012
 51
82.98770571809695
  0
ARC
  5
221
330
2
100
AcDbEntity
  8
0
100
AcDbCircle
 10
6.55937557412283
 20
7.404854684599065
 30
0.0
 40
0.0018644925695306
100
AcDbArc
 50
47.32038030139936
 51
84.84797494359753
  0
ARC
  5
222
330
2
100
AcDbEntity
  8
0
100
AcDbCircle
 10
5.741561363083409
 20
7.094436364278521
 30
0.0
 40
0.5251705854363158
100
AcDbArc
 50
68.87912926580006
 51
84.5949662208975
  0
ARC
  5
223
330
2
100
AcDbEntity
  8
0
100
AcDbCircle
 10
6.485652741302454
 20
7.965406134416948
 30
0.0
 40
0.5520736909849163
100
AcDbArc
 50
248.8786432781037
 51
264.5952845953962
  0
ARC
  5
224
330
2
100
AcDbEntity
  8
0
100
AcDbCircle
 10
5.489985405361459
 20
1.587905782220638
 30
0.0
 40
0.0878719724816936
100
AcDbArc
 50
287.7674011092013
 51
341.5922464559994
  0
LINE
  5
225
330
2
100
AcDbEntity
  8
0
100
AcDbLine
 10
2.40528430410864
 20
4.19887653013369
 30
0.0
 11
5.516799848296336
 21
1.504225024587154
 31
0.0
  0
ARC
  5
226
330
2
100
AcDbEntity
  8
0
100
AcDbCircle
 10
2.429218763036496
 20
4.238435044420695
 30
0.0
 40
0.0313816166335469
100
AcDbArc
 50
287.7671483982982
 51
341.5934186932954
  0
LINE
  5
227
330
2
100
AcDbEntity
  8
0
100
AcDbLine
 10
3.50360220499668
 20
2.81480272535958
 30
0.0
 11
3.33162569057363
 21
2.765157381907223
 31
0.0
  0
LWPOLYLINE
  5
228
330
2
100
AcDbEntity
  8
0
100
AcDbPolyline
 90
        9
 70
   128
 43
0.0
 10
3.33162569057363
 20
2.765157381907223
 10
3.273372455451978
 20
2.739613848481297
 10
3.239102032467021
 20
2.704867661809435
 10
3.23403411134067
 20
2.666209291183732
 10
3.258940947863271
 20
2.629524321304145
 10
3.310027761296056
 20
2.600396859789085
 10
3.379519983936611
 20
2.583262148690915
 10
3.45683735609976
 20
2.580728583810198
 10
3.530206671371288
 20
2.593181207832073
  0
LINE
  5
229
330
2
100
AcDbEntity
  8
0
100
AcDbLine
 10
3.530206671371288
 20
2.593181207832073
 30
0.0
 11
3.702183185794422
 21
2.642826551274478
 31
0.0
  0
LWPOLYLINE
  5
22A
330
2
100
AcDbEntity
  8
0
100
AcDbPolyline
 90
        9
 70
   128
 43
0.0
 10
3.702183185794422
 20
2.642826551274478
 10
3.760437702239925
 20
2.668370454597192
 10
3.794706843900952
 20
2.70311627137223
 10
3.799774765017473
 20
2.741774642007908
 10
3.774869209828553
 20
2.778459981764393
 10
3.723781115062008
 20
2.807587073392604
 10
3.654288892431364
 20
2.824721784490773
 10
3.576972801592142
 20
2.827255719258292
 10
3.50360220499668
 20
2.81480272535958
  0
LINE
  5
22B
330
2
100
AcDbEntity
  8
0
100
AcDbLine
 10
5.471095082401666
 20
1.491031195143609
 30
0.0
 11
5.516799848296336
 21
1.504225024587154
 31
0.0
  0
ARC
  5
22C
330
2
100
AcDbEntity
  8
0
100
AcDbCircle
 10
5.371514863159965
 20
1.854246919662254
 30
0.0
 40
0.3766190151906149
100
AcDbArc
 50
262.2008268918017
 51
285.3316431664972
  0
LINE
  5
22D
330
2
100
AcDbEntity
  8
0
100
AcDbLine
 10
4.326428716667861
 20
1.614279840505522
 30
0.0
 11
5.320407182997558
 21
1.481111706054807
 31
0.0
  0
ARC
  5
22E
330
2
100
AcDbEntity
  8
0
100
AcDbCircle
 10
4.347524648312139
 20
1.849541706977912
 30
0.0
 40
0.2362058088824565
100
AcDbArc
 50
233.1444269821995
 51
264.8759916605935
  0
LINE
  5
22F
330
2
100
AcDbEntity
  8
0
100
AcDbLine
 10
4.205848410828068
 20
1.660541633223436
 30
0.0
 11
2.054067431930098
 21
3.524038624324481
 31
0.0
  0
ARC
  5
230
330
2
100
AcDbEntity
  8
0
100
AcDbCircle
 10
2.091882572708195
 20
3.57625467126055
 30
0.0
 40
0.0644709270116974
100
AcDbArc
 50
182.2852148176459
 51
234.0877427972317
  0
LINE
  5
231
330
2
100
AcDbEntity
  8
0
100
AcDbLine
 10
2.438794842447277
 20
4.208550189302133
 30
0.0
 11
2.39309007654262
 21
4.195356359848649
 31
0.0
  0
ARC
  5
232
330
2
100
AcDbEntity
  8
0
100
AcDbCircle
 10
2.422703851050981
 20
4.048766662740358
 30
0.0
 40
0.1495510445957865
100
AcDbArc
 50
101.4210714680926
 51
144.7560980463016
  0
LWPOLYLINE
  5
233
330
2
100
AcDbEntity
  8
0
100
AcDbPolyline
 90
        6
 70
   128
 43
0.0
 10
5.28839922580516
 20
7.652504799630308
 10
5.273589053425974
 20
7.652865562097995
 10
5.261256106698894
 20
7.651560260708071
 10
5.251874825758635
 20
7.648639151727007
 10
5.245804552692751
 20
7.644214243490825
 10
5.243738167171226
 20
7.640572293239011
  0
LINE
  5
234
330
2
100
AcDbEntity
  8
0
100
AcDbLine
 10
2.300565067767802
 20
4.135066329934783
 30
0.0
 11
2.034229809415093
 21
3.638076961382373
 31
0.0
  0
ARC
  5
235
330
2
100
AcDbEntity
  8
0
100
AcDbCircle
 10
4.827765138227743
 20
7.446653512775196
 30
0.0
 40
0.2424690441551312
100
AcDbArc
 50
53.53729464470079
 51
85.22747148609594
  0
LWPOLYLINE
  5
236
330
2
100
AcDbEntity
  8
0
100
AcDbPolyline
 90
        3
 70
   128
 43
0.0
 10
4.091878362747834
 20
7.686636622857458
 10
4.091436038130524
 20
7.6860074038483
 10
4.091060172994125
 20
7.68516972176377
  0
ARC
  5
237
330
2
100
AcDbEntity
  8
0
100
AcDbCircle
 10
4.256939925814321
 20
7.344291225517366
 30
0.0
 40
0.3880190160443267
100
AcDbArc
 50
82.44019616819755
 51
109.3018013701016
  0
ARC
  5
238
330
2
100
AcDbEntity
  8
0
100
AcDbCircle
 10
3.817546137562247
 20
6.913880120045859
 30
0.0
 40
0.4510269991640098
100
AcDbArc
 50
125.0532852855038
 51
165.0326126333989
  0
ARC
  5
239
330
2
100
AcDbEntity
  8
0
100
AcDbCircle
 10
2.081302660883802
 20
3.611941631302964
 30
0.0
 40
0.0538415158052334
100
AcDbArc
 50
150.9605160887986
 51
179.534994665199
  0
LINE
  5
23A
330
2
100
AcDbEntity
  8
0
100
AcDbLine
 10
4.091060172994125
 20
7.68516972176377
 30
0.0
 11
3.99002806447657
 21
7.565483649778388
 31
0.0
  0
ARC
  5
23B
330
2
100
AcDbEntity
  8
0
100
AcDbCircle
 10
3.959069586171823
 20
7.610973710234637
 30
0.0
 40
0.0550252031311996
100
AcDbArc
 50
257.7914719907968
 51
304.2374325905979
  0
ARC
  5
23C
330
2
100
AcDbEntity
  8
0
100
AcDbCircle
 10
3.763040737178436
 20
7.507072548722088
 30
0.0
 40
0.090207419481725
100
AcDbArc
 50
305.0536892742024
 51
345.0319929205975
  0
LINE
  5
23D
330
2
100
AcDbEntity
  8
0
100
AcDbLine
 10
3.947433391364161
 20
7.557192933463489
 30
0.0
 11
3.928658175924047
 21
7.558606607698012
 31
0.0
  0
ARC
  5
23E
330
2
100
AcDbEntity
  8
0
100
AcDbCircle
 10
3.930008080635596
 20
7.482333101809394
 30
0.0
 40
0.0762854504036916
100
AcDbArc
 50
91.01392702580204
 51
163.0906939452
  0
LINE
  5
23F
330
2
100
AcDbEntity
  8
0
100
AcDbLine
 10
3.857020728296546
 20
7.504521304574691
 30
0.0
 11
3.850187436553053
 21
7.483773808047426
 31
0.0
  0
ARC
  5
240
330
2
100
AcDbEntity
  8
0
100
AcDbCircle
 10
9.398225865613115
 20
2.923160058346081
 30
0.0
 40
0.1132691524796946
100
AcDbArc
 50
286.6490829758924
 51
308.1274944216978
  0
LINE
  5
241
330
2
100
AcDbEntity
  8
0
100
AcDbLine
 10
8.767713402539289
 20
2.623257888505092
 30
0.0
 11
9.43067852198461
 21
2.814639433587087
 31
0.0
  0
ARC
  5
242
330
2
100
AcDbEntity
  8
0
100
AcDbCircle
 10
8.719914896157444
 20
2.783632949295617
 30
0.0
 40
0.1673465187482321
100
AcDbArc
 50
266.2240578527004
 51
286.5962675312992
  0
LINE
  5
243
330
2
100
AcDbEntity
  8
0
100
AcDbLine
 10
8.610882117520107
 20
2.624029678285805
 30
0.0
 11
8.708894303056085
 21
2.616649705033081
 31
0.0
  0
ARC
  5
244
330
2
100
AcDbEntity
  8
0
100
AcDbCircle
 10
8.625745268770533
 20
2.802065242216552
 30
0.0
 40
0.1786549055843796
100
AcDbArc
 50
233.5365937101958
 51
265.2277757242018
  0
ARC
  5
245
330
2
100
AcDbEntity
  8
0
100
AcDbCircle
 10
7.792125913267235
 20
8.160881177669731
 30
0.0
 40
0.0243907137207988
100
AcDbArc
 50
99.61260672580433
 51
162.1737659591987
  0
LINE
  5
246
330
2
100
AcDbEntity
  8
0
100
AcDbLine
 10
7.9630162897824
 20
8.204586419789297
 30
0.0
 11
7.788053013106244
 21
8.184929429167024
 31
0.0
  0
LINE
  5
247
330
2
100
AcDbEntity
  8
0
100
AcDbLine
 10
9.191211108743177
 20
8.112108806553317
 30
0.0
 11
7.9630162897824
 21
8.204586419789297
 31
0.0
  0
ARC
  5
248
330
2
100
AcDbEntity
  8
0
100
AcDbCircle
 10
9.189591292169662
 20
8.098929026236858
 30
0.0
 40
0.0132789462960161
100
AcDbArc
 50
333.6434646951036
 51
82.99339176569528
  0
LINE
  5
249
330
2
100
AcDbEntity
  8
0
100
AcDbLine
 10
9.125025687446232
 20
7.860874211725372
 30
0.0
 11
9.201489876115426
 21
8.093033764169687
 31
0.0
  0
LINE
  5
24A
330
2
100
AcDbEntity
  8
0
100
AcDbLine
 10
8.042273761030161
 20
7.942400061682842
 30
0.0
 11
9.125025687446232
 21
7.860874211725372
 31
0.0
  0
LINE
  5
24B
330
2
100
AcDbEntity
  8
0
100
AcDbLine
 10
6.733839977936552
 20
7.464427017255577
 30
0.0
 11
6.625023682901181
 21
7.13404577222991
 31
0.0
  0
ARC
  5
24C
330
2
100
AcDbEntity
  8
0
100
AcDbCircle
 10
6.756297322228451
 20
7.457600443843934
 30
0.0
 40
0.0234719921854106
100
AcDbArc
 50
91.01248601779753
 51
163.0918007758038
  0
LINE
  5
24D
330
2
100
AcDbEntity
  8
0
100
AcDbLine
 10
6.755882565207441
 20
7.481068771307881
 30
0.0
 11
6.864965375287848
 21
7.47285521386771
 31
0.0
  0
LINE
  5
24E
330
2
100
AcDbEntity
  8
0
100
AcDbLine
 10
6.864965375287848
 20
7.47285521386771
 30
0.0
 11
7.613203774104786
 21
7.695611528919163
 31
0.0
  0
LINE
  5
24F
330
2
100
AcDbEntity
  8
0
100
AcDbLine
 10
7.76890621420361
 20
8.168347936734567
 30
0.0
 11
7.613203774104786
 21
7.695611528919163
 31
0.0
  0
LINE
  5
250
330
2
100
AcDbEntity
  8
0
100
AcDbLine
 10
7.783117778711194
 20
6.961837947454509
 30
0.0
 11
8.050327290644196
 21
7.77312767239352
 31
0.0
  0
LINE
  5
251
330
2
100
AcDbEntity
  8
0
100
AcDbLine
 10
9.133079217060261
 20
7.691601822436002
 30
0.0
 11
9.065854643384056
 21
7.487498918161803
 31
0.0
  0
LINE
  5
252
330
2
100
AcDbEntity
  8
0
100
AcDbLine
 10
8.863849059882843
 20
7.50270896368984
 30
0.0
 11
8.663862840302201
 21
6.895521853216014
 31
0.0
  0
LINE
  5
253
330
2
100
AcDbEntity
  8
0
100
AcDbLine
 10
8.663862840302201
 20
6.895521853216014
 30
0.0
 11
7.783117778711194
 21
6.961837947454509
 31
0.0
  0
ARC
  5
254
330
2
100
AcDbEntity
  8
0
100
AcDbCircle
 10
9.227376383542676
 20
7.246846750719099
 30
0.0
 40
0.0539901881999303
100
AcDbArc
 50
226.9690139197048
 51
295.3354855813932
  0
LINE
  5
255
330
2
100
AcDbEntity
  8
0
100
AcDbLine
 10
9.096207921137533
 20
7.289069365869616
 30
0.0
 11
9.190533814770267
 21
7.207380745752329
 31
0.0
  0
ARC
  5
256
330
2
100
AcDbEntity
  8
0
100
AcDbCircle
 10
9.251156967957196
 20
7.414307847323326
 30
0.0
 40
0.1992332410649085
100
AcDbArc
 50
158.4468754029974
 51
218.9470807937983
  0
ARC
  5
257
330
2
100
AcDbEntity
  8
0
100
AcDbCircle
 10
9.06078207248421
 20
7.716438072468712
 30
0.0
 40
0.0764442046757586
100
AcDbArc
 50
341.0408574851015
 51
24.40699054409735
  0
ARC
  5
258
330
2
100
AcDbEntity
  8
0
100
AcDbCircle
 10
9.2695991782402
 20
7.81120081179029
 30
0.0
 40
0.1528690318594379
100
AcDbArc
 50
161.0380058708977
 51
204.4098498788006
  0
LINE
  5
259
330
2
100
AcDbEntity
  8
0
100
AcDbLine
 10
8.663862840302201
 20
6.895521853216014
 30
0.0
 11
8.732446063550561
 21
6.836127039606095
 31
0.0
  0
LINE
  5
25A
330
2
100
AcDbEntity
  8
0
100
AcDbLine
 10
6.728547702580426
 20
6.98701088690716
 30
0.0
 11
6.635141900080109
 21
7.067902684732234
 31
0.0
  0
LINE
  5
25B
330
2
100
AcDbEntity
  8
0
100
AcDbLine
 10
6.635141900080109
 20
7.067902684732234
 30
0.0
 11
7.758295199459164
 21
6.983334931679663
 31
0.0
  0
LINE
  5
25C
330
2
100
AcDbEntity
  8
0
100
AcDbLine
 10
7.758295199459164
 20
6.983334931679663
 30
0.0
 11
7.783117778711194
 21
6.961837947454509
 31
0.0
  0
ARC
  5
25D
330
2
100
AcDbEntity
  8
0
100
AcDbCircle
 10
8.698647785134323
 20
6.80309529708392
 30
0.0
 40
0.0472590693769855
100
AcDbArc
 50
6.36813634549947
 51
44.34285004420478
  0
ARC
  5
25E
330
2
100
AcDbEntity
  8
0
100
AcDbCircle
 10
9.049146375429701
 20
7.429517227704396
 30
0.0
 40
0.1992288266436434
100
AcDbArc
 50
158.446168294299
 51
218.947801727599
  0
LINE
  5
25F
330
2
100
AcDbEntity
  8
0
100
AcDbLine
 10
8.988528231278962
 20
7.222590951435894
 30
0.0
 11
8.894202337636398
 21
7.30427957155318
 31
0.0
  0
ARC
  5
260
330
2
100
AcDbEntity
  8
0
100
AcDbCircle
 10
9.026486283997217
 20
7.26385519536763
 30
0.0
 40
0.0560673843965449
100
AcDbArc
 50
227.3897431828998
 51
264.8561861738975
  0
ARC
  5
261
330
2
100
AcDbEntity
  8
0
100
AcDbCircle
 10
8.186847251824127
 20
7.892726661757675
 30
0.0
 40
0.1528690318594719
100
AcDbArc
 50
161.0380058708977
 51
204.4098498788006
  0
ARC
  5
262
330
2
100
AcDbEntity
  8
0
100
AcDbCircle
 10
6.694819434123892
 20
6.954025163598846
 30
0.0
 40
0.0471768379139435
100
AcDbArc
 50
6.491114374099542
 51
44.36230848150005
  0
ARC
  5
263
330
2
100
AcDbEntity
  8
0
100
AcDbCircle
 10
7.978036411496286
 20
7.797964220516092
 30
0.0
 40
0.0764383760339886
100
AcDbArc
 50
341.0391203479005
 51
24.40872768130111
  0
ELLIPSE
  5
264
330
2
100
AcDbEntity
  8
0
100
AcDbEllipse
 10
9.285357894244683
 20
8.709291386977767
 30
0.0
 11
0.2397625998926942
 21
0.8551729997236396
 31
0.0
210
0.0
220
0.0
230
0.9999999999999998
 40
0.033449368
 41
2.272263534317461
 42
2.34174625460599
  0
SPLINE
  5
265
330
2
100
AcDbEntity
  8
0
100
AcDbSpline
210
0.0
220
0.0
230
1.0
 70
     8
 71
     3
 72
    11
 73
     7
 74
     0
 42
0.000000001
 43
0.0000000001
 40
0.0
 40
0.0
 40
0.0
 40
0.0
 40
0.2517137385180087
 40
0.5017633876615959
 40
0.7884835531649208
 40
1.0
 40
1.0
 40
1.0
 40
1.0
 10
9.089159367249115
 20
8.210465015160899
 30
0.0
 10
9.092428400211666
 20
8.208102003381792
 30
0.0
 10
9.098944854432083
 20
8.203391601786837
 30
0.0
 10
9.106464127079469
 20
8.190769628069167
 30
0.0
 10
9.11064439623651
 20
8.17688307863133
 30
0.0
 10
9.109334725658841
 20
8.167517265458661
 30
0.0
 10
9.108778731056572
 20
8.163541195706002
 30
0.0
  0
ARC
  5
266
330
2
100
AcDbEntity
  8
0
100
AcDbCircle
 10
6.686786392337036
 20
7.109648443275663
 30
0.0
 40
0.0664067913464627
100
AcDbArc
 50
158.4451304928023
 51
218.9496259357014
  0
LINE
  5
267
330
2
100
AcDbEntity
  8
0
100
AcDbLine
 10
8.862534457367301
 20
8.27663391546746
 30
0.0
 11
8.418793330290174
 21
8.310045477746948
 31
0.0
  0
LINE
  5
268
330
2
100
AcDbEntity
  8
0
100
AcDbLine
 10
8.862534457367301
 20
8.27663391546746
 30
0.0
 11
9.083044897301943
 21
8.212978254835521
 31
0.0
  0
ARC
  5
269
330
2
100
AcDbEntity
  8
0
100
AcDbCircle
 10
9.074790510789901
 20
8.184201549968213
 30
0.0
 40
0.0299371615194902
100
AcDbArc
 50
61.31673829750036
 51
73.99485028310414
  0
ELLIPSE
  5
26A
330
2
100
AcDbEntity
  8
0
100
AcDbEllipse
 10
7.809833281079934
 20
8.187954445879599
 30
0.0
 11
0.0460753685514846
 21
-0.0187761730278664
 31
0.0
210
0.0
220
0.0
230
0.9999999999999998
 40
0.2713924154000001
 41
1.896947681047104
 42
2.246013531439856
  0
LINE
  5
26B
330
2
100
AcDbEntity
  8
0
100
AcDbLine
 10
7.846828770118052
 20
8.191532766985366
 30
0.0
 11
7.799898222617461
 21
8.205815832001485
 31
0.0
  0
LINE
  5
26C
330
2
100
AcDbEntity
  8
0
100
AcDbLine
 10
7.448644679586426
 20
8.25105784964292
 30
0.0
 11
7.642654633757195
 21
8.083040300749937
 31
0.0
  0
ELLIPSE
  5
26D
330
2
100
AcDbEntity
  8
0
100
AcDbEllipse
 10
7.487795287630351
 20
8.244218072006662
 30
0.0
 11
0.046075368550813
 21
-0.0187761730275899
 31
0.0
210
0.0
220
0.0
230
1.0
 40
0.2713924153999999
 41
2.246013531444893
 42
3.816809858235645
  0
LINE
  5
26E
330
2
100
AcDbEntity
  8
0
100
AcDbLine
 10
7.462972810280255
 20
8.265715175539204
 30
0.0
 11
7.785010102778669
 21
8.209451415707597
 31
0.0
  0
LINE
  5
26F
330
2
100
AcDbEntity
  8
0
100
AcDbLine
 10
6.802856419007934
 20
7.49776867497215
 30
0.0
 11
6.796352427099243
 21
7.478021493310947
 31
0.0
  0
LINE
  5
270
330
2
100
AcDbEntity
  8
0
100
AcDbLine
 10
6.800789646164152
 20
7.497924345385673
 30
0.0
 11
6.802856419007934
 21
7.49776867497215
 31
0.0
  0
LWPOLYLINE
  5
271
330
2
100
AcDbEntity
  8
0
100
AcDbPolyline
 90
        9
 70
   128
 43
0.0
 10
6.796069254873788
 20
7.508545572791948
 10
6.795419624471227
 20
7.506661730117766
 10
6.795141577531349
 20
7.504786652688482
 10
6.795246645958743
 20
7.503003752127678
 10
6.795729704467995
 20
7.501392432367269
 10
6.796570251887309
 20
7.500024775728176
 10
6.797729848550458
 20
7.498961920168164
 10
6.799157241572657
 20
7.498251054225261
 10
6.800789646164152
 20
7.497924345385673
  0
LINE
  5
272
330
2
100
AcDbEntity
  8
0
100
AcDbLine
 10
7.017280578095767
 20
8.006556613564061
 30
0.0
 11
6.796069254873788
 21
7.508545572791948
 31
0.0
  0
ARC
  5
273
330
2
100
AcDbEntity
  8
0
100
AcDbCircle
 10
7.049529633636989
 20
7.993466306505715
 30
0.0
 40
0.0348045646729529
100
AcDbArc
 50
90.72684154310181
 51
157.9071328554996
  0
LINE
  5
274
330
2
100
AcDbEntity
  8
0
100
AcDbLine
 10
7.197480618952121
 20
8.017094997616041
 30
0.0
 11
7.049088122496771
 21
8.028268070689305
 31
0.0
  0
LINE
  5
275
330
2
100
AcDbEntity
  8
0
100
AcDbLine
 10
7.745844273235147
 20
8.09832657818664
 30
0.0
 11
7.197480618952121
 21
8.017094997616041
 31
0.0
  0
ARC
  5
276
330
2
100
AcDbEntity
  8
0
100
AcDbCircle
 10
8.317179618776904
 20
8.750196557839629
 30
0.0
 40
0.4517281479781081
100
AcDbArc
 50
248.3883789471951
 51
282.9996079636003
  0
SPLINE
  5
277
330
2
100
AcDbEntity
  8
0
100
AcDbSpline
210
0.0
220
0.0
230
1.0
 70
     8
 71
     3
 72
     9
 73
     5
 74
     0
 42
0.000000001
 43
0.0000000001
 40
0.0
 40
0.0
 40
0.0
 40
0.0
 40
0.3637854744933605
 40
1.0
 40
1.0
 40
1.0
 40
1.0
 10
8.182101507197877
 20
6.112084664510833
 30
0.0
 10
8.180560376506337
 20
6.12040175051892
 30
0.0
 10
8.176324004249579
 20
6.143264362116178
 30
0.0
 10
8.171181699172294
 20
6.165462714349638
 30
0.0
 10
8.167910089987637
 20
6.179585628482851
 30
0.0
  0
SPLINE
  5
278
330
2
100
AcDbEntity
  8
0
100
AcDbSpline
210
0.0
220
0.0
230
1.0
 70
     8
 71
     3
 72
     9
 73
     5
 74
     0
 42
0.000000001
 43
0.0000000001
 40
0.0
 40
0.0
 40
0.0
 40
0.0
 40
0.4931078804754943
 40
1.0
 40
1.0
 40
1.0
 40
1.0
 10
8.456829818295851
 20
6.091399027153385
 30
0.0
 10
8.448973468079898
 20
6.077688147901267
 30
0.0
 10
8.43304115280574
 20
6.049883118221141
 30
0.0
 10
8.42420029809709
 20
6.018741148943245
 30
0.0
 10
8.419718938515462
 20
6.002955530129761
 30
0.0
  0
SPLINE
  5
279
330
2
100
AcDbEntity
  8
0
100
AcDbSpline
210
0.0
220
0.0
230
1.0
 70
     8
 71
     3
 72
     9
 73
     5
 74
     0
 42
0.000000001
 43
0.0000000001
 40
0.0
 40
0.0
 40
0.0
 40
0.0
 40
0.3964137364449641
 40
1.0
 40
1.0
 40
1.0
 40
1.0
 10
8.419718938515462
 20
6.002955530129761
 30
0.0
 10
8.413436742127236
 20
5.995619946451365
 30
0.0
 10
8.397589167205815
 20
5.977115078925399
 30
0.0
 10
8.380281791436129
 20
5.961216036785279
 30
0.0
 10
8.369835297163316
 20
5.951619593345829
 30
0.0
  0
LINE
  5
27A
330
2
100
AcDbEntity
  8
0
100
AcDbLine
 10
8.18080822709256
 20
5.965852217954249
 30
0.0
 11
8.190403251832881
 21
6.02022208597125
 31
0.0
  0
SPLINE
  5
27B
330
2
100
AcDbEntity
  8
0
100
AcDbSpline
210
0.0
220
0.0
230
1.0
 70
     8
 71
     3
 72
     9
 73
     5
 74
     0
 42
0.000000001
 43
0.0000000001
 40
0.0
 40
0.0
 40
0.0
 40
0.0
 40
0.3822979274184181
 40
1.0
 40
1.0
 40
1.0
 40
1.0
 10
8.190403251837675
 20
6.020222085975141
 30
0.0
 10
8.190986560636686
 20
6.032332830367365
 30
0.0
 10
8.192512357030445
 20
6.064011642946837
 30
0.0
 10
8.186076777816539
 20
6.093728500196879
 30
0.0
 10
8.182101507197877
 20
6.112084664510833
 30
0.0
  0
LINE
  5
27C
330
2
100
AcDbEntity
  8
0
100
AcDbLine
 10
8.167910089987637
 20
6.179585628483478
 30
0.0
 11
8.171099565960028
 21
6.21007862856304
 31
0.0
  0
ARC
  5
27D
330
2
100
AcDbEntity
  8
0
100
AcDbCircle
 10
8.284192252300421
 20
5.877382448710447
 30
0.0
 40
0.3513925209699852
100
AcDbArc
 50
62.61379871470387
 51
108.7743259455001
  0
LINE
  5
27E
330
2
100
AcDbEntity
  8
0
100
AcDbLine
 10
8.369396726949842
 20
5.871415685072374
 30
0.0
 11
8.367130067832174
 21
5.869781866137538
 31
0.0
  0
LWPOLYLINE
  5
27F
330
2
100
AcDbEntity
  8
0
100
AcDbPolyline
 90
        9
 70
   128
 43
0.0
 10
8.215820000532749
 20
5.881175165468332
 10
8.216326369389943
 20
5.890833611271679
 10
8.224662679667501
 20
5.897757265002488
 10
8.240148828295803
 20
5.901382378665918
 10
8.261527401964276
 20
5.901414625812856
 10
8.287056755825172
 20
5.89785079242019
 10
8.314661475634883
 20
5.890980915578105
 10
8.342097120904796
 20
5.881364060027295
 10
8.367130067832174
 20
5.869781866137538
  0
LINE
  5
280
330
2
100
AcDbEntity
  8
0
100
AcDbLine
 10
8.215820000532749
 20
5.881175165468332
 30
0.0
 11
8.214712938078308
 21
5.883062821870226
 31
0.0
  0
LINE
  5
281
330
2
100
AcDbEntity
  8
0
100
AcDbLine
 10
8.214712938078308
 20
5.883062821870226
 30
0.0
 11
8.18080822709256
 21
5.965852217954249
 31
0.0
  0
LINE
  5
282
330
2
100
AcDbEntity
  8
0
100
AcDbLine
 10
8.36983529716552
 20
5.951619593348817
 30
0.0
 11
8.369396726949842
 21
5.871415685072374
 31
0.0
  0
LINE
  5
283
330
2
100
AcDbEntity
  8
0
100
AcDbLine
 10
8.150802211765903
 20
8.33022408479959
 30
0.0
 11
7.953508050307991
 21
8.345079311001166
 31
0.0
  0
LINE
  5
284
330
2
100
AcDbEntity
  8
0
100
AcDbLine
 10
8.368237130286621
 20
5.869698631846794
 30
0.0
 11
8.410435561253587
 21
5.833153718634154
 31
0.0
  0
LINE
  5
285
330
2
100
AcDbEntity
  8
0
100
AcDbLine
 10
8.368237130286621
 20
5.869698631846794
 30
0.0
 11
8.369396726949842
 21
5.871415685072374
 31
0.0
  0
LINE
  5
286
330
2
100
AcDbEntity
  8
0
100
AcDbLine
 10
8.470575451799929
 20
6.177436783176768
 30
0.0
 11
8.445827877057448
 21
6.189393071287535
 31
0.0
  0
LINE
  5
287
330
2
100
AcDbEntity
  8
0
100
AcDbLine
 10
8.470575451799929
 20
6.177436783176768
 30
0.0
 11
8.456829818292158
 21
6.091399027155987
 31
0.0
  0
LWPOLYLINE
  5
288
330
2
100
AcDbEntity
  8
0
100
AcDbPolyline
 90
        9
 70
   128
 43
0.0
 10
8.409328498799146
 20
5.833236952924885
 10
8.408822129942032
 20
5.823578507121503
 10
8.400485819664472
 20
5.816654853390692
 10
8.384999671036093
 20
5.813029739727264
 10
8.363622378691472
 20
5.812997782379483
 10
8.338091743506723
 20
5.816561325973038
 10
8.310487023697012
 20
5.823431202815088
 10
8.283051378427099
 20
5.833048058365934
 10
8.258018431499715
 20
5.844630252255692
  0
LINE
  5
289
330
2
100
AcDbEntity
  8
0
100
AcDbLine
 10
8.256911369045274
 20
5.844713486546435
 30
0.0
 11
8.258018431499715
 21
5.844630252255692
 31
0.0
  0
LINE
  5
28A
330
2
100
AcDbEntity
  8
0
100
AcDbLine
 10
8.214712938078308
 20
5.881258399759075
 30
0.0
 11
8.256911369045274
 21
5.844713486546435
 31
0.0
  0
LINE
  5
28B
330
2
100
AcDbEntity
  8
0
100
AcDbLine
 10
8.214712938078308
 20
5.881258399759075
 30
0.0
 11
8.215820000532749
 21
5.881175165468332
 31
0.0
  0
LINE
  5
28C
330
2
100
AcDbEntity
  8
0
100
AcDbLine
 10
8.367130067832174
 20
5.869781866137538
 30
0.0
 11
8.368237130286621
 21
5.869698631846794
 31
0.0
  0
LINE
  5
28D
330
2
100
AcDbEntity
  8
0
100
AcDbLine
 10
8.409328498799146
 20
5.833236952924885
 30
0.0
 11
8.410435561253587
 21
5.833153718634154
 31
0.0
  0
LINE
  5
28E
330
2
100
AcDbEntity
  8
0
100
AcDbLine
 10
7.953508050307991
 20
8.345079311001166
 30
0.0
 11
7.853039783058673
 21
8.367162512816848
 31
0.0
  0
LWPOLYLINE
  5
28F
330
2
100
AcDbEntity
  8
0
100
AcDbPolyline
 90
        3
 70
   128
 43
0.0
 10
8.47984315011389
 20
5.856349998080758
 10
8.470422691372144
 20
5.848690194263586
 10
8.468567281342686
 20
5.847786630469478
  0
LINE
  5
290
330
2
100
AcDbEntity
  8
0
100
AcDbLine
 10
8.613927467593743
 20
6.01055938822159
 30
0.0
 11
8.600201117926518
 21
6.00058243227202
 31
0.0
  0
ARC
  5
291
330
2
100
AcDbEntity
  8
0
100
AcDbCircle
 10
7.828696304438403
 20
8.258989624169849
 30
0.0
 40
0.1108782160301087
100
AcDbArc
 50
77.31730820779628
 51
85.32930291050435
  0
LINE
  5
292
330
2
100
AcDbEntity
  8
0
100
AcDbLine
 10
7.837724982900951
 20
8.369499631660271
 30
0.0
 11
7.505397391125458
 21
8.394522383728526
 31
0.0
  0
LINE
  5
293
330
2
100
AcDbEntity
  8
0
100
AcDbLine
 10
8.214712938078308
 20
5.883062821870226
 30
0.0
 11
8.214712938078308
 21
5.881258399759075
 31
0.0
  0
SPLINE
  5
294
330
2
100
AcDbEntity
  8
0
100
AcDbSpline
210
0.0
220
0.0
230
1.0
 70
     8
 71
     3
 72
     9
 73
     5
 74
     0
 42
0.000000001
 43
0.0000000001
 40
0.0
 40
0.0
 40
0.0
 40
0.0
 40
0.690265050481048
 40
1.0
 40
1.0
 40
1.0
 40
1.0
 10
8.627782140648539
 20
6.031816056695648
 30
0.0
 10
8.623240658238442
 20
6.038034699647285
 30
0.0
 10
8.616661326998904
 20
6.047043765001645
 30
0.0
 10
8.609964896064264
 20
6.055804665756559
 30
0.0
 10
8.607890777366765
 20
6.058518222909653
 30
0.0
  0
LINE
  5
295
330
2
100
AcDbEntity
  8
0
100
AcDbLine
 10
8.613927467593743
 20
6.01055938822159
 30
0.0
 11
8.627782140651925
 21
6.031816056695576
 31
0.0
  0
LWPOLYLINE
  5
296
330
2
100
AcDbEntity
  8
0
100
AcDbPolyline
 90
        6
 70
   128
 43
0.0
 10
7.505397391125458
 20
8.394522383728526
 10
7.497991664273937
 20
8.394702339770752
 10
7.491825237149956
 20
8.394049809192448
 10
7.487134596674878
 20
8.392589174619164
 10
7.484099413907367
 20
8.390376680467156
 10
7.483066861813485
 20
8.388555970367425
  0
ARC
  5
297
330
2
100
AcDbEntity
  8
0
100
AcDbCircle
 10
8.653292456852955
 20
5.416809752539676
 30
0.0
 40
0.0292409910069969
100
AcDbArc
 50
206.3093621142017
 51
267.201958473101
  0
ARC
  5
298
330
2
100
AcDbEntity
  8
0
100
AcDbCircle
 10
8.912264464347323
 20
5.534414197496961
 30
0.0
 40
0.3136511507168226
100
AcDbArc
 50
168.1565985803998
 51
204.5995217088999
  0
LINE
  5
299
330
2
100
AcDbEntity
  8
0
100
AcDbLine
 10
8.676768819419294
 20
5.8158094406681
 30
0.0
 11
8.605290255761733
 21
5.598787170168979
 31
0.0
  0
LINE
  5
29A
330
2
100
AcDbEntity
  8
0
100
AcDbLine
 10
9.082024150360288
 20
5.562891407209958
 30
0.0
 11
9.153502714017854
 21
5.779913677709032
 31
0.0
  0
ARC
  5
29B
330
2
100
AcDbEntity
  8
0
100
AcDbCircle
 10
8.611373603349084
 20
5.790278057577769
 30
0.0
 40
0.5227012781398384
100
AcDbArc
 50
308.3912028773998
 51
334.2132946608986
  0
ARC
  5
29C
330
2
100
AcDbEntity
  8
0
100
AcDbCircle
 10
8.903611338226339
 20
5.418909518936636
 30
0.0
 40
0.0501639223494189
100
AcDbArc
 50
268.1090752518037
 51
310.1931445754983
  0
LINE
  5
29D
330
2
100
AcDbEntity
  8
0
100
AcDbLine
 10
8.651865039494651
 20
5.387603622447997
 30
0.0
 11
8.901956085702563
 21
5.368772913098685
 31
0.0
  0
ARC
  5
29E
330
2
100
AcDbEntity
  8
0
100
AcDbCircle
 10
8.717201708532813
 20
5.709239628228685
 30
0.0
 40
0.3106861041377147
100
AcDbArc
 50
305.8579809468014
 51
16.63386199700172
  0
ARC
  5
29F
330
2
100
AcDbEntity
  8
0
100
AcDbCircle
 10
9.00876353882872
 20
5.564984964754414
 30
0.0
 40
0.3116086264965785
100
AcDbArc
 50
126.1985519929033
 51
197.4443547745024
  0
ARC
  5
2A0
330
2
100
AcDbEntity
  8
0
100
AcDbCircle
 10
8.722139306180528
 20
5.476389272923773
 30
0.0
 40
0.0116919776461507
100
AcDbArc
 50
204.3362626065007
 51
267.2102901677973
  0
LINE
  5
2A1
330
2
100
AcDbEntity
  8
0
100
AcDbLine
 10
8.750857436581854
 20
5.462505752474561
 30
0.0
 11
8.721570253114876
 21
5.464711151507191
 31
0.0
  0
LINE
  5
2A2
330
2
100
AcDbEntity
  8
0
100
AcDbLine
 10
8.88518870228354
 20
5.452391473265041
 30
0.0
 11
8.750857436581854
 21
5.462505752474561
 31
0.0
  0
ARC
  5
2A3
330
2
100
AcDbEntity
  8
0
100
AcDbCircle
 10
8.88581336129234
 20
5.472619147591142
 30
0.0
 40
0.0202373172016488
100
AcDbArc
 50
268.2311879514998
 51
311.3935721910028
  0
ARC
  5
2A4
330
2
100
AcDbEntity
  8
0
100
AcDbCircle
 10
8.636196217273292
 20
5.768781043317289
 30
0.0
 40
0.5227012781398813
100
AcDbArc
 50
308.3912028773998
 51
334.2132946608986
  0
ARC
  5
2A5
330
2
100
AcDbEntity
  8
0
100
AcDbCircle
 10
8.928433952160457
 20
5.397412504676156
 30
0.0
 40
0.0501639223494189
100
AcDbArc
 50
268.1090752518037
 51
310.1931445754983
  0
LINE
  5
2A6
330
2
100
AcDbEntity
  8
0
100
AcDbLine
 10
9.106846764284503
 20
5.541394392959394
 30
0.0
 11
9.178325327952052
 21
5.758416663458504
 31
0.0
  0
LINE
  5
2A7
330
2
100
AcDbEntity
  8
0
100
AcDbLine
 10
8.676687653428777
 20
5.366106608197421
 30
0.0
 11
8.926778699626778
 21
5.347275898848109
 31
0.0
  0
ARC
  5
2A8
330
2
100
AcDbEntity
  8
0
100
AcDbCircle
 10
8.67852055462286
 20
5.396491649384419
 30
0.0
 40
0.0304402735592269
100
AcDbArc
 50
229.8492770627066
 51
266.5479592276034
  0
ARC
  5
2A9
330
2
100
AcDbEntity
  8
0
100
AcDbCircle
 10
9.039976648428021
 20
5.540473595702898
 30
0.0
 40
0.3186178184826632
100
AcDbArc
 50
124.0986910639973
 51
193.8826501116993
  0
LINE
  5
2AA
330
2
100
AcDbEntity
  8
0
100
AcDbLine
 10
8.874578911070553
 20
5.808739684691129
 30
0.0
 11
9.014886263900732
 21
5.798174868002664
 31
0.0
  0
ARC
  5
2AB
330
2
100
AcDbEntity
  8
0
100
AcDbCircle
 10
8.873881923693605
 20
5.788852993642267
 30
0.0
 40
0.019898901279801
100
AcDbArc
 50
87.99272310400047
 51
129.0223704634991
  0
LINE
  5
2AC
330
2
100
AcDbEntity
  8
0
100
AcDbLine
 10
12.74819812980182
 20
8.357618899170791
 30
0.0
 11
12.74534654705718
 21
8.360933027715324
 31
0.0
  0
LINE
  5
2AD
330
2
100
AcDbEntity
  8
0
100
AcDbLine
 10
24.70054169773521
 20
11.80796328736342
 30
0.0
 11
24.69769011499064
 21
11.81127741590795
 31
0.0
  0
LWPOLYLINE
  5
2AE
330
2
100
AcDbEntity
  8
0
100
AcDbPolyline
 90
       12
 70
   128
 43
0.0
 10
24.78272352121831
 20
11.72634653475211
 10
24.78750141184741
 20
11.72237507119098
 10
24.84893008433911
 20
11.69229618117553
 10
24.92255470265491
 20
11.6882743343057
 10
25.00039727377822
 20
11.71074554900189
 10
25.07402205226949
 20
11.7572746353115
 10
25.13545056458581
 20
11.82281933969157
 10
25.17802634146768
 20
11.90027699823015
 10
25.19713566169714
 20
11.98125389672909
 10
25.19070726778692
 20
12.0569747158312
 10
25.1594385194137
 20
12.11923425067023
 10
25.14022829505935
 20
12.13915757963031
  0
LWPOLYLINE
  5
2AF
330
2
100
AcDbEntity
  8
0
100
AcDbPolyline
 90
       12
 70
   128
 43
0.0
 10
12.83038027361579
 20
8.276002239028708
 10
12.83515768374846
 20
8.272030636758795
 10
12.89658683673658
 20
8.241951885452165
 10
12.97021097456597
 20
8.237929899873522
 10
13.04805386601031
 20
8.260401207038917
 10
13.12167864450157
 20
8.306930293358471
 10
13.18310715681782
 20
8.372474997728632
 10
13.22568293369976
 20
8.449932656267176
 10
13.24479193359828
 20
8.530909462296875
 10
13.23836418034995
 20
8.60663046634742
 10
13.20709479131476
 20
8.668889816247956
 10
13.18788520762236
 20
8.688813330136541
  0
LWPOLYLINE
  5
2B0
330
2
100
AcDbEntity
  8
0
100
AcDbPolyline
 90
       19
 70
   128
 43
0.0
 10
24.66109960910613
 20
11.86474587160673
 10
24.6635810498775
 20
11.80392637879213
 10
24.6877147551157
 20
11.72870148011003
 10
24.73402686777522
 20
11.67000738843058
 10
24.79876567622184
 20
11.6325994228753
 10
24.87668624783575
 20
11.61950803163433
 10
24.96147614838708
 20
11.63179386695222
 10
25.04626572859738
 20
11.66846141106358
 10
25.12418646037685
 20
11.7265403115434
 10
25.18892526882347
 20
11.80132524558414
 10
25.23523738148292
 20
11.88675764797749
 10
25.25937108672111
 20
11.97591614786952
 10
25.25937108672111
 20
12.06157782805951
 10
25.23523738148292
 20
12.13680272674158
 10
25.18892526882347
 20
12.19549673833332
 10
25.12418646037685
 20
12.23290486405412
 10
25.04626572859738
 20
12.24599612898764
 10
24.96147614838708
 20
12.23371046621675
 10
24.96147614838708
 20
12.23371046621675
  0
LWPOLYLINE
  5
2B1
330
2
100
AcDbEntity
  8
0
100
AcDbPolyline
 90
       19
 70
   128
 43
0.0
 10
12.7087558810171
 20
8.414401437174513
 10
12.71123780227505
 20
8.353582083068747
 10
12.73537150751325
 20
8.278357184386647
 10
12.7816836201826
 20
8.219663092707209
 10
12.84642242861939
 20
8.182255127151927
 10
12.92434284006784
 20
8.169163689671357
 10
13.00913242028813
 20
8.181449432520032
 10
13.09392200050844
 20
8.218116976631396
 10
13.17184305260886
 20
8.276195969580424
 10
13.23658186105555
 20
8.350980903621172
 10
13.28289397372491
 20
8.43641330601452
 10
13.30702767895319
 20
8.525571805906553
 10
13.30702767895319
 20
8.611233486106478
 10
13.28289397372491
 20
8.686458384778639
 10
13.23658186105555
 20
8.745152396380337
 10
13.17184305260886
 20
8.782560522101048
 10
13.09392200050844
 20
8.795651694555461
 10
13.00913242028813
 20
8.783366031784574
 10
13.00913242028813
 20
8.783366031784574
  0
ARC
  5
2B2
330
2
100
AcDbEntity
  8
0
100
AcDbCircle
 10
28.01710194664154
 20
11.41928908953249
 30
0.0
 40
0.6049514225825739
100
AcDbArc
 50
8.749285570098944
 51
43.73463283130247
  0
LINE
  5
2B3
330
2
100
AcDbEntity
  8
0
100
AcDbLine
 10
28.45420923719939
 20
11.83750367586663
 30
0.0
 11
28.15633773133048
 21
12.09546796701471
 31
0.0
  0
ARC
  5
2B4
330
2
100
AcDbEntity
  8
0
100
AcDbCircle
 10
28.29492239752063
 20
12.22285453470934
 30
0.0
 40
0.1882366790314482
100
AcDbArc
 50
179.5143540286999
 51
222.5891186933038
  0
LINE
  5
2B5
330
2
100
AcDbEntity
  8
0
100
AcDbLine
 10
28.10669248034745
 20
12.6973844862015
 30
0.0
 11
28.10669248034745
 21
12.22445003251102
 31
0.0
  0
LWPOLYLINE
  5
2B6
330
2
100
AcDbEntity
  8
0
100
AcDbPolyline
 90
        9
 70
   128
 43
0.0
 10
28.15633773133048
 20
12.74037861480729
 10
28.14665245442796
 20
12.74711404556009
 10
28.13733937518902
 20
12.7502861991257
 10
28.12875635821895
 20
12.74977318972087
 10
28.12123324924181
 20
12.74559463758242
 10
28.11505929902664
 20
12.73791102833513
 10
28.11047151194729
 20
12.72701802709231
 10
28.10764641604182
 20
12.71333382542213
 10
28.10669248034745
 20
12.6973844862015
  0
LINE
  5
2B7
330
2
100
AcDbEntity
  8
0
100
AcDbLine
 10
28.15633773133048
 20
12.74037861480729
 30
0.0
 11
28.25562823328679
 21
12.65439051776119
 31
0.0
  0
LWPOLYLINE
  5
2B8
330
2
100
AcDbEntity
  8
0
100
AcDbPolyline
 90
       11
 70
   128
 43
0.0
 10
28.25562823328679
 20
12.65439051776119
 10
28.31503264587386
 20
12.61543799996525
 10
28.37098472857165
 20
12.60373584370783
 10
28.42023272211446
 20
12.61996419085142
 10
28.45991444953229
 20
12.66317982805135
 10
28.48772376482452
 20
12.73087128353302
 10
28.50204463655977
 20
12.8191044173963
 10
28.50204463655977
 20
12.9227515380055
 10
28.48772376482452
 20
13.03578914931345
 10
28.45991444953229
 20
13.15164775179863
 10
28.42911819772442
 20
13.23852727818709
  0
LINE
  5
2B9
330
2
100
AcDbEntity
  8
0
100
AcDbLine
 10
28.25373426213023
 20
13.51096086847707
 30
0.0
 11
28.16980556634331
 21
13.58791136491688
 31
0.0
  0
ARC
  5
2BA
330
2
100
AcDbEntity
  8
0
100
AcDbCircle
 10
28.24625006369236
 20
13.71881568588573
 30
0.0
 40
0.1399464831415982
100
AcDbArc
 50
175.7275585791677
 51
213.1438620226628
  0
LINE
  5
2BB
330
2
100
AcDbEntity
  8
0
100
AcDbLine
 10
28.10669248034745
 20
15.57798541703778
 30
0.0
 11
28.10669248034745
 21
13.72924157071617
 31
0.0
  0
LINE
  5
2BC
330
2
100
AcDbEntity
  8
0
100
AcDbLine
 10
30.8868261652761
 20
13.17031901996972
 30
0.0
 11
30.8868261652761
 21
9.986150496789754
 31
0.0
  0
ARC
  5
2BD
330
2
100
AcDbEntity
  8
0
100
AcDbCircle
 10
28.25192826891486
 20
12.21044319884876
 30
0.0
 40
0.1882366790314369
100
AcDbArc
 50
179.5143540286999
 51
222.5891186933038
  0
LINE
  5
2BE
330
2
100
AcDbEntity
  8
0
100
AcDbLine
 10
28.06369835174166
 20
12.68497315033098
 30
0.0
 11
28.06369835174166
 21
12.21203869664049
 31
0.0
  0
LINE
  5
2BF
330
2
100
AcDbEntity
  8
0
100
AcDbLine
 10
28.11334360272469
 20
12.08305663115413
 30
0.0
 11
28.4112151085936
 21
11.82509234000601
 31
0.0
  0
ARC
  5
2C0
330
2
100
AcDbEntity
  8
0
100
AcDbCircle
 10
9.31347848563645
 20
7.022303394296406
 30
0.0
 40
0.0630464806986467
100
AcDbArc
 50
177.7639509145997
 51
291.3846800217994
  0
LINE
  5
2C1
330
2
100
AcDbEntity
  8
0
100
AcDbLine
 10
9.250480010678279
 20
7.024763248124762
 30
0.0
 11
9.250480010678279
 21
10.16332839003141
 31
0.0
  0
LINE
  5
2C2
330
2
100
AcDbEntity
  8
0
100
AcDbLine
 10
27.99588164388386
 20
13.72591588321016
 30
0.0
 11
27.99588164388386
 21
15.57465972953178
 31
0.0
  0
ARC
  5
2C3
330
2
100
AcDbEntity
  8
0
100
AcDbCircle
 10
27.87370170034549
 20
13.7319580485197
 30
0.0
 40
0.1223292539159528
100
AcDbArc
 50
287.2087967792026
 51
357.1688579939015
  0
LINE
  5
2C4
330
2
100
AcDbEntity
  8
0
100
AcDbLine
 10
27.90989338666238
 20
13.615105114433
 30
0.0
 11
27.30797686748561
 21
13.44134678224163
 31
0.0
  0
ARC
  5
2C5
330
2
100
AcDbEntity
  8
0
100
AcDbCircle
 10
27.34416836118892
 20
13.32449399761687
 30
0.0
 40
0.122329054158558
100
AcDbArc
 50
107.2087313155014
 51
177.1689234576004
  0
LINE
  5
2C6
330
2
100
AcDbEntity
  8
0
100
AcDbLine
 10
27.22198861026414
 20
13.33053601346443
 30
0.0
 11
27.22198861026414
 21
12.21269091199135
 31
0.0
  0
ARC
  5
2C7
330
2
100
AcDbEntity
  8
0
100
AcDbCircle
 10
27.09980992951205
 20
12.2187320902939
 30
0.0
 40
0.1223279439362854
100
AcDbArc
 50
287.2085247059994
 51
357.1692905096015
  0
LINE
  5
2C8
330
2
100
AcDbEntity
  8
0
100
AcDbLine
 10
27.13600067338351
 20
12.10188023568339
 30
0.0
 11
9.336466986565918
 21
6.963597452913069
 31
0.0
  0
LINE
  5
2C9
330
2
100
AcDbEntity
  8
0
100
AcDbLine
 10
25.33025079550222
 20
13.08539660476751
 30
0.0
 11
24.64234633943491
 21
12.88681569332416
 31
0.0
  0
LINE
  5
2CA
330
2
100
AcDbEntity
  8
0
100
AcDbLine
 10
25.33025079550222
 20
13.34336089591563
 30
0.0
 11
25.33025079550222
 21
13.08539660476751
 31
0.0
  0
LINE
  5
2CB
330
2
100
AcDbEntity
  8
0
100
AcDbLine
 10
25.33025079550222
 20
13.34336089591563
 30
0.0
 11
24.64234633943491
 21
13.14477998447231
 31
0.0
  0
LINE
  5
2CC
330
2
100
AcDbEntity
  8
0
100
AcDbLine
 10
24.64234633943491
 20
13.14477998447231
 30
0.0
 11
24.64234633943491
 21
12.88681569332416
 31
0.0
  0
LINE
  5
2CD
330
2
100
AcDbEntity
  8
0
100
AcDbLine
 10
13.3779073877442
 20
9.635052262804537
 30
0.0
 11
12.69000261134588
 21
9.436471258891968
 31
0.0
  0
LINE
  5
2CE
330
2
100
AcDbEntity
  8
0
100
AcDbLine
 10
13.3779073877442
 20
9.893016553952653
 30
0.0
 11
13.3779073877442
 21
9.635052262804537
 31
0.0
  0
LINE
  5
2CF
330
2
100
AcDbEntity
  8
0
100
AcDbLine
 10
13.3779073877442
 20
9.893016553952653
 30
0.0
 11
12.69000261134588
 21
9.694435550040122
 31
0.0
  0
LINE
  5
2D0
330
2
100
AcDbEntity
  8
0
100
AcDbLine
 10
12.69000261134588
 20
9.694435550040122
 30
0.0
 11
12.69000261134588
 21
9.436471258891968
 31
0.0
  0
LWPOLYLINE
  5
2D1
330
2
100
AcDbEntity
  8
0
100
AcDbPolyline
 90
        7
 70
   128
 43
0.0
 10
28.08580541378583
 20
12.73737426666031
 10
28.08576222961324
 20
12.73736185385034
 10
28.07823912063604
 20
12.73318330172184
 10
28.07206517042093
 20
12.72549969247455
 10
28.06747738334151
 20
12.71460669123169
 10
28.06465228743604
 20
12.70092248956155
 10
28.06369835174166
 20
12.68497315033098
  0
ARC
  5
2D2
330
2
100
AcDbEntity
  8
0
100
AcDbCircle
 10
27.94169412114598
 20
11.39089874205556
 30
0.0
 40
0.6395107803250351
100
AcDbArc
 50
9.722545797199682
 51
42.76137260430036
  0
ARC
  5
2D3
330
2
100
AcDbEntity
  8
0
100
AcDbCircle
 10
28.07519267604371
 20
15.57921437978178
 30
0.0
 40
0.0315237691404778
100
AcDbArc
 50
357.7657421884998
 51
111.3844477884979
  0
ARC
  5
2D4
330
2
100
AcDbEntity
  8
0
100
AcDbCircle
 10
30.85455304398495
 20
13.17158566523035
 30
0.0
 40
0.0322979681731986
100
AcDbArc
 50
357.752426936099
 51
47.59881152089883
  0
LWPOLYLINE
  5
2D5
330
2
100
AcDbEntity
  8
0
100
AcDbPolyline
 90
        7
 70
   128
 43
0.0
 10
9.250480010678279
 20
10.16332839003141
 10
9.250956978520509
 20
10.17130285943736
 10
9.252369480233644
 20
10.17814520051573
 10
9.254663420007926
 20
10.18359154097661
 10
9.257750395115595
 20
10.18743334560024
 10
9.261511949604082
 20
10.18952270174725
 10
9.261533495460756
 20
10.18952902827886
  0
LWPOLYLINE
  5
2D6
330
2
100
AcDbEntity
  8
0
100
AcDbPolyline
 90
        9
 70
   128
 43
0.0
 10
28.02070422313589
 20
15.59615655358147
 10
28.01586158468463
 20
15.59952426896282
 10
28.01120509129969
 20
15.60111054595497
 10
28.00691358281965
 20
15.60085404124762
 10
28.00315202833108
 20
15.59876468510062
 10
28.00006505322349
 20
15.59492288047696
 10
27.9977711134393
 20
15.58947654001606
 10
27.99635861172608
 20
15.58263419893773
 10
27.99588164388386
 20
15.57465972953178
  0
LINE
  5
2D7
330
2
100
AcDbEntity
  8
0
100
AcDbLine
 10
28.02070422313589
 20
15.59615655358147
 30
0.0
 11
28.06369835174166
 21
15.60856788945197
 31
0.0
  0
ARC
  5
2D8
330
2
100
AcDbEntity
  8
0
100
AcDbCircle
 10
28.92314512176091
 20
11.22326241591421
 30
0.0
 40
0.3210090120245158
100
AcDbArc
 50
57.13646885050154
 51
107.6021069081028
  0
LINE
  5
2D9
330
2
100
AcDbEntity
  8
0
100
AcDbLine
 10
29.09733742657164
 20
11.4928988873831
 30
0.0
 11
31.52995426216915
 21
9.386190910078877
 31
0.0
  0
LWPOLYLINE
  5
2DA
330
2
100
AcDbEntity
  8
0
100
AcDbPolyline
 90
        9
 70
   128
 43
0.0
 10
31.45726824970239
 20
9.25055746958046
 10
31.48891189482203
 20
9.261895116425247
 10
31.51552274302313
 20
9.276101392910227
 10
31.53607979677474
 20
9.292630530035522
 10
31.54979252534604
 20
9.310847394633682
 10
31.55613359078194
 20
9.330051671746032
 10
31.55485988961172
 20
9.349505507749547
 10
31.54602037828037
 20
9.368461502618103
 10
31.52995426216915
 20
9.386190910078877
  0
LINE
  5
2DB
330
2
100
AcDbEntity
  8
0
100
AcDbLine
 10
31.45726824970239
 20
9.25055746958046
 30
0.0
 11
30.78656138100918
 21
9.056941073981599
 31
0.0
  0
LINE
  5
2DC
330
2
100
AcDbEntity
  8
0
100
AcDbLine
 10
28.82607041018229
 20
11.52924164097683
 30
0.0
 11
28.15536354148909
 21
11.33562524538786
 31
0.0
  0
LWPOLYLINE
  5
2DD
330
2
100
AcDbEntity
  8
0
100
AcDbPolyline
 90
        9
 70
   128
 43
0.0
 10
29.7414205799501
 20
10.38900847622056
 10
29.68316670416656
 20
10.36346475784622
 10
29.64889692185348
 20
10.32871875612277
 10
29.64382900072704
 20
10.29006038549703
 10
29.66873519657786
 20
10.25337523067902
 10
29.71982265068251
 20
10.22424795410244
 10
29.78931487331316
 20
10.20711324300427
 10
29.86663160482425
 20
10.20457949318508
 10
29.94000156074784
 20
10.21703230214541
  0
LINE
  5
2DE
330
2
100
AcDbEntity
  8
0
100
AcDbLine
 10
29.94000156074784
 20
10.21703230214541
 30
0.0
 11
30.1119780751808
 21
10.26667764559773
 31
0.0
  0
LWPOLYLINE
  5
2DF
330
2
100
AcDbEntity
  8
0
100
AcDbPolyline
 90
        9
 70
   128
 43
0.0
 10
30.1119780751808
 20
10.26667764559773
 10
30.17023259162631
 20
10.29222154891053
 10
30.20450173328741
 20
10.32696736569552
 10
30.20956965440385
 20
10.36562573632125
 10
30.18466345855305
 20
10.40231089113923
 10
30.13357600444847
 20
10.43143816771586
 10
30.06408378181783
 20
10.44857287881403
 10
29.98676769096861
 20
10.45110681358158
 10
29.91339709438314
 20
10.43865381967288
  0
LINE
  5
2E0
330
2
100
AcDbEntity
  8
0
100
AcDbLine
 10
29.91339709438314
 20
10.43865381967288
 30
0.0
 11
29.7414205799501
 21
10.38900847622056
 31
0.0
  0
ARC
  5
2E1
330
2
100
AcDbEntity
  8
0
100
AcDbCircle
 10
28.92314512176091
 20
11.26625645943798
 30
0.0
 40
0.3210090120245636
100
AcDbArc
 50
57.13646885050154
 51
107.6021069081028
  0
LINE
  5
2E2
330
2
100
AcDbEntity
  8
0
100
AcDbLine
 10
28.82607041018229
 20
11.5722356845006
 30
0.0
 11
28.15536354148909
 21
11.37861928891161
 31
0.0
  0
LINE
  5
2E3
330
2
100
AcDbEntity
  8
0
100
AcDbLine
 10
31.52995426216915
 20
9.429184953592702
 30
0.0
 11
29.09733742657164
 21
11.53589293089692
 31
0.0
  0
ARC
  5
2E4
330
2
100
AcDbEntity
  8
0
100
AcDbCircle
 10
28.13927129673907
 20
11.37671951234848
 30
0.0
 40
0.0441327442911562
100
AcDbArc
 50
177.7643096007013
 51
291.3849844368012
  0
ARC
  5
2E5
330
2
100
AcDbEntity
  8
0
100
AcDbCircle
 10
28.15076590746443
 20
11.39036043942216
 30
0.0
 40
0.0126092368522823
100
AcDbArc
 50
177.763632320301
 51
291.3844626884988
  0
ARC
  5
2E6
330
2
100
AcDbEntity
  8
0
100
AcDbCircle
 10
30.77064829779875
 20
9.101421337578608
 30
0.0
 40
0.047241084522526
100
AcDbArc
 50
231.2219891423981
 51
289.6849767793979
  0
LINE
  5
2E7
330
2
100
AcDbEntity
  8
0
100
AcDbLine
 10
28.13816627444595
 20
11.39085247793176
 30
0.0
 11
28.13816627444595
 21
12.06155956685127
 31
0.0
  0
LWPOLYLINE
  5
2E8
330
2
100
AcDbEntity
  8
0
100
AcDbPolyline
 90
       13
 70
   128
 43
0.0
 10
28.52952643726015
 20
11.48663081820737
 10
28.5278432715497
 20
11.49665520306738
 10
28.50629122327369
 20
11.57997586740136
 10
28.47327160296808
 20
11.65656118107021
 10
28.43276706440034
 20
11.71717381143164
 10
28.38966306031759
 20
11.75450297397095
 10
28.34915852174992
 20
11.76404626234141
 10
28.31613890144416
 20
11.7446526086942
 10
28.29458694563744
 20
11.69866110688959
 10
28.28710202738535
 20
11.63161908160106
 10
28.29458694563744
 20
11.55161283763631
 10
28.31613890144416
 20
11.46829223335318
 10
28.33109237050756
 20
11.4293478839968
  0
LINE
  5
2E9
330
2
100
AcDbEntity
  8
0
100
AcDbLine
 10
28.09517214584016
 20
11.37844114207113
 30
0.0
 11
28.09517214584016
 21
12.10476058120373
 31
0.0
  0
LINE
  5
2EA
330
2
100
AcDbEntity
  8
0
100
AcDbLine
 10
9.310818072132969
 20
6.798548404497856
 30
0.0
 11
27.89295859889217
 21
12.1655982978253
 31
0.0
  0
LINE
  5
2EB
330
2
100
AcDbEntity
  8
0
100
AcDbLine
 10
27.96007888364616
 20
12.18498454219312
 30
0.0
 11
28.01246179795007
 21
12.20011421545235
 31
0.0
  0
ARC
  5
2EC
330
2
100
AcDbEntity
  8
0
100
AcDbCircle
 10
28.04017864025985
 20
12.26858551612205
 30
0.0
 40
0.0376472273107472
100
AcDbArc
 50
179.5141860577003
 51
222.5891435567015
  0
LINE
  5
2ED
330
2
100
AcDbEntity
  8
0
100
AcDbLine
 10
27.4617815122338
 20
13.45708371313901
 30
0.0
 11
27.4617815122338
 21
13.24211339043118
 31
0.0
  0
LINE
  5
2EE
330
2
100
AcDbEntity
  8
0
100
AcDbLine
 10
27.4617815122338
 20
13.24211339043118
 30
0.0
 11
27.76274009215317
 21
13.3289926489961
 31
0.0
  0
LINE
  5
2EF
330
2
100
AcDbEntity
  8
0
100
AcDbLine
 10
27.76274009215317
 20
13.3289926489961
 30
0.0
 11
27.76274009215317
 21
13.54396297170391
 31
0.0
  0
LINE
  5
2F0
330
2
100
AcDbEntity
  8
0
100
AcDbLine
 10
27.76274009215317
 20
12.72707612981926
 30
0.0
 11
27.76274009215317
 21
12.8990523239114
 31
0.0
  0
LINE
  5
2F1
330
2
100
AcDbEntity
  8
0
100
AcDbLine
 10
27.76274009215317
 20
12.8990523239114
 30
0.0
 11
27.4617815122338
 21
12.81217306534647
 31
0.0
  0
LINE
  5
2F2
330
2
100
AcDbEntity
  8
0
100
AcDbLine
 10
27.4617815122338
 20
12.81217306534647
 30
0.0
 11
27.4617815122338
 21
12.64019687124445
 31
0.0
  0
LINE
  5
2F3
330
2
100
AcDbEntity
  8
0
100
AcDbLine
 10
27.4617815122338
 20
12.64019687124445
 30
0.0
 11
27.76274009215317
 21
12.72707612981926
 31
0.0
  0
LINE
  5
2F4
330
2
100
AcDbEntity
  8
0
100
AcDbLine
 10
28.00253276625127
 20
12.26890472512429
 30
0.0
 11
27.99913752137918
 21
13.46946983005431
 31
0.0
  0
LINE
  5
2F5
330
2
100
AcDbEntity
  8
0
100
AcDbLine
 10
27.99899112559948
 20
13.57359363505104
 30
0.0
 11
27.99588164387945
 21
13.72591588320643
 31
0.0
  0
LINE
  5
2F6
330
2
100
AcDbEntity
  8
0
100
AcDbLine
 10
28.01246179795007
 20
12.20011421545235
 30
0.0
 11
28.05217801723438
 21
12.1657189606164
 31
0.0
  0
LINE
  5
2F7
330
2
100
AcDbEntity
  8
0
100
AcDbLine
 10
28.05217801723438
 20
12.1657189606164
 30
0.0
 11
28.06861610082402
 21
12.17046422660611
 31
0.0
  0
LINE
  5
2F8
330
2
100
AcDbEntity
  8
0
100
AcDbLine
 10
11.98096835214469
 20
4.488114785570369
 30
0.0
 11
12.020684571429
 21
4.453719530734399
 31
0.0
  0
LINE
  5
2F9
330
2
100
AcDbEntity
  8
0
100
AcDbLine
 10
11.98096835214469
 20
4.488114785570369
 30
0.0
 11
11.85501821551776
 21
4.451756112931665
 31
0.0
  0
LINE
  5
2FA
330
2
100
AcDbEntity
  8
0
100
AcDbLine
 10
28.05217801723438
 20
12.2087130091444
 30
0.0
 11
28.01246179795007
 21
12.24310826398037
 31
0.0
  0
LINE
  5
2FB
330
2
100
AcDbEntity
  8
0
100
AcDbLine
 10
28.05217801723438
 20
12.2087130091444
 30
0.0
 11
28.05217801723438
 21
12.1657189606164
 31
0.0
  0
LINE
  5
2FC
330
2
100
AcDbEntity
  8
0
100
AcDbLine
 10
28.05217801723438
 20
12.2087130091444
 30
0.0
 11
28.06369838589756
 21
12.21203865311152
 31
0.0
  0
ARC
  5
2FD
330
2
100
AcDbEntity
  8
0
100
AcDbCircle
 10
31.49058878240498
 20
9.376138093189712
 30
0.0
 40
0.0660576293585191
100
AcDbArc
 50
2.951652952599148
 51
53.42130466589942
  0
ARC
  5
2FE
330
2
100
AcDbEntity
  8
0
100
AcDbCircle
 10
12.03640438515302
 20
4.468229534859085
 30
0.0
 40
0.0213928203651924
100
AcDbArc
 50
222.7082226247961
 51
279.570991519398
  0
LINE
  5
2FF
330
2
100
AcDbEntity
  8
0
100
AcDbLine
 10
9.223820375997737
 20
6.773434332855989
 30
0.0
 11
9.312536568360393
 21
6.79904449162765
 31
0.0
  0
ARC
  5
300
330
2
100
AcDbEntity
  8
0
100
AcDbCircle
 10
9.219039283548305
 20
6.789477339513778
 30
0.0
 40
0.0167402779990817
100
AcDbArc
 50
266.2273906944015
 51
286.5949634005968
  0
LINE
  5
301
330
2
100
AcDbEntity
  8
0
100
AcDbLine
 10
11.83443121036424
 20
4.449443142477623
 30
0.0
 11
9.145371414683276
 21
6.77823723783187
 31
0.0
  0
ARC
  5
302
330
2
100
AcDbEntity
  8
0
100
AcDbCircle
 10
11.83828740478062
 20
4.507896034700753
 30
0.0
 40
0.0585799525855169
100
AcDbArc
 50
266.2256106960968
 51
286.5951008251005
  0
LINE
  5
303
330
2
100
AcDbEntity
  8
0
100
AcDbLine
 10
7.190010827605513
 20
6.925466459740321
 30
0.0
 11
9.217937825386451
 21
6.772773337078683
 31
0.0
  0
LINE
  5
304
330
2
100
AcDbEntity
  8
0
100
AcDbLine
 10
9.185217944420266
 20
4.648916046878442
 30
0.0
 11
11.83443121036424
 21
4.449443142477623
 31
0.0
  0
LINE
  5
305
330
2
100
AcDbEntity
  8
0
100
AcDbLine
 10
6.533345935687448
 20
6.828581247439486
 30
0.0
 11
6.534599068883143
 21
6.832385428316565
 31
0.0
  0
LINE
  5
306
330
2
100
AcDbEntity
  8
0
100
AcDbLine
 10
7.367445355923034
 20
6.750048071331658
 30
0.0
 11
6.900006173173866
 21
5.330833538856943
 31
0.0
  0
ARC
  5
307
330
2
100
AcDbEntity
  8
0
100
AcDbCircle
 10
6.780899530258818
 20
5.370471753460552
 30
0.0
 40
0.1255292015621439
100
AcDbArc
 50
287.7671609107019
 51
341.5927637648004
  0
LINE
  5
308
330
2
100
AcDbEntity
  8
0
100
AcDbLine
 10
6.81920470857167
 20
5.250929736748646
 30
0.0
 11
6.048687959181672
 21
5.028500710413106
 31
0.0
  0
LINE
  5
309
330
2
100
AcDbEntity
  8
0
100
AcDbLine
 10
7.14396154551979
 20
5.669442157166893
 30
0.0
 11
7.088083080680264
 21
5.499787001347453
 31
0.0
  0
ARC
  5
30A
330
2
100
AcDbEntity
  8
0
100
AcDbCircle
 10
7.125147112403058
 20
5.485149046965345
 30
0.0
 40
0.0398498702145503
100
AcDbArc
 50
158.4491067602004
 51
218.9439832005041
  0
LINE
  5
30B
330
2
100
AcDbEntity
  8
0
100
AcDbLine
 10
7.094153442978538
 20
5.460101000894076
 30
0.0
 11
7.362237761271768
 21
5.22793317089985
 31
0.0
  0
LWPOLYLINE
  5
30C
330
2
100
AcDbEntity
  8
0
100
AcDbPolyline
 90
        9
 70
   128
 43
0.0
 10
7.362237761271768
 20
5.22793317089985
 10
7.365313769457278
 20
5.22593188969305
 10
7.368609980805365
 20
5.225036691509576
 10
7.371999816121101
 20
5.225282069387553
 10
7.375353556068804
 20
5.226658765670734
 10
7.3785434600924
 20
5.229114262017015
 10
7.381444532739934
 20
5.232553401066033
 10
7.383947548400575
 20
5.236844628871721
 10
7.385954540319445
 20
5.241822750243164
  0
LINE
  5
30D
330
2
100
AcDbEntity
  8
0
100
AcDbLine
 10
7.385954540319445
 20
5.241822750243164
 30
0.0
 11
7.44183300515897
 21
5.4114779060527
 31
0.0
  0
ARC
  5
30E
330
2
100
AcDbEntity
  8
0
100
AcDbCircle
 10
7.318298217763403
 20
5.460272335930669
 30
0.0
 40
0.1328222123139132
100
AcDbArc
 50
338.4467067232989
 51
38.94685972650222
  0
LINE
  5
30F
330
2
100
AcDbEntity
  8
0
100
AcDbLine
 10
7.421597944584344
 20
5.543764290769424
 30
0.0
 11
7.223016986901471
 21
5.715740444827618
 31
0.0
  0
LWPOLYLINE
  5
310
330
2
100
AcDbEntity
  8
0
100
AcDbPolyline
 90
        9
 70
   128
 43
0.0
 10
7.223016986901471
 20
5.715740444827618
 10
7.212766600632341
 20
5.72241257891854
 10
7.20177878693445
 20
5.725396356132166
 10
7.190478131633912
 20
5.724577993255572
 10
7.179298175098772
 20
5.719988732377715
 10
7.168667693501452
 20
5.711804511006549
 10
7.158995712071622
 20
5.70034024768339
 10
7.150653196168477
 20
5.686036201386221
 10
7.14396154551979
 20
5.669442157166893
  0
LINE
  5
311
330
2
100
AcDbEntity
  8
0
100
AcDbLine
 10
9.163175357159293
 20
4.632274292826125
 30
0.0
 11
9.080828617868903
 21
4.382256237308133
 31
0.0
  0
LINE
  5
312
330
2
100
AcDbEntity
  8
0
100
AcDbLine
 10
9.120544837153213
 20
4.347860982472164
 30
0.0
 11
9.080828617868903
 21
4.382256237308133
 31
0.0
  0
LINE
  5
313
330
2
100
AcDbEntity
  8
0
100
AcDbLine
 10
9.120544837153213
 20
4.347860982472164
 30
0.0
 11
8.958044982339337
 21
3.854485616253021
 31
0.0
  0
LWPOLYLINE
  5
314
330
2
100
AcDbEntity
  8
0
100
AcDbPolyline
 90
        9
 70
   128
 43
0.0
 10
8.905477165863139
 20
3.811116646146109
 10
8.909873133802218
 20
3.82236715338689
 10
8.915226424770329
 20
3.8323814950937
 10
8.921392630128991
 20
3.840888520646553
 10
8.928202162423763
 20
3.847657139710869
 10
8.93547263287637
 20
3.852504566912473
 10
8.943004941395015
 20
3.855299036985375
 10
8.950598414957884
 20
3.855965616422734
 10
8.958044982339337
 20
3.854485616253021
  0
LINE
  5
315
330
2
100
AcDbEntity
  8
0
100
AcDbLine
 10
8.905477165863139
 20
3.811116646146109
 30
0.0
 11
8.834892965157447
 21
3.596815097254952
 31
0.0
  0
ARC
  5
316
330
2
100
AcDbEntity
  8
0
100
AcDbCircle
 10
8.946788004863815
 20
3.557331603599626
 30
0.0
 40
0.1186568421265723
100
AcDbArc
 50
160.5640055550006
 51
207.8755931541983
  0
LINE
  5
317
330
2
100
AcDbEntity
  8
0
100
AcDbLine
 10
8.841899523832523
 20
3.501853204850236
 30
0.0
 11
8.61050296976086
 21
2.799298032217396
 31
0.0
  0
LINE
  5
318
330
2
100
AcDbEntity
  8
0
100
AcDbLine
 10
8.61050296976086
 20
2.799298032217396
 30
0.0
 11
8.570786750486458
 21
2.833693287053365
 31
0.0
  0
LINE
  5
319
330
2
100
AcDbEntity
  8
0
100
AcDbLine
 10
8.570786750486458
 20
2.833693287053365
 30
0.0
 11
8.516087102138287
 21
2.667613812563088
 31
0.0
  0
LINE
  5
31A
330
2
100
AcDbEntity
  8
0
100
AcDbLine
 10
5.929937254595817
 20
5.083074689301557
 30
0.0
 11
5.884889262628171
 21
4.946297983969353
 31
0.0
  0
LINE
  5
31B
330
2
100
AcDbEntity
  8
0
100
AcDbLine
 10
7.171263866196485
 20
4.589989576540594
 30
0.0
 11
7.22714233103601
 21
4.759644772393959
 31
0.0
  0
ARC
  5
31C
330
2
100
AcDbEntity
  8
0
100
AcDbCircle
 10
7.190082336593472
 20
4.77428328294178
 30
0.0
 40
0.0398463195222456
100
AcDbArc
 50
338.4462305090001
 51
38.94700718389631
  0
LINE
  5
31D
330
2
100
AcDbEntity
  8
0
100
AcDbLine
 10
7.221071922505023
 20
4.799330732802014
 30
0.0
 11
6.95298760420495
 21
5.031498562807685
 31
0.0
  0
LWPOLYLINE
  5
31E
330
2
100
AcDbEntity
  8
0
100
AcDbPolyline
 90
        9
 70
   128
 43
0.0
 10
6.95298760420495
 20
5.031498562807685
 10
6.94991287734329
 20
5.033500293979062
 10
6.946616665995282
 20
5.034395492162536
 10
6.94322687691903
 20
5.034150074240695
 10
6.939871832532692
 20
5.032773028097548
 10
6.936683209833025
 20
5.030317901628226
 10
6.933780855851652
 20
5.02687839269237
 10
6.931279121514856
 20
5.022587454695745
 10
6.929270871406745
 20
5.017609023498247
  0
LINE
  5
31F
330
2
100
AcDbEntity
  8
0
100
AcDbLine
 10
6.929270871406745
 20
5.017609023498247
 30
0.0
 11
6.87339240655731
 21
4.847953827644883
 31
0.0
  0
ARC
  5
320
330
2
100
AcDbEntity
  8
0
100
AcDbCircle
 10
6.996925894895793
 20
4.799160407779531
 30
0.0
 40
0.1328206330443999
100
AcDbArc
 50
158.4469060871004
 51
218.9477876243997
  0
LINE
  5
321
330
2
100
AcDbEntity
  8
0
100
AcDbLine
 10
6.893628748455787
 20
4.715667772781086
 30
0.0
 11
7.09220970613866
 21
4.543691618722843
 31
0.0
  0
LWPOLYLINE
  5
322
330
2
100
AcDbEntity
  8
0
100
AcDbPolyline
 90
        9
 70
   128
 43
0.0
 10
7.09220970613866
 20
4.543691618722843
 10
7.102460069283096
 20
4.537019624770564
 10
7.113446578542268
 20
4.534035457653109
 10
7.124747280082447
 20
4.534853780485839
 10
7.135927236617586
 20
4.53944308140756
 10
7.146558976423895
 20
4.547627572560917
 10
7.156230980968665
 20
4.559091855901031
 10
7.16457216930832
 20
4.573395612399055
 10
7.171263866196485
 20
4.589989576540594
  0
ARC
  5
323
330
2
100
AcDbEntity
  8
0
100
AcDbCircle
 10
7.161879005685314
 20
6.67176963752512
 30
0.0
 40
0.2552370984514026
100
AcDbArc
 50
53.5377786692972
 51
85.22706836750108
  0
LINE
  5
324
330
2
100
AcDbEntity
  8
0
100
AcDbLine
 10
6.490835179656683
 20
6.893237529953593
 30
0.0
 11
6.53055130646179
 21
6.858842355195399
 31
0.0
  0
ARC
  5
325
330
2
100
AcDbEntity
  8
0
100
AcDbCircle
 10
6.025955269197063
 20
5.092050440805987
 30
0.0
 40
0.0674932843136772
100
AcDbArc
 50
231.2247871519014
 51
289.6828904016964
  0
LINE
  5
326
330
2
100
AcDbEntity
  8
0
100
AcDbLine
 10
6.536697129151851
 20
6.974793795486124
 30
0.0
 11
7.183116533932344
 21
6.926121645227058
 31
0.0
  0
LINE
  5
327
330
2
100
AcDbEntity
  8
0
100
AcDbLine
 10
7.35328065764668
 20
6.842648615760519
 30
0.0
 11
7.313564530841496
 21
6.877043790508797
 31
0.0
  0
ARC
  5
328
330
2
100
AcDbEntity
  8
0
100
AcDbCircle
 10
7.280969602294816
 20
6.784203883418157
 30
0.0
 40
0.0929767468969337
100
AcDbArc
 50
338.4471897567049
 51
38.94655127820071
  0
ARC
  5
329
330
2
100
AcDbEntity
  8
0
100
AcDbCircle
 10
6.509892622642773
 20
6.842143585676695
 30
0.0
 40
0.0265636993036712
100
AcDbArc
 50
338.4477632986965
 51
38.94920519329672
  0
ARC
  5
32A
330
2
100
AcDbEntity
  8
0
100
AcDbCircle
 10
5.801509996453716
 20
4.974049483454408
 30
0.0
 40
0.0878763207656391
100
AcDbArc
 50
287.7679525381048
 51
341.5907760378009
  0
ARC
  5
32B
330
2
100
AcDbEntity
  8
0
100
AcDbCircle
 10
8.432707835963904
 20
2.695365312048094
 30
0.0
 40
0.0878763207655645
100
AcDbArc
 50
287.7679525381048
 51
341.5907760379009
  0
LINE
  5
32C
330
2
100
AcDbEntity
  8
0
100
AcDbLine
 10
8.459524411201677
 20
2.611680671620461
 30
0.0
 11
5.828326571681656
 21
4.890364843026775
 31
0.0
  0
ARC
  5
32D
330
2
100
AcDbEntity
  8
0
100
AcDbCircle
 10
7.68658737289855
 20
2.722550545055029
 30
0.0
 40
0.3210045128663888
100
AcDbArc
 50
237.1360984817999
 51
287.6022525421926
  0
LINE
  5
32E
330
2
100
AcDbEntity
  8
0
100
AcDbLine
 10
7.512395766566553
 20
2.452918978714867
 30
0.0
 11
5.079778930969045
 21
4.559626956029003
 31
0.0
  0
LWPOLYLINE
  5
32F
330
2
100
AcDbEntity
  8
0
100
AcDbPolyline
 90
        9
 70
   128
 43
0.0
 10
5.152463662111943
 20
4.695260026640569
 10
5.120821298326066
 20
4.683922749672728
 10
5.094210450115062
 20
4.669716473187749
 10
5.073652755711473
 20
4.653187151123987
 10
5.059940027130185
 20
4.634970286525826
 10
5.053599602356261
 20
4.615766194351895
 10
5.054872022202548
 20
4.596311988461579
 10
5.063712814857741
 20
4.577356363479861
 10
5.079778930969045
 20
4.559626956029003
  0
LINE
  5
330
330
2
100
AcDbEntity
  8
0
100
AcDbLine
 10
5.152463662111943
 20
4.695260026640569
 30
0.0
 11
5.828326571681656
 21
4.890364843026775
 31
0.0
  0
LINE
  5
331
330
2
100
AcDbEntity
  8
0
100
AcDbLine
 10
8.459524411201677
 20
2.611680671620461
 30
0.0
 11
7.783661501632042
 21
2.416575855234292
 31
0.0
  0
LWPOLYLINE
  5
332
330
2
100
AcDbEntity
  8
0
100
AcDbPolyline
 90
        9
 70
   128
 43
0.0
 10
6.669730351066504
 20
3.728785194065712
 10
6.74310094766196
 20
3.741238187974424
 10
6.820418319825038
 20
3.738704623093707
 10
6.889909261131825
 20
3.721569542108651
 10
6.940997355898371
 20
3.69244245048044
 10
6.965902911087296
 20
3.655757110723992
 10
6.960836271294621
 20
3.617099109975199
 10
6.926565848309749
 20
3.582352923303325
 10
6.86831133186424
 20
3.556809019990562
  0
LINE
  5
333
330
2
100
AcDbEntity
  8
0
100
AcDbLine
 10
6.497755117957311
 20
3.679140220510144
 30
0.0
 11
6.669730351066504
 21
3.728785194065712
 31
0.0
  0
LWPOLYLINE
  5
334
330
2
100
AcDbEntity
  8
0
100
AcDbPolyline
 90
        9
 70
   128
 43
0.0
 10
6.696336098755052
 20
3.507164046425042
 10
6.622965502169578
 20
3.49471105252633
 10
6.545648130006428
 20
3.497244617406976
 10
6.476157188689731
 20
3.514379698392018
 10
6.425069093933089
 20
3.543506790020229
 10
6.400163538734338
 20
3.580192129776714
 10
6.405230178536918
 20
3.618850130525555
 10
6.439500601511808
 20
3.65359631718743
 10
6.497755117957311
 20
3.679140220510144
  0
LINE
  5
335
330
2
100
AcDbEntity
  8
0
100
AcDbLine
 10
6.86831133186424
 20
3.556809019990562
 30
0.0
 11
6.696336098755052
 21
3.507164046425042
 31
0.0
  0
LWPOLYLINE
  5
336
330
2
100
AcDbEntity
  8
0
100
AcDbPolyline
 90
        6
 70
   128
 43
0.0
 10
6.492036070517911
 20
6.962861128929362
 10
6.494102363570227
 20
6.966503319424381
 10
6.500172729105326
 20
6.970928147582823
 10
6.509555291369435
 20
6.973849466275295
 10
6.5218881456273
 20
6.975154847752958
 10
6.536697129151851
 20
6.974793795486124
  0
ARC
  5
337
330
2
100
AcDbEntity
  8
0
100
AcDbCircle
 10
9.185633911881669
 20
4.625446116151199
 30
0.0
 40
0.0234736166200358
100
AcDbArc
 50
91.01537091239954
 51
163.0889158813009
  0
LINE
  5
338
330
2
100
AcDbEntity
  8
0
100
AcDbLine
 10
7.223016986901471
 20
5.715740444827618
 30
0.0
 11
7.182615613938486
 21
5.71878250808827
 31
0.0
  0
LINE
  5
339
330
2
100
AcDbEntity
  8
0
100
AcDbLine
 10
7.182615613938486
 20
5.71878250808827
 30
0.0
 11
7.180381022599507
 21
5.720603929137641
 31
0.0
  0
ARC
  5
33A
330
2
100
AcDbEntity
  8
0
100
AcDbCircle
 10
8.86558032697833
 20
3.583646059801732
 30
0.0
 40
0.0938912301670707
100
AcDbArc
 50
271.0145916048997
 51
343.0899246265995
  0
LINE
  5
33B
330
2
100
AcDbEntity
  8
0
100
AcDbLine
 10
9.025994849749716
 20
3.770637135155277
 30
0.0
 11
8.955411930357893
 21
3.556335876063219
 31
0.0
  0
ARC
  5
33C
330
2
100
AcDbEntity
  8
0
100
AcDbCircle
 10
8.9783953049792
 20
3.794216128359094
 30
0.0
 40
0.0531195404990794
100
AcDbArc
 50
333.6479453033988
 51
82.98683627680162
  0
LINE
  5
33D
330
2
100
AcDbEntity
  8
0
100
AcDbLine
 10
9.146633905511688
 20
4.338045279593284
 30
0.0
 11
9.251676706427183
 21
4.330135949452286
 31
0.0
  0
LINE
  5
33E
330
2
100
AcDbEntity
  8
0
100
AcDbLine
 10
9.289910082080632
 20
4.446216095561348
 30
0.0
 11
9.251676706427183
 21
4.330135949452286
 31
0.0
  0
ARC
  5
33F
330
2
100
AcDbEntity
  8
0
100
AcDbCircle
 10
9.163473776243105
 20
3.395911774649382
 30
0.0
 40
0.0199195822558368
100
AcDbArc
 50
153.6475781335
 51
262.9889434904018
  0
LINE
  5
340
330
2
100
AcDbEntity
  8
0
100
AcDbLine
 10
9.314566566808254
 20
3.364581410890066
 30
0.0
 11
9.161042374599865
 21
3.376141138768399
 31
0.0
  0
ARC
  5
341
330
2
100
AcDbEntity
  8
0
100
AcDbCircle
 10
9.312489331537294
 20
3.481926172057161
 30
0.0
 40
0.1173631453188284
100
AcDbArc
 50
271.0141431408977
 51
343.0903272024994
  0
LINE
  5
342
330
2
100
AcDbEntity
  8
0
100
AcDbLine
 10
9.542417702119097
 20
3.804958585923565
 30
0.0
 11
9.424778221818858
 21
3.447789490923879
 31
0.0
  0
ARC
  5
343
330
2
100
AcDbEntity
  8
0
100
AcDbCircle
 10
9.48291650550556
 20
3.834431243402143
 30
0.0
 40
0.0664005266339217
100
AcDbArc
 50
333.6494597713012
 51
82.98569660479776
  0
LINE
  5
344
330
2
100
AcDbEntity
  8
0
100
AcDbLine
 10
9.337499673059459
 20
3.911894206405807
 30
0.0
 11
9.491025146591621
 21
3.900334808380363
 31
0.0
  0
ARC
  5
345
330
2
100
AcDbEntity
  8
0
100
AcDbCircle
 10
9.338123029868951
 20
3.876690853442968
 30
0.0
 40
0.035208871516641
100
AcDbArc
 50
91.01444831259879
 51
163.0903211841985
  0
LINE
  5
346
330
2
100
AcDbEntity
  8
0
100
AcDbLine
 10
9.145624223544682
 20
3.404753902544522
 30
0.0
 11
9.304436432824967
 21
3.886931840358466
 31
0.0
  0
LINE
  5
347
330
2
100
AcDbEntity
  8
0
100
AcDbLine
 10
9.655317186381342
 20
2.944664206091774
 30
0.0
 11
10.12275636912052
 21
4.36387873857644
 31
0.0
  0
ARC
  5
348
330
2
100
AcDbEntity
  8
0
100
AcDbCircle
 10
9.536210543456308
 20
2.984302420695383
 30
0.0
 40
0.1255292015621328
100
AcDbArc
 50
287.7671609107019
 51
341.5927637648004
  0
LINE
  5
349
330
2
100
AcDbEntity
  8
0
100
AcDbLine
 10
9.574515721769238
 20
2.864760403993428
 30
0.0
 11
9.468159637910568
 21
2.834058047169491
 31
0.0
  0
SPLINE
  5
34A
330
2
100
AcDbEntity
  8
0
100
AcDbSpline
210
0.0
220
0.0
230
1.0
 70
     8
 71
     3
 72
    11
 73
     7
 74
     0
 42
0.000000001
 43
0.0000000001
 40
0.0
 40
0.0
 40
0.0
 40
0.0
 40
0.2500008980131977
 40
0.4999945491153201
 40
0.7499934820642217
 40
1.0
 40
1.0
 40
1.0
 40
1.0
 10
8.841899523828354
 20
3.501853204846814
 30
0.0
 10
8.843381639538693
 20
3.500519269276946
 30
0.0
 10
8.846345827996357
 20
3.497851436804737
 30
0.0
 10
8.853177556229043
 20
3.494160208615302
 30
0.0
 10
8.860628868378871
 20
3.491202539444499
 30
0.0
 10
8.865038175574676
 20
3.490247218033756
 30
0.0
 10
8.867242862616762
 20
3.489769550082349
 30
0.0
  0
ARC
  5
34B
330
2
100
AcDbEntity
  8
0
100
AcDbCircle
 10
9.336427881514541
 20
4.438775459396349
 30
0.0
 40
0.0471091151571922
100
AcDbArc
 50
97.99005346269856
 51
170.9123793011013
  0
LWPOLYLINE
  5
34C
330
2
100
AcDbEntity
  8
0
100
AcDbPolyline
 90
        9
 70
   128
 43
0.0
 10
10.13856667010675
 20
4.373138238236715
 10
10.13651682137591
 20
4.374472698998339
 10
10.13431974343206
 20
4.375069594387028
 10
10.13205991486441
 20
4.374905955743238
 10
10.1298236765445
 20
4.373988021587502
 10
10.12769701220603
 20
4.372351077405177
 10
10.12576342170206
 20
4.370058414635566
 10
10.12409392121202
 20
4.367197269432775
 10
10.12275636912052
 20
4.36387873857644
  0
LINE
  5
34D
330
2
100
AcDbEntity
  8
0
100
AcDbLine
 10
10.13856667010675
 20
4.373138238236715
 30
0.0
 11
10.17828279691186
 21
4.338743063488437
 31
0.0
  0
LINE
  5
34E
330
2
100
AcDbEntity
  8
0
100
AcDbLine
 10
10.15327240597292
 20
4.417784631318347
 30
0.0
 11
10.19298853277811
 21
4.383389456570106
 31
0.0
  0
LWPOLYLINE
  5
34F
330
2
100
AcDbEntity
  8
0
100
AcDbPolyline
 90
        9
 70
   128
 43
0.0
 10
10.14712658329277
 20
4.301833191037574
 10
10.16193556681732
 20
4.301472138770727
 10
10.17426842107518
 20
4.302777520238451
 10
10.18365098333929
 20
4.305698838940863
 10
10.18972134887439
 20
4.310123667099269
 10
10.19224636925283
 20
4.315881981215153
 10
10.19113089856226
 20
4.322753102315954
 10
10.18641648500594
 20
4.330472418884262
 10
10.17828279691186
 20
4.338743063488437
  0
LINE
  5
350
330
2
100
AcDbEntity
  8
0
100
AcDbLine
 10
10.1034053042804
 20
4.305125327047329
 30
0.0
 11
10.14712658329277
 21
4.301833191037574
 31
0.0
  0
LWPOLYLINE
  5
351
330
2
100
AcDbEntity
  8
0
100
AcDbPolyline
 90
        5
 70
   128
 43
0.0
 10
10.19298853277811
 20
4.383389456570106
 10
10.20112093954825
 20
4.375118442079058
 10
10.20583535310466
 20
4.367399125510736
 10
10.206952105119
 20
4.360528374296785
 10
10.20649209645911
 20
4.358411880779216
  0
ARC
  5
352
330
2
100
AcDbEntity
  8
0
100
AcDbCircle
 10
9.150883151909965
 20
4.388918114811001
 30
0.0
 40
0.0510499897998485
100
AcDbArc
 50
233.5382219833971
 51
265.2253486921031
  0
SPLINE
  5
353
330
2
100
AcDbEntity
  8
0
100
AcDbSpline
210
0.0
220
0.0
230
1.0
 70
     8
 71
     3
 72
    11
 73
     7
 74
     0
 42
0.000000001
 43
0.0000000001
 40
0.0
 40
0.0
 40
0.0
 40
0.0
 40
0.2499849550576336
 40
0.5000043246191953
 40
0.7500107420831888
 40
1.0
 40
1.0
 40
1.0
 40
1.0
 10
8.984881061590243
 20
3.846938235147009
 30
0.0
 10
8.98255206519266
 20
3.847037959947222
 30
0.0
 10
8.977893751773299
 20
3.847237423276324
 30
0.0
 10
8.970069034778999
 20
3.849060728578625
 30
0.0
 10
8.962862511843859
 20
3.851617051977333
 30
0.0
 10
8.959650788766444
 20
3.853529450041227
 30
0.0
 10
8.958044982339963
 20
3.854485616257033
 30
0.0
  0
LINE
  5
354
330
2
100
AcDbEntity
  8
0
100
AcDbLine
 10
3.933861396859175
 20
6.435258771339785
 30
0.0
 11
3.920596695673985
 21
6.436444410427836
 31
0.0
  0
LINE
  5
355
330
2
100
AcDbEntity
  8
0
100
AcDbLine
 10
6.0634313444511
 20
6.057191355122572
 30
0.0
 11
5.655960293410165
 21
6.41007163663419
 31
0.0
  0
ARC
  5
356
330
2
100
AcDbEntity
  8
0
100
AcDbCircle
 10
4.870405041442904
 20
3.690650349822122
 30
0.0
 40
0.0242034906963024
100
AcDbArc
 50
331.1040592006979
 51
32.48287448140534
  0
ELLIPSE
  5
357
330
2
100
AcDbEntity
  8
0
100
AcDbEllipse
 10
4.886990081236529
 20
3.627638525307753
 30
0.0
 11
0.0585666491007395
 21
0.0934421902231203
 31
0.0
210
0.0
220
0.0
230
1.0
 40
0.2945542466
 41
6.237537654344557
 42
6.941786914968744
  0
ELLIPSE
  5
358
330
2
100
AcDbEntity
  8
0
100
AcDbEllipse
 10
4.87778588586039
 20
3.620689516182653
 30
0.0
 11
0.1004288815902411
 21
0.0215266624011618
 31
0.0
210
0.0
220
0.0
230
1.0
 40
0.2601647544
 41
2.693902237372129
 42
3.335243632973141
  0
LINE
  5
359
330
2
100
AcDbEntity
  8
0
100
AcDbLine
 10
6.596615196095042
 20
7.33946224823551
 30
0.0
 11
6.430890253098013
 21
6.836295695825106
 31
0.0
  0
LINE
  5
35A
330
2
100
AcDbEntity
  8
0
100
AcDbLine
 10
3.885532940856228
 20
7.544312387743462
 30
0.0
 11
4.679136384519805
 21
6.857031644997952
 31
0.0
  0
LINE
  5
35B
330
2
100
AcDbEntity
  8
0
100
AcDbLine
 10
8.711486246731015
 20
5.471571112943167
 30
0.0
 11
8.718847912079143
 21
5.465195723739595
 31
0.0
  0
LINE
  5
35C
330
2
100
AcDbEntity
  8
0
100
AcDbLine
 10
9.163175357159293
 20
4.632274292826125
 30
0.0
 11
7.223262561563251
 21
6.312288054940879
 31
0.0
  0
LINE
  5
35D
330
2
100
AcDbEntity
  8
0
100
AcDbLine
 10
25.04474756919156
 20
12.20792602588008
 30
0.0
 11
25.08317005197107
 21
12.18532724716044
 31
0.0
  0
LINE
  5
35E
330
2
100
AcDbEntity
  8
0
100
AcDbLine
 10
4.091878362747834
 20
7.686636622857458
 30
0.0
 11
4.128682542759638
 21
7.710499909881883
 31
0.0
  0
LINE
  5
35F
330
2
100
AcDbEntity
  8
0
100
AcDbLine
 10
5.230503389288898
 20
7.600390698485228
 30
0.0
 11
5.238404744745674
 21
7.580773024661238
 31
0.0
  0
ARC
  5
360
330
2
100
AcDbEntity
  8
0
100
AcDbCircle
 10
6.507180719961258
 20
6.918214896013195
 30
0.0
 40
0.0298503853095123
100
AcDbArc
 50
180.0
 51
236.7986991297114
  0
LINE
  5
361
330
2
100
AcDbEntity
  8
0
100
AcDbLine
 10
27.76274009215317
 20
13.54396297170391
 30
0.0
 11
27.4617815122338
 21
13.45708371313901
 31
0.0
  0
ARC
  5
362
330
2
100
AcDbEntity
  8
0
100
AcDbCircle
 10
10.13790327383298
 20
4.403823332599885
 30
0.0
 40
0.0207636240729309
100
AcDbArc
 50
42.25196494832544
 51
90.0
  0
ARC
  5
363
330
2
100
AcDbEntity
  8
0
100
AcDbCircle
 10
8.461388318276556
 20
5.881074953874751
 30
0.0
 40
0.0308529456804092
100
AcDbArc
 50
306.737845675434
 51
0.0
  0
ARC
  5
364
330
2
100
AcDbEntity
  8
0
100
AcDbCircle
 10
8.239699947886739
 20
5.772106394188357
 30
0.0
 40
0.4664721026435376
100
AcDbArc
 50
37.87897658188887
 51
60.33423412112894
  0
LINE
  5
365
330
2
100
AcDbEntity
  8
0
100
AcDbLine
 10
7.904350610889576
 20
6.246738001573865
 30
0.0
 11
7.972114864030547
 21
6.277727035631997
 31
0.0
  0
SPLINE
  5
366
330
2
100
AcDbEntity
  8
0
100
AcDbSpline
210
0.0
220
0.0
230
1.0
 70
     8
 71
     3
 72
    10
 73
     6
 74
     0
 42
0.000000001
 43
0.0000000001
 40
0.0
 40
0.0
 40
0.0
 40
0.0
 40
0.223414656091903
 40
0.6496074072459033
 40
1.0
 40
1.0
 40
1.0
 40
1.0
 10
8.00605805214532
 20
6.33078695441768
 30
0.0
 10
8.010969003215414
 20
6.341327779014651
 30
0.0
 10
8.025248237387458
 20
6.37197660866828
 30
0.0
 10
8.063079247971286
 20
6.407269475062697
 30
0.0
 10
8.089518929911106
 20
6.422361669325021
 30
0.0
 10
8.10144842198709
 20
6.429171214624078
 30
0.0
  0
LINE
  5
367
330
2
100
AcDbEntity
  8
0
100
AcDbLine
 10
7.995788846644861
 20
6.311015359037233
 30
0.0
 11
8.006058052144766
 21
6.330786954421776
 31
0.0
  0
SPLINE
  5
368
330
2
100
AcDbEntity
  8
0
100
AcDbSpline
210
0.0
220
0.0
230
1.0
 70
     8
 71
     3
 72
     9
 73
     5
 74
     0
 42
0.000000001
 43
0.0000000001
 40
0.0
 40
0.0
 40
0.0
 40
0.0
 40
0.3637854744933605
 40
1.0
 40
1.0
 40
1.0
 40
1.0
 10
7.685649089885739
 20
6.542025069673352
 30
0.0
 10
7.684107959194192
 20
6.550342155681403
 30
0.0
 10
7.679871586937434
 20
6.573204767278696
 30
0.0
 10
7.67472928186015
 20
6.595403119512121
 30
0.0
 10
7.671457672675492
 20
6.60952603364537
 30
0.0
  0
SPLINE
  5
369
330
2
100
AcDbEntity
  8
0
100
AcDbSpline
210
0.0
220
0.0
230
1.0
 70
     8
 71
     3
 72
     9
 73
     5
 74
     0
 42
0.000000001
 43
0.0000000001
 40
0.0
 40
0.0
 40
0.0
 40
0.0
 40
0.4931078804754943
 40
1.0
 40
1.0
 40
1.0
 40
1.0
 10
7.960377400983713
 20
6.521339432315867
 30
0.0
 10
7.952521050767754
 20
6.507628553063797
 30
0.0
 10
7.936588735493597
 20
6.47982352338366
 30
0.0
 10
7.927747880784946
 20
6.448681554105716
 30
0.0
 10
7.923266521203317
 20
6.43289593529228
 30
0.0
  0
SPLINE
  5
36A
330
2
100
AcDbEntity
  8
0
100
AcDbSpline
210
0.0
220
0.0
230
1.0
 70
     8
 71
     3
 72
     9
 73
     5
 74
     0
 42
0.000000001
 43
0.0000000001
 40
0.0
 40
0.0
 40
0.0
 40
0.0
 40
0.3964137364449641
 40
1.0
 40
1.0
 40
1.0
 40
1.0
 10
7.923266521203317
 20
6.43289593529228
 30
0.0
 10
7.916984324815092
 20
6.425560351613883
 30
0.0
 10
7.90113674989367
 20
6.407055484087917
 30
0.0
 10
7.883829374123985
 20
6.391156441947797
 30
0.0
 10
7.873382879851172
 20
6.381559998508348
 30
0.0
  0
LINE
  5
36B
330
2
100
AcDbEntity
  8
0
100
AcDbLine
 10
7.684355809780337
 20
6.395792623116731
 30
0.0
 11
7.693950834520737
 21
6.450162491133768
 31
0.0
  0
SPLINE
  5
36C
330
2
100
AcDbEntity
  8
0
100
AcDbSpline
210
0.0
220
0.0
230
1.0
 70
     8
 71
     3
 72
     9
 73
     5
 74
     0
 42
0.000000001
 43
0.0000000001
 40
0.0
 40
0.0
 40
0.0
 40
0.0
 40
0.3822979274184181
 40
1.0
 40
1.0
 40
1.0
 40
1.0
 10
7.693950834525532
 20
6.450162491137623
 30
0.0
 10
7.694534143324541
 20
6.462273235529847
 30
0.0
 10
7.696059939718301
 20
6.493952048109356
 30
0.0
 10
7.689624360504396
 20
6.523668905359397
 30
0.0
 10
7.685649089885739
 20
6.542025069673352
 30
0.0
  0
LINE
  5
36D
330
2
100
AcDbEntity
  8
0
100
AcDbLine
 10
7.671457672675492
 20
6.609526033645996
 30
0.0
 11
7.674647148647884
 21
6.640019033725558
 31
0.0
  0
ARC
  5
36E
330
2
100
AcDbEntity
  8
0
100
AcDbCircle
 10
7.787739834988277
 20
6.307322853872965
 30
0.0
 40
0.3513925209699852
100
AcDbArc
 50
62.61379871470387
 51
108.7743259455001
  0
LINE
  5
36F
330
2
100
AcDbEntity
  8
0
100
AcDbLine
 10
7.872944309637698
 20
6.301356090234857
 30
0.0
 11
7.870677650520036
 21
6.299722271300057
 31
0.0
  0
LWPOLYLINE
  5
370
330
2
100
AcDbEntity
  8
0
100
AcDbPolyline
 90
        9
 70
   128
 43
0.0
 10
7.719367583220606
 20
6.311115570630814
 10
7.719873952077798
 20
6.320774016434209
 10
7.728210262355278
 20
6.327697670165007
 10
7.743696410983658
 20
6.331322783828436
 10
7.765074984652131
 20
6.331355030975375
 10
7.790604338513028
 20
6.327791197582709
 10
7.818209058322739
 20
6.320921320740624
 10
7.845644703592652
 20
6.311304465189778
 10
7.870677650520036
 20
6.299722271300057
  0
LINE
  5
371
330
2
100
AcDbEntity
  8
0
100
AcDbLine
 10
7.719367583220606
 20
6.311115570630814
 30
0.0
 11
7.718260520766165
 21
6.313003227032709
 31
0.0
  0
LINE
  5
372
330
2
100
AcDbEntity
  8
0
100
AcDbLine
 10
7.718260520766165
 20
6.313003227032709
 30
0.0
 11
7.684355809780337
 21
6.395792623116731
 31
0.0
  0
LINE
  5
373
330
2
100
AcDbEntity
  8
0
100
AcDbLine
 10
7.873382879853377
 20
6.381559998511336
 30
0.0
 11
7.872944309637698
 21
6.301356090234857
 31
0.0
  0
LINE
  5
374
330
2
100
AcDbEntity
  8
0
100
AcDbLine
 10
7.871784712974476
 20
6.299639037009277
 30
0.0
 11
7.913983143941442
 21
6.263094123796636
 31
0.0
  0
LINE
  5
375
330
2
100
AcDbEntity
  8
0
100
AcDbLine
 10
7.871784712974476
 20
6.299639037009277
 30
0.0
 11
7.872944309637698
 21
6.301356090234857
 31
0.0
  0
LINE
  5
376
330
2
100
AcDbEntity
  8
0
100
AcDbLine
 10
7.974123034487785
 20
6.60737718833925
 30
0.0
 11
7.949375459745303
 21
6.619333476450054
 31
0.0
  0
LINE
  5
377
330
2
100
AcDbEntity
  8
0
100
AcDbLine
 10
7.974123034487785
 20
6.60737718833925
 30
0.0
 11
7.960377400980014
 21
6.521339432318457
 31
0.0
  0
LWPOLYLINE
  5
378
330
2
100
AcDbEntity
  8
0
100
AcDbPolyline
 90
        9
 70
   128
 43
0.0
 10
7.912876081487001
 20
6.263177358087404
 10
7.912369712629809
 20
6.253518912284021
 10
7.904033402352251
 20
6.246595258553211
 10
7.888547253723949
 20
6.242970144889782
 10
7.867169961379326
 20
6.242938187542002
 10
7.841639326194579
 20
6.246501731135557
 10
7.814034606384868
 20
6.253371607977606
 10
7.786598961114955
 20
6.262988463528452
 10
7.761566014187571
 20
6.274570657418174
  0
LINE
  5
379
330
2
100
AcDbEntity
  8
0
100
AcDbLine
 10
7.760458951733053
 20
6.274653891708905
 30
0.0
 11
7.761566014187571
 21
6.274570657418174
 31
0.0
  0
LINE
  5
37A
330
2
100
AcDbEntity
  8
0
100
AcDbLine
 10
7.718260520766165
 20
6.311198804921594
 30
0.0
 11
7.760458951733053
 21
6.274653891708905
 31
0.0
  0
LINE
  5
37B
330
2
100
AcDbEntity
  8
0
100
AcDbLine
 10
7.718260520766165
 20
6.311198804921594
 30
0.0
 11
7.719367583220606
 21
6.311115570630814
 31
0.0
  0
LINE
  5
37C
330
2
100
AcDbEntity
  8
0
100
AcDbLine
 10
7.870677650520036
 20
6.299722271300057
 30
0.0
 11
7.871784712974476
 21
6.299639037009277
 31
0.0
  0
LINE
  5
37D
330
2
100
AcDbEntity
  8
0
100
AcDbLine
 10
7.912876081487001
 20
6.263177358087404
 30
0.0
 11
7.913983143941442
 21
6.263094123796636
 31
0.0
  0
LWPOLYLINE
  5
37E
330
2
100
AcDbEntity
  8
0
100
AcDbPolyline
 90
        3
 70
   128
 43
0.0
 10
7.983390732801745
 20
6.286290403243277
 10
7.973970274060007
 20
6.278630599426104
 10
7.972114864030547
 20
6.277727035631997
  0
LINE
  5
37F
330
2
100
AcDbEntity
  8
0
100
AcDbLine
 10
8.11747505028152
 20
6.440499793384109
 30
0.0
 11
8.10374870061438
 21
6.430522837434539
 31
0.0
  0
LINE
  5
380
330
2
100
AcDbEntity
  8
0
100
AcDbLine
 10
7.718260520766165
 20
6.313003227032709
 30
0.0
 11
7.718260520766165
 21
6.311198804921594
 31
0.0
  0
SPLINE
  5
381
330
2
100
AcDbEntity
  8
0
100
AcDbSpline
210
0.0
220
0.0
230
1.0
 70
     8
 71
     3
 72
     9
 73
     5
 74
     0
 42
0.000000001
 43
0.0000000001
 40
0.0
 40
0.0
 40
0.0
 40
0.0
 40
0.690265050481048
 40
1.0
 40
1.0
 40
1.0
 40
1.0
 10
8.131329723336396
 20
6.461756461858167
 30
0.0
 10
8.126788240926297
 20
6.467975104809755
 30
0.0
 10
8.120208909686761
 20
6.476984170164164
 30
0.0
 10
8.113512478752118
 20
6.485745070919077
 30
0.0
 10
8.11143836005462
 20
6.488458628072172
 30
0.0
  0
LINE
  5
382
330
2
100
AcDbEntity
  8
0
100
AcDbLine
 10
8.11747505028152
 20
6.440499793384109
 30
0.0
 11
8.131329723339703
 21
6.461756461858095
 31
0.0
  0
ARC
  5
383
330
2
100
AcDbEntity
  8
0
100
AcDbCircle
 10
7.964935900964412
 20
6.311015359037233
 30
0.0
 40
0.0308529456804092
100
AcDbArc
 50
306.737845675434
 51
0.0
  0
ARC
  5
384
330
2
100
AcDbEntity
  8
0
100
AcDbCircle
 10
7.743247530574516
 20
6.202046799350839
 30
0.0
 40
0.4664721026435376
100
AcDbArc
 50
37.87897658188887
 51
60.33423412112894
  0
LINE
  5
385
330
2
100
AcDbEntity
  8
0
100
AcDbLine
 10
5.28839922580516
 20
7.652504799630308
 30
0.0
 11
5.791030215521254
 21
7.617271879948587
 31
0.0
  0
ARC
  5
386
330
2
100
AcDbEntity
  8
0
100
AcDbCircle
 10
28.19439765022908
 20
13.1538442365746
 30
0.0
 40
0.2495294630965485
100
AcDbArc
 50
19.83855131042964
 51
59.42290113757763
  0
ENDSEC
  0
SECTION
  2
OBJECTS
  0
DICTIONARY
  5
A
330
0
100
AcDbDictionary
281
     1
  3
ACAD_COLOR
350
42
  3
ACAD_GROUP
350
37
  3
ACAD_LAYOUT
350
18
  3
ACAD_MATERIAL
350
C
  3
ACAD_MLEADERSTYLE
350
45
  3
ACAD_MLINESTYLE
350
38
  3
ACAD_PLOTSETTINGS
350
39
  3
ACAD_PLOTSTYLENAME
350
9
  3
ACAD_SCALELIST
350
43
  3
ACAD_TABLESTYLE
350
44
  3
ACAD_VISUALSTYLE
350
2D
  3
ACDB_RECOMPOSE_DATA
350
396
  3
AcDbVariableDictionary
350
388
  3
AcDsDecomposeData
350
39C
  0
DICTIONARY
  5
20
330
1F
100
AcDbDictionary
280
     1
281
     1
  3
ACAD_LAYERSTATES
360
21
  0
DICTIONARY
  5
7
330
6
100
AcDbDictionary
280
     1
281
     1
  0
DICTIONARY
  5
3
330
2
100
AcDbDictionary
280
     1
281
     1
  3
ACAD_SORTENTS
360
387
  0
DICTIONARY
  5
42
102
{ACAD_REACTORS
330
A
102
}
330
A
100
AcDbDictionary
281
     1
  0
DICTIONARY
  5
37
102
{ACAD_REACTORS
330
A
102
}
330
A
100
AcDbDictionary
281
     1
  0
DICTIONARY
  5
18
102
{ACAD_REACTORS
330
A
102
}
330
A
100
AcDbDictionary
281
     1
  3
Model
350
17
  3
レイアウト1
350
1E
  0
DICTIONARY
  5
C
102
{ACAD_REACTORS
330
A
102
}
330
A
100
AcDbDictionary
281
     1
  3
ByBlock
350
3E
  3
ByLayer
350
3A
  3
Global
350
B
  0
DICTIONARY
  5
45
102
{ACAD_REACTORS
330
A
102
}
330
A
100
AcDbDictionary
281
     1
  0
DICTIONARY
  5
38
102
{ACAD_REACTORS
330
A
102
}
330
A
100
AcDbDictionary
281
     1
  3
Standard
350
46
  0
DICTIONARY
  5
39
102
{ACAD_REACTORS
330
A
102
}
330
A
100
AcDbDictionary
281
     1
  0
ACDBDICTIONARYWDFLT
  5
9
102
{ACAD_REACTORS
330
A
102
}
330
A
100
AcDbDictionary
281
     1
  3
Normal
350
8
100
AcDbDictionaryWithDefault
340
8
  0
DICTIONARY
  5
43
102
{ACAD_REACTORS
330
A
102
}
330
A
100
AcDbDictionary
281
     1
  3
A0
350
4B
  3
A1
350
4C
  3
A2
350
4D
  3
A3
350
4E
  3
A4
350
4F
  3
A5
350
50
  3
A6
350
51
  3
A7
350
52
  3
A8
350
53
  3
A9
350
54
  3
B0
350
55
  3
B1
350
56
  3
B2
350
57
  3
B3
350
58
  3
B4
350
59
  3
B5
350
5A
  3
B6
350
5B
  0
DICTIONARY
  5
44
102
{ACAD_REACTORS
330
A
102
}
330
A
100
AcDbDictionary
281
     1
  3
Standard
350
47
  0
DICTIONARY
  5
2D
102
{ACAD_REACTORS
330
A
102
}
330
A
100
AcDbDictionary
281
     1
  3
2dWireframe
350
2C
  3
Realistic
350
49
  3
Wireframe
350
4A
  0
XRECORD
  5
396
102
{ACAD_REACTORS
330
A
102
}
330
A
100
AcDbXrecord
280
     1
 90
        1
330
47
  0
DICTIONARY
  5
388
102
{ACAD_REACTORS
330
A
102
}
330
A
100
AcDbDictionary
281
     1
  3
CANNOSCALE
350
38E
  3
CMLEADERSTYLE
350
38A
  3
CTABLESTYLE
350
389
  3
CVIEWDETAILSTYLE
350
38B
  3
CVIEWSECTIONSTYLE
350
38C
  3
LAYEREVAL
350
390
  3
LAYERNOTIFY
350
391
  3
LIGHTINGUNITS
350
38F
  3
MSLTSCALE
350
38D
  3
PSOLHEIGHT
350
393
  3
PSOLWIDTH
350
392
  3
XCLIPFRAME
350
394
  0
DICTIONARY
  5
39C
102
{ACAD_REACTORS
330
A
102
}
330
A
100
AcDbDictionary
281
     1
  3
AcDsRecords
350
39E
  3
AcDsSchemas
350
39D
1001
ACAD
1070
     2
  0
DICTIONARY
  5
21
102
{ACAD_REACTORS
330
20
102
}
330
20
100
AcDbDictionary
281
     1
  0
SORTENTSTABLE
  5
387
102
{ACAD_REACTORS
330
3
102
}
330
3
100
AcDbSortentsTable
330
2
  0
LAYOUT
  5
17
102
{ACAD_XDICTIONARY
360
19
102
}
102
{ACAD_REACTORS
330
18
102
}
330
18
100
AcDbPlotSettings
  1

  2
none_device
  4
ISO_A4_(210.00_x_297.00_MM)
  6

 40
7.5
 41
20.0
 42
7.5
 43
20.0
 44
210.0
 45
297.0
 46
11.54999923706054
 47
-13.65000009536743
 48
0.0
 49
0.0
140
0.0
141
0.0
142
1.0
143
8.704084754739808
 70
 11952
 72
     1
 73
     0
 74
     0
  7

 75
     0
147
0.1148885871608098
 76
     0
 77
     2
 78
   300
148
0.0
149
0.0
100
AcDbLayout
  1
Model
 70
     1
 71
     0
 10
0.0
 20
0.0
 11
12.0
 21
9.0
 12
0.0
 22
0.0
 32
0.0
 14
0.0
 24
0.0
 34
0.0
 15
0.0
 25
0.0
 35
0.0
146
0.0
 13
0.0
 23
0.0
 33
0.0
 16
1.0
 26
0.0
 36
0.0
 17
0.0
 27
1.0
 37
0.0
 76
     0
330
2
331
2B
1001
ACAD_PSEXT
1000
None
1000
None
1000
Not applicable
1000
The layout will not be plotted unless a new plotter configuration name is selected.
1070
     0
  0
LAYOUT
  5
1E
102
{ACAD_REACTORS
330
18
102
}
330
18
100
AcDbPlotSettings
  1

  2
C:\Documents and Settings\basas\Application Data\Autodesk\AutoCAD 2005\R16.1\enu\plotters\Default Windows System Printer.pc3
  4

  6

 40
0.0
 41
0.0
 42
0.0
 43
0.0
 44
0.0
 45
0.0
 46
0.0
 47
0.0
 48
0.0
 49
0.0
140
0.0
141
0.0
142
1.0
143
1.0
 70
   688
 72
     0
 73
     0
 74
     5
  7

 75
    16
147
1.0
 76
     0
 77
     2
 78
   300
148
0.0
149
0.0
100
AcDbLayout
  1
レイアウト1
 70
     1
 71
     1
 10
0.0
 20
0.0
 11
12.0
 21
9.0
 12
0.0
 22
0.0
 32
0.0
 14
0.0
 24
0.0
 34
0.0
 15
0.0
 25
0.0
 35
0.0
146
0.0
 13
0.0
 23
0.0
 33
0.0
 16
1.0
 26
0.0
 36
0.0
 17
0.0
 27
1.0
 37
0.0
 76
     0
330
1B
  0
MATERIAL
  5
3E
102
{ACAD_XDICTIONARY
360
3F
102
}
102
{ACAD_REACTORS
330
C
102
}
330
C
100
AcDbMaterial
  1
ByBlock
  0
MATERIAL
  5
3A
102
{ACAD_XDICTIONARY
360
3B
102
}
102
{ACAD_REACTORS
330
C
102
}
330
C
100
AcDbMaterial
  1
ByLayer
  0
MATERIAL
  5
B
102
{ACAD_XDICTIONARY
360
D
102
}
102
{ACAD_REACTORS
330
C
102
}
330
C
100
AcDbMaterial
  1
Global
 43
0.0007999999797903
 43
0.0
 43
0.0
 43
0.0
 43
0.0
 43
0.0007999999797903
 43
0.0
 43
0.0
 43
0.0
 43
0.0
 43
1.0
 43
0.0
 43
0.0
 43
0.0
 43
0.0
 43
1.0
 49
0.0007999999797903
 49
0.0
 49
0.0
 49
0.0
 49
0.0
 49
0.0007999999797903
 49
0.0
 49
0.0
 49
0.0
 49
0.0
 49
1.0
 49
0.0
 49
0.0
 49
0.0
 49
0.0
 49
1.0
142
0.0007999999797903
142
0.0
142
0.0
142
0.0
142
0.0
142
0.0007999999797903
142
0.0
142
0.0
142
0.0
142
0.0
142
1.0
142
0.0
142
0.0
142
0.0
142
0.0
142
1.0
144
0.0007999999797903
144
0.0
144
0.0
144
0.0
144
0.0
144
0.0007999999797903
144
0.0
144
0.0
144
0.0
144
0.0
144
1.0
144
0.0
144
0.0
144
0.0
144
0.0
144
1.0
1001
ACAD
1070
    -1
1070
     3
1070
     0
1000

1071
        0
1070
     0
  0
MLINESTYLE
  5
46
102
{ACAD_REACTORS
330
38
102
}
330
38
100
AcDbMlineStyle
  2
STANDARD
 70
     0
  3

 62
   256
 51
90.0
 52
90.0
 71
     2
 49
0.5
 62
   256
  6
BYLAYER
 49
-0.5
 62
   256
  6
BYLAYER
  0
ACDBPLACEHOLDER
  5
8
102
{ACAD_REACTORS
330
9
102
}
330
9
  0
SCALE
  5
4B
102
{ACAD_REACTORS
330
43
102
}
330
43
100
AcDbScale
 70
     0
300
1:1
140
1.0
141
1.0
290
     1
  0
SCALE
  5
4C
102
{ACAD_REACTORS
330
43
102
}
330
43
100
AcDbScale
 70
     0
300
1:2
140
1.0
141
2.0
290
     0
  0
SCALE
  5
4D
102
{ACAD_REACTORS
330
43
102
}
330
43
100
AcDbScale
 70
     0
300
1:4
140
1.0
141
4.0
290
     0
  0
SCALE
  5
4E
102
{ACAD_REACTORS
330
43
102
}
330
43
100
AcDbScale
 70
     0
300
1:5
140
1.0
141
5.0
290
     0
  0
SCALE
  5
4F
102
{ACAD_REACTORS
330
43
102
}
330
43
100
AcDbScale
 70
     0
300
1:8
140
1.0
141
8.0
290
     0
  0
SCALE
  5
50
102
{ACAD_REACTORS
330
43
102
}
330
43
100
AcDbScale
 70
     0
300
1:10
140
1.0
141
10.0
290
     0
  0
SCALE
  5
51
102
{ACAD_REACTORS
330
43
102
}
330
43
100
AcDbScale
 70
     0
300
1:16
140
1.0
141
16.0
290
     0
  0
SCALE
  5
52
102
{ACAD_REACTORS
330
43
102
}
330
43
100
AcDbScale
 70
     0
300
1:20
140
1.0
141
20.0
290
     0
  0
SCALE
  5
53
102
{ACAD_REACTORS
330
43
102
}
330
43
100
AcDbScale
 70
     0
300
1:30
140
1.0
141
30.0
290
     0
  0
SCALE
  5
54
102
{ACAD_REACTORS
330
43
102
}
330
43
100
AcDbScale
 70
     0
300
1:40
140
1.0
141
40.0
290
     0
  0
SCALE
  5
55
102
{ACAD_REACTORS
330
43
102
}
330
43
100
AcDbScale
 70
     0
300
1:50
140
1.0
141
50.0
290
     0
  0
SCALE
  5
56
102
{ACAD_REACTORS
330
43
102
}
330
43
100
AcDbScale
 70
     0
300
1:100
140
1.0
141
100.0
290
     0
  0
SCALE
  5
57
102
{ACAD_REACTORS
330
43
102
}
330
43
100
AcDbScale
 70
     0
300
2:1
140
2.0
141
1.0
290
     0
  0
SCALE
  5
58
102
{ACAD_REACTORS
330
43
102
}
330
43
100
AcDbScale
 70
     0
300
4:1
140
4.0
141
1.0
290
     0
  0
SCALE
  5
59
102
{ACAD_REACTORS
330
43
102
}
330
43
100
AcDbScale
 70
     0
300
8:1
140
8.0
141
1.0
290
     0
  0
SCALE
  5
5A
102
{ACAD_REACTORS
330
43
102
}
330
43
100
AcDbScale
 70
     0
300
10:1
140
10.0
141
1.0
290
     0
  0
SCALE
  5
5B
102
{ACAD_REACTORS
330
43
102
}
330
43
100
AcDbScale
 70
     0
300
100:1
140
100.0
141
1.0
290
     0
  0
TABLESTYLE
  5
47
102
{ACAD_XDICTIONARY
360
48
102
}
102
{ACAD_REACTORS
330
44
102
}
330
44
100
AcDbTableStyle
  3
Standard
 70
     0
 71
     0
 40
1.5
 41
1.5
280
     0
281
     0
  7
Standard
140
4.5
170
     2
 62
     0
 63
     7
283
     0
274
    -2
284
     1
 64
     0
275
    -2
285
     1
 65
     0
276
    -2
286
     1
 66
     0
277
    -2
287
     1
 67
     0
278
    -2
288
     1
 68
     0
279
    -2
289
     1
 69
     0
  7
Standard
140
6.0
170
     5
 62
     0
 63
     7
283
     0
274
    -2
284
     1
 64
     0
275
    -2
285
     1
 65
     0
276
    -2
286
     1
 66
     0
277
    -2
287
     1
 67
     0
278
    -2
288
     1
 68
     0
279
    -2
289
     1
 69
     0
  7
Standard
140
4.5
170
     5
 62
     0
 63
     7
283
     0
274
    -2
284
     1
 64
     0
275
    -2
285
     1
 65
     0
276
    -2
286
     1
 66
     0
277
    -2
287
     1
 67
     0
278
    -2
288
     1
 68
     0
279
    -2
289
     1
 69
     0
  0
VISUALSTYLE
  5
2C
102
{ACAD_XDICTIONARY
360
39F
102
}
102
{ACAD_REACTORS
330
2D
102
}
330
2D
100
AcDbVisualStyle
  2

 70
     4
 71
     0
 72
     2
 73
     1
 90
        0
 40
-0.6
 41
-30.0
 62
     5
 63
     7
421
 16777215
 74
     1
 91
        4
 64
     7
 65
   257
 75
     1
175
     1
 42
1.0
 92
        0
 66
   257
 43
1.0
 76
     1
 77
     6
 78
     2
 67
     7
 79
     5
170
     0
171
     0
290
     0
174
     0
 93
        1
 44
0.0
173
     0
291
     0
 45
0.0
1001
ACAD
1000
AcDbSavedByObjectVersion
1070
     0
  0
VISUALSTYLE
  5
49
102
{ACAD_XDICTIONARY
360
3A2
102
}
102
{ACAD_REACTORS
330
2D
102
}
330
2D
100
AcDbVisualStyle
  2

 70
     8
 71
     2
 72
     3
 73
     0
 90
        2
 40
-0.6
 41
30.0
 62
     5
 63
     7
421
 16777215
 74
     0
 91
        0
 64
     7
 65
   257
 75
     1
175
     1
 42
1.0
 92
        8
 66
   257
 43
1.0
 76
     1
 77
     6
 78
     2
 67
     7
 79
     3
170
     0
171
     0
290
     0
174
     0
 93
       13
 44
0.0
173
     0
291
     0
 45
0.0
1001
ACAD
1000
AcDbSavedByObjectVersion
1070
     0
  0
VISUALSTYLE
  5
4A
102
{ACAD_XDICTIONARY
360
3A4
102
}
102
{ACAD_REACTORS
330
2D
102
}
330
2D
100
AcDbVisualStyle
  2

 70
     5
 71
     0
 72
     2
 73
     0
 90
        0
 40
-0.6
 41
-30.0
 62
     5
 63
     7
421
 16777215
 74
     1
 91
        4
 64
     7
 65
   257
 75
     1
175
     1
 42
1.0
 92
        0
 66
   257
 43
1.0
 76
     1
 77
     6
 78
     2
 67
     7
 79
     3
170
     0
171
     0
290
     0
174
     0
 93
        1
 44
0.0
173
     0
291
     0
 45
0.0
1001
ACAD
1000
AcDbSavedByObjectVersion
1070
     0
  0
DICTIONARYVAR
  5
38E
102
{ACAD_REACTORS
330
388
102
}
330
388
100
DictionaryVariables
280
     0
  1
1:1
  0
DICTIONARYVAR
  5
38A
102
{ACAD_REACTORS
330
388
102
}
330
388
100
DictionaryVariables
280
     0
  1
STANDARD
  0
DICTIONARYVAR
  5
389
102
{ACAD_REACTORS
330
388
102
}
330
388
100
DictionaryVariables
280
     0
  1
STANDARD
  0
DICTIONARYVAR
  5
38B
102
{ACAD_REACTORS
330
388
102
}
330
388
100
DictionaryVariables
280
     0
  1

  0
DICTIONARYVAR
  5
38C
102
{ACAD_REACTORS
330
388
102
}
330
388
100
DictionaryVariables
280
     0
  1

  0
DICTIONARYVAR
  5
390
102
{ACAD_REACTORS
330
388
102
}
330
388
100
DictionaryVariables
280
     0
  1
0
  0
DICTIONARYVAR
  5
391
102
{ACAD_REACTORS
330
388
102
}
330
388
100
DictionaryVariables
280
     0
  1
0
  0
DICTIONARYVAR
  5
38F
102
{ACAD_REACTORS
330
388
102
}
330
388
100
DictionaryVariables
280
     0
  1
2
  0
DICTIONARYVAR
  5
38D
102
{ACAD_REACTORS
330
388
102
}
330
388
100
DictionaryVariables
280
     0
  1
1
  0
DICTIONARYVAR
  5
393
102
{ACAD_REACTORS
330
388
102
}
330
388
100
DictionaryVariables
280
     0
  1
80.000000
  0
DICTIONARYVAR
  5
392
102
{ACAD_REACTORS
330
388
102
}
330
388
100
DictionaryVariables
280
     0
  1
5.000000
  0
DICTIONARYVAR
  5
394
102
{ACAD_REACTORS
330
388
102
}
330
388
100
DictionaryVariables
280
     0
  1
2
  0
DICTIONARY
  5
39E
102
{ACAD_REACTORS
330
39C
102
}
330
39C
100
AcDbDictionary
281
     1
  0
DICTIONARY
  5
39D
102
{ACAD_REACTORS
330
39C
102
}
330
39C
100
AcDbDictionary
281
     1
  3
1447977319664
350
397
  3
1447977319680
350
398
  3
1447977319696
350
399
  3
1447977319712
350
39A
  3
1447977319728
350
39B
  0
DICTIONARY
  5
19
330
17
100
AcDbDictionary
280
     1
281
     1
  0
DICTIONARY
  5
3F
330
3E
100
AcDbDictionary
280
     1
281
     1
  3
ACAD_XREC_ROUNDTRIP
360
40
  3
FBXASSET
360
41
  0
DICTIONARY
  5
3B
330
3A
100
AcDbDictionary
280
     1
281
     1
  3
ACAD_XREC_ROUNDTRIP
360
3C
  3
FBXASSET
360
3D
  0
DICTIONARY
  5
D
330
B
100
AcDbDictionary
280
     1
281
     1
  3
ACAD_XREC_ROUNDTRIP
360
E
  3
BUMPTILE
360
F
  3
DIFFUSETILE
360
10
  3
FBXASSET
360
11
  3
OPACITYTILE
360
12
  3
REFLECTIONTILE
360
13
  0
DICTIONARY
  5
48
330
47
100
AcDbDictionary
280
     1
281
     1
  3
ACAD_ROUNDTRIP_2008_TABLESTYLE_CELLSTYLEMAP
360
395
  3
ACAD_XREC_ROUNDTRIP
360
3A1
  0
DICTIONARY
  5
39F
330
2C
100
AcDbDictionary
280
     1
281
     1
  3
ACAD_XREC_ROUNDTRIP
360
3A0
  0
DICTIONARY
  5
3A2
330
49
100
AcDbDictionary
280
     1
281
     1
  3
ACAD_XREC_ROUNDTRIP
360
3A3
  0
DICTIONARY
  5
3A4
330
4A
100
AcDbDictionary
280
     1
281
     1
  3
ACAD_XREC_ROUNDTRIP
360
3A5
  0
XRECORD
  5
397
102
{ACAD_REACTORS
330
39D
102
}
330
39D
100
AcDbXrecord
280
     1
  1
AcDb_Thumbnail_Schema
102
{ATTRRECORD
341
398
  2
AcDbDs::TreatedAsObjectData
280
     1
291
     1
102
ATTRRECORD}
102
{ATTRRECORD
341
399
  2
AcDbDs::Legacy
280
     1
291
     1
102
ATTRRECORD}
  2
AcDbDs::ID
280
    10
 91
        8
102
{ATTRRECORD
341
39A
  2
AcDs:Indexable
280
     1
291
     1
102
ATTRRECORD}
102
{ATTRRECORD
341
39B
  2
AcDbDs::HandleAttribute
280
     7
282
     1
102
ATTRRECORD}
  2
Thumbnail_Data
280
    15
 91
        0
  0
XRECORD
  5
398
102
{ACAD_REACTORS
330
39D
102
}
330
39D
100
AcDbXrecord
280
     1
  1
AcDbDs::TreatedAsObjectDataSchema
  2
AcDbDs::TreatedAsObjectData
280
     1
 91
        0
  0
XRECORD
  5
399
102
{ACAD_REACTORS
330
39D
102
}
330
39D
100
AcDbXrecord
280
     1
  1
AcDbDs::LegacySchema
  2
AcDbDs::Legacy
280
     1
 91
        0
  0
XRECORD
  5
39A
102
{ACAD_REACTORS
330
39D
102
}
330
39D
100
AcDbXrecord
280
     1
  1
AcDbDs::IndexedPropertySchema
  2
AcDs:Indexable
280
     1
 91
        0
  0
XRECORD
  5
39B
102
{ACAD_REACTORS
330
39D
102
}
330
39D
100
AcDbXrecord
280
     1
  1
AcDbDs::HandleAttributeSchema
  2
AcDbDs::HandleAttribute
280
     7
 91
        1
284
     1
  0
XRECORD
  5
40
102
{ACAD_REACTORS
330
3F
102
}
330
3F
100
AcDbXrecord
280
     1
102
MATERIAL
148
0.0
149
0.0
149
0.0
 93
        0
 94
      127
282
     0
 72
     1
 77
     1
171
     1
175
     1
179
     1
273
     0
  0
XRECORD
  5
41
102
{ACAD_REACTORS
330
3F
102
}
330
3F
100
AcDbXrecord
280
     1
 70
     1
 90
429727718
  1
D62C5603-E3A1-4AEA-B7FB-FE5D8D0755AF
310
504B03040A0000080000CC70623B3DEE336E79000000790000001B0000006175746F6465736B2D64657369676E2D7061636B6167652E786D6C3C3F786D6C2076657273696F6E3D22312E302220656E636F64696E673D227574662D3822203F3E3C666F726D6174733E3C666F726D61743E687474703A2F2F736368656D612E
310
6175746F6465736B2E636F6D2F64657369676E2D7061636B6167652F323030393C2F666F726D61743E3C2F666F726D6174733E504B0304140006080800CC70623BD486FD9CA0000000F4000000130000005B436F6E74656E745F54797065735D2E786D6C7D8EC10E82300C865F65E91D8A1E8C310C0EEA1BF002731658846E
310
D98AC1B77784ABF1D8FE5FBFBF75BBCE937A534CCEB38643598122B6FEE978D0B0485F9C41B54DDD7D022595594E1A469170414C76A4D9A4D207E29CF43ECE46F218070CC6BECC4078ACAA135ACF422C856C0E68EA1BF5669944DDD7BCDE7B1F8E415D77AECB980613C2E4AC91FC167A2B244592486606FC29C8FD7F045B9A
310
EF7053A7E60B504B0304140006080800CC70623B853B8169EB0000007C01000008000000636F72652E786D6C8D90416EC3201045AF62CDB6C206821CC7C244919D9CA01740401C94182C03558F5F9C3852BBEB6A467FFE9B197D7EFC9E1EC5975982F5AE035262288C535E5B377690E21535501C055FBC8FBF6C503839990E
310
5619041F179FE64D52DE45E362569DD7661365082642A11EB9E920A89B99642953CC8E702F67A9EE7234257977194EC9EAE275C4EABCCF5EAD5940D4AC6F0E35A568B8F43562CD7046CD199FD07E60174276A7BE677B5EADB0E0D14EEFFB6A31321A0D82627C4084204C3F096B71DD52F6819B16635EADF63F509AF53FA164
310
5DDCD1EDDD17164090FCC8732078B56691CB33A85CD7DCC40F504B0304140006080800CC70623B55019EA25F0000007C00000007000000636E782E786D6C4DCB3B0E80201045D1AD90E915ED2CF8AC45050C11660C8261F98AB1B07AC9C97D42D718D865D3E909258CFD00CCE24AC6E326A164D74DC0B4128928FF32603847
310
2BA13128B1252AC747C6BAB984FC68F0B87FE8960A5C09FE86CFB69FBA01504B0304140006080800CC70623BDBABAAF470010000D40300000C0000006662782F636F72652E786D6CC553D16E823014FD95A6AF4B694182CC941A83FA05FB810A9511A125A5257EFE2E82712ECEB8A7F100CD39F7F69E734AF9FADC366850B6
310
AF8DCE7018308C942E4C59EB2AC3DE1D498AD15A706B8CFB56869196ADCAF00863C12B6B7C374385D14E6907A836A59A41D9F7CA615434B0C8705F7CAA5606D23BA8E84F41278B93AC54100640439DE0BDB320004D43C63716C7C399D30917DCFBBA9CD9BA8469F5B156168B24CED3F7248AC8769F27244EB73B92EED8862C
310
B7F13E0C179B3C8F979C8ECD82BBBABDAA2BAC924E9558448CBD9330242CFA08E3154B5651FCC6D215639C8EE5774DBE2B5F6CF2B5768B68963BB5F5588420E442FC700B1139D4CB01F450C1E918227C2E09DF070D8140C84E1E9AAB8F1340832A9CB13130A5F1376A908D57309505ECF2A0DF179C4E9D30F5B239B87E3823
310
7A79C6F31DE1A8A5AEC08474B03C7837EAE4938639B44E5932B833D2C6B6B279CDC613877FA26EE21F4A2A4C63EC7F29A2F301D1F9F7A0E37D145F504B0304140006080800CC70623B9C113CC27E0000009D0000000B0000006662782F636E782E786D6C4DCCDF0A83201C86E15B91DFB94BFB330DD428C8FB886521330DA7
310
6397BF1A1DECE883878F57749FCDA1B7892F1BBC047A23808C7F84D9FA55424E0BE6803A256208E9EF06C84F9B91703228B1C690F78B66B34CD9A5439DF5CF0BFBF65E35BCA1B8D6A5C6F540381E886698B5741C695F9503EBA150A2F8958E3DC3EA0B504B0304140006080800CC70623B7DF2F77C2A010000120200003100
310
00006662782F41393633353835312D344632462D344230382D423046372D3739314545314133324237412F636F72652E786D6C8D51DB8EC22014FC15C2939B0D2DB4B45643319AE817EC0F6041255A68B86CFCFC856D4D76DF7CE190393373060EDB3DC707F856CE6B6B7A480A0C81328395DA5C7B18C3057510EC3873D686
310
3F34088C18550F330C39BB3A1BA7051AAC09CA84841A2BD5020AEF55806078A44B0FFD7053A328440C89E1EFC52486BBB8AA8214A99D789CF9E05200300FC927E4FB4D5B375D43103D5527440FB843077C5AA3F5861C8F645F5787F59E95B390B318B55CE45AA638FAA2957BD7248B390B7A7CC51F9C124149C82B8C378810
310
84AB2F42B7B8DD56F413775B8C5999E9FF4471926F8AA236A1AE96B8B3CC434E5839373893369E1FAF30EA395917409EB7F26AF8801C171837A4A6AC9C89E9F9C9B1A58BA30FD6A5EF5DDDCF894B9AD9B6A59C957943A9FCAE2FD5BC4DFE03504B0304140006080800CC70623BAD7543B64E01000033030000300000006662
310
782F41393633353835312D344632462D344230382D423046372D3739314545314133324237412F636E782E786D6CD593CD6EC32010845F0571AD6CE3D48AD20813A9873E410FBD12D82434182C7EAAE6EDBB2424CD25871E7B41D6EC30B3FA84F9E67BB2E40B4234DE8DB46F1925E094D7C6ED479AD3AE5951B2113C789FEE
310
6C943839C1488B4C05DF079FE72A69D8C96C13AAD6B8631503449F83828872B949AC57D26200B826A308D316B4064D6E46FCDA41C05550DC9E483A00797BFD207EFB092A45DE9514C1BBD22178396BD39D891265658C238DEA00936C654E5E433CB65A26D9F6EDB5EBC14EBF49A45CB856E66048291F6939A9A81BB5C89177
310
38143CA680F4AA299D66A042CEB3354A2684DC9D8D178FE0D9B8B41CAAD720F880EE7EF93C0C18769E099ECC04D5A102C8049A8A05632F4DDF376CF1DE0F6BB65C2F8627B65A33C6BB62177CEBBDAD973006829F89F22E814B54F4BC2BE347F8AA8F681390B50FA73F804400B5F542E796F19FF974E7F78DB802FE05E20750
310
4B0304140006080800CC70623BE75B7789680500003C100000340000006662782F41393633353835312D344632462D344230382D423046372D3739314545314133324237412F6F626A656374732E786D6CAD575B8F9B3818FD2B887D06C22499CB8AA1CA655245D5B455A356FB305264C061D8018C6C3393D95FBFC7600890
310
A4CD5EF210B0B1BFEBF98E3F7B1FF6596ABC522E1296DF9BAE3D320D9A872C4AF2F8DE2CE5CEBA358D0FBEC719939D65A691938CDE9B6ADAF4BD98B3B2D05311DD91329583D9D5FC0F438434A7A611A644887B5384CF34233629258BA878B12322891DEFF6B66BD70BFB62634E8AE781D082709A4B588AF91C528CDA28B73F
310
1C998EEF39EABBEFA97FBD6A7C7E9553F9D3D79FE442923C3C523610337627CB87ABE99D359D4CC6D6E4FACAB5E6ABF9D2726FC6A3C5F56271377BB88362213924694B38DD99FE47C48627A1E7D49F5A8BB5E1A74C0A599ED3B0F21F1E56366B89112D681E218F0915D0D6F17AD41FBA2A369DCF6335D62ABBD39779D5DDD1
310
11D4D8DE3CBB96B2E04FB8202E41051754A1AA8E8F76B4C6DFE810B580B1547F4B84911149794252234D024EF8BBE963A95AE27B3D310A9D5C215C7960FAEE415ED75694C6AFB17BCACA5D99A60A9AA65F217B0BFC53292ACB92BF283FAD0D3621576592CB5BED907C2FA8E9DF794E35E97BEA31BED21FEB401ABB94C44839
310
DCACBF0E1C5DA8DA5B2F4DFFD32AD86F543D9E565E7056502E157C00AD2671CD534549AB752FCA9CDA00677A313F04E51B22FF19E57B300579E3C97EB29F682D92935CEC18CF901B7B54FD8C51F362B56FC72FE0B3C1EAE335EDCCBF5AEC39ADB17DC238973F804BA5E6F6BFE7AF1FB32E523BE9F3BD571418E3631DCA4D48
310
5250CF639223210A9446CA30052EDF057BD35F8329C1ECD84552BF0DC8D18BE7BCE23BFE6BD960AB4A7DE79923A103BEBD80F911CBAA2C60DB19B01CF164A5583B772EE6D3FFA56666CBCDA74DC97724A48F9A58967497E489C4D979006FD7A05E227A1EBDD0F737C623387A9C844D3709995625106D157315F8B8392CD4E0
310
A0B9A720C4BE9829CEF37EA1E13111214D53925356365ADA634861B52519DD27A00AEB808EAF0628E6F435519D446F45CF2C9CF5214F0A15B2F6D06B79DA3EE3CBF7F56780D2F4E7EF73A0F5E5B02A38D07DC852C6B7C1FBB6664213E0C39E3EBA7FF4E1AD23EA2829407C85E586727488B751B2DB9502BC7B228A3FD68B6E
310
A65A22397E690AA8D158D7E404EC8CDA235CC3B7D1898680131CEC2CDF2638C65196279577750F15884AEE19F94199155B92B13297978469D4F8D358DF0AEF7631E28DC8F0D9F437D5D39A83B2231A1D52D543813A824EF8D44BCFF2FA6A31BD1E8DAD87F1CCB526B3879935BF59CDADD5C37479BB1CDD4CA7B3556B516589
310
EF352754B706114D9C885EC9131DE6EFEB43D99AFE2391C2F958179413D7CFEF6B1B6DB1E7600F00DE6E5C67454A339A4BA2E0FBA85ED26F045D454F463DBFCE484C2F90F2E5E3666003662ED8F755951A7D1BECD5B30B550B2785C8E7320B7292A4838DDA71BBC863ED7613CAF659337A3354231D4FF4A182A54904C2898C
310
98B28C4AD0CE056CCF332A80986E571EE9DBC305BB5FEB7E509220A58D25CF042D712A806AC0AD0C657FDEF80D2D9CEAA2EE4D1C76F60BFE74219A06527D6F82DF6412526107381E55E353090704D085B52408A8913C4ED159D79BDA71BB4BC506F4831350EB6F975CD22D69BF7AC49B91A2C0A9DDA3D5CA36AD20FC478E37
310
E61844E2352865EBCB61A275A65283CAAA9DD27703B4102F5AF51EF5F573B75CBB5AD38BC845F7A49F82A0966A49C2E3EA5EA0ECD326CD965F1DB402C6FA8B51A4658C5C5E2EC9E214602E55810345408596591009A82E7E7FFACA19EEA299B14A0081A705CB3296EBC14CDF658DCD336EA6D1136881AAEB87B81AB9EE53D5
310
F5EB8BC8362082DA24122F98680A4E7930C01A0079749CEA14382A0783E5EBA5A10F8C098456A03D6A4AEB6BB881E2513747552A5DB22C7EDAF83BD5528081A365F7FF06504B0304140006080000CC70623B000000000000000000000000350000006662782F41393633353835312D344632462D344230382D423046372D37
310
39314545314133324237412F76657274696365732E62696E504B0304140006080800CC70623BF270F1330600000004000000360000006662782F41393633353835312D344632462D344230382D423046372D3739314545314133324237412F747269616E676C65732E62696E636660600000504B0304140006080000CC7062
310
3B000000000000000000000000370000006662782F41393633353835312D344632462D344230382D423046372D3739314545314133324237412F617474726962757465732E62696E504B0304140006080800CC70623B08DA0BD19000000041010000360000006662782F41393633353835312D344632462D344230382D4230
310
46372D3739314545314133324237412F6469726563746F72792E786D6C858F410AC3201045AF22B36F53E9A60B35CBEEBAE80D244E44489C6234F4F835464A48035D0DF398FF9F8AF63D0E6CC63039F212F8F9020C7D47C6792B21C5FE7403D62A1188E2E60C98D7234A5830286103A55745067B9D86B8A3CF9C7F90C11DE6
310
07FB144396D7B6A82D282E9A152AD114D5EF2CB866EEE831B8EEA07A7BB5A8D7D61A2BAAEB7FD5F70921FF497D00504B0304140006080800CC70623BEDD1DC58FD000000A00100003B0000006662782F41393633353835312D344632462D344230382D423046372D3739314545314133324237412F7265736F75726365732F
310
636F72652E786D6C8D504B6E833010BD0A9A6D65B00922041947112427E8052C33A156828DFCA97AFC9A40A576D7CDCCE87D344F8F9FBFE667F689CE6B6B3A6039850C8DB2A336530731DC4903D95970676DF82583CCC8193B5861107C72362E3BA4AC096842428D1D7107A5F7182053CF7474E0D507CE32973124857FE48B
310
540F3961CEF244279DE03EB81420DB9EAC1384436FA353E879B1B182C7A8C75DA3C7F453DF353A1075D537A7BA6464B8F535A99AE14A9A2BBD90E350DD183B5CFABE3AF262350B1EF4FC9351399401471025A527C218A1E53BAB5A5AB765F5469B96525EACF23FA6B88CFF34456DC2A1DCE36E360F82A5202F42F062ED2BAD
310
579969AFDD8A6F504B010214000A0000080000CC70623B3DEE336E79000000790000001B00000000000000000000000000000000006175746F6465736B2D64657369676E2D7061636B6167652E786D6C504B01021400140006080800CC70623BD486FD9CA0000000F40000001300000000000000000000000000B20000005B
310
436F6E74656E745F54797065735D2E786D6C504B01021400140006080800CC70623B853B8169EB0000007C010000080000000000000000000000000083010000636F72652E786D6C504B01021400140006080800CC70623B55019EA25F0000007C000000070000000000000000000000000094020000636E782E786D6C504B
310
01021400140006080800CC70623BDBABAAF470010000D40300000C00000000000000000000000000180300006662782F636F72652E786D6C504B01021400140006080800CC70623B9C113CC27E0000009D0000000B00000000000000000000000000B20400006662782F636E782E786D6C504B01021400140006080800CC70
310
623B7DF2F77C2A010000120200003100000000000000000000000000590500006662782F41393633353835312D344632462D344230382D423046372D3739314545314133324237412F636F72652E786D6C504B01021400140006080800CC70623BAD7543B64E010000330300003000000000000000000000000000D2060000
310
6662782F41393633353835312D344632462D344230382D423046372D3739314545314133324237412F636E782E786D6C504B01021400140006080800CC70623BE75B7789680500003C10000034000000000000000000000000006E0800006662782F41393633353835312D344632462D344230382D423046372D3739314545
310
314133324237412F6F626A656374732E786D6C504B01021400140006080000CC70623B0000000000000000000000003500000000000000000000000000280E00006662782F41393633353835312D344632462D344230382D423046372D3739314545314133324237412F76657274696365732E62696E504B01021400140006
310
080800CC70623BF270F133060000000400000036000000000000000000000000007B0E00006662782F41393633353835312D344632462D344230382D423046372D3739314545314133324237412F747269616E676C65732E62696E504B01021400140006080000CC70623B0000000000000000000000003700000000000000
310
000000000000D50E00006662782F41393633353835312D344632462D344230382D423046372D3739314545314133324237412F617474726962757465732E62696E504B01021400140006080800CC70623B08DA0BD1900000004101000036000000000000000000000000002A0F00006662782F41393633353835312D344632
310
462D344230382D423046372D3739314545314133324237412F6469726563746F72792E786D6C504B01021400140006080800CC70623BEDD1DC58FD000000A00100003B000000000000000000000000000E1000006662782F41393633353835312D344632462D344230382D423046372D3739314545314133324237412F7265
310
736F75726365732F636F72652E786D6C504B0506000000000E000E0080040000641100000000
  0
XRECORD
  5
3C
102
{ACAD_REACTORS
330
3B
102
}
330
3B
100
AcDbXrecord
280
     1
102
MATERIAL
148
0.0
149
0.0
149
0.0
 93
        0
 94
      127
282
     0
 72
     1
 77
     1
171
     1
175
     1
179
     1
273
     0
  0
XRECORD
  5
3D
102
{ACAD_REACTORS
330
3B
102
}
330
3B
100
AcDbXrecord
280
     1
 70
     1
 90
429727718
  1
30362254-06B7-45E0-A893-8CFA70E3D6BC
310
504B03040A0000080000CC70623B3DEE336E79000000790000001B0000006175746F6465736B2D64657369676E2D7061636B6167652E786D6C3C3F786D6C2076657273696F6E3D22312E302220656E636F64696E673D227574662D3822203F3E3C666F726D6174733E3C666F726D61743E687474703A2F2F736368656D612E
310
6175746F6465736B2E636F6D2F64657369676E2D7061636B6167652F323030393C2F666F726D61743E3C2F666F726D6174733E504B0304140006080800CC70623BD486FD9CA0000000F4000000130000005B436F6E74656E745F54797065735D2E786D6C7D8EC10E82300C865F65E91D8A1E8C310C0EEA1BF002731658846E
310
D98AC1B77784ABF1D8FE5FBFBF75BBCE937A534CCEB38643598122B6FEE978D0B0485F9C41B54DDD7D022595594E1A469170414C76A4D9A4D207E29CF43ECE46F218070CC6BECC4078ACAA135ACF422C856C0E68EA1BF5669944DDD7BCDE7B1F8E415D77AECB980613C2E4AC91FC167A2B244592486606FC29C8FD7F045B9A
310
EF7053A7E60B504B0304140006080800CC70623B1EC5D7A3EB0000007C01000008000000636F72652E786D6C8D90416EC3201045AF82665B6103C6756C6122AB4D4ED00B204C5C94182C03558F5F9C3852BBEB6A467FFE9B197D71FC9E6FE8CBACC17AD7032D0820E3B41FAD9B7A48F1820F808E52ACDEC75F36404ECDA687
310
4D0629A6D5A76597B477D1B89855E747B38B2A041301E95B6E7A08FAD3CCAA50296647B8168BD2573599823EBB0CA76447F43862C7BCCF5EAC59410E4DDD9C7973C2755553CCCFA4C603E3040F1565ED3B1FDE4E432BCA0D9622DAF9795FAF464533826484B498524CD807E51D79ED187F21878E10516EF63F505AC67F42C9
310
BA58B1FDDD071640D2FCC87D2045B96591CB3DA85CB7DCE40F504B0304140006080800CC70623B55019EA25F0000007C00000007000000636E782E786D6C4DCB3B0E80201045D1AD90E915ED2CF8AC45050C11660C8261F98AB1B07AC9C97D42D718D865D3E909258CFD00CCE24AC6E326A164D74DC0B4128928FF32603847
310
2BA13128B1252AC747C6BAB984FC68F0B87FE8960A5C09FE86CFB69FBA01504B0304140006080800CC70623B8C9102E971010000D40300000C0000006662782F636F72652E786D6CC5535B6E833010BC8AE5DF0A6C08340F1947A84D4ED00B38C6A128602363A31CBFCB234A53A551FA553EC09AD9F5CE8C31DB9E9B1AF5CA
310
7695D1198E428A91D2D214952E33ECDD315861B4E5CC1AE3BE9561A445A3323CC098B3D21ADFCE9034DA29ED00D5A6503328BA4E398C640D8B0C77F253352214DE4145770A5B214FA2546114020D759C75CE8200340D19DE981F0F6746269C33EFAB6266AB02A655C74A59CCF365BADC27CB5D902ED22848F6340DF238A141
310
BE88E2F57B92BFEDF23523433367AE6A2EEAA455C2A902F398D2751045018D3FA264435F3771F242571B4A1919CA6F9A7C5B3CD9E42BED16F12C776AEB308F40C848FC700B1139D4891EF410CEC810227CC6846F8386402064270EF5C5C709A05E49676C024C61FC95EA45ED154CA5211D1FF4FB8291A913A68E9B83EBBB33
310
E2A7673CDE118E5AE8124C0807CB8377834E366998436B950D7A7746DAD846D4CFD978E0F04FD455FC5D49D2D4C6FE9722321F10997F0F32DC47FE05504B0304140006080800CC70623BFFEA85907E0000009D0000000B0000006662782F636E782E786D6C4DCCD10A83201886E15B91FFDC95D95A811AB6F23E625948A6C3
310
E9D8E5AF46073BFAE0E1E365ED67B3E8ADC3CB78C7815C7240DA3DFC64DCC221C519D7805AC182F7F1EF06C88D9BE6703008B6049F9E274D7A1E938DBB5AE3D6131B2589BA0D3D965551E0B2EA732C9B9A624AAEB41E3A557677029960D9AFB4EF11165F504B0304140006080800CC70623B4FEEA4082C0100001202000031
310
0000006662782F39464131463745442D413632322D343644302D413938332D3331353338454246344243312F636F72652E786D6C8D515B6EC32010BC0AE2AB55850DD871ED0813254D72825EC00192A2C460F1A872FC42ED48ED5F7E00CDCECCCEB26C731F6FE05B39AFADE921293004CA082BB5B9F43086336A21D870E6AC
310
0D7F68109861543DCC30E4ECE26C9C164858139409093556AA051CBC570102714B8F1E7AF1A5C6A11862480C7F2DA6415C878B2A4891CA89C7990F2E050073937C42DE1DB7E4F87ED8A36D4329AA9B3D46DBAEAD504556557BD81DEBDD0761E52CE42C462D17B996298E3E6BE59E35C962CE821E1FF18553435012728A7187
310
0841987E927A8D9B35ADDF70BBC6989599FE4F1427F9A4286A132ABAC49D651EF234CD5CE04CDA78BA3DC2A8FB645D00B9DF8B57E215725C60BCA2A463E54C4CE327C7A65E1C7DB02E7DEFCBF594B864C5CA6CDBD49C957943E9FA5D5FBAF336F90F504B0304140006080800CC70623BAD7543B64E01000033030000300000
310
006662782F39464131463745442D413632322D343644302D413938332D3331353338454246344243312F636E782E786D6CD593CD6EC32010845F0571AD6CE3D48AD20813A9873E410FBD12D82434182C7EAAE6EDBB2424CD25871E7B41D6EC30B3FA84F9E67BB2E40B4234DE8DB46F1925E094D7C6ED479AD3AE5951B2113C
310
789FEE6C943839C1488B4C05DF079FE72A69D8C96C13AAD6B8631503449F83828872B949AC57D26200B826A308D316B4064D6E46FCDA41C05550DC9E483A00797BFD207EFB092A45DE9514C1BBD22178396BD39D891265658C238DEA00936C654E5E433CB65A26D9F6EDB5EBC14EBF49A45CB856E66048291F6939A9A81BB5
310
C8917738143CA680F4AA299D66A042CEB3354A2684DC9D8D178FE0D9B8B41CAAD720F880EE7EF93C0C18769E099ECC04D5A102C8049A8A05632F4DDF376CF1DE0F6BB65C2F8627B65A33C6BB62177CEBBDAD973006829F89F22E814B54F4BC2BE347F8AA8F681390B50FA73F804400B5F542E796F19FF974E7F78DB802FE05
310
E207504B0304140006080800CC70623B16AB87BA640500003C100000340000006662782F39464131463745442D413632322D343644302D413938332D3331353338454246344243312F6F626A656374732E786D6CAD575B6FA33818FD2B887DE6924B3BED8A326A92B68A663B534DD4D13E548A0C38942D60649B369D5FBFC7
310
600890A493BDE42160637FD7F31D7FF63E6FB3D478A55C242CBF3247B66B1A340F5994E4F19559CA8D75611A9F7D8F33263BCB4C232719BD32D5B4E97B316765A1A722BA21652A07B3B7B33F0D11D29C9A46981221AE4C113ED38CD8A4942CA2E2C58E882476BCD9DA23BB5ED8171B73523C0F841684D35CC252CCE79062D4
310
468DFA43D7747CCF51DF7D4FFDEB5593E3AB9CCA9FBEFE241792E4E19EB28198C968BAB8199F5D5A67D3E9C49A9E8F47D6EC76B6B0469F26EEFC7C3EBFBCBEB98462213924694B38DD98FE1D62C393D073EA4FADC5DAF04326852CCF6958F90F0F2B9BB5C48816348F90C7840A68EB78EDF68723159BCEE7891A6B95DDE9D3
310
BCEAEEE8086A6C6F9E5D4B59F0175C10A7A0820BAA5055C7473B5AE3CFDD452D602CD5DF12616444529E90D448938013FE6EFA58AA96F85E4F8C42275708571E98FE6827AF6B2B4AE3D7D83D64E5A64C53054DD3AF90BD06FEA9149565C94FCA0F6B834DC85599E4F2423B24DF0B6AFA979E534DFA9E7A4CC6FA631D486393
310
921829879BF5D781A373557BCB85E97FB90DB62B558F8795179C15944B051F40AB495CF35451D26A4727654E6D8033BD98EF82F21D91FF8AF2DD9982BCF1643BDD4EB516C9492E368C67C88DED563FC36D5EACF66DFF057C3658BDBFA69DF9578B3DA735B64F18C7F20770A9D45CFCF7FCF563D6456A277DBEF78A02637CA2
310
43B90A490AEAB94F72244481D24819A6C0E59B606BFA4B3025981DBB48EAB701D97BF19C577CC77F2D1B6C55A9EF3C732474C0B727303F625995056C3B02963D9EAC146BE78EC5FCEC7FA999EBC5EACBAAE41B12D27B4D2C0BBA49F244E2ECDC81B76B502F113D8F5EE8FB1BE3111CDD4FC2AA9B844CAB1288B68AB90A7CDC
310
1C166AB0D3DC5310625FCC14E779BFD0709F8890A629C9292B1B2DED31A4B0DA928CEE135085754027E3018A397D4D5427D15BD1330B677DC8934285AC3DF45A9EB68FF8F2B8FC0A509AFEECFD0FF2DE25CC6047F7214B195F07EFEB9A094D800F7BFAE8FED187B78EA8A3A400F115961BCAD1215E47C966530AF0EE8128FE
310
58CEBB996A8964FFA529A046635D9353B0336A8F700DDF46271A024E70B0B37C9DE01847591E54DED53D54202AB947E4076556AC49C6CA5C9E1226B7F1A7B1BE15DEED62C41B91E1B3E9AFAAA735036547343A925075041DF0A9979E893B391F8FCFA6967B3EFB644DCF6E5CEBFAE272625DCC6FAF3FB93793C5F90CE1EF57
310
407342756B10D1C489E8953CD1617E5CEECAD6F4EF8914CE5D5D504E5C3F1F9736DA62CFC11E00BCDDB8CC8A9466349744C1F75EBDA4DF09BA8A9E8C7A7E9991989E20E5DBDD6A6003664ED8F7A04A8DBE0DF6EAD9B9AA858342E47399053949D2C146EDB85DE4B176BB0965FBAC19BD19AA918E27FA50C1D22402E144464C
310
59462568E704B6E71915404CB72B8FF4EDE184DDAF753F284990D2C6926782963815403548A70C657FDEF80D2D9CEAA2AE4C1C76F60BFE74219A06527D6582DF6412526107381E55E353090704D085B52408D0933C4ED159D79BDA71BB4BC506F4831350EB6F979CD22D69BF7AC49B91A2C0A9DDA3D5CA36AD20FC478E37E6
310
1844E2352865EBCB6EA275A652E3836BE04EFB400BF1A2556F515F1FBB35B2AB35BD889C744FFA1004B5544B121E57F70215746DD2F5E2C1412B602CBF19455AC6C8E5E9922C4E01E65215385004546899059180EAFCF7A707CE7017CD8CDB0410789AB32C63B91E5CEBBBACB17AC6CD347A022D5075FD106377347AAABA7E
310
7D11590744509B44E205134DC1290F06580320F78E537D3D73540E06CB970B431F185308AD40BBD794D6D77003C5A36E8EAA54BA64597CD8F83BD552A080A365F7FF06504B0304140006080000CC70623B000000000000000000000000350000006662782F39464131463745442D413632322D343644302D413938332D3331
310
353338454246344243312F76657274696365732E62696E504B0304140006080800CC70623BF270F1330600000004000000360000006662782F39464131463745442D413632322D343644302D413938332D3331353338454246344243312F747269616E676C65732E62696E636660600000504B0304140006080000CC70623B
310
000000000000000000000000370000006662782F39464131463745442D413632322D343644302D413938332D3331353338454246344243312F617474726962757465732E62696E504B0304140006080800CC70623B08DA0BD19000000041010000360000006662782F39464131463745442D413632322D343644302D413938
310
332D3331353338454246344243312F6469726563746F72792E786D6C858F410AC3201045AF22B36F53E9A60B35CBEEBAE80D244E44489C6234F4F835464A48035D0DF398FF9F8AF63D0E6CC63039F212F8F9020C7D47C6792B21C5FE7403D62A1188E2E60C98D7234A5830286103A55745067B9D86B8A3CF9C7F90C11DE607
310
FB144396D7B6A82D282E9A152AD114D5EF2CB866EEE831B8EEA07A7BB5A8D7D61A2BAAEB7FD5F70921FF497D00504B0304140006080800CC70623B0D6EF93BFE000000A00100003B0000006662782F39464131463745442D413632322D343644302D413938332D3331353338454246344243312F7265736F75726365732F63
310
6F72652E786D6C8D50596E833010BD0A9ADFCA60B334011947A8694ED00B586642AC041B79A97AFC9A40A5F6AF3F33A3B7689E1E3F7DCD8FEC139DD7D6F4C0720A191A65476DA61E62B892236427C19DB5E1970C322367EC618541F0C9D9B8EC90B226A009093576C41D94DE63804C3DD2D18357379C652E63480A7FCF17A9
310
EE72C29CE5894E3AC17D702940B63D59270887DE46A7D0F36263058F518FBB468FE9A7BE6A7420864373B8D4873369AA8691FA421B3294352543C5CAF65C0F6FEF43CB8BD52C78D0F34F46E550061C419494B6843142CB0F5677F4B52BEB177AEC28E5C52AFF638ACBF84F53D42654E51E77B379102C05791282176B5F693D
310
CB4C7BED567C03504B010214000A0000080000CC70623B3DEE336E79000000790000001B00000000000000000000000000000000006175746F6465736B2D64657369676E2D7061636B6167652E786D6C504B01021400140006080800CC70623BD486FD9CA0000000F40000001300000000000000000000000000B20000005B
310
436F6E74656E745F54797065735D2E786D6C504B01021400140006080800CC70623B1EC5D7A3EB0000007C010000080000000000000000000000000083010000636F72652E786D6C504B01021400140006080800CC70623B55019EA25F0000007C000000070000000000000000000000000094020000636E782E786D6C504B
310
01021400140006080800CC70623B8C9102E971010000D40300000C00000000000000000000000000180300006662782F636F72652E786D6C504B01021400140006080800CC70623BFFEA85907E0000009D0000000B00000000000000000000000000B30400006662782F636E782E786D6C504B01021400140006080800CC70
310
623B4FEEA4082C0100001202000031000000000000000000000000005A0500006662782F39464131463745442D413632322D343644302D413938332D3331353338454246344243312F636F72652E786D6C504B01021400140006080800CC70623BAD7543B64E010000330300003000000000000000000000000000D5060000
310
6662782F39464131463745442D413632322D343644302D413938332D3331353338454246344243312F636E782E786D6C504B01021400140006080800CC70623B16AB87BA640500003C1000003400000000000000000000000000710800006662782F39464131463745442D413632322D343644302D413938332D3331353338
310
454246344243312F6F626A656374732E786D6C504B01021400140006080000CC70623B0000000000000000000000003500000000000000000000000000270E00006662782F39464131463745442D413632322D343644302D413938332D3331353338454246344243312F76657274696365732E62696E504B01021400140006
310
080800CC70623BF270F133060000000400000036000000000000000000000000007A0E00006662782F39464131463745442D413632322D343644302D413938332D3331353338454246344243312F747269616E676C65732E62696E504B01021400140006080000CC70623B0000000000000000000000003700000000000000
310
000000000000D40E00006662782F39464131463745442D413632322D343644302D413938332D3331353338454246344243312F617474726962757465732E62696E504B01021400140006080800CC70623B08DA0BD190000000410100003600000000000000000000000000290F00006662782F39464131463745442D413632
310
322D343644302D413938332D3331353338454246344243312F6469726563746F72792E786D6C504B01021400140006080800CC70623B0D6EF93BFE000000A00100003B000000000000000000000000000D1000006662782F39464131463745442D413632322D343644302D413938332D3331353338454246344243312F7265
310
736F75726365732F636F72652E786D6C504B0506000000000E000E0080040000641100000000
  0
XRECORD
  5
E
102
{ACAD_REACTORS
330
D
102
}
330
D
100
AcDbXrecord
280
     1
102
MATERIAL
148
0.0
149
0.0
149
0.0
 93
        0
 94
      127
282
     0
 72
     1
 77
     1
171
     1
175
     1
179
     1
273
     0
  0
XRECORD
  5
F
102
{ACAD_REACTORS
330
D
102
}
330
D
100
AcDbXrecord
280
     1
270
     1
271
     1
  0
XRECORD
  5
10
102
{ACAD_REACTORS
330
D
102
}
330
D
100
AcDbXrecord
280
     1
270
     1
271
     1
  0
XRECORD
  5
11
102
{ACAD_REACTORS
330
D
102
}
330
D
100
AcDbXrecord
280
     1
 70
     0
 90
1673772943
  1
ECE7A1D2-D628-4531-984C-D00F80459256
310
504B03040A0000080000CC70623B3DEE336E79000000790000001B0000006175746F6465736B2D64657369676E2D7061636B6167652E786D6C3C3F786D6C2076657273696F6E3D22312E302220656E636F64696E673D227574662D3822203F3E3C666F726D6174733E3C666F726D61743E687474703A2F2F736368656D612E
310
6175746F6465736B2E636F6D2F64657369676E2D7061636B6167652F323030393C2F666F726D61743E3C2F666F726D6174733E504B0304140006080800CC70623BD486FD9CA0000000F4000000130000005B436F6E74656E745F54797065735D2E786D6C7D8EC10E82300C865F65E91D8A1E8C310C0EEA1BF002731658846E
310
D98AC1B77784ABF1D8FE5FBFBF75BBCE937A534CCEB38643598122B6FEE978D0B0485F9C41B54DDD7D022595594E1A469170414C76A4D9A4D207E29CF43ECE46F218070CC6BECC4078ACAA135ACF422C856C0E68EA1BF5669944DDD7BCDE7B1F8E415D77AECB980613C2E4AC91FC167A2B244592486606FC29C8FD7F045B9A
310
EF7053A7E60B504B0304140006080800CC70623BD9DDAED0EC0000007C01000008000000636F72652E786D6C8D90416EC3201045AF82665B61836D9CD8C2444DD39CA01740405C94182C03558F5F9C3852BBEB6A467FFE9B197D7EF89E6EE8CB2CC17A37002D0820E394D7D68D03A478C17B4007C117EFE32F1B20272733C0
310
2A83E0E3E2D3BC49CABB685CCCAAF3DA6CA20CC14440EA969B0182FA34932C648AD911AEC52CD5558EA6A0CF2EC329598D1E47ACCEFBECC59A050463A7EA5833865FEBDD0E37353BE3EE8DBDE3F6786A48D375FBF6CC78B9C282473B3DEFABC5C86834888A900E538A49F5419B9EB47DD5BC907D4F082F57FB1F28CDFA9F50
310
B22ED6D5F6EE030B20687EE43E10BC5CB3C8E51E54AE6B6EE207504B0304140006080800CC70623B55019EA25F0000007C00000007000000636E782E786D6C4DCB3B0E80201045D1AD90E915ED2CF8AC45050C11660C8261F98AB1B07AC9C97D42D718D865D3E909258CFD00CCE24AC6E326A164D74DC0B4128928FF326038
310
472BA13128B1252AC747C6BAB984FC68F0B87FE8960A5C09FE86CFB69FBA01504B0304140006080800CC70623BA24EB22D72010000D40300000C0000006662782F636F72652E786D6CC5535B6E833010BC8AE5DF0A6C5E49888CA3A6694ED00B38E05014B091B1518EDFE511A5A9D228FD2A1F60CDEC7A67C6986DCE4D8D7A
310
69BA4AAB0C073EC548AA5C17952A33ECECD15B61B4E1CC686DBF9561A44423333CC098B3D268D7CE50AE9595CA02AA74216750749DB418E5352C32DCE59FB211BE70162ABA93DF8AFC244AE9073ED050C759670D0840D390E18DF9F1706664C23973AE2A66B62A605A75ACA4C13C4976E1364A12EF355A2EBD384AF65EFA96
310
BC7B8BED2EA6719AAE16FB8491A199335B351775B991C2CA02F390D2D40B028F861F41BCA68B7518BFD0D59A524686F29B26D7164F36B94AD9289CE54E6D1DE6010819891F6E21228B3AD1831EC219194284CF98F06DD01008846CC5A1BEF83801D4CBDC6A1303536877A57A513B0953A94FC707FDBE6064EA84A9E3E6E0FA
310
EE8CF0E9198F7784A316AA0413C2C2F2E0ECA0934D1AE6D05A69BCDE9E91D2A611F573361E38FC1375157F5752AE6B6DFE4B11990F88CCBF0719EE23FF02504B0304140006080800CC70623B408A7D3B7C0000009D0000000B0000006662782F636E782E786D6C4DCCD10A83201886E15B91FFDC552A92A0064DBC8F581632
310
D3703A76F9ABD1C18E3E78F878E5F0D9027ABBFCF2292AE86E2D20171F69F6715550CB827B40839639A5F2770314A7CD293819B45C73AAFB45B35BA61ACAA1C1C7E7855C58C15BC331339661262CC762340413D68D77DA5B42298546CBE6573AF60CEB2F504B0304140006080800CC70623B449FB9BD290100001202000031
310
0000006662782F36394639363044362D344446342D343946362D394244322D3234314243333846323333332F636F72652E786D6C8D515B6EC32010BC0AE22B55850D98B871848994463E412FE002495162B07854397EA176A4F62F3F2C9A9D991D587EB84F37F0AD7D30CEF6905418026DA553C65E7A98E219ED203808EE9D
310
8B7F6810D871D23D2C3014FCE25D9A57483A1BB58D19B54EE9151C43D0110279CB971E06F9A5A7B11A53CC8C70ADE6515EC78BAE4895DB992778883E0700CB907242D17643D7E2538BD869608875438BBAE38922CAC8F1BDD90DB4691A5E2F42C153326A951B95E398B3D1FE599322163C9AE9115F7A3D46ADA0A018778810
310
84E907617BDCEE297BC5BB3DC6BC2EF47FA234AB2745C9D8D8D035EE220B50105E2F0DC1954B9FB747187D9F9D8FA0CCDB042D5FA0C015C65B42DF78BD10F3F3B363CB56C7109DCFDFBBB97E662ED92EB62D13BC2E1BCAE5777DB9966D8A1F504B0304140006080800CC70623BAD7543B64E01000033030000300000006662
310
782F36394639363044362D344446342D343946362D394244322D3234314243333846323333332F636E782E786D6CD593CD6EC32010845F0571AD6CE3D48AD20813A9873E410FBD12D82434182C7EAAE6EDBB2424CD25871E7B41D6EC30B3FA84F9E67BB2E40B4234DE8DB46F1925E094D7C6ED479AD3AE5951B2113C789FEE
310
6C943839C1488B4C05DF079FE72A69D8C96C13AAD6B8631503449F83828872B949AC57D26200B826A308D316B4064D6E46FCDA41C05550DC9E483A00797BFD207EFB092A45DE9514C1BBD22178396BD39D891265658C238DEA00936C654E5E433CB65A26D9F6EDB5EBC14EBF49A45CB856E66048291F6939A9A81BB5C89177
310
38143CA680F4AA299D66A042CEB3354A2684DC9D8D178FE0D9B8B41CAAD720F880EE7EF93C0C18769E099ECC04D5A102C8049A8A05632F4DDF376CF1DE0F6BB65C2F8627B65A33C6BB62177CEBBDAD973006829F89F22E814B54F4BC2BE347F8AA8F681390B50FA73F804400B5F542E796F19FF974E7F78DB802FE05E20750
310
4B0304140006080800CC70623B8D05915C650500003B100000340000006662782F36394639363044362D344446342D343946362D394244322D3234314243333846323333332F6F626A656374732E786D6CAD575B6FA33814FE2B887D06429276DA1565D4266D158D3A339A6846FB502932E050B66023DB74D2FDF5FB190C01
310
9276B2973C046C8ECFF53B17071F77456EBD502133CEAE6CDF9DD81665314F32965ED995DA3A17B6F5310C04E7AA47665B8C14F4CAD6DB7618A48257A5D94AE89654B91AEDDEDDFC61C998326A5B714EA4BCB265FC440BE2924AF184CA6737218AB8E976E7FA6E4338649B0A523E8D98964450A6A029F619B8588D52FE7039
310
B1BD30F0F4F730D0FF866AF6369557DB33949F31A9088B0F848DD8CCFCF9F2767A76E99CCDE733677E3EF59D9BBB9BA5E37F984D16E78BC5E5F5ED25044B25C0C96822E8D60EEFE11B91C581D77CEA34368A1F5329E68CD1B8B61F16D63A1B8E092D294B10C78C4A48EB593D192E7DED9BDEE7995E1B91FDEDD3ACEA9FE831
310
6A756F9F7D4D79F4274C90A7A04248AA51D5F8C718DAE06FB2F75AC4796EBE65D22A88A22223B995679120E2D50E41AA49C260C046A35368846B0BECD0DFF3EBEB8AD4F835768F69B9ADF25C43D30E6B646F807FAA64AD59F61715C7A54127C4AACA98BA3006A9D792DAE165E0D59B61A01FB3A9F9D838D2DAE62445C86166
310
F37564E842E7DE6A69879FEEA2DD5AE7E371E1A5E025154AC307D06A03D73EB5978C58FFA4C8E9033066E0F3BD53BEC1F39F91BE7B55103791EDE6BBB991A2046172CB4581D8B893FA674DDA17A77B3B7C413D1B511FD2743BFF8A38F03A658705E3ADF8015C3A3417FF3D7E439FF591DA0B5F18BC20C1B8981957AE6392A3
310
F43C640C01D1A0B4728E2DD4F26DB4B3C3152A252A3B4E913CEC1C72F012782FF88EFF8637AA552DBEF76408E8A8DE9E50F9E1CB3A2DA0DB1B6039A893B56063DC5B3E3FFB5F72E67AB9FEB4AEC496C4F4C1149625DD662C53E89D7BF0F6151A046260D1337DFDC94502430F83B0EE07A130A224BCAD7DAE1D9FB6CD422FF6
310
920702629C4BB9AE79C12F243C6432A6794E18E5552BA56B431AAB5D91317302B2B071E86C3A42B1A02F999E24061403B5D0EB639195DA655DD3EBEAB4FB862DDF579F014AD0E73C22F99E28DA57FB98E75C6CA2D74D53086D600F4786E0FE3144B771A8A7B900F03594DB8A633CBC49B2EDB69228BB479CF863B5E807AAAB
310
23872F6DFEB4129B949CA33823F58830E86D65621E10047D9DB34D862E8EAC3C2ABC2F7B2C40D67CDFE01F5545B92105AF983AC54D93D69E56FB8E797F88913F898A9FEC705D3F9D1B54EC8426FB500D40A03BD0119B06E1B95DDC7EB8F6975367793EBD70E66733DFB9BC982F9CE564727731999F5D4ECFCE3B8D6A4DC2A0
310
6D50FD148437D110834A64C6CDDF57FBACB5C307A2A477DFE4939736CFEF2B175371E0E10CF0DD1D5C15654E0BCA14D1E87DD02FF93782A162C0A3D95F1524A52770F972BF1EE9809D13CE7DD599467F8ECE9ADD85CE85A34CD45355448C64F9E8A031DC2D596ACC6E5DD93D9B82DE2EF5CAF81363A8E47996A0DE24564A79
310
4115AACE09C55E14540231FDA13C319787134EBF34E3A022514E5B4D9E0826E25C02D5805B15ABE1BEF51B26383D445DD9E875EE33FE4C22DA16427D65A3BCA92CA6D28DD01DF5DC53330704308475351050232CCD31583787BA75774AFB06E5070DD0C8EF484E19968C5D83BA5B90B244D31E54D55A372320FE4786B7EA58
310
44E135AA5467CB7EA333A61683CC6A8C3257034C10CF46F40EF9F5BE59BE5BD30C3C72D235E95D10345C1D45445A5F0BB47E46A5EBE5570F9380B5FA629579952296A773720405982B9DE04011506178964401AA8BDF1FBF0A8EAB6861DD6580C0E38217056766716DAEB2D6FA0917D3E4116581EADB879C4E7CFFB11EFACD
310
3D641311495D92C8676CB409A72D18610D803CE8A626049E8EC1887CB5B44CC39883690DDA8399B4B9855B481E7D71D4A9D22F96E5BB73BF5793020C02137BF837504B0304140006080000CC70623B000000000000000000000000350000006662782F36394639363044362D344446342D343946362D394244322D32343142
310
43333846323333332F76657274696365732E62696E504B0304140006080800CC70623BF270F1330600000004000000360000006662782F36394639363044362D344446342D343946362D394244322D3234314243333846323333332F747269616E676C65732E62696E636660600000504B0304140006080000CC70623B0000
310
00000000000000000000370000006662782F36394639363044362D344446342D343946362D394244322D3234314243333846323333332F617474726962757465732E62696E504B0304140006080800CC70623B08DA0BD19000000041010000360000006662782F36394639363044362D344446342D343946362D394244322D
310
3234314243333846323333332F6469726563746F72792E786D6C858F410AC3201045AF22B36F53E9A60B35CBEEBAE80D244E44489C6234F4F835464A48035D0DF398FF9F8AF63D0E6CC63039F212F8F9020C7D47C6792B21C5FE7403D62A1188E2E60C98D7234A5830286103A55745067B9D86B8A3CF9C7F90C11DE607FB14
310
4396D7B6A82D282E9A152AD114D5EF2CB866EEE831B8EEA07A7BB5A8D7D61A2BAAEB7FD5F70921FF497D00504B0304140006080800CC70623BCA768048FE000000A00100003B0000006662782F36394639363044362D344446342D343946362D394244322D3234314243333846323333332F7265736F75726365732F636F72
310
652E786D6C8D50596E833010BD0A9ADFCA60D600328E9AA639412F609909B1126CE4A5EAF16B0295DABFFECC8CDEA2797AECF8353F924FB44E193D409E5248504B332A3D0D10FC95B4901C39B3C6F85F3248B49871801506CE266BC2B243D2688FDA47549B11775038871E12F988C7004EDE7016A9083E2ADC3D5D84BC8B09
310
D33C8D74D471E6BC8D0192EDC93A815B742658898E651BCB59086ADC356A8C3FD555A1055ED7E7E254D615792D0F075295F585746FF53B694EE78A565DD736979A65AB9933AFE69F8CD2A2F038022F28ED489E135A7CE4554F9BBEA85E68DB53CAB255FEC71496F19FA6A0B42F8B3DEE6673C0F318E4497096AD7DC5F52C33
310
EEB55BFE0D504B010214000A0000080000CC70623B3DEE336E79000000790000001B00000000000000000000000000000000006175746F6465736B2D64657369676E2D7061636B6167652E786D6C504B01021400140006080800CC70623BD486FD9CA0000000F40000001300000000000000000000000000B20000005B436F
310
6E74656E745F54797065735D2E786D6C504B01021400140006080800CC70623BD9DDAED0EC0000007C010000080000000000000000000000000083010000636F72652E786D6C504B01021400140006080800CC70623B55019EA25F0000007C000000070000000000000000000000000095020000636E782E786D6C504B0102
310
1400140006080800CC70623BA24EB22D72010000D40300000C00000000000000000000000000190300006662782F636F72652E786D6C504B01021400140006080800CC70623B408A7D3B7C0000009D0000000B00000000000000000000000000B50400006662782F636E782E786D6C504B01021400140006080800CC70623B
310
449FB9BD290100001202000031000000000000000000000000005A0500006662782F36394639363044362D344446342D343946362D394244322D3234314243333846323333332F636F72652E786D6C504B01021400140006080800CC70623BAD7543B64E010000330300003000000000000000000000000000D20600006662
310
782F36394639363044362D344446342D343946362D394244322D3234314243333846323333332F636E782E786D6C504B01021400140006080800CC70623B8D05915C650500003B10000034000000000000000000000000006E0800006662782F36394639363044362D344446342D343946362D394244322D32343142433338
310
46323333332F6F626A656374732E786D6C504B01021400140006080000CC70623B0000000000000000000000003500000000000000000000000000250E00006662782F36394639363044362D344446342D343946362D394244322D3234314243333846323333332F76657274696365732E62696E504B010214001400060808
310
00CC70623BF270F13306000000040000003600000000000000000000000000780E00006662782F36394639363044362D344446342D343946362D394244322D3234314243333846323333332F747269616E676C65732E62696E504B01021400140006080000CC70623B00000000000000000000000037000000000000000000
310
00000000D20E00006662782F36394639363044362D344446342D343946362D394244322D3234314243333846323333332F617474726962757465732E62696E504B01021400140006080800CC70623B08DA0BD190000000410100003600000000000000000000000000270F00006662782F36394639363044362D344446342D
310
343946362D394244322D3234314243333846323333332F6469726563746F72792E786D6C504B01021400140006080800CC70623BCA768048FE000000A00100003B000000000000000000000000000B1000006662782F36394639363044362D344446342D343946362D394244322D3234314243333846323333332F7265736F
310
75726365732F636F72652E786D6C504B0506000000000E000E0080040000621100000000
  0
XRECORD
  5
12
102
{ACAD_REACTORS
330
D
102
}
330
D
100
AcDbXrecord
280
     1
270
     1
271
     1
  0
XRECORD
  5
13
102
{ACAD_REACTORS
330
D
102
}
330
D
100
AcDbXrecord
280
     1
270
     1
271
     1
  0
CELLSTYLEMAP
  5
395
102
{ACAD_REACTORS
330
48
102
}
330
48
100
AcDbCellStyleMap
 90
        3
300
CELLSTYLE
  1
TABLEFORMAT_BEGIN
 90
        5
170
     1
 91
        0
 92
    32768
 62
   257
 93
        1
300
CONTENTFORMAT
  1
CONTENTFORMAT_BEGIN
 90
        0
 91
        0
 92
      512
 93
        0
300

 40
0.0
140
1.0
 94
        5
 62
     0
340
23
144
6.0
309
CONTENTFORMAT_END
171
     1
301
MARGIN
  1
CELLMARGIN_BEGIN
 40
1.5
 40
1.5
 40
1.5
 40
1.5
 40
0.18
 40
0.18
309
CELLMARGIN_END
 94
        6
 95
        1
302
GRIDFORMAT
  1
GRIDFORMAT_BEGIN
 90
        0
 91
        1
 62
     0
 92
       -2
340
26
 93
        0
 40
1.125
309
GRIDFORMAT_END
 95
        2
302
GRIDFORMAT
  1
GRIDFORMAT_BEGIN
 90
        0
 91
        1
 62
     0
 92
       -2
340
26
 93
        0
 40
1.125
309
GRIDFORMAT_END
 95
        4
302
GRIDFORMAT
  1
GRIDFORMAT_BEGIN
 90
        0
 91
        1
 62
     0
 92
       -2
340
26
 93
        0
 40
1.125
309
GRIDFORMAT_END
 95
        8
302
GRIDFORMAT
  1
GRIDFORMAT_BEGIN
 90
        0
 91
        1
 62
     0
 92
       -2
340
26
 93
        0
 40
1.125
309
GRIDFORMAT_END
 95
       16
302
GRIDFORMAT
  1
GRIDFORMAT_BEGIN
 90
        0
 91
        1
 62
     0
 92
       -2
340
26
 93
        0
 40
1.125
309
GRIDFORMAT_END
 95
       32
302
GRIDFORMAT
  1
GRIDFORMAT_BEGIN
 90
        0
 91
        1
 62
     0
 92
       -2
340
26
 93
        0
 40
1.125
309
GRIDFORMAT_END
309
TABLEFORMAT_END
  1
CELLSTYLE_BEGIN
 90
        1
 91
        1
300
_TITLE
309
CELLSTYLE_END
300
CELLSTYLE
  1
TABLEFORMAT_BEGIN
 90
        5
170
     1
 91
        0
 92
        0
 62
   257
 93
        1
300
CONTENTFORMAT
  1
CONTENTFORMAT_BEGIN
 90
        0
 91
        0
 92
      512
 93
        0
300

 40
0.0
140
1.0
 94
        5
 62
     0
340
23
144
4.5
309
CONTENTFORMAT_END
171
     1
301
MARGIN
  1
CELLMARGIN_BEGIN
 40
1.5
 40
1.5
 40
1.5
 40
1.5
 40
0.18
 40
0.18
309
CELLMARGIN_END
 94
        6
 95
        1
302
GRIDFORMAT
  1
GRIDFORMAT_BEGIN
 90
        0
 91
        1
 62
     0
 92
       -2
340
26
 93
        0
 40
1.125
309
GRIDFORMAT_END
 95
        2
302
GRIDFORMAT
  1
GRIDFORMAT_BEGIN
 90
        0
 91
        1
 62
     0
 92
       -2
340
26
 93
        0
 40
1.125
309
GRIDFORMAT_END
 95
        4
302
GRIDFORMAT
  1
GRIDFORMAT_BEGIN
 90
        0
 91
        1
 62
     0
 92
       -2
340
26
 93
        0
 40
1.125
309
GRIDFORMAT_END
 95
        8
302
GRIDFORMAT
  1
GRIDFORMAT_BEGIN
 90
        0
 91
        1
 62
     0
 92
       -2
340
26
 93
        0
 40
1.125
309
GRIDFORMAT_END
 95
       16
302
GRIDFORMAT
  1
GRIDFORMAT_BEGIN
 90
        0
 91
        1
 62
     0
 92
       -2
340
26
 93
        0
 40
1.125
309
GRIDFORMAT_END
 95
       32
302
GRIDFORMAT
  1
GRIDFORMAT_BEGIN
 90
        0
 91
        1
 62
     0
 92
       -2
340
26
 93
        0
 40
1.125
309
GRIDFORMAT_END
309
TABLEFORMAT_END
  1
CELLSTYLE_BEGIN
 90
        2
 91
        1
300
_HEADER
309
CELLSTYLE_END
300
CELLSTYLE
  1
TABLEFORMAT_BEGIN
 90
        5
170
     1
 91
        0
 92
        0
 62
   257
 93
        1
300
CONTENTFORMAT
  1
CONTENTFORMAT_BEGIN
 90
        0
 91
        0
 92
      512
 93
        0
300

 40
0.0
140
1.0
 94
        2
 62
     0
340
23
144
4.5
309
CONTENTFORMAT_END
171
     1
301
MARGIN
  1
CELLMARGIN_BEGIN
 40
1.5
 40
1.5
 40
1.5
 40
1.5
 40
0.18
 40
0.18
309
CELLMARGIN_END
 94
        6
 95
        1
302
GRIDFORMAT
  1
GRIDFORMAT_BEGIN
 90
        0
 91
        1
 62
     0
 92
       -2
340
26
 93
        0
 40
1.125
309
GRIDFORMAT_END
 95
        2
302
GRIDFORMAT
  1
GRIDFORMAT_BEGIN
 90
        0
 91
        1
 62
     0
 92
       -2
340
26
 93
        0
 40
1.125
309
GRIDFORMAT_END
 95
        4
302
GRIDFORMAT
  1
GRIDFORMAT_BEGIN
 90
        0
 91
        1
 62
     0
 92
       -2
340
26
 93
        0
 40
1.125
309
GRIDFORMAT_END
 95
        8
302
GRIDFORMAT
  1
GRIDFORMAT_BEGIN
 90
        0
 91
        1
 62
     0
 92
       -2
340
26
 93
        0
 40
1.125
309
GRIDFORMAT_END
 95
       16
302
GRIDFORMAT
  1
GRIDFORMAT_BEGIN
 90
        0
 91
        1
 62
     0
 92
       -2
340
26
 93
        0
 40
1.125
309
GRIDFORMAT_END
 95
       32
302
GRIDFORMAT
  1
GRIDFORMAT_BEGIN
 90
        0
 91
        1
 62
     0
 92
       -2
340
26
 93
        0
 40
1.125
309
GRIDFORMAT_END
309
TABLEFORMAT_END
  1
CELLSTYLE_BEGIN
 90
        3
 91
        2
300
_DATA
309
CELLSTYLE_END
  0
XRECORD
  5
3A1
102
{ACAD_REACTORS
330
48
102
}
330
48
100
AcDbXrecord
280
     1
102
ACAD_ROUNDTRIP_PRE2007_TABLESTYLE
 90
      512
 91
        0
  1

 92
      512
 93
        0
  2

 94
      512
 95
        0
  3

  0
XRECORD
  5
3A0
102
{ACAD_REACTORS
330
39F
102
}
330
39F
100
AcDbXrecord
280
     1
102
RTVSPost2010Prop28
280
     1
102
RTVSPost2010PropOp28
 70
     1
102
RTVSPost2010Prop29
280
     1
102
RTVSPost2010PropOp29
 70
     1
102
RTVSPost2010Prop30
280
     0
102
RTVSPost2010PropOp30
 70
     1
102
RTVSPost2010Prop31
280
     0
102
RTVSPost2010PropOp31
 70
     1
102
RTVSPost2010Prop32
280
     0
102
RTVSPost2010PropOp32
 70
     1
102
RTVSPost2010Prop33
280
     0
102
RTVSPost2010PropOp33
 70
     1
102
RTVSPost2010Prop34
280
     0
102
RTVSPost2010PropOp34
 70
     1
102
RTVSPost2010Prop35
280
     0
102
RTVSPost2010PropOp35
 70
     1
102
RTVSPost2010Prop36
280
     0
102
RTVSPost2010PropOp36
 70
     1
102
RTVSPost2010Prop37
 90
       50
102
RTVSPost2010PropOp37
 70
     1
102
RTVSPost2010Prop38
140
0.0
102
RTVSPost2010PropOp38
 70
     1
102
RTVSPost2010Prop39
140
1.0
102
RTVSPost2010PropOp39
 70
     1
102
RTVSPost2010Prop40
 90
        0
102
RTVSPost2010PropOp40
 70
     1
102
RTVSPost2010Prop41ColorIndex
 90
       18
102
RTVSPost2010Prop41ColorRGB
 90
        0
102
RTVSPost2010PropOp41
 70
     1
102
RTVSPost2010Prop42
 90
       50
102
RTVSPost2010PropOp42
 70
     1
102
RTVSPost2010Prop43
 90
        3
102
RTVSPost2010PropOp43
 70
     1
102
RTVSPost2010Prop44ColorIndex
 90
        5
102
RTVSPost2010Prop44ColorRGB
 90
      255
102
RTVSPost2010PropOp44
 70
     1
102
RTVSPost2010Prop45
280
     0
102
RTVSPost2010PropOp45
 70
     1
102
RTVSPost2010Prop46
 90
       50
102
RTVSPost2010PropOp46
 70
     1
102
RTVSPost2010Prop47
 90
       50
102
RTVSPost2010PropOp47
 70
     1
102
RTVSPost2010Prop48
 90
       50
102
RTVSPost2010PropOp48
 70
     1
102
RTVSPost2010Prop49
280
     0
102
RTVSPost2010PropOp49
 70
     1
102
RTVSPost2010Prop50
 90
       50
102
RTVSPost2010PropOp50
 70
     1
102
RTVSPost2010Prop51ColorIndex
 90
      256
102
RTVSPost2010Prop51ColorRGB
 90
-16777216
102
RTVSPost2010PropOp51
 70
     0
102
RTVSPost2010Prop52
140
1.0
102
RTVSPost2010PropOp52
 70
     0
102
RTVSPost2010Prop53
 90
        2
102
RTVSPost2010PropOp53
 70
     1
102
RTVSPost2010Prop54
  1
strokes_ogs.tif
102
RTVSPost2010PropOp54
 70
     1
102
RTVSPost2010Prop55
280
     0
102
RTVSPost2010PropOp55
 70
     1
102
RTVSPost2010Prop56
140
1.0
102
RTVSPost2010PropOp56
 70
     1
102
RTVSPost2010Prop57
140
1.0
102
RTVSPost2010PropOp57
 70
     1
102
RTVSPropertyOp0
 70
     1
102
RTVSPropertyOp1
 70
     1
102
RTVSPropertyOp2
 70
     1
102
RTVSPropertyOp3
 70
     1
102
RTVSPropertyOp4
 70
     1
102
RTVSPropertyOp5
 70
     1
102
RTVSPropertyOp6
 70
     1
102
RTVSPropertyOp7
 70
     1
102
RTVSPropertyOp8
 70
     1
102
RTVSPropertyOp9
 70
     1
102
RTVSPropertyOp10
 70
     1
102
RTVSPropertyOp11
 70
     1
102
RTVSPropertyOp12
 70
     1
102
RTVSPropertyOp13
 70
     1
102
RTVSPropertyOp14
 70
     1
102
RTVSPropertyOp15
 70
     1
102
RTVSPropertyOp16
 70
     1
102
RTVSPropertyOp17
 70
     1
102
RTVSPropertyOp18
 70
     1
102
RTVSPropertyOp19
 70
     1
102
RTVSPropertyOp20
 70
     1
102
RTVSPropertyOp21
 70
     1
102
RTVSPropertyOp22
 70
     1
102
RTVSPropertyOp23
 70
     1
102
RTVSPropertyOp24
 70
     1
102
RTVSPropertyOp25
 70
     1
102
RTVSPropertyOp26
 70
     1
102
RTVSPropertyOp27
 70
     1
102
RTVSPropertyOp28
 70
     1
102
RTVSPropertyOp29
 70
     1
102
RTVSPropertyOp30
 70
     1
102
RTVSPropertyOp31
 70
     1
102
RTVSPropertyOp32
 70
     1
102
RTVSPropertyOp33
 70
     1
102
RTVSPropertyOp34
 70
     1
102
RTVSPropertyOp35
 70
     1
102
RTVSPropertyOp36
 70
     1
102
RTVSPropertyOp37
 70
     1
102
RTVSPropertyOp38
 70
     1
102
RTVSPropertyOp39
 70
     1
102
RTVSPropertyOp40
 70
     1
102
RTVSPropertyOp41
 70
     1
102
RTVSPropertyOp42
 70
     1
102
RTVSPropertyOp43
 70
     1
102
RTVSPropertyOp44
 70
     1
102
RTVSPropertyOp45
 70
     1
102
RTVSPropertyOp46
 70
     1
102
RTVSPropertyOp47
 70
     1
102
RTVSPropertyOp48
 70
     1
102
RTVSPropertyOp49
 70
     1
102
RTVSPropertyOp50
 70
     1
102
RTVSPropertyOp51
 70
     0
102
RTVSPropertyOp52
 70
     0
102
RTVSPropertyOp53
 70
     1
102
RTVSPropertyOp54
 70
     1
102
RTVSPropertyOp55
 70
     1
102
RTVSPropertyOp56
 70
     1
102
RTVSPropertyOp57
 70
     1
102
RTVSPropertyOp58
 70
     1
102
RTVSPropertyOp59
 70
     1
102
RTVSPropertyOp60
 70
     1
102
RTVSPropertyOp61
 70
     1
102
RTVSPropertyOp62
 70
     1
  0
XRECORD
  5
3A3
102
{ACAD_REACTORS
330
3A2
102
}
330
3A2
100
AcDbXrecord
280
     1
102
RTVSPost2010Prop28
280
     0
102
RTVSPost2010PropOp28
 70
     1
102
RTVSPost2010Prop29
280
     1
102
RTVSPost2010PropOp29
 70
     1
102
RTVSPost2010Prop30
280
     1
102
RTVSPost2010PropOp30
 70
     1
102
RTVSPost2010Prop31
280
     0
102
RTVSPost2010PropOp31
 70
     1
102
RTVSPost2010Prop32
280
     0
102
RTVSPost2010PropOp32
 70
     1
102
RTVSPost2010Prop33
280
     0
102
RTVSPost2010PropOp33
 70
     1
102
RTVSPost2010Prop34
280
     0
102
RTVSPost2010PropOp34
 70
     1
102
RTVSPost2010Prop35
280
     0
102
RTVSPost2010PropOp35
 70
     1
102
RTVSPost2010Prop36
280
     0
102
RTVSPost2010PropOp36
 70
     1
102
RTVSPost2010Prop37
 90
       50
102
RTVSPost2010PropOp37
 70
     1
102
RTVSPost2010Prop38
140
0.0
102
RTVSPost2010PropOp38
 70
     1
102
RTVSPost2010Prop39
140
1.0
102
RTVSPost2010PropOp39
 70
     1
102
RTVSPost2010Prop40
 90
        0
102
RTVSPost2010PropOp40
 70
     1
102
RTVSPost2010Prop41ColorIndex
 90
       18
102
RTVSPost2010Prop41ColorRGB
 90
        0
102
RTVSPost2010PropOp41
 70
     1
102
RTVSPost2010Prop42
 90
       50
102
RTVSPost2010PropOp42
 70
     1
102
RTVSPost2010Prop43
 90
        3
102
RTVSPost2010PropOp43
 70
     1
102
RTVSPost2010Prop44ColorIndex
 90
        5
102
RTVSPost2010Prop44ColorRGB
 90
      255
102
RTVSPost2010PropOp44
 70
     1
102
RTVSPost2010Prop45
280
     0
102
RTVSPost2010PropOp45
 70
     1
102
RTVSPost2010Prop46
 90
       50
102
RTVSPost2010PropOp46
 70
     1
102
RTVSPost2010Prop47
 90
       50
102
RTVSPost2010PropOp47
 70
     1
102
RTVSPost2010Prop48
 90
       50
102
RTVSPost2010PropOp48
 70
     1
102
RTVSPost2010Prop49
280
     0
102
RTVSPost2010PropOp49
 70
     1
102
RTVSPost2010Prop50
 90
       50
102
RTVSPost2010PropOp50
 70
     1
102
RTVSPost2010Prop51ColorIndex
 90
      256
102
RTVSPost2010Prop51ColorRGB
 90
-16777216
102
RTVSPost2010PropOp51
 70
     0
102
RTVSPost2010Prop52
140
1.0
102
RTVSPost2010PropOp52
 70
     0
102
RTVSPost2010Prop53
 90
        2
102
RTVSPost2010PropOp53
 70
     1
102
RTVSPost2010Prop54
  1
strokes_ogs.tif
102
RTVSPost2010PropOp54
 70
     1
102
RTVSPost2010Prop55
280
     0
102
RTVSPost2010PropOp55
 70
     1
102
RTVSPost2010Prop56
140
1.0
102
RTVSPost2010PropOp56
 70
     1
102
RTVSPost2010Prop57
140
1.0
102
RTVSPost2010PropOp57
 70
     1
102
RTVSPropertyOp0
 70
     1
102
RTVSPropertyOp1
 70
     1
102
RTVSPropertyOp2
 70
     1
102
RTVSPropertyOp3
 70
     1
102
RTVSPropertyOp4
 70
     1
102
RTVSPropertyOp5
 70
     1
102
RTVSPropertyOp6
 70
     1
102
RTVSPropertyOp7
 70
     1
102
RTVSPropertyOp8
 70
     1
102
RTVSPropertyOp9
 70
     1
102
RTVSPropertyOp10
 70
     1
102
RTVSPropertyOp11
 70
     1
102
RTVSPropertyOp12
 70
     1
102
RTVSPropertyOp13
 70
     1
102
RTVSPropertyOp14
 70
     1
102
RTVSPropertyOp15
 70
     1
102
RTVSPropertyOp16
 70
     1
102
RTVSPropertyOp17
 70
     1
102
RTVSPropertyOp18
 70
     1
102
RTVSPropertyOp19
 70
     1
102
RTVSPropertyOp20
 70
     1
102
RTVSPropertyOp21
 70
     1
102
RTVSPropertyOp22
 70
     1
102
RTVSPropertyOp23
 70
     1
102
RTVSPropertyOp24
 70
     1
102
RTVSPropertyOp25
 70
     1
102
RTVSPropertyOp26
 70
     1
102
RTVSPropertyOp27
 70
     1
102
RTVSPropertyOp28
 70
     1
102
RTVSPropertyOp29
 70
     1
102
RTVSPropertyOp30
 70
     1
102
RTVSPropertyOp31
 70
     1
102
RTVSPropertyOp32
 70
     1
102
RTVSPropertyOp33
 70
     1
102
RTVSPropertyOp34
 70
     1
102
RTVSPropertyOp35
 70
     1
102
RTVSPropertyOp36
 70
     1
102
RTVSPropertyOp37
 70
     1
102
RTVSPropertyOp38
 70
     1
102
RTVSPropertyOp39
 70
     1
102
RTVSPropertyOp40
 70
     1
102
RTVSPropertyOp41
 70
     1
102
RTVSPropertyOp42
 70
     1
102
RTVSPropertyOp43
 70
     1
102
RTVSPropertyOp44
 70
     1
102
RTVSPropertyOp45
 70
     1
102
RTVSPropertyOp46
 70
     1
102
RTVSPropertyOp47
 70
     1
102
RTVSPropertyOp48
 70
     1
102
RTVSPropertyOp49
 70
     1
102
RTVSPropertyOp50
 70
     1
102
RTVSPropertyOp51
 70
     0
102
RTVSPropertyOp52
 70
     0
102
RTVSPropertyOp53
 70
     1
102
RTVSPropertyOp54
 70
     1
102
RTVSPropertyOp55
 70
     1
102
RTVSPropertyOp56
 70
     1
102
RTVSPropertyOp57
 70
     1
102
RTVSPropertyOp58
 70
     1
102
RTVSPropertyOp59
 70
     1
102
RTVSPropertyOp60
 70
     1
102
RTVSPropertyOp61
 70
     1
102
RTVSPropertyOp62
 70
     1
  0
XRECORD
  5
3A5
102
{ACAD_REACTORS
330
3A4
102
}
330
3A4
100
AcDbXrecord
280
     1
102
RTVSPost2010Prop28
280
     0
102
RTVSPost2010PropOp28
 70
     1
102
RTVSPost2010Prop29
280
     1
102
RTVSPost2010PropOp29
 70
     1
102
RTVSPost2010Prop30
280
     1
102
RTVSPost2010PropOp30
 70
     1
102
RTVSPost2010Prop31
280
     0
102
RTVSPost2010PropOp31
 70
     1
102
RTVSPost2010Prop32
280
     0
102
RTVSPost2010PropOp32
 70
     1
102
RTVSPost2010Prop33
280
     0
102
RTVSPost2010PropOp33
 70
     1
102
RTVSPost2010Prop34
280
     0
102
RTVSPost2010PropOp34
 70
     1
102
RTVSPost2010Prop35
280
     0
102
RTVSPost2010PropOp35
 70
     1
102
RTVSPost2010Prop36
280
     0
102
RTVSPost2010PropOp36
 70
     1
102
RTVSPost2010Prop37
 90
       50
102
RTVSPost2010PropOp37
 70
     1
102
RTVSPost2010Prop38
140
0.0
102
RTVSPost2010PropOp38
 70
     1
102
RTVSPost2010Prop39
140
1.0
102
RTVSPost2010PropOp39
 70
     1
102
RTVSPost2010Prop40
 90
        0
102
RTVSPost2010PropOp40
 70
     1
102
RTVSPost2010Prop41ColorIndex
 90
       18
102
RTVSPost2010Prop41ColorRGB
 90
        0
102
RTVSPost2010PropOp41
 70
     1
102
RTVSPost2010Prop42
 90
       50
102
RTVSPost2010PropOp42
 70
     1
102
RTVSPost2010Prop43
 90
        3
102
RTVSPost2010PropOp43
 70
     1
102
RTVSPost2010Prop44ColorIndex
 90
        5
102
RTVSPost2010Prop44ColorRGB
 90
      255
102
RTVSPost2010PropOp44
 70
     1
102
RTVSPost2010Prop45
280
     0
102
RTVSPost2010PropOp45
 70
     1
102
RTVSPost2010Prop46
 90
       50
102
RTVSPost2010PropOp46
 70
     1
102
RTVSPost2010Prop47
 90
       50
102
RTVSPost2010PropOp47
 70
     1
102
RTVSPost2010Prop48
 90
       50
102
RTVSPost2010PropOp48
 70
     1
102
RTVSPost2010Prop49
280
     0
102
RTVSPost2010PropOp49
 70
     1
102
RTVSPost2010Prop50
 90
       50
102
RTVSPost2010PropOp50
 70
     1
102
RTVSPost2010Prop51ColorIndex
 90
      256
102
RTVSPost2010Prop51ColorRGB
 90
-16777216
102
RTVSPost2010PropOp51
 70
     0
102
RTVSPost2010Prop52
140
1.0
102
RTVSPost2010PropOp52
 70
     0
102
RTVSPost2010Prop53
 90
        2
102
RTVSPost2010PropOp53
 70
     1
102
RTVSPost2010Prop54
  1
strokes_ogs.tif
102
RTVSPost2010PropOp54
 70
     1
102
RTVSPost2010Prop55
280
     0
102
RTVSPost2010PropOp55
 70
     1
102
RTVSPost2010Prop56
140
1.0
102
RTVSPost2010PropOp56
 70
     1
102
RTVSPost2010Prop57
140
1.0
102
RTVSPost2010PropOp57
 70
     1
102
RTVSPropertyOp0
 70
     1
102
RTVSPropertyOp1
 70
     1
102
RTVSPropertyOp2
 70
     1
102
RTVSPropertyOp3
 70
     1
102
RTVSPropertyOp4
 70
     1
102
RTVSPropertyOp5
 70
     1
102
RTVSPropertyOp6
 70
     1
102
RTVSPropertyOp7
 70
     1
102
RTVSPropertyOp8
 70
     1
102
RTVSPropertyOp9
 70
     1
102
RTVSPropertyOp10
 70
     1
102
RTVSPropertyOp11
 70
     1
102
RTVSPropertyOp12
 70
     1
102
RTVSPropertyOp13
 70
     1
102
RTVSPropertyOp14
 70
     1
102
RTVSPropertyOp15
 70
     1
102
RTVSPropertyOp16
 70
     1
102
RTVSPropertyOp17
 70
     1
102
RTVSPropertyOp18
 70
     1
102
RTVSPropertyOp19
 70
     1
102
RTVSPropertyOp20
 70
     1
102
RTVSPropertyOp21
 70
     1
102
RTVSPropertyOp22
 70
     1
102
RTVSPropertyOp23
 70
     1
102
RTVSPropertyOp24
 70
     1
102
RTVSPropertyOp25
 70
     1
102
RTVSPropertyOp26
 70
     1
102
RTVSPropertyOp27
 70
     1
102
RTVSPropertyOp28
 70
     1
102
RTVSPropertyOp29
 70
     1
102
RTVSPropertyOp30
 70
     1
102
RTVSPropertyOp31
 70
     1
102
RTVSPropertyOp32
 70
     1
102
RTVSPropertyOp33
 70
     1
102
RTVSPropertyOp34
 70
     1
102
RTVSPropertyOp35
 70
     1
102
RTVSPropertyOp36
 70
     1
102
RTVSPropertyOp37
 70
     1
102
RTVSPropertyOp38
 70
     1
102
RTVSPropertyOp39
 70
     1
102
RTVSPropertyOp40
 70
     1
102
RTVSPropertyOp41
 70
     1
102
RTVSPropertyOp42
 70
     1
102
RTVSPropertyOp43
 70
     1
102
RTVSPropertyOp44
 70
     1
102
RTVSPropertyOp45
 70
     1
102
RTVSPropertyOp46
 70
     1
102
RTVSPropertyOp47
 70
     1
102
RTVSPropertyOp48
 70
     1
102
RTVSPropertyOp49
 70
     1
102
RTVSPropertyOp50
 70
     1
102
RTVSPropertyOp51
 70
     0
102
RTVSPropertyOp52
 70
     0
102
RTVSPropertyOp53
 70
     1
102
RTVSPropertyOp54
 70
     1
102
RTVSPropertyOp55
 70
     1
102
RTVSPropertyOp56
 70
     1
102
RTVSPropertyOp57
 70
     1
102
RTVSPropertyOp58
 70
     1
102
RTVSPropertyOp59
 70
     1
102
RTVSPropertyOp60
 70
     1
102
RTVSPropertyOp61
 70
     1
102
RTVSPropertyOp62
 70
     1
  0
ENDSEC
  0
EOF
