  0
SECTION
  2
HEADER
  9
$ACADVER
  1
AC1018
  9
$ACADMAINTVER
 70
   104
  9
$DWGCODEPAGE
  3
ANSI_932
  9
$INSBASE
 10
0.0
 20
0.0
 30
0.0
  9
$EXTMIN
 10
1.431224836111226
 20
2.069256331859435
 30
-0.0000000349181948
  9
$EXTMAX
 10
51.43474739744582
 20
23.50227876063862
 30
0.0000000814935747
  9
$LIMMIN
 10
-4.557777115310443
 20
-2.426040120154084
  9
$LIMMAX
 10
54.38652134504469
 20
27.90088007164681
  9
$ORTHOMODE
 70
     0
  9
$REGENMODE
 70
     1
  9
$FILLMODE
 70
     1
  9
$QTEXTMODE
 70
     0
  9
$MIRRTEXT
 70
     0
  9
$LTSCALE
 40
1.0
  9
$ATTMODE
 70
     1
  9
$TEXTSIZE
 40
2.5
  9
$TRACEWID
 40
1.0
  9
$TEXTSTYLE
  7
Standard
  9
$CLAYER
  8
0
  9
$CELTYPE
  6
ByLayer
  9
$CECOLOR
 62
   256
  9
$CELTSCALE
 40
1.0
  9
$DISPSILH
 70
     0
  9
$DIMSCALE
 40
1.0
  9
$DIMASZ
 40
2.5
  9
$DIMEXO
 40
0.625
  9
$DIMDLI
 40
3.75
  9
$DIMRND
 40
0.0
  9
$DIMDLE
 40
0.0
  9
$DIMEXE
 40
1.25
  9
$DIMTP
 40
0.0
  9
$DIMTM
 40
0.0
  9
$DIMTXT
 40
2.5
  9
$DIMCEN
 40
2.5
  9
$DIMTSZ
 40
0.0
  9
$DIMTOL
 70
     0
  9
$DIMLIM
 70
     0
  9
$DIMTIH
 70
     0
  9
$DIMTOH
 70
     0
  9
$DIMSE1
 70
     0
  9
$DIMSE2
 70
     0
  9
$DIMTAD
 70
     1
  9
$DIMZIN
 70
     8
  9
$DIMBLK
  1

  9
$DIMASO
 70
     1
  9
$DIMSHO
 70
     1
  9
$DIMPOST
  1

  9
$DIMAPOST
  1

  9
$DIMALT
 70
     0
  9
$DIMALTD
 70
     3
  9
$DIMALTF
 40
0.03937007874016
  9
$DIMLFAC
 40
1.0
  9
$DIMTOFL
 70
     1
  9
$DIMTVP
 40
0.0
  9
$DIMTIX
 70
     0
  9
$DIMSOXD
 70
     0
  9
$DIMSAH
 70
     0
  9
$DIMBLK1
  1

  9
$DIMBLK2
  1

  9
$DIMSTYLE
  2
ISO-25
  9
$DIMCLRD
 70
     0
  9
$DIMCLRE
 70
     0
  9
$DIMCLRT
 70
     0
  9
$DIMTFAC
 40
1.0
  9
$DIMGAP
 40
0.625
  9
$DIMJUST
 70
     0
  9
$DIMSD1
 70
     0
  9
$DIMSD2
 70
     0
  9
$DIMTOLJ
 70
     0
  9
$DIMTZIN
 70
     8
  9
$DIMALTZ
 70
     0
  9
$DIMALTTZ
 70
     0
  9
$DIMUPT
 70
     0
  9
$DIMDEC
 70
     2
  9
$DIMTDEC
 70
     2
  9
$DIMALTU
 70
     2
  9
$DIMALTTD
 70
     3
  9
$DIMTXSTY
  7
Standard
  9
$DIMAUNIT
 70
     0
  9
$DIMADEC
 70
     0
  9
$DIMALTRND
 40
0.0
  9
$DIMAZIN
 70
     0
  9
$DIMDSEP
 70
    44
  9
$DIMATFIT
 70
     3
  9
$DIMFRAC
 70
     0
  9
$DIMLDRBLK
  1

  9
$DIMLUNIT
 70
     2
  9
$DIMLWD
 70
    -2
  9
$DIMLWE
 70
    -2
  9
$DIMTMOVE
 70
     0
  9
$LUNITS
 70
     2
  9
$LUPREC
 70
     4
  9
$SKETCHINC
 40
1.0
  9
$FILLETRAD
 40
0.0
  9
$AUNITS
 70
     0
  9
$AUPREC
 70
     0
  9
$MENU
  1
.
  9
$ELEVATION
 40
0.0
  9
$PELEVATION
 40
0.0
  9
$THICKNESS
 40
0.0
  9
$LIMCHECK
 70
     0
  9
$CHAMFERA
 40
0.0
  9
$CHAMFERB
 40
0.0
  9
$CHAMFERC
 40
0.0
  9
$CHAMFERD
 40
0.0
  9
$SKPOLY
 70
     0
  9
$TDCREATE
 40
2458205.383252315
  9
$TDUCREATE
 40
2458205.049918981
  9
$TDUPDATE
 40
2458940.403437500
  9
$TDUUPDATE
 40
2458940.070104167
  9
$TDINDWG
 40
0.0119212963
  9
$TDUSRTIMER
 40
0.0119212963
  9
$USRTIMER
 70
     1
  9
$ANGBASE
 50
0.0
  9
$ANGDIR
 70
     0
  9
$PDMODE
 70
     0
  9
$PDSIZE
 40
0.0
  9
$PLINEWID
 40
0.0
  9
$SPLFRAME
 70
     0
  9
$SPLINETYPE
 70
     6
  9
$SPLINESEGS
 70
     8
  9
$HANDSEED
  5
3D8
  9
$SURFTAB1
 70
     6
  9
$SURFTAB2
 70
     6
  9
$SURFTYPE
 70
     6
  9
$SURFU
 70
     6
  9
$SURFV
 70
     6
  9
$UCSBASE
  2

  9
$UCSNAME
  2

  9
$UCSORG
 10
0.0
 20
0.0
 30
0.0
  9
$UCSXDIR
 10
1.0
 20
0.0
 30
0.0
  9
$UCSYDIR
 10
0.0
 20
1.0
 30
0.0
  9
$UCSORTHOREF
  2

  9
$UCSORTHOVIEW
 70
     0
  9
$UCSORGTOP
 10
0.0
 20
0.0
 30
0.0
  9
$UCSORGBOTTOM
 10
0.0
 20
0.0
 30
0.0
  9
$UCSORGLEFT
 10
0.0
 20
0.0
 30
0.0
  9
$UCSORGRIGHT
 10
0.0
 20
0.0
 30
0.0
  9
$UCSORGFRONT
 10
0.0
 20
0.0
 30
0.0
  9
$UCSORGBACK
 10
0.0
 20
0.0
 30
0.0
  9
$PUCSBASE
  2

  9
$PUCSNAME
  2

  9
$PUCSORG
 10
0.0
 20
0.0
 30
0.0
  9
$PUCSXDIR
 10
1.0
 20
0.0
 30
0.0
  9
$PUCSYDIR
 10
0.0
 20
1.0
 30
0.0
  9
$PUCSORTHOREF
  2

  9
$PUCSORTHOVIEW
 70
     0
  9
$PUCSORGTOP
 10
0.0
 20
0.0
 30
0.0
  9
$PUCSORGBOTTOM
 10
0.0
 20
0.0
 30
0.0
  9
$PUCSORGLEFT
 10
0.0
 20
0.0
 30
0.0
  9
$PUCSORGRIGHT
 10
0.0
 20
0.0
 30
0.0
  9
$PUCSORGFRONT
 10
0.0
 20
0.0
 30
0.0
  9
$PUCSORGBACK
 10
0.0
 20
0.0
 30
0.0
  9
$USERI1
 70
     0
  9
$USERI2
 70
     0
  9
$USERI3
 70
     0
  9
$USERI4
 70
     0
  9
$USERI5
 70
     0
  9
$USERR1
 40
0.0
  9
$USERR2
 40
0.0
  9
$USERR3
 40
0.0
  9
$USERR4
 40
0.0
  9
$USERR5
 40
0.0
  9
$WORLDVIEW
 70
     1
  9
$SHADEDGE
 70
     3
  9
$SHADEDIF
 70
    70
  9
$TILEMODE
 70
     1
  9
$MAXACTVP
 70
    64
  9
$PINSBASE
 10
0.0
 20
0.0
 30
0.0
  9
$PLIMCHECK
 70
     0
  9
$PEXTMIN
 10
0.0
 20
0.0
 30
0.0
  9
$PEXTMAX
 10
0.0
 20
0.0
 30
0.0
  9
$PLIMMIN
 10
0.0
 20
0.0
  9
$PLIMMAX
 10
12.0
 20
9.0
  9
$UNITMODE
 70
     0
  9
$VISRETAIN
 70
     1
  9
$PLINEGEN
 70
     0
  9
$PSLTSCALE
 70
     1
  9
$TREEDEPTH
 70
  3020
  9
$CMLSTYLE
  2
Standard
  9
$CMLJUST
 70
     0
  9
$CMLSCALE
 40
20.0
  9
$PROXYGRAPHICS
 70
     1
  9
$MEASUREMENT
 70
     1
  9
$CELWEIGHT
370
    -1
  9
$ENDCAPS
280
     0
  9
$JOINSTYLE
280
     0
  9
$LWDISPLAY
290
     0
  9
$INSUNITS
 70
     4
  9
$HYPERLINKBASE
  1

  9
$STYLESHEET
  1

  9
$XEDIT
290
     1
  9
$CEPSNTYPE
380
     0
  9
$PSTYLEMODE
290
     1
  9
$FINGERPRINTGUID
  2
{AB3743A3-4437-8F44-BCEE-DABBCA0E59C6}
  9
$VERSIONGUID
  2
{E4E34434-2A0B-494C-9F7F-19ED59163D5C}
  9
$EXTNAMES
290
     1
  9
$PSVPSCALE
 40
0.0
  9
$OLESTARTUP
290
     0
  9
$SORTENTS
280
   127
  9
$INDEXCTL
280
     0
  9
$HIDETEXT
280
     1
  9
$XCLIPFRAME
290
     0
  9
$HALOGAP
280
     0
  9
$OBSCOLOR
 70
   257
  9
$OBSLTYPE
280
     0
  9
$INTERSECTIONDISPLAY
280
     0
  9
$INTERSECTIONCOLOR
 70
   257
  9
$DIMASSOC
280
     2
  9
$PROJECTNAME
  1

  0
ENDSEC
  0
SECTION
  2
CLASSES
  0
CLASS
  1
ACDBDICTIONARYWDFLT
  2
AcDbDictionaryWithDefault
  3
ObjectDBX Classes
 90
        0
 91
        1
280
     0
281
     0
  0
CLASS
  1
DICTIONARYVAR
  2
AcDbDictionaryVar
  3
ObjectDBX Classes
 90
        0
 91
       12
280
     0
281
     0
  0
CLASS
  1
TABLESTYLE
  2
AcDbTableStyle
  3
ObjectDBX Classes
 90
     4095
 91
        1
280
     0
281
     0
  0
CLASS
  1
MATERIAL
  2
AcDbMaterial
  3
ObjectDBX Classes
 90
     1153
 91
        3
280
     0
281
     0
  0
CLASS
  1
VISUALSTYLE
  2
AcDbVisualStyle
  3
ObjectDBX Classes
 90
     4095
 91
        3
280
     0
281
     0
  0
CLASS
  1
SCALE
  2
AcDbScale
  3
ObjectDBX Classes
 90
     1153
 91
       17
280
     0
281
     0
  0
CLASS
  1
MLEADERSTYLE
  2
AcDbMLeaderStyle
  3
ACDB_MLEADERSTYLE_CLASS
 90
     4095
 91
        0
280
     0
281
     0
  0
CLASS
  1
CELLSTYLEMAP
  2
AcDbCellStyleMap
  3
ObjectDBX Classes
 90
     1152
 91
        1
280
     0
281
     0
  0
CLASS
  1
EXACXREFPANELOBJECT
  2
ExAcXREFPanelObject
  3
EXAC_ESW
 90
     1025
 91
        0
280
     1
281
     0
  0
CLASS
  1
NPOCOLLECTION
  2
AcDbImpNonPersistentObjectsCollection
  3
ObjectDBX Classes
 90
     1153
 91
        0
280
     0
281
     0
  0
CLASS
  1
LAYER_INDEX
  2
AcDbLayerIndex
  3
ObjectDBX Classes
 90
        0
 91
        0
280
     0
281
     0
  0
CLASS
  1
SPATIAL_INDEX
  2
AcDbSpatialIndex
  3
ObjectDBX Classes
 90
        0
 91
        0
280
     0
281
     0
  0
CLASS
  1
IDBUFFER
  2
AcDbIdBuffer
  3
ObjectDBX Classes
 90
        0
 91
        0
280
     0
281
     0
  0
CLASS
  1
ACDBSECTIONVIEWSTYLE
  2
AcDbSectionViewStyle
  3
ObjectDBX Classes
 90
     1025
 91
        0
280
     0
281
     0
  0
CLASS
  1
ACDBDETAILVIEWSTYLE
  2
AcDbDetailViewStyle
  3
ObjectDBX Classes
 90
     1025
 91
        0
280
     0
281
     0
  0
CLASS
  1
SORTENTSTABLE
  2
AcDbSortentsTable
  3
ObjectDBX Classes
 90
        0
 91
        2
280
     0
281
     0
  0
CLASS
  1
DIMASSOC
  2
AcDbDimAssoc
  3
"AcDbDimAssoc|Product Desc:     AcDim ARX App For Dimension|Company:          Autodesk, Inc.|WEB Address:      www.autodesk.com"
 90
        0
 91
        0
280
     0
281
     0
  0
ENDSEC
  0
SECTION
  2
TABLES
  0
TABLE
  2
VPORT
  5
2A
330
0
100
AcDbSymbolTable
 70
     1
  0
VPORT
  5
2B
330
2A
100
AcDbSymbolTableRecord
100
AcDbViewportTableRecord
  2
*Active
 70
     0
 10
0.0
 20
0.0
 11
1.0
 21
1.0
 12
24.91437211486712
 22
12.73741997574636
 13
0.0
 23
0.0
 14
10.0
 24
10.0
 15
10.0
 25
10.0
 16
0.0
 26
0.0
 36
1.0
 17
0.0
 27
0.0
 37
0.0
 40
30.60054653939609
 41
2.396084337349397
 42
50.0
 43
0.0
 44
0.0
 50
0.0
 51
0.0
 71
     0
 72
  1000
 73
     1
 74
     3
 75
     0
 76
     1
 77
     0
 78
     0
281
     0
 65
     1
110
0.0
120
0.0
130
0.0
111
1.0
121
0.0
131
0.0
112
0.0
122
1.0
132
0.0
 79
     0
146
0.0
1001
ACAD_NAV_VCDISPLAY
1070
     3
  0
ENDTAB
  0
TABLE
  2
LTYPE
  5
25
330
0
100
AcDbSymbolTable
 70
     1
  0
LTYPE
  5
26
330
25
100
AcDbSymbolTableRecord
100
AcDbLinetypeTableRecord
  2
ByBlock
 70
     0
  3

 72
    65
 73
     0
 40
0.0
  0
LTYPE
  5
27
330
25
100
AcDbSymbolTableRecord
100
AcDbLinetypeTableRecord
  2
ByLayer
 70
     0
  3

 72
    65
 73
     0
 40
0.0
  0
LTYPE
  5
15
330
25
100
AcDbSymbolTableRecord
100
AcDbLinetypeTableRecord
  2
Continuous
 70
     0
  3
Solid line
 72
    65
 73
     0
 40
0.0
  0
ENDTAB
  0
TABLE
  2
LAYER
  5
1F
102
{ACAD_XDICTIONARY
360
20
102
}
330
0
100
AcDbSymbolTable
 70
     1
  0
LAYER
  5
6
102
{ACAD_XDICTIONARY
360
7
102
}
330
1F
100
AcDbSymbolTableRecord
100
AcDbLayerTableRecord
  2
0
 70
     0
 62
     7
  6
Continuous
370
    -3
390
8
  0
ENDTAB
  0
TABLE
  2
STYLE
  5
22
330
0
100
AcDbSymbolTable
 70
     1
  0
STYLE
  5
23
330
22
100
AcDbSymbolTableRecord
100
AcDbTextStyleTableRecord
  2
Standard
 70
     0
 40
0.0
 41
1.0
 50
0.0
 71
     0
 42
2.5
  3
arial.ttf
  4

1001
ACAD
1000
Arial
1071
       34
  0
ENDTAB
  0
TABLE
  2
VIEW
  5
28
330
0
100
AcDbSymbolTable
 70
     0
  0
ENDTAB
  0
TABLE
  2
UCS
  5
29
330
0
100
AcDbSymbolTable
 70
     0
  0
ENDTAB
  0
TABLE
  2
APPID
  5
2F
330
0
100
AcDbSymbolTable
 70
     3
  0
APPID
  5
14
330
2F
100
AcDbSymbolTableRecord
100
AcDbRegAppTableRecord
  2
ACAD
 70
     0
  0
APPID
  5
1A
330
2F
100
AcDbSymbolTableRecord
100
AcDbRegAppTableRecord
  2
ACAD_PSEXT
 70
     0
  0
APPID
  5
2E
330
2F
100
AcDbSymbolTableRecord
100
AcDbRegAppTableRecord
  2
ACAD_NAV_VCDISPLAY
 70
     0
  0
ENDTAB
  0
TABLE
  2
DIMSTYLE
  5
30
330
0
100
AcDbSymbolTable
 70
     1
100
AcDbDimStyleTable
 71
     1
340
31
  0
DIMSTYLE
105
31
330
30
100
AcDbSymbolTableRecord
100
AcDbDimStyleTableRecord
  2
ISO-25
 70
     0
 41
2.5
 42
0.625
 43
3.75
 44
1.25
 73
     0
 74
     0
 77
     1
 78
     8
140
2.5
141
2.5
143
0.03937007874016
147
0.625
171
     3
172
     1
271
     2
272
     2
274
     3
278
    44
283
     0
284
     8
340
23
  0
ENDTAB
  0
TABLE
  2
BLOCK_RECORD
  5
1
330
0
100
AcDbSymbolTable
 70
     0
  0
BLOCK_RECORD
  5
2
102
{ACAD_XDICTIONARY
360
3
102
}
330
1
100
AcDbSymbolTableRecord
100
AcDbBlockTableRecord
  2
*Model_Space
340
17
  0
BLOCK_RECORD
  5
1B
330
1
100
AcDbSymbolTableRecord
100
AcDbBlockTableRecord
  2
*Paper_Space
340
1E
  0
ENDTAB
  0
ENDSEC
  0
SECTION
  2
BLOCKS
  0
BLOCK
  5
5
330
2
100
AcDbEntity
  8
0
100
AcDbBlockBegin
  2
*Model_Space
 70
     0
 10
0.0
 20
0.0
 30
0.0
  3
*Model_Space
  1

  0
ENDBLK
  5
16
330
2
100
AcDbEntity
  8
0
100
AcDbBlockEnd
  0
BLOCK
  5
1C
330
1B
100
AcDbEntity
 67
     1
  8
0
100
AcDbBlockBegin
  2
*Paper_Space
 70
     0
 10
0.0
 20
0.0
 30
0.0
  3
*Paper_Space
  1

  0
ENDBLK
  5
1D
330
1B
100
AcDbEntity
 67
     1
  8
0
100
AcDbBlockEnd
  0
ENDSEC
  0
SECTION
  2
ENTITIES
  0
LINE
  5
58
330
2
100
AcDbEntity
  8
0
100
AcDbLine
 10
51.34125072443596
 20
17.28236628533655
 30
0.0
 11
51.37501098368757
 21
17.29908620258592
 31
0.0
  0
LINE
  5
59
330
2
100
AcDbEntity
  8
0
100
AcDbLine
 10
51.38904845404795
 20
17.62337030095483
 30
0.0
 11
50.37184593949713
 21
18.50429351934475
 31
0.0
  0
LINE
  5
5A
330
2
100
AcDbEntity
  8
0
100
AcDbLine
 10
32.40381209794166
 20
18.50429351934475
 30
0.0
 11
31.38660958339085
 21
17.62337030095483
 31
0.0
  0
LINE
  5
5B
330
2
100
AcDbEntity
  8
0
100
AcDbLine
 10
31.40064705375113
 20
17.29908620258592
 30
0.0
 11
31.43440731300284
 21
17.28236628533655
 31
0.0
  0
LINE
  5
5C
330
2
100
AcDbEntity
  8
0
100
AcDbLine
 10
39.23972253773163
 20
22.31556328436331
 30
0.0
 11
39.23972253773163
 21
18.92536592424707
 31
0.0
  0
SPLINE
  5
5D
330
2
100
AcDbEntity
  8
0
100
AcDbSpline
210
0.0
220
0.0
230
1.0
 70
     8
 71
     3
 72
    12
 73
     8
 74
     0
 42
0.000000001
 43
0.0000000001
 40
0.0
 40
0.0
 40
0.0
 40
0.0
 40
0.1814292812455417
 40
0.4157921650614981
 40
0.6513173281689703
 40
0.8893818971947931
 40
1.0
 40
1.0
 40
1.0
 40
1.0
 10
41.17713932147779
 20
23.33097048727505
 30
0.0
 10
41.14819053880952
 20
23.34942087847803
 30
0.0
 10
41.08887710522028
 20
23.39434409641431
 30
0.0
 10
40.97522362319241
 20
23.43314513363868
 30
0.0
 10
40.8430255847294
 20
23.44916429931264
 30
0.0
 10
40.72838041753652
 20
23.43882535361891
 30
0.0
 10
40.65996579325807
 20
23.42099494150606
 30
0.0
 10
40.638261543081
 20
23.41533831868109
 30
0.0
  0
LINE
  5
5E
330
2
100
AcDbEntity
  8
0
100
AcDbLine
 10
41.21758298524392
 20
23.29649492234517
 30
0.0
 11
41.19215292238016
 21
23.31851800279009
 31
0.0
  0
SPLINE
  5
5F
330
2
100
AcDbEntity
  8
0
100
AcDbSpline
210
0.0
220
0.0
230
1.0
 70
     8
 71
     3
 72
    16
 73
    12
 74
     0
 42
0.000000001
 43
0.0000000001
 40
0.0
 40
0.0
 40
0.0
 40
0.0
 40
0.0698495378242813
 40
0.1990379081207492
 40
0.3285182403160749
 40
0.4581529125746114
 40
0.587925197279928
 40
0.7178828956211265
 40
0.8480723407691126
 40
0.9707891010511591
 40
1.0
 40
1.0
 40
1.0
 40
1.0
 10
39.9335229683656
 20
23.21189781577099
 30
0.0
 10
39.9078958254039
 20
23.20365729028457
 30
0.0
 10
39.83487067613192
 20
23.18017571824121
 30
0.0
 10
39.71715961211
 20
23.12002549365443
 30
0.0
 10
39.58759891721891
 20
23.02600983217278
 30
0.0
 10
39.47235973765033
 20
22.91073806849208
 30
0.0
 10
39.3760362991755
 20
22.7792136508663
 30
0.0
 10
39.30242727991359
 20
22.63631825221079
 30
0.0
 10
39.25584363946123
 20
22.49053721484579
 30
0.0
 10
39.24068229877735
 20
22.38289945909193
 30
0.0
 10
39.23987731141872
 20
22.32642209992659
 30
0.0
 10
39.23972253772904
 20
22.31556328435718
 30
0.0
  0
LINE
  5
60
330
2
100
AcDbEntity
  8
0
100
AcDbLine
 10
40.63826154309097
 20
23.41533831869117
 30
0.0
 11
40.37398457756783
 21
23.33904813009982
 31
0.0
  0
LINE
  5
61
330
2
100
AcDbEntity
  8
0
100
AcDbLine
 10
40.37398457756783
 20
23.33904813009982
 30
0.0
 11
39.93352296836271
 21
23.21189781578107
 31
0.0
  0
LINE
  5
62
330
2
100
AcDbEntity
  8
0
100
AcDbLine
 10
43.57036345813518
 20
18.91876855663161
 30
0.0
 11
43.57036345813518
 21
22.81692689929988
 31
0.0
  0
LINE
  5
63
330
2
100
AcDbEntity
  8
0
100
AcDbLine
 10
38.58766988511565
 20
21.86305493157817
 30
0.0
 11
38.58766988511565
 21
18.72663131741239
 31
0.0
  0
SPLINE
  5
64
330
2
100
AcDbEntity
  8
0
100
AcDbSpline
210
0.0
220
0.0
230
1.0
 70
     8
 71
     3
 72
    12
 73
     8
 74
     0
 42
0.000000001
 43
0.0000000001
 40
0.0
 40
0.0
 40
0.0
 40
0.0
 40
0.1814292812455437
 40
0.4157921650615009
 40
0.6513173281689825
 40
0.8893818971948025
 40
1.0
 40
1.0
 40
1.0
 40
1.0
 10
42.28386550720551
 20
23.38591171293754
 30
0.0
 10
42.25798432297799
 20
23.40551378297703
 30
0.0
 10
42.19867088938865
 20
23.45043700091331
 30
0.0
 10
42.08501740736078
 20
23.48923803813768
 30
0.0
 10
41.95281936889777
 20
23.50525720381164
 30
0.0
 10
41.8381742017049
 20
23.49491825811781
 30
0.0
 10
41.76975957742654
 20
23.47708784600506
 30
0.0
 10
41.74805532724947
 20
23.47143122318009
 30
0.0
  0
LINE
  5
65
330
2
100
AcDbEntity
  8
0
100
AcDbLine
 10
42.34009180083972
 20
23.34157628661293
 30
0.0
 11
42.30194670654404
 21
23.37461090730078
 31
0.0
  0
LINE
  5
66
330
2
100
AcDbEntity
  8
0
100
AcDbLine
 10
43.38813622420842
 20
23.24770520331216
 30
0.0
 11
43.33842279028185
 21
23.28450310584538
 31
0.0
  0
SPLINE
  5
67
330
2
100
AcDbEntity
  8
0
100
AcDbSpline
210
0.0
220
0.0
230
1.0
 70
     8
 71
     3
 72
    11
 73
     7
 74
     0
 42
0.000000001
 43
0.0000000001
 40
0.0
 40
0.0
 40
0.0
 40
0.0
 40
0.1545073475750386
 40
0.4388240648005334
 40
0.7213350165583254
 40
1.0
 40
1.0
 40
1.0
 40
1.0
 10
43.5703634581397
 20
22.81692689930333
 30
0.0
 10
43.56951515237344
 20
22.8428016997556
 30
0.0
 10
43.56710583663278
 20
22.91629001787503
 30
0.0
 10
43.54003285500919
 20
23.02992985577981
 30
0.0
 10
43.48291720476757
 20
23.15024996768197
 30
0.0
 10
43.42336832995805
 20
23.21204144174229
 30
0.0
 10
43.38813622420842
 20
23.24770520331216
 30
0.0
  0
LINE
  5
68
330
2
100
AcDbEntity
  8
0
100
AcDbLine
 10
41.74805532725485
 20
23.47143122318153
 30
0.0
 11
41.19870179016433
 21
23.31284651693161
 31
0.0
  0
LINE
  5
69
330
2
100
AcDbEntity
  8
0
100
AcDbLine
 10
39.38952174190946
 20
22.7905812229945
 30
0.0
 11
39.28147031574684
 21
22.75938946299593
 31
0.0
  0
SPLINE
  5
6A
330
2
100
AcDbEntity
  8
0
100
AcDbSpline
210
0.0
220
0.0
230
1.0
 70
     8
 71
     3
 72
    16
 73
    12
 74
     0
 42
0.000000001
 43
0.0000000001
 40
0.0
 40
0.0
 40
0.0
 40
0.0
 40
0.0698495378242814
 40
0.1990379081207496
 40
0.3285182403160749
 40
0.4581529125746114
 40
0.5879251972799282
 40
0.7178828956211269
 40
0.8480723407691128
 40
0.9707891010511616
 40
1.0
 40
1.0
 40
1.0
 40
1.0
 10
39.28147031574502
 20
22.75938946299449
 30
0.0
 10
39.25584317278333
 20
22.75114893750815
 30
0.0
 10
39.18281802351135
 20
22.72766736546482
 30
0.0
 10
39.06510695948952
 20
22.66751714087793
 30
0.0
 10
38.93554626459843
 20
22.57350147939636
 30
0.0
 10
38.82030708502986
 20
22.45822971571566
 30
0.0
 10
38.72398364655504
 20
22.3267052980898
 30
0.0
 10
38.65037462729321
 20
22.18380989943439
 30
0.0
 10
38.60379098684075
 20
22.03802886206929
 30
0.0
 10
38.58862964615688
 20
21.93039110631552
 30
0.0
 10
38.58782465879823
 20
21.87391374715017
 30
0.0
 10
38.58766988510856
 20
21.86305493158076
 30
0.0
  0
LINE
  5
6B
330
2
100
AcDbEntity
  8
0
100
AcDbLine
 10
44.36719364446366
 20
22.39981660561008
 30
0.0
 11
44.32904855016798
 21
22.43285122629793
 31
0.0
  0
LINE
  5
6C
330
2
100
AcDbEntity
  8
0
100
AcDbLine
 10
44.31963741443425
 20
18.6764835561831
 30
0.0
 11
44.31963741443425
 21
22.2697568702071
 31
0.0
  0
SPLINE
  5
6D
330
2
100
AcDbEntity
  8
0
100
AcDbSpline
210
0.0
220
0.0
230
1.0
 70
     8
 71
     3
 72
    10
 73
     6
 74
     0
 42
0.000000001
 43
0.0000000001
 40
0.0
 40
0.0
 40
0.0
 40
0.0
 40
0.3436729590918618
 40
0.787615553304788
 40
1.0
 40
1.0
 40
1.0
 40
1.0
 10
43.74094563666889
 20
23.04333386558274
 30
0.0
 10
43.71194183344343
 20
23.06158962028389
 30
0.0
 10
43.652502306026
 20
23.1060667782698
 30
0.0
 10
43.56132329373266
 20
23.14084362133065
 30
0.0
 10
43.49621808141115
 20
23.14667305858785
 30
0.0
 10
43.47515033068025
 20
23.14855943798297
 30
0.0
  0
LINE
  5
6E
330
2
100
AcDbEntity
  8
0
100
AcDbLine
 10
43.79410433184659
 20
22.99784676043036
 30
0.0
 11
43.75595923755102
 21
23.03088138111822
 31
0.0
  0
LINE
  5
6F
330
2
100
AcDbEntity
  8
0
100
AcDbLine
 10
44.14307190525396
 20
22.69555540855148
 30
0.0
 11
43.79410433210067
 21
22.99784676018999
 31
0.0
  0
SPLINE
  5
70
330
2
100
AcDbEntity
  8
0
100
AcDbSpline
210
0.0
220
0.0
230
1.0
 70
     8
 71
     3
 72
    11
 73
     7
 74
     0
 42
0.000000001
 43
0.0000000001
 40
0.0
 40
0.0
 40
0.0
 40
0.0
 40
0.1545073475750343
 40
0.4388240648005354
 40
0.7213350165583243
 40
1.0
 40
1.0
 40
1.0
 40
1.0
 10
44.31963741443722
 20
22.26975687021065
 30
0.0
 10
44.31878910867086
 20
22.29563167066301
 30
0.0
 10
44.3163797929302
 20
22.36911998878245
 30
0.0
 10
44.28930681130661
 20
22.48275982668722
 30
0.0
 10
44.23219116106499
 20
22.60307993858939
 30
0.0
 10
44.17264228625557
 20
22.6648714126497
 30
0.0
 10
44.14307190525396
 20
22.69555540855148
 30
0.0
  0
LINE
  5
71
330
2
100
AcDbEntity
  8
0
100
AcDbLine
 10
35.69876645466524
 20
13.05613295917455
 30
0.0
 11
35.70943206496175
 21
12.95069188579491
 31
0.0
  0
LINE
  5
72
330
2
100
AcDbEntity
  8
0
100
AcDbLine
 10
47.06622597249729
 20
12.95069188579491
 30
0.0
 11
47.07689158279381
 21
13.05613295917455
 31
0.0
  0
SPLINE
  5
73
330
2
100
AcDbEntity
  8
0
100
AcDbSpline
210
0.0
220
0.0
230
1.0
 70
     8
 71
     3
 72
     9
 73
     5
 74
     0
 42
0.000000001
 43
0.0000000001
 40
0.0
 40
0.0
 40
0.0
 40
0.0
 40
0.2498542969126537
 40
1.0
 40
1.0
 40
1.0
 40
1.0
 10
44.96420768446519
 20
16.80901294763909
 30
0.0
 10
44.95011792996602
 20
16.945744507123
 30
0.0
 10
44.89372604608319
 20
17.49298968630729
 30
0.0
 10
44.83488722823627
 20
18.0394213494708
 30
0.0
 10
44.79074954185374
 20
18.44932471362378
 30
0.0
  0
SPLINE
  5
74
330
2
100
AcDbEntity
  8
0
100
AcDbSpline
210
0.0
220
0.0
230
1.0
 70
     8
 71
     3
 72
     9
 73
     5
 74
     0
 42
0.000000001
 43
0.0000000001
 40
0.0
 40
0.0
 40
0.0
 40
0.0
 40
0.2406360407857041
 40
1.0
 40
1.0
 40
1.0
 40
1.0
 10
37.98487913605255
 20
18.44935018442322
 30
0.0
 10
37.97062123056845
 20
18.31789171783155
 30
0.0
 10
37.91137031604355
 20
17.77159588383062
 30
0.0
 10
37.85458630133567
 20
17.22447574905215
 30
0.0
 10
37.8114665671071
 20
16.80901243734089
 30
0.0
  0
LINE
  5
75
330
2
100
AcDbEntity
  8
0
100
AcDbLine
 10
44.96558276918352
 20
16.72409527277632
 30
0.0
 11
44.96420768446519
 21
16.80901294763909
 31
0.0
  0
LINE
  5
76
330
2
100
AcDbEntity
  8
0
100
AcDbLine
 10
37.8114665671071
 20
16.80901243734089
 30
0.0
 11
37.8100659652042
 21
16.72408996842052
 31
0.0
  0
LINE
  5
77
330
2
100
AcDbEntity
  8
0
100
AcDbLine
 10
36.65800698346493
 20
16.84062364330617
 30
0.0
 11
36.64207481186908
 21
15.90011652499329
 31
0.0
  0
LINE
  5
78
330
2
100
AcDbEntity
  8
0
100
AcDbLine
 10
46.13358322558996
 20
15.90011652499329
 30
0.0
 11
46.11765105399422
 21
16.84062364330617
 31
0.0
  0
LINE
  5
79
330
2
100
AcDbEntity
  8
0
100
AcDbLine
 10
37.0839941097717
 20
15.95454352284921
 30
0.0
 11
36.94613977355505
 21
15.99433864191154
 31
0.0
  0
LINE
  5
7A
330
2
100
AcDbEntity
  8
0
100
AcDbLine
 10
45.82947556794745
 20
15.99432631665178
 30
0.0
 11
45.69166392766709
 21
15.95454352284921
 31
0.0
  0
LINE
  5
7B
330
2
100
AcDbEntity
  8
0
100
AcDbLine
 10
37.19790695632823
 20
17.36692383517342
 30
0.0
 11
36.84944668025064
 21
17.46751565226622
 31
0.0
  0
LINE
  5
7C
330
2
100
AcDbEntity
  8
0
100
AcDbLine
 10
45.92621135720841
 20
17.46751565226622
 30
0.0
 11
45.57775108111046
 21
17.36692383517342
 31
0.0
  0
LINE
  5
7D
330
2
100
AcDbEntity
  8
0
100
AcDbLine
 10
40.37062650417872
 20
10.13965371877987
 30
0.0
 11
40.37062650417872
 21
9.91434396712372
 31
0.0
  0
LWPOLYLINE
  5
7E
330
2
100
AcDbEntity
  8
0
100
AcDbPolyline
 90
        8
 70
   128
 43
0.0
 10
40.55201874614728
 20
10.28458408664231
 10
40.52548636605798
 20
10.27394575313877
 10
40.47859211561763
 20
10.25245389789799
 10
40.4399471745368
 20
10.2304790149698
 10
40.40971702634531
 20
10.20811520419215
 10
40.38803112121192
 20
10.18545823082837
 10
40.37498232150698
 20
10.16260511551181
 10
40.37062650417872
 20
10.13965371877987
  0
LWPOLYLINE
  5
7F
330
2
100
AcDbEntity
  8
0
100
AcDbPolyline
 90
        8
 70
   128
 43
0.0
 10
42.40503153328043
 20
10.13965371877987
 10
42.40067571595215
 20
10.16260511551181
 10
42.38762691622687
 20
10.18545823082837
 10
42.36594101109338
 20
10.20811520419215
 10
42.33571086292223
 20
10.2304790149698
 10
42.29706592182107
 20
10.25245389789799
 10
42.25017167140117
 20
10.27394575313877
 10
42.22453852683998
 20
10.28422353219262
  0
LINE
  5
80
330
2
100
AcDbEntity
  8
0
100
AcDbLine
 10
42.40503153328043
 20
10.13965371877987
 30
0.0
 11
42.40503153328043
 21
9.91434396712372
 31
0.0
  0
ARC
  5
81
330
2
100
AcDbEntity
  8
0
100
AcDbCircle
 10
41.9112083671015
 20
9.765713432143426
 30
0.0
 40
0.4940733064925512
100
AcDbArc
 50
268.2859860206984
 51
358.1767252639003
  0
LINE
  5
82
330
2
100
AcDbEntity
  8
0
100
AcDbLine
 10
41.89643027600502
 20
9.271861186809655
 30
0.0
 11
40.87922776145411
 21
9.271861186809655
 31
0.0
  0
ARC
  5
83
330
2
100
AcDbEntity
  8
0
100
AcDbCircle
 10
40.86444967033721
 20
9.765713432143426
 30
0.0
 40
0.4940733064925654
100
AcDbArc
 50
181.8232747360996
 51
271.7140139792983
  0
LINE
  5
84
330
2
100
AcDbEntity
  8
0
100
AcDbLine
 10
40.37062650417872
 20
9.779470132495701
 30
0.0
 11
40.37062650417872
 21
9.749993612029385
 31
0.0
  0
LINE
  5
85
330
2
100
AcDbEntity
  8
0
100
AcDbLine
 10
42.40503153328043
 20
9.779470132495701
 30
0.0
 11
42.40503153328043
 21
9.749993612029385
 31
0.0
  0
LINE
  5
86
330
2
100
AcDbEntity
  8
0
100
AcDbLine
 10
40.37062650417872
 20
9.91434396712372
 30
0.0
 11
40.37062650417872
 21
9.779470132495701
 31
0.0
  0
LINE
  5
87
330
2
100
AcDbEntity
  8
0
100
AcDbLine
 10
42.40503153328043
 20
9.91434396712372
 30
0.0
 11
42.40503153328043
 21
9.779470132495701
 31
0.0
  0
LINE
  5
88
330
2
100
AcDbEntity
  8
0
100
AcDbLine
 10
33.59644704795558
 20
17.76811165444205
 30
0.0
 11
32.5339257635911
 21
18.46297232711459
 31
0.0
  0
LINE
  5
89
330
2
100
AcDbEntity
  8
0
100
AcDbLine
 10
34.45778050018184
 20
16.93424681680123
 30
0.0
 11
35.09851793463627
 21
16.51522156878001
 31
0.0
  0
LINE
  5
8A
330
2
100
AcDbEntity
  8
0
100
AcDbLine
 10
34.43733630017816
 20
15.94262147682347
 30
0.0
 11
33.8131477324347
 21
16.35082420597024
 31
0.0
  0
ARC
  5
8B
330
2
100
AcDbEntity
  8
0
100
AcDbCircle
 10
33.3708720942708
 20
15.67071179169579
 30
0.0
 40
0.8112710004513893
100
AcDbArc
 50
56.96413735990271
 51
75.62988647089783
  0
LINE
  5
8C
330
2
100
AcDbEntity
  8
0
100
AcDbLine
 10
33.5722170821646
 20
16.45660035379251
 30
0.0
 11
33.54296713454591
 21
16.46408384480399
 31
0.0
  0
ARC
  5
8D
330
2
100
AcDbEntity
  8
0
100
AcDbCircle
 10
34.34834708608072
 20
19.60763809317053
 30
0.0
 40
3.245084001807665
100
AcDbArc
 50
236.9641373599995
 51
255.6298864708974
  0
LINE
  5
8E
330
2
100
AcDbEntity
  8
0
100
AcDbLine
 10
32.57924453340468
 20
16.88718843605204
 30
0.0
 11
31.71298624692941
 21
17.45369832578966
 31
0.0
  0
ARC
  5
8F
330
2
100
AcDbEntity
  8
0
100
AcDbCircle
 10
31.1942258927251
 20
18.64009662854569
 30
0.0
 40
1.240657727593904
100
AcDbArc
 50
315.6185138917995
 51
349.0309109471987
  0
LWPOLYLINE
  5
90
330
2
100
AcDbEntity
  8
0
100
AcDbPolyline
 90
        9
 70
   128
 43
0.0
 10
32.5339257635911
 20
18.46297232711459
 10
32.51530012717545
 20
18.47292989624736
 10
32.4961245237417
 20
18.47890631809911
 10
32.47730803004554
 20
18.48061826256651
 10
32.45974269810736
 20
18.47798456980752
 10
32.44426126497692
 20
18.47113009791114
 10
32.43159767418827
 20
18.46037980353188
 10
32.4223522811067
 20
18.44624333654083
 10
32.41696339113469
 20
18.42939087831247
  0
LINE
  5
91
330
2
100
AcDbEntity
  8
0
100
AcDbLine
 10
32.41696339113469
 20
18.42939087831247
 30
0.0
 11
32.41221678083496
 21
18.40402504295816
 31
0.0
  0
LINE
  5
92
330
2
100
AcDbEntity
  8
0
100
AcDbLine
 10
31.57232112954663
 20
17.33187876071027
 30
0.0
 11
32.08092238682193
 21
17.77234036989515
 31
0.0
  0
ARC
  5
93
330
2
100
AcDbEntity
  8
0
100
AcDbCircle
 10
35.22736834384743
 20
13.77925637173074
 30
0.0
 40
2.509014431178406
100
AcDbArc
 50
34.10418955589992
 51
68.35791659619861
  0
LINE
  5
94
330
2
100
AcDbEntity
  8
0
100
AcDbLine
 10
35.14340942845242
 20
16.49225508404597
 30
0.0
 11
36.15271135383772
 21
16.11139996288487
 31
0.0
  0
ARC
  5
95
330
2
100
AcDbEntity
  8
0
100
AcDbCircle
 10
35.22590737782522
 20
16.70886677093412
 30
0.0
 40
0.2317898499698648
100
AcDbArc
 50
236.6610925817996
 51
249.1503439898009
  0
LWPOLYLINE
  5
96
330
2
100
AcDbEntity
  8
0
100
AcDbPolyline
 90
        5
 70
   128
 43
0.0
 10
31.57232112954663
 20
17.33187876071027
 10
31.52418895162089
 20
17.2968198328238
 10
31.48086529352383
 20
17.27892014131265
 10
31.4440150591517
 20
17.27886756123995
 10
31.43440731300284
 20
17.28236628533655
  0
LINE
  5
97
330
2
100
AcDbEntity
  8
0
100
AcDbLine
 10
35.49152971937961
 20
15.53879987092834
 30
0.0
 11
34.48222779399432
 21
15.91965499208944
 31
0.0
  0
ARC
  5
98
330
2
100
AcDbEntity
  8
0
100
AcDbCircle
 10
34.56472574336711
 20
16.1362666789775
 30
0.0
 40
0.2317898499700111
100
AcDbArc
 50
236.6610925817996
 51
249.1503439898009
  0
ARC
  5
99
330
2
100
AcDbEntity
  8
0
100
AcDbCircle
 10
34.58943261283888
 20
13.2395024639811
 30
0.0
 40
2.469928694345749
100
AcDbArc
 50
36.76938027300114
 51
68.57813619359872
  0
LWPOLYLINE
  5
9A
330
2
100
AcDbEntity
  8
0
100
AcDbPolyline
 90
       17
 70
   128
 43
0.0
 10
49.97656391150471
 20
17.78706161605314
 10
50.04096857302402
 20
17.7552199655105
 10
50.12706089422899
 20
17.74882129677137
 10
50.22173409969305
 20
17.76883974912262
 10
50.31057505206866
 20
17.8122276946831
 10
50.38005852172214
 20
17.87237971205702
 10
50.41960628024384
 20
17.94013820185383
 10
50.42319753990422
 20
18.00518754824094
 10
50.39028556399489
 20
18.05762457792584
 10
50.32588090249592
 20
18.08946622846848
 10
50.2397885812707
 20
18.09586489720761
 10
50.14511537580665
 20
18.07584644483602
 10
50.05627442343094
 20
18.03245849927545
 10
49.9867909537978
 20
17.97230648192197
 10
49.94724319527611
 20
17.90454799212517
 10
49.94365193559539
 20
17.83949864573806
 10
49.97656391150471
 20
17.78706161605314
  0
LINE
  5
9B
330
2
100
AcDbEntity
  8
0
100
AcDbLine
 10
50.19641350405438
 20
16.88718843605204
 30
0.0
 11
51.06267179052984
 21
17.45369832578966
 31
0.0
  0
LINE
  5
9C
330
2
100
AcDbEntity
  8
0
100
AcDbLine
 10
48.97905917111765
 20
16.36164672445599
 30
0.0
 11
48.33832173726053
 21
15.94262147682347
 31
0.0
  0
LINE
  5
9D
330
2
100
AcDbEntity
  8
0
100
AcDbLine
 10
47.67714010280253
 20
16.51522156878001
 30
0.0
 11
48.30132867054599
 21
16.92342429792676
 31
0.0
  0
ARC
  5
9E
330
2
100
AcDbEntity
  8
0
100
AcDbCircle
 10
47.97668418995993
 20
17.43682312726657
 30
0.0
 40
0.6074309810476701
100
AcDbArc
 50
302.3069534488992
 51
324.9765156397007
  0
LINE
  5
9F
330
2
100
AcDbEntity
  8
0
100
AcDbLine
 10
48.47411967276607
 20
17.08821111197728
 30
0.0
 11
48.4880469806841
 21
17.10896439821995
 31
0.0
  0
ARC
  5
A0
330
2
100
AcDbEntity
  8
0
100
AcDbCircle
 10
50.47778891184773
 20
15.71451633710314
 30
0.0
 40
2.429723924190586
100
AcDbArc
 50
122.3069534489021
 51
144.9765156396011
  0
LINE
  5
A1
330
2
100
AcDbEntity
  8
0
100
AcDbLine
 10
49.17921098950357
 20
17.76811165444205
 30
0.0
 11
50.24173227386803
 21
18.46297232711459
 31
0.0
  0
ARC
  5
A2
330
2
100
AcDbEntity
  8
0
100
AcDbCircle
 10
51.58143214473393
 20
18.64009662854569
 30
0.0
 40
1.240657727593618
100
AcDbArc
 50
190.969089052798
 51
224.3814861082004
  0
LWPOLYLINE
  5
A3
330
2
100
AcDbEntity
  8
0
100
AcDbPolyline
 90
        9
 70
   128
 43
0.0
 10
50.24173227386803
 20
18.46297232711459
 10
50.26035791028359
 20
18.47292989624736
 10
50.27953351369701
 20
18.47890631809911
 10
50.2983500074135
 20
18.48061826256651
 10
50.31591533933143
 20
18.47798456980752
 10
50.3313967724619
 20
18.47113009791114
 10
50.34406036325053
 20
18.46037980353188
 10
50.35330575635243
 20
18.44624333654083
 10
50.35869464630401
 20
18.42939087831247
  0
LINE
  5
A4
330
2
100
AcDbEntity
  8
0
100
AcDbLine
 10
50.35869464630401
 20
18.42939087831247
 30
0.0
 11
50.36344125662417
 21
18.40402504295816
 31
0.0
  0
LINE
  5
A5
330
2
100
AcDbEntity
  8
0
100
AcDbLine
 10
50.69473565063712
 20
17.77234036989515
 30
0.0
 11
51.20333690791262
 21
17.33187876071027
 31
0.0
  0
ARC
  5
A6
330
2
100
AcDbEntity
  8
0
100
AcDbCircle
 10
47.54975065963392
 20
16.70886677093412
 30
0.0
 40
0.2317898499711544
100
AcDbArc
 50
290.8496560101992
 51
303.3389074182005
  0
LINE
  5
A7
330
2
100
AcDbEntity
  8
0
100
AcDbLine
 10
46.62294668362149
 20
16.11139996288487
 30
0.0
 11
47.63224860900671
 21
16.49225508404597
 31
0.0
  0
ARC
  5
A8
330
2
100
AcDbEntity
  8
0
100
AcDbCircle
 10
47.54828969359137
 20
13.77925637173074
 30
0.0
 40
2.509014431178452
100
AcDbArc
 50
111.6420834038014
 51
145.8958104441001
  0
LWPOLYLINE
  5
A9
330
2
100
AcDbEntity
  8
0
100
AcDbPolyline
 90
        5
 70
   128
 43
0.0
 10
51.34125072443596
 20
17.28236628533655
 10
51.33164297828701
 20
17.27886756123995
 10
51.29479274391488
 20
17.27892014131265
 10
51.25146908583814
 20
17.2968198328238
 10
51.20333690791262
 20
17.33187876071027
  0
LINE
  5
AA
330
2
100
AcDbEntity
  8
0
100
AcDbLine
 10
48.29343024346473
 20
15.91965499208944
 30
0.0
 11
47.28412831807951
 21
15.53879987092834
 31
0.0
  0
ARC
  5
AB
330
2
100
AcDbEntity
  8
0
100
AcDbCircle
 10
48.21093229409203
 20
16.1362666789775
 30
0.0
 40
0.2317898499700357
100
AcDbArc
 50
290.8496560101992
 51
303.3389074182005
  0
ARC
  5
AC
330
2
100
AcDbEntity
  8
0
100
AcDbCircle
 10
48.20418383194925
 20
13.21595106924742
 30
0.0
 40
2.498425244839489
100
AcDbArc
 50
111.6079876271994
 51
143.0444959061995
  0
LWPOLYLINE
  5
AD
330
2
100
AcDbEntity
  8
0
100
AcDbPolyline
 90
       17
 70
   128
 43
0.0
 10
49.85266767469921
 20
17.16488545383205
 10
49.91707233621842
 20
17.13304380330965
 10
50.00316465744374
 20
17.12664513455018
 10
50.09783786288745
 20
17.14666358692187
 10
50.1866788152834
 20
17.19005153248235
 10
50.25616228491654
 20
17.25020354983582
 10
50.29571004343823
 20
17.31796203963272
 10
50.29930130311906
 20
17.38301138604017
 10
50.26638932720972
 20
17.43544841570464
 10
50.20198466569041
 20
17.46729006624739
 10
50.11589234446501
 20
17.47368873498652
 10
50.0212191390214
 20
17.45367028263517
 10
49.93237818664578
 20
17.41028233707469
 10
49.8628947169923
 20
17.35013031972122
 10
49.82334695847061
 20
17.28237182992442
 10
49.8197556987899
 20
17.21732248351695
 10
49.85266767469921
 20
17.16488545383205
  0
LWPOLYLINE
  5
AE
330
2
100
AcDbEntity
  8
0
100
AcDbPolyline
 90
       17
 70
   128
 43
0.0
 10
49.00018081162633
 20
17.14853302603458
 10
49.06458547312528
 20
17.11669137549183
 10
49.15067779435061
 20
17.1102927067528
 10
49.24535099981456
 20
17.13031115910405
 10
49.33419195219027
 20
17.17369910466453
 10
49.4036754218234
 20
17.23385112203835
 10
49.44322318036536
 20
17.30160961183525
 10
49.44681444002572
 20
17.36665895822226
 10
49.41390246411649
 20
17.41909598790717
 10
49.34949780261763
 20
17.45093763844991
 10
49.26340548139221
 20
17.45733630718905
 10
49.16873227592826
 20
17.43731785481745
 10
49.07989132355255
 20
17.39392990927721
 10
49.01040785391941
 20
17.3337778919034
 10
48.97086009537737
 20
17.2660194021065
 10
48.96726883571699
 20
17.20097005571948
 10
49.00018081162633
 20
17.14853302603458
  0
LINE
  5
AF
330
2
100
AcDbEntity
  8
0
100
AcDbLine
 10
50.21296237015641
 20
16.89801095453597
 30
0.0
 11
51.06267179052984
 21
17.45369832578966
 31
0.0
  0
ARC
  5
B0
330
2
100
AcDbEntity
  8
0
100
AcDbCircle
 10
48.44385981746011
 20
19.61846061163402
 30
0.0
 40
3.245084001807528
100
AcDbArc
 50
284.3701135291021
 51
303.0358626400973
  0
LINE
  5
B1
330
2
100
AcDbEntity
  8
0
100
AcDbLine
 10
49.24923976901516
 20
16.47490636326749
 30
0.0
 11
49.21998982139657
 21
16.467422872256
 31
0.0
  0
ARC
  5
B2
330
2
100
AcDbEntity
  8
0
100
AcDbCircle
 10
49.42133480929038
 20
15.68153431017963
 30
0.0
 40
0.8112710004517683
100
AcDbArc
 50
104.3701135291021
 51
123.0358626400005
  0
ARC
  5
B3
330
2
100
AcDbEntity
  8
0
100
AcDbCircle
 10
51.6248001501345
 20
18.66031526987141
 30
0.0
 40
1.240657727593913
100
AcDbArc
 50
190.969089052798
 51
224.3814861082004
  0
LINE
  5
B4
330
2
100
AcDbEntity
  8
0
100
AcDbLine
 10
50.40206265170468
 20
18.44960951963809
 30
0.0
 11
50.40680926202476
 21
18.42424368428388
 31
0.0
  0
LINE
  5
B5
330
2
100
AcDbEntity
  8
0
100
AcDbLine
 10
51.41926516625549
 20
17.56868630124817
 30
0.0
 11
51.42401177657556
 21
17.54332046589397
 31
0.0
  0
LWPOLYLINE
  5
B6
330
2
100
AcDbEntity
  8
0
100
AcDbPolyline
 90
        9
 70
   128
 43
0.0
 10
51.2467049133132
 20
17.35209740203598
 10
51.29483709123871
 20
17.31703847416977
 10
51.33816074931544
 20
17.29913878263838
 10
51.37501098368757
 20
17.29908620258592
 10
51.40397166051645
 20
17.31688275460398
 10
51.42392983721043
 20
17.35184452719973
 10
51.43411853225043
 20
17.40262795905177
 10
51.43414619977221
 20
17.46728147135405
 10
51.42401177657556
 20
17.54332046589397
  0
LINE
  5
B7
330
2
100
AcDbEntity
  8
0
100
AcDbLine
 10
50.7381036560378
 20
17.79255901124111
 30
0.0
 11
51.2467049133132
 21
17.35209740203598
 31
0.0
  0
LWPOLYLINE
  5
B8
330
2
100
AcDbEntity
  8
0
100
AcDbPolyline
 90
        9
 70
   128
 43
0.0
 10
50.22661909305068
 20
18.49998169287184
 10
50.25455754767405
 20
18.51491804654053
 10
50.28332095280435
 20
18.52388267931815
 10
50.31154569335875
 20
18.52645059603965
 10
50.33789369124572
 20
18.52250005689089
 10
50.36111584096177
 20
18.51221834903609
 10
50.38011122713464
 20
18.49609290749773
 10
50.39397931677727
 20
18.47488820698072
 10
50.40206265170468
 20
18.44960951963809
  0
LINE
  5
B9
330
2
100
AcDbEntity
  8
0
100
AcDbLine
 10
49.18064667478823
 20
17.81594353866279
 30
0.0
 11
50.22661909305068
 21
18.49998169287184
 31
0.0
  0
ARC
  5
BA
330
2
100
AcDbEntity
  8
0
100
AcDbCircle
 10
51.32730818246598
 20
17.55356409074447
 30
0.0
 40
0.0931921033044082
100
AcDbArc
 50
9.338634848301015
 51
48.50877017649953
  0
ARC
  5
BB
330
2
100
AcDbEntity
  8
0
100
AcDbCircle
 10
50.47922459713252
 20
15.76234822132398
 30
0.0
 40
2.429723924191584
100
AcDbArc
 50
122.3069534489021
 51
144.9765156396011
  0
ARC
  5
BC
330
2
100
AcDbEntity
  8
0
100
AcDbCircle
 10
47.56819134310053
 20
13.76209350648528
 30
0.0
 40
2.573479356334007
100
AcDbArc
 50
111.6424862234975
 51
145.9342958116989
  0
LINE
  5
BD
330
2
100
AcDbEntity
  8
0
100
AcDbLine
 10
46.61905637624797
 20
16.15415094980027
 30
0.0
 11
47.62835830163328
 21
16.53500607096126
 31
0.0
  0
ARC
  5
BE
330
2
100
AcDbEntity
  8
0
100
AcDbCircle
 10
47.56648483960873
 20
16.69746483613755
 30
0.0
 40
0.1738423874778297
100
AcDbArc
 50
290.8496560101992
 51
303.3389074182005
  0
LINE
  5
BF
330
2
100
AcDbEntity
  8
0
100
AcDbLine
 10
47.66202692200542
 20
16.55223093453725
 30
0.0
 11
48.30276435583075
 21
16.9712561821476
 31
0.0
  0
ARC
  5
C0
330
2
100
AcDbEntity
  8
0
100
AcDbCircle
 10
47.97811987524468
 20
17.48465501148741
 30
0.0
 40
0.6074309810478026
100
AcDbArc
 50
302.3069534488992
 51
324.9765156396011
  0
LINE
  5
C1
330
2
100
AcDbEntity
  8
0
100
AcDbLine
 10
48.47555535805083
 20
17.13604299619802
 30
0.0
 11
48.48948266594844
 21
17.15679628244078
 31
0.0
  0
LWPOLYLINE
  5
C2
330
2
100
AcDbEntity
  8
0
100
AcDbPolyline
 90
       17
 70
   128
 43
0.0
 10
33.27901124283239
 20
17.47320858028588
 10
33.31192321874162
 20
17.52564560995035
 10
33.30833195908124
 20
17.5906949563578
 10
33.2687842005392
 20
17.6584534461546
 10
33.19930073090616
 20
17.71860546350818
 10
33.11045977853054
 20
17.76199340906866
 10
33.01578657306649
 20
17.78201186144025
 10
32.92969425184118
 20
17.77561319268087
 10
32.86528959034221
 20
17.74377154215848
 10
32.83237761443289
 20
17.69133451247357
 10
32.83596887409327
 20
17.62628516606611
 10
32.87551663261496
 20
17.55852667626921
 10
32.94500010226845
 20
17.49837465891574
 10
33.03384105464416
 20
17.45498671335526
 10
33.12851426010811
 20
17.434968261004
 10
33.21460658133352
 20
17.44136692974304
 10
33.27901124283239
 20
17.47320858028588
  0
LWPOLYLINE
  5
C3
330
2
100
AcDbEntity
  8
0
100
AcDbPolyline
 90
        8
 70
   128
 43
0.0
 10
32.42652437973916
 20
17.48956100808326
 10
32.45943635566882
 20
17.54199803776816
 10
32.4558450959881
 20
17.60704738415527
 10
32.41629733746641
 20
17.67480587395207
 10
32.34681386781293
 20
17.73495789132589
 10
32.25797291543731
 20
17.77834583688646
 10
32.1632997099936
 20
17.79836428923773
 10
32.10782514313751
 20
17.79751367666444
  0
LWPOLYLINE
  5
C4
330
2
100
AcDbEntity
  8
0
100
AcDbPolyline
 90
        8
 70
   128
 43
0.0
 10
31.97684984136911
 20
17.68221090170491
 10
31.98348201102047
 20
17.64263759388393
 10
32.02302976954208
 20
17.57487910408703
 10
32.09251323917523
 20
17.51472708673355
 10
32.18135419155093
 20
17.47133914117308
 10
32.27602739701487
 20
17.45132068880147
 10
32.36211971824029
 20
17.45771935754051
 10
32.42652437973916
 20
17.48956100808326
  0
LWPOLYLINE
  5
C5
330
2
100
AcDbEntity
  8
0
100
AcDbPolyline
 90
       17
 70
   128
 43
0.0
 10
33.41945634573992
 20
16.84020989960118
 10
33.45236832164925
 20
16.89264692926575
 10
33.44877706196853
 20
16.95769627567311
 10
33.40922930344683
 20
17.02545476546991
 10
33.33974583379344
 20
17.08560678282348
 10
33.25090488141773
 20
17.12899472838396
 10
33.15623167597412
 20
17.14901318075565
 10
33.07013935474871
 20
17.14261451199618
 10
33.0057346932295
 20
17.11077286147379
 10
32.97282271732008
 20
17.05833583178887
 10
32.97641397700089
 20
16.99328648538142
 10
33.0159617355226
 20
16.92552799558463
 10
33.08544520515574
 20
16.86537597823104
 10
33.17428615755169
 20
16.82198803267066
 10
33.26895936299539
 20
16.80196958031932
 10
33.3550516842207
 20
16.80836824905844
 10
33.41945634573992
 20
16.84020989960118
  0
LINE
  5
C6
330
2
100
AcDbEntity
  8
0
100
AcDbLine
 10
33.57989818185355
 20
17.77893417292589
 30
0.0
 11
32.5339257635911
 21
18.46297232711459
 31
0.0
  0
ARC
  5
C7
330
2
100
AcDbEntity
  8
0
100
AcDbCircle
 10
32.28132025950927
 20
15.72533885558698
 30
0.0
 40
2.429723924191025
100
AcDbArc
 50
35.02348436039887
 51
57.69304655109795
  0
LINE
  5
C8
330
2
100
AcDbEntity
  8
0
100
AcDbLine
 10
34.271062190673
 20
17.11978691670379
 30
0.0
 11
34.28498949859096
 21
17.09903363046111
 31
0.0
  0
ARC
  5
C9
330
2
100
AcDbEntity
  8
0
100
AcDbCircle
 10
34.78242498137674
 20
17.44764564575051
 30
0.0
 40
0.6074309810479022
100
AcDbArc
 50
215.0234843603988
 51
237.6930465510979
  0
ARC
  5
CA
330
2
100
AcDbEntity
  8
0
100
AcDbCircle
 10
31.15085788732443
 20
18.66031526987141
 30
0.0
 40
1.240657727593831
100
AcDbArc
 50
315.6185138917995
 51
349.0309109471987
  0
LWPOLYLINE
  5
CB
330
2
100
AcDbEntity
  8
0
100
AcDbPolyline
 90
        9
 70
   128
 43
0.0
 10
31.35164626088349
 20
17.54332046589397
 10
31.34151183766647
 20
17.46728147135405
 10
31.34153950520871
 20
17.40262795905177
 10
31.35172820022828
 20
17.35184452719973
 10
31.37168637694259
 20
17.31688275460398
 10
31.40064705375113
 20
17.29908620258592
 10
31.43749728812326
 20
17.29913878263838
 10
31.48082094622033
 20
17.31703847416977
 10
31.52895312412561
 20
17.35209740203598
  0
LINE
  5
CC
330
2
100
AcDbEntity
  8
0
100
AcDbLine
 10
31.3563928711833
 20
17.56868630124817
 30
0.0
 11
31.35164626088349
 21
17.54332046589397
 31
0.0
  0
LINE
  5
CD
330
2
100
AcDbEntity
  8
0
100
AcDbLine
 10
32.37359538573411
 20
18.44960951963809
 30
0.0
 11
32.36884877543439
 21
18.42424368428388
 31
0.0
  0
LINE
  5
CE
330
2
100
AcDbEntity
  8
0
100
AcDbLine
 10
31.52895312412561
 20
17.35209740203598
 30
0.0
 11
32.03755438140101
 21
17.79255901124111
 31
0.0
  0
LWPOLYLINE
  5
CF
330
2
100
AcDbEntity
  8
0
100
AcDbPolyline
 90
        9
 70
   128
 43
0.0
 10
32.54903894438803
 20
18.49998169287184
 10
32.52110048978499
 20
18.51491804654053
 10
32.49233708463436
 20
18.52388267931815
 10
32.46411234408005
 20
18.52645059603965
 10
32.43776434619307
 20
18.52250005689089
 10
32.41454219649736
 20
18.51221834903609
 10
32.3955468103245
 20
18.49609290749773
 10
32.38167872066152
 20
18.47488820698072
 10
32.37359538573411
 20
18.44960951963809
  0
LINE
  5
D0
330
2
100
AcDbEntity
  8
0
100
AcDbLine
 10
33.59501136267091
 20
17.81594353866279
 30
0.0
 11
32.54903894438803
 21
18.49998169287184
 31
0.0
  0
ARC
  5
D1
330
2
100
AcDbEntity
  8
0
100
AcDbCircle
 10
31.44834985497291
 20
17.55356409074447
 30
0.0
 40
0.0931921033046327
100
AcDbArc
 50
131.4912298235004
 51
170.6613651515999
  0
ARC
  5
D2
330
2
100
AcDbEntity
  8
0
100
AcDbCircle
 10
32.29643344032665
 20
15.76234822132398
 30
0.0
 40
2.42972392419094
100
AcDbArc
 50
35.02348436039887
 51
57.69304655109795
  0
ARC
  5
D3
330
2
100
AcDbEntity
  8
0
100
AcDbCircle
 10
35.20917319783006
 20
16.69746483613755
 30
0.0
 40
0.1738423874774413
100
AcDbArc
 50
236.6610925817996
 51
249.1503439898009
  0
LINE
  5
D4
330
2
100
AcDbEntity
  8
0
100
AcDbLine
 10
35.14729973580553
 20
16.53500607096126
 30
0.0
 11
36.15660166119083
 21
16.15415094980027
 31
0.0
  0
ARC
  5
D5
330
2
100
AcDbEntity
  8
0
100
AcDbCircle
 10
35.20746669435852
 20
13.76209350648528
 30
0.0
 40
2.573479356333981
100
AcDbArc
 50
34.06570418830112
 51
68.35751377650241
  0
LINE
  5
D6
330
2
100
AcDbEntity
  8
0
100
AcDbLine
 10
34.47289368160804
 20
16.9712561821476
 30
0.0
 11
35.11363111545364
 21
16.55223093453725
 31
0.0
  0
ARC
  5
D7
330
2
100
AcDbEntity
  8
0
100
AcDbCircle
 10
34.79753816219411
 20
17.48465501148741
 30
0.0
 40
0.6074309810475807
100
AcDbArc
 50
215.0234843602984
 51
237.6930465510979
  0
LINE
  5
D8
330
2
100
AcDbEntity
  8
0
100
AcDbLine
 10
34.28617537149027
 20
17.15679628244078
 30
0.0
 11
34.30010267940831
 21
17.13604299619802
 31
0.0
  0
LWPOLYLINE
  5
D9
330
2
100
AcDbEntity
  8
0
100
AcDbPolyline
 90
       17
 70
   128
 43
0.0
 10
41.03180813863672
 20
10.14244326525345
 10
40.93449150120818
 20
10.13910422195341
 10
40.85199043966359
 20
10.12959543109605
 10
40.79686499272123
 20
10.11536451990311
 10
40.77750750999912
 20
10.09857801562096
 10
40.79686499272123
 20
10.08179151131847
 10
40.85199043966359
 20
10.06756060014598
 10
40.93449150120818
 20
10.05805180928852
 10
41.03180813863672
 20
10.05471276596813
 10
41.12912477604501
 20
10.05805180928852
 10
41.21162583760994
 20
10.06756060014598
 10
41.26675128453196
 20
10.08179151131847
 10
41.28610876727452
 20
10.09857801562096
 10
41.26675128453196
 20
10.11536451990311
 10
41.21162583760994
 20
10.12959543109605
 10
41.12912477604501
 20
10.13910422195341
 10
41.03180813863672
 20
10.14244326525345
  0
LWPOLYLINE
  5
DA
330
2
100
AcDbEntity
  8
0
100
AcDbPolyline
 90
       17
 70
   128
 43
0.0
 10
41.74384989882232
 20
10.0371666661152
 10
41.64653326139378
 20
10.03382762281506
 10
41.56403219984919
 20
10.0243188319576
 10
41.50890675290684
 20
10.01008792076476
 10
41.48954927018462
 20
9.993301416482617
 10
41.50890675290684
 20
9.976514912180126
 10
41.56403219984919
 20
9.962284001007629
 10
41.64653326139378
 20
9.95277521015017
 10
41.74384989882232
 20
9.949436166829785
 10
41.84116653623052
 20
9.95277521015017
 10
41.92366759779545
 20
9.962284001007629
 10
41.97879304471757
 20
9.976514912180126
 10
41.99815052746003
 20
9.993301416482617
 10
41.97879304471757
 20
10.01008792076476
 10
41.92366759779545
 20
10.0243188319576
 10
41.84116653623052
 20
10.03382762281506
 10
41.74384989882232
 20
10.0371666661152
  0
LWPOLYLINE
  5
DB
330
2
100
AcDbEntity
  8
0
100
AcDbPolyline
 90
       17
 70
   128
 43
0.0
 10
41.74384989882232
 20
10.2477198643918
 10
41.64653326139378
 20
10.24438082109176
 10
41.56403219984919
 20
10.23487203023439
 10
41.50890675290684
 20
10.22064111904146
 10
41.48954927018462
 20
10.20385461475932
 10
41.50890675290684
 20
10.18706811045682
 10
41.56403219984919
 20
10.17283719928433
 10
41.64653326139378
 20
10.16332840842687
 10
41.74384989882232
 20
10.15998936510649
 10
41.84116653623052
 20
10.16332840842687
 10
41.92366759779545
 20
10.17283719928433
 10
41.97879304471757
 20
10.18706811045682
 10
41.99815052746003
 20
10.20385461475932
 10
41.97879304471757
 20
10.22064111904146
 10
41.92366759779545
 20
10.23487203023439
 10
41.84116653623052
 20
10.24438082109176
 10
41.74384989882232
 20
10.2477198643918
  0
LINE
  5
DC
330
2
100
AcDbEntity
  8
0
100
AcDbLine
 10
40.37062650417872
 20
10.13614449880115
 30
0.0
 11
40.37062650417872
 21
9.91434396712372
 31
0.0
  0
LINE
  5
DD
330
2
100
AcDbEntity
  8
0
100
AcDbLine
 10
42.40503153328043
 20
10.13614449880115
 30
0.0
 11
42.40503153328043
 21
9.91434396712372
 31
0.0
  0
LWPOLYLINE
  5
DE
330
2
100
AcDbEntity
  8
0
100
AcDbPolyline
 90
       17
 70
   128
 43
0.0
 10
41.03180813863672
 20
10.14244326525345
 10
40.93449150120818
 20
10.13910422195341
 10
40.85199043966359
 20
10.12959543109605
 10
40.79686499272123
 20
10.11536451990311
 10
40.77750750999912
 20
10.09857801562096
 10
40.79686499272123
 20
10.08179151131847
 10
40.85199043966359
 20
10.06756060014598
 10
40.93449150120818
 20
10.05805180928852
 10
41.03180813863672
 20
10.05471276596813
 10
41.12912477604501
 20
10.05805180928852
 10
41.21162583760994
 20
10.06756060014598
 10
41.26675128453196
 20
10.08179151131847
 10
41.28610876727452
 20
10.09857801562096
 10
41.26675128453196
 20
10.11536451990311
 10
41.21162583760994
 20
10.12959543109605
 10
41.12912477604501
 20
10.13910422195341
 10
41.03180813863672
 20
10.14244326525345
  0
LWPOLYLINE
  5
DF
330
2
100
AcDbEntity
  8
0
100
AcDbPolyline
 90
       17
 70
   128
 43
0.0
 10
41.74384989882232
 20
10.2477198643918
 10
41.64653326139378
 20
10.24438082109176
 10
41.56403219984919
 20
10.23487203023439
 10
41.50890675290684
 20
10.22064111904146
 10
41.48954927018462
 20
10.20385461475932
 10
41.50890675290684
 20
10.18706811045682
 10
41.56403219984919
 20
10.17283719928433
 10
41.64653326139378
 20
10.16332840842687
 10
41.74384989882232
 20
10.15998936510649
 10
41.84116653623052
 20
10.16332840842687
 10
41.92366759779545
 20
10.17283719928433
 10
41.97879304471757
 20
10.18706811045682
 10
41.99815052746003
 20
10.20385461475932
 10
41.97879304471757
 20
10.22064111904146
 10
41.92366759779545
 20
10.23487203023439
 10
41.84116653623052
 20
10.24438082109176
 10
41.74384989882232
 20
10.2477198643918
  0
LWPOLYLINE
  5
E0
330
2
100
AcDbEntity
  8
0
100
AcDbPolyline
 90
       17
 70
   128
 43
0.0
 10
41.74384989882232
 20
10.0371666661152
 10
41.64653326139378
 20
10.03382762281506
 10
41.56403219984919
 20
10.0243188319576
 10
41.50890675290684
 20
10.01008792076476
 10
41.48954927018462
 20
9.993301416482617
 10
41.50890675290684
 20
9.976514912180126
 10
41.56403219984919
 20
9.962284001007629
 10
41.64653326139378
 20
9.95277521015017
 10
41.74384989882232
 20
9.949436166829785
 10
41.84116653623052
 20
9.95277521015017
 10
41.92366759779545
 20
9.962284001007629
 10
41.97879304471757
 20
9.976514912180126
 10
41.99815052746003
 20
9.993301416482617
 10
41.97879304471757
 20
10.01008792076476
 10
41.92366759779545
 20
10.0243188319576
 10
41.84116653623052
 20
10.03382762281506
 10
41.74384989882232
 20
10.0371666661152
  0
LINE
  5
E1
330
2
100
AcDbEntity
  8
0
100
AcDbLine
 10
41.38958927195504
 20
19.18558855342353
 30
0.0
 11
41.38958927195504
 21
22.88478916548064
 31
0.0
  0
LINE
  5
E2
330
2
100
AcDbEntity
  8
0
100
AcDbLine
 10
41.17713932147779
 20
23.33097048727505
 30
0.0
 11
41.19215292238016
 21
23.31851800279009
 31
0.0
  0
ARC
  5
E3
330
2
100
AcDbEntity
  8
0
100
AcDbCircle
 10
40.86059098052707
 20
22.90556338231289
 30
0.0
 40
0.5294060449381688
100
AcDbArc
 50
357.7511011825993
 51
47.5982054287992
  0
LINE
  5
E4
330
2
100
AcDbEntity
  8
0
100
AcDbLine
 10
42.51209808755074
 20
22.9298705297484
 30
0.0
 11
42.51209808755074
 21
19.11781077919624
 31
0.0
  0
ARC
  5
E5
330
2
100
AcDbEntity
  8
0
100
AcDbCircle
 10
43.00566963585061
 20
22.88918575733088
 30
0.0
 40
0.5167208799927346
100
AcDbArc
 50
49.91144720378724
 51
111.3846782333002
  0
LINE
  5
E6
330
2
100
AcDbEntity
  8
0
100
AcDbLine
 10
42.81725884191604
 20
23.37033213895352
 30
0.0
 11
42.41768102157342
 21
23.25498395788437
 31
0.0
  0
LINE
  5
E7
330
2
100
AcDbEntity
  8
0
100
AcDbLine
 10
38.23645810626402
 20
21.34323029530925
 30
0.0
 11
38.23645810626402
 21
18.58423135314586
 31
0.0
  0
ARC
  5
E8
330
2
100
AcDbEntity
  8
0
100
AcDbCircle
 10
39.22040817408169
 20
21.30032260570176
 30
0.0
 40
0.9848851739034893
100
AcDbArc
 50
127.6392594851645
 51
177.5030511755998
  0
LINE
  5
E9
330
2
100
AcDbEntity
  8
0
100
AcDbLine
 10
42.28386550720551
 20
23.38591171293754
 30
0.0
 11
42.30194670654404
 21
23.37461090730078
 31
0.0
  0
ARC
  5
EA
330
2
100
AcDbEntity
  8
0
100
AcDbCircle
 10
41.98309979612286
 20
22.95064474658075
 30
0.0
 40
0.5294060449382246
100
AcDbArc
 50
357.7511011825993
 51
47.59820542869777
  0
LINE
  5
EB
330
2
100
AcDbEntity
  8
0
100
AcDbLine
 10
44.53919993117477
 20
21.98811084874554
 30
0.0
 11
44.53919993117477
 21
18.58423135314586
 31
0.0
  0
LINE
  5
EC
330
2
100
AcDbEntity
  8
0
100
AcDbLine
 10
44.28518489049753
 20
22.46923234132124
 30
0.0
 11
44.32904855016798
 21
22.43285122629793
 31
0.0
  0
ARC
  5
ED
330
2
100
AcDbEntity
  8
0
100
AcDbCircle
 10
44.01020163974679
 20
22.0088850655779
 30
0.0
 40
0.5294060449383285
100
AcDbArc
 50
357.7511011825993
 51
47.59820542869777
  0
LINE
  5
EE
330
2
100
AcDbEntity
  8
0
100
AcDbLine
 10
43.96611061855771
 20
22.58614100356582
 30
0.0
 11
43.96611061855771
 21
18.80334886974524
 31
0.0
  0
LINE
  5
EF
330
2
100
AcDbEntity
  8
0
100
AcDbLine
 10
43.74094563666889
 20
23.04333386558274
 30
0.0
 11
43.75595923755102
 21
23.03088138111822
 31
0.0
  0
ARC
  5
F0
330
2
100
AcDbEntity
  8
0
100
AcDbCircle
 10
43.43711232712983
 20
22.60691522039817
 30
0.0
 40
0.5294060449382246
100
AcDbArc
 50
357.7511011825993
 51
47.59820542869777
  0
ARC
  5
F1
330
2
100
AcDbEntity
  8
0
100
AcDbCircle
 10
41.2329707109527
 20
19.02099684497963
 30
0.0
 40
4.525162476575215
100
AcDbArc
 50
244.7332901586666
 51
296.7351499493217
  0
LWPOLYLINE
  5
F2
330
2
100
AcDbEntity
  8
0
100
AcDbPolyline
 90
       71
 70
   128
 43
0.0
 10
42.69426409556984
 20
10.84991094959171
 10
42.30874631566349
 20
10.79989569436995
 10
41.91581385117194
 20
10.76736055954352
 10
41.51863036326414
 20
10.75256749888792
 10
41.12039373983735
 20
10.75563561741864
 10
40.72431034802655
 20
10.776540212454
 10
40.33356921839756
 20
10.81511297249862
 10
39.95131636880251
 20
10.87104333236038
 10
39.58062947441043
 20
10.94388097367875
 10
39.22449308812388
 20
11.03303945055942
 10
38.88577461073718
 20
11.13780091140893
 10
38.56720120424305
 20
11.257321878536
 10
38.27133783443798
 20
11.39064003938279
 10
38.00056661914842
 20
11.53668199449485
 10
37.75706764903953
 20
11.69427189995908
 10
37.54280143462644
 20
11.86214093446629
 10
37.3594931214885
 20
12.03893751530022
 10
37.20861860036873
 20
12.22323818032904
 10
37.09139262419375
 20
12.41355904896895
 10
37.00875902759018
 20
12.6083677694917
 10
36.96138312773115
 20
12.8060958566131
 10
36.94964636746268
 20
13.00515132006215
 10
36.97364324428807
 20
13.20393148226894
 10
37.03318054947979
 20
13.40083588224882
 10
37.12777892366781
 20
13.59427916156618
 10
37.25667671632852
 20
13.78270382865795
 10
37.41883611825539
 20
13.96459279892742
 10
37.61295151728754
 20
14.13848160929175
 10
37.83746001038533
 20
14.30297020934859
 10
38.0905539871379
 20
14.45673423356776
 10
38.37019568367275
 20
14.59853566444136
 10
38.67413358950176
 20
14.72723280023491
 10
38.99992057529042
 20
14.84178944728311
 10
39.34493359578591
 20
14.94128326284127
 10
39.70639480903688
 20
15.02491318117197
 10
40.08139394188919
 20
15.0920058633618
 10
40.46691172179555
 20
15.14202111858355
 10
40.85984418628711
 20
15.17455625340989
 10
41.25702767419499
 20
15.18934931406549
 10
41.65526429762179
 20
15.18628119553477
 10
42.05134768943258
 20
15.1653766004994
 10
42.44208881904124
 20
15.12680384045478
 10
42.8243416686362
 20
15.07087348059303
 10
43.19502856304871
 20
14.99803583927475
 10
43.55116494931481
 20
14.90887736239399
 10
43.88988342672186
 20
14.80411590154458
 10
44.20845683319565
 20
14.68459493441741
 10
44.50432020302106
 20
14.55127677357062
 10
44.77509141829037
 20
14.40523481845856
 10
45.01859038839917
 20
14.24764491299433
 10
45.23285660281227
 20
14.07977587848712
 10
45.41616491597054
 20
13.90297929765328
 10
45.56703943709031
 20
13.71867863262437
 10
45.68426541326538
 20
13.52835776398446
 10
45.76689900984863
 20
13.33354904346181
 10
45.8142749097279
 20
13.13582095634041
 10
45.82601166997613
 20
12.93676549289126
 10
45.80201479315073
 20
12.73798533068457
 10
45.74247748795891
 20
12.54108093070458
 10
45.64787911379123
 20
12.34763765138723
 10
45.51898132111029
 20
12.15921298429555
 10
45.35682191918331
 20
11.97732401402599
 10
45.16270652015115
 20
11.80343520366166
 10
44.93819802707371
 20
11.63894660360492
 10
44.68510405030079
 20
11.48518257938575
 10
44.40546235376594
 20
11.34338114851205
 10
44.10152444795739
 20
11.21468401271859
 10
43.77573746216873
 20
11.10012736567039
 10
43.43072444165289
 20
11.00063355011214
 10
43.06926322840191
 20
10.91700363178153
 10
42.69426409556984
 20
10.84991094959171
  0
LWPOLYLINE
  5
F3
330
2
100
AcDbEntity
  8
0
100
AcDbPolyline
 90
       80
 70
   128
 43
0.0
 10
44.23065643815128
 20
10.6323268932474
 10
44.61287619056014
 20
10.75304110414715
 10
44.97470615636397
 20
10.88855742953721
 10
45.31385873003017
 20
11.03801909162051
 10
45.62818967980462
 20
11.20048114563624
 10
45.9157117042142
 20
11.37491645417498
 10
46.17460699643062
 20
11.56022218104024
 10
46.40323873707119
 20
11.75522676376476
 10
46.600161442648
 20
11.95869732059453
 10
46.7641301044408
 20
12.16934744514895
 10
46.89410805975216
 20
12.38584533954485
 10
46.98927354611021
 20
12.60682223435101
 10
47.04902489664973
 20
12.83088104252047
 10
47.07298434412513
 20
13.05660519210559
 10
47.06100040917918
 20
13.28256758238018
 10
47.01314885812087
 20
13.50733960634456
 10
46.9297322238228
 20
13.7295001828942
 10
46.81127789315711
 20
13.94764474134168
 10
46.65853477250309
 20
14.16039410153409
 10
46.47246855305717
 20
14.36640319353667
 10
46.25425560537902
 20
14.56436956152701
 10
46.00527554197298
 20
14.75304159839568
 10
45.7271024949606
 20
14.93122645876761
 10
45.42149516391243
 20
15.09779760062293
 10
45.09038569676725
 20
15.25170190752568
 10
44.73586747420649
 20
15.39196634690526
 10
44.36018187454716
 20
15.51770412183341
 10
43.96570410313445
 20
15.62812027759976
 10
43.55492817542181
 20
15.7225167277303
 10
43.13045114911089
 20
15.80029666744577
 10
42.69495670461179
 20
15.86096834695396
 10
42.25119817802297
 20
15.90414818034622
 10
41.80198115364311
 20
15.92956317081179
 10
41.35014572611575
 20
15.93705263660629
 10
40.89854854448605
 20
15.92656922693251
 10
40.45004475156606
 20
15.89817922124141
 10
40.0074699327
 20
15.85206211030789
 10
39.57362218842432
 20
15.78850946137847
 10
39.15124444385107
 20
15.70792307473585
 10
38.74300710707409
 20
15.61081244345947
 10
38.35149118598756
 20
15.49779153222977
 10
37.97917197028227
 20
15.36957489566341
 10
37.62840338192774
 20
15.22697316059126
 10
37.30140309286845
 20
15.07088790110689
 10
37.00023850420981
 20
14.90230593846959
 10
36.72681367547052
 20
14.72229310211242
 10
36.48285728645947
 20
14.53198749118479
 10
36.26991170796308
 20
14.33259227900351
 10
36.08932325055724
 20
14.12536810629099
 10
35.94223365255531
 20
13.91162511102703
 10
35.82957286179636
 20
13.69271464518571
 10
35.75205315605181
 20
13.47002073127192
 10
35.71016463984979
 20
13.24495131189742
 10
35.70417214591356
 20
13.01892934836413
 10
35.73411356068305
 20
12.79338382434179
 10
35.79979958490624
 20
12.56974071121752
 10
35.90081493041927
 20
12.34941395277272
 10
36.03652094562615
 20
12.13379652572191
 10
36.20605965344839
 20
11.92425163285556
 10
36.40835917557624
 20
11.72210408444519
 10
36.64214050927692
 20
11.52863192237453
 10
36.90592561372593
 20
11.34505833997079
 10
37.1980467545387
 20
11.17254394849895
 10
37.5166570478069
 20
11.01217943951028
 10
37.8597421366884
 20
10.8649786890432
 10
38.22513292678215
 20
10.73187234764058
 10
38.61051929984956
 20
10.61370195644343
 10
39.01346471917431
 20
10.51121462673338
 10
39.43142163407714
 20
10.42505831641044
 10
39.86174758638163
 20
10.3557777333728
 10
40.30172191684726
 20
10.30381089179772
 10
40.74856296610374
 20
10.26948634276714
 10
41.19944566116772
 20
10.25302109716087
 10
41.651519376481
 20
10.25451925355147
 10
42.10192595644023
 20
10.27397134011533
 10
42.54781778565403
 20
10.311254374505
 10
42.98637579238973
 20
10.36613264133799
 10
43.41482727175146
 20
10.43825918258157
 10
43.83046341549788
 20
10.52717799098667
 10
44.23065643815128
 20
10.6323268932474
  0
LWPOLYLINE
  5
F4
330
2
100
AcDbEntity
  8
0
100
AcDbPolyline
 90
       43
 70
   128
 43
0.0
 10
47.07689158279381
 20
13.05613295917455
 10
47.08366264853943
 20
13.16224520016764
 10
47.0716562044073
 20
13.38863201070471
 10
47.02371477479958
 20
13.6138262191004
 10
46.94014146085922
 20
13.83640407506955
 10
46.82146463996938
 20
14.05495836970852
 10
46.66843462521945
 20
14.26810733243619
 10
46.48201892161984
 20
14.4745033668512
 10
46.26339610927733
 20
14.67284157079992
 10
46.01394839199958
 20
14.86186798629559
 10
45.73525285856973
 20
15.04038752743219
 10
45.42907151186257
 20
15.20727153626641
 10
45.0973401289717
 20
15.36146491828986
 10
44.74215602249343
 20
15.50199281334452
 10
44.3657647806815
 20
15.6279667588126
 10
43.97054607018884
 20
15.73859030687298
 10
43.55899859095109
 20
15.83316405979608
 10
43.13372427860361
 20
15.9110900919067
 10
42.69741185430328
 20
15.97187572971108
 10
42.25281982566729
 20
16.01513666685696
 10
41.80275904665278
 20
16.04059939376173
 10
41.35007494639805
 20
16.04810292685677
 10
40.89762953954891
 20
16.03759982640038
 10
40.44828333162963
 20
16.00915649639018
 10
40.00487723405679
 20
15.96295276468145
 10
39.5702146029469
 20
15.89928074618251
 10
39.14704351538006
 20
15.81854299585898
 10
38.73803939523515
 20
15.72124996379471
 10
38.34578809825096
 20
15.60801676783216
 10
37.97276956340537
 20
15.47955930472541
 10
37.6213421339789
 20
15.33668972389486
 10
37.29372764734041
 20
15.18031129283218
 10
36.99199738776561
 20
15.01141268634313
 10
36.71805899107434
 20
14.83106173577623
 10
36.4736443840265
 20
14.64039867793189
 10
36.26029883448272
 20
14.44062894602555
 10
36.0793711816622
 20
14.23301554862367
 10
35.93200530844653
 20
14.01887108450195
 10
35.81913290935361
 20
13.79954944388022
 10
35.74146760002054
 20
13.57643724880585
 10
35.69950040554355
 20
13.35094508639319
 10
35.69349665601726
 20
13.12449859068481
 10
35.69876645466524
 20
13.05613295917455
  0
SPLINE
  5
F5
330
2
100
AcDbEntity
  8
0
100
AcDbSpline
210
0.0
220
0.0
230
1.0
 70
     8
 71
     3
 72
     8
 73
     4
 74
     0
 42
0.000000001
 43
0.0000000001
 40
0.0
 40
0.0
 40
0.0
 40
0.0
 40
1.0
 40
1.0
 40
1.0
 40
1.0
 10
37.99957143176379
 20
18.47078467312609
 30
0.0
 10
37.99785250445034
 20
18.46990232591916
 30
0.0
 10
37.99615297320384
 20
18.46888543625787
 30
0.0
 10
37.99447204922295
 20
18.46773922858108
 30
0.0
  0
LWPOLYLINE
  5
F6
330
2
100
AcDbEntity
  8
0
100
AcDbPolyline
 90
       19
 70
   128
 43
0.0
 10
37.99957143176476
 20
18.47078467312783
 10
38.30534563805922
 20
18.61440986406886
 10
38.63537024551922
 20
18.74392280319593
 10
38.9870488965632
 20
18.8583045910162
 10
39.35761487769968
 20
18.9566553672591
 10
39.74415288570808
 20
19.03820139032194
 10
40.14362196280933
 20
19.10230112427036
 10
40.55287942043444
 20
19.14845028601408
 10
40.9687055631663
 20
19.17628581251901
 10
41.38782901872953
 20
19.18558871719317
 10
41.80695247427239
 20
19.17628581251901
 10
42.2227786170245
 20
19.14845028601408
 10
42.63203607462946
 20
19.10230112427036
 10
43.03150515175096
 20
19.03820139032194
 10
43.41804315973901
 20
18.9566553672591
 10
43.7886091408755
 20
18.8583045910162
 10
44.14028779191948
 20
18.74392280319593
 10
44.47031239939992
 20
18.61440986406886
 10
44.77608660569429
 20
18.47078467312783
  0
SPLINE
  5
F7
330
2
100
AcDbEntity
  8
0
100
AcDbSpline
210
0.0
220
0.0
230
1.0
 70
     8
 71
     3
 72
     8
 73
     4
 74
     0
 42
0.000000001
 43
0.0000000001
 40
0.0
 40
0.0
 40
0.0
 40
0.0
 40
1.0
 40
1.0
 40
1.0
 40
1.0
 10
44.78118598822582
 20
18.46773922858108
 30
0.0
 10
44.77949906287948
 20
18.46888952853763
 30
0.0
 10
44.77779323874999
 20
18.46990863671289
 30
0.0
 10
44.77608660568508
 20
18.47078467312609
 30
0.0
  0
ARC
  5
F8
330
2
100
AcDbEntity
  8
0
100
AcDbCircle
 10
42.95541466416167
 20
13.19854851961734
 30
0.0
 40
4.05835628292499
100
AcDbArc
 50
58.91894095319835
 51
60.30942141263774
  0
SPLINE
  5
F9
330
2
100
AcDbEntity
  8
0
100
AcDbSpline
210
0.0
220
0.0
230
1.0
 70
     8
 71
     3
 72
    12
 73
     8
 74
     0
 42
0.000000001
 43
0.0000000001
 40
0.0
 40
0.0
 40
0.0
 40
0.0
 40
0.2500000000000026
 40
0.2500000000000026
 40
0.5000000000000054
 40
0.5000000000000054
 40
1.0
 40
1.0
 40
1.0
 40
1.0
 10
45.1167207321359
 20
16.5473328054006
 30
0.0
 10
45.11647418615431
 20
16.55898050417496
 30
0.0
 10
45.11456668855068
 20
16.57143623035839
 30
0.0
 10
45.10769751575171
 20
16.59668267149565
 30
0.0
 10
45.10273995811926
 20
16.60934094088068
 30
0.0
 10
45.08451541733618
 20
16.64440137308513
 30
0.0
 10
45.06771415259763
 20
16.66392407371423
 30
0.0
 10
45.05054204554966
 20
16.67427822357796
 30
0.0
  0
LWPOLYLINE
  5
FA
330
2
100
AcDbEntity
  8
0
100
AcDbPolyline
 90
        3
 70
   128
 43
0.0
 10
45.14221395861854
 20
15.34186017583174
 10
45.13908970023348
 20
15.48975893459068
 10
45.11672073213743
 20
16.54733280539244
  0
LWPOLYLINE
  5
FB
330
2
100
AcDbEntity
  8
0
100
AcDbPolyline
 90
        3
 70
   128
 43
0.0
 10
37.65893730532161
 20
16.54733280539244
 10
37.63656833720531
 20
15.48975893459068
 10
37.6334387409639
 20
15.34160748791865
  0
SPLINE
  5
FC
330
2
100
AcDbEntity
  8
0
100
AcDbSpline
210
0.0
220
0.0
230
1.0
 70
     8
 71
     3
 72
    12
 73
     8
 74
     0
 42
0.000000001
 43
0.0000000001
 40
0.0
 40
0.0
 40
0.0
 40
0.0
 40
0.2499999999999969
 40
0.2499999999999969
 40
0.4999999999999938
 40
0.4999999999999938
 40
1.0
 40
1.0
 40
1.0
 40
1.0
 10
37.72511599189913
 20
16.67427822357796
 30
0.0
 10
37.7165280437793
 20
16.66910000627442
 30
0.0
 10
37.7081235033525
 20
16.66179227513522
 30
0.0
 10
37.69234535543404
 20
16.64357971218194
 30
0.0
 10
37.68511251808505
 20
16.6327893611907
 30
0.0
 10
37.66685378477434
 20
16.59769690143212
 30
0.0
 10
37.65943051192941
 20
16.57063361957974
 30
0.0
 10
37.65893730531298
 20
16.5473328054006
 30
0.0
  0
ARC
  5
FD
330
2
100
AcDbEntity
  8
0
100
AcDbCircle
 10
39.82024337327711
 20
13.19854851961734
 30
0.0
 40
4.058356282924888
100
AcDbArc
 50
119.6907297769549
 51
121.0810590468015
  0
LINE
  5
FE
330
2
100
AcDbEntity
  8
0
100
AcDbLine
 10
45.59226678447255
 20
15.93889351456444
 30
0.0
 11
45.64137529021642
 21
16.83476947906529
 31
0.0
  0
LINE
  5
FF
330
2
100
AcDbEntity
  8
0
100
AcDbLine
 10
45.59226678447255
 20
15.93889351456444
 30
0.0
 11
45.59878750852615
 21
15.41866965440032
 31
0.0
  0
LINE
  5
100
330
2
100
AcDbEntity
  8
0
100
AcDbLine
 10
44.89376453381654
 20
17.48221938624546
 30
0.0
 11
45.64137529021642
 21
16.83476947906529
 31
0.0
  0
LINE
  5
101
330
2
100
AcDbEntity
  8
0
100
AcDbLine
 10
37.1833912529866
 20
15.93889351456444
 30
0.0
 11
37.17687052885575
 21
15.41866965449206
 31
0.0
  0
LINE
  5
102
330
2
100
AcDbEntity
  8
0
100
AcDbLine
 10
37.13428274722237
 20
16.83476947906529
 30
0.0
 11
37.1833912529866
 21
15.93889351456444
 31
0.0
  0
LINE
  5
103
330
2
100
AcDbEntity
  8
0
100
AcDbLine
 10
37.13428274722237
 20
16.83476947906529
 30
0.0
 11
37.88215589589349
 21
17.48244662460812
 31
0.0
  0
SPLINE
  5
104
330
2
100
AcDbEntity
  8
0
100
AcDbSpline
210
0.0
220
0.0
230
1.0
 70
     8
 71
     3
 72
    10
 73
     6
 74
     0
 42
0.000000001
 43
0.0000000001
 40
0.0
 40
0.0
 40
0.0
 40
0.0
 40
0.4078392726141181
 40
0.8137745974586408
 40
1.0
 40
1.0
 40
1.0
 40
1.0
 10
44.78118598822582
 20
18.46773922858108
 30
0.0
 10
44.78327674417873
 20
18.46583340593314
 30
0.0
 10
44.78744849564605
 20
18.46203065773741
 30
0.0
 10
44.79026842917569
 20
18.45529827452402
 30
0.0
 10
44.79032058399105
 20
18.45072961575876
 30
0.0
 10
44.79033698587492
 20
18.44929284314225
 30
0.0
  0
SPLINE
  5
105
330
2
100
AcDbEntity
  8
0
100
AcDbSpline
210
0.0
220
0.0
230
1.0
 70
     8
 71
     3
 72
    10
 73
     6
 74
     0
 42
0.000000001
 43
0.0000000001
 40
0.0
 40
0.0
 40
0.0
 40
0.0
 40
0.1854124774339302
 40
0.5917533138519261
 40
1.0
 40
1.0
 40
1.0
 40
1.0
 10
37.98532217263483
 20
18.44931563314866
 30
0.0
 10
37.98533867347515
 20
18.45074463905159
 30
0.0
 10
37.98539133674264
 20
18.45530538377745
 30
0.0
 10
37.98820989460257
 20
18.46203053080928
 30
0.0
 10
37.99238141105334
 20
18.46583336355784
 30
0.0
 10
37.99447204922295
 20
18.46773922858108
 30
0.0
  0
LINE
  5
106
330
2
100
AcDbEntity
  8
0
100
AcDbLine
 10
37.13010518399484
 20
15.47064314203418
 30
0.0
 11
37.12840303325492
 21
15.80700061877976
 31
0.0
  0
LINE
  5
107
330
2
100
AcDbEntity
  8
0
100
AcDbLine
 10
36.95836679411801
 20
15.64813296475212
 30
0.0
 11
36.96166547122945
 21
15.94347768372586
 31
0.0
  0
LINE
  5
108
330
2
100
AcDbEntity
  8
0
100
AcDbLine
 10
37.12840303325492
 20
15.80700061877976
 30
0.0
 11
37.11621920218721
 21
15.89886186464863
 31
0.0
  0
LINE
  5
109
330
2
100
AcDbEntity
  8
0
100
AcDbLine
 10
45.6455528534643
 20
15.47064314203418
 30
0.0
 11
45.64725500420422
 21
15.80700061877976
 31
0.0
  0
LINE
  5
10A
330
2
100
AcDbEntity
  8
0
100
AcDbLine
 10
45.64725500420422
 20
15.80700061877976
 30
0.0
 11
45.65943883525159
 21
15.89886186464863
 31
0.0
  0
LINE
  5
10B
330
2
100
AcDbEntity
  8
0
100
AcDbLine
 10
45.81399256622968
 20
15.94347768372586
 30
0.0
 11
45.81729124333893
 21
15.64813296475021
 31
0.0
  0
SPLINE
  5
10C
330
2
100
AcDbEntity
  8
0
100
AcDbSpline
210
0.0
220
0.0
230
1.0
 70
     8
 71
     3
 72
     8
 73
     4
 74
     0
 42
0.000000001
 43
0.0000000001
 40
0.0
 40
0.0
 40
0.0
 40
0.0
 40
1.0
 40
1.0
 40
1.0
 40
1.0
 10
36.83746625210901
 20
17.46574281595447
 30
0.0
 10
36.83681125939741
 20
17.46486495537932
 30
0.0
 10
36.83614820453203
 20
17.4638325541665
 30
0.0
 10
36.83548418148754
 20
17.46265554216527
 30
0.0
  0
SPLINE
  5
10D
330
2
100
AcDbEntity
  8
0
100
AcDbSpline
210
0.0
220
0.0
230
1.0
 70
     8
 71
     3
 72
     8
 73
     4
 74
     0
 42
0.000000001
 43
0.0000000001
 40
0.0
 40
0.0
 40
0.0
 40
0.0
 40
1.0
 40
1.0
 40
1.0
 40
1.0
 10
36.8799747958073
 20
16.00410045122849
 30
0.0
 10
36.86417308352889
 20
16.49184868267798
 30
0.0
 10
36.84997647834477
 20
16.97907421256878
 30
0.0
 10
36.83746625210901
 20
17.46574281595447
 30
0.0
  0
LWPOLYLINE
  5
10E
330
2
100
AcDbEntity
  8
0
100
AcDbPolyline
 90
        3
 70
   128
 43
0.0
 10
36.87893418278125
 20
15.91562911349062
 10
36.87954999246367
 20
15.96798719613529
 10
36.87997479580473
 20
16.00410045123415
  0
ARC
  5
10F
330
2
100
AcDbEntity
  8
0
100
AcDbCircle
 10
38.3978764884266
 20
14.89102928438954
 30
0.0
 40
1.832209195939895
100
AcDbArc
 50
143.4429852452996
 51
145.9984365210995
  0
SPLINE
  5
110
330
2
100
AcDbEntity
  8
0
100
AcDbSpline
210
0.0
220
0.0
230
1.0
 70
     8
 71
     3
 72
    12
 73
     8
 74
     0
 42
0.000000001
 43
0.0000000001
 40
0.0
 40
0.0
 40
0.0
 40
0.0
 40
0.2499999999999952
 40
0.2499999999999952
 40
0.4999999999999905
 40
0.4999999999999905
 40
1.0
 40
1.0
 40
1.0
 40
1.0
 10
36.96166547121957
 20
15.94347768373229
 30
0.0
 10
36.96179461015718
 20
15.9550237050241
 30
0.0
 10
36.96093238379932
 20
15.96508077989534
 30
0.0
 10
36.95739429506475
 20
15.98131426816081
 30
0.0
 10
36.95471970857232
 20
15.98736290684841
 30
0.0
 10
36.94476160888747
 20
15.99801645646184
 30
0.0
 10
36.93547563965533
 20
15.99494694975788
 30
0.0
 10
36.92612777954617
 20
15.98233413435597
 30
0.0
  0
ARC
  5
111
330
2
100
AcDbEntity
  8
0
100
AcDbCircle
 10
37.94591895694699
 20
16.80949326415545
 30
0.0
 40
1.288288147879048
100
AcDbArc
 50
149.5357833041003
 51
178.6153618133015
  0
SPLINE
  5
112
330
2
100
AcDbEntity
  8
0
100
AcDbSpline
210
0.0
220
0.0
230
1.0
 70
     8
 71
     3
 72
    12
 73
     8
 74
     0
 42
0.000000001
 43
0.0000000001
 40
0.0
 40
0.0
 40
0.0
 40
0.0
 40
0.25
 40
0.25
 40
0.5
 40
0.5
 40
1.0
 40
1.0
 40
1.0
 40
1.0
 10
45.8495302579027
 20
15.98233413435597
 30
0.0
 10
45.84485529650022
 20
15.98864193362685
 30
0.0
 10
45.84025195897602
 20
15.99259935524258
 30
0.0
 10
45.83158591173424
 20
15.99555608627297
 30
0.0
 10
45.8276016315118
 20
15.99448004405594
 30
0.0
 10
45.81762448847726
 20
15.9838405705105
 30
0.0
 10
45.81373422829947
 20
15.96657509566231
 30
0.0
 10
45.81399256622919
 20
15.94347768373229
 30
0.0
  0
ARC
  5
113
330
2
100
AcDbEntity
  8
0
100
AcDbCircle
 10
44.37778154905288
 20
14.89102928440989
 30
0.0
 40
1.832209195898339
100
AcDbArc
 50
34.00156347879725
 51
36.55701475480078
  0
LWPOLYLINE
  5
114
330
2
100
AcDbEntity
  8
0
100
AcDbPolyline
 90
        3
 70
   128
 43
0.0
 10
45.89568324163407
 20
16.00410045123415
 10
45.89629911879771
 20
15.95174238988972
 10
45.89672385465753
 20
15.91562911349062
  0
SPLINE
  5
115
330
2
100
AcDbEntity
  8
0
100
AcDbSpline
210
0.0
220
0.0
230
1.0
 70
     8
 71
     3
 72
     8
 73
     4
 74
     0
 42
0.000000001
 43
0.0000000001
 40
0.0
 40
0.0
 40
0.0
 40
0.0
 40
1.0
 40
1.0
 40
1.0
 40
1.0
 10
45.93819178533975
 20
17.46574281595447
 30
0.0
 10
45.92568155908454
 20
16.97907421180728
 30
0.0
 10
45.91148495394253
 20
16.4918486833771
 30
0.0
 10
45.89568324164146
 20
16.00410045122849
 30
0.0
  0
SPLINE
  5
116
330
2
100
AcDbEntity
  8
0
100
AcDbSpline
210
0.0
220
0.0
230
1.0
 70
     8
 71
     3
 72
     8
 73
     4
 74
     0
 42
0.000000001
 43
0.0000000001
 40
0.0
 40
0.0
 40
0.0
 40
0.0
 40
1.0
 40
1.0
 40
1.0
 40
1.0
 10
45.94017385596123
 20
17.46265554216527
 30
0.0
 10
45.93950504942547
 20
17.46384103312913
 30
0.0
 10
45.93884444786485
 20
17.46486807843523
 30
0.0
 10
45.93819178533975
 20
17.46574281595447
 30
0.0
  0
ARC
  5
117
330
2
100
AcDbEntity
  8
0
100
AcDbCircle
 10
44.82973908049181
 20
16.80949326415545
 30
0.0
 40
1.288288147879374
100
AcDbArc
 50
1.384638186698478
 51
30.46421669589968
  0
ELLIPSE
  5
118
330
2
100
AcDbEntity
  8
0
100
AcDbEllipse
 10
45.59874377853765
 20
17.32004700768296
 30
0.0
 11
-0.0218349073031682
 21
0.0465604569856609
 31
0.0
210
0.0
220
0.0
230
1.0
 40
0.3316363468999998
 41
6.230574358441785
 42
7.094878122531616
  0
LINE
  5
119
330
2
100
AcDbEntity
  8
0
100
AcDbLine
 10
45.64137529021642
 20
16.83476947906529
 30
0.0
 11
45.57251361084698
 21
17.34684004867774
 31
0.0
  0
LINE
  5
11A
330
2
100
AcDbEntity
  8
0
100
AcDbLine
 10
44.83710556666514
 20
18.01413409047873
 30
0.0
 11
45.58276746796141
 21
17.36837194131457
 31
0.0
  0
LINE
  5
11B
330
2
100
AcDbEntity
  8
0
100
AcDbLine
 10
37.13428274722237
 20
16.83476947906529
 30
0.0
 11
37.20314442661218
 21
17.34684004867774
 31
0.0
  0
ELLIPSE
  5
11C
330
2
100
AcDbEntity
  8
0
100
AcDbEllipse
 10
37.17691425892148
 20
17.32004700768296
 30
0.0
 11
0.0218349073031682
 21
0.0465604569856609
 31
0.0
210
0.0
220
0.0
230
1.0
 40
0.3316363468999998
 41
5.471492491827785
 42
6.335796255917442
  0
LINE
  5
11D
330
2
100
AcDbEntity
  8
0
100
AcDbLine
 10
37.19289056947737
 20
17.36837194131457
 30
0.0
 11
37.93790767897742
 21
18.01357568438231
 31
0.0
  0
ELLIPSE
  5
11E
330
2
100
AcDbEntity
  8
0
100
AcDbEllipse
 10
37.06546254263751
 20
15.8540193310274
 30
0.0
 11
0.0153436345242054
 21
0.101223520941756
 31
0.0
210
0.0
220
0.0
230
1.0
 40
0.4926395442000002
 41
5.24450207558693
 42
6.218569152574228
  0
ELLIPSE
  5
11F
330
2
100
AcDbEntity
  8
0
100
AcDbEllipse
 10
45.71019549482163
 20
15.8540193310274
 30
0.0
 11
-0.0153436345242054
 21
0.1012235209417446
 31
0.0
210
0.0
220
0.0
230
1.0
 40
0.4926395442000002
 41
0.0646161546051304
 42
1.038683231592689
  0
ARC
  5
120
330
2
100
AcDbEntity
  8
0
100
AcDbCircle
 10
45.92898541553497
 20
17.44489517866602
 30
0.0
 40
0.0227899369349348
100
AcDbArc
 50
66.17362453180679
 51
96.99154929197804
  0
ARC
  5
121
330
2
100
AcDbEntity
  8
0
100
AcDbCircle
 10
36.84606397483202
 20
17.44900827845318
 30
0.0
 40
0.0188139730361285
100
AcDbArc
 50
79.64203470593346
 51
117.1927914557175
  0
POLYLINE
  5
122
330
2
100
AcDbEntity
  8
0
100
AcDb2dPolyline
 66
     1
 10
0.0
 20
0.0
 30
0.0
 70
     2
  0
VERTEX
  5
123
330
122
100
AcDbEntity
  8
0
100
AcDbVertex
100
AcDb2dVertex
 10
33.64043296072566
 20
17.7865082043671
 30
0.0
 42
-0.0087423135807303
  0
VERTEX
  5
124
330
122
100
AcDbEntity
  8
0
100
AcDbVertex
100
AcDb2dVertex
 10
33.92930991246828
 20
18.47921817423165
 30
0.0
 42
-0.0142582256686869
 70
     1
  0
VERTEX
  5
125
330
122
100
AcDbEntity
  8
0
100
AcDbVertex
100
AcDb2dVertex
 10
34.12580011866992
 20
18.89540658277139
 30
0.0
 42
-0.005004818057887
  0
VERTEX
  5
126
330
122
100
AcDbEntity
  8
0
100
AcDbVertex
100
AcDb2dVertex
 10
34.57421858682937
 20
19.7575404890821
 30
0.0
 42
-0.0100313573664843
 70
     1
  0
VERTEX
  5
127
330
122
100
AcDbEntity
  8
0
100
AcDbVertex
100
AcDb2dVertex
 10
34.81079191420559
 20
20.18078483717158
 30
0.0
 42
-0.0641031603482199
  0
VERTEX
  5
128
330
122
100
AcDbEntity
  8
0
100
AcDbVertex
100
AcDb2dVertex
 10
35.2349796744858
 20
20.72985304198934
 30
0.0
 42
-0.0481484310090242
 70
     1
  0
VERTEX
  5
129
330
122
100
AcDbEntity
  8
0
100
AcDbVertex
100
AcDb2dVertex
 10
35.94687672331908
 20
21.31592386894572
 30
0.0
 42
-0.0660955379057856
  0
VERTEX
  5
12A
330
122
100
AcDbEntity
  8
0
100
AcDbVertex
100
AcDb2dVertex
 10
36.58188272740309
 20
21.63096207280236
 30
0.0
 42
-0.0582832503529037
 70
     1
  0
VERTEX
  5
12B
330
122
100
AcDbEntity
  8
0
100
AcDbVertex
100
AcDb2dVertex
 10
37.36698273471079
 20
21.80002763300515
 30
0.0
 42
-0.0519164631301103
  0
VERTEX
  5
12C
330
122
100
AcDbEntity
  8
0
100
AcDbVertex
100
AcDb2dVertex
 10
37.58760620980388
 20
21.79824697158964
 30
0.0
 42
-0.0601870701866219
 70
     1
  0
VERTEX
  5
12D
330
122
100
AcDbEntity
  8
0
100
AcDbVertex
100
AcDb2dVertex
 10
38.29290494860613
 20
21.63158771480224
 30
0.0
  0
SEQEND
  5
12E
330
122
100
AcDbEntity
  8
0
  0
POLYLINE
  5
12F
330
2
100
AcDbEntity
  8
0
100
AcDb2dPolyline
 66
     1
 10
0.0
 20
0.0
 30
0.0
  0
VERTEX
  5
130
330
12F
100
AcDbEntity
  8
0
100
AcDbVertex
100
AcDb2dVertex
 10
33.74859274804018
 20
17.71577457890906
 30
0.0
 42
-0.0090454594700156
  0
VERTEX
  5
131
330
12F
100
AcDbEntity
  8
0
100
AcDbVertex
100
AcDb2dVertex
 10
34.04529012594867
 20
18.42845339028837
 30
0.0
 42
-0.014258225668687
  0
VERTEX
  5
132
330
12F
100
AcDbEntity
  8
0
100
AcDbVertex
100
AcDb2dVertex
 10
34.23869828360152
 20
18.83811367253946
 30
0.0
 42
-0.0050048180578869
  0
VERTEX
  5
133
330
12F
100
AcDbEntity
  8
0
100
AcDbVertex
100
AcDb2dVertex
 10
34.68594725354186
 20
19.69799908968296
 30
0.0
 42
-0.0100313573664842
  0
VERTEX
  5
134
330
12F
100
AcDbEntity
  8
0
100
AcDbVertex
100
AcDb2dVertex
 10
34.92004225153875
 20
20.11680955287874
 30
0.0
 42
-0.0641031603482201
  0
VERTEX
  5
135
330
12F
100
AcDbEntity
  8
0
100
AcDbVertex
100
AcDb2dVertex
 10
35.32446465684819
 20
20.64029350235585
 30
0.0
 42
-0.0481484310090242
  0
VERTEX
  5
136
330
12F
100
AcDbEntity
  8
0
100
AcDbVertex
100
AcDb2dVertex
 10
36.01758066360225
 20
21.2109027946978
 30
0.0
 42
-0.0660955379057856
  0
VERTEX
  5
137
330
12F
100
AcDbEntity
  8
0
100
AcDbVertex
100
AcDb2dVertex
 10
36.62273265012468
 20
21.51112986919503
 30
0.0
 42
-0.0582832503529036
  0
VERTEX
  5
138
330
12F
100
AcDbEntity
  8
0
100
AcDbVertex
100
AcDb2dVertex
 10
37.3790762977616
 20
21.67400295708612
 30
0.0
 42
-0.0519164631301105
  0
VERTEX
  5
139
330
12F
100
AcDbEntity
  8
0
100
AcDbVertex
100
AcDb2dVertex
 10
37.57348005375254
 20
21.67243391613443
 30
0.0
 42
-0.0609978249600475
  0
VERTEX
  5
13A
330
12F
100
AcDbEntity
  8
0
100
AcDbVertex
100
AcDb2dVertex
 10
38.25799643296416
 20
21.50951736264854
 30
0.0
 42
-0.0307746318536304
  0
SEQEND
  5
13B
330
12F
100
AcDbEntity
  8
0
  0
POLYLINE
  5
13C
330
2
100
AcDbEntity
  8
0
100
AcDb2dPolyline
 66
     1
 10
0.0
 20
0.0
 30
0.0
  0
VERTEX
  5
13D
330
13C
100
AcDbEntity
  8
0
100
AcDbVertex
100
AcDb2dVertex
 10
28.37562770852093
 20
14.51426946728535
 30
0.0
 42
-0.0105215678565089
  0
VERTEX
  5
13E
330
13C
100
AcDbEntity
  8
0
100
AcDbVertex
100
AcDb2dVertex
 10
29.30903457918555
 20
15.98979087446857
 30
0.0
 42
-0.0094061727837089
  0
VERTEX
  5
13F
330
13C
100
AcDbEntity
  8
0
100
AcDbVertex
100
AcDb2dVertex
 10
30.50016088892277
 20
17.71638170240802
 30
0.0
 42
-0.0594959512797053
  0
VERTEX
  5
140
330
13C
100
AcDbEntity
  8
0
100
AcDbVertex
100
AcDb2dVertex
 10
31.167785326269
 20
18.44526618328423
 30
0.0
 42
-0.0626672909161185
  0
VERTEX
  5
141
330
13C
100
AcDbEntity
  8
0
100
AcDbVertex
100
AcDb2dVertex
 10
31.95034026024
 20
18.96382311057754
 30
0.0
 42
-0.1729182134589026
  0
VERTEX
  5
142
330
13C
100
AcDbEntity
  8
0
100
AcDbVertex
100
AcDb2dVertex
 10
32.77479279647192
 20
19.06122229669568
 30
0.0
 42
-0.2306163698543328
  0
VERTEX
  5
143
330
13C
100
AcDbEntity
  8
0
100
AcDbVertex
100
AcDb2dVertex
 10
33.27049315367472
 20
18.66187117256741
 30
0.0
 42
-0.117215426576032
  0
VERTEX
  5
144
330
13C
100
AcDbEntity
  8
0
100
AcDbVertex
100
AcDb2dVertex
 10
33.33009031998737
 20
18.37660927501359
 30
0.0
 42
-0.098363413677237
  0
VERTEX
  5
145
330
13C
100
AcDbEntity
  8
0
100
AcDbVertex
100
AcDb2dVertex
 10
33.25342658340502
 20
18.03933090321539
 30
0.0
  0
SEQEND
  5
146
330
13C
100
AcDbEntity
  8
0
  0
POLYLINE
  5
147
330
2
100
AcDbEntity
  8
0
100
AcDb2dPolyline
 66
     1
 10
0.0
 20
0.0
 30
0.0
 70
     2
  0
VERTEX
  5
148
330
147
100
AcDbEntity
  8
0
100
AcDbVertex
100
AcDb2dVertex
 10
33.74859274804018
 20
17.71577457890906
 30
0.0
 42
-0.0996616698738212
  0
VERTEX
  5
149
330
147
100
AcDbEntity
  8
0
100
AcDbVertex
100
AcDb2dVertex
 10
34.28322128484541
 20
18.41015154510948
 30
0.0
 42
-0.1304846760931795
 70
     1
  0
VERTEX
  5
14A
330
147
100
AcDbEntity
  8
0
100
AcDbVertex
100
AcDb2dVertex
 10
34.88824432160015
 20
18.70726523908059
 30
0.0
 42
-0.0179132293094005
  0
VERTEX
  5
14B
330
147
100
AcDbEntity
  8
0
100
AcDbVertex
100
AcDb2dVertex
 10
35.45824582195022
 20
18.79992973975308
 30
0.0
 42
-0.0596171256545293
 70
     1
  0
VERTEX
  5
14C
330
147
100
AcDbEntity
  8
0
100
AcDbVertex
100
AcDb2dVertex
 10
35.63232076645833
 20
18.80101651858671
 30
0.0
 42
-0.014190467470801
  0
VERTEX
  5
14D
330
147
100
AcDbEntity
  8
0
100
AcDbVertex
100
AcDb2dVertex
 10
36.03031058552466
 20
18.74443201356372
 30
0.0
 42
-0.0081695280594904
 70
     1
  0
VERTEX
  5
14E
330
147
100
AcDbEntity
  8
0
100
AcDbVertex
100
AcDb2dVertex
 10
36.71644160134695
 20
18.61535695267633
 30
0.0
 42
-0.014687631596192
  0
VERTEX
  5
14F
330
147
100
AcDbEntity
  8
0
100
AcDbVertex
100
AcDb2dVertex
 10
36.91113235581002
 20
18.56943061332276
 30
0.0
 42
-0.0230772544378531
 70
     1
  0
VERTEX
  5
150
330
147
100
AcDbEntity
  8
0
100
AcDbVertex
100
AcDb2dVertex
 10
37.96177848769958
 20
18.23614565445121
 30
0.0
  0
SEQEND
  5
151
330
147
100
AcDbEntity
  8
0
  0
POLYLINE
  5
152
330
2
100
AcDbEntity
  8
0
100
AcDb2dPolyline
 66
     1
 10
0.0
 20
0.0
 30
0.0
  0
VERTEX
  5
153
330
152
100
AcDbEntity
  8
0
100
AcDbVertex
100
AcDb2dVertex
 10
28.04116133290533
 20
13.93330887064313
 30
0.0
 42
-0.0019532311262731
  0
VERTEX
  5
154
330
152
100
AcDbEntity
  8
0
100
AcDbVertex
100
AcDb2dVertex
 10
28.23989138358991
 20
14.28315885229938
 30
0.0
 42
-0.0003473206090482
  0
SEQEND
  5
155
330
152
100
AcDbEntity
  8
0
  0
POLYLINE
  5
156
330
2
100
AcDbEntity
  8
0
100
AcDb2dPolyline
 66
     1
 10
0.0
 20
0.0
 30
0.0
  0
VERTEX
  5
157
330
156
100
AcDbEntity
  8
0
100
AcDbVertex
100
AcDb2dVertex
 10
33.80564243957558
 20
17.67874909693832
 30
0.0
 42
-0.100602470618071
  0
VERTEX
  5
158
330
156
100
AcDbEntity
  8
0
100
AcDbVertex
100
AcDb2dVertex
 10
34.32754018651572
 20
18.35920995982187
 30
0.0
 42
-0.1304846760931796
  0
VERTEX
  5
159
330
156
100
AcDbEntity
  8
0
100
AcDbVertex
100
AcDb2dVertex
 10
34.90145905261518
 20
18.64104907005008
 30
0.0
 42
-0.0179132293094006
  0
VERTEX
  5
15A
330
156
100
AcDbEntity
  8
0
100
AcDbVertex
100
AcDb2dVertex
 10
35.46668663483948
 20
18.73293748024014
 30
0.0
 42
-0.0596171256545286
  0
VERTEX
  5
15B
330
156
100
AcDbEntity
  8
0
100
AcDbVertex
100
AcDb2dVertex
 10
35.62471706657694
 20
18.73392409051179
 30
0.0
 42
-0.0141904674708009
  0
VERTEX
  5
15C
330
156
100
AcDbEntity
  8
0
100
AcDbVertex
100
AcDb2dVertex
 10
36.01891313810477
 20
18.67787896442861
 30
0.0
 42
-0.0081695280594905
  0
VERTEX
  5
15D
330
156
100
AcDbEntity
  8
0
100
AcDbVertex
100
AcDb2dVertex
 10
36.70287584594231
 20
18.54921180593692
 30
0.0
 42
-0.0146876315961921
  0
VERTEX
  5
15E
330
156
100
AcDbEntity
  8
0
100
AcDbVertex
100
AcDb2dVertex
 10
36.89370645414069
 20
18.50419605110392
 30
0.0
 42
-0.0234338856978413
  0
VERTEX
  5
15F
330
156
100
AcDbEntity
  8
0
100
AcDbVertex
100
AcDb2dVertex
 10
37.95430158211252
 20
18.16692273688271
 30
0.0
 42
-0.0078405415920246
  0
SEQEND
  5
160
330
156
100
AcDbEntity
  8
0
  0
POLYLINE
  5
161
330
2
100
AcDbEntity
  8
0
100
AcDb2dPolyline
 66
     1
 10
0.0
 20
0.0
 30
0.0
  0
VERTEX
  5
162
330
161
100
AcDbEntity
  8
0
100
AcDbVertex
100
AcDb2dVertex
 10
28.03836703937525
 20
12.49381845396614
 30
0.0
 42
-0.0097099423530121
  0
VERTEX
  5
163
330
161
100
AcDbEntity
  8
0
100
AcDbVertex
100
AcDb2dVertex
 10
28.16664100911158
 20
13.94520327505967
 30
0.0
 42
-0.081045645706284
  0
VERTEX
  5
164
330
161
100
AcDbEntity
  8
0
100
AcDbVertex
100
AcDb2dVertex
 10
28.39676829641203
 20
14.68148884569586
 30
0.0
 42
-0.0217749119238539
  0
VERTEX
  5
165
330
161
100
AcDbEntity
  8
0
100
AcDbVertex
100
AcDb2dVertex
 10
29.15112229467936
 20
16.03576953624454
 30
0.0
 42
-0.024029778683436
  0
VERTEX
  5
166
330
161
100
AcDbEntity
  8
0
100
AcDbVertex
100
AcDb2dVertex
 10
29.94415312753215
 20
17.19542235431514
 30
0.0
 42
-0.0269578250493995
  0
VERTEX
  5
167
330
161
100
AcDbEntity
  8
0
100
AcDbVertex
100
AcDb2dVertex
 10
30.92469769809443
 20
18.35541900393311
 30
0.0
 42
-0.0501588725485598
  0
VERTEX
  5
168
330
161
100
AcDbEntity
  8
0
100
AcDbVertex
100
AcDb2dVertex
 10
31.5422591036338
 20
18.89151594714011
 30
0.0
 42
-0.1007759733468412
  0
VERTEX
  5
169
330
161
100
AcDbEntity
  8
0
100
AcDbVertex
100
AcDb2dVertex
 10
32.15556467334187
 20
19.16084844813907
 30
0.0
 42
-0.1068128346704971
  0
VERTEX
  5
16A
330
161
100
AcDbEntity
  8
0
100
AcDbVertex
100
AcDb2dVertex
 10
32.78832925066371
 20
19.16091242649935
 30
0.0
 42
-0.0973345706985054
  0
VERTEX
  5
16B
330
161
100
AcDbEntity
  8
0
100
AcDbVertex
100
AcDb2dVertex
 10
33.17015564877075
 20
18.9964204911715
 30
0.0
 42
-0.1029596574338274
  0
VERTEX
  5
16C
330
161
100
AcDbEntity
  8
0
100
AcDbVertex
100
AcDb2dVertex
 10
33.44258589082075
 20
18.71251050499703
 30
0.0
 42
-0.1452186910174186
  0
VERTEX
  5
16D
330
161
100
AcDbEntity
  8
0
100
AcDbVertex
100
AcDb2dVertex
 10
33.543496705661
 20
18.34951643305387
 30
0.0
 42
-0.1235969589601585
  0
VERTEX
  5
16E
330
161
100
AcDbEntity
  8
0
100
AcDbVertex
100
AcDb2dVertex
 10
33.42897449482649
 20
17.92452723611585
 30
0.0
 42
-0.1235969589601585
  0
SEQEND
  5
16F
330
161
100
AcDbEntity
  8
0
  0
POLYLINE
  5
170
330
2
100
AcDbEntity
  8
0
100
AcDb2dPolyline
 66
     1
 10
0.0
 20
0.0
 30
0.0
  0
VERTEX
  5
171
330
170
100
AcDbEntity
  8
0
100
AcDbVertex
100
AcDb2dVertex
 10
28.22737428411096
 20
14.00555170441583
 30
0.0
 42
-0.0016009215248785
  0
VERTEX
  5
172
330
170
100
AcDbEntity
  8
0
100
AcDbVertex
100
AcDb2dVertex
 10
28.39051577161813
 20
14.29121943290319
 30
0.0
 42
-0.0048444187042601
  0
VERTEX
  5
173
330
170
100
AcDbEntity
  8
0
100
AcDbVertex
100
AcDb2dVertex
 10
28.45134702263259
 20
14.39461929218074
 30
0.0
 42
-0.0109042884406211
  0
VERTEX
  5
174
330
170
100
AcDbEntity
  8
0
100
AcDbVertex
100
AcDb2dVertex
 10
29.41457964043577
 20
15.91987154056548
 30
0.0
 42
-0.0094061727837087
  0
VERTEX
  5
175
330
170
100
AcDbEntity
  8
0
100
AcDbVertex
100
AcDb2dVertex
 10
30.60300126249379
 20
17.64254180281753
 30
0.0
 42
-0.0594959512797083
  0
VERTEX
  5
176
330
170
100
AcDbEntity
  8
0
100
AcDbVertex
100
AcDb2dVertex
 10
31.2503467736551
 20
18.3492865989276
 30
0.0
 42
-0.0626672909161199
  0
VERTEX
  5
177
330
170
100
AcDbEntity
  8
0
100
AcDbVertex
100
AcDb2dVertex
 10
32.00655057291903
 20
18.85038205118421
 30
0.0
 42
-0.1729182134589028
  0
VERTEX
  5
178
330
170
100
AcDbEntity
  8
0
100
AcDbVertex
100
AcDb2dVertex
 10
32.74656436394966
 20
18.93780581155249
 30
0.0
 42
-0.2306163698543421
  0
VERTEX
  5
179
330
170
100
AcDbEntity
  8
0
100
AcDbVertex
100
AcDb2dVertex
 10
33.15591192386757
 20
18.60802309940187
 30
0.0
 42
-0.1172154265760446
  0
VERTEX
  5
17A
330
170
100
AcDbEntity
  8
0
100
AcDbVertex
100
AcDb2dVertex
 10
33.20353426101447
 20
18.38007873390628
 30
0.0
 42
-0.091594162847079
  0
VERTEX
  5
17B
330
170
100
AcDbEntity
  8
0
100
AcDbVertex
100
AcDb2dVertex
 10
33.14587380943681
 20
18.10966755808257
 30
0.0
 42
-0.0983634136772272
  0
SEQEND
  5
17C
330
170
100
AcDbEntity
  8
0
  0
POLYLINE
  5
17D
330
2
100
AcDbEntity
  8
0
100
AcDb2dPolyline
 66
     1
 10
0.0
 20
0.0
 30
0.0
  0
VERTEX
  5
17E
330
17D
100
AcDbEntity
  8
0
100
AcDbVertex
100
AcDb2dVertex
 10
28.04233454947864
 20
13.67630117440668
 30
0.0
 42
-0.0011755742929176
  0
VERTEX
  5
17F
330
17D
100
AcDbEntity
  8
0
100
AcDbVertex
100
AcDb2dVertex
 10
28.16040660637623
 20
13.8870459614216
 30
0.0
 42
-0.0048444187042601
  0
SEQEND
  5
180
330
17D
100
AcDbEntity
  8
0
  0
POLYLINE
  5
181
330
2
100
AcDbEntity
  8
0
100
AcDb2dPolyline
 66
     1
 10
0.0
 20
0.0
 30
0.0
  0
VERTEX
  5
182
330
181
100
AcDbEntity
  8
0
100
AcDbVertex
100
AcDb2dVertex
 10
28.08888891150982
 20
12.49034050208899
 30
0.0
 42
-0.0097042320385837
  0
VERTEX
  5
183
330
181
100
AcDbEntity
  8
0
100
AcDbVertex
100
AcDb2dVertex
 10
28.21689787434311
 20
13.93891547357489
 30
0.0
 42
-0.0809547164942278
  0
VERTEX
  5
184
330
181
100
AcDbEntity
  8
0
100
AcDbVertex
100
AcDb2dVertex
 10
28.44204020742688
 20
14.658795018643
 30
0.0
 42
-0.0217749119238539
  0
VERTEX
  5
185
330
181
100
AcDbEntity
  8
0
100
AcDbVertex
100
AcDb2dVertex
 10
29.19424882924214
 20
16.00922414625215
 30
0.0
 42
-0.0240297786834359
  0
VERTEX
  5
186
330
181
100
AcDbEntity
  8
0
100
AcDbVertex
100
AcDb2dVertex
 10
29.98453356777489
 20
17.164861337332
 30
0.0
 42
-0.0269578250493995
  0
VERTEX
  5
187
330
181
100
AcDbEntity
  8
0
100
AcDbVertex
100
AcDb2dVertex
 10
30.96155545732167
 20
18.32069061067935
 30
0.0
 42
-0.0501588725485582
  0
VERTEX
  5
188
330
181
100
AcDbEntity
  8
0
100
AcDbVertex
100
AcDb2dVertex
 10
31.57146335727173
 20
18.85014364622884
 30
0.0
 42
-0.1007759733468377
  0
VERTEX
  5
189
330
181
100
AcDbEntity
  8
0
100
AcDbVertex
100
AcDb2dVertex
 10
32.166265956526
 20
19.11135058705945
 30
0.0
 42
-0.1068128346704911
  0
VERTEX
  5
18A
330
181
100
AcDbEntity
  8
0
100
AcDbVertex
100
AcDb2dVertex
 10
32.77763797708283
 20
19.1114124024341
 30
0.0
 42
-0.0973345706985059
  0
VERTEX
  5
18B
330
181
100
AcDbEntity
  8
0
100
AcDbVertex
100
AcDb2dVertex
 10
33.14152651835136
 20
18.95464814859092
 30
0.0
 42
-0.1029596574338338
  0
VERTEX
  5
18C
330
181
100
AcDbEntity
  8
0
100
AcDbVertex
100
AcDb2dVertex
 10
33.39966811786899
 20
18.68562890388949
 30
0.0
 42
-0.1452186910174005
  0
VERTEX
  5
18D
330
181
100
AcDbEntity
  8
0
100
AcDbVertex
100
AcDb2dVertex
 10
33.49286281655019
 20
18.35039106826841
 30
0.0
 42
-0.1235969589601573
  0
VERTEX
  5
18E
330
181
100
AcDbEntity
  8
0
100
AcDbVertex
100
AcDb2dVertex
 10
33.38475683133437
 20
17.94921233179195
 30
0.0
 42
-0.1235969589601573
  0
SEQEND
  5
18F
330
181
100
AcDbEntity
  8
0
  0
ARC
  5
190
330
2
100
AcDbEntity
  8
0
100
AcDbCircle
 10
28.47897400615764
 20
12.46337615565604
 30
0.0
 40
0.4416573702584228
100
AcDbArc
 50
176.0476165128797
 51
243.6239936407432
  0
ELLIPSE
  5
191
330
2
100
AcDbEntity
  8
0
100
AcDbEllipse
 10
28.40258717335525
 20
12.17964027123308
 30
0.0
 11
0.0058344653748867
 21
0.2217127921724654
 31
0.0
210
0.0
220
0.0
230
1.0
 40
0.6665476738279228
 41
2.140156346915849
 42
6.71586156097118
  0
ELLIPSE
  5
192
330
2
100
AcDbEntity
  8
0
100
AcDbEllipse
 10
33.08239629171731
 20
18.88034618320684
 30
0.0
 11
-0.0944609933453032
 21
-0.1714644939285736
 31
0.0
210
0.0
220
0.0
230
1.0
 40
0.6966377084348002
 41
2.317372192700861
 42
7.034536058231037
  0
ELLIPSE
  5
193
330
2
100
AcDbEntity
  8
0
100
AcDbEllipse
 10
33.08239629171731
 20
18.88034618320684
 30
0.0
 11
-0.0944609933453032
 21
-0.1714644939285736
 31
0.0
210
0.0
220
0.0
230
1.0
 40
0.6966377084348002
 41
7.73475301788097
 42
8.253397697438867
  0
ELLIPSE
  5
194
330
2
100
AcDbEntity
  8
0
100
AcDbEllipse
 10
31.71364753297929
 20
18.84643552597269
 30
0.0
 11
0.0852981273424348
 21
-0.1606736661844261
 31
0.0
210
0.0
220
0.0
230
1.0
 40
0.6955370175134826
 41
2.395733646335066
 42
7.032737609202915
  0
ELLIPSE
  5
195
330
2
100
AcDbEntity
  8
0
100
AcDbEllipse
 10
31.71364753297929
 20
18.84643552597269
 30
0.0
 11
0.0852981273424348
 21
-0.1606736661844261
 31
0.0
210
0.0
220
0.0
230
1.0
 40
0.6955370175134826
 41
7.82116960028383
 42
8.325825373755156
  0
ELLIPSE
  5
196
330
2
100
AcDbEntity
  8
0
100
AcDbEllipse
 10
30.01029902521649
 20
17.06397753562466
 30
0.0
 11
0.0852981273424348
 21
-0.1606736661844261
 31
0.0
210
0.0
220
0.0
230
1.0
 40
0.6955370175134826
 41
2.748532290041686
 42
7.136116222256497
  0
ELLIPSE
  5
197
330
2
100
AcDbEntity
  8
0
100
AcDbEllipse
 10
30.01029902521649
 20
17.06397753562466
 30
0.0
 11
0.0852981273424348
 21
-0.1606736661844261
 31
0.0
210
0.0
220
0.0
230
1.0
 40
0.6955370175134826
 41
8.059929204959992
 42
8.654263675591103
  0
ELLIPSE
  5
198
330
2
100
AcDbEntity
  8
0
100
AcDbEllipse
 10
28.99436972368596
 20
15.51157889104273
 30
0.0
 11
0.0852981273424348
 21
-0.1606736661844261
 31
0.0
210
0.0
220
0.0
230
1.0
 40
0.6955370175134826
 41
2.895213874771018
 42
7.368341267273701
  0
ELLIPSE
  5
199
330
2
100
AcDbEntity
  8
0
100
AcDbEllipse
 10
28.99436972368596
 20
15.51157889104273
 30
0.0
 11
0.0852981273424348
 21
-0.1606736661844261
 31
0.0
210
0.0
220
0.0
230
1.0
 40
0.6955370175134826
 41
8.212141231175476
 42
8.776636995203439
  0
ELLIPSE
  5
19A
330
2
100
AcDbEntity
  8
0
100
AcDbEllipse
 10
32.1815536650228
 20
17.30472596688284
 30
0.0
 11
0.0389222731760407
 21
0.2630832371783094
 31
0.0
210
0.0
220
0.0
230
1.0
 40
0.6954434584115976
 41
1.806710083173815
 42
7.015414053598486
  0
ELLIPSE
  5
19B
330
2
100
AcDbEntity
  8
0
100
AcDbEllipse
 10
32.10411687581792
 20
16.94893498759301
 30
0.0
 11
0.0237364084987327
 21
0.1180173741903168
 31
0.0
210
0.0
220
0.0
230
1.0
 40
0.5958825818481192
 41
0.0
 42
6.283185307179585
  0
ARC
  5
19C
330
2
100
AcDbEntity
  8
0
100
AcDbCircle
 10
24.89953958059712
 20
18.2971719297285
 30
0.0
 40
7.325355930620399
100
AcDbArc
 50
300.1708019592548
 51
348.4605684668725
  0
ELLIPSE
  5
19D
330
2
100
AcDbEntity
  8
0
100
AcDbEllipse
 10
28.49883794384238
 20
11.96522133626165
 30
0.0
 11
-0.0822702124570716
 21
0.0014643404917775
 31
0.0
210
0.0
220
0.0
230
0.9999999999999998
 40
0.6279380108771444
 41
0.0
 42
6.283185307179585
  0
SPLINE
  5
19E
330
2
100
AcDbEntity
  8
0
100
AcDbSpline
210
0.0
220
0.0
230
1.0
 70
     8
 71
     3
 72
    12
 73
     8
 74
     0
 42
0.000000001
 43
0.0000000001
 40
0.0
 40
0.0
 40
0.0
 40
0.0
 40
0.0561527116454317
 40
0.2973809050237443
 40
0.5349953206127607
 40
0.7911384943783137
 40
1.0
 40
1.0
 40
1.0
 40
1.0
 10
3.274354089432339
 20
6.284673612801027
 30
0.0
 10
3.278464629679702
 20
6.283655450263134
 30
0.0
 10
3.300233768569967
 20
6.278263331376941
 30
0.0
 10
3.341058487035037
 20
6.29254903398046
 30
0.0
 10
3.387000367662058
 20
6.325660459997839
 30
0.0
 10
3.422341722487077
 20
6.373737005006157
 30
0.0
 10
3.437648661504483
 20
6.413420494320366
 30
0.0
 10
3.444523926359595
 20
6.431244730707453
 30
0.0
  0
SPLINE
  5
19F
330
2
100
AcDbEntity
  8
0
100
AcDbSpline
210
0.0
220
0.0
230
1.0
 70
     8
 71
     3
 72
    14
 73
    10
 74
     0
 42
0.000000001
 43
0.0000000001
 40
0.0
 40
0.0
 40
0.0
 40
0.0
 40
0.0895666099134426
 40
0.2574446574809165
 40
0.4265404418782642
 40
0.598483907174928
 40
0.7563954180467296
 40
0.9018621575732323
 40
1.0
 40
1.0
 40
1.0
 40
1.0
 10
3.444523926359595
 20
6.431244730707453
 30
0.0
 10
3.448368384159277
 20
6.44445039781655
 30
0.0
 10
3.459418653030844
 20
6.482407940800435
 30
0.0
 10
3.466068338521046
 20
6.550977023606188
 30
0.0
 10
3.458332660780797
 20
6.630366175928787
 30
0.0
 10
3.434716777988778
 20
6.699351601212144
 30
0.0
 10
3.398084187085746
 20
6.749985009881793
 30
0.0
 10
3.356064489838869
 20
6.780867710082464
 30
0.0
 10
3.325912302509734
 20
6.783473240637113
 30
0.0
 10
3.313765278897963
 20
6.784522897195119
 30
0.0
  0
LINE
  5
1A0
330
2
100
AcDbEntity
  8
0
100
AcDbLine
 10
3.152806923558587
 20
6.290373847257243
 30
0.0
 11
3.277432062413174
 21
6.282328830306703
 31
0.0
  0
LINE
  5
1A1
330
2
100
AcDbEntity
  8
0
100
AcDbLine
 10
3.315418295906496
 20
6.786821641274388
 30
0.0
 11
3.190992629021787
 21
6.79752952332355
 31
0.0
  0
LINE
  5
1A2
330
2
100
AcDbEntity
  8
0
100
AcDbLine
 10
2.970798598182498
 20
6.888208447475673
 30
0.0
 11
2.7389998956779
 21
6.903170833847411
 31
0.0
  0
SPLINE
  5
1A3
330
2
100
AcDbEntity
  8
0
100
AcDbSpline
210
0.0
220
0.0
230
1.0
 70
     8
 71
     3
 72
    12
 73
     8
 74
     0
 42
0.000000001
 43
0.0000000001
 40
0.0
 40
0.0
 40
0.0
 40
0.0
 40
0.0561526623884076
 40
0.2973808932933741
 40
0.5349958086800302
 40
0.7911384618867823
 40
1.0
 40
1.0
 40
1.0
 40
1.0
 10
3.575647765368597
 20
7.199446599358506
 30
0.0
 10
3.57975830580337
 20
7.198428407062963
 30
0.0
 10
3.601527463923574
 20
7.193036126064852
 30
0.0
 10
3.642352230246117
 20
7.207321955645922
 30
0.0
 10
3.688293924306864
 20
7.240433516169948
 30
0.0
 10
3.723635448845874
 20
7.288509934694621
 30
0.0
 10
3.738942347351309
 20
7.328193391814759
 30
0.0
 10
3.745817602295781
 20
7.34601763522261
 30
0.0
  0
SPLINE
  5
1A4
330
2
100
AcDbEntity
  8
0
100
AcDbSpline
210
0.0
220
0.0
230
1.0
 70
     8
 71
     3
 72
    14
 73
    10
 74
     0
 42
0.000000001
 43
0.0000000001
 40
0.0
 40
0.0
 40
0.0
 40
0.0
 40
0.0895670159676381
 40
0.2574451310446296
 40
0.4265406876876749
 40
0.5984844361673513
 40
0.7563960547221375
 40
0.9018622010086328
 40
1.0
 40
1.0
 40
1.0
 40
1.0
 10
3.745817602295781
 20
7.34601763522261
 30
0.0
 10
3.74966205732978
 20
7.359223355003141
 30
0.0
 10
3.760712288481711
 20
7.397180947122379
 30
0.0
 10
3.767362079469005
 20
7.465750077209674
 30
0.0
 10
3.759626119377848
 20
7.545139063638978
 30
0.0
 10
3.736011145933017
 20
7.61412487292478
 30
0.0
 10
3.699375711491716
 20
7.664757376445363
 30
0.0
 10
3.657358414561561
 20
7.695640651402289
 30
0.0
 10
3.627206068687842
 20
7.698246271061651
 30
0.0
 10
3.615058954834221
 20
7.699295965794975
 30
0.0
  0
LINE
  5
1A5
330
2
100
AcDbEntity
  8
0
100
AcDbLine
 10
3.454099286809135
 20
7.20514637283321
 30
0.0
 11
3.57872573835315
 21
7.197101898906036
 31
0.0
  0
LINE
  5
1A6
330
2
100
AcDbEntity
  8
0
100
AcDbLine
 10
3.616711971846544
 20
7.701594545788814
 30
0.0
 11
3.492286304961931
 21
7.712302427837927
 31
0.0
  0
LINE
  5
1A7
330
2
100
AcDbEntity
  8
0
100
AcDbLine
 10
3.272092274122546
 20
7.802981351990057
 30
0.0
 11
3.040293571607716
 21
7.817943738361837
 31
0.0
  0
LINE
  5
1A8
330
2
100
AcDbEntity
  8
0
100
AcDbLine
 10
3.517102970570278
 20
8.121141018755361
 30
0.0
 11
3.417984947521417
 21
8.127201508680448
 31
0.0
  0
LINE
  5
1A9
330
2
100
AcDbEntity
  8
0
100
AcDbLine
 10
3.495725842688313
 20
4.36263587169043
 30
0.0
 11
3.538483695422374
 21
4.49245625592845
 31
0.0
  0
LINE
  5
1AA
330
2
100
AcDbEntity
  8
0
100
AcDbLine
 10
4.662298529514529
 20
3.661111891650908
 30
0.0
 11
4.695954274641191
 21
3.763295207595307
 31
0.0
  0
LINE
  5
1AB
330
2
100
AcDbEntity
  8
0
100
AcDbLine
 10
4.591176326122465
 20
3.108079665363226
 30
0.0
 11
4.901374904057495
 21
3.081384522662735
 31
0.0
  0
LINE
  5
1AC
330
2
100
AcDbEntity
  8
0
100
AcDbLine
 10
5.292816177245556
 20
2.751537759760915
 30
0.0
 11
5.392369402821178
 21
2.742639094376357
 31
0.0
  0
SPLINE
  5
1AD
330
2
100
AcDbEntity
  8
0
100
AcDbSpline
210
0.0
220
0.0
230
1.0
 70
     8
 71
     3
 72
     9
 73
     5
 74
     0
 42
0.000000001
 43
0.0000000001
 40
0.0
 40
0.0
 40
0.0
 40
0.0
 40
0.6184372295390216
 40
1.0
 40
1.0
 40
1.0
 40
1.0
 10
4.801053419576855
 20
7.497123484877069
 30
0.0
 10
4.78616017742723
 20
7.508235796426069
 30
0.0
 10
4.762078117941973
 20
7.526204170608878
 30
0.0
 10
4.732287200268941
 20
7.528374485017158
 30
0.0
 10
4.720920095187029
 20
7.529202596195535
 30
0.0
  0
LINE
  5
1AE
330
2
100
AcDbEntity
  8
0
100
AcDbLine
 10
4.721500471618155
 20
7.531463419911849
 30
0.0
 11
3.75698671909694
 21
7.617678904910332
 31
0.0
  0
LINE
  5
1AF
330
2
100
AcDbEntity
  8
0
100
AcDbLine
 10
5.582656985248981
 20
6.820234941321505
 30
0.0
 11
4.801053419572597
 21
7.497123484878778
 31
0.0
  0
SPLINE
  5
1B0
330
2
100
AcDbEntity
  8
0
100
AcDbSpline
210
0.0
220
0.0
230
1.0
 70
     8
 71
     3
 72
     9
 73
     5
 74
     0
 42
0.000000001
 43
0.0000000001
 40
0.0
 40
0.0
 40
0.0
 40
0.0
 40
0.4962257895678297
 40
1.0
 40
1.0
 40
1.0
 40
1.0
 10
4.334338601725687
 20
4.290498840986756
 30
0.0
 10
4.340898007831549
 20
4.296023381347107
 30
0.0
 10
4.354116599536768
 20
4.307156499529383
 30
0.0
 10
4.363587819726076
 20
4.32011734899495
 30
0.0
 10
4.368359176198717
 20
4.326646690700992
 30
0.0
  0
SPLINE
  5
1B1
330
2
100
AcDbEntity
  8
0
100
AcDbSpline
210
0.0
220
0.0
230
1.0
 70
     8
 71
     3
 72
    10
 73
     6
 74
     0
 42
0.000000001
 43
0.0000000001
 40
0.0
 40
0.0
 40
0.0
 40
0.0
 40
0.4246994035048667
 40
0.9248441483348596
 40
1.0
 40
1.0
 40
1.0
 40
1.0
 10
4.279174413083498
 20
4.262455574593404
 30
0.0
 10
4.287186167217031
 20
4.264715160600438
 30
0.0
 10
4.304632916299201
 20
4.269635734726556
 30
0.0
 10
4.323705691239291
 20
4.280663231397456
 30
0.0
 10
4.333110040696646
 20
4.28936240269421
 30
0.0
 10
4.334338601725687
 20
4.290498840986792
 30
0.0
  0
LINE
  5
1B2
330
2
100
AcDbEntity
  8
0
100
AcDbLine
 10
4.368359176199113
 20
4.326646690697057
 30
0.0
 11
4.393829265736474
 21
4.360589360357459
 31
0.0
  0
LINE
  5
1B3
330
2
100
AcDbEntity
  8
0
100
AcDbLine
 10
4.261569387956189
 20
4.25922389335404
 30
0.0
 11
4.279174413078735
 21
4.262455574595898
 31
0.0
  0
SPLINE
  5
1B4
330
2
100
AcDbEntity
  8
0
100
AcDbSpline
210
0.0
220
0.0
230
1.0
 70
     8
 71
     2
 72
     6
 73
     3
 74
     0
 42
0.000000001
 43
0.0000000001
 40
0.0
 40
0.0
 40
0.0
 40
1.0
 40
1.0
 40
1.0
 10
4.258975472137521
 20
4.258654210939706
 30
0.0
 10
4.260282943211068
 20
4.258943185812566
 30
0.0
 10
4.261569387957653
 20
4.259223893354112
 30
0.0
  0
SPLINE
  5
1B5
330
2
100
AcDbEntity
  8
0
100
AcDbSpline
210
0.0
220
0.0
230
1.0
 70
     8
 71
     3
 72
    12
 73
     8
 74
     0
 42
0.000000001
 43
0.0000000001
 40
0.0
 40
0.0
 40
0.0
 40
0.0
 40
0.067366168286369
 40
0.3069842954474938
 40
0.5348031355017388
 40
0.7837831707209901
 40
1.0
 40
1.0
 40
1.0
 40
1.0
 10
5.477267183006432
 20
3.230861576937236
 30
0.0
 10
5.482131692594593
 20
3.229975837798186
 30
0.0
 10
5.504299022080646
 20
3.225939568369955
 30
0.0
 10
5.543460896634521
 20
3.239032789013777
 30
0.0
 10
5.586697053813121
 20
3.267728851363413
 30
0.0
 10
5.618734109848521
 20
3.308074734750406
 30
0.0
 10
5.631643024412152
 20
3.340773378510567
 30
0.0
 10
5.637642902720386
 20
3.355971239061878
 30
0.0
  0
LINE
  5
1B6
330
2
100
AcDbEntity
  8
0
100
AcDbLine
 10
4.967309951144525
 20
3.259995657883305
 30
0.0
 11
5.476803931723615
 21
3.228844490224218
 31
0.0
  0
LINE
  5
1B7
330
2
100
AcDbEntity
  8
0
100
AcDbLine
 10
5.909337163164096
 20
3.828557140777729
 30
0.0
 11
6.047745593834796
 21
3.941424352456746
 31
0.0
  0
SPLINE
  5
1B8
330
2
100
AcDbEntity
  8
0
100
AcDbSpline
210
0.0
220
0.0
230
1.0
 70
     8
 71
     3
 72
    11
 73
     7
 74
     0
 42
0.000000001
 43
0.0000000001
 40
0.0
 40
0.0
 40
0.0
 40
0.0
 40
0.1430693510064041
 40
0.4273942590745158
 40
0.7122227007896444
 40
1.0
 40
1.0
 40
1.0
 40
1.0
 10
5.689663009739594
 20
3.513910577157723
 30
0.0
 10
5.695635462287675
 20
3.530561494982005
 30
0.0
 10
5.713477102818783
 20
3.580303152691007
 30
0.0
 10
5.757486923742971
 20
3.661731308144611
 30
0.0
 10
5.825314115318349
 20
3.75325055952998
 30
0.0
 10
5.881233487647915
 20
3.803368912332806
 30
0.0
 10
5.909337163165559
 20
3.82855714077629
 30
0.0
  0
LINE
  5
1B9
330
2
100
AcDbEntity
  8
0
100
AcDbLine
 10
5.637642902719103
 20
3.355971239061752
 30
0.0
 11
5.689663009740794
 21
3.513910577160344
 31
0.0
  0
LINE
  5
1BA
330
2
100
AcDbEntity
  8
0
100
AcDbLine
 10
5.83097645561112
 20
7.558883194971289
 30
0.0
 11
5.237428202799597
 21
5.756780489491666
 31
0.0
  0
LINE
  5
1BB
330
2
100
AcDbEntity
  8
0
100
AcDbLine
 10
5.797899207414328
 20
8.190583336077063
 30
0.0
 11
5.433273066164477
 21
8.32776608092405
 31
0.0
  0
LINE
  5
1BC
330
2
100
AcDbEntity
  8
0
100
AcDbLine
 10
6.204068097012418
 20
8.048045639594569
 30
0.0
 11
6.103764875155956
 21
8.13491077780216
 31
0.0
  0
LINE
  5
1BD
330
2
100
AcDbEntity
  8
0
100
AcDbLine
 10
6.077117828705079
 20
8.145617640624612
 30
0.0
 11
5.947022273768265
 21
8.155412708762865
 31
0.0
  0
LINE
  5
1BE
330
2
100
AcDbEntity
  8
0
100
AcDbLine
 10
4.729113686997063
 20
8.385201136956791
 30
0.0
 11
4.715555038394271
 21
8.344036250895966
 31
0.0
  0
LINE
  5
1BF
330
2
100
AcDbEntity
  8
0
100
AcDbLine
 10
4.723649749395604
 20
8.323938509313249
 30
0.0
 11
4.50454151544848
 21
8.3404361942745
 31
0.0
  0
LINE
  5
1C0
330
2
100
AcDbEntity
  8
0
100
AcDbLine
 10
4.322503755550498
 20
8.434575862127845
 30
0.0
 11
3.76934003408238
 21
8.476226483775267
 31
0.0
  0
LINE
  5
1C1
330
2
100
AcDbEntity
  8
0
100
AcDbLine
 10
4.504576146857577
 20
8.340406811172258
 30
0.0
 11
4.450586795144089
 21
8.386313161208644
 31
0.0
  0
LINE
  5
1C2
330
2
100
AcDbEntity
  8
0
100
AcDbLine
 10
1.434132366011316
 20
4.258432761204058
 30
0.0
 11
1.434132366011316
 21
4.218791220861721
 31
0.0
  0
LINE
  5
1C3
330
2
100
AcDbEntity
  8
0
100
AcDbLine
 10
3.265259757446226
 20
8.172782342993356
 30
0.0
 11
3.002640036323631
 21
8.018980107626925
 31
0.0
  0
LINE
  5
1C4
330
2
100
AcDbEntity
  8
0
100
AcDbLine
 10
8.599280354098876
 20
7.94205722501093
 30
0.0
 11
8.806230566627338
 21
7.92647518648279
 31
0.0
  0
LINE
  5
1C5
330
2
100
AcDbEntity
  8
0
100
AcDbLine
 10
8.833904327415995
 20
8.826769474936215
 30
0.0
 11
8.673644772850597
 21
8.965558320390895
 31
0.0
  0
LINE
  5
1C6
330
2
100
AcDbEntity
  8
0
100
AcDbLine
 10
7.963435671659398
 20
6.516796509028043
 30
0.0
 11
8.032858196490421
 21
6.548543881524201
 31
0.0
  0
SPLINE
  5
1C7
330
2
100
AcDbEntity
  8
0
100
AcDbSpline
210
0.0
220
0.0
230
1.0
 70
     8
 71
     3
 72
    10
 73
     6
 74
     0
 42
0.000000001
 43
0.0000000001
 40
0.0
 40
0.0
 40
0.0
 40
0.0
 40
0.223414656091903
 40
0.6496074072459033
 40
1.0
 40
1.0
 40
1.0
 40
1.0
 10
8.067632014698679
 20
6.602902239488662
 30
0.0
 10
8.072663142569286
 20
6.613701010572301
 30
0.0
 10
8.087291806546645
 20
6.645099853458456
 30
0.0
 10
8.12604858685345
 20
6.681256378175567
 30
0.0
 10
8.153135279186255
 20
6.696717896341355
 30
0.0
 10
8.165356700090029
 20
6.703694079294716
 30
0.0
  0
LINE
  5
1C8
330
2
100
AcDbEntity
  8
0
100
AcDbLine
 10
8.057111509553172
 20
6.582646809706385
 30
0.0
 11
8.067632014698116
 21
6.602902239492903
 31
0.0
  0
LINE
  5
1C9
330
2
100
AcDbEntity
  8
0
100
AcDbLine
 10
7.023241412204002
 20
9.151488862295238
 30
0.0
 11
6.980793351415937
 21
9.022611619573368
 31
0.0
  0
LINE
  5
1CA
330
2
100
AcDbEntity
  8
0
100
AcDbLine
 10
8.202410999552096
 20
6.084391826502314
 30
0.0
 11
8.227841052295893
 21
6.062368754802578
 31
0.0
  0
SPLINE
  5
1CB
330
2
100
AcDbEntity
  8
0
100
AcDbSpline
210
0.0
220
0.0
230
1.0
 70
     8
 71
     3
 72
    12
 73
     8
 74
     0
 42
0.000000001
 43
0.0000000001
 40
0.0
 40
0.0
 40
0.0
 40
0.0
 40
0.0606925764686208
 40
0.3204610155387727
 40
0.5571976569296279
 40
0.7857352886232667
 40
1.0
 40
1.0
 40
1.0
 40
1.0
 10
12.41284517708091
 20
9.418182269388122
 30
0.0
 10
12.4087808936319
 20
9.412861769730296
 30
0.0
 10
12.38732119497842
 20
9.384769162318924
 30
0.0
 10
12.36864017340579
 20
9.3255798694758
 30
0.0
 10
12.36134475269857
 20
9.249768106620377
 30
0.0
 10
12.3754584062038
 20
9.179519698815083
 30
0.0
 10
12.40125622622233
 20
9.142406179620593
 30
0.0
 10
12.41373936355651
 20
9.124447563089237
 30
0.0
  0
SPLINE
  5
1CC
330
2
100
AcDbEntity
  8
0
100
AcDbSpline
210
0.0
220
0.0
230
1.0
 70
     8
 71
     3
 72
    13
 73
     9
 74
     0
 42
0.000000001
 43
0.0000000001
 40
0.0
 40
0.0
 40
0.0
 40
0.0
 40
0.1303754809643037
 40
0.303283450701318
 40
0.4791018037484784
 40
0.6622248062783119
 40
0.8520685611530565
 40
1.0
 40
1.0
 40
1.0
 40
1.0
 10
12.769845852127
 20
9.529545072980402
 30
0.0
 10
12.7549911385248
 20
9.538670904780939
 30
0.0
 10
12.72043564720743
 20
9.559899695183213
 30
0.0
 10
12.6548453735837
 20
9.567591536042543
 30
0.0
 10
12.5823878118556
 20
9.5569184206739
 30
0.0
 10
12.51179197591336
 20
9.52400535318722
 30
0.0
 10
12.451591412251
 20
9.476886310525983
 30
0.0
 10
12.42464609956022
 20
9.436061731370593
 30
0.0
 10
12.41284517708091
 20
9.418182269388122
 30
0.0
  0
LINE
  5
1CD
330
2
100
AcDbEntity
  8
0
100
AcDbLine
 10
12.83206131397846
 20
9.48992621532745
 30
0.0
 11
12.769845852127
 21
9.529545072980402
 31
0.0
  0
LINE
  5
1CE
330
2
100
AcDbEntity
  8
0
100
AcDbLine
 10
12.41721669044054
 20
9.119794724253463
 30
0.0
 11
12.44128898647413
 21
9.092619535850838
 31
0.0
  0
SPLINE
  5
1CF
330
2
100
AcDbEntity
  8
0
100
AcDbSpline
210
0.0
220
0.0
230
1.0
 70
     8
 71
     3
 72
    12
 73
     8
 74
     0
 42
0.000000001
 43
0.0000000001
 40
0.0
 40
0.0
 40
0.0
 40
0.0
 40
0.0606937166279216
 40
0.3204616990037354
 40
0.5571981577917608
 40
0.7857356728127673
 40
1.0
 40
1.0
 40
1.0
 40
1.0
 10
24.65767694002568
 20
12.95296072664704
 30
0.0
 10
24.65361247700252
 20
12.94764018860771
 30
0.0
 10
24.63215218756394
 20
12.91954784636174
 30
0.0
 10
24.61347179373066
 20
12.86035812541385
 30
0.0
 10
24.60617607621581
 20
12.78454645242064
 30
0.0
 10
24.62029009239784
 20
12.71429818090041
 30
0.0
 10
24.64608774855196
 20
12.67718457312185
 30
0.0
 10
24.65857079833179
 20
12.65922592561377
 30
0.0
  0
SPLINE
  5
1D0
330
2
100
AcDbEntity
  8
0
100
AcDbSpline
210
0.0
220
0.0
230
1.0
 70
     8
 71
     3
 72
    13
 73
     9
 74
     0
 42
0.000000001
 43
0.0000000001
 40
0.0
 40
0.0
 40
0.0
 40
0.0
 40
0.1303755812226645
 40
0.3032836839253981
 40
0.4791021721763542
 40
0.6622244685674682
 40
0.8520687492924226
 40
1.0
 40
1.0
 40
1.0
 40
1.0
 10
25.01467728690226
 20
13.06432343550493
 30
0.0
 10
24.99982257316263
 20
13.07344926780884
 30
0.0
 10
24.96526708152539
 20
13.094678059382
 30
0.0
 10
24.89967681092243
 20
13.10236988918269
 30
0.0
 10
24.82721935214651
 20
13.09169683633474
 30
0.0
 10
24.75662361544032
 20
13.05878366920272
 30
0.0
 10
24.69642303573779
 20
13.01166483089801
 30
0.0
 10
24.66947780138787
 20
12.97084017960677
 30
0.0
 10
24.65767694002568
 20
12.95296072664704
 30
0.0
  0
LINE
  5
1D1
330
2
100
AcDbEntity
  8
0
100
AcDbLine
 10
24.66204828930296
 20
12.6545731341418
 30
0.0
 11
24.68612042125164
 21
12.62739789836803
 31
0.0
  0
LINE
  5
1D2
330
2
100
AcDbEntity
  8
0
100
AcDbLine
 10
24.68612042125164
 20
12.62739789836803
 30
0.0
 11
24.74624119953171
 21
12.57095912273966
 31
0.0
  0
LINE
  5
1D3
330
2
100
AcDbEntity
  8
0
100
AcDbLine
 10
25.11249453943884
 20
12.99387214376806
 30
0.0
 11
25.05404001343127
 21
13.0411716378521
 31
0.0
  0
LINE
  5
1D4
330
2
100
AcDbEntity
  8
0
100
AcDbLine
 10
12.44128898647413
 20
9.092619535850838
 30
0.0
 11
12.50140992883902
 21
9.036180807583381
 31
0.0
  0
LINE
  5
1D5
330
2
100
AcDbEntity
  8
0
100
AcDbLine
 10
12.8676634328311
 20
9.459093875972701
 30
0.0
 11
12.83206131397846
 21
9.48992621532745
 31
0.0
  0
LINE
  5
1D6
330
2
100
AcDbEntity
  8
0
100
AcDbLine
 10
28.13168573887528
 20
13.6071702437238
 30
0.0
 11
28.1301534257709
 21
13.60672790303221
 31
0.0
  0
LINE
  5
1D7
330
2
100
AcDbEntity
  8
0
100
AcDbLine
 10
30.9889676481477
 20
14.0759987667385
 30
0.0
 11
30.96789841839376
 21
14.09424525494353
 31
0.0
  0
LINE
  5
1D8
330
2
100
AcDbEntity
  8
0
100
AcDbLine
 10
30.96789841839376
 20
14.09424525494353
 30
0.0
 11
29.2147633200302
 21
15.61533981815106
 31
0.0
  0
LINE
  5
1D9
330
2
100
AcDbEntity
  8
0
100
AcDbLine
 10
29.11765799589437
 20
15.69824901778897
 30
0.0
 11
29.04426891001419
 21
15.7610444525827
 31
0.0
  0
LINE
  5
1DA
330
2
100
AcDbEntity
  8
0
100
AcDbLine
 10
29.00502477119473
 20
15.794143697832
 30
0.0
 11
28.14080079276988
 21
16.54258361770542
 31
0.0
  0
LINE
  5
1DB
330
2
100
AcDbEntity
  8
0
100
AcDbLine
 10
28.0493530911794
 20
16.54028690713856
 30
0.0
 11
8.845229234879347
 21
10.99653386814481
 31
0.0
  0
LINE
  5
1DC
330
2
100
AcDbEntity
  8
0
100
AcDbLine
 10
28.15479987974555
 20
12.1785158116899
 30
0.0
 11
30.85038625283571
 21
9.844069534499475
 31
0.0
  0
LINE
  5
1DD
330
2
100
AcDbEntity
  8
0
100
AcDbLine
 10
31.68584024131608
 20
10.12267689610307
 30
0.0
 11
31.68584024131608
 21
10.16672305488262
 31
0.0
  0
LINE
  5
1DE
330
2
100
AcDbEntity
  8
0
100
AcDbLine
 10
11.69164852555985
 20
5.113616126334134
 30
0.0
 11
30.15739442259308
 21
10.44421780855915
 31
0.0
  0
LINE
  5
1DF
330
2
100
AcDbEntity
  8
0
100
AcDbLine
 10
5.434682759819936
 20
5.765862701361742
 30
0.0
 11
5.487169412799277
 21
5.720407926534878
 31
0.0
  0
LINE
  5
1E0
330
2
100
AcDbEntity
  8
0
100
AcDbLine
 10
6.007958921391214
 20
7.690905576218025
 30
0.0
 11
5.992893318717147
 21
7.645166797000809
 31
0.0
  0
LINE
  5
1E1
330
2
100
AcDbEntity
  8
0
100
AcDbLine
 10
9.743044821714564
 20
5.090516822801564
 30
0.0
 11
8.915247909659241
 21
5.152845949644559
 31
0.0
  0
LINE
  5
1E2
330
2
100
AcDbEntity
  8
0
100
AcDbLine
 10
9.798247804240002
 20
4.976983799917487
 30
0.0
 11
9.813312094224581
 21
5.022722364271044
 31
0.0
  0
ARC
  5
1E3
330
2
100
AcDbEntity
  8
0
100
AcDbCircle
 10
6.153031283944664
 20
8.182746720109403
 30
0.0
 40
0.024986479884861
100
AcDbArc
 50
99.61106931520331
 51
162.1753033699013
  0
LINE
  5
1E4
330
2
100
AcDbEntity
  8
0
100
AcDbLine
 10
6.322425752095765
 20
8.226882302821667
 30
0.0
 11
6.277477040180391
 21
8.221832675680804
 31
0.0
  0
LINE
  5
1E5
330
2
100
AcDbEntity
  8
0
100
AcDbLine
 10
6.273063817543262
 20
8.221336777794562
 30
0.0
 11
6.148859560409176
 21
8.207382484751411
 31
0.0
  0
LINE
  5
1E6
330
2
100
AcDbEntity
  8
0
100
AcDbLine
 10
6.129244216615848
 20
8.190395223521907
 30
0.0
 11
6.109370275301022
 21
8.130056294831604
 31
0.0
  0
LINE
  5
1E7
330
2
100
AcDbEntity
  8
0
100
AcDbLine
 10
4.507083672981313
 20
3.145801048276466
 30
0.0
 11
3.70380735535716
 21
3.841458745595723
 31
0.0
  0
LINE
  5
1E8
330
2
100
AcDbEntity
  8
0
100
AcDbLine
 10
4.267931905460216
 20
3.818496475768477
 30
0.0
 11
3.70380735535716
 21
3.841458745595723
 31
0.0
  0
ELLIPSE
  5
1E9
330
2
100
AcDbEntity
  8
0
100
AcDbEllipse
 10
4.250573768058943
 20
3.831843712459144
 30
0.0
 11
0.0289148909634109
 21
-0.0097572589427807
 31
0.0
210
0.0
220
0.0
230
1.0
 40
0.3166888303999999
 41
5.458480189693617
 42
6.942010053889517
  0
LINE
  5
1EA
330
2
100
AcDbEntity
  8
0
100
AcDbLine
 10
3.998130479939759
 20
4.069794634585405
 30
0.0
 11
4.275328366752812
 21
3.829734222727092
 31
0.0
  0
ELLIPSE
  5
1EB
330
2
100
AcDbEntity
  8
0
100
AcDbEllipse
 10
3.973375871521425
 20
4.071904132739886
 30
0.0
 11
0.0289148909633994
 21
-0.0097572589427807
 31
0.0
210
0.0
220
0.0
230
1.0
 40
0.3166888303999999
 41
0.6588247467100106
 42
2.142354610904444
  0
LINE
  5
1EC
330
2
100
AcDbEntity
  8
0
100
AcDbLine
 10
3.331901364411548
 20
4.163538781568242
 30
0.0
 11
3.960334059408013
 21
4.084884024599065
 31
0.0
  0
LINE
  5
1ED
330
2
100
AcDbEntity
  8
0
100
AcDbLine
 10
3.331901364411548
 20
4.163538781568242
 30
0.0
 11
2.528625017186835
 21
4.859196504531189
 31
0.0
  0
LINE
  5
1EE
330
2
100
AcDbEntity
  8
0
100
AcDbLine
 10
2.573041718648313
 20
5.175098123698356
 30
0.0
 11
3.481836698306652
 21
4.388058584474582
 31
0.0
  0
ELLIPSE
  5
1EF
330
2
100
AcDbEntity
  8
0
100
AcDbEllipse
 10
3.399319299710164
 20
4.395089636824498
 30
0.0
 11
0.0963829698780151
 21
-0.0325241964759335
 31
0.0
210
0.0
220
0.0
230
1.0
 40
0.3166888303999999
 41
5.458480189693979
 42
6.942010053889137
  0
LINE
  5
1F0
330
2
100
AcDbEntity
  8
0
100
AcDbLine
 10
3.329871525321247
 20
4.355780360708043
 30
0.0
 11
3.457177897203565
 21
4.350598311623774
 31
0.0
  0
ELLIPSE
  5
1F1
330
2
100
AcDbEntity
  8
0
100
AcDbEllipse
 10
3.358800280047765
 20
4.333534542572368
 30
0.0
 11
0.0481914849390047
 21
-0.0162620982379755
 31
0.0
210
0.0
220
0.0
230
0.9999999999999998
 40
0.3166888304000001
 41
2.316887536104295
 42
3.800417400299778
  0
LINE
  5
1F2
330
2
100
AcDbEntity
  8
0
100
AcDbLine
 10
3.321796888392542
 20
4.333364733018377
 30
0.0
 11
3.317541468424977
 21
4.337050034803278
 31
0.0
  0
ELLIPSE
  5
1F3
330
2
100
AcDbEntity
  8
0
100
AcDbEllipse
 10
3.363055686649369
 20
4.329849252353064
 30
0.0
 11
0.0481914849390047
 21
-0.0162620982379755
 31
0.0
210
0.0
220
0.0
230
0.9999999999999998
 40
0.3166888304000001
 41
3.800417400299803
 42
5.283947264494716
  0
LINE
  5
1F4
330
2
100
AcDbEntity
  8
0
100
AcDbLine
 10
3.384793532177069
 20
4.308216507535749
 30
0.0
 11
3.882057357140214
 21
4.245978468270187
 31
0.0
  0
ELLIPSE
  5
1F5
330
2
100
AcDbEntity
  8
0
100
AcDbEllipse
 10
3.969007135377532
 20
4.159447084551081
 30
0.0
 11
0.1927659397560299
 21
-0.0650483929518843
 31
0.0
210
0.0
220
0.0
230
1.0
 40
0.3166888304
 41
0.6588247467096388
 42
2.14235461090486
  0
LINE
  5
1F6
330
2
100
AcDbEntity
  8
0
100
AcDbLine
 10
4.134041283249605
 20
4.145384829000165
 30
0.0
 11
4.634520228910984
 21
3.711957347989589
 31
0.0
  0
ELLIPSE
  5
1F7
330
2
100
AcDbEntity
  8
0
100
AcDbEllipse
 10
4.46948608545357
 20
3.726019599725999
 30
0.0
 11
0.19276593975603
 21
-0.0650483929518785
 31
0.0
210
0.0
220
0.0
230
1.0
 40
0.3166888303999999
 41
5.458480189694113
 42
6.942010053889237
  0
LINE
  5
1F8
330
2
100
AcDbEntity
  8
0
100
AcDbLine
 10
4.585202614854426
 20
3.637036812541332
 30
0.0
 11
4.138824402614678
 21
3.655206618504073
 31
0.0
  0
ELLIPSE
  5
1F9
330
2
100
AcDbEntity
  8
0
100
AcDbEllipse
 10
4.167753151950021
 20
3.632960805037349
 30
0.0
 11
0.0481914849390104
 21
-0.0162620982379755
 31
0.0
210
0.0
220
0.0
230
1.0
 40
0.3166888304
 41
2.316887536104025
 42
3.800417400300071
  0
LINE
  5
1FA
330
2
100
AcDbEntity
  8
0
100
AcDbLine
 10
4.130749741995246
 20
3.632791011321164
 30
0.0
 11
4.126494345718337
 21
3.636476292609455
 31
0.0
  0
ELLIPSE
  5
1FB
330
2
100
AcDbEntity
  8
0
100
AcDbEllipse
 10
4.17200855855153
 20
3.62927551481804
 30
0.0
 11
0.0481914849390047
 21
-0.0162620982379755
 31
0.0
210
0.0
220
0.0
230
0.9999999999999998
 40
0.3166888304000001
 41
3.800417400300069
 42
5.283947264494716
  0
LINE
  5
1FC
330
2
100
AcDbEntity
  8
0
100
AcDbLine
 10
4.33556523229228
 20
3.589892565070096
 30
0.0
 11
4.193746385790077
 21
3.607642785848724
 31
0.0
  0
ELLIPSE
  5
1FD
330
2
100
AcDbEntity
  8
0
100
AcDbEllipse
 10
4.379039824952392
 20
3.54662677335689
 30
0.0
 11
0.0963829698780151
 21
-0.0325241964759392
 31
0.0
210
0.0
220
0.0
230
1.0
 40
0.3166888304
 41
0.6588247467096168
 42
2.142354610904783
  0
LINE
  5
1FE
330
2
100
AcDbEntity
  8
0
100
AcDbLine
 10
4.461557207182126
 20
3.539595735176618
 30
0.0
 11
5.370352234211569
 21
2.752556154939219
 31
0.0
  0
LINE
  5
1FF
330
2
100
AcDbEntity
  8
0
100
AcDbLine
 10
4.901374904057495
 20
3.081384522662735
 30
0.0
 11
5.27079900864619
 21
2.761454820323812
 31
0.0
  0
ELLIPSE
  5
200
330
2
100
AcDbEntity
  8
0
100
AcDbEllipse
 10
3.509945788579142
 20
8.019668532465466
 30
0.0
 11
0.0076332995824121
 21
0.1014401269204131
 31
0.0
210
0.0
220
0.0
230
0.9999999999999998
 40
0.5778770211000001
 41
5.877920137287945
 42
7.448640311660927
  0
LINE
  5
201
330
2
100
AcDbEntity
  8
0
100
AcDbLine
 10
4.1505047744837
 20
7.582503369980949
 30
0.0
 11
3.540073048219496
 21
8.111152752202476
 31
0.0
  0
LINE
  5
202
330
2
100
AcDbEntity
  8
0
100
AcDbLine
 10
2.964392918125042
 20
5.288586662042203
 30
0.0
 11
3.292042538158991
 21
6.283379730951197
 31
0.0
  0
LINE
  5
203
330
2
100
AcDbEntity
  8
0
100
AcDbLine
 10
3.429574412610708
 20
6.700949019730715
 30
0.0
 11
3.593336214098967
 21
7.198152799550495
 31
0.0
  0
ARC
  5
204
330
2
100
AcDbEntity
  8
0
100
AcDbCircle
 10
3.297858178673684
 20
5.156872440172284
 30
0.0
 40
0.3585355160003593
100
AcDbArc
 50
158.4466572452003
 51
209.5566189156511
  0
ELLIPSE
  5
205
330
2
100
AcDbEntity
  8
0
100
AcDbEllipse
 10
2.603175430647679
 20
5.266575394274685
 30
0.0
 11
0.0076421162798621
 21
0.1014338337813551
 31
0.0
210
0.0
220
0.0
230
1.0
 40
0.5779408021
 41
1.16563626809027
 42
2.736356442463288
  0
LINE
  5
206
330
2
100
AcDbEntity
  8
0
100
AcDbLine
 10
3.459086233733616
 20
8.063723428240681
 30
0.0
 11
2.552310751461912
 21
5.310616196893533
 31
0.0
  0
LWPOLYLINE
  5
207
330
2
100
AcDbEntity
  8
0
100
AcDbPolyline
 90
        7
 70
   128
 43
0.0
 10
3.345136585398842
 20
7.56890797646656
 10
3.327043462145639
 20
7.484049595022606
 10
3.326467314393918
 20
7.396144659636819
 10
3.343480874547624
 20
7.315796372789977
 10
3.37602939561656
 20
7.252695316513698
 10
3.42018820583058
 20
7.214452665068572
 10
3.454099286809135
 20
7.20514637283321
  0
LWPOLYLINE
  5
208
330
2
100
AcDbEntity
  8
0
100
AcDbPolyline
 90
        5
 70
   128
 43
0.0
 10
3.492286304961931
 20
7.712302427837927
 10
3.473943979251728
 20
7.711904508271866
 10
3.423300927528311
 20
7.690147050308401
 10
3.378567376973911
 20
7.640484899163482
 10
3.345136585398842
 20
7.56890797646656
  0
LWPOLYLINE
  5
209
330
2
100
AcDbEntity
  8
0
100
AcDbPolyline
 90
        7
 70
   128
 43
0.0
 10
3.043844222138158
 20
6.654135450890586
 10
3.025749786215738
 20
6.569276690508176
 10
3.025173638464017
 20
6.48137175512243
 10
3.042187198617795
 20
6.401023468275546
 10
3.07473571967644
 20
6.337922329951751
 10
3.118894529890604
 20
6.299679678506613
 10
3.152806923558587
 20
6.290373847257243
  0
LWPOLYLINE
  5
20A
330
2
100
AcDbEntity
  8
0
100
AcDbPolyline
 90
        5
 70
   128
 43
0.0
 10
3.190992629021787
 20
6.79752952332355
 10
3.172650303321816
 20
6.797131439672543
 10
3.122008564267628
 20
6.775374360647488
 10
3.077273701033851
 20
6.725711994649063
 10
3.043844222138158
 20
6.654135450890586
  0
LINE
  5
20B
330
2
100
AcDbEntity
  8
0
100
AcDbLine
 10
3.275511679510916
 20
6.870877223694058
 30
0.0
 11
3.3628874493648
 21
7.13616343713303
 31
0.0
  0
ELLIPSE
  5
20C
330
2
100
AcDbEntity
  8
0
100
AcDbEllipse
 10
3.29077091081533
 20
6.857664978868079
 30
0.0
 11
0.0022926348839615
 21
0.030430150134403
 31
0.0
210
0.0
220
0.0
230
1.0
 40
0.5779408021000001
 41
1.165636268090297
 42
2.73635644246337
  0
LINE
  5
20D
330
2
100
AcDbEntity
  8
0
100
AcDbLine
 10
3.281730022375732
 20
6.830221618515984
 30
0.0
 11
3.339255376738606
 21
6.780403200270248
 31
0.0
  0
LINE
  5
20E
330
2
100
AcDbEntity
  8
0
100
AcDbLine
 10
3.372228674842106
 20
6.767596044332346
 30
0.0
 11
3.473645494131116
 21
7.075513167317827
 31
0.0
  0
LINE
  5
20F
330
2
100
AcDbEntity
  8
0
100
AcDbLine
 10
3.387182677687383
 20
7.150392162833596
 30
0.0
 11
3.473645494131116
 21
7.075513167317827
 31
0.0
  0
ELLIPSE
  5
210
330
2
100
AcDbEntity
  8
0
100
AcDbEllipse
 10
3.378145324839949
 20
7.122947029151835
 30
0.0
 11
0.0022899898747184
 21
0.0304320380761222
 31
0.0
210
0.0
220
0.0
230
1.0
 40
0.5778770211000001
 41
5.877920137287437
 42
7.44864031166086
  0
LINE
  5
211
330
2
100
AcDbEntity
  8
0
100
AcDbLine
 10
3.208188531812764
 20
7.608960873374778
 30
0.0
 11
2.906894855872717
 21
6.694187804775444
 31
0.0
  0
LINE
  5
212
330
2
100
AcDbEntity
  8
0
100
AcDbLine
 10
3.359966898005402
 20
8.069783539227364
 30
0.0
 11
3.208188531812764
 21
7.608960873374778
 31
0.0
  0
LINE
  5
213
330
2
100
AcDbEntity
  8
0
100
AcDbLine
 10
2.906894855872717
 20
6.694187804775444
 30
0.0
 11
2.742658866405134
 21
6.195540039782873
 31
0.0
  0
LWPOLYLINE
  5
214
330
2
100
AcDbEntity
  8
0
100
AcDbPolyline
 90
       17
 70
   128
 43
0.0
 10
3.437606873031451
 20
6.444039093040888
 10
3.452823484978658
 20
6.520255570612161
 10
3.450338937538747
 20
6.598192135395405
 10
3.430532013974557
 20
6.665983612698942
 10
3.396416806450296
 20
6.713309244572141
 10
3.353188989914183
 20
6.732964636336662
 10
3.307427706904105
 20
6.721956891610378
 10
3.266101024494576
 20
6.681961964844156
 10
3.235499931848134
 20
6.619068838382574
 10
3.22028331990101
 20
6.542852360811337
 10
3.222767867340825
 20
6.46491596011296
 10
3.242574885647379
 20
6.397124318734716
 10
3.276690093161421
 20
6.349798686851326
 10
3.319917909707681
 20
6.3301432950868
 10
3.365679097975467
 20
6.341151203898004
 10
3.40700578038502
 20
6.381145966579305
 10
3.437606873031451
 20
6.444039093040888
  0
ARC
  5
215
330
2
100
AcDbEntity
  8
0
100
AcDbCircle
 10
2.930757605065271
 20
5.184229587157162
 30
0.0
 40
0.5170658788133977
100
AcDbArc
 50
158.4462968151018
 51
218.9476879695057
  0
LWPOLYLINE
  5
216
330
2
100
AcDbEntity
  8
0
100
AcDbPolyline
 90
       10
 70
   128
 43
0.0
 10
2.7389998956779
 20
6.903170833847411
 10
2.698031247869915
 20
6.898169089089421
 10
2.64065990195065
 20
6.864569780550017
 10
2.59063409298713
 20
6.802948090523577
 10
2.5528512037193
 20
6.719336537720016
 10
2.531009643693984
 20
6.62191938881133
 10
2.527247168694433
 20
6.520232640397861
 10
2.541932859163847
 20
6.424230107831081
 10
2.573628414748439
 20
6.343308801140089
 10
2.619231498176556
 20
6.285390354518236
  0
LWPOLYLINE
  5
217
330
2
100
AcDbEntity
  8
0
100
AcDbPolyline
 90
        3
 70
   128
 43
0.0
 10
2.969440262063514
 20
5.004020477565716
 10
2.981291118797088
 20
4.985206664589471
 10
3.003081892733594
 20
4.961065925959004
  0
LINE
  5
218
330
2
100
AcDbEntity
  8
0
100
AcDbLine
 10
2.742658866405134
 20
6.195540039782873
 30
0.0
 11
2.720951661811433
 21
6.19729810873291
 31
0.0
  0
LINE
  5
219
330
2
100
AcDbEntity
  8
0
100
AcDbLine
 10
2.449848261710067
 20
5.374185704483393
 30
0.0
 11
2.720951661811433
 21
6.19729810873291
 31
0.0
  0
LWPOLYLINE
  5
21A
330
2
100
AcDbEntity
  8
0
100
AcDbPolyline
 90
       17
 70
   128
 43
0.0
 10
3.738900548971511
 20
7.358812161640222
 10
3.754117160918706
 20
7.435028475126556
 10
3.751632613478891
 20
7.512965039909782
 10
3.731825689904374
 20
7.580756517213361
 10
3.697710482390344
 20
7.628082149086567
 10
3.654482665854231
 20
7.647737540851075
 10
3.608721382844153
 20
7.636729796124792
 10
3.567394700434624
 20
7.596734869358588
 10
3.536793607788193
 20
7.533841906992103
 10
3.52157699584107
 20
7.457625429410617
 10
3.524061543280884
 20
7.37968886462739
 10
3.543868561587439
 20
7.31189730528648
 10
3.577983769101469
 20
7.264571673413273
 10
3.62121158563751
 20
7.244916281648747
 10
3.666972773915527
 20
7.255924108412417
 10
3.708299456325068
 20
7.295919035178639
 10
3.738900548971511
 20
7.358812161640222
  0
LINE
  5
21B
330
2
100
AcDbEntity
  8
0
100
AcDbLine
 10
3.003081892733594
 20
4.961065925959004
 30
0.0
 11
3.538903539057294
 21
4.497030768347477
 31
0.0
  0
LINE
  5
21C
330
2
100
AcDbEntity
  8
0
100
AcDbLine
 10
2.619231498176556
 20
6.285390354518236
 30
0.0
 11
2.720951661811433
 21
6.19729810873291
 31
0.0
  0
LWPOLYLINE
  5
21D
330
2
100
AcDbEntity
  8
0
100
AcDbPolyline
 90
       10
 70
   128
 43
0.0
 10
3.040293571607716
 20
7.817943738361837
 10
2.999324923809987
 20
7.812942157688742
 10
2.941953577890698
 20
7.779342685064395
 10
2.891927768927177
 20
7.717721159122863
 10
2.854144879649201
 20
7.634109606319343
 10
2.83230331963396
 20
7.536692457410659
 10
2.828540844634397
 20
7.435005544912274
 10
2.843226535093748
 20
7.339003012345506
 10
2.874922090688487
 20
7.258081869739423
 10
2.920525174106385
 20
7.200163259032619
  0
LINE
  5
21E
330
2
100
AcDbEntity
  8
0
100
AcDbLine
 10
3.473645494131116
 20
7.075513167317827
 30
0.0
 11
3.34630865607008
 21
7.085826156649431
 31
0.0
  0
LINE
  5
21F
330
2
100
AcDbEntity
  8
0
100
AcDbLine
 10
3.043952542345194
 20
7.110312944297243
 30
0.0
 11
3.022245337741345
 21
7.112071013247323
 31
0.0
  0
LINE
  5
220
330
2
100
AcDbEntity
  8
0
100
AcDbLine
 10
2.920525174106385
 20
7.200163259032619
 30
0.0
 11
3.022245337741345
 21
7.112071013247323
 31
0.0
  0
ELLIPSE
  5
221
330
2
100
AcDbEntity
  8
0
100
AcDbEllipse
 10
3.41082725006304
 20
8.025728784853443
 30
0.0
 11
0.0076332995824121
 21
0.1014401269204131
 31
0.0
210
0.0
220
0.0
230
0.9999999999999998
 40
0.5778770211000001
 41
0.0081150858514489
 42
1.165455004481329
  0
ELLIPSE
  5
222
330
2
100
AcDbEntity
  8
0
100
AcDbEllipse
 10
4.014596129718098
 20
4.297862226143513
 30
0.0
 11
0.1804174801643923
 21
-0.1021855751689736
 31
0.0
210
0.0
220
0.0
230
0.9999999999999998
 40
0.165794471
 41
0.6896272446617182
 42
2.173157108856921
  0
ARC
  5
223
330
2
100
AcDbEntity
  8
0
100
AcDbCircle
 10
3.818103081719848
 20
7.544137318089429
 30
0.0
 40
0.0969947195848674
100
AcDbArc
 50
51.27721473400123
 51
145.8445444761049
  0
LINE
  5
224
330
2
100
AcDbEntity
  8
0
100
AcDbLine
 10
3.926333978049697
 20
4.380407260410653
 30
0.0
 11
3.912493590305848
 21
4.386288513115817
 31
0.0
  0
LINE
  5
225
330
2
100
AcDbEntity
  8
0
100
AcDbLine
 10
3.519707594910364
 20
4.435449549438252
 30
0.0
 11
3.912493590305848
 21
4.386288513115817
 31
0.0
  0
LINE
  5
226
330
2
100
AcDbEntity
  8
0
100
AcDbLine
 10
4.665043924904029
 20
3.804632090846375
 30
0.0
 11
4.164564979242651
 21
4.238059571846757
 31
0.0
  0
LINE
  5
227
330
2
100
AcDbEntity
  8
0
100
AcDbLine
 10
3.895541281921346
 20
7.605293755903869
 30
0.0
 11
3.878778416318064
 21
7.619810823355459
 31
0.0
  0
ELLIPSE
  5
228
330
2
100
AcDbEntity
  8
0
100
AcDbEllipse
 10
4.515075079794124
 20
3.864434741328626
 30
0.0
 11
0.1804174801643925
 21
-0.1021855751689622
 31
0.0
210
0.0
220
0.0
230
0.9999999999999998
 40
0.165794471
 41
0.0331063377241576
 42
0.689627244661631
  0
LINE
  5
229
330
2
100
AcDbEntity
  8
0
100
AcDbLine
 10
3.790965220699226
 20
4.106082284749678
 30
0.0
 11
3.70380735535716
 21
3.841458745595723
 31
0.0
  0
LINE
  5
22A
330
2
100
AcDbEntity
  8
0
100
AcDbLine
 10
4.52931216760041
 20
3.639311735903927
 30
0.0
 11
4.98154054853823
 21
3.247670469704317
 31
0.0
  0
LINE
  5
22B
330
2
100
AcDbEntity
  8
0
100
AcDbLine
 10
5.451337641286119
 20
2.799985264047554
 30
0.0
 11
5.625473535119542
 21
3.328686307304609
 31
0.0
  0
ELLIPSE
  5
22C
330
2
100
AcDbEntity
  8
0
100
AcDbEllipse
 10
5.400478203917224
 20
2.844040130547717
 30
0.0
 11
0.0076332995824064
 21
0.1014401269204132
 31
0.0
210
0.0
220
0.0
230
0.9999999999999998
 40
0.5778770211
 41
2.736327483698102
 42
4.30704765807106
  0
ARC
  5
22D
330
2
100
AcDbEntity
  8
0
100
AcDbCircle
 10
5.041389926827739
 20
3.315727075141812
 30
0.0
 40
0.0906291875002754
100
AcDbArc
 50
228.6714130374032
 51
314.9203592104973
  0
ARC
  5
22E
330
2
100
AcDbEntity
  8
0
100
AcDbCircle
 10
4.604921055764456
 20
3.251315911914061
 30
0.0
 40
0.1438941969604315
100
AcDbArc
 50
227.1621517868003
 51
264.5187678972925
  0
ELLIPSE
  5
22F
330
2
100
AcDbEntity
  8
0
100
AcDbEllipse
 10
5.300925470026729
 20
2.852938851410502
 30
0.0
 11
0.0076332995824121
 21
0.1014401269204131
 31
0.0
210
0.0
220
0.0
230
0.9999999999999998
 40
0.5778770211000001
 41
2.736327483698254
 42
3.133477567738518
  0
LINE
  5
230
330
2
100
AcDbEntity
  8
0
100
AcDbLine
 10
4.143205763837539
 20
5.906297876000225
 30
0.0
 11
3.809843518978566
 21
5.638738897610624
 31
0.0
  0
ELLIPSE
  5
231
330
2
100
AcDbEntity
  8
0
100
AcDbEllipse
 10
3.597400563730902
 20
5.136489093713176
 30
0.0
 11
0.0076421162798621
 21
0.1014338337813551
 31
0.0
210
0.0
220
0.0
230
1.0
 40
0.5779408021
 41
1.16563626809024
 42
2.736356442463259
  0
ELLIPSE
  5
232
330
2
100
AcDbEntity
  8
0
100
AcDbEllipse
 10
3.938585661473181
 20
6.239471582726888
 30
0.0
 11
0.3349567845155963
 21
0.3827298878159376
 31
0.0
210
0.0
220
0.0
230
1.0
 40
0.7540258493000001
 41
4.482373612415838
 42
5.224320880421761
  0
ELLIPSE
  5
233
330
2
100
AcDbEntity
  8
0
100
AcDbEllipse
 10
4.015117305664203
 20
5.304998299247019
 30
0.0
 11
0.3359755765438395
 21
0.3818408782826413
 31
0.0
210
0.0
220
0.0
230
0.9999999999999998
 40
0.7560319662000005
 41
1.342801356481427
 42
2.084748624487349
  0
LINE
  5
234
330
2
100
AcDbEntity
  8
0
100
AcDbLine
 10
3.598555884211217
 20
5.338469155099049
 30
0.0
 11
3.546535777189526
 21
5.180529817010617
 31
0.0
  0
LINE
  5
235
330
2
100
AcDbEntity
  8
0
100
AcDbLine
 10
4.693691683281122
 20
4.069499131266208
 30
0.0
 11
5.599461707277675
 21
3.285079280496947
 31
0.0
  0
LINE
  5
236
330
2
100
AcDbEntity
  8
0
100
AcDbLine
 10
3.567266649643951
 20
5.045011825852777
 30
0.0
 11
4.367561185602527
 21
4.351936427192937
 31
0.0
  0
LINE
  5
237
330
2
100
AcDbEntity
  8
0
100
AcDbLine
 10
4.736255859932529
 20
7.366568323711938
 30
0.0
 11
4.354260067882663
 21
6.206769729867697
 31
0.0
  0
ELLIPSE
  5
238
330
2
100
AcDbEntity
  8
0
100
AcDbEllipse
 10
4.787115480011387
 20
7.322513371502297
 30
0.0
 11
0.0076332995824121
 21
0.1014401269204131
 31
0.0
210
0.0
220
0.0
230
0.9999999999999998
 40
0.5778770211000001
 41
5.877920137287912
 42
7.44864031166087
  0
LINE
  5
239
330
2
100
AcDbEntity
  8
0
100
AcDbLine
 10
5.151423377848216
 20
7.124588669052231
 30
0.0
 11
4.817242674408345
 21
7.413997647683922
 31
0.0
  0
LINE
  5
23A
330
2
100
AcDbEntity
  8
0
100
AcDbLine
 10
4.700017671642709
 20
4.130595033020504
 30
0.0
 11
4.424859711587582
 21
4.368888816475577
 31
0.0
  0
LINE
  5
23B
330
2
100
AcDbEntity
  8
0
100
AcDbLine
 10
4.529504768428997
 20
4.001860823921502
 30
0.0
 11
4.700017671642709
 21
4.130595033020504
 31
0.0
  0
LINE
  5
23C
330
2
100
AcDbEntity
  8
0
100
AcDbLine
 10
4.254346808373894
 20
4.240154607386717
 30
0.0
 11
4.529504768428997
 21
4.001860823921502
 31
0.0
  0
ELLIPSE
  5
23D
330
2
100
AcDbEntity
  8
0
100
AcDbEllipse
 10
4.638793507982755
 20
4.035772337689116
 30
0.0
 11
0.0599998445051575
 21
0.0957288315055364
 31
0.0
210
0.0
220
0.0
230
1.0
 40
0.2945542466
 41
5.171606599400139
 42
6.237537654344468
  0
ELLIPSE
  5
23E
330
2
100
AcDbEntity
  8
0
100
AcDbEllipse
 10
4.629364075023246
 20
4.028653278064351
 30
0.0
 11
0.1028864955015089
 21
0.0220534453757588
 31
0.0
210
0.0
220
0.0
230
1.0
 40
0.2601647544000001
 41
3.335243632973681
 42
4.401174687917908
  0
ELLIPSE
  5
23F
330
2
100
AcDbEntity
  8
0
100
AcDbEllipse
 10
4.636556371380893
 20
4.044610845936371
 30
0.0
 11
-0.0269770107770035
 21
0.0503592248257896
 31
0.0
210
0.0
220
0.0
230
0.9999999999999998
 40
0.8730488701000002
 41
2.500405314970203
 42
4.062474995505383
  0
LINE
  5
240
330
2
100
AcDbEntity
  8
0
100
AcDbLine
 10
4.687883796941313
 20
4.032888423611073
 30
0.0
 11
4.690664477587285
 21
4.062361632777935
 31
0.0
  0
LINE
  5
241
330
2
100
AcDbEntity
  8
0
100
AcDbLine
 10
4.60332021199783
 20
3.996418467439081
 30
0.0
 11
4.631876795277596
 21
3.990165821101124
 31
0.0
  0
LINE
  5
242
330
2
100
AcDbEntity
  8
0
100
AcDbLine
 10
6.027197361478171
 20
6.958424240632644
 30
0.0
 11
5.898519498526989
 21
6.567740054460297
 31
0.0
  0
LWPOLYLINE
  5
243
330
2
100
AcDbEntity
  8
0
100
AcDbPolyline
 90
        9
 70
   128
 43
0.0
 10
6.027197361478171
 20
6.958424240632644
 10
6.089945983838902
 20
6.938461117682698
 10
6.133347048673284
 20
6.891798250076256
 10
6.15079253613495
 20
6.825539435536471
 10
6.139626899093014
 20
6.749772123812646
 10
6.10155005525295
 20
6.676031171166939
 10
6.042358789624519
 20
6.61554305976347
 10
5.9710633223506
 20
6.57751601552933
 10
5.898519498526989
 20
6.567740054460297
  0
ARC
  5
244
330
2
100
AcDbEntity
  8
0
100
AcDbCircle
 10
6.583160125255571
 20
7.445075138161441
 30
0.0
 40
0.0680248881026653
100
AcDbArc
 50
333.6487475794982
 51
82.98636861719677
  0
LINE
  5
245
330
2
100
AcDbEntity
  8
0
100
AcDbLine
 10
6.644116529146686
 20
7.414880730975492
 30
0.0
 11
6.192094629222183
 21
6.042471638015777
 31
0.0
  0
ARC
  5
246
330
2
100
AcDbEntity
  8
0
100
AcDbCircle
 10
6.070068398711658
 20
6.083084880598907
 30
0.0
 40
0.1286072953079503
100
AcDbArc
 50
287.7679507352947
 51
341.5913261540984
  0
LINE
  5
247
330
2
100
AcDbEntity
  8
0
100
AcDbLine
 10
6.109314544214868
 20
5.960612122528335
 30
0.0
 11
5.430125881557372
 21
5.764547243915946
 31
0.0
  0
ARC
  5
248
330
2
100
AcDbEntity
  8
0
100
AcDbCircle
 10
5.381157689001974
 20
5.928846872770868
 30
0.0
 40
0.171441686651481
100
AcDbArc
 50
266.2240578527004
 51
286.5962675312992
  0
LINE
  5
249
330
2
100
AcDbEntity
  8
0
100
AcDbLine
 10
5.369867408909311
 20
5.757777350352457
 30
0.0
 11
5.269456748882404
 21
5.765337920318616
 31
0.0
  0
LINE
  5
24A
330
2
100
AcDbEntity
  8
0
100
AcDbLine
 10
6.591466336808163
 20
7.512591004815944
 30
0.0
 11
5.863005001683758
 21
7.567440595027875
 31
0.0
  0
LWPOLYLINE
  5
24B
330
2
100
AcDbEntity
  8
0
100
AcDbPolyline
 90
        6
 70
   128
 43
0.0
 10
5.83097645561112
 20
7.558883194971289
 10
5.832458678216202
 20
7.561495043411781
 10
5.836811580109196
 20
7.564668291562502
 10
5.843540002014853
 20
7.566763218455084
 10
5.852384297594551
 20
7.567699346452132
 10
5.863005001683758
 20
7.567440595027875
  0
LWPOLYLINE
  5
24C
330
2
100
AcDbEntity
  8
0
100
AcDbPolyline
 90
        9
 70
   128
 43
0.0
 10
5.269456748882404
 20
5.765337920318616
 10
5.258836044793198
 20
5.765596640962314
 10
5.249991749213488
 20
5.764660543735679
 10
5.243263327297696
 20
5.762565606589676
 10
5.238910425414849
 20
5.759392471246702
 10
5.237098851414203
 20
5.755262748131252
 10
5.237899519501223
 20
5.750335583932248
 10
5.241280845154309
 20
5.744799883900499
 10
5.247113333297625
 20
5.738868693483814
  0
LINE
  5
24D
330
2
100
AcDbEntity
  8
0
100
AcDbLine
 10
8.085107992313957
 20
3.281093222969496
 30
0.0
 11
8.079776532144339
 21
3.285710402910239
 31
0.0
  0
LINE
  5
24E
330
2
100
AcDbEntity
  8
0
100
AcDbLine
 10
5.384189283103805
 20
5.620157438686923
 30
0.0
 11
5.247113333297625
 21
5.738868693483814
 31
0.0
  0
LINE
  5
24F
330
2
100
AcDbEntity
  8
0
100
AcDbLine
 10
4.795682187683632
 20
8.031939859389934
 30
0.0
 11
4.693961929316623
 21
8.12003218722277
 31
0.0
  0
LINE
  5
250
330
2
100
AcDbEntity
  8
0
100
AcDbLine
 10
5.085411172539973
 20
8.01012475778613
 30
0.0
 11
4.795682187683632
 21
8.031939859389934
 31
0.0
  0
LINE
  5
251
330
2
100
AcDbEntity
  8
0
100
AcDbLine
 10
4.983690914173047
 20
8.098217085608794
 30
0.0
 11
5.085411172539973
 21
8.01012475778613
 31
0.0
  0
LINE
  5
252
330
2
100
AcDbEntity
  8
0
100
AcDbLine
 10
4.693961929316623
 20
8.12003218722277
 30
0.0
 11
4.983690914173047
 21
8.098217085608794
 31
0.0
  0
LINE
  5
253
330
2
100
AcDbEntity
  8
0
100
AcDbLine
 10
5.066803045938556
 20
2.155991680999219
 30
0.0
 11
5.267237126054731
 21
2.764539301695303
 31
0.0
  0
LINE
  5
254
330
2
100
AcDbEntity
  8
0
100
AcDbLine
 10
3.779130117999923
 20
4.070151782257648
 30
0.0
 11
3.728633194422447
 21
4.113883400892093
 31
0.0
  0
LINE
  5
255
330
2
100
AcDbEntity
  8
0
100
AcDbLine
 10
2.821633336888916
 20
7.760062886330817
 30
0.0
 11
1.876224435403643
 21
4.889658070044747
 31
0.0
  0
ARC
  5
256
330
2
100
AcDbEntity
  8
0
100
AcDbCircle
 10
6.07242795605169
 20
8.097858495116318
 30
0.0
 40
0.047617155877612
100
AcDbArc
 50
333.648806339101
 51
82.98770571809695
  0
ARC
  5
257
330
2
100
AcDbEntity
  8
0
100
AcDbCircle
 10
6.076946302560995
 20
8.143715238707821
 30
0.0
 40
0.0019101189152965
100
AcDbArc
 50
47.32038030139965
 51
84.84797494359753
  0
ARC
  5
258
330
2
100
AcDbEntity
  8
0
100
AcDbCircle
 10
5.239119207278987
 20
7.825700613716243
 30
0.0
 40
0.538022132880804
100
AcDbArc
 50
68.87912926580006
 51
84.5949662208975
  0
ARC
  5
259
330
2
100
AcDbEntity
  8
0
100
AcDbCircle
 10
6.001419384534779
 20
8.717984047708009
 30
0.0
 40
0.5655835893480392
100
AcDbArc
 50
248.8786432781034
 51
264.5952845953962
  0
ARC
  5
25A
330
2
100
AcDbEntity
  8
0
100
AcDbCircle
 10
4.981386887326912
 20
2.184418693726807
 30
0.0
 40
0.090022303925811
100
AcDbArc
 50
287.7674011092017
 51
341.5922464559994
  0
LINE
  5
25B
330
2
100
AcDbEntity
  8
0
100
AcDbLine
 10
1.82119948951794
 20
4.859282994274945
 30
0.0
 11
5.00885751150104
 21
2.098690168650247
 31
0.0
  0
ARC
  5
25C
330
2
100
AcDbEntity
  8
0
100
AcDbCircle
 10
1.845719653058727
 20
4.899809552350561
 30
0.0
 40
0.0321495620330702
100
AcDbArc
 50
287.7671483982981
 51
341.5934186932952
  0
LINE
  5
25D
330
2
100
AcDbEntity
  8
0
100
AcDbLine
 10
2.946394532812315
 20
3.441339261020456
 30
0.0
 11
2.770209548997157
 21
3.390479037099787
 31
0.0
  0
LWPOLYLINE
  5
25E
330
2
100
AcDbEntity
  8
0
100
AcDbPolyline
 90
        9
 70
   128
 43
0.0
 10
2.770209548997157
 20
3.390479037099787
 10
2.710530788083078
 20
3.364310423098473
 10
2.675421727179029
 20
3.328713956005523
 10
2.670229788008636
 20
3.2891095691748
 10
2.695746124377823
 20
3.251526874548277
 10
2.748083092759933
 20
3.221686629484449
 10
2.819275872554793
 20
3.204132611671978
 10
2.898485292567127
 20
3.201537047452053
 10
2.973650042050572
 20
3.214294401961244
  0
LINE
  5
25F
330
2
100
AcDbEntity
  8
0
100
AcDbLine
 10
2.973650042050572
 20
3.214294401961244
 30
0.0
 11
3.149835025865825
 21
3.265154625871713
 31
0.0
  0
LWPOLYLINE
  5
260
330
2
100
AcDbEntity
  8
0
100
AcDbPolyline
 90
        9
 70
   128
 43
0.0
 10
3.149835025865825
 20
3.265154625871713
 10
3.209515099459258
 20
3.291323618821631
 10
3.244622847683858
 20
3.326919706965946
 10
3.249814786844188
 20
3.366524093806888
 10
3.224299763164417
 20
3.404107167361632
 10
3.171961482092807
 20
3.433947033487044
 10
3.100768702308107
 20
3.451501051299515
 10
3.021560594975209
 20
3.454096994457807
 10
2.946394532812315
 20
3.441339261020456
  0
LINE
  5
261
330
2
100
AcDbEntity
  8
0
100
AcDbLine
 10
4.962034295747173
 20
2.085173470543125
 30
0.0
 11
5.00885751150104
 21
2.098690168650247
 31
0.0
  0
ARC
  5
262
330
2
100
AcDbEntity
  8
0
100
AcDbCircle
 10
4.860017230368987
 20
2.457277514868104
 30
0.0
 40
0.3858353294253456
100
AcDbArc
 50
262.2008268918018
 51
285.3316431664972
  0
LINE
  5
263
330
2
100
AcDbEntity
  8
0
100
AcDbLine
 10
3.789356585670624
 20
2.211438156515959
 30
0.0
 11
4.80765888462363
 21
2.075011239784886
 31
0.0
  0
ARC
  5
264
330
2
100
AcDbEntity
  8
0
100
AcDbCircle
 10
3.810968759796748
 20
2.452457160045709
 30
0.0
 40
0.2419860453307614
100
AcDbArc
 50
233.1444269821997
 51
264.8759916605934
  0
LINE
  5
265
330
2
100
AcDbEntity
  8
0
100
AcDbLine
 10
3.665825536654538
 20
2.258832030200458
 30
0.0
 11
1.46138792368883
 21
4.167931004081818
 31
0.0
  0
ARC
  5
266
330
2
100
AcDbEntity
  8
0
100
AcDbCircle
 10
1.50012844583693
 20
4.221424839651088
 30
0.0
 40
0.0660486071031911
100
AcDbArc
 50
182.2852148176459
 51
234.087742797232
  0
LINE
  5
267
330
2
100
AcDbEntity
  8
0
100
AcDbLine
 10
1.8555300704966
 20
4.869193379362952
 30
0.0
 11
1.808706854732502
 21
4.855676681245648
 31
0.0
  0
ARC
  5
268
330
2
100
AcDbEntity
  8
0
100
AcDbCircle
 10
1.839045313445688
 20
4.705499760291426
 30
0.0
 40
0.1532107361289647
100
AcDbArc
 50
101.4210714680922
 51
144.7560980463014
  0
LWPOLYLINE
  5
269
330
2
100
AcDbEntity
  8
0
100
AcDbPolyline
 90
        6
 70
   128
 43
0.0
 10
4.774867654734955
 20
8.39742564593976
 10
4.759695059862453
 20
8.39779523669315
 10
4.747060311293476
 20
8.396457993029212
 10
4.737449459275855
 20
8.393465401044913
 10
4.731230639424473
 20
8.388932210053159
 10
4.729113686997063
 20
8.385201136956791
  0
LINE
  5
26A
330
2
100
AcDbEntity
  8
0
100
AcDbLine
 10
1.713917649193736
 20
4.793911282753735
 30
0.0
 11
1.441064851009625
 21
4.284759994576581
 31
0.0
  0
ARC
  5
26B
330
2
100
AcDbEntity
  8
0
100
AcDbCircle
 10
4.302961304400989
 20
8.186536933812005
 30
0.0
 40
0.248402549403127
100
AcDbArc
 50
53.53729464470037
 51
85.22747148609594
  0
LWPOLYLINE
  5
26C
330
2
100
AcDbEntity
  8
0
100
AcDbPolyline
 90
        3
 70
   128
 43
0.0
 10
3.549066506249748
 20
8.432392715385446
 10
3.548613357424156
 20
8.431748098640444
 10
3.548228294421821
 20
8.430889917481225
  0
ARC
  5
26D
330
2
100
AcDbEntity
  8
0
100
AcDbCircle
 10
3.718167321642701
 20
8.081669719911861
 30
0.0
 40
0.3975143018283055
100
AcDbArc
 50
82.44019616819752
 51
109.3018013701016
  0
ARC
  5
26E
330
2
100
AcDbEntity
  8
0
100
AcDbCircle
 10
3.26802104596438
 20
7.640725943921482
 30
0.0
 40
0.4620641650663722
100
AcDbArc
 50
125.0532852855032
 51
165.0326126333989
  0
ARC
  5
26F
330
2
100
AcDbEntity
  8
0
100
AcDbCircle
 10
1.489289631015034
 20
4.257985101955387
 30
0.0
 40
0.0551590815906043
100
AcDbArc
 50
150.9605160887984
 51
179.534994665199
  0
LINE
  5
270
330
2
100
AcDbEntity
  8
0
100
AcDbLine
 10
3.548228294421821
 20
8.430889917481225
 30
0.0
 11
3.444723810314256
 21
8.308274985283144
 31
0.0
  0
ARC
  5
271
330
2
100
AcDbEntity
  8
0
100
AcDbCircle
 10
3.413007741307023
 20
8.354878241501722
 30
0.0
 40
0.0563717351501163
100
AcDbArc
 50
257.7914719907968
 51
304.237432590598
  0
ARC
  5
272
330
2
100
AcDbEntity
  8
0
100
AcDbCircle
 10
3.212181833751733
 20
8.248434495267662
 30
0.0
 40
0.0924149020854034
100
AcDbArc
 50
305.0536892742026
 51
345.0319929205972
  0
LINE
  5
273
330
2
100
AcDbEntity
  8
0
100
AcDbLine
 10
3.401086795003762
 20
8.299781385301441
 30
0.0
 11
3.381852127761322
 21
8.301229653822094
 31
0.0
  0
ARC
  5
274
330
2
100
AcDbEntity
  8
0
100
AcDbCircle
 10
3.383235066243096
 20
8.223089644730762
 30
0.0
 40
0.0781522459028582
100
AcDbArc
 50
91.01392702580204
 51
163.0906939452002
  0
LINE
  5
275
330
2
100
AcDbEntity
  8
0
100
AcDbLine
 10
3.308461626778361
 20
8.245820819148422
 30
0.0
 11
3.301461116276864
 21
8.224565606760126
 31
0.0
  0
ARC
  5
276
330
2
100
AcDbEntity
  8
0
100
AcDbCircle
 10
8.985266629541888
 20
3.552348226532558
 30
0.0
 40
0.1160409830571447
100
AcDbArc
 50
286.6490829758924
 51
308.1274944216974
  0
LINE
  5
277
330
2
100
AcDbEntity
  8
0
100
AcDbLine
 10
8.339324778268801
 20
3.24510709470227
 30
0.0
 11
9.018513440926298
 21
3.441171973304506
 31
0.0
  0
ARC
  5
278
330
2
100
AcDbEntity
  8
0
100
AcDbCircle
 10
8.290356585713404
 20
3.409406723547094
 30
0.0
 40
0.1714416866517735
100
AcDbArc
 50
266.2240578527004
 51
286.5962675312992
  0
LINE
  5
279
330
2
100
AcDbEntity
  8
0
100
AcDbLine
 10
8.178655645593835
 20
3.2458977710948
 30
0.0
 11
8.279066305620728
 21
3.238337201138781
 31
0.0
  0
ARC
  5
27A
330
2
100
AcDbEntity
  8
0
100
AcDbCircle
 10
8.19388251579342
 20
3.42829007654937
 30
0.0
 40
0.1830268031334411
100
AcDbArc
 50
233.5365937101961
 51
265.2277757242018
  0
ARC
  5
27B
330
2
100
AcDbEntity
  8
0
100
AcDbCircle
 10
7.33986350540658
 20
8.91824259723902
 30
0.0
 40
0.0249875834299569
100
AcDbArc
 50
99.61260672580433
 51
162.1737659591987
  0
LINE
  5
27C
330
2
100
AcDbEntity
  8
0
100
AcDbLine
 10
7.514935772230335
 20
8.963017358498175
 30
0.0
 11
7.335690936545344
 21
8.942879337988465
 31
0.0
  0
LINE
  5
27D
330
2
100
AcDbEntity
  8
0
100
AcDbLine
 10
8.773185975907358
 20
8.868276708323314
 30
0.0
 11
7.514935772230335
 21
8.963017358498175
 31
0.0
  0
ARC
  5
27E
330
2
100
AcDbEntity
  8
0
100
AcDbCircle
 10
8.771526520500067
 20
8.854774403142092
 30
0.0
 40
0.0136038978699781
100
AcDbArc
 50
333.6434646951034
 51
82.99339176569528
  0
LINE
  5
27F
330
2
100
AcDbEntity
  8
0
100
AcDbLine
 10
8.705380918809161
 20
8.610894104820348
 30
0.0
 11
8.783716276915003
 21
8.848734877016244
 31
0.0
  0
LINE
  5
280
330
2
100
AcDbEntity
  8
0
100
AcDbLine
 10
7.596132767854196
 20
8.694414989072839
 30
0.0
 11
8.705380918809161
 21
8.610894104820348
 31
0.0
  0
LINE
  5
281
330
2
100
AcDbEntity
  8
0
100
AcDbLine
 10
6.255680057372598
 20
8.204745377038802
 30
0.0
 11
6.144200898465634
 21
7.866279310884605
 31
0.0
  0
ARC
  5
282
330
2
100
AcDbEntity
  8
0
100
AcDbCircle
 10
6.27868695952939
 20
8.197751749274694
 30
0.0
 40
0.0240463796883528
100
AcDbArc
 50
91.01248601779753
 51
163.0918007758035
  0
LINE
  5
283
330
2
100
AcDbEntity
  8
0
100
AcDbLine
 10
6.27826205291189
 20
8.221794374561499
 30
0.0
 11
6.390014248803325
 21
8.213379821623759
 31
0.0
  0
LINE
  5
284
330
2
100
AcDbEntity
  8
0
100
AcDbLine
 10
6.390014248803325
 20
8.213379821623759
 30
0.0
 11
7.156562929172284
 21
8.441587248048982
 31
0.0
  0
LINE
  5
285
330
2
100
AcDbEntity
  8
0
100
AcDbLine
 10
7.316075592752101
 20
8.925892076758961
 30
0.0
 11
7.156562929172284
 21
8.441587248048982
 31
0.0
  0
LINE
  5
286
330
2
100
AcDbEntity
  8
0
100
AcDbLine
 10
7.330634931108012
 20
7.68985735627828
 30
0.0
 11
7.604383376894992
 21
8.521000303542406
 31
0.0
  0
LINE
  5
287
330
2
100
AcDbEntity
  8
0
100
AcDbLine
 10
8.713631527849958
 20
8.437479419289868
 30
0.0
 11
8.644761889080642
 21
8.22838187473958
 31
0.0
  0
LINE
  5
288
330
2
100
AcDbEntity
  8
0
100
AcDbLine
 10
8.437812989231534
 20
8.243964128131416
 30
0.0
 11
8.232932869534517
 21
7.621918428516591
 31
0.0
  0
LINE
  5
289
330
2
100
AcDbEntity
  8
0
100
AcDbLine
 10
8.232932869534517
 20
7.621918428516591
 30
0.0
 11
7.330634931108012
 21
7.68985735627828
 31
0.0
  0
ARC
  5
28A
330
2
100
AcDbEntity
  8
0
100
AcDbCircle
 10
8.810236257898457
 20
7.981840663178115
 30
0.0
 40
0.0553113921752287
100
AcDbArc
 50
226.9690139197051
 51
295.3354855813928
  0
LINE
  5
28B
330
2
100
AcDbEntity
  8
0
100
AcDbLine
 10
8.675857947560912
 20
8.025096515826856
 30
0.0
 11
8.772492107747181
 21
7.941408878235579
 31
0.0
  0
ARC
  5
28C
330
2
100
AcDbEntity
  8
0
100
AcDbCircle
 10
8.834598781433983
 20
8.153399731541988
 30
0.0
 40
0.2041087149034472
100
AcDbArc
 50
158.4468754029974
 51
218.9470807937983
  0
ARC
  5
28D
330
2
100
AcDbEntity
  8
0
100
AcDbCircle
 10
8.639565186351267
 20
8.462923441834005
 30
0.0
 40
0.078314885080356
100
AcDbArc
 50
341.0408574851013
 51
24.40699054409758
  0
ARC
  5
28E
330
2
100
AcDbEntity
  8
0
100
AcDbCircle
 10
8.853492294487939
 20
8.560005137841534
 30
0.0
 40
0.1566099184784063
100
AcDbArc
 50
161.0380058708977
 51
204.4098498788006
  0
LINE
  5
28F
330
2
100
AcDbEntity
  8
0
100
AcDbLine
 10
8.232932869534517
 20
7.621918428516591
 30
0.0
 11
8.303194405643331
 21
7.561070153333933
 31
0.0
  0
LINE
  5
290
330
2
100
AcDbEntity
  8
0
100
AcDbLine
 10
6.250258273758166
 20
7.71564630743201
 30
0.0
 11
6.154566720426203
 21
7.798517623543997
 31
0.0
  0
LINE
  5
291
330
2
100
AcDbEntity
  8
0
100
AcDbLine
 10
6.154566720426203
 20
7.798517623543997
 30
0.0
 11
7.305204913884791
 21
7.711880397217847
 31
0.0
  0
LINE
  5
292
330
2
100
AcDbEntity
  8
0
100
AcDbLine
 10
7.305204913884791
 20
7.711880397217847
 30
0.0
 11
7.330634931108012
 21
7.68985735627828
 31
0.0
  0
ARC
  5
293
330
2
100
AcDbEntity
  8
0
100
AcDbCircle
 10
8.268569043245904
 20
7.52723008487354
 30
0.0
 40
0.0484155548868815
100
AcDbArc
 50
6.368136345499464
 51
44.34285004420456
  0
ARC
  5
294
330
2
100
AcDbEntity
  8
0
100
AcDbCircle
 10
8.627644749981772
 20
8.168981303509928
 30
0.0
 40
0.2041041924560552
100
AcDbArc
 50
158.446168294299
 51
218.9478017275991
  0
LINE
  5
295
330
2
100
AcDbEntity
  8
0
100
AcDbLine
 10
8.565543207908245
 20
7.956991295702147
 30
0.0
 11
8.4689090477119
 21
8.040678933293422
 31
0.0
  0
ARC
  5
296
330
2
100
AcDbEntity
  8
0
100
AcDbCircle
 10
8.604430139221252
 20
7.999265324651082
 30
0.0
 40
0.057439419827779
100
AcDbArc
 50
227.3897431828998
 51
264.8561861738975
  0
ARC
  5
297
330
2
100
AcDbEntity
  8
0
100
AcDbCircle
 10
7.744244143532972
 20
8.643526022104177
 30
0.0
 40
0.1566099184784412
100
AcDbArc
 50
161.0380058708977
 51
204.4098498788006
  0
ARC
  5
298
330
2
100
AcDbEntity
  8
0
100
AcDbCircle
 10
6.215704634547246
 20
7.681853384330251
 30
0.0
 40
0.0483313111223549
100
AcDbArc
 50
6.491114374099543
 51
44.36230848150032
  0
ARC
  5
299
330
2
100
AcDbEntity
  8
0
100
AcDbCircle
 10
7.530323454146905
 20
8.546444631471024
 30
0.0
 40
0.0783089138048051
100
AcDbArc
 50
341.0391203479003
 51
24.4087276813009
  0
ELLIPSE
  5
29A
330
2
100
AcDbEntity
  8
0
100
AcDbEllipse
 10
8.869636644973891
 20
9.4800730551661
 30
0.0
 11
0.2456298752378562
 21
0.8761000978589297
 31
0.0
210
0.0
220
0.0
230
1.0
 40
0.033449368
 41
2.272263534317461
 42
2.34174625460599
  0
SPLINE
  5
29B
330
2
100
AcDbEntity
  8
0
100
AcDbSpline
210
0.0
220
0.0
230
1.0
 70
     8
 71
     3
 72
    11
 73
     7
 74
     0
 42
0.000000001
 43
0.0000000001
 40
0.0
 40
0.0
 40
0.0
 40
0.0
 40
0.2517137385180087
 40
0.5017633876615959
 40
0.7884835531649208
 40
1.0
 40
1.0
 40
1.0
 40
1.0
 10
8.668636907194349
 20
8.969039810074633
 30
0.0
 10
8.671985937272845
 20
8.966618972593112
 30
0.0
 10
8.678661856861101
 20
8.961793301881307
 30
0.0
 10
8.686365135033263
 20
8.948862453488292
 30
0.0
 10
8.690647700337304
 20
8.934636083706569
 30
0.0
 10
8.689305980566411
 20
8.925041077971178
 30
0.0
 10
8.688736380116429
 20
8.920967709073277
 30
0.0
  0
ARC
  5
29C
330
2
100
AcDbEntity
  8
0
100
AcDbCircle
 10
6.207475014695068
 20
7.841284950338589
 30
0.0
 40
0.0680318443355144
100
AcDbArc
 50
158.4451304928023
 51
218.9496259357011
  0
LINE
  5
29D
330
2
100
AcDbEntity
  8
0
100
AcDbLine
 10
8.436466216832407
 20
9.036827941894198
 30
0.0
 11
7.981866217789002
 21
9.071057124752094
 31
0.0
  0
LINE
  5
29E
330
2
100
AcDbEntity
  8
0
100
AcDbLine
 10
8.436466216832407
 20
9.036827941894198
 30
0.0
 11
8.662372808911536
 21
8.971614551706551
 31
0.0
  0
ARC
  5
29F
330
2
100
AcDbEntity
  8
0
100
AcDbCircle
 10
8.653916427766072
 20
8.942133646721881
 30
0.0
 40
0.0306697593882406
100
AcDbArc
 50
61.3167382975007
 51
73.99485028310414
  0
ELLIPSE
  5
2A0
330
2
100
AcDbEntity
  8
0
100
AcDbEllipse
 10
7.358004193522951
 20
8.945978380449775
 30
0.0
 11
0.0472028874974852
 21
-0.0192356482635045
 31
0.0
210
0.0
220
0.0
230
1.0
 40
0.2713924154000001
 41
1.896947681047103
 42
2.246013531439856
  0
LINE
  5
2A1
330
2
100
AcDbEntity
  8
0
100
AcDbLine
 10
7.395905006080305
 20
8.949644267319389
 30
0.0
 11
7.347826012389977
 21
8.964276855886133
 31
0.0
  0
LINE
  5
2A2
330
2
100
AcDbEntity
  8
0
100
AcDbLine
 10
6.987976878329115
 20
9.010625999387865
 30
0.0
 11
7.186734486309663
 21
8.83849686168739
 31
0.0
  0
ELLIPSE
  5
2A3
330
2
100
AcDbEntity
  8
0
100
AcDbEllipse
 10
7.028085548211822
 20
9.003618844276095
 30
0.0
 11
0.0472028874967972
 21
-0.0192356482632212
 31
0.0
210
0.0
220
0.0
230
1.0
 40
0.2713924153999999
 41
2.246013531444893
 42
3.816809858235645
  0
LINE
  5
2A4
330
2
100
AcDbEntity
  8
0
100
AcDbLine
 10
7.002655635384185
 20
9.025642007442653
 30
0.0
 11
7.332573562591039
 21
8.968001406639874
 31
0.0
  0
LINE
  5
2A5
330
2
100
AcDbEntity
  8
0
100
AcDbLine
 10
6.326385412658667
 20
8.238902944686175
 30
0.0
 11
6.319722260349687
 21
8.218672526055785
 31
0.0
  0
LINE
  5
2A6
330
2
100
AcDbEntity
  8
0
100
AcDbLine
 10
6.324268063430757
 20
8.239062424539451
 30
0.0
 11
6.326385412658667
 21
8.238902944686175
 31
0.0
  0
LWPOLYLINE
  5
2A7
330
2
100
AcDbEntity
  8
0
100
AcDbPolyline
 90
        9
 70
   128
 43
0.0
 10
6.31943215856383
 20
8.249943565984544
 10
6.318766630934409
 20
8.248013623444579
 10
6.318481779855961
 20
8.24609266064545
 10
6.318589419432451
 20
8.244266130392151
 10
6.319084298956665
 20
8.242615379725055
 10
6.319945415568805
 20
8.241214254905012
 10
6.3211333889384
 20
8.240125390008159
 10
6.322595711961731
 20
8.239397128332051
 10
6.324268063430757
 20
8.239062424539451
  0
LINE
  5
2A8
330
2
100
AcDbEntity
  8
0
100
AcDbLine
 10
6.546056785376084
 20
8.76014152791304
 30
0.0
 11
6.31943215856383
 21
8.249943565984544
 31
0.0
  0
ARC
  5
2A9
330
2
100
AcDbEntity
  8
0
100
AcDbCircle
 10
6.57909501357629
 20
8.746730885506737
 30
0.0
 40
0.0356562736730059
100
AcDbArc
 50
90.72684154310181
 51
157.9071328554994
  0
LINE
  5
2AA
330
2
100
AcDbEntity
  8
0
100
AcDbLine
 10
6.730666535075208
 20
8.770937798728652
 30
0.0
 11
6.578642698134532
 21
8.782384290159082
 31
0.0
  0
LINE
  5
2AB
330
2
100
AcDbEntity
  8
0
100
AcDbLine
 10
7.292449298720584
 20
8.854157212473159
 30
0.0
 11
6.730666535075208
 21
8.770937798728652
 31
0.0
  0
ARC
  5
2AC
330
2
100
AcDbEntity
  8
0
100
AcDbCircle
 10
7.877765898170226
 20
9.521979224101032
 30
0.0
 40
0.4627824718240034
100
AcDbArc
 50
248.3883789471947
 51
282.9996079635999
  0
SPLINE
  5
2AD
330
2
100
AcDbEntity
  8
0
100
AcDbSpline
210
0.0
220
0.0
230
1.0
 70
     8
 71
     3
 72
     9
 73
     5
 74
     0
 42
0.000000001
 43
0.0000000001
 40
0.0
 40
0.0
 40
0.0
 40
0.0
 40
0.3637854744933605
 40
1.0
 40
1.0
 40
1.0
 40
1.0
 10
7.739382264903932
 20
6.819309602100482
 30
0.0
 10
7.737803420915526
 20
6.827830217073058
 30
0.0
 10
7.733463379602348
 20
6.851252303907112
 30
0.0
 10
7.728195236217456
 20
6.873993876162464
 30
0.0
 10
7.724843566873651
 20
6.888462394764151
 30
0.0
  0
SPLINE
  5
2AE
330
2
100
AcDbEntity
  8
0
100
AcDbSpline
210
0.0
220
0.0
230
1.0
 70
     8
 71
     3
 72
     9
 73
     5
 74
     0
 42
0.000000001
 43
0.0000000001
 40
0.0
 40
0.0
 40
0.0
 40
0.0
 40
0.4931078804754943
 40
1.0
 40
1.0
 40
1.0
 40
1.0
 10
8.020833503794015
 20
6.798117762649294
 30
0.0
 10
8.012784899365156
 20
6.784071361911207
 30
0.0
 10
7.996462701429401
 20
6.755585910158637
 30
0.0
 10
7.987405500514598
 20
6.723681859936397
 30
0.0
 10
7.982814476745982
 20
6.707509948297784
 30
0.0
  0
SPLINE
  5
2AF
330
2
100
AcDbEntity
  8
0
100
AcDbSpline
210
0.0
220
0.0
230
1.0
 70
     8
 71
     3
 72
     9
 73
     5
 74
     0
 42
0.000000001
 43
0.0000000001
 40
0.0
 40
0.0
 40
0.0
 40
0.0
 40
0.3964137364449641
 40
1.0
 40
1.0
 40
1.0
 40
1.0
 10
7.982814476745982
 20
6.707509948297784
 30
0.0
 10
7.976378547557073
 20
6.699994854181656
 30
0.0
 10
7.960143163671037
 20
6.681037150587644
 30
0.0
 10
7.94241225587764
 20
6.664749040018993
 30
0.0
 10
7.931710123493149
 20
6.654917760220497
 30
0.0
  0
LINE
  5
2B0
330
2
100
AcDbEntity
  8
0
100
AcDbLine
 10
7.738057336699713
 20
6.669498674042915
 30
0.0
 11
7.747887163081824
 21
6.725199037250906
 31
0.0
  0
SPLINE
  5
2B1
330
2
100
AcDbEntity
  8
0
100
AcDbSpline
210
0.0
220
0.0
230
1.0
 70
     8
 71
     3
 72
     9
 73
     5
 74
     0
 42
0.000000001
 43
0.0000000001
 40
0.0
 40
0.0
 40
0.0
 40
0.0
 40
0.3822979274184181
 40
1.0
 40
1.0
 40
1.0
 40
1.0
 10
7.747887163086742
 20
6.725199037254887
 30
0.0
 10
7.748484746144271
 20
6.737606145934187
 30
0.0
 10
7.750047880586439
 20
6.77006017665066
 30
0.0
 10
7.743454815112085
 20
6.800504240662547
 30
0.0
 10
7.739382264903932
 20
6.819309602100482
 30
0.0
  0
LINE
  5
2B2
330
2
100
AcDbEntity
  8
0
100
AcDbLine
 10
7.724843566873651
 20
6.888462394764792
 30
0.0
 11
7.728111093108011
 21
6.919701594742289
 31
0.0
  0
ARC
  5
2B3
330
2
100
AcDbEntity
  8
0
100
AcDbCircle
 10
7.843971291690023
 20
6.578863944558821
 30
0.0
 40
0.3599915129549079
100
AcDbArc
 50
62.6137987147038
 51
108.7743259455001
  0
LINE
  5
2B4
330
2
100
AcDbEntity
  8
0
100
AcDbLine
 10
7.931260820946089
 20
6.572751167133778
 30
0.0
 11
7.928938693989982
 21
6.571077366710758
 31
0.0
  0
LWPOLYLINE
  5
2B5
330
2
100
AcDbEntity
  8
0
100
AcDbPolyline
 90
        9
 70
   128
 43
0.0
 10
7.773925889784378
 20
6.582749473596578
 10
7.774444650088424
 20
6.592644273030394
 10
7.782984959771153
 20
6.599737356784281
 10
7.79885007283377
 20
6.603451181280969
 10
7.820751805569823
 20
6.603484217553861
 10
7.846905893015334
 20
6.599833172928882
 10
7.875186133077245
 20
6.592795182048002
 10
7.903293161144739
 20
6.582942990629562
 10
7.928938693989982
 20
6.571077366710758
  0
LINE
  5
2B6
330
2
100
AcDbEntity
  8
0
100
AcDbLine
 10
7.773925889784378
 20
6.582749473596578
 30
0.0
 11
7.772791736197937
 21
6.584683323190709
 31
0.0
  0
LINE
  5
2B7
330
2
100
AcDbEntity
  8
0
100
AcDbLine
 10
7.772791736197937
 20
6.584683323190709
 30
0.0
 11
7.738057336699713
 21
6.669498674042915
 31
0.0
  0
LINE
  5
2B8
330
2
100
AcDbEntity
  8
0
100
AcDbLine
 10
7.931710123495403
 20
6.654917760223561
 30
0.0
 11
7.931260820946089
 21
6.572751167133778
 31
0.0
  0
LINE
  5
2B9
330
2
100
AcDbEntity
  8
0
100
AcDbLine
 10
7.707317038569945
 20
9.091729526265227
 30
0.0
 11
7.505194854852565
 21
9.106948277480624
 31
0.0
  0
LINE
  5
2BA
330
2
100
AcDbEntity
  8
0
100
AcDbLine
 10
7.930072847576423
 20
6.570992095578148
 30
0.0
 11
7.973303924225952
 21
6.533552884971417
 31
0.0
  0
LINE
  5
2BB
330
2
100
AcDbEntity
  8
0
100
AcDbLine
 10
7.930072847576423
 20
6.570992095578148
 30
0.0
 11
7.931260820946089
 21
6.572751167133778
 31
0.0
  0
LINE
  5
2BC
330
2
100
AcDbEntity
  8
0
100
AcDbLine
 10
8.034915509261844
 20
6.886260964663399
 30
0.0
 11
8.009562331997518
 21
6.898509837332746
 31
0.0
  0
LINE
  5
2BD
330
2
100
AcDbEntity
  8
0
100
AcDbLine
 10
8.034915509261844
 20
6.886260964663399
 30
0.0
 11
8.020833503790237
 21
6.798117762651963
 31
0.0
  0
LWPOLYLINE
  5
2BE
330
2
100
AcDbEntity
  8
0
100
AcDbPolyline
 90
        9
 70
   128
 43
0.0
 10
7.972169770639499
 20
6.533638156104015
 10
7.971651010335549
 20
6.523743356670169
 10
7.963110700652809
 20
6.516650272916277
 10
7.947245587590119
 20
6.512936448419589
 10
7.925345167533431
 20
6.51290370903759
 10
7.899189767408556
 20
6.516554456771723
 10
7.870909527346633
 20
6.523592447652568
 10
7.84280249927915
 20
6.53344463907105
 10
7.817156966433907
 20
6.545310262989853
  0
LINE
  5
2BF
330
2
100
AcDbEntity
  8
0
100
AcDbLine
 10
7.816022812847455
 20
6.545395534122464
 30
0.0
 11
7.817156966433907
 21
6.545310262989853
 31
0.0
  0
LINE
  5
2C0
330
2
100
AcDbEntity
  8
0
100
AcDbLine
 10
7.772791736197937
 20
6.582834744729195
 30
0.0
 11
7.816022812847455
 21
6.545395534122464
 31
0.0
  0
LINE
  5
2C1
330
2
100
AcDbEntity
  8
0
100
AcDbLine
 10
7.772791736197937
 20
6.582834744729195
 30
0.0
 11
7.773925889784378
 21
6.582749473596578
 31
0.0
  0
LINE
  5
2C2
330
2
100
AcDbEntity
  8
0
100
AcDbLine
 10
7.928938693989982
 20
6.571077366710758
 30
0.0
 11
7.930072847576423
 21
6.570992095578148
 31
0.0
  0
LINE
  5
2C3
330
2
100
AcDbEntity
  8
0
100
AcDbLine
 10
7.972169770639499
 20
6.533638156104015
 30
0.0
 11
7.973303924225952
 21
6.533552884971417
 31
0.0
  0
LINE
  5
2C4
330
2
100
AcDbEntity
  8
0
100
AcDbLine
 10
7.505194854852565
 20
9.106948277480624
 30
0.0
 11
7.402268009878176
 21
9.129571881450825
 31
0.0
  0
LWPOLYLINE
  5
2C5
330
2
100
AcDbEntity
  8
0
100
AcDbPolyline
 90
        3
 70
   128
 43
0.0
 10
8.044409999151516
 20
6.55731680490306
 10
8.0347590106051
 20
6.549469556596606
 10
8.032858196490421
 20
6.548543881524201
  0
LINE
  5
2C6
330
2
100
AcDbEntity
  8
0
100
AcDbLine
 10
8.18177551899768
 20
6.715299881820604
 30
0.0
 11
8.167713269265064
 21
6.705078777919313
 31
0.0
  0
ARC
  5
2C7
330
2
100
AcDbEntity
  8
0
100
AcDbCircle
 10
7.377328817447721
 20
9.018751873850092
 30
0.0
 40
0.1135915375553181
100
AcDbArc
 50
77.31730820779633
 51
85.32930291050435
  0
LINE
  5
2C8
330
2
100
AcDbEntity
  8
0
100
AcDbLine
 10
7.386578438386552
 20
9.131966192365801
 30
0.0
 11
7.046118396067833
 21
9.157601280871617
 31
0.0
  0
LINE
  5
2C9
330
2
100
AcDbEntity
  8
0
100
AcDbLine
 10
7.772791736197937
 20
6.584683323190709
 30
0.0
 11
7.772791736197937
 21
6.582834744729195
 31
0.0
  0
SPLINE
  5
2CA
330
2
100
AcDbEntity
  8
0
100
AcDbSpline
210
0.0
220
0.0
230
1.0
 70
     8
 71
     3
 72
     9
 73
     5
 74
     0
 42
0.000000001
 43
0.0000000001
 40
0.0
 40
0.0
 40
0.0
 40
0.0
 40
0.690265050481048
 40
1.0
 40
1.0
 40
1.0
 40
1.0
 10
8.195969232343431
 20
6.737076726197466
 30
0.0
 10
8.191316614469407
 20
6.743447546721784
 30
0.0
 10
8.184576279186762
 20
6.752677074596406
 30
0.0
 10
8.177715978640508
 20
6.76165236498933
 30
0.0
 10
8.175591103797112
 20
6.764432326106135
 30
0.0
  0
LINE
  5
2CB
330
2
100
AcDbEntity
  8
0
100
AcDbLine
 10
8.18177551899768
 20
6.715299881820604
 30
0.0
 11
8.195969232346909
 21
6.737076726197394
 31
0.0
  0
LWPOLYLINE
  5
2CC
330
2
100
AcDbEntity
  8
0
100
AcDbPolyline
 90
        6
 70
   128
 43
0.0
 10
7.046118396067833
 20
9.157601280871617
 10
7.038531442291906
 20
9.157785640651747
 10
7.032214115378503
 20
9.157117141875835
 10
7.027408689364626
 20
9.155620763841213
 10
7.024299232072964
 20
9.153354127331745
 10
7.023241412204002
 20
9.151488862295238
  0
ARC
  5
2CD
330
2
100
AcDbEntity
  8
0
100
AcDbCircle
 10
8.222103816258419
 20
6.107020487952073
 30
0.0
 40
0.0299565527571625
100
AcDbArc
 50
206.3093621142014
 51
267.201958473101
  0
ARC
  5
2CE
330
2
100
AcDbEntity
  8
0
100
AcDbCircle
 10
8.487413176097717
 20
6.227502853238421
 30
0.0
 40
0.3213265665840435
100
AcDbArc
 50
168.1565985803996
 51
204.5995217088995
  0
LINE
  5
2CF
330
2
100
AcDbEntity
  8
0
100
AcDbLine
 10
8.246154673276111
 20
6.51578417194112
 30
0.0
 11
8.172926944342378
 21
6.293451108942999
 31
0.0
  0
LINE
  5
2D0
330
2
100
AcDbEntity
  8
0
100
AcDbLine
 10
8.661327083080898
 20
6.256676934066935
 30
0.0
 11
8.734554812014643
 21
6.479009997065014
 31
0.0
  0
ARC
  5
2D1
330
2
100
AcDbEntity
  8
0
100
AcDbCircle
 10
8.179159158664282
 20
6.489628005608524
 30
0.0
 40
0.5354923987044599
100
AcDbArc
 50
308.3912028773996
 51
334.2132946608984
  0
ARC
  5
2D2
330
2
100
AcDbEntity
  8
0
100
AcDbCircle
 10
8.478548297711922
 20
6.109171638124556
 30
0.0
 40
0.0513914930587334
100
AcDbArc
 50
268.1090752518037
 51
310.1931445754983
  0
LINE
  5
2D3
330
2
100
AcDbEntity
  8
0
100
AcDbLine
 10
8.220641468303442
 20
6.0770996491982
 30
0.0
 11
8.476852539194604
 21
6.057808130044744
 31
0.0
  0
ARC
  5
2D4
330
2
100
AcDbEntity
  8
0
100
AcDbCircle
 10
8.287577003167863
 20
6.406606469725126
 30
0.0
 40
0.3182889617965301
100
AcDbArc
 50
305.8579809468014
 51
16.63386199700194
  0
ARC
  5
2D5
330
2
100
AcDbEntity
  8
0
100
AcDbCircle
 10
8.58627369744693
 20
6.258821723448929
 30
0.0
 40
0.3192340593722707
100
AcDbArc
 50
126.1985519929033
 51
197.4443547745022
  0
ARC
  5
2D6
330
2
100
AcDbEntity
  8
0
100
AcDbCircle
 10
8.292635429689442
 20
6.168057989902865
 30
0.0
 40
0.011978094213998
100
AcDbArc
 50
204.3362626065007
 51
267.2102901677973
  0
LINE
  5
2D7
330
2
100
AcDbEntity
  8
0
100
AcDbLine
 10
8.322056326821442
 20
6.153834723232718
 30
0.0
 11
8.292052451219989
 21
6.156094090996819
 31
0.0
  0
LINE
  5
2D8
330
2
100
AcDbEntity
  8
0
100
AcDbLine
 10
8.459674838005494
 20
6.143472935608348
 30
0.0
 11
8.322056326821442
 21
6.153834723232718
 31
0.0
  0
ARC
  5
2D9
330
2
100
AcDbEntity
  8
0
100
AcDbCircle
 10
8.460314783161511
 20
6.164195605129345
 30
0.0
 40
0.0207325483691562
100
AcDbArc
 50
268.2311879514998
 51
311.3935721910028
  0
ARC
  5
2DA
330
2
100
AcDbEntity
  8
0
100
AcDbCircle
 10
8.204589211408176
 20
6.467604933898628
 30
0.0
 40
0.5354923987045038
100
AcDbArc
 50
308.3912028773996
 51
334.2132946608984
  0
ARC
  5
2DB
330
2
100
AcDbEntity
  8
0
100
AcDbCircle
 10
8.503978350465951
 20
6.087148566414661
 30
0.0
 40
0.0513914930587334
100
AcDbArc
 50
268.1090752518037
 51
310.1931445754983
  0
LINE
  5
2DC
330
2
100
AcDbEntity
  8
0
100
AcDbLine
 10
8.68675713582478
 20
6.234653862367199
 30
0.0
 11
8.759984864768744
 21
6.456986925365313
 31
0.0
  0
LINE
  5
2DD
330
2
100
AcDbEntity
  8
0
100
AcDbLine
 10
8.246071521057482
 20
6.055076577498446
 30
0.0
 11
8.502282591938486
 21
6.035785058344989
 31
0.0
  0
ARC
  5
2DE
330
2
100
AcDbEntity
  8
0
100
AcDbCircle
 10
8.247949275518887
 20
6.08620517670116
 30
0.0
 40
0.0311851831766317
100
AcDbArc
 50
229.849277062707
 51
266.5479592276035
  0
ARC
  5
2DF
330
2
100
AcDbEntity
  8
0
100
AcDbCircle
 10
8.618250628878669
 20
6.233710532109134
 30
0.0
 40
0.3264147746040487
100
AcDbArc
 50
124.0986910639969
 51
193.882650111699
  0
LINE
  5
2E0
330
2
100
AcDbEntity
  8
0
100
AcDbLine
 10
8.44880541261091
 20
6.508541410645723
 30
0.0
 11
8.592546252867293
 21
6.497718060355647
 31
0.0
  0
ARC
  5
2E1
330
2
100
AcDbEntity
  8
0
100
AcDbCircle
 10
8.448091369125727
 20
6.488168068667398
 30
0.0
 40
0.0203858510081033
100
AcDbArc
 50
87.99272310400047
 51
129.0223704634988
  0
LINE
  5
2E2
330
2
100
AcDbEntity
  8
0
100
AcDbLine
 10
12.41721669044054
 20
9.119794724253463
 30
0.0
 11
12.41429532608218
 21
9.12318995345635
 31
0.0
  0
LINE
  5
2E3
330
2
100
AcDbEntity
  8
0
100
AcDbLine
 10
24.66204828930296
 20
12.6545731341418
 30
0.0
 11
24.65912692494467
 21
12.65796836334469
 31
0.0
  0
LWPOLYLINE
  5
2E4
330
2
100
AcDbEntity
  8
0
100
AcDbPolyline
 90
       12
 70
   128
 43
0.0
 10
24.74624119953171
 20
12.57095912273966
 10
24.75113601081443
 20
12.56689047275227
 10
24.81406791581927
 20
12.53607551660358
 10
24.88949421591544
 20
12.53195525036812
 10
24.96924168712976
 20
12.55497636235448
 10
25.04466815132108
 20
12.60264407062206
 10
25.10759989223087
 20
12.66979273170008
 10
25.15121754889764
 20
12.74914587106193
 10
25.17079449687009
 20
12.83210437036227
 10
25.16420879253233
 20
12.90967816776554
 10
25.13217486077986
 20
12.97346126730535
 10
25.11249453943884
 20
12.99387214376806
  0
LWPOLYLINE
  5
2E5
330
2
100
AcDbEntity
  8
0
100
AcDbPolyline
 90
       12
 70
   128
 43
0.0
 10
12.50140992883902
 20
9.036180807583381
 10
12.50630424786699
 20
9.032112015492828
 10
12.56923664512656
 20
9.001297201447332
 10
12.64466245297826
 20
8.997176793108698
 10
12.72441025235223
 20
9.020197999827086
 10
12.79983671654356
 20
9.06786570810485
 10
12.86276845745329
 20
9.135014369172715
 10
12.90638611412011
 20
9.214367508534543
 10
12.92596273392276
 20
9.297325913102795
 10
12.91937768592464
 20
9.374899899980421
 10
12.88734309783243
 20
9.438682810056072
 10
12.8676634328311
 20
9.459093875972701
  0
LWPOLYLINE
  5
2E6
330
2
100
AcDbEntity
  8
0
100
AcDbPolyline
 90
       19
 70
   128
 43
0.0
 10
24.62164100595929
 20
12.71274525560532
 10
24.62418317053107
 20
12.65043743762719
 10
24.64890745617587
 20
12.5733716964051
 10
24.69635288119063
 20
12.5132412906501
 10
24.76267592510536
 20
12.47491790778572
 10
24.84250330557485
 20
12.46150615466556
 10
24.92936811561267
 20
12.47409263895326
 10
25.01623259747034
 20
12.51165748138232
 10
25.09606014202483
 20
12.57115764147899
 10
25.16238318593955
 20
12.64777265160284
 10
25.20982861095427
 20
12.73529568626521
 10
25.23455289659904
 20
12.82663600045381
 10
25.23455289659904
 20
12.91439392361259
 10
25.20982861095427
 20
12.99145966483464
 10
25.16238318593955
 20
13.0515899885421
 10
25.09606014202483
 20
13.08991353549143
 10
25.01623259747034
 20
13.10332515921325
 10
24.92936811561267
 20
13.09073885169499
 10
24.92936811561267
 20
13.09073885169499
  0
LWPOLYLINE
  5
2E7
330
2
100
AcDbEntity
  8
0
100
AcDbPolyline
 90
       19
 70
   128
 43
0.0
 10
12.37680924302203
 20
9.177966798345856
 10
12.37935189983845
 20
9.115659122470924
 10
12.40407618548325
 20
9.038593381248835
 10
12.4515216105081
 20
8.978462975493842
 10
12.51784465441275
 20
8.940139592629467
 10
12.59767187079734
 20
8.926727792138168
 10
12.68453635266523
 20
8.939314181693811
 10
12.77140083453317
 20
8.976879024122885
 10
12.85122870724723
 20
9.036379278951596
 10
12.91755175116203
 20
9.11299428907545
 10
12.9649971761869
 20
9.200517323737823
 10
12.98972146182153
 20
9.291857637926421
 10
12.98972146182153
 20
9.379615561095382
 10
12.9649971761869
 20
9.456681302307282
 10
12.91755175116203
 20
9.516811626024937
 10
12.85122870724723
 20
9.555135172974178
 10
12.77140083453317
 20
9.568546701953822
 10
12.68453635266523
 20
9.55596039443556
 10
12.68453635266523
 20
9.55596039443556
  0
ARC
  5
2E8
330
2
100
AcDbEntity
  8
0
100
AcDbCircle
 10
28.05976870325533
 20
12.25638761745107
 30
0.0
 40
0.6197553017877877
100
AcDbArc
 50
8.749285570098935
 51
43.73463283130219
  0
LINE
  5
2E9
330
2
100
AcDbEntity
  8
0
100
AcDbLine
 10
28.50757252792745
 20
12.68483641100721
 30
0.0
 11
28.20241175282642
 21
12.94911339448538
 31
0.0
  0
ARC
  5
2EA
330
2
100
AcDbEntity
  8
0
100
AcDbCircle
 10
28.34438775025638
 20
13.07961726266088
 30
0.0
 40
0.1928430539474304
100
AcDbArc
 50
179.5143540286999
 51
222.5891186933036
  0
LINE
  5
2EB
330
2
100
AcDbEntity
  8
0
100
AcDbLine
 10
28.15155162363792
 20
13.27898231696725
 30
0.0
 11
28.15155162363792
 21
13.08125180418714
 31
0.0
  0
LWPOLYLINE
  5
2EC
330
2
100
AcDbEntity
  8
0
100
AcDbPolyline
 90
        3
 70
   128
 43
0.0
 10
28.20241175282642
 20
13.60980577114359
 10
28.1924894657046
 20
13.61670602587984
 10
28.18381258437964
 20
13.61966148232202
  0
LINE
  5
2ED
330
2
100
AcDbEntity
  8
0
100
AcDbLine
 10
28.20241175282642
 20
13.60980577114359
 30
0.0
 11
28.30413201119343
 21
13.52171344332087
 31
0.0
  0
LWPOLYLINE
  5
2EE
330
2
100
AcDbEntity
  8
0
100
AcDbPolyline
 90
       11
 70
   128
 43
0.0
 10
28.30413201119343
 20
13.52171344332087
 10
28.36499012025161
 20
13.4818077111896
 10
28.42231141681122
 20
13.46981918928163
 10
28.47276456719853
 20
13.48644466333797
 10
28.5134173535765
 20
13.53071783846409
 10
28.54190719581519
 20
13.60006578419071
 10
28.55657851627633
 20
13.69045808754571
 10
28.55657851627633
 20
13.79664157619404
 10
28.54190719581519
 20
13.91244535199219
 10
28.5134173535765
 20
14.03113915196936
 10
28.48186748094104
 20
14.1201447234683
  0
LINE
  5
2EF
330
2
100
AcDbEntity
  8
0
100
AcDbLine
 10
28.28401654526203
 20
14.41839394707968
 30
0.0
 11
28.17447963262895
 21
14.53379917634437
 31
0.0
  0
ARC
  5
2F0
330
2
100
AcDbEntity
  8
0
100
AcDbCircle
 10
28.29452434665998
 20
14.61218635846059
 30
0.0
 40
0.1433711396582789
100
AcDbArc
 50
175.7275585791675
 51
213.1438620226626
  0
LINE
  5
2F1
330
2
100
AcDbEntity
  8
0
100
AcDbLine
 10
28.15155162363792
 20
16.51685217920686
 30
0.0
 11
28.15155162363792
 21
14.62286737706521
 31
0.0
  0
LINE
  5
2F2
330
2
100
AcDbEntity
  8
0
100
AcDbLine
 10
30.99971847901574
 20
14.05026732822975
 30
0.0
 11
30.99971847901574
 21
10.78817842264128
 31
0.0
  0
ARC
  5
2F3
330
2
100
AcDbEntity
  8
0
100
AcDbCircle
 10
28.30034150430259
 20
13.06690220668328
 30
0.0
 40
0.1928430539474188
100
AcDbArc
 50
205.4158059478172
 51
222.5891186933036
  0
LINE
  5
2F4
330
2
100
AcDbEntity
  8
0
100
AcDbLine
 10
28.1075053776841
 20
13.55304446920199
 30
0.0
 11
28.1075053776841
 21
13.35372733113098
 31
0.0
  0
LINE
  5
2F5
330
2
100
AcDbEntity
  8
0
100
AcDbLine
 10
28.1583655068726
 20
12.93639833850778
 30
0.0
 11
28.46352628197364
 21
12.67212135502957
 31
0.0
  0
ARC
  5
2F6
330
2
100
AcDbEntity
  8
0
100
AcDbCircle
 10
8.898445380607665
 20
7.751802464358618
 30
0.0
 40
0.0645893028984725
100
AcDbArc
 50
177.7639509145997
 51
291.3846800217994
  0
LINE
  5
2F7
330
2
100
AcDbEntity
  8
0
100
AcDbLine
 10
8.83390525820709
 20
7.754322513729261
 30
0.0
 11
8.83390525820709
 21
10.96969206918721
 31
0.0
  0
LINE
  5
2F8
330
2
100
AcDbEntity
  8
0
100
AcDbLine
 10
28.03802911450707
 20
14.61946030603934
 30
0.0
 11
28.03802911450707
 21
16.513445108181
 31
0.0
  0
ARC
  5
2F9
330
2
100
AcDbEntity
  8
0
100
AcDbCircle
 10
27.91285928275963
 20
14.62565033030423
 30
0.0
 40
0.125322795927152
100
AcDbArc
 50
287.2087967792022
 51
357.1688579939015
  0
LINE
  5
2FA
330
2
100
AcDbEntity
  8
0
100
AcDbLine
 10
27.94993662258928
 20
14.5059378662513
 30
0.0
 11
27.33329049189516
 21
14.32792746147254
 31
0.0
  0
ARC
  5
2FB
330
2
100
AcDbEntity
  8
0
100
AcDbCircle
 10
27.37036763439777
 20
14.20821515053905
 30
0.0
 40
0.1253225912814567
100
AcDbArc
 50
107.208731315501
 51
177.1689234576004
  0
LINE
  5
2FC
330
2
100
AcDbEntity
  8
0
100
AcDbLine
 10
27.24519799997738
 20
14.21440502168445
 30
0.0
 11
27.24519799997738
 21
13.06920492403383
 31
0.0
  0
ARC
  5
2FD
330
2
100
AcDbEntity
  8
0
100
AcDbCircle
 10
27.12002946191811
 20
13.0753939371385
 30
0.0
 40
0.1253214538907276
100
AcDbArc
 50
287.208524705999
 51
357.1692905096015
  0
LINE
  5
2FE
330
2
100
AcDbEntity
  8
0
100
AcDbLine
 10
27.15710583623958
 20
12.95568257897781
 30
0.0
 11
8.921996437435286
 21
7.691659918923409
 31
0.0
  0
LINE
  5
2FF
330
2
100
AcDbEntity
  8
0
100
AcDbLine
 10
25.30716711596685
 20
13.96326676075028
 30
0.0
 11
24.60242882152475
 21
13.75982633874835
 31
0.0
  0
LINE
  5
300
330
2
100
AcDbEntity
  8
0
100
AcDbLine
 10
25.30716711596685
 20
14.22754374422849
 30
0.0
 11
25.30716711596685
 21
13.96326676075028
 31
0.0
  0
LINE
  5
301
330
2
100
AcDbEntity
  8
0
100
AcDbLine
 10
25.30716711596685
 20
14.22754374422849
 30
0.0
 11
24.60242882152475
 21
14.0241033222266
 31
0.0
  0
LINE
  5
302
330
2
100
AcDbEntity
  8
0
100
AcDbLine
 10
24.60242882152475
 20
14.0241033222266
 30
0.0
 11
24.60242882152475
 21
13.75982633874835
 31
0.0
  0
LINE
  5
303
330
2
100
AcDbEntity
  8
0
100
AcDbLine
 10
13.06233568119947
 20
10.42848839822289
 30
0.0
 11
12.35759705858748
 21
10.22504788148891
 31
0.0
  0
LINE
  5
304
330
2
100
AcDbEntity
  8
0
100
AcDbLine
 10
13.06233568119947
 20
10.6927653817011
 30
0.0
 11
13.06233568119947
 21
10.42848839822289
 31
0.0
  0
LINE
  5
305
330
2
100
AcDbEntity
  8
0
100
AcDbLine
 10
13.06233568119947
 20
10.6927653817011
 30
0.0
 11
12.35759705858748
 21
10.48932486496716
 31
0.0
  0
LINE
  5
306
330
2
100
AcDbEntity
  8
0
100
AcDbLine
 10
12.35759705858748
 20
10.48932486496716
 30
0.0
 11
12.35759705858748
 21
10.22504788148891
 31
0.0
  0
LWPOLYLINE
  5
307
330
2
100
AcDbEntity
  8
0
100
AcDbPolyline
 90
        7
 70
   128
 43
0.0
 10
28.1301534257709
 20
13.60672790303221
 10
28.13010918483035
 20
13.60671518646604
 10
28.12240197644882
 20
13.60243438020828
 10
28.11607694234534
 20
13.59456274392458
 10
28.11137688667176
 20
13.58340317801461
 10
28.10848265731695
 20
13.56938410769058
 10
28.1075053776841
 20
13.55304446920199
  0
ARC
  5
308
330
2
100
AcDbEntity
  8
0
100
AcDbCircle
 10
27.98251555878358
 20
12.22730252448062
 30
0.0
 40
0.6551603680257261
100
AcDbArc
 50
9.722545797199474
 51
42.76137260430007
  0
ARC
  5
309
330
2
100
AcDbEntity
  8
0
100
AcDbCircle
 10
28.11928098174212
 20
16.51811121612762
 30
0.0
 40
0.0322951931805378
100
AcDbArc
 50
357.7657421884998
 51
111.3844477884975
  0
ARC
  5
30A
330
2
100
AcDbEntity
  8
0
100
AcDbCircle
 10
30.96665559614814
 20
14.05156496980303
 30
0.0
 40
0.0330883377823297
100
AcDbArc
 50
357.7524269360992
 51
47.59881152089845
  0
LWPOLYLINE
  5
30B
330
2
100
AcDbEntity
  8
0
100
AcDbPolyline
 90
        7
 70
   128
 43
0.0
 10
8.83390525820709
 20
10.96969206918721
 10
8.83439389801844
 20
10.9778616833228
 10
8.835840965324711
 20
10.98487146460716
 10
8.838191040527494
 20
10.99045108348227
 10
8.841353557579349
 20
10.99438690162411
 10
8.845207161769998
 20
10.99652738679547
 10
8.845229234879347
 20
10.99653386814481
  0
LWPOLYLINE
  5
30C
330
2
100
AcDbEntity
  8
0
100
AcDbPolyline
 90
        9
 70
   128
 43
0.0
 10
28.06345913173031
 20
16.53546798502543
 10
28.05849798816938
 20
16.53891811239862
 10
28.05372754486547
 20
16.5405432074712
 10
28.0493310180802
 20
16.54028042578926
 10
28.04547741388946
 20
16.53813994061791
 10
28.04231489683768
 20
16.53420412247605
 10
28.03996482162475
 20
16.52862450360091
 10
28.03851775431841
 20
16.5216147223166
 10
28.03802911450707
 20
16.513445108181
  0
LINE
  5
30D
330
2
100
AcDbEntity
  8
0
100
AcDbLine
 10
28.06345913173031
 20
16.53546798502543
 30
0.0
 11
28.1075053776841
 21
16.54818304101319
 31
0.0
  0
ARC
  5
30E
330
2
100
AcDbEntity
  8
0
100
AcDbCircle
 10
28.98798383006944
 20
12.0555639385049
 30
0.0
 40
0.3288644834894949
100
AcDbArc
 50
57.13646885050122
 51
107.6021069081028
  0
LINE
  5
30F
330
2
100
AcDbEntity
  8
0
100
AcDbLine
 10
29.16643882729254
 20
12.33179873440769
 30
0.0
 11
31.65858468363855
 21
10.17353711287277
 31
0.0
  0
LWPOLYLINE
  5
310
330
2
100
AcDbEntity
  8
0
100
AcDbPolyline
 90
        9
 70
   128
 43
0.0
 10
31.58411995819041
 20
10.03458456112944
 10
31.61653796085756
 20
10.04619965364687
 10
31.64380000809318
 20
10.060753574576
 10
31.66486011734511
 20
10.07768719930185
 10
31.67890841265743
 20
10.09634985219464
 10
31.68540465148946
 20
10.1160240807576
 10
31.68409978134011
 20
10.13595397521395
 10
31.67504395667665
 20
10.15537384577198
 10
31.65858468363855
 20
10.17353711287277
  0
LINE
  5
311
330
2
100
AcDbEntity
  8
0
100
AcDbLine
 10
31.58411995819041
 20
10.03458456112944
 30
0.0
 11
30.89700009649379
 21
9.836230142566089
 31
0.0
  0
LINE
  5
312
330
2
100
AcDbEntity
  8
0
100
AcDbLine
 10
28.88853358510014
 20
12.36903083830973
 30
0.0
 11
28.20141372340355
 21
12.17067641975651
 31
0.0
  0
LWPOLYLINE
  5
313
330
2
100
AcDbEntity
  8
0
100
AcDbPolyline
 90
        9
 70
   128
 43
0.0
 10
29.82628345976634
 20
11.2008948148995
 10
29.76660404251261
 20
11.17472601142386
 10
29.73149563795845
 20
11.13912973380523
 10
29.72630369878796
 20
11.09952534697447
 10
29.75181937880738
 20
11.06194246288386
 10
29.80415700353935
 20
11.03210240728417
 10
29.87534978332405
 20
11.01454838947171
 10
29.95455854700683
 20
11.01195263578765
 10
30.02972395281985
 20
11.02471017976095
  0
LINE
  5
314
330
2
100
AcDbEntity
  8
0
100
AcDbLine
 10
30.02972395281985
 20
11.02471017976095
 30
0.0
 11
30.20590893664517
 21
11.07557040368158
 31
0.0
  0
LWPOLYLINE
  5
315
330
2
100
AcDbEntity
  8
0
100
AcDbPolyline
 90
        9
 70
   128
 43
0.0
 10
30.20590893664517
 20
11.07557040368158
 10
30.2655890102386
 20
11.10173939662135
 10
30.30069675846328
 20
11.13733548477585
 10
30.30588869762353
 20
11.17693987160661
 10
30.28037301760412
 20
11.21452275569718
 10
30.22803539287223
 20
11.24436281129692
 10
30.15684261308753
 20
11.26191682910939
 10
30.07763450574439
 20
11.26451277226771
 10
30.00246844359174
 20
11.25175503882013
  0
LINE
  5
316
330
2
100
AcDbEntity
  8
0
100
AcDbLine
 10
30.00246844359174
 20
11.25175503882013
 30
0.0
 11
29.82628345976634
 21
11.2008948148995
 31
0.0
  0
ARC
  5
317
330
2
100
AcDbEntity
  8
0
100
AcDbCircle
 10
28.98798383006944
 20
12.09961009729465
 30
0.0
 40
0.3288644834895439
100
AcDbArc
 50
57.13646885050122
 51
107.6021069081028
  0
LINE
  5
318
330
2
100
AcDbEntity
  8
0
100
AcDbLine
 10
28.88853358510014
 20
12.41307699709947
 30
0.0
 11
28.20141372340355
 21
12.21472257854623
 31
0.0
  0
LINE
  5
319
330
2
100
AcDbEntity
  8
0
100
AcDbLine
 10
31.65858468363855
 20
10.21758327165233
 30
0.0
 11
29.16643882729254
 21
12.37584489318724
 31
0.0
  0
ARC
  5
31A
330
2
100
AcDbEntity
  8
0
100
AcDbCircle
 10
28.18492768232785
 20
12.21277631219614
 30
0.0
 40
0.0452127249161983
100
AcDbArc
 50
177.7643096007011
 51
291.3849844368012
  0
ARC
  5
31B
330
2
100
AcDbEntity
  8
0
100
AcDbCircle
 10
28.19670357981829
 20
12.22675104894297
 30
0.0
 40
0.0129177998414133
100
AcDbArc
 50
177.763632320301
 51
291.3844626884983
  0
ARC
  5
31C
330
2
100
AcDbEntity
  8
0
100
AcDbCircle
 10
30.88069760125317
 20
9.88179889099795
 30
0.0
 40
0.0483971299216908
100
AcDbArc
 50
231.2219891423981
 51
289.6849767793981
  0
LINE
  5
31D
330
2
100
AcDbEntity
  8
0
100
AcDbLine
 10
28.18379561882789
 20
12.2272551282188
 30
0.0
 11
28.18379561882789
 21
12.91437521553091
 31
0.0
  0
LWPOLYLINE
  5
31E
330
2
100
AcDbEntity
  8
0
100
AcDbPolyline
 90
       13
 70
   128
 43
0.0
 10
28.58473282925245
 20
12.32537727814092
 10
28.58300847447966
 20
12.33564697159437
 10
28.56092902200658
 20
12.42100659146107
 10
28.52710137240777
 20
12.49946603863903
 10
28.48560563971462
 20
12.56156193199429
 10
28.44144682950053
 20
12.59980458343938
 10
28.39995109680747
 20
12.60958140740127
 10
28.3661234472085
 20
12.58971316803489
 10
28.34404408946753
 20
12.5425961996031
 10
28.33637600638347
 20
12.47391357639713
 10
28.34404408946753
 20
12.39194948469932
 10
28.3661234472085
 20
12.30658992635299
 10
28.38144284540513
 20
12.26669256255268
  0
LINE
  5
31F
330
2
100
AcDbEntity
  8
0
100
AcDbLine
 10
28.13974937287408
 20
12.21454007224116
 30
0.0
 11
28.13974937287408
 21
12.95863340997113
 31
0.0
  0
LINE
  5
320
330
2
100
AcDbEntity
  8
0
100
AcDbLine
 10
8.895719863628626
 20
7.522571924430107
 30
0.0
 11
28.05501500461892
 21
13.05632046080577
 31
0.0
  0
ARC
  5
321
330
2
100
AcDbEntity
  8
0
100
AcDbCircle
 10
28.08341011095154
 20
13.12646733545762
 30
0.0
 40
0.038568499638929
100
AcDbArc
 50
179.5141860577003
 51
222.5891435567012
  0
LINE
  5
322
330
2
100
AcDbEntity
  8
0
100
AcDbLine
 10
27.49085891882
 20
14.34404949374397
 30
0.0
 11
27.49085891882
 21
14.12381859213463
 31
0.0
  0
LINE
  5
323
330
2
100
AcDbEntity
  8
0
100
AcDbLine
 10
27.49085891882
 20
14.12381859213463
 30
0.0
 11
27.79918231233692
 21
14.21282388925608
 31
0.0
  0
LINE
  5
324
330
2
100
AcDbEntity
  8
0
100
AcDbLine
 10
27.79918231233692
 20
14.21282388925608
 30
0.0
 11
27.79918231233692
 21
14.43305479086539
 31
0.0
  0
LINE
  5
325
330
2
100
AcDbEntity
  8
0
100
AcDbLine
 10
27.79918231233692
 20
13.59617775856187
 30
0.0
 11
27.79918231233692
 21
13.77236241420725
 31
0.0
  0
LINE
  5
326
330
2
100
AcDbEntity
  8
0
100
AcDbLine
 10
27.79918231233692
 20
13.77236241420725
 30
0.0
 11
27.49085891882
 21
13.68335711708579
 31
0.0
  0
LINE
  5
327
330
2
100
AcDbEntity
  8
0
100
AcDbLine
 10
27.49085891882
 20
13.68335711708579
 30
0.0
 11
27.49085891882
 21
13.5071724614303
 31
0.0
  0
LINE
  5
328
330
2
100
AcDbEntity
  8
0
100
AcDbLine
 10
27.49085891882
 20
13.5071724614303
 30
0.0
 11
27.79918231233692
 21
13.59617775856187
 31
0.0
  0
LINE
  5
329
330
2
100
AcDbEntity
  8
0
100
AcDbLine
 10
28.04484299773168
 20
13.12679435588294
 30
0.0
 11
28.03802911450255
 21
14.61946030603555
 31
0.0
  0
LINE
  5
32A
330
2
100
AcDbEntity
  8
0
100
AcDbLine
 10
28.05501500461892
 20
13.05632046080577
 30
0.0
 11
28.07956249467287
 21
13.03506171082395
 31
0.0
  0
LINE
  5
32B
330
2
100
AcDbEntity
  8
0
100
AcDbLine
 10
11.63121188965413
 20
5.155599253060606
 30
0.0
 11
11.67190001195548
 21
5.120362305522021
 31
0.0
  0
LINE
  5
32C
330
2
100
AcDbEntity
  8
0
100
AcDbLine
 10
11.63121188965413
 20
5.155599253060606
 30
0.0
 11
11.50217960371917
 21
5.118350840555671
 31
0.0
  0
LINE
  5
32D
330
2
100
AcDbEntity
  8
0
100
AcDbLine
 10
28.08300939701703
 20
13.07612276974654
 30
0.0
 11
28.05501500461892
 21
13.10036662472223
 31
0.0
  0
ARC
  5
32E
330
2
100
AcDbEntity
  8
0
100
AcDbCircle
 10
31.61825588386963
 20
10.16323829162467
 30
0.0
 40
0.067674137939376
100
AcDbArc
 50
2.951652952599149
 51
53.42130466589905
  0
ARC
  5
32F
330
2
100
AcDbEntity
  8
0
100
AcDbCircle
 10
11.688004508176
 20
5.135227386666633
 30
0.0
 40
0.0219163280663449
100
AcDbArc
 50
222.7082226247959
 51
279.5709915193981
  0
LINE
  5
330
330
2
100
AcDbEntity
  8
0
100
AcDbLine
 10
8.80659323062898
 20
7.496843281652349
 30
0.0
 11
8.89748041349809
 21
7.523080151400673
 31
0.0
  0
ARC
  5
331
330
2
100
AcDbEntity
  8
0
100
AcDbCircle
 10
8.801695139173611
 20
7.513278879721255
 30
0.0
 40
0.017149932467373
100
AcDbArc
 50
266.2273906944015
 51
286.5949634005968
  0
LINE
  5
332
330
2
100
AcDbEntity
  8
0
100
AcDbLine
 10
11.481088810119
 20
5.11598126896982
 30
0.0
 11
8.726224530135937
 21
7.501763719412585
 31
0.0
  0
ARC
  5
333
330
2
100
AcDbEntity
  8
0
100
AcDbCircle
 10
11.48503937018887
 20
5.175864572831579
 30
0.0
 40
0.0600134735419946
100
AcDbArc
 50
266.2256106960968
 51
286.5951008251002
  0
LINE
  5
334
330
2
100
AcDbEntity
  8
0
100
AcDbLine
 10
6.723013949069963
 20
7.652595815097756
 30
0.0
 11
8.800566727023438
 21
7.496166110523967
 31
0.0
  0
LINE
  5
335
330
2
100
AcDbEntity
  8
0
100
AcDbLine
 10
8.767046151741389
 20
5.320335512055414
 30
0.0
 11
11.481088810119
 21
5.11598126896982
 31
0.0
  0
LINE
  5
336
330
2
100
AcDbEntity
  8
0
100
AcDbLine
 10
6.050279687983786
 20
7.55333970667843
 30
0.0
 11
6.051563486835858
 21
7.557236980375989
 31
0.0
  0
LINE
  5
337
330
2
100
AcDbEntity
  8
0
100
AcDbLine
 10
6.904790510856611
 20
7.472884730556089
 30
0.0
 11
6.42591253659645
 21
6.01894033429273
 31
0.0
  0
ARC
  5
338
330
2
100
AcDbEntity
  8
0
100
AcDbCircle
 10
6.303891212785662
 20
6.059548543046273
 30
0.0
 40
0.1286010500896167
100
AcDbArc
 50
287.7671609107014
 51
341.5927637648003
  0
LINE
  5
339
330
2
100
AcDbEntity
  8
0
100
AcDbLine
 10
6.343133764268511
 20
5.937081191325161
 30
0.0
 11
5.553761555650281
 21
5.709209062759118
 31
0.0
  0
LINE
  5
33A
330
2
100
AcDbEntity
  8
0
100
AcDbLine
 10
6.675837786405012
 20
6.365835107318877
 30
0.0
 11
6.618591909220004
 21
6.192028288507112
 31
0.0
  0
ARC
  5
33B
330
2
100
AcDbEntity
  8
0
100
AcDbCircle
 10
6.656562941782871
 20
6.177032126010444
 30
0.0
 40
0.04082504382846
100
AcDbArc
 50
158.4491067602002
 51
218.9439832005039
  0
LINE
  5
33C
330
2
100
AcDbEntity
  8
0
100
AcDbLine
 10
6.624810820487406
 20
6.151371124527341
 30
0.0
 11
6.899455480184389
 21
5.913521872220066
 31
0.0
  0
LWPOLYLINE
  5
33D
330
2
100
AcDbEntity
  8
0
100
AcDbPolyline
 90
        9
 70
   128
 43
0.0
 10
6.899455480184389
 20
5.913521872220066
 10
6.902606761940484
 20
5.911471617287221
 10
6.905983635491869
 20
5.910554512541866
 10
6.909456424100495
 20
5.910805895107709
 10
6.912892234044598
 20
5.912216280782664
 10
6.916160198805107
 20
5.914731866038466
 10
6.91913226414301
 20
5.918255164901236
 10
6.921696531567186
 20
5.922651404143719
 10
6.923752636960015
 20
5.927751346052649
  0
LINE
  5
33E
330
2
100
AcDbEntity
  8
0
100
AcDbLine
 10
6.923752636960015
 20
5.927751346052649
 30
0.0
 11
6.980998514145023
 21
6.101558164854267
 31
0.0
  0
ARC
  5
33F
330
2
100
AcDbEntity
  8
0
100
AcDbCircle
 10
6.854440683903399
 20
6.151546652335603
 30
0.0
 40
0.1360725294690828
100
AcDbArc
 50
338.4467067232987
 51
38.94685972650244
  0
LINE
  5
340
330
2
100
AcDbEntity
  8
0
100
AcDbLine
 10
6.960268277625238
 20
6.237081754388997
 30
0.0
 11
6.756827808252236
 21
6.413266369020742
 31
0.0
  0
LWPOLYLINE
  5
341
330
2
100
AcDbEntity
  8
0
100
AcDbPolyline
 90
        9
 70
   128
 43
0.0
 10
6.756827808252236
 20
6.413266369020742
 10
6.746326582866986
 20
6.420101778150677
 10
6.735069884328706
 20
6.423158571933563
 10
6.723492688582489
 20
6.42232018274623
 10
6.71203914524371
 20
6.417618617208626
 10
6.701148523146518
 20
6.40923411822831
 10
6.691239856853398
 20
6.397489310777011
 10
6.682693189686043
 20
6.382835227492371
 10
6.675837786405012
 20
6.365835107318877
  0
LINE
  5
342
330
2
100
AcDbEntity
  8
0
100
AcDbLine
 10
8.744464156212243
 20
5.303286514532706
 30
0.0
 11
8.660102294490714
 21
5.047150220500272
 31
0.0
  0
LINE
  5
343
330
2
100
AcDbEntity
  8
0
100
AcDbLine
 10
8.70079041679207
 20
5.011913272961686
 30
0.0
 11
8.660102294490714
 21
5.047150220500272
 31
0.0
  0
LINE
  5
344
330
2
100
AcDbEntity
  8
0
100
AcDbLine
 10
8.70079041679207
 20
5.011913272961686
 30
0.0
 11
8.534313997692656
 21
4.506464426043623
 31
0.0
  0
LWPOLYLINE
  5
345
330
2
100
AcDbEntity
  8
0
100
AcDbPolyline
 90
        9
 70
   128
 43
0.0
 10
8.480459784365159
 20
4.462034165772329
 10
8.484963326856401
 20
4.473559986276242
 10
8.490447619207232
 20
4.483819390808617
 10
8.496764718928444
 20
4.492534593372017
 10
8.503740888559329
 20
4.499468848577143
 10
8.511189276051768
 20
4.504434898074803
 10
8.518905909098437
 20
4.507297752146581
 10
8.52668520397054
 20
4.507980643573802
 10
8.534313997692656
 20
4.506464426043623
  0
LINE
  5
346
330
2
100
AcDbEntity
  8
0
100
AcDbLine
 10
8.480459784365159
 20
4.462034165772329
 30
0.0
 11
8.408148304506072
 21
4.242488403668591
 31
0.0
  0
ARC
  5
347
330
2
100
AcDbEntity
  8
0
100
AcDbCircle
 10
8.522781548619679
 20
4.202038702068541
 30
0.0
 40
0.1215605158632418
100
AcDbArc
 50
160.5640055550006
 51
207.8755931541979
  0
LINE
  5
348
330
2
100
AcDbEntity
  8
0
100
AcDbLine
 10
8.415326321986592
 20
4.145202681065648
 30
0.0
 11
8.178267219638977
 21
3.425455149637695
 31
0.0
  0
LINE
  5
349
330
2
100
AcDbEntity
  8
0
100
AcDbLine
 10
8.178267219638977
 20
3.425455149637695
 30
0.0
 11
8.137579097347781
 21
3.460692097176274
 31
0.0
  0
LINE
  5
34A
330
2
100
AcDbEntity
  8
0
100
AcDbLine
 10
8.137579097347781
 20
3.460692097176274
 30
0.0
 11
8.081540883692566
 21
3.290548460859049
 31
0.0
  0
LINE
  5
34B
330
2
100
AcDbEntity
  8
0
100
AcDbLine
 10
5.43210488040198
 20
5.765118531673801
 30
0.0
 11
5.385954510612537
 21
5.624994738049481
 31
0.0
  0
LINE
  5
34C
330
2
100
AcDbEntity
  8
0
100
AcDbLine
 10
6.703808227268273
 20
5.259967041060476
 30
0.0
 11
6.761054104453281
 21
5.433773900885849
 31
0.0
  0
ARC
  5
34D
330
2
100
AcDbEntity
  8
0
100
AcDbCircle
 10
6.72308720796773
 20
5.448770633158272
 30
0.0
 40
0.040821406246501
100
AcDbArc
 50
338.4462305090001
 51
38.94700718389605
  0
LINE
  5
34E
330
2
100
AcDbEntity
  8
0
100
AcDbLine
 10
6.754835145821804
 20
5.474431023840342
 30
0.0
 11
6.480190486117816
 21
5.712280276159336
 31
0.0
  0
LWPOLYLINE
  5
34F
330
2
100
AcDbEntity
  8
0
100
AcDbPolyline
 90
        9
 70
   128
 43
0.0
 10
6.480190486117816
 20
5.712280276159336
 10
6.477040517041086
 20
5.71433099206793
 10
6.473663643489772
 20
5.715248096813284
 10
6.470190902252179
 20
5.714996673223661
 10
6.466753755948275
 20
5.713585929127248
 10
6.463487103867215
 20
5.711070722799733
 10
6.460513725839703
 20
5.70754704499856
 10
6.457950771094892
 20
5.703151102657105
 10
6.455893376723441
 20
5.698050843340312
  0
LINE
  5
350
330
2
100
AcDbEntity
  8
0
100
AcDbLine
 10
6.455893376723441
 20
5.698050843340312
 30
0.0
 11
6.398647499528286
 21
5.524243983514939
 31
0.0
  0
ARC
  5
351
330
2
100
AcDbEntity
  8
0
100
AcDbCircle
 10
6.525203998923351
 20
5.474256530762434
 30
0.0
 40
0.1360709115529704
100
AcDbArc
 50
158.4469060871004
 51
218.9477876244
  0
LINE
  5
352
330
2
100
AcDbEntity
  8
0
100
AcDbLine
 10
6.419379048727437
 20
5.388720731905035
 30
0.0
 11
6.622819518100427
 21
5.212536117273236
 31
0.0
  0
LWPOLYLINE
  5
353
330
2
100
AcDbEntity
  8
0
100
AcDbPolyline
 90
        9
 70
   128
 43
0.0
 10
6.622819518100427
 20
5.212536117273236
 10
6.633320719795093
 20
5.2057008517113
 10
6.644576081973511
 20
5.202643658483177
 10
6.656153325090892
 20
5.203482006646731
 10
6.667606868429683
 20
5.208183613208114
 10
6.678498779525707
 20
5.216568388572515
 10
6.688407469499445
 20
5.228313216530604
 10
6.696952776616234
 20
5.242967002924374
 10
6.703808227268273
 20
5.259967041060476
  0
ARC
  5
354
330
2
100
AcDbEntity
  8
0
100
AcDbCircle
 10
6.694193708083394
 20
7.392690730581447
 30
0.0
 40
0.261483053139852
100
AcDbArc
 50
53.53777866929686
 51
85.22706836750108
  0
LINE
  5
355
330
2
100
AcDbEntity
  8
0
100
AcDbLine
 10
6.006728643305518
 20
7.619578205153141
 30
0.0
 11
6.047416670864594
 21
7.58434133965193
 31
0.0
  0
ARC
  5
356
330
2
100
AcDbEntity
  8
0
100
AcDbCircle
 10
5.530472569764907
 20
5.774313930469049
 30
0.0
 40
0.0691449250749756
100
AcDbArc
 50
231.224787151901
 51
289.6828904016961
  0
LINE
  5
357
330
2
100
AcDbEntity
  8
0
100
AcDbLine
 10
6.053712889129106
 20
7.703130249285901
 30
0.0
 11
6.715950943849174
 21
7.653267033750859
 31
0.0
  0
LINE
  5
358
330
2
100
AcDbEntity
  8
0
100
AcDbLine
 10
6.890279185604216
 20
7.567751320195998
 30
0.0
 11
6.849591158045057
 21
7.602988185687051
 31
0.0
  0
ARC
  5
359
330
2
100
AcDbEntity
  8
0
100
AcDbCircle
 10
6.816198592916515
 20
7.507876375896977
 30
0.0
 40
0.0952519982288174
100
AcDbArc
 50
338.4471897567047
 51
38.94655127820044
  0
ARC
  5
35A
330
2
100
AcDbEntity
  8
0
100
AcDbCircle
 10
6.026252444536902
 20
7.567233931426703
 30
0.0
 40
0.0272137445487198
100
AcDbArc
 50
338.4477632986965
 51
38.94920519329671
  0
ARC
  5
35B
330
2
100
AcDbEntity
  8
0
100
AcDbCircle
 10
5.300534854848791
 20
5.653425349659583
 30
0.0
 40
0.0900267586174247
100
AcDbArc
 50
287.7679525381047
 51
341.5907760378009
  0
ARC
  5
35C
330
2
100
AcDbEntity
  8
0
100
AcDbCircle
 10
7.99612122792888
 20
3.318979072469104
 30
0.0
 40
0.0900267586173483
100
AcDbArc
 50
287.7679525381047
 51
341.5907760379008
  0
LINE
  5
35D
330
2
100
AcDbEntity
  8
0
100
AcDbLine
 10
8.023594036585905
 20
3.233246569581814
 30
0.0
 11
5.328007663495728
 21
5.567692846772294
 31
0.0
  0
ARC
  5
35E
330
2
100
AcDbEntity
  8
0
100
AcDbCircle
 10
7.23174231171269
 20
3.346829560388375
 30
0.0
 40
0.3288598742316294
100
AcDbArc
 50
237.1360984817998
 51
287.6022525421923
  0
LINE
  5
35F
330
2
100
AcDbEntity
  8
0
100
AcDbLine
 10
7.053288030060935
 20
3.07059978964864
 30
0.0
 11
4.561142173714924
 21
5.228861411193713
 31
0.0
  0
LWPOLYLINE
  5
360
330
2
100
AcDbEntity
  8
0
100
AcDbPolyline
 90
        9
 70
   128
 43
0.0
 10
4.635605586483707
 20
5.367813583998631
 10
4.603188896506064
 20
5.35619887040946
 10
4.575926849260296
 20
5.341644949480336
 10
4.55486608367889
 20
5.324711135290364
 10
4.540817788356331
 20
5.30604848239757
 10
4.53432220586402
 20
5.286374443298683
 10
4.535625763333931
 20
5.266444169903968
 10
4.544682900676745
 20
5.24702467828434
 10
4.561142173714924
 20
5.228861411193713
  0
LINE
  5
361
330
2
100
AcDbEntity
  8
0
100
AcDbLine
 10
4.635605586483707
 20
5.367813583998631
 30
0.0
 11
5.328007663495728
 21
5.567692846772294
 31
0.0
  0
LINE
  5
362
330
2
100
AcDbEntity
  8
0
100
AcDbLine
 10
8.023594036585905
 20
3.233246569581814
 30
0.0
 11
7.331191959573968
 21
3.033367306808188
 31
0.0
  0
LWPOLYLINE
  5
363
330
2
100
AcDbEntity
  8
0
100
AcDbPolyline
 90
        9
 70
   128
 43
0.0
 10
6.190001591854276
 20
4.377687965356957
 10
6.265167654017157
 20
4.390445698804557
 10
6.344377074029432
 20
4.387850134584633
 10
6.415568541134743
 20
4.370295737833704
 10
6.467906822206377
 20
4.340455871708292
 10
6.493421845886149
 20
4.302872798153585
 10
6.488231219405171
 20
4.2632687902511
 10
6.453122158501218
 20
4.227672323158138
 10
6.393442084907762
 20
4.201503330218409
  0
LINE
  5
364
330
2
100
AcDbEntity
  8
0
100
AcDbLine
 10
6.013817920708239
 20
4.326828120384893
 30
0.0
 11
6.190001591854276
 21
4.377687965356957
 31
0.0
  0
LWPOLYLINE
  5
365
330
2
100
AcDbEntity
  8
0
100
AcDbPolyline
 90
        9
 70
   128
 43
0.0
 10
6.21725841376175
 20
4.150643485236155
 10
6.142092351609087
 20
4.137885751798798
 10
6.062882931596741
 20
4.140481316018651
 10
5.991691464481259
 20
4.158035712769561
 10
5.939353183419783
 20
4.187875578894973
 10
5.913838159729949
 20
4.225458652449723
 10
5.919028786221073
 20
4.265062660352255
 10
5.954137847114796
 20
4.300659127434975
 10
6.013817920708239
 20
4.326828120384893
  0
LINE
  5
366
330
2
100
AcDbEntity
  8
0
100
AcDbLine
 10
6.393442084907762
 20
4.201503330218409
 30
0.0
 11
6.21725841376175
 21
4.150643485236155
 31
0.0
  0
LWPOLYLINE
  5
367
330
2
100
AcDbEntity
  8
0
100
AcDbPolyline
 90
        6
 70
   128
 43
0.0
 10
6.007958921391214
 20
7.690905576218025
 10
6.010075779086575
 20
7.69463689543664
 10
6.016294693670017
 20
7.699170004391049
 10
6.025906858367004
 20
7.702162811218655
 10
6.038541512203931
 20
7.703500136930169
 10
6.053712889129106
 20
7.703130249285901
  0
ARC
  5
368
330
2
100
AcDbEntity
  8
0
100
AcDbCircle
 10
8.767472298420198
 20
5.29629124427156
 30
0.0
 40
0.024048043874821
100
AcDbArc
 50
91.01537091239954
 51
163.0889158813007
  0
LINE
  5
369
330
2
100
AcDbEntity
  8
0
100
AcDbLine
 10
6.756827808252236
 20
6.413266369020742
 30
0.0
 11
6.715437765748614
 21
6.416382875179394
 31
0.0
  0
LINE
  5
36A
330
2
100
AcDbEntity
  8
0
100
AcDbLine
 10
6.715437765748614
 20
6.416382875179394
 30
0.0
 11
6.713148491307793
 21
6.418248868563321
 31
0.0
  0
ARC
  5
36B
330
2
100
AcDbEntity
  8
0
100
AcDbCircle
 10
8.439586622487349
 20
4.228997104241219
 30
0.0
 40
0.0961888599897901
100
AcDbArc
 50
271.0145916048997
 51
343.0899246265997
  0
LINE
  5
36C
330
2
100
AcDbEntity
  8
0
100
AcDbLine
 10
8.603926678994536
 20
4.420564073110592
 30
0.0
 11
8.531616511804584
 21
4.201018607897688
 31
0.0
  0
ARC
  5
36D
330
2
100
AcDbEntity
  8
0
100
AcDbCircle
 10
8.555162316877204
 20
4.444720072259253
 30
0.0
 40
0.0544194386919421
100
AcDbArc
 50
333.647945303399
 51
82.98683627680162
  0
LINE
  5
36E
330
2
100
AcDbEntity
  8
0
100
AcDbLine
 10
8.727517915613127
 20
5.001857368185088
 30
0.0
 11
8.835131238521096
 21
4.99375448734955
 31
0.0
  0
LINE
  5
36F
330
2
100
AcDbEntity
  8
0
100
AcDbLine
 10
8.874300230248254
 20
5.112675252385977
 30
0.0
 11
8.835131238521096
 21
4.99375448734955
 31
0.0
  0
ARC
  5
370
330
2
100
AcDbEntity
  8
0
100
AcDbCircle
 10
8.744769877965174
 20
4.036668738347299
 30
0.0
 40
0.0204070380721647
100
AcDbArc
 50
153.6475781335
 51
262.9889434904018
  0
LINE
  5
371
330
2
100
AcDbEntity
  8
0
100
AcDbLine
 10
8.899560088416956
 20
4.004571683407117
 30
0.0
 11
8.742278977038374
 21
4.016414291544533
 31
0.0
  0
ARC
  5
372
330
2
100
AcDbEntity
  8
0
100
AcDbCircle
 10
8.897432020733862
 20
4.124788010132755
 30
0.0
 40
0.120235160759385
100
AcDbArc
 50
271.0141431408977
 51
343.0903272024994
  0
LINE
  5
373
330
2
100
AcDbEntity
  8
0
100
AcDbLine
 10
9.132987011399334
 20
4.455725410508379
 30
0.0
 11
9.012468753413616
 21
4.089815963902213
 31
0.0
  0
ARC
  5
374
330
2
100
AcDbEntity
  8
0
100
AcDbCircle
 10
9.072029749894715
 20
4.485919298890602
 30
0.0
 40
0.0680254263180232
100
AcDbArc
 50
333.6494597713015
 51
82.98569660479783
  0
LINE
  5
375
330
2
100
AcDbEntity
  8
0
100
AcDbLine
 10
8.923054394992801
 20
4.5652778725241
 30
0.0
 11
9.080336819050662
 21
4.553435602311462
 31
0.0
  0
ARC
  5
376
330
2
100
AcDbEntity
  8
0
100
AcDbCircle
 10
8.923693006083155
 20
4.529213051738517
 30
0.0
 40
0.0360704743849492
100
AcDbArc
 50
91.01444831259879
 51
163.0903211841987
  0
LINE
  5
377
330
2
100
AcDbEntity
  8
0
100
AcDbLine
 10
8.726483525530202
 20
4.045727243604971
 30
0.0
 11
8.889182058033698
 21
4.539704647756796
 31
0.0
  0
LINE
  5
378
330
2
100
AcDbEntity
  8
0
100
AcDbLine
 10
9.248649280019066
 20
3.574378606292522
 30
0.0
 11
9.727527254268995
 21
5.028323002566076
 31
0.0
  0
ARC
  5
379
330
2
100
AcDbEntity
  8
0
100
AcDbCircle
 10
9.126627956198046
 20
3.614986815046071
 30
0.0
 40
0.1286010500896054
100
AcDbArc
 50
287.7671609107014
 51
341.5927637648003
  0
LINE
  5
37A
330
2
100
AcDbEntity
  8
0
100
AcDbLine
 10
9.165870507680979
 20
3.492519463335148
 30
0.0
 11
9.056911764237733
 21
3.461065783405306
 31
0.0
  0
SPLINE
  5
37B
330
2
100
AcDbEntity
  8
0
100
AcDbSpline
210
0.0
220
0.0
230
1.0
 70
     8
 71
     3
 72
    11
 73
     7
 74
     0
 42
0.000000001
 43
0.0000000001
 40
0.0
 40
0.0
 40
0.0
 40
0.0
 40
0.2500008980131977
 40
0.4999945491153201
 40
0.7499934820642217
 40
1.0
 40
1.0
 40
1.0
 40
1.0
 10
8.415326321982334
 20
4.14520268106214
 30
0.0
 10
8.416844706822914
 20
4.143836102505903
 30
0.0
 10
8.419881432489741
 20
4.141102985007188
 30
0.0
 10
8.426880341219472
 20
4.13732142808358
 30
0.0
 10
8.434513995820065
 20
4.134291381238311
 30
0.0
 10
8.439031203995476
 20
4.133312681978968
 30
0.0
 10
8.441289842345778
 20
4.132823324925944
 30
0.0
  0
ARC
  5
37C
330
2
100
AcDbEntity
  8
0
100
AcDbCircle
 10
8.921956375436883
 20
5.10505253502423
 30
0.0
 40
0.0482619311093795
100
AcDbArc
 50
97.99005346269856
 51
170.9123793011011
  0
LWPOLYLINE
  5
37D
330
2
100
AcDbEntity
  8
0
100
AcDbPolyline
 90
        9
 70
   128
 43
0.0
 10
9.743724452082419
 20
5.037809093171262
 10
9.741624441120572
 20
5.039176209771328
 10
9.739373598072168
 20
5.039787711898511
 10
9.737058468817734
 20
5.039620068822918
 10
9.734767507092399
 20
5.038679671729083
 10
9.732588800753855
 20
5.037002669580056
 10
9.730607892995669
 20
5.034653902631772
 10
9.728897537847451
 20
5.031722741810555
 10
9.727527254268995
 20
5.028323002566076
  0
LINE
  5
37E
330
2
100
AcDbEntity
  8
0
100
AcDbLine
 10
9.743724452082419
 20
5.037809093171262
 30
0.0
 11
9.784412479641483
 21
5.00257222768021
 31
0.0
  0
LINE
  5
37F
330
2
100
AcDbEntity
  8
0
100
AcDbLine
 10
9.758790054756486
 20
5.083548036473387
 30
0.0
 11
9.799478082315658
 21
5.048311170982377
 31
0.0
  0
LWPOLYLINE
  5
380
330
2
100
AcDbEntity
  8
0
100
AcDbPolyline
 90
        9
 70
   128
 43
0.0
 10
9.752493836502122
 20
4.964759126849605
 10
9.767665213427308
 20
4.964389239205331
 10
9.780299867264236
 20
4.965726564906662
 10
9.789912031961209
 20
4.968719371744445
 10
9.796130946544641
 20
4.973252480698824
 10
9.798717757168187
 20
4.979151707594504
 10
9.797574989586095
 20
4.986190973182584
 10
9.792745208735452
 20
4.994099190587818
 10
9.784412479641483
 20
5.00257222768021
  0
LINE
  5
381
330
2
100
AcDbEntity
  8
0
100
AcDbLine
 10
9.707702645908371
 20
4.968131825334291
 30
0.0
 11
9.752493836502122
 21
4.964759126849605
 31
0.0
  0
LWPOLYLINE
  5
382
330
2
100
AcDbEntity
  8
0
100
AcDbPolyline
 90
        5
 70
   128
 43
0.0
 10
9.799478082315658
 20
5.048311170982377
 10
9.807809498730167
 20
5.039837754951534
 10
9.812639279580894
 20
5.031929537546288
 10
9.813783359842267
 20
5.024890650896623
 10
9.813312094224581
 20
5.022722364271044
  0
ARC
  5
383
330
2
100
AcDbEntity
  8
0
100
AcDbCircle
 10
8.731871146113332
 20
5.053975122051273
 30
0.0
 40
0.0522992436311695
100
AcDbArc
 50
233.5382219833971
 51
265.2253486921031
  0
SPLINE
  5
384
330
2
100
AcDbEntity
  8
0
100
AcDbSpline
210
0.0
220
0.0
230
1.0
 70
     8
 71
     3
 72
    11
 73
     7
 74
     0
 42
0.000000001
 43
0.0000000001
 40
0.0
 40
0.0
 40
0.0
 40
0.0
 40
0.2499849550576336
 40
0.5000043246191953
 40
0.7500107420831889
 40
1.0
 40
1.0
 40
1.0
 40
1.0
 10
8.561806787649144
 20
4.498732351565483
 30
0.0
 10
8.5594207979459
 20
4.498834516749899
 30
0.0
 10
8.554648490069151
 20
4.499038861183371
 30
0.0
 10
8.546632292964435
 20
4.500906784930128
 30
0.0
 10
8.539249417861112
 20
4.503525664595988
 30
0.0
 10
8.53595910010863
 20
4.505484861309945
 30
0.0
 10
8.534313997693304
 20
4.506464426047732
 30
0.0
  0
LINE
  5
385
330
2
100
AcDbEntity
  8
0
100
AcDbLine
 10
3.387182677687383
 20
7.150392162833596
 30
0.0
 11
3.373593373522989
 21
7.151606815917123
 31
0.0
  0
LINE
  5
386
330
2
100
AcDbEntity
  8
0
100
AcDbLine
 10
5.568865729053204
 20
6.763072988289712
 30
0.0
 11
5.151423377848216
 21
7.124588669052231
 31
0.0
  0
ARC
  5
387
330
2
100
AcDbEntity
  8
0
100
AcDbCircle
 10
4.346644656648508
 20
4.338619916220181
 30
0.0
 40
0.0247957788358739
100
AcDbArc
 50
331.1040592006979
 51
32.48287448140557
  0
ELLIPSE
  5
388
330
2
100
AcDbEntity
  8
0
100
AcDbEllipse
 10
4.363635552047323
 20
4.274066117583944
 30
0.0
 11
0.0599998445051575
 21
0.0957288315055364
 31
0.0
210
0.0
220
0.0
230
1.0
 40
0.2945542466
 41
6.237537654344557
 42
6.941786914968744
  0
ELLIPSE
  5
389
330
2
100
AcDbEntity
  8
0
100
AcDbEllipse
 10
4.35420611908773
 20
4.266947057959179
 30
0.0
 11
0.102886495501503
 21
0.0220534453757646
 31
0.0
210
0.0
220
0.0
230
0.9999999999999998
 40
0.2601647544
 41
2.693902237372129
 42
3.335243632973141
  0
LINE
  5
38A
330
2
100
AcDbEntity
  8
0
100
AcDbLine
 10
6.115097222275055
 20
8.076722571825376
 30
0.0
 11
5.94531679325743
 21
7.561242936770767
 31
0.0
  0
LINE
  5
38B
330
2
100
AcDbEntity
  8
0
100
AcDbLine
 10
3.337671567014766
 20
8.286585637342332
 30
0.0
 11
4.15069542871238
 21
7.582486319227185
 31
0.0
  0
LINE
  5
38C
330
2
100
AcDbEntity
  8
0
100
AcDbLine
 10
8.281721677233242
 20
6.163121923829836
 30
0.0
 11
8.289263491268513
 21
6.156590521286785
 31
0.0
  0
LINE
  5
38D
330
2
100
AcDbEntity
  8
0
100
AcDbLine
 10
8.744464156212243
 20
5.303286514532706
 30
0.0
 11
6.757079392417407
 21
7.024412207075306
 31
0.0
  0
LINE
  5
38E
330
2
100
AcDbEntity
  8
0
100
AcDbLine
 10
25.01467728690226
 20
13.06432343550493
 30
0.0
 11
25.05404001343127
 21
13.0411716378521
 31
0.0
  0
LINE
  5
38F
330
2
100
AcDbEntity
  8
0
100
AcDbLine
 10
3.549066506249748
 20
8.432392715385446
 30
0.0
 11
3.586771328221891
 21
8.456839965361874
 31
0.0
  0
LINE
  5
390
330
2
100
AcDbEntity
  8
0
100
AcDbLine
 10
4.715555038394271
 20
8.344036250895966
 30
0.0
 11
4.723649749395604
 21
8.323938509313249
 31
0.0
  0
ARC
  5
391
330
2
100
AcDbEntity
  8
0
100
AcDbCircle
 10
6.023474178378561
 20
7.645166797000809
 30
0.0
 40
0.0305808596614274
100
AcDbArc
 50
180.0
 51
236.7986991297117
  0
LINE
  5
392
330
2
100
AcDbEntity
  8
0
100
AcDbLine
 10
27.79918231233692
 20
14.43305479086539
 30
0.0
 11
27.49085891882
 21
14.34404949374397
 31
0.0
  0
ARC
  5
393
330
2
100
AcDbEntity
  8
0
100
AcDbCircle
 10
9.743044821714564
 20
5.069245088207438
 30
0.0
 40
0.0212717345941458
100
AcDbArc
 50
42.25196494832522
 51
90.0
  0
ARC
  5
394
330
2
100
AcDbEntity
  8
0
100
AcDbCircle
 10
8.025503555678806
 20
6.582646809706385
 30
0.0
 40
0.0316079538743365
100
AcDbArc
 50
306.7378456754344
 51
0.0
  0
ARC
  5
395
330
2
100
AcDbEntity
  8
0
100
AcDbCircle
 10
7.798390207788412
 20
6.471011660051702
 30
0.0
 40
0.4778872285567168
100
AcDbArc
 50
37.87897658188891
 51
60.33423412112917
  0
LINE
  5
396
330
2
100
AcDbEntity
  8
0
100
AcDbLine
 10
7.454834474556556
 20
6.957258066114287
 30
0.0
 11
7.524256999387578
 21
6.989005438610444
 31
0.0
  0
SPLINE
  5
397
330
2
100
AcDbEntity
  8
0
100
AcDbSpline
210
0.0
220
0.0
230
1.0
 70
     8
 71
     3
 72
    10
 73
     6
 74
     0
 42
0.000000001
 43
0.0000000001
 40
0.0
 40
0.0
 40
0.0
 40
0.0
 40
0.223414656091903
 40
0.6496074072459033
 40
1.0
 40
1.0
 40
1.0
 40
1.0
 10
7.559030817595837
 20
7.043363796574912
 30
0.0
 10
7.564061945466445
 20
7.05416256765855
 30
0.0
 10
7.578690609443803
 20
7.085561410544706
 30
0.0
 10
7.617447389750608
 20
7.121717935261763
 30
0.0
 10
7.644534082083413
 20
7.137179453427562
 30
0.0
 10
7.656755502987188
 20
7.144155636380959
 30
0.0
  0
LINE
  5
398
330
2
100
AcDbEntity
  8
0
100
AcDbLine
 10
7.548510312450341
 20
7.023108366792592
 30
0.0
 11
7.559030817595273
 21
7.04336379657911
 31
0.0
  0
SPLINE
  5
399
330
2
100
AcDbEntity
  8
0
100
AcDbSpline
210
0.0
220
0.0
230
1.0
 70
     8
 71
     3
 72
     9
 73
     5
 74
     0
 42
0.000000001
 43
0.0000000001
 40
0.0
 40
0.0
 40
0.0
 40
0.0
 40
0.3637854744933605
 40
1.0
 40
1.0
 40
1.0
 40
1.0
 10
7.230781067801114
 20
7.259771159186732
 30
0.0
 10
7.229202223812684
 20
7.268291774159266
 30
0.0
 10
7.224862182499506
 20
7.291713860993361
 30
0.0
 10
7.219594039114615
 20
7.314455433248677
 30
0.0
 10
7.216242369770797
 20
7.3289239518504
 30
0.0
  0
SPLINE
  5
39A
330
2
100
AcDbEntity
  8
0
100
AcDbSpline
210
0.0
220
0.0
230
1.0
 70
     8
 71
     3
 72
     9
 73
     5
 74
     0
 42
0.000000001
 43
0.0000000001
 40
0.0
 40
0.0
 40
0.0
 40
0.0
 40
0.4931078804754943
 40
1.0
 40
1.0
 40
1.0
 40
1.0
 10
7.512232306691173
 20
7.238579319735501
 30
0.0
 10
7.504183702262314
 20
7.224532918997462
 30
0.0
 10
7.487861504326559
 20
7.196047467244887
 30
0.0
 10
7.478804303411756
 20
7.164143417022593
 30
0.0
 10
7.47421327964314
 20
7.147971505384034
 30
0.0
  0
SPLINE
  5
39B
330
2
100
AcDbEntity
  8
0
100
AcDbSpline
210
0.0
220
0.0
230
1.0
 70
     8
 71
     3
 72
     9
 73
     5
 74
     0
 42
0.000000001
 43
0.0000000001
 40
0.0
 40
0.0
 40
0.0
 40
0.0
 40
0.3964137364449641
 40
1.0
 40
1.0
 40
1.0
 40
1.0
 10
7.47421327964314
 20
7.147971505384034
 30
0.0
 10
7.467777350454231
 20
7.140456411267905
 30
0.0
 10
7.451541966568195
 20
7.121498707673888
 30
0.0
 10
7.433811058774811
 20
7.105210597105243
 30
0.0
 10
7.423108926390307
 20
7.095379317306746
 30
0.0
  0
LINE
  5
39C
330
2
100
AcDbEntity
  8
0
100
AcDbLine
 10
7.229456139596799
 20
7.109960231129123
 30
0.0
 11
7.239285965978983
 21
7.165660594337149
 31
0.0
  0
SPLINE
  5
39D
330
2
100
AcDbEntity
  8
0
100
AcDbSpline
210
0.0
220
0.0
230
1.0
 70
     8
 71
     3
 72
     9
 73
     5
 74
     0
 42
0.000000001
 43
0.0000000001
 40
0.0
 40
0.0
 40
0.0
 40
0.0
 40
0.3822979274184181
 40
1.0
 40
1.0
 40
1.0
 40
1.0
 10
7.2392859659839
 20
7.165660594341095
 30
0.0
 10
7.239883549041441
 20
7.178067703020395
 30
0.0
 10
7.241446683483597
 20
7.210521733736909
 30
0.0
 10
7.234853618009243
 20
7.24096579774879
 30
0.0
 10
7.230781067801114
 20
7.259771159186732
 30
0.0
  0
LINE
  5
39E
330
2
100
AcDbEntity
  8
0
100
AcDbLine
 10
7.216242369770797
 20
7.328923951851042
 30
0.0
 11
7.219509896005169
 21
7.360163151828532
 31
0.0
  0
ARC
  5
39F
330
2
100
AcDbEntity
  8
0
100
AcDbCircle
 10
7.335370094587181
 20
7.019325501645065
 30
0.0
 40
0.3599915129549079
100
AcDbArc
 50
62.6137987147038
 51
108.7743259455001
  0
LINE
  5
3A0
330
2
100
AcDbEntity
  8
0
100
AcDbLine
 10
7.42265962384326
 20
7.013212724219991
 30
0.0
 11
7.42033749688714
 21
7.011538923797007
 31
0.0
  0
LWPOLYLINE
  5
3A1
330
2
100
AcDbEntity
  8
0
100
AcDbPolyline
 90
        9
 70
   128
 43
0.0
 10
7.265324692681536
 20
7.023211030682792
 10
7.26584345298557
 20
7.033105830116656
 10
7.274383762668227
 20
7.04019891387053
 10
7.290248875730928
 20
7.043912738367218
 10
7.312150608466981
 20
7.043945774640111
 10
7.33830469591248
 20
7.040294730015132
 10
7.366584935974403
 20
7.033256739134251
 10
7.394691964041898
 20
7.023404547715776
 10
7.42033749688714
 20
7.011538923797007
  0
LINE
  5
3A2
330
2
100
AcDbEntity
  8
0
100
AcDbLine
 10
7.265324692681536
 20
7.023211030682792
 30
0.0
 11
7.264190539095095
 21
7.025144880276917
 31
0.0
  0
LINE
  5
3A3
330
2
100
AcDbEntity
  8
0
100
AcDbLine
 10
7.264190539095095
 20
7.025144880276917
 30
0.0
 11
7.229456139596799
 21
7.109960231129123
 31
0.0
  0
LINE
  5
3A4
330
2
100
AcDbEntity
  8
0
100
AcDbLine
 10
7.423108926392561
 20
7.095379317309805
 30
0.0
 11
7.42265962384326
 21
7.013212724219991
 31
0.0
  0
LINE
  5
3A5
330
2
100
AcDbEntity
  8
0
100
AcDbLine
 10
7.421471650473581
 20
7.011453652664355
 30
0.0
 11
7.464702727123098
 21
6.97401444205763
 31
0.0
  0
LINE
  5
3A6
330
2
100
AcDbEntity
  8
0
100
AcDbLine
 10
7.421471650473581
 20
7.011453652664355
 30
0.0
 11
7.42265962384326
 21
7.013212724219991
 31
0.0
  0
LINE
  5
3A7
330
2
100
AcDbEntity
  8
0
100
AcDbLine
 10
7.526314312159015
 20
7.326722521749607
 30
0.0
 11
7.500961134894676
 21
7.338971394418988
 31
0.0
  0
LINE
  5
3A8
330
2
100
AcDbEntity
  8
0
100
AcDbLine
 10
7.526314312159015
 20
7.326722521749607
 30
0.0
 11
7.512232306687371
 21
7.238579319738159
 31
0.0
  0
LWPOLYLINE
  5
3A9
330
2
100
AcDbEntity
  8
0
100
AcDbPolyline
 90
        9
 70
   128
 43
0.0
 10
7.463568573536657
 20
6.974099713190264
 10
7.463049813232624
 20
6.964204913756418
 10
7.454509503549894
 20
6.957111830002526
 10
7.438644390487265
 20
6.953398005505838
 10
7.416743970430589
 20
6.953365266123833
 10
7.390588570305726
 20
6.957016013857973
 10
7.362308330243791
 20
6.964054004738817
 10
7.334201302176308
 20
6.973906196157293
 10
7.308555769331054
 20
6.985771820076061
  0
LINE
  5
3AA
330
2
100
AcDbEntity
  8
0
100
AcDbLine
 10
7.307421615744541
 20
6.985857091208665
 30
0.0
 11
7.308555769331054
 21
6.985771820076061
 31
0.0
  0
LINE
  5
3AB
330
2
100
AcDbEntity
  8
0
100
AcDbLine
 10
7.264190539095095
 20
7.023296301815438
 30
0.0
 11
7.307421615744541
 21
6.985857091208665
 31
0.0
  0
LINE
  5
3AC
330
2
100
AcDbEntity
  8
0
100
AcDbLine
 10
7.264190539095095
 20
7.023296301815438
 30
0.0
 11
7.265324692681536
 21
7.023211030682792
 31
0.0
  0
LINE
  5
3AD
330
2
100
AcDbEntity
  8
0
100
AcDbLine
 10
7.42033749688714
 20
7.011538923797007
 30
0.0
 11
7.421471650473581
 21
7.011453652664355
 31
0.0
  0
LINE
  5
3AE
330
2
100
AcDbEntity
  8
0
100
AcDbLine
 10
7.463568573536657
 20
6.974099713190264
 30
0.0
 11
7.464702727123098
 21
6.97401444205763
 31
0.0
  0
LWPOLYLINE
  5
3AF
330
2
100
AcDbEntity
  8
0
100
AcDbPolyline
 90
        3
 70
   128
 43
0.0
 10
7.535808802048674
 20
6.997778361989309
 10
7.526157813502281
 20
6.989931113682855
 10
7.524256999387578
 20
6.989005438610444
  0
LINE
  5
3B0
330
2
100
AcDbEntity
  8
0
100
AcDbLine
 10
7.673174321894754
 20
7.155761438906854
 30
0.0
 11
7.659112072162221
 21
7.145540335005562
 31
0.0
  0
LINE
  5
3B1
330
2
100
AcDbEntity
  8
0
100
AcDbLine
 10
7.264190539095095
 20
7.025144880276917
 30
0.0
 11
7.264190539095095
 21
7.023296301815438
 31
0.0
  0
SPLINE
  5
3B2
330
2
100
AcDbEntity
  8
0
100
AcDbSpline
210
0.0
220
0.0
230
1.0
 70
     8
 71
     3
 72
     9
 73
     5
 74
     0
 42
0.000000001
 43
0.0000000001
 40
0.0
 40
0.0
 40
0.0
 40
0.0
 40
0.690265050481048
 40
1.0
 40
1.0
 40
1.0
 40
1.0
 10
7.687368035240589
 20
7.177538283283715
 30
0.0
 10
7.682715417366565
 20
7.183909103807979
 30
0.0
 10
7.675975082083919
 20
7.193138631682649
 30
0.0
 10
7.669114781537654
 20
7.202113922075579
 30
0.0
 10
7.666989906694282
 20
7.204893883192384
 30
0.0
  0
LINE
  5
3B3
330
2
100
AcDbEntity
  8
0
100
AcDbLine
 10
7.673174321894754
 20
7.155761438906854
 30
0.0
 11
7.687368035243983
 21
7.177538283283643
 31
0.0
  0
ARC
  5
3B4
330
2
100
AcDbEntity
  8
0
100
AcDbCircle
 10
7.516902358575952
 20
7.023108366792592
 30
0.0
 40
0.0316079538743365
100
AcDbArc
 50
306.7378456754344
 51
0.0
  0
ARC
  5
3B5
330
2
100
AcDbEntity
  8
0
100
AcDbCircle
 10
7.289789010685498
 20
6.911473217137909
 30
0.0
 40
0.4778872285567168
100
AcDbArc
 50
37.87897658188891
 51
60.33423412112917
  0
LINE
  5
3B6
330
2
100
AcDbEntity
  8
0
100
AcDbLine
 10
4.774867654734955
 20
8.39742564593976
 30
0.0
 11
5.289798621240579
 21
8.361330534902595
 31
0.0
  0
ARC
  5
3B7
330
2
100
AcDbEntity
  8
0
100
AcDbCircle
 10
28.2414030431061
 20
14.03338938733436
 30
0.0
 40
0.2556357451746254
100
AcDbArc
 50
19.83855131042948
 51
59.42290113757797
  0
ARC
  5
3B8
330
2
100
AcDbEntity
  8
0
100
AcDbCircle
 10
28.52949587829222
 20
12.45989820377889
 30
0.0
 40
0.4416573702584228
100
AcDbArc
 50
176.0476165128797
 51
207.9654992701228
  0
ENDSEC
  0
SECTION
  2
OBJECTS
  0
DICTIONARY
  5
A
330
0
100
AcDbDictionary
281
     1
  3
ACAD_COLOR
350
3E
  3
ACAD_GROUP
350
33
  3
ACAD_LAYOUT
350
18
  3
ACAD_MATERIAL
350
C
  3
ACAD_MLEADERSTYLE
350
41
  3
ACAD_MLINESTYLE
350
34
  3
ACAD_PLOTSETTINGS
350
35
  3
ACAD_PLOTSTYLENAME
350
9
  3
ACAD_SCALELIST
350
3F
  3
ACAD_TABLESTYLE
350
40
  3
ACAD_VISUALSTYLE
350
2D
  3
ACDB_RECOMPOSE_DATA
350
3C8
  3
AcDbVariableDictionary
350
3BA
  3
AcDsDecomposeData
350
3CE
  0
DICTIONARY
  5
20
330
1F
100
AcDbDictionary
280
     1
281
     1
  3
ACAD_LAYERSTATES
360
21
  0
DICTIONARY
  5
7
330
6
100
AcDbDictionary
280
     1
281
     1
  0
DICTIONARY
  5
3
330
2
100
AcDbDictionary
280
     1
281
     1
  3
ACAD_SORTENTS
360
3B9
  0
DICTIONARY
  5
3E
102
{ACAD_REACTORS
330
A
102
}
330
A
100
AcDbDictionary
281
     1
  0
DICTIONARY
  5
33
102
{ACAD_REACTORS
330
A
102
}
330
A
100
AcDbDictionary
281
     1
  0
DICTIONARY
  5
18
102
{ACAD_REACTORS
330
A
102
}
330
A
100
AcDbDictionary
281
     1
  3
Model
350
17
  3
レイアウト1
350
1E
  0
DICTIONARY
  5
C
102
{ACAD_REACTORS
330
A
102
}
330
A
100
AcDbDictionary
281
     1
  3
ByBlock
350
3A
  3
ByLayer
350
36
  3
Global
350
B
  0
DICTIONARY
  5
41
102
{ACAD_REACTORS
330
A
102
}
330
A
100
AcDbDictionary
281
     1
  0
DICTIONARY
  5
34
102
{ACAD_REACTORS
330
A
102
}
330
A
100
AcDbDictionary
281
     1
  3
Standard
350
42
  0
DICTIONARY
  5
35
102
{ACAD_REACTORS
330
A
102
}
330
A
100
AcDbDictionary
281
     1
  0
ACDBDICTIONARYWDFLT
  5
9
102
{ACAD_REACTORS
330
A
102
}
330
A
100
AcDbDictionary
281
     1
  3
Normal
350
8
100
AcDbDictionaryWithDefault
340
8
  0
DICTIONARY
  5
3F
102
{ACAD_REACTORS
330
A
102
}
330
A
100
AcDbDictionary
281
     1
  3
A0
350
47
  3
A1
350
48
  3
A2
350
49
  3
A3
350
4A
  3
A4
350
4B
  3
A5
350
4C
  3
A6
350
4D
  3
A7
350
4E
  3
A8
350
4F
  3
A9
350
50
  3
B0
350
51
  3
B1
350
52
  3
B2
350
53
  3
B3
350
54
  3
B4
350
55
  3
B5
350
56
  3
B6
350
57
  0
DICTIONARY
  5
40
102
{ACAD_REACTORS
330
A
102
}
330
A
100
AcDbDictionary
281
     1
  3
Standard
350
43
  0
DICTIONARY
  5
2D
102
{ACAD_REACTORS
330
A
102
}
330
A
100
AcDbDictionary
281
     1
  3
2dWireframe
350
2C
  3
Realistic
350
45
  3
Wireframe
350
46
  0
XRECORD
  5
3C8
102
{ACAD_REACTORS
330
A
102
}
330
A
100
AcDbXrecord
280
     1
 90
        1
330
43
  0
DICTIONARY
  5
3BA
102
{ACAD_REACTORS
330
A
102
}
330
A
100
AcDbDictionary
281
     1
  3
CANNOSCALE
350
3C0
  3
CMLEADERSTYLE
350
3BC
  3
CTABLESTYLE
350
3BB
  3
CVIEWDETAILSTYLE
350
3BD
  3
CVIEWSECTIONSTYLE
350
3BE
  3
LAYEREVAL
350
3C2
  3
LAYERNOTIFY
350
3C3
  3
LIGHTINGUNITS
350
3C1
  3
MSLTSCALE
350
3BF
  3
PSOLHEIGHT
350
3C5
  3
PSOLWIDTH
350
3C4
  3
XCLIPFRAME
350
3C6
  0
DICTIONARY
  5
3CE
102
{ACAD_REACTORS
330
A
102
}
330
A
100
AcDbDictionary
281
     1
  3
AcDsRecords
350
3D0
  3
AcDsSchemas
350
3CF
1001
ACAD
1070
     2
  0
DICTIONARY
  5
21
102
{ACAD_REACTORS
330
20
102
}
330
20
100
AcDbDictionary
281
     1
  0
SORTENTSTABLE
  5
3B9
102
{ACAD_REACTORS
330
3
102
}
330
3
100
AcDbSortentsTable
330
2
  0
LAYOUT
  5
17
102
{ACAD_XDICTIONARY
360
19
102
}
102
{ACAD_REACTORS
330
18
102
}
330
18
100
AcDbPlotSettings
  1

  2
none_device
  4
ISO_A4_(210.00_x_297.00_MM)
  6

 40
7.5
 41
20.0
 42
7.5
 43
20.0
 44
210.0
 45
297.0
 46
11.54999923706054
 47
-13.65000009536743
 48
0.0
 49
0.0
140
0.0
141
0.0
142
1.0
143
8.704084754739808
 70
 11952
 72
     1
 73
     0
 74
     0
  7

 75
     0
147
0.1148885871608098
 76
     0
 77
     2
 78
   300
148
0.0
149
0.0
100
AcDbLayout
  1
Model
 70
     1
 71
     0
 10
0.0
 20
0.0
 11
12.0
 21
9.0
 12
0.0
 22
0.0
 32
0.0
 14
0.0
 24
0.0
 34
0.0
 15
0.0
 25
0.0
 35
0.0
146
0.0
 13
0.0
 23
0.0
 33
0.0
 16
1.0
 26
0.0
 36
0.0
 17
0.0
 27
1.0
 37
0.0
 76
     0
330
2
331
2B
1001
ACAD_PSEXT
1000
None
1000
None
1000
Not applicable
1000
The layout will not be plotted unless a new plotter configuration name is selected.
1070
     0
  0
LAYOUT
  5
1E
102
{ACAD_REACTORS
330
18
102
}
330
18
100
AcDbPlotSettings
  1

  2
C:\Documents and Settings\basas\Application Data\Autodesk\AutoCAD 2005\R16.1\enu\plotters\Default Windows System Printer.pc3
  4

  6

 40
0.0
 41
0.0
 42
0.0
 43
0.0
 44
0.0
 45
0.0
 46
0.0
 47
0.0
 48
0.0
 49
0.0
140
0.0
141
0.0
142
1.0
143
1.0
 70
   688
 72
     0
 73
     0
 74
     5
  7

 75
    16
147
1.0
 76
     0
 77
     2
 78
   300
148
0.0
149
0.0
100
AcDbLayout
  1
レイアウト1
 70
     1
 71
     1
 10
0.0
 20
0.0
 11
12.0
 21
9.0
 12
0.0
 22
0.0
 32
0.0
 14
0.0
 24
0.0
 34
0.0
 15
0.0
 25
0.0
 35
0.0
146
0.0
 13
0.0
 23
0.0
 33
0.0
 16
1.0
 26
0.0
 36
0.0
 17
0.0
 27
1.0
 37
0.0
 76
     0
330
1B
  0
MATERIAL
  5
3A
102
{ACAD_XDICTIONARY
360
3B
102
}
102
{ACAD_REACTORS
330
C
102
}
330
C
100
AcDbMaterial
  1
ByBlock
  0
MATERIAL
  5
36
102
{ACAD_XDICTIONARY
360
37
102
}
102
{ACAD_REACTORS
330
C
102
}
330
C
100
AcDbMaterial
  1
ByLayer
  0
MATERIAL
  5
B
102
{ACAD_XDICTIONARY
360
D
102
}
102
{ACAD_REACTORS
330
C
102
}
330
C
100
AcDbMaterial
  1
Global
 43
0.0007999999797903
 43
0.0
 43
0.0
 43
0.0
 43
0.0
 43
0.0007999999797903
 43
0.0
 43
0.0
 43
0.0
 43
0.0
 43
1.0
 43
0.0
 43
0.0
 43
0.0
 43
0.0
 43
1.0
 49
0.0007999999797903
 49
0.0
 49
0.0
 49
0.0
 49
0.0
 49
0.0007999999797903
 49
0.0
 49
0.0
 49
0.0
 49
0.0
 49
1.0
 49
0.0
 49
0.0
 49
0.0
 49
0.0
 49
1.0
142
0.0007999999797903
142
0.0
142
0.0
142
0.0
142
0.0
142
0.0007999999797903
142
0.0
142
0.0
142
0.0
142
0.0
142
1.0
142
0.0
142
0.0
142
0.0
142
0.0
142
1.0
144
0.0007999999797903
144
0.0
144
0.0
144
0.0
144
0.0
144
0.0007999999797903
144
0.0
144
0.0
144
0.0
144
0.0
144
1.0
144
0.0
144
0.0
144
0.0
144
0.0
144
1.0
1001
ACAD
1070
    -1
1070
     3
1070
     0
1000

1071
        0
1070
     0
  0
MLINESTYLE
  5
42
102
{ACAD_REACTORS
330
34
102
}
330
34
100
AcDbMlineStyle
  2
STANDARD
 70
     0
  3

 62
   256
 51
90.0
 52
90.0
 71
     2
 49
0.5
 62
   256
  6
BYLAYER
 49
-0.5
 62
   256
  6
BYLAYER
  0
ACDBPLACEHOLDER
  5
8
102
{ACAD_REACTORS
330
9
102
}
330
9
  0
SCALE
  5
47
102
{ACAD_REACTORS
330
3F
102
}
330
3F
100
AcDbScale
 70
     0
300
1:1
140
1.0
141
1.0
290
     1
  0
SCALE
  5
48
102
{ACAD_REACTORS
330
3F
102
}
330
3F
100
AcDbScale
 70
     0
300
1:2
140
1.0
141
2.0
290
     0
  0
SCALE
  5
49
102
{ACAD_REACTORS
330
3F
102
}
330
3F
100
AcDbScale
 70
     0
300
1:4
140
1.0
141
4.0
290
     0
  0
SCALE
  5
4A
102
{ACAD_REACTORS
330
3F
102
}
330
3F
100
AcDbScale
 70
     0
300
1:5
140
1.0
141
5.0
290
     0
  0
SCALE
  5
4B
102
{ACAD_REACTORS
330
3F
102
}
330
3F
100
AcDbScale
 70
     0
300
1:8
140
1.0
141
8.0
290
     0
  0
SCALE
  5
4C
102
{ACAD_REACTORS
330
3F
102
}
330
3F
100
AcDbScale
 70
     0
300
1:10
140
1.0
141
10.0
290
     0
  0
SCALE
  5
4D
102
{ACAD_REACTORS
330
3F
102
}
330
3F
100
AcDbScale
 70
     0
300
1:16
140
1.0
141
16.0
290
     0
  0
SCALE
  5
4E
102
{ACAD_REACTORS
330
3F
102
}
330
3F
100
AcDbScale
 70
     0
300
1:20
140
1.0
141
20.0
290
     0
  0
SCALE
  5
4F
102
{ACAD_REACTORS
330
3F
102
}
330
3F
100
AcDbScale
 70
     0
300
1:30
140
1.0
141
30.0
290
     0
  0
SCALE
  5
50
102
{ACAD_REACTORS
330
3F
102
}
330
3F
100
AcDbScale
 70
     0
300
1:40
140
1.0
141
40.0
290
     0
  0
SCALE
  5
51
102
{ACAD_REACTORS
330
3F
102
}
330
3F
100
AcDbScale
 70
     0
300
1:50
140
1.0
141
50.0
290
     0
  0
SCALE
  5
52
102
{ACAD_REACTORS
330
3F
102
}
330
3F
100
AcDbScale
 70
     0
300
1:100
140
1.0
141
100.0
290
     0
  0
SCALE
  5
53
102
{ACAD_REACTORS
330
3F
102
}
330
3F
100
AcDbScale
 70
     0
300
2:1
140
2.0
141
1.0
290
     0
  0
SCALE
  5
54
102
{ACAD_REACTORS
330
3F
102
}
330
3F
100
AcDbScale
 70
     0
300
4:1
140
4.0
141
1.0
290
     0
  0
SCALE
  5
55
102
{ACAD_REACTORS
330
3F
102
}
330
3F
100
AcDbScale
 70
     0
300
8:1
140
8.0
141
1.0
290
     0
  0
SCALE
  5
56
102
{ACAD_REACTORS
330
3F
102
}
330
3F
100
AcDbScale
 70
     0
300
10:1
140
10.0
141
1.0
290
     0
  0
SCALE
  5
57
102
{ACAD_REACTORS
330
3F
102
}
330
3F
100
AcDbScale
 70
     0
300
100:1
140
100.0
141
1.0
290
     0
  0
TABLESTYLE
  5
43
102
{ACAD_XDICTIONARY
360
44
102
}
102
{ACAD_REACTORS
330
40
102
}
330
40
100
AcDbTableStyle
  3
Standard
 70
     0
 71
     0
 40
1.5
 41
1.5
280
     0
281
     0
  7
Standard
140
4.5
170
     2
 62
     0
 63
     7
283
     0
274
    -2
284
     1
 64
     0
275
    -2
285
     1
 65
     0
276
    -2
286
     1
 66
     0
277
    -2
287
     1
 67
     0
278
    -2
288
     1
 68
     0
279
    -2
289
     1
 69
     0
  7
Standard
140
6.0
170
     5
 62
     0
 63
     7
283
     0
274
    -2
284
     1
 64
     0
275
    -2
285
     1
 65
     0
276
    -2
286
     1
 66
     0
277
    -2
287
     1
 67
     0
278
    -2
288
     1
 68
     0
279
    -2
289
     1
 69
     0
  7
Standard
140
4.5
170
     5
 62
     0
 63
     7
283
     0
274
    -2
284
     1
 64
     0
275
    -2
285
     1
 65
     0
276
    -2
286
     1
 66
     0
277
    -2
287
     1
 67
     0
278
    -2
288
     1
 68
     0
279
    -2
289
     1
 69
     0
  0
VISUALSTYLE
  5
2C
102
{ACAD_XDICTIONARY
360
3D1
102
}
102
{ACAD_REACTORS
330
2D
102
}
330
2D
100
AcDbVisualStyle
  2

 70
     4
 71
     0
 72
     2
 73
     1
 90
        0
 40
-0.6
 41
-30.0
 62
     5
 63
     7
421
 16777215
 74
     1
 91
        4
 64
     7
 65
   257
 75
     1
175
     1
 42
1.0
 92
        0
 66
   257
 43
1.0
 76
     1
 77
     6
 78
     2
 67
     7
 79
     5
170
     0
171
     0
290
     0
174
     0
 93
        1
 44
0.0
173
     0
291
     0
 45
0.0
1001
ACAD
1000
AcDbSavedByObjectVersion
1070
     0
  0
VISUALSTYLE
  5
45
102
{ACAD_XDICTIONARY
360
3D4
102
}
102
{ACAD_REACTORS
330
2D
102
}
330
2D
100
AcDbVisualStyle
  2

 70
     8
 71
     2
 72
     3
 73
     0
 90
        2
 40
-0.6
 41
30.0
 62
     5
 63
     7
421
 16777215
 74
     0
 91
        0
 64
     7
 65
   257
 75
     1
175
     1
 42
1.0
 92
        8
 66
   257
 43
1.0
 76
     1
 77
     6
 78
     2
 67
     7
 79
     3
170
     0
171
     0
290
     0
174
     0
 93
       13
 44
0.0
173
     0
291
     0
 45
0.0
1001
ACAD
1000
AcDbSavedByObjectVersion
1070
     0
  0
VISUALSTYLE
  5
46
102
{ACAD_XDICTIONARY
360
3D6
102
}
102
{ACAD_REACTORS
330
2D
102
}
330
2D
100
AcDbVisualStyle
  2

 70
     5
 71
     0
 72
     2
 73
     0
 90
        0
 40
-0.6
 41
-30.0
 62
     5
 63
     7
421
 16777215
 74
     1
 91
        4
 64
     7
 65
   257
 75
     1
175
     1
 42
1.0
 92
        0
 66
   257
 43
1.0
 76
     1
 77
     6
 78
     2
 67
     7
 79
     3
170
     0
171
     0
290
     0
174
     0
 93
        1
 44
0.0
173
     0
291
     0
 45
0.0
1001
ACAD
1000
AcDbSavedByObjectVersion
1070
     0
  0
DICTIONARYVAR
  5
3C0
102
{ACAD_REACTORS
330
3BA
102
}
330
3BA
100
DictionaryVariables
280
     0
  1
1:1
  0
DICTIONARYVAR
  5
3BC
102
{ACAD_REACTORS
330
3BA
102
}
330
3BA
100
DictionaryVariables
280
     0
  1
STANDARD
  0
DICTIONARYVAR
  5
3BB
102
{ACAD_REACTORS
330
3BA
102
}
330
3BA
100
DictionaryVariables
280
     0
  1
STANDARD
  0
DICTIONARYVAR
  5
3BD
102
{ACAD_REACTORS
330
3BA
102
}
330
3BA
100
DictionaryVariables
280
     0
  1

  0
DICTIONARYVAR
  5
3BE
102
{ACAD_REACTORS
330
3BA
102
}
330
3BA
100
DictionaryVariables
280
     0
  1

  0
DICTIONARYVAR
  5
3C2
102
{ACAD_REACTORS
330
3BA
102
}
330
3BA
100
DictionaryVariables
280
     0
  1
0
  0
DICTIONARYVAR
  5
3C3
102
{ACAD_REACTORS
330
3BA
102
}
330
3BA
100
DictionaryVariables
280
     0
  1
0
  0
DICTIONARYVAR
  5
3C1
102
{ACAD_REACTORS
330
3BA
102
}
330
3BA
100
DictionaryVariables
280
     0
  1
2
  0
DICTIONARYVAR
  5
3BF
102
{ACAD_REACTORS
330
3BA
102
}
330
3BA
100
DictionaryVariables
280
     0
  1
1
  0
DICTIONARYVAR
  5
3C5
102
{ACAD_REACTORS
330
3BA
102
}
330
3BA
100
DictionaryVariables
280
     0
  1
80.000000
  0
DICTIONARYVAR
  5
3C4
102
{ACAD_REACTORS
330
3BA
102
}
330
3BA
100
DictionaryVariables
280
     0
  1
5.000000
  0
DICTIONARYVAR
  5
3C6
102
{ACAD_REACTORS
330
3BA
102
}
330
3BA
100
DictionaryVariables
280
     0
  1
2
  0
DICTIONARY
  5
3D0
102
{ACAD_REACTORS
330
3CE
102
}
330
3CE
100
AcDbDictionary
281
     1
  0
DICTIONARY
  5
3CF
102
{ACAD_REACTORS
330
3CE
102
}
330
3CE
100
AcDbDictionary
281
     1
  3
1734883068048
350
3C9
  3
1734883068064
350
3CA
  3
1734883068080
350
3CB
  3
1734883068096
350
3CC
  3
1734883068112
350
3CD
  0
DICTIONARY
  5
19
330
17
100
AcDbDictionary
280
     1
281
     1
  0
DICTIONARY
  5
3B
330
3A
100
AcDbDictionary
280
     1
281
     1
  3
ACAD_XREC_ROUNDTRIP
360
3C
  3
FBXASSET
360
3D
  0
DICTIONARY
  5
37
330
36
100
AcDbDictionary
280
     1
281
     1
  3
ACAD_XREC_ROUNDTRIP
360
38
  3
FBXASSET
360
39
  0
DICTIONARY
  5
D
330
B
100
AcDbDictionary
280
     1
281
     1
  3
ACAD_XREC_ROUNDTRIP
360
E
  3
BUMPTILE
360
F
  3
DIFFUSETILE
360
10
  3
FBXASSET
360
11
  3
OPACITYTILE
360
12
  3
REFLECTIONTILE
360
13
  0
DICTIONARY
  5
44
330
43
100
AcDbDictionary
280
     1
281
     1
  3
ACAD_ROUNDTRIP_2008_TABLESTYLE_CELLSTYLEMAP
360
3C7
  3
ACAD_XREC_ROUNDTRIP
360
3D3
  0
DICTIONARY
  5
3D1
330
2C
100
AcDbDictionary
280
     1
281
     1
  3
ACAD_XREC_ROUNDTRIP
360
3D2
  0
DICTIONARY
  5
3D4
330
45
100
AcDbDictionary
280
     1
281
     1
  3
ACAD_XREC_ROUNDTRIP
360
3D5
  0
DICTIONARY
  5
3D6
330
46
100
AcDbDictionary
280
     1
281
     1
  3
ACAD_XREC_ROUNDTRIP
360
3D7
  0
XRECORD
  5
3C9
102
{ACAD_REACTORS
330
3CF
102
}
330
3CF
100
AcDbXrecord
280
     1
  1
AcDb_Thumbnail_Schema
102
{ATTRRECORD
341
3CA
  2
AcDbDs::TreatedAsObjectData
280
     1
291
     1
102
ATTRRECORD}
102
{ATTRRECORD
341
3CB
  2
AcDbDs::Legacy
280
     1
291
     1
102
ATTRRECORD}
  2
AcDbDs::ID
280
    10
 91
        8
102
{ATTRRECORD
341
3CC
  2
AcDs:Indexable
280
     1
291
     1
102
ATTRRECORD}
102
{ATTRRECORD
341
3CD
  2
AcDbDs::HandleAttribute
280
     7
282
     1
102
ATTRRECORD}
  2
Thumbnail_Data
280
    15
 91
        0
  0
XRECORD
  5
3CA
102
{ACAD_REACTORS
330
3CF
102
}
330
3CF
100
AcDbXrecord
280
     1
  1
AcDbDs::TreatedAsObjectDataSchema
  2
AcDbDs::TreatedAsObjectData
280
     1
 91
        0
  0
XRECORD
  5
3CB
102
{ACAD_REACTORS
330
3CF
102
}
330
3CF
100
AcDbXrecord
280
     1
  1
AcDbDs::LegacySchema
  2
AcDbDs::Legacy
280
     1
 91
        0
  0
XRECORD
  5
3CC
102
{ACAD_REACTORS
330
3CF
102
}
330
3CF
100
AcDbXrecord
280
     1
  1
AcDbDs::IndexedPropertySchema
  2
AcDs:Indexable
280
     1
 91
        0
  0
XRECORD
  5
3CD
102
{ACAD_REACTORS
330
3CF
102
}
330
3CF
100
AcDbXrecord
280
     1
  1
AcDbDs::HandleAttributeSchema
  2
AcDbDs::HandleAttribute
280
     7
 91
        1
284
     1
  0
XRECORD
  5
3C
102
{ACAD_REACTORS
330
3B
102
}
330
3B
100
AcDbXrecord
280
     1
102
MATERIAL
148
0.0
149
0.0
149
0.0
 93
        0
 94
      127
282
     0
 72
     1
 77
     1
171
     1
175
     1
179
     1
273
     0
  0
XRECORD
  5
3D
102
{ACAD_REACTORS
330
3B
102
}
330
3B
100
AcDbXrecord
280
     1
 70
     1
 90
429727718
  1
D62C5603-E3A1-4AEA-B7FB-FE5D8D0755AF
310
504B03040A0000080000CC70623B3DEE336E79000000790000001B0000006175746F6465736B2D64657369676E2D7061636B6167652E786D6C3C3F786D6C2076657273696F6E3D22312E302220656E636F64696E673D227574662D3822203F3E3C666F726D6174733E3C666F726D61743E687474703A2F2F736368656D612E
310
6175746F6465736B2E636F6D2F64657369676E2D7061636B6167652F323030393C2F666F726D61743E3C2F666F726D6174733E504B0304140006080800CC70623BD486FD9CA0000000F4000000130000005B436F6E74656E745F54797065735D2E786D6C7D8EC10E82300C865F65E91D8A1E8C310C0EEA1BF002731658846E
310
D98AC1B77784ABF1D8FE5FBFBF75BBCE937A534CCEB38643598122B6FEE978D0B0485F9C41B54DDD7D022595594E1A469170414C76A4D9A4D207E29CF43ECE46F218070CC6BECC4078ACAA135ACF422C856C0E68EA1BF5669944DDD7BCDE7B1F8E415D77AECB980613C2E4AC91FC167A2B244592486606FC29C8FD7F045B9A
310
EF7053A7E60B504B0304140006080800CC70623B853B8169EB0000007C01000008000000636F72652E786D6C8D90416EC3201045AF62CDB6C206821CC7C244919D9CA01740401C94182C03558F5F9C3852BBEB6A467FFE9B197D7EFC9E1EC5975982F5AE035262288C535E5B377690E21535501C055FBC8FBF6C503839990E
310
5619041F179FE64D52DE45E362569DD7661365082642A11EB9E920A89B99642953CC8E702F67A9EE7234257977194EC9EAE275C4EABCCF5EAD5940D4AC6F0E35A568B8F43562CD7046CD199FD07E60174276A7BE677B5EADB0E0D14EEFFB6A31321A0D82627C4084204C3F096B71DD52F6819B16635EADF63F509AF53FA164
310
5DDCD1EDDD17164090FCC8732078B56691CB33A85CD7DCC40F504B0304140006080800CC70623B55019EA25F0000007C00000007000000636E782E786D6C4DCB3B0E80201045D1AD90E915ED2CF8AC45050C11660C8261F98AB1B07AC9C97D42D718D865D3E909258CFD00CCE24AC6E326A164D74DC0B4128928FF32603847
310
2BA13128B1252AC747C6BAB984FC68F0B87FE8960A5C09FE86CFB69FBA01504B0304140006080800CC70623BDBABAAF470010000D40300000C0000006662782F636F72652E786D6CC553D16E823014FD95A6AF4B694182CC941A83FA05FB810A9511A125A5257EFE2E82712ECEB8A7F100CD39F7F69E734AF9FADC366850B6
310
AF8DCE7018308C942E4C59EB2AC3DE1D498AD15A706B8CFB56869196ADCAF00863C12B6B7C374385D14E6907A836A59A41D9F7CA615434B0C8705F7CAA5606D23BA8E84F41278B93AC54100640439DE0BDB320004D43C63716C7C399D30917DCFBBA9CD9BA8469F5B156168B24CED3F7248AC8769F27244EB73B92EED8862C
310
B7F13E0C179B3C8F979C8ECD82BBBABDAA2BAC924E9558448CBD9330242CFA08E3154B5651FCC6D215639C8EE5774DBE2B5F6CF2B5768B68963BB5F5588420E442FC700B1139D4CB01F450C1E918227C2E09DF070D8140C84E1E9AAB8F1340832A9CB13130A5F1376A908D57309505ECF2A0DF179C4E9D30F5B239B87E3823
310
7A79C6F31DE1A8A5AEC08474B03C7837EAE4938639B44E5932B833D2C6B6B279CDC613877FA26EE21F4A2A4C63EC7F29A2F301D1F9F7A0E37D145F504B0304140006080800CC70623B9C113CC27E0000009D0000000B0000006662782F636E782E786D6C4DCCDF0A83201C86E15B91DFB94BFB330DD428C8FB886521330DA7
310
6397BF1A1DECE883878F57749FCDA1B7892F1BBC047A23808C7F84D9FA55424E0BE6803A256208E9EF06C84F9B91703228B1C690F78B66B34CD9A5439DF5CF0BFBF65E35BCA1B8D6A5C6F540381E886698B5741C695F9503EBA150A2F8958E3DC3EA0B504B0304140006080800CC70623B7DF2F77C2A010000120200003100
310
00006662782F41393633353835312D344632462D344230382D423046372D3739314545314133324237412F636F72652E786D6C8D51DB8EC22014FC15C2939B0D2DB4B45643319AE817EC0F6041255A68B86CFCFC856D4D76DF7CE190393373060EDB3DC707F856CE6B6B7A480A0C81328395DA5C7B18C3057510EC3873D686
310
3F34088C18550F330C39BB3A1BA7051AAC09CA84841A2BD5020AEF55806078A44B0FFD7053A328440C89E1EFC52486BBB8AA8214A99D789CF9E05200300FC927E4FB4D5B375D43103D5527440FB843077C5AA3F5861C8F645F5787F59E95B390B318B55CE45AA638FAA2957BD7248B390B7A7CC51F9C124149C82B8C378810
310
84AB2F42B7B8DD56F413775B8C5999E9FF4471926F8AA236A1AE96B8B3CC434E5839373893369E1FAF30EA395917409EB7F26AF8801C171837A4A6AC9C89E9F9C9B1A58BA30FD6A5EF5DDDCF894B9AD9B6A59C957943A9FCAE2FD5BC4DFE03504B0304140006080800CC70623BAD7543B64E01000033030000300000006662
310
782F41393633353835312D344632462D344230382D423046372D3739314545314133324237412F636E782E786D6CD593CD6EC32010845F0571AD6CE3D48AD20813A9873E410FBD12D82434182C7EAAE6EDBB2424CD25871E7B41D6EC30B3FA84F9E67BB2E40B4234DE8DB46F1925E094D7C6ED479AD3AE5951B2113C789FEE
310
6C943839C1488B4C05DF079FE72A69D8C96C13AAD6B8631503449F83828872B949AC57D26200B826A308D316B4064D6E46FCDA41C05550DC9E483A00797BFD207EFB092A45DE9514C1BBD22178396BD39D891265658C238DEA00936C654E5E433CB65A26D9F6EDB5EBC14EBF49A45CB856E66048291F6939A9A81BB5C89177
310
38143CA680F4AA299D66A042CEB3354A2684DC9D8D178FE0D9B8B41CAAD720F880EE7EF93C0C18769E099ECC04D5A102C8049A8A05632F4DDF376CF1DE0F6BB65C2F8627B65A33C6BB62177CEBBDAD973006829F89F22E814B54F4BC2BE347F8AA8F681390B50FA73F804400B5F542E796F19FF974E7F78DB802FE05E20750
310
4B0304140006080800CC70623BE75B7789680500003C100000340000006662782F41393633353835312D344632462D344230382D423046372D3739314545314133324237412F6F626A656374732E786D6CAD575B8F9B3818FD2B887D06C22499CB8AA1CA655245D5B455A356FB305264C061D8018C6C3393D95FBFC7600890
310
A4CD5EF210B0B1BFEBF98E3F7B1FF6596ABC522E1296DF9BAE3D320D9A872C4AF2F8DE2CE5CEBA358D0FBEC719939D65A691938CDE9B6ADAF4BD98B3B2D05311DD91329583D9D5FC0F438434A7A611A644887B5384CF34233629258BA878B12322891DEFF6B66BD70BFB62634E8AE781D082709A4B588AF91C528CDA28B73F
310
1C998EEF39EABBEFA97FBD6A7C7E9553F9D3D79FE442923C3C523610337627CB87ABE99D359D4CC6D6E4FACAB5E6ABF9D2726FC6A3C5F56271377BB88362213924694B38DD99FE47C48627A1E7D49F5A8BB5E1A74C0A599ED3B0F21F1E56366B89112D681E218F0915D0D6F17AD41FBA2A369DCF6335D62ABBD39779D5DDD1
310
11D4D8DE3CBB96B2E04FB8202E41051754A1AA8E8F76B4C6DFE810B580B1547F4B84911149794252234D024EF8BBE963A95AE27B3D310A9D5C215C7960FAEE415ED75694C6AFB17BCACA5D99A60A9AA65F217B0BFC53292ACB92BF283FAD0D3621576592CB5BED907C2FA8E9DF794E35E97BEA31BED21FEB401ABB94C44839
310
DCACBF0E1C5DA8DA5B2F4DFFD32AD86F543D9E565E7056502E157C00AD2671CD534549AB752FCA9CDA00677A313F04E51B22FF19E57B300579E3C97EB29F682D92935CEC18CF901B7B54FD8C51F362B56FC72FE0B3C1EAE335EDCCBF5AEC39ADB17DC238973F804BA5E6F6BFE7AF1FB32E523BE9F3BD571418E3631DCA4D48
310
5250CF639223210A9446CA30052EDF057BD35F8329C1ECD84552BF0DC8D18BE7BCE23BFE6BD960AB4A7DE79923A103BEBD80F911CBAA2C60DB19B01CF164A5583B772EE6D3FFA56666CBCDA74DC97724A48F9A58967497E489C4D979006FD7A05E227A1EBDD0F737C623387A9C844D3709995625106D157315F8B8392CD4E0
310
A0B9A720C4BE9829CEF37EA1E13111214D53925356365ADA634861B52519DD27A00AEB808EAF0628E6F435519D446F45CF2C9CF5214F0A15B2F6D06B79DA3EE3CBF7F56780D2F4E7EF73A0F5E5B02A38D07DC852C6B7C1FBB6664213E0C39E3EBA7FF4E1AD23EA2829407C85E586727488B751B2DB9502BC7B228A3FD68B6E
310
A65A22397E690AA8D158D7E404EC8CDA235CC3B7D1898680131CEC2CDF2638C65196279577750F15884AEE19F94199155B92B13297978469D4F8D358DF0AEF7631E28DC8F0D9F437D5D39A83B2231A1D52D543813A824EF8D44BCFF2FA6A31BD1E8DAD87F1CCB526B3879935BF59CDADD5C37479BB1CDD4CA7B3556B516589
310
EF352754B706114D9C885EC9131DE6EFEB43D99AFE2391C2F958179413D7CFEF6B1B6DB1E7600F00DE6E5C67454A339A4BA2E0FBA85ED26F045D454F463DBFCE484C2F90F2E5E3666003662ED8F755951A7D1BECD5B30B550B2785C8E7320B7292A4838DDA71BBC863ED7613CAF659337A3354231D4FF4A182A54904C2898C
310
98B28C4AD0CE056CCF332A80986E571EE9DBC305BB5FEB7E509220A58D25CF042D712A806AC0AD0C657FDEF80D2D9CEAA2EE4D1C76F60BFE74219A06527D6F82DF6412526107381E55E353090704D085B52408A8913C4ED159D79BDA71BB4BC506F4831350EB6F975CD22D69BF7AC49B91A2C0A9DDA3D5CA36AD20FC478E37
310
E61844E2352865EBCB61A275A65283CAAA9DD27703B4102F5AF51EF5F573B75CBB5AD38BC845F7A49F82A0966A49C2E3EA5EA0ECD326CD965F1DB402C6FA8B51A4658C5C5E2EC9E214602E55810345408596591009A82E7E7FFACA19EEA299B14A0081A705CB3296EBC14CDF658DCD336EA6D1136881AAEB87B81AB9EE53D5
310
F5EB8BC8362082DA24122F98680A4E7930C01A0079749CEA14382A0783E5EBA5A10F8C098456A03D6A4AEB6BB881E2513747552A5DB22C7EDAF83BD5528081A365F7FF06504B0304140006080000CC70623B000000000000000000000000350000006662782F41393633353835312D344632462D344230382D423046372D37
310
39314545314133324237412F76657274696365732E62696E504B0304140006080800CC70623BF270F1330600000004000000360000006662782F41393633353835312D344632462D344230382D423046372D3739314545314133324237412F747269616E676C65732E62696E636660600000504B0304140006080000CC7062
310
3B000000000000000000000000370000006662782F41393633353835312D344632462D344230382D423046372D3739314545314133324237412F617474726962757465732E62696E504B0304140006080800CC70623B08DA0BD19000000041010000360000006662782F41393633353835312D344632462D344230382D4230
310
46372D3739314545314133324237412F6469726563746F72792E786D6C858F410AC3201045AF22B36F53E9A60B35CBEEBAE80D244E44489C6234F4F835464A48035D0DF398FF9F8AF63D0E6CC63039F212F8F9020C7D47C6792B21C5FE7403D62A1188E2E60C98D7234A5830286103A55745067B9D86B8A3CF9C7F90C11DE6
310
07FB144396D7B6A82D282E9A152AD114D5EF2CB866EEE831B8EEA07A7BB5A8D7D61A2BAAEB7FD5F70921FF497D00504B0304140006080800CC70623BEDD1DC58FD000000A00100003B0000006662782F41393633353835312D344632462D344230382D423046372D3739314545314133324237412F7265736F75726365732F
310
636F72652E786D6C8D504B6E833010BD0A9A6D65B00922041947112427E8052C33A156828DFCA97AFC9A40A576D7CDCCE87D344F8F9FBFE667F689CE6B6B3A6039850C8DB2A336530731DC4903D95970676DF82583CCC8193B5861107C72362E3BA4AC096842428D1D7107A5F7182053CF7474E0D507CE32973124857FE48B
310
540F3961CEF244279DE03EB81420DB9EAC1384436FA353E879B1B182C7A8C75DA3C7F453DF353A1075D537A7BA6464B8F535A99AE14A9A2BBD90E350DD183B5CFABE3AF262350B1EF4FC9351399401471025A527C218A1E53BAB5A5AB765F5469B96525EACF23FA6B88CFF34456DC2A1DCE36E360F82A5202F42F062ED2BAD
310
579969AFDD8A6F504B010214000A0000080000CC70623B3DEE336E79000000790000001B00000000000000000000000000000000006175746F6465736B2D64657369676E2D7061636B6167652E786D6C504B01021400140006080800CC70623BD486FD9CA0000000F40000001300000000000000000000000000B20000005B
310
436F6E74656E745F54797065735D2E786D6C504B01021400140006080800CC70623B853B8169EB0000007C010000080000000000000000000000000083010000636F72652E786D6C504B01021400140006080800CC70623B55019EA25F0000007C000000070000000000000000000000000094020000636E782E786D6C504B
310
01021400140006080800CC70623BDBABAAF470010000D40300000C00000000000000000000000000180300006662782F636F72652E786D6C504B01021400140006080800CC70623B9C113CC27E0000009D0000000B00000000000000000000000000B20400006662782F636E782E786D6C504B01021400140006080800CC70
310
623B7DF2F77C2A010000120200003100000000000000000000000000590500006662782F41393633353835312D344632462D344230382D423046372D3739314545314133324237412F636F72652E786D6C504B01021400140006080800CC70623BAD7543B64E010000330300003000000000000000000000000000D2060000
310
6662782F41393633353835312D344632462D344230382D423046372D3739314545314133324237412F636E782E786D6C504B01021400140006080800CC70623BE75B7789680500003C10000034000000000000000000000000006E0800006662782F41393633353835312D344632462D344230382D423046372D3739314545
310
314133324237412F6F626A656374732E786D6C504B01021400140006080000CC70623B0000000000000000000000003500000000000000000000000000280E00006662782F41393633353835312D344632462D344230382D423046372D3739314545314133324237412F76657274696365732E62696E504B01021400140006
310
080800CC70623BF270F133060000000400000036000000000000000000000000007B0E00006662782F41393633353835312D344632462D344230382D423046372D3739314545314133324237412F747269616E676C65732E62696E504B01021400140006080000CC70623B0000000000000000000000003700000000000000
310
000000000000D50E00006662782F41393633353835312D344632462D344230382D423046372D3739314545314133324237412F617474726962757465732E62696E504B01021400140006080800CC70623B08DA0BD1900000004101000036000000000000000000000000002A0F00006662782F41393633353835312D344632
310
462D344230382D423046372D3739314545314133324237412F6469726563746F72792E786D6C504B01021400140006080800CC70623BEDD1DC58FD000000A00100003B000000000000000000000000000E1000006662782F41393633353835312D344632462D344230382D423046372D3739314545314133324237412F7265
310
736F75726365732F636F72652E786D6C504B0506000000000E000E0080040000641100000000
  0
XRECORD
  5
38
102
{ACAD_REACTORS
330
37
102
}
330
37
100
AcDbXrecord
280
     1
102
MATERIAL
148
0.0
149
0.0
149
0.0
 93
        0
 94
      127
282
     0
 72
     1
 77
     1
171
     1
175
     1
179
     1
273
     0
  0
XRECORD
  5
39
102
{ACAD_REACTORS
330
37
102
}
330
37
100
AcDbXrecord
280
     1
 70
     1
 90
429727718
  1
30362254-06B7-45E0-A893-8CFA70E3D6BC
310
504B03040A0000080000CC70623B3DEE336E79000000790000001B0000006175746F6465736B2D64657369676E2D7061636B6167652E786D6C3C3F786D6C2076657273696F6E3D22312E302220656E636F64696E673D227574662D3822203F3E3C666F726D6174733E3C666F726D61743E687474703A2F2F736368656D612E
310
6175746F6465736B2E636F6D2F64657369676E2D7061636B6167652F323030393C2F666F726D61743E3C2F666F726D6174733E504B0304140006080800CC70623BD486FD9CA0000000F4000000130000005B436F6E74656E745F54797065735D2E786D6C7D8EC10E82300C865F65E91D8A1E8C310C0EEA1BF002731658846E
310
D98AC1B77784ABF1D8FE5FBFBF75BBCE937A534CCEB38643598122B6FEE978D0B0485F9C41B54DDD7D022595594E1A469170414C76A4D9A4D207E29CF43ECE46F218070CC6BECC4078ACAA135ACF422C856C0E68EA1BF5669944DDD7BCDE7B1F8E415D77AECB980613C2E4AC91FC167A2B244592486606FC29C8FD7F045B9A
310
EF7053A7E60B504B0304140006080800CC70623B1EC5D7A3EB0000007C01000008000000636F72652E786D6C8D90416EC3201045AF82665B6103C6756C6122AB4D4ED00B204C5C94182C03558F5F9C3852BBEB6A467FFE9B197D71FC9E6FE8CBACC17AD7032D0820E3B41FAD9B7A48F1820F808E52ACDEC75F36404ECDA687
310
4D0629A6D5A76597B477D1B89855E747B38B2A041301E95B6E7A08FAD3CCAA50296647B8168BD2573599823EBB0CA76447F43862C7BCCF5EAC59410E4DDD9C7973C2755553CCCFA4C603E3040F1565ED3B1FDE4E432BCA0D9622DAF9795FAF464533826484B498524CD807E51D79ED187F21878E10516EF63F505AC67F42C9
310
BA58B1FDDD071640D2FCC87D2045B96591CB3DA85CB7DCE40F504B0304140006080800CC70623B55019EA25F0000007C00000007000000636E782E786D6C4DCB3B0E80201045D1AD90E915ED2CF8AC45050C11660C8261F98AB1B07AC9C97D42D718D865D3E909258CFD00CCE24AC6E326A164D74DC0B4128928FF32603847
310
2BA13128B1252AC747C6BAB984FC68F0B87FE8960A5C09FE86CFB69FBA01504B0304140006080800CC70623B8C9102E971010000D40300000C0000006662782F636F72652E786D6CC5535B6E833010BC8AE5DF0A6C08340F1947A84D4ED00B38C6A128602363A31CBFCB234A53A551FA553EC09AD9F5CE8C31DB9E9B1AF5CA
310
7695D1198E428A91D2D214952E33ECDD315861B4E5CC1AE3BE9561A445A3323CC098B3D21ADFCE9034DA29ED00D5A6503328BA4E398C640D8B0C77F253352214DE4145770A5B214FA2546114020D759C75CE8200340D19DE981F0F6746269C33EFAB6266AB02A655C74A59CCF365BADC27CB5D902ED22848F6340DF238A141
310
BE88E2F57B92BFEDF23523433367AE6A2EEAA455C2A902F398D2751045018D3FA264435F3771F242571B4A1919CA6F9A7C5B3CD9E42BED16F12C776AEB308F40C848FC700B1139D4891EF410CEC810227CC6846F8386402064270EF5C5C709A05E49676C024C61FC95EA45ED154CA5211D1FF4FB8291A913A68E9B83EBBB33
310
E2A7673CDE118E5AE8124C0807CB8377834E366998436B950D7A7746DAD846D4CFD978E0F04FD455FC5D49D2D4C6FE9722321F10997F0F32DC47FE05504B0304140006080800CC70623BFFEA85907E0000009D0000000B0000006662782F636E782E786D6C4DCCD10A83201886E15B91FFDC95D95A811AB6F23E625948A6C3
310
E9D8E5AF46073BFAE0E1E365ED67B3E8ADC3CB78C7815C7240DA3DFC64DCC221C519D7805AC182F7F1EF06C88D9BE6703008B6049F9E274D7A1E938DBB5AE3D6131B2589BA0D3D965551E0B2EA732C9B9A624AAEB41E3A557677029960D9AFB4EF11165F504B0304140006080800CC70623B4FEEA4082C0100001202000031
310
0000006662782F39464131463745442D413632322D343644302D413938332D3331353338454246344243312F636F72652E786D6C8D515B6EC32010BC0AE2AB55850DD871ED0813254D72825EC00192A2C460F1A872FC42ED48ED5F7E00CDCECCCEB26C731F6FE05B39AFADE921293004CA082BB5B9F43086336A21D870E6AC
310
0D7F68109861543DCC30E4ECE26C9C164858139409093556AA051CBC570102714B8F1E7AF1A5C6A11862480C7F2DA6415C878B2A4891CA89C7990F2E050073937C42DE1DB7E4F87ED8A36D4329AA9B3D46DBAEAD504556557BD81DEBDD0761E52CE42C462D17B996298E3E6BE59E35C962CE821E1FF18553435012728A7187
310
0841987E927A8D9B35ADDF70BBC6989599FE4F1427F9A4286A132ABAC49D651EF234CD5CE04CDA78BA3DC2A8FB645D00B9DF8B57E215725C60BCA2A463E54C4CE327C7A65E1C7DB02E7DEFCBF594B864C5CA6CDBD49C957943E9FA5D5FBAF336F90F504B0304140006080800CC70623BAD7543B64E01000033030000300000
310
006662782F39464131463745442D413632322D343644302D413938332D3331353338454246344243312F636E782E786D6CD593CD6EC32010845F0571AD6CE3D48AD20813A9873E410FBD12D82434182C7EAAE6EDBB2424CD25871E7B41D6EC30B3FA84F9E67BB2E40B4234DE8DB46F1925E094D7C6ED479AD3AE5951B2113C
310
789FEE6C943839C1488B4C05DF079FE72A69D8C96C13AAD6B8631503449F83828872B949AC57D26200B826A308D316B4064D6E46FCDA41C05550DC9E483A00797BFD207EFB092A45DE9514C1BBD22178396BD39D891265658C238DEA00936C654E5E433CB65A26D9F6EDB5EBC14EBF49A45CB856E66048291F6939A9A81BB5
310
C8917738143CA680F4AA299D66A042CEB3354A2684DC9D8D178FE0D9B8B41CAAD720F880EE7EF93C0C18769E099ECC04D5A102C8049A8A05632F4DDF376CF1DE0F6BB65C2F8627B65A33C6BB62177CEBBDAD973006829F89F22E814B54F4BC2BE347F8AA8F681390B50FA73F804400B5F542E796F19FF974E7F78DB802FE05
310
E207504B0304140006080800CC70623B16AB87BA640500003C100000340000006662782F39464131463745442D413632322D343644302D413938332D3331353338454246344243312F6F626A656374732E786D6CAD575B6FA33818FD2B887DE6924B3BED8A326A92B68A663B534DD4D13E548A0C38942D60649B369D5FBFC7
310
600890A493BDE42160637FD7F31D7FF63E6FB3D478A55C242CBF3247B66B1A340F5994E4F19559CA8D75611A9F7D8F33263BCB4C232719BD32D5B4E97B316765A1A722BA21652A07B3B7B33F0D11D29C9A46981221AE4C113ED38CD8A4942CA2E2C58E882476BCD9DA23BB5ED8171B73523C0F841684D35CC252CCE79062D4
310
468DFA43D7747CCF51DF7D4FFDEB5593E3AB9CCA9FBEFE241792E4E19EB28198C968BAB8199F5D5A67D3E9C49A9E8F47D6EC76B6B0469F26EEFC7C3EBFBCBEB98462213924694B38DD98FE1D62C393D073EA4FADC5DAF04326852CCF6958F90F0F2B9BB5C48816348F90C7840A68EB78EDF68723159BCEE7891A6B95DDE9D3
310
BCEAEEE8086A6C6F9E5D4B59F0175C10A7A0820BAA5055C7473B5AE3CFDD452D602CD5DF12616444529E90D448938013FE6EFA58AA96F85E4F8C42275708571E98FE6827AF6B2B4AE3D7D83D64E5A64C53054DD3AF90BD06FEA9149565C94FCA0F6B834DC85599E4F2423B24DF0B6AFA979E534DFA9E7A4CC6FA631D486393
310
921829879BF5D781A373557BCB85E97FB90DB62B558F8795179C15944B051F40AB495CF35451D26A4727654E6D8033BD98EF82F21D91FF8AF2DD9982BCF1643BDD4EB516C9492E368C67C88DED563FC36D5EACF66DFF057C3658BDBFA69DF9578B3DA735B64F18C7F20770A9D45CFCF7FCF563D6456A277DBEF78A02637CA2
310
43B90A490AEAB94F72244481D24819A6C0E59B606BFA4B3025981DBB48EAB701D97BF19C577CC77F2D1B6C55A9EF3C732474C0B727303F625995056C3B02963D9EAC146BE78EC5FCEC7FA999EBC5EACBAAE41B12D27B4D2C0BBA49F244E2ECDC81B76B502F113D8F5EE8FB1BE3111CDD4FC2AA9B844CAB1288B68AB90A7CDC
310
1C166AB0D3DC5310625FCC14E779BFD0709F8890A629C9292B1B2DED31A4B0DA928CEE135085754027E3018A397D4D5427D15BD1330B677DC8934285AC3DF45A9EB68FF8F2B8FC0A509AFEECFD0FF2DE25CC6047F7214B195F07EFEB9A094D800F7BFAE8FED187B78EA8A3A400F115961BCAD1215E47C966530AF0EE8128FE
310
58CEBB996A8964FFA529A046635D9353B0336A8F700DDF46271A024E70B0B37C9DE01847591E54DED53D54202AB947E4076556AC49C6CA5C9E1226B7F1A7B1BE15DEED62C41B91E1B3E9AFAAA735036547343A925075041DF0A9979E893B391F8FCFA6967B3EFB644DCF6E5CEBFAE272625DCC6FAF3FB93793C5F90CE1EF57
310
407342756B10D1C489E8953CD1617E5CEECAD6F4EF8914CE5D5D504E5C3F1F9736DA62CFC11E00BCDDB8CC8A9466349744C1F75EBDA4DF09BA8A9E8C7A7E9991989E20E5DBDD6A6003664ED8F7A04A8DBE0DF6EAD9B9AA858342E47399053949D2C146EDB85DE4B176BB0965FBAC19BD19AA918E27FA50C1D22402E144464C
310
59462568E704B6E71915404CB72B8FF4EDE184DDAF753F284990D2C6926782963815403548A70C657FDEF80D2D9CEAA2AE4C1C76F60BFE74219A06527D6582DF6412526107381E55E353090704D085B52408D0933C4ED159D79BDA71BB4BC506F4831350EB6F979CD22D69BF7AC49B91A2C0A9DDA3D5CA36AD20FC478E37E6
310
1844E2352865EBCB6EA275A652E3836BE04EFB400BF1A2556F515F1FBB35B2AB35BD889C744FFA1004B5544B121E57F70215746DD2F5E2C1412B602CBF19455AC6C8E5E9922C4E01E65215385004546899059180EAFCF7A707CE7017CD8CDB0410789AB32C63B91E5CEBBBACB17AC6CD347A022D5075FD106377347AAABA7E
310
7D11590744509B44E205134DC1290F06580320F78E537D3D73540E06CB970B431F185308AD40BBD794D6D77003C5A36E8EAA54BA64597CD8F83BD552A080A365F7FF06504B0304140006080000CC70623B000000000000000000000000350000006662782F39464131463745442D413632322D343644302D413938332D3331
310
353338454246344243312F76657274696365732E62696E504B0304140006080800CC70623BF270F1330600000004000000360000006662782F39464131463745442D413632322D343644302D413938332D3331353338454246344243312F747269616E676C65732E62696E636660600000504B0304140006080000CC70623B
310
000000000000000000000000370000006662782F39464131463745442D413632322D343644302D413938332D3331353338454246344243312F617474726962757465732E62696E504B0304140006080800CC70623B08DA0BD19000000041010000360000006662782F39464131463745442D413632322D343644302D413938
310
332D3331353338454246344243312F6469726563746F72792E786D6C858F410AC3201045AF22B36F53E9A60B35CBEEBAE80D244E44489C6234F4F835464A48035D0DF398FF9F8AF63D0E6CC63039F212F8F9020C7D47C6792B21C5FE7403D62A1188E2E60C98D7234A5830286103A55745067B9D86B8A3CF9C7F90C11DE607
310
FB144396D7B6A82D282E9A152AD114D5EF2CB866EEE831B8EEA07A7BB5A8D7D61A2BAAEB7FD5F70921FF497D00504B0304140006080800CC70623B0D6EF93BFE000000A00100003B0000006662782F39464131463745442D413632322D343644302D413938332D3331353338454246344243312F7265736F75726365732F63
310
6F72652E786D6C8D50596E833010BD0A9ADFCA60B334011947A8694ED00B586642AC041B79A97AFC9A40A5F6AF3F33A3B7689E1E3F7DCD8FEC139DD7D6F4C0720A191A65476DA61E62B892236427C19DB5E1970C322367EC618541F0C9D9B8EC90B226A009093576C41D94DE63804C3DD2D18357379C652E63480A7FCF17A9
310
EE72C29CE5894E3AC17D702940B63D59270887DE46A7D0F36263058F518FBB468FE9A7BE6A7420864373B8D4873369AA8691FA421B3294352543C5CAF65C0F6FEF43CB8BD52C78D0F34F46E550061C419494B6843142CB0F5677F4B52BEB177AEC28E5C52AFF638ACBF84F53D42654E51E77B379102C05791282176B5F693D
310
CB4C7BED567C03504B010214000A0000080000CC70623B3DEE336E79000000790000001B00000000000000000000000000000000006175746F6465736B2D64657369676E2D7061636B6167652E786D6C504B01021400140006080800CC70623BD486FD9CA0000000F40000001300000000000000000000000000B20000005B
310
436F6E74656E745F54797065735D2E786D6C504B01021400140006080800CC70623B1EC5D7A3EB0000007C010000080000000000000000000000000083010000636F72652E786D6C504B01021400140006080800CC70623B55019EA25F0000007C000000070000000000000000000000000094020000636E782E786D6C504B
310
01021400140006080800CC70623B8C9102E971010000D40300000C00000000000000000000000000180300006662782F636F72652E786D6C504B01021400140006080800CC70623BFFEA85907E0000009D0000000B00000000000000000000000000B30400006662782F636E782E786D6C504B01021400140006080800CC70
310
623B4FEEA4082C0100001202000031000000000000000000000000005A0500006662782F39464131463745442D413632322D343644302D413938332D3331353338454246344243312F636F72652E786D6C504B01021400140006080800CC70623BAD7543B64E010000330300003000000000000000000000000000D5060000
310
6662782F39464131463745442D413632322D343644302D413938332D3331353338454246344243312F636E782E786D6C504B01021400140006080800CC70623B16AB87BA640500003C1000003400000000000000000000000000710800006662782F39464131463745442D413632322D343644302D413938332D3331353338
310
454246344243312F6F626A656374732E786D6C504B01021400140006080000CC70623B0000000000000000000000003500000000000000000000000000270E00006662782F39464131463745442D413632322D343644302D413938332D3331353338454246344243312F76657274696365732E62696E504B01021400140006
310
080800CC70623BF270F133060000000400000036000000000000000000000000007A0E00006662782F39464131463745442D413632322D343644302D413938332D3331353338454246344243312F747269616E676C65732E62696E504B01021400140006080000CC70623B0000000000000000000000003700000000000000
310
000000000000D40E00006662782F39464131463745442D413632322D343644302D413938332D3331353338454246344243312F617474726962757465732E62696E504B01021400140006080800CC70623B08DA0BD190000000410100003600000000000000000000000000290F00006662782F39464131463745442D413632
310
322D343644302D413938332D3331353338454246344243312F6469726563746F72792E786D6C504B01021400140006080800CC70623B0D6EF93BFE000000A00100003B000000000000000000000000000D1000006662782F39464131463745442D413632322D343644302D413938332D3331353338454246344243312F7265
310
736F75726365732F636F72652E786D6C504B0506000000000E000E0080040000641100000000
  0
XRECORD
  5
E
102
{ACAD_REACTORS
330
D
102
}
330
D
100
AcDbXrecord
280
     1
102
MATERIAL
148
0.0
149
0.0
149
0.0
 93
        0
 94
      127
282
     0
 72
     1
 77
     1
171
     1
175
     1
179
     1
273
     0
  0
XRECORD
  5
F
102
{ACAD_REACTORS
330
D
102
}
330
D
100
AcDbXrecord
280
     1
270
     1
271
     1
  0
XRECORD
  5
10
102
{ACAD_REACTORS
330
D
102
}
330
D
100
AcDbXrecord
280
     1
270
     1
271
     1
  0
XRECORD
  5
11
102
{ACAD_REACTORS
330
D
102
}
330
D
100
AcDbXrecord
280
     1
 70
     0
 90
1673772943
  1
ECE7A1D2-D628-4531-984C-D00F80459256
310
504B03040A0000080000CC70623B3DEE336E79000000790000001B0000006175746F6465736B2D64657369676E2D7061636B6167652E786D6C3C3F786D6C2076657273696F6E3D22312E302220656E636F64696E673D227574662D3822203F3E3C666F726D6174733E3C666F726D61743E687474703A2F2F736368656D612E
310
6175746F6465736B2E636F6D2F64657369676E2D7061636B6167652F323030393C2F666F726D61743E3C2F666F726D6174733E504B0304140006080800CC70623BD486FD9CA0000000F4000000130000005B436F6E74656E745F54797065735D2E786D6C7D8EC10E82300C865F65E91D8A1E8C310C0EEA1BF002731658846E
310
D98AC1B77784ABF1D8FE5FBFBF75BBCE937A534CCEB38643598122B6FEE978D0B0485F9C41B54DDD7D022595594E1A469170414C76A4D9A4D207E29CF43ECE46F218070CC6BECC4078ACAA135ACF422C856C0E68EA1BF5669944DDD7BCDE7B1F8E415D77AECB980613C2E4AC91FC167A2B244592486606FC29C8FD7F045B9A
310
EF7053A7E60B504B0304140006080800CC70623BD9DDAED0EC0000007C01000008000000636F72652E786D6C8D90416EC3201045AF82665B61836D9CD8C2444DD39CA01740405C94182C03558F5F9C3852BBEB6A467FFE9B197D7EF89E6EE8CB2CC17A37002D0820E394D7D68D03A478C17B4007C117EFE32F1B20272733C0
310
2A83E0E3E2D3BC49CABB685CCCAAF3DA6CA20CC14440EA969B0182FA34932C648AD911AEC52CD5558EA6A0CF2EC329598D1E47ACCEFBECC59A050463A7EA5833865FEBDD0E37353BE3EE8DBDE3F6786A48D375FBF6CC78B9C282473B3DEFABC5C86834888A900E538A49F5419B9EB47DD5BC907D4F082F57FB1F28CDFA9F50
310
B22ED6D5F6EE030B20687EE43E10BC5CB3C8E51E54AE6B6EE207504B0304140006080800CC70623B55019EA25F0000007C00000007000000636E782E786D6C4DCB3B0E80201045D1AD90E915ED2CF8AC45050C11660C8261F98AB1B07AC9C97D42D718D865D3E909258CFD00CCE24AC6E326A164D74DC0B4128928FF326038
310
472BA13128B1252AC747C6BAB984FC68F0B87FE8960A5C09FE86CFB69FBA01504B0304140006080800CC70623BA24EB22D72010000D40300000C0000006662782F636F72652E786D6CC5535B6E833010BC8AE5DF0A6C5E49888CA3A6694ED00B38E05014B091B1518EDFE511A5A9D228FD2A1F60CDEC7A67C6986DCE4D8D7A
310
69BA4AAB0C073EC548AA5C17952A33ECECD15B61B4E1CC686DBF9561A44423333CC098B3D268D7CE50AE9595CA02AA74216750749DB418E5352C32DCE59FB211BE70162ABA93DF8AFC244AE9073ED050C759670D0840D390E18DF9F1706664C23973AE2A66B62A605A75ACA4C13C4976E1364A12EF355A2EBD384AF65EFA96
310
BC7B8BED2EA6719AAE16FB8491A199335B351775B991C2CA02F390D2D40B028F861F41BCA68B7518BFD0D59A524686F29B26D7164F36B94AD9289CE54E6D1DE6010819891F6E21228B3AD1831EC219194284CF98F06DD01008846CC5A1BEF83801D4CBDC6A1303536877A57A513B0953A94FC707FDBE6064EA84A9E3E6E0FA
310
EE8CF0E9198F7784A316AA0413C2C2F2E0ECA0934D1AE6D05A69BCDE9E91D2A611F573361E38FC1375157F5752AE6B6DFE4B11990F88CCBF0719EE23FF02504B0304140006080800CC70623B408A7D3B7C0000009D0000000B0000006662782F636E782E786D6C4DCCD10A83201886E15B91FFDC552A92A0064DBC8F581632
310
D3703A76F9ABD1C18E3E78F878E5F0D9027ABBFCF2292AE86E2D20171F69F6715550CB827B40839639A5F2770314A7CD293819B45C73AAFB45B35BA61ACAA1C1C7E7855C58C15BC331339661262CC762340413D68D77DA5B42298546CBE6573AF60CEB2F504B0304140006080800CC70623B449FB9BD290100001202000031
310
0000006662782F36394639363044362D344446342D343946362D394244322D3234314243333846323333332F636F72652E786D6C8D515B6EC32010BC0AE22B55850D98B871848994463E412FE002495162B07854397EA176A4F62F3F2C9A9D991D587EB84F37F0AD7D30CEF6905418026DA553C65E7A98E219ED203808EE9D
310
8B7F6810D871D23D2C3014FCE25D9A57483A1BB58D19B54EE9151C43D0110279CB971E06F9A5A7B11A53CC8C70ADE6515EC78BAE4895DB992778883E0700CB907242D17643D7E2538BD869608875438BBAE38922CAC8F1BDD90DB4691A5E2F42C153326A951B95E398B3D1FE599322163C9AE9115F7A3D46ADA0A018778810
310
84E907617BDCEE297BC5BB3DC6BC2EF47FA234AB2745C9D8D8D035EE220B50105E2F0DC1954B9FB747187D9F9D8FA0CCDB042D5FA0C015C65B42DF78BD10F3F3B363CB56C7109DCFDFBBB97E662ED92EB62D13BC2E1BCAE5777DB9966D8A1F504B0304140006080800CC70623BAD7543B64E01000033030000300000006662
310
782F36394639363044362D344446342D343946362D394244322D3234314243333846323333332F636E782E786D6CD593CD6EC32010845F0571AD6CE3D48AD20813A9873E410FBD12D82434182C7EAAE6EDBB2424CD25871E7B41D6EC30B3FA84F9E67BB2E40B4234DE8DB46F1925E094D7C6ED479AD3AE5951B2113C789FEE
310
6C943839C1488B4C05DF079FE72A69D8C96C13AAD6B8631503449F83828872B949AC57D26200B826A308D316B4064D6E46FCDA41C05550DC9E483A00797BFD207EFB092A45DE9514C1BBD22178396BD39D891265658C238DEA00936C654E5E433CB65A26D9F6EDB5EBC14EBF49A45CB856E66048291F6939A9A81BB5C89177
310
38143CA680F4AA299D66A042CEB3354A2684DC9D8D178FE0D9B8B41CAAD720F880EE7EF93C0C18769E099ECC04D5A102C8049A8A05632F4DDF376CF1DE0F6BB65C2F8627B65A33C6BB62177CEBBDAD973006829F89F22E814B54F4BC2BE347F8AA8F681390B50FA73F804400B5F542E796F19FF974E7F78DB802FE05E20750
310
4B0304140006080800CC70623B8D05915C650500003B100000340000006662782F36394639363044362D344446342D343946362D394244322D3234314243333846323333332F6F626A656374732E786D6CAD575B6FA33814FE2B887D06429276DA1565D4266D158D3A339A6846FB502932E050B66023DB74D2FDF5FB190C01
310
9276B2973C046C8ECFF53B17071F77456EBD502133CEAE6CDF9DD81665314F32965ED995DA3A17B6F5310C04E7AA47665B8C14F4CAD6DB7618A48257A5D94AE89654B91AEDDEDDFC61C998326A5B714EA4BCB265FC440BE2924AF184CA6737218AB8E976E7FA6E4338649B0A523E8D98964450A6A029F619B8588D52FE7039
310
B1BD30F0F4F730D0FF866AF6369557DB33949F31A9088B0F848DD8CCFCF9F2767A76E99CCDE733677E3EF59D9BBB9BA5E37F984D16E78BC5E5F5ED25044B25C0C96822E8D60EEFE11B91C581D77CEA34368A1F5329E68CD1B8B61F16D63A1B8E092D294B10C78C4A48EB593D192E7DED9BDEE7995E1B91FDEDD3ACEA9FE831
310
6A756F9F7D4D79F4274C90A7A04248AA51D5F8C718DAE06FB2F75AC4796EBE65D22A88A22223B995679120E2D50E41AA49C260C046A35368846B0BECD0DFF3EBEB8AD4F835768F69B9ADF25C43D30E6B646F807FAA64AD59F61715C7A54127C4AACA98BA3006A9D792DAE165E0D59B61A01FB3A9F9D838D2DAE62445C86166
310
F37564E842E7DE6A69879FEEA2DD5AE7E371E1A5E025154AC307D06A03D73EB5978C58FFA4C8E9033066E0F3BD53BEC1F39F91BE7B55103791EDE6BBB991A2046172CB4581D8B893FA674DDA17A77B3B7C413D1B511FD2743BFF8A38F03A658705E3ADF8015C3A3417FF3D7E439FF591DA0B5F18BC20C1B8981957AE6392A3
310
F43C640C01D1A0B4728E2DD4F26DB4B3C3152A252A3B4E913CEC1C72F012782FF88EFF8637AA552DBEF76408E8A8DE9E50F9E1CB3A2DA0DB1B6039A893B56063DC5B3E3FFB5F72E67AB9FEB4AEC496C4F4C1149625DD662C53E89D7BF0F6151A046260D1337DFDC94502430F83B0EE07A130A224BCAD7DAE1D9FB6CD422FF6
310
920702629C4BB9AE79C12F243C6432A6794E18E5552BA56B431AAB5D91317302B2B071E86C3A42B1A02F999E24061403B5D0EB639195DA655DD3EBEAB4FB862DDF579F014AD0E73C22F99E28DA57FB98E75C6CA2D74D53086D600F4786E0FE3144B771A8A7B900F03594DB8A633CBC49B2EDB69228BB479CF863B5E807AAAB
310
23872F6DFEB4129B949CA33823F58830E86D65621E10047D9DB34D862E8EAC3C2ABC2F7B2C40D67CDFE01F5545B92105AF983AC54D93D69E56FB8E797F88913F898A9FEC705D3F9D1B54EC8426FB500D40A03BD0119B06E1B95DDC7EB8F6975367793EBD70E66733DFB9BC982F9CE564727731999F5D4ECFCE3B8D6A4DC2A0
310
6D50FD148437D110834A64C6CDDF57FBACB5C307A2A477DFE4939736CFEF2B175371E0E10CF0DD1D5C15654E0BCA14D1E87DD02FF93782A162C0A3D95F1524A52770F972BF1EE9809D13CE7DD599467F8ECE9ADD85CE85A34CD45355448C64F9E8A031DC2D596ACC6E5DD93D9B82DE2EF5CAF81363A8E47996A0DE24564A79
310
4115AACE09C55E14540231FDA13C319787134EBF34E3A022514E5B4D9E0826E25C02D5805B15ABE1BEF51B26383D445DD9E875EE33FE4C22DA16427D65A3BCA92CA6D28DD01DF5DC53330704308475351050232CCD31583787BA75774AFB06E5070DD0C8EF484E19968C5D83BA5B90B244D31E54D55A372320FE4786B7EA58
310
44E135AA5467CB7EA333A61683CC6A8C3257034C10CF46F40EF9F5BE59BE5BD30C3C72D235E95D10345C1D45445A5F0BB47E46A5EBE5570F9380B5FA629579952296A773720405982B9DE04011506178964401AA8BDF1FBF0A8EAB6861DD6580C0E38217056766716DAEB2D6FA0917D3E4116581EADB879C4E7CFFB11EFACD
310
3D641311495D92C8676CB409A72D18610D803CE8A626049E8EC1887CB5B44CC39883690DDA8399B4B9855B481E7D71D4A9D22F96E5BB73BF5793020C02137BF837504B0304140006080000CC70623B000000000000000000000000350000006662782F36394639363044362D344446342D343946362D394244322D32343142
310
43333846323333332F76657274696365732E62696E504B0304140006080800CC70623BF270F1330600000004000000360000006662782F36394639363044362D344446342D343946362D394244322D3234314243333846323333332F747269616E676C65732E62696E636660600000504B0304140006080000CC70623B0000
310
00000000000000000000370000006662782F36394639363044362D344446342D343946362D394244322D3234314243333846323333332F617474726962757465732E62696E504B0304140006080800CC70623B08DA0BD19000000041010000360000006662782F36394639363044362D344446342D343946362D394244322D
310
3234314243333846323333332F6469726563746F72792E786D6C858F410AC3201045AF22B36F53E9A60B35CBEEBAE80D244E44489C6234F4F835464A48035D0DF398FF9F8AF63D0E6CC63039F212F8F9020C7D47C6792B21C5FE7403D62A1188E2E60C98D7234A5830286103A55745067B9D86B8A3CF9C7F90C11DE607FB14
310
4396D7B6A82D282E9A152AD114D5EF2CB866EEE831B8EEA07A7BB5A8D7D61A2BAAEB7FD5F70921FF497D00504B0304140006080800CC70623BCA768048FE000000A00100003B0000006662782F36394639363044362D344446342D343946362D394244322D3234314243333846323333332F7265736F75726365732F636F72
310
652E786D6C8D50596E833010BD0A9ADFCA60D600328E9AA639412F609909B1126CE4A5EAF16B0295DABFFECC8CDEA2797AECF8353F924FB44E193D409E5248504B332A3D0D10FC95B4901C39B3C6F85F3248B49871801506CE266BC2B243D2688FDA47549B11775038871E12F988C7004EDE7016A9083E2ADC3D5D84BC8B09
310
D33C8D74D471E6BC8D0192EDC93A815B742658898E651BCB59086ADC356A8C3FD555A1055ED7E7E254D615792D0F075295F585746FF53B694EE78A565DD736979A65AB9933AFE69F8CD2A2F038022F28ED489E135A7CE4554F9BBEA85E68DB53CAB255FEC71496F19FA6A0B42F8B3DEE6673C0F318E4497096AD7DC5F52C33
310
EEB55BFE0D504B010214000A0000080000CC70623B3DEE336E79000000790000001B00000000000000000000000000000000006175746F6465736B2D64657369676E2D7061636B6167652E786D6C504B01021400140006080800CC70623BD486FD9CA0000000F40000001300000000000000000000000000B20000005B436F
310
6E74656E745F54797065735D2E786D6C504B01021400140006080800CC70623BD9DDAED0EC0000007C010000080000000000000000000000000083010000636F72652E786D6C504B01021400140006080800CC70623B55019EA25F0000007C000000070000000000000000000000000095020000636E782E786D6C504B0102
310
1400140006080800CC70623BA24EB22D72010000D40300000C00000000000000000000000000190300006662782F636F72652E786D6C504B01021400140006080800CC70623B408A7D3B7C0000009D0000000B00000000000000000000000000B50400006662782F636E782E786D6C504B01021400140006080800CC70623B
310
449FB9BD290100001202000031000000000000000000000000005A0500006662782F36394639363044362D344446342D343946362D394244322D3234314243333846323333332F636F72652E786D6C504B01021400140006080800CC70623BAD7543B64E010000330300003000000000000000000000000000D20600006662
310
782F36394639363044362D344446342D343946362D394244322D3234314243333846323333332F636E782E786D6C504B01021400140006080800CC70623B8D05915C650500003B10000034000000000000000000000000006E0800006662782F36394639363044362D344446342D343946362D394244322D32343142433338
310
46323333332F6F626A656374732E786D6C504B01021400140006080000CC70623B0000000000000000000000003500000000000000000000000000250E00006662782F36394639363044362D344446342D343946362D394244322D3234314243333846323333332F76657274696365732E62696E504B010214001400060808
310
00CC70623BF270F13306000000040000003600000000000000000000000000780E00006662782F36394639363044362D344446342D343946362D394244322D3234314243333846323333332F747269616E676C65732E62696E504B01021400140006080000CC70623B00000000000000000000000037000000000000000000
310
00000000D20E00006662782F36394639363044362D344446342D343946362D394244322D3234314243333846323333332F617474726962757465732E62696E504B01021400140006080800CC70623B08DA0BD190000000410100003600000000000000000000000000270F00006662782F36394639363044362D344446342D
310
343946362D394244322D3234314243333846323333332F6469726563746F72792E786D6C504B01021400140006080800CC70623BCA768048FE000000A00100003B000000000000000000000000000B1000006662782F36394639363044362D344446342D343946362D394244322D3234314243333846323333332F7265736F
310
75726365732F636F72652E786D6C504B0506000000000E000E0080040000621100000000
  0
XRECORD
  5
12
102
{ACAD_REACTORS
330
D
102
}
330
D
100
AcDbXrecord
280
     1
270
     1
271
     1
  0
XRECORD
  5
13
102
{ACAD_REACTORS
330
D
102
}
330
D
100
AcDbXrecord
280
     1
270
     1
271
     1
  0
CELLSTYLEMAP
  5
3C7
102
{ACAD_REACTORS
330
44
102
}
330
44
100
AcDbCellStyleMap
 90
        3
300
CELLSTYLE
  1
TABLEFORMAT_BEGIN
 90
        5
170
     1
 91
        0
 92
    32768
 62
   257
 93
        1
300
CONTENTFORMAT
  1
CONTENTFORMAT_BEGIN
 90
        0
 91
        0
 92
      512
 93
        0
300

 40
0.0
140
1.0
 94
        5
 62
     0
340
23
144
6.0
309
CONTENTFORMAT_END
171
     1
301
MARGIN
  1
CELLMARGIN_BEGIN
 40
1.5
 40
1.5
 40
1.5
 40
1.5
 40
0.18
 40
0.18
309
CELLMARGIN_END
 94
        6
 95
        1
302
GRIDFORMAT
  1
GRIDFORMAT_BEGIN
 90
        0
 91
        1
 62
     0
 92
       -2
340
26
 93
        0
 40
1.125
309
GRIDFORMAT_END
 95
        2
302
GRIDFORMAT
  1
GRIDFORMAT_BEGIN
 90
        0
 91
        1
 62
     0
 92
       -2
340
26
 93
        0
 40
1.125
309
GRIDFORMAT_END
 95
        4
302
GRIDFORMAT
  1
GRIDFORMAT_BEGIN
 90
        0
 91
        1
 62
     0
 92
       -2
340
26
 93
        0
 40
1.125
309
GRIDFORMAT_END
 95
        8
302
GRIDFORMAT
  1
GRIDFORMAT_BEGIN
 90
        0
 91
        1
 62
     0
 92
       -2
340
26
 93
        0
 40
1.125
309
GRIDFORMAT_END
 95
       16
302
GRIDFORMAT
  1
GRIDFORMAT_BEGIN
 90
        0
 91
        1
 62
     0
 92
       -2
340
26
 93
        0
 40
1.125
309
GRIDFORMAT_END
 95
       32
302
GRIDFORMAT
  1
GRIDFORMAT_BEGIN
 90
        0
 91
        1
 62
     0
 92
       -2
340
26
 93
        0
 40
1.125
309
GRIDFORMAT_END
309
TABLEFORMAT_END
  1
CELLSTYLE_BEGIN
 90
        1
 91
        1
300
_TITLE
309
CELLSTYLE_END
300
CELLSTYLE
  1
TABLEFORMAT_BEGIN
 90
        5
170
     1
 91
        0
 92
        0
 62
   257
 93
        1
300
CONTENTFORMAT
  1
CONTENTFORMAT_BEGIN
 90
        0
 91
        0
 92
      512
 93
        0
300

 40
0.0
140
1.0
 94
        5
 62
     0
340
23
144
4.5
309
CONTENTFORMAT_END
171
     1
301
MARGIN
  1
CELLMARGIN_BEGIN
 40
1.5
 40
1.5
 40
1.5
 40
1.5
 40
0.18
 40
0.18
309
CELLMARGIN_END
 94
        6
 95
        1
302
GRIDFORMAT
  1
GRIDFORMAT_BEGIN
 90
        0
 91
        1
 62
     0
 92
       -2
340
26
 93
        0
 40
1.125
309
GRIDFORMAT_END
 95
        2
302
GRIDFORMAT
  1
GRIDFORMAT_BEGIN
 90
        0
 91
        1
 62
     0
 92
       -2
340
26
 93
        0
 40
1.125
309
GRIDFORMAT_END
 95
        4
302
GRIDFORMAT
  1
GRIDFORMAT_BEGIN
 90
        0
 91
        1
 62
     0
 92
       -2
340
26
 93
        0
 40
1.125
309
GRIDFORMAT_END
 95
        8
302
GRIDFORMAT
  1
GRIDFORMAT_BEGIN
 90
        0
 91
        1
 62
     0
 92
       -2
340
26
 93
        0
 40
1.125
309
GRIDFORMAT_END
 95
       16
302
GRIDFORMAT
  1
GRIDFORMAT_BEGIN
 90
        0
 91
        1
 62
     0
 92
       -2
340
26
 93
        0
 40
1.125
309
GRIDFORMAT_END
 95
       32
302
GRIDFORMAT
  1
GRIDFORMAT_BEGIN
 90
        0
 91
        1
 62
     0
 92
       -2
340
26
 93
        0
 40
1.125
309
GRIDFORMAT_END
309
TABLEFORMAT_END
  1
CELLSTYLE_BEGIN
 90
        2
 91
        1
300
_HEADER
309
CELLSTYLE_END
300
CELLSTYLE
  1
TABLEFORMAT_BEGIN
 90
        5
170
     1
 91
        0
 92
        0
 62
   257
 93
        1
300
CONTENTFORMAT
  1
CONTENTFORMAT_BEGIN
 90
        0
 91
        0
 92
      512
 93
        0
300

 40
0.0
140
1.0
 94
        2
 62
     0
340
23
144
4.5
309
CONTENTFORMAT_END
171
     1
301
MARGIN
  1
CELLMARGIN_BEGIN
 40
1.5
 40
1.5
 40
1.5
 40
1.5
 40
0.18
 40
0.18
309
CELLMARGIN_END
 94
        6
 95
        1
302
GRIDFORMAT
  1
GRIDFORMAT_BEGIN
 90
        0
 91
        1
 62
     0
 92
       -2
340
26
 93
        0
 40
1.125
309
GRIDFORMAT_END
 95
        2
302
GRIDFORMAT
  1
GRIDFORMAT_BEGIN
 90
        0
 91
        1
 62
     0
 92
       -2
340
26
 93
        0
 40
1.125
309
GRIDFORMAT_END
 95
        4
302
GRIDFORMAT
  1
GRIDFORMAT_BEGIN
 90
        0
 91
        1
 62
     0
 92
       -2
340
26
 93
        0
 40
1.125
309
GRIDFORMAT_END
 95
        8
302
GRIDFORMAT
  1
GRIDFORMAT_BEGIN
 90
        0
 91
        1
 62
     0
 92
       -2
340
26
 93
        0
 40
1.125
309
GRIDFORMAT_END
 95
       16
302
GRIDFORMAT
  1
GRIDFORMAT_BEGIN
 90
        0
 91
        1
 62
     0
 92
       -2
340
26
 93
        0
 40
1.125
309
GRIDFORMAT_END
 95
       32
302
GRIDFORMAT
  1
GRIDFORMAT_BEGIN
 90
        0
 91
        1
 62
     0
 92
       -2
340
26
 93
        0
 40
1.125
309
GRIDFORMAT_END
309
TABLEFORMAT_END
  1
CELLSTYLE_BEGIN
 90
        3
 91
        2
300
_DATA
309
CELLSTYLE_END
  0
XRECORD
  5
3D3
102
{ACAD_REACTORS
330
44
102
}
330
44
100
AcDbXrecord
280
     1
102
ACAD_ROUNDTRIP_PRE2007_TABLESTYLE
 90
      512
 91
        0
  1

 92
      512
 93
        0
  2

 94
      512
 95
        0
  3

  0
XRECORD
  5
3D2
102
{ACAD_REACTORS
330
3D1
102
}
330
3D1
100
AcDbXrecord
280
     1
102
RTVSPost2010Prop28
280
     1
102
RTVSPost2010PropOp28
 70
     1
102
RTVSPost2010Prop29
280
     1
102
RTVSPost2010PropOp29
 70
     1
102
RTVSPost2010Prop30
280
     0
102
RTVSPost2010PropOp30
 70
     1
102
RTVSPost2010Prop31
280
     0
102
RTVSPost2010PropOp31
 70
     1
102
RTVSPost2010Prop32
280
     0
102
RTVSPost2010PropOp32
 70
     1
102
RTVSPost2010Prop33
280
     0
102
RTVSPost2010PropOp33
 70
     1
102
RTVSPost2010Prop34
280
     0
102
RTVSPost2010PropOp34
 70
     1
102
RTVSPost2010Prop35
280
     0
102
RTVSPost2010PropOp35
 70
     1
102
RTVSPost2010Prop36
280
     0
102
RTVSPost2010PropOp36
 70
     1
102
RTVSPost2010Prop37
 90
       50
102
RTVSPost2010PropOp37
 70
     1
102
RTVSPost2010Prop38
140
0.0
102
RTVSPost2010PropOp38
 70
     1
102
RTVSPost2010Prop39
140
1.0
102
RTVSPost2010PropOp39
 70
     1
102
RTVSPost2010Prop40
 90
        0
102
RTVSPost2010PropOp40
 70
     1
102
RTVSPost2010Prop41ColorIndex
 90
       18
102
RTVSPost2010Prop41ColorRGB
 90
        0
102
RTVSPost2010PropOp41
 70
     1
102
RTVSPost2010Prop42
 90
       50
102
RTVSPost2010PropOp42
 70
     1
102
RTVSPost2010Prop43
 90
        3
102
RTVSPost2010PropOp43
 70
     1
102
RTVSPost2010Prop44ColorIndex
 90
        5
102
RTVSPost2010Prop44ColorRGB
 90
      255
102
RTVSPost2010PropOp44
 70
     1
102
RTVSPost2010Prop45
280
     0
102
RTVSPost2010PropOp45
 70
     1
102
RTVSPost2010Prop46
 90
       50
102
RTVSPost2010PropOp46
 70
     1
102
RTVSPost2010Prop47
 90
       50
102
RTVSPost2010PropOp47
 70
     1
102
RTVSPost2010Prop48
 90
       50
102
RTVSPost2010PropOp48
 70
     1
102
RTVSPost2010Prop49
280
     0
102
RTVSPost2010PropOp49
 70
     1
102
RTVSPost2010Prop50
 90
       50
102
RTVSPost2010PropOp50
 70
     1
102
RTVSPost2010Prop51ColorIndex
 90
      256
102
RTVSPost2010Prop51ColorRGB
 90
-16777216
102
RTVSPost2010PropOp51
 70
     0
102
RTVSPost2010Prop52
140
1.0
102
RTVSPost2010PropOp52
 70
     0
102
RTVSPost2010Prop53
 90
        2
102
RTVSPost2010PropOp53
 70
     1
102
RTVSPost2010Prop54
  1
strokes_ogs.tif
102
RTVSPost2010PropOp54
 70
     1
102
RTVSPost2010Prop55
280
     0
102
RTVSPost2010PropOp55
 70
     1
102
RTVSPost2010Prop56
140
1.0
102
RTVSPost2010PropOp56
 70
     1
102
RTVSPost2010Prop57
140
1.0
102
RTVSPost2010PropOp57
 70
     1
102
RTVSPropertyOp0
 70
     1
102
RTVSPropertyOp1
 70
     1
102
RTVSPropertyOp2
 70
     1
102
RTVSPropertyOp3
 70
     1
102
RTVSPropertyOp4
 70
     1
102
RTVSPropertyOp5
 70
     1
102
RTVSPropertyOp6
 70
     1
102
RTVSPropertyOp7
 70
     1
102
RTVSPropertyOp8
 70
     1
102
RTVSPropertyOp9
 70
     1
102
RTVSPropertyOp10
 70
     1
102
RTVSPropertyOp11
 70
     1
102
RTVSPropertyOp12
 70
     1
102
RTVSPropertyOp13
 70
     1
102
RTVSPropertyOp14
 70
     1
102
RTVSPropertyOp15
 70
     1
102
RTVSPropertyOp16
 70
     1
102
RTVSPropertyOp17
 70
     1
102
RTVSPropertyOp18
 70
     1
102
RTVSPropertyOp19
 70
     1
102
RTVSPropertyOp20
 70
     1
102
RTVSPropertyOp21
 70
     1
102
RTVSPropertyOp22
 70
     1
102
RTVSPropertyOp23
 70
     1
102
RTVSPropertyOp24
 70
     1
102
RTVSPropertyOp25
 70
     1
102
RTVSPropertyOp26
 70
     1
102
RTVSPropertyOp27
 70
     1
102
RTVSPropertyOp28
 70
     1
102
RTVSPropertyOp29
 70
     1
102
RTVSPropertyOp30
 70
     1
102
RTVSPropertyOp31
 70
     1
102
RTVSPropertyOp32
 70
     1
102
RTVSPropertyOp33
 70
     1
102
RTVSPropertyOp34
 70
     1
102
RTVSPropertyOp35
 70
     1
102
RTVSPropertyOp36
 70
     1
102
RTVSPropertyOp37
 70
     1
102
RTVSPropertyOp38
 70
     1
102
RTVSPropertyOp39
 70
     1
102
RTVSPropertyOp40
 70
     1
102
RTVSPropertyOp41
 70
     1
102
RTVSPropertyOp42
 70
     1
102
RTVSPropertyOp43
 70
     1
102
RTVSPropertyOp44
 70
     1
102
RTVSPropertyOp45
 70
     1
102
RTVSPropertyOp46
 70
     1
102
RTVSPropertyOp47
 70
     1
102
RTVSPropertyOp48
 70
     1
102
RTVSPropertyOp49
 70
     1
102
RTVSPropertyOp50
 70
     1
102
RTVSPropertyOp51
 70
     0
102
RTVSPropertyOp52
 70
     0
102
RTVSPropertyOp53
 70
     1
102
RTVSPropertyOp54
 70
     1
102
RTVSPropertyOp55
 70
     1
102
RTVSPropertyOp56
 70
     1
102
RTVSPropertyOp57
 70
     1
102
RTVSPropertyOp58
 70
     1
102
RTVSPropertyOp59
 70
     1
102
RTVSPropertyOp60
 70
     1
102
RTVSPropertyOp61
 70
     1
102
RTVSPropertyOp62
 70
     1
  0
XRECORD
  5
3D5
102
{ACAD_REACTORS
330
3D4
102
}
330
3D4
100
AcDbXrecord
280
     1
102
RTVSPost2010Prop28
280
     0
102
RTVSPost2010PropOp28
 70
     1
102
RTVSPost2010Prop29
280
     1
102
RTVSPost2010PropOp29
 70
     1
102
RTVSPost2010Prop30
280
     1
102
RTVSPost2010PropOp30
 70
     1
102
RTVSPost2010Prop31
280
     0
102
RTVSPost2010PropOp31
 70
     1
102
RTVSPost2010Prop32
280
     0
102
RTVSPost2010PropOp32
 70
     1
102
RTVSPost2010Prop33
280
     0
102
RTVSPost2010PropOp33
 70
     1
102
RTVSPost2010Prop34
280
     0
102
RTVSPost2010PropOp34
 70
     1
102
RTVSPost2010Prop35
280
     0
102
RTVSPost2010PropOp35
 70
     1
102
RTVSPost2010Prop36
280
     0
102
RTVSPost2010PropOp36
 70
     1
102
RTVSPost2010Prop37
 90
       50
102
RTVSPost2010PropOp37
 70
     1
102
RTVSPost2010Prop38
140
0.0
102
RTVSPost2010PropOp38
 70
     1
102
RTVSPost2010Prop39
140
1.0
102
RTVSPost2010PropOp39
 70
     1
102
RTVSPost2010Prop40
 90
        0
102
RTVSPost2010PropOp40
 70
     1
102
RTVSPost2010Prop41ColorIndex
 90
       18
102
RTVSPost2010Prop41ColorRGB
 90
        0
102
RTVSPost2010PropOp41
 70
     1
102
RTVSPost2010Prop42
 90
       50
102
RTVSPost2010PropOp42
 70
     1
102
RTVSPost2010Prop43
 90
        3
102
RTVSPost2010PropOp43
 70
     1
102
RTVSPost2010Prop44ColorIndex
 90
        5
102
RTVSPost2010Prop44ColorRGB
 90
      255
102
RTVSPost2010PropOp44
 70
     1
102
RTVSPost2010Prop45
280
     0
102
RTVSPost2010PropOp45
 70
     1
102
RTVSPost2010Prop46
 90
       50
102
RTVSPost2010PropOp46
 70
     1
102
RTVSPost2010Prop47
 90
       50
102
RTVSPost2010PropOp47
 70
     1
102
RTVSPost2010Prop48
 90
       50
102
RTVSPost2010PropOp48
 70
     1
102
RTVSPost2010Prop49
280
     0
102
RTVSPost2010PropOp49
 70
     1
102
RTVSPost2010Prop50
 90
       50
102
RTVSPost2010PropOp50
 70
     1
102
RTVSPost2010Prop51ColorIndex
 90
      256
102
RTVSPost2010Prop51ColorRGB
 90
-16777216
102
RTVSPost2010PropOp51
 70
     0
102
RTVSPost2010Prop52
140
1.0
102
RTVSPost2010PropOp52
 70
     0
102
RTVSPost2010Prop53
 90
        2
102
RTVSPost2010PropOp53
 70
     1
102
RTVSPost2010Prop54
  1
strokes_ogs.tif
102
RTVSPost2010PropOp54
 70
     1
102
RTVSPost2010Prop55
280
     0
102
RTVSPost2010PropOp55
 70
     1
102
RTVSPost2010Prop56
140
1.0
102
RTVSPost2010PropOp56
 70
     1
102
RTVSPost2010Prop57
140
1.0
102
RTVSPost2010PropOp57
 70
     1
102
RTVSPropertyOp0
 70
     1
102
RTVSPropertyOp1
 70
     1
102
RTVSPropertyOp2
 70
     1
102
RTVSPropertyOp3
 70
     1
102
RTVSPropertyOp4
 70
     1
102
RTVSPropertyOp5
 70
     1
102
RTVSPropertyOp6
 70
     1
102
RTVSPropertyOp7
 70
     1
102
RTVSPropertyOp8
 70
     1
102
RTVSPropertyOp9
 70
     1
102
RTVSPropertyOp10
 70
     1
102
RTVSPropertyOp11
 70
     1
102
RTVSPropertyOp12
 70
     1
102
RTVSPropertyOp13
 70
     1
102
RTVSPropertyOp14
 70
     1
102
RTVSPropertyOp15
 70
     1
102
RTVSPropertyOp16
 70
     1
102
RTVSPropertyOp17
 70
     1
102
RTVSPropertyOp18
 70
     1
102
RTVSPropertyOp19
 70
     1
102
RTVSPropertyOp20
 70
     1
102
RTVSPropertyOp21
 70
     1
102
RTVSPropertyOp22
 70
     1
102
RTVSPropertyOp23
 70
     1
102
RTVSPropertyOp24
 70
     1
102
RTVSPropertyOp25
 70
     1
102
RTVSPropertyOp26
 70
     1
102
RTVSPropertyOp27
 70
     1
102
RTVSPropertyOp28
 70
     1
102
RTVSPropertyOp29
 70
     1
102
RTVSPropertyOp30
 70
     1
102
RTVSPropertyOp31
 70
     1
102
RTVSPropertyOp32
 70
     1
102
RTVSPropertyOp33
 70
     1
102
RTVSPropertyOp34
 70
     1
102
RTVSPropertyOp35
 70
     1
102
RTVSPropertyOp36
 70
     1
102
RTVSPropertyOp37
 70
     1
102
RTVSPropertyOp38
 70
     1
102
RTVSPropertyOp39
 70
     1
102
RTVSPropertyOp40
 70
     1
102
RTVSPropertyOp41
 70
     1
102
RTVSPropertyOp42
 70
     1
102
RTVSPropertyOp43
 70
     1
102
RTVSPropertyOp44
 70
     1
102
RTVSPropertyOp45
 70
     1
102
RTVSPropertyOp46
 70
     1
102
RTVSPropertyOp47
 70
     1
102
RTVSPropertyOp48
 70
     1
102
RTVSPropertyOp49
 70
     1
102
RTVSPropertyOp50
 70
     1
102
RTVSPropertyOp51
 70
     0
102
RTVSPropertyOp52
 70
     0
102
RTVSPropertyOp53
 70
     1
102
RTVSPropertyOp54
 70
     1
102
RTVSPropertyOp55
 70
     1
102
RTVSPropertyOp56
 70
     1
102
RTVSPropertyOp57
 70
     1
102
RTVSPropertyOp58
 70
     1
102
RTVSPropertyOp59
 70
     1
102
RTVSPropertyOp60
 70
     1
102
RTVSPropertyOp61
 70
     1
102
RTVSPropertyOp62
 70
     1
  0
XRECORD
  5
3D7
102
{ACAD_REACTORS
330
3D6
102
}
330
3D6
100
AcDbXrecord
280
     1
102
RTVSPost2010Prop28
280
     0
102
RTVSPost2010PropOp28
 70
     1
102
RTVSPost2010Prop29
280
     1
102
RTVSPost2010PropOp29
 70
     1
102
RTVSPost2010Prop30
280
     1
102
RTVSPost2010PropOp30
 70
     1
102
RTVSPost2010Prop31
280
     0
102
RTVSPost2010PropOp31
 70
     1
102
RTVSPost2010Prop32
280
     0
102
RTVSPost2010PropOp32
 70
     1
102
RTVSPost2010Prop33
280
     0
102
RTVSPost2010PropOp33
 70
     1
102
RTVSPost2010Prop34
280
     0
102
RTVSPost2010PropOp34
 70
     1
102
RTVSPost2010Prop35
280
     0
102
RTVSPost2010PropOp35
 70
     1
102
RTVSPost2010Prop36
280
     0
102
RTVSPost2010PropOp36
 70
     1
102
RTVSPost2010Prop37
 90
       50
102
RTVSPost2010PropOp37
 70
     1
102
RTVSPost2010Prop38
140
0.0
102
RTVSPost2010PropOp38
 70
     1
102
RTVSPost2010Prop39
140
1.0
102
RTVSPost2010PropOp39
 70
     1
102
RTVSPost2010Prop40
 90
        0
102
RTVSPost2010PropOp40
 70
     1
102
RTVSPost2010Prop41ColorIndex
 90
       18
102
RTVSPost2010Prop41ColorRGB
 90
        0
102
RTVSPost2010PropOp41
 70
     1
102
RTVSPost2010Prop42
 90
       50
102
RTVSPost2010PropOp42
 70
     1
102
RTVSPost2010Prop43
 90
        3
102
RTVSPost2010PropOp43
 70
     1
102
RTVSPost2010Prop44ColorIndex
 90
        5
102
RTVSPost2010Prop44ColorRGB
 90
      255
102
RTVSPost2010PropOp44
 70
     1
102
RTVSPost2010Prop45
280
     0
102
RTVSPost2010PropOp45
 70
     1
102
RTVSPost2010Prop46
 90
       50
102
RTVSPost2010PropOp46
 70
     1
102
RTVSPost2010Prop47
 90
       50
102
RTVSPost2010PropOp47
 70
     1
102
RTVSPost2010Prop48
 90
       50
102
RTVSPost2010PropOp48
 70
     1
102
RTVSPost2010Prop49
280
     0
102
RTVSPost2010PropOp49
 70
     1
102
RTVSPost2010Prop50
 90
       50
102
RTVSPost2010PropOp50
 70
     1
102
RTVSPost2010Prop51ColorIndex
 90
      256
102
RTVSPost2010Prop51ColorRGB
 90
-16777216
102
RTVSPost2010PropOp51
 70
     0
102
RTVSPost2010Prop52
140
1.0
102
RTVSPost2010PropOp52
 70
     0
102
RTVSPost2010Prop53
 90
        2
102
RTVSPost2010PropOp53
 70
     1
102
RTVSPost2010Prop54
  1
strokes_ogs.tif
102
RTVSPost2010PropOp54
 70
     1
102
RTVSPost2010Prop55
280
     0
102
RTVSPost2010PropOp55
 70
     1
102
RTVSPost2010Prop56
140
1.0
102
RTVSPost2010PropOp56
 70
     1
102
RTVSPost2010Prop57
140
1.0
102
RTVSPost2010PropOp57
 70
     1
102
RTVSPropertyOp0
 70
     1
102
RTVSPropertyOp1
 70
     1
102
RTVSPropertyOp2
 70
     1
102
RTVSPropertyOp3
 70
     1
102
RTVSPropertyOp4
 70
     1
102
RTVSPropertyOp5
 70
     1
102
RTVSPropertyOp6
 70
     1
102
RTVSPropertyOp7
 70
     1
102
RTVSPropertyOp8
 70
     1
102
RTVSPropertyOp9
 70
     1
102
RTVSPropertyOp10
 70
     1
102
RTVSPropertyOp11
 70
     1
102
RTVSPropertyOp12
 70
     1
102
RTVSPropertyOp13
 70
     1
102
RTVSPropertyOp14
 70
     1
102
RTVSPropertyOp15
 70
     1
102
RTVSPropertyOp16
 70
     1
102
RTVSPropertyOp17
 70
     1
102
RTVSPropertyOp18
 70
     1
102
RTVSPropertyOp19
 70
     1
102
RTVSPropertyOp20
 70
     1
102
RTVSPropertyOp21
 70
     1
102
RTVSPropertyOp22
 70
     1
102
RTVSPropertyOp23
 70
     1
102
RTVSPropertyOp24
 70
     1
102
RTVSPropertyOp25
 70
     1
102
RTVSPropertyOp26
 70
     1
102
RTVSPropertyOp27
 70
     1
102
RTVSPropertyOp28
 70
     1
102
RTVSPropertyOp29
 70
     1
102
RTVSPropertyOp30
 70
     1
102
RTVSPropertyOp31
 70
     1
102
RTVSPropertyOp32
 70
     1
102
RTVSPropertyOp33
 70
     1
102
RTVSPropertyOp34
 70
     1
102
RTVSPropertyOp35
 70
     1
102
RTVSPropertyOp36
 70
     1
102
RTVSPropertyOp37
 70
     1
102
RTVSPropertyOp38
 70
     1
102
RTVSPropertyOp39
 70
     1
102
RTVSPropertyOp40
 70
     1
102
RTVSPropertyOp41
 70
     1
102
RTVSPropertyOp42
 70
     1
102
RTVSPropertyOp43
 70
     1
102
RTVSPropertyOp44
 70
     1
102
RTVSPropertyOp45
 70
     1
102
RTVSPropertyOp46
 70
     1
102
RTVSPropertyOp47
 70
     1
102
RTVSPropertyOp48
 70
     1
102
RTVSPropertyOp49
 70
     1
102
RTVSPropertyOp50
 70
     1
102
RTVSPropertyOp51
 70
     0
102
RTVSPropertyOp52
 70
     0
102
RTVSPropertyOp53
 70
     1
102
RTVSPropertyOp54
 70
     1
102
RTVSPropertyOp55
 70
     1
102
RTVSPropertyOp56
 70
     1
102
RTVSPropertyOp57
 70
     1
102
RTVSPropertyOp58
 70
     1
102
RTVSPropertyOp59
 70
     1
102
RTVSPropertyOp60
 70
     1
102
RTVSPropertyOp61
 70
     1
102
RTVSPropertyOp62
 70
     1
  0
ENDSEC
  0
EOF
