  0
SECTION
  2
HEADER
  9
$ACADVER
  1
AC1018
  9
$ACADMAINTVER
 70
   104
  9
$DWGCODEPAGE
  3
ANSI_932
  9
$INSBASE
 10
0.0
 20
0.0
 30
0.0
  9
$EXTMIN
 10
0.6948923566163927
 20
0.7559013343165049
 30
-0.0000000000112498
  9
$EXTMAX
 10
50.69956391863406
 20
24.41456925205164
 30
0.0000000000002956
  9
$LIMMIN
 10
-7.396765407915609
 20
-5.981256663242902
  9
$LIMMAX
 10
57.76006274485644
 20
30.57999842467348
  9
$ORTHOMODE
 70
     1
  9
$REGENMODE
 70
     1
  9
$FILLMODE
 70
     1
  9
$QTEXTMODE
 70
     0
  9
$MIRRTEXT
 70
     0
  9
$LTSCALE
 40
1.0
  9
$ATTMODE
 70
     1
  9
$TEXTSIZE
 40
2.5
  9
$TRACEWID
 40
1.0
  9
$TEXTSTYLE
  7
Standard
  9
$CLAYER
  8
0
  9
$CELTYPE
  6
ByLayer
  9
$CECOLOR
 62
   256
  9
$CELTSCALE
 40
1.0
  9
$DISPSILH
 70
     0
  9
$DIMSCALE
 40
1.0
  9
$DIMASZ
 40
2.5
  9
$DIMEXO
 40
0.625
  9
$DIMDLI
 40
3.75
  9
$DIMRND
 40
0.0
  9
$DIMDLE
 40
0.0
  9
$DIMEXE
 40
1.25
  9
$DIMTP
 40
0.0
  9
$DIMTM
 40
0.0
  9
$DIMTXT
 40
2.5
  9
$DIMCEN
 40
2.5
  9
$DIMTSZ
 40
0.0
  9
$DIMTOL
 70
     0
  9
$DIMLIM
 70
     0
  9
$DIMTIH
 70
     0
  9
$DIMTOH
 70
     0
  9
$DIMSE1
 70
     0
  9
$DIMSE2
 70
     0
  9
$DIMTAD
 70
     1
  9
$DIMZIN
 70
     8
  9
$DIMBLK
  1

  9
$DIMASO
 70
     1
  9
$DIMSHO
 70
     1
  9
$DIMPOST
  1

  9
$DIMAPOST
  1

  9
$DIMALT
 70
     0
  9
$DIMALTD
 70
     3
  9
$DIMALTF
 40
0.03937007874016
  9
$DIMLFAC
 40
1.0
  9
$DIMTOFL
 70
     1
  9
$DIMTVP
 40
0.0
  9
$DIMTIX
 70
     0
  9
$DIMSOXD
 70
     0
  9
$DIMSAH
 70
     0
  9
$DIMBLK1
  1

  9
$DIMBLK2
  1

  9
$DIMSTYLE
  2
ISO-25
  9
$DIMCLRD
 70
     0
  9
$DIMCLRE
 70
     0
  9
$DIMCLRT
 70
     0
  9
$DIMTFAC
 40
1.0
  9
$DIMGAP
 40
0.625
  9
$DIMJUST
 70
     0
  9
$DIMSD1
 70
     0
  9
$DIMSD2
 70
     0
  9
$DIMTOLJ
 70
     0
  9
$DIMTZIN
 70
     8
  9
$DIMALTZ
 70
     0
  9
$DIMALTTZ
 70
     0
  9
$DIMUPT
 70
     0
  9
$DIMDEC
 70
     2
  9
$DIMTDEC
 70
     2
  9
$DIMALTU
 70
     2
  9
$DIMALTTD
 70
     3
  9
$DIMTXSTY
  7
Standard
  9
$DIMAUNIT
 70
     0
  9
$DIMADEC
 70
     0
  9
$DIMALTRND
 40
0.0
  9
$DIMAZIN
 70
     0
  9
$DIMDSEP
 70
    44
  9
$DIMATFIT
 70
     3
  9
$DIMFRAC
 70
     0
  9
$DIMLDRBLK
  1

  9
$DIMLUNIT
 70
     2
  9
$DIMLWD
 70
    -2
  9
$DIMLWE
 70
    -2
  9
$DIMTMOVE
 70
     0
  9
$LUNITS
 70
     2
  9
$LUPREC
 70
     4
  9
$SKETCHINC
 40
1.0
  9
$FILLETRAD
 40
0.0
  9
$AUNITS
 70
     0
  9
$AUPREC
 70
     0
  9
$MENU
  1
.
  9
$ELEVATION
 40
0.0
  9
$PELEVATION
 40
0.0
  9
$THICKNESS
 40
0.0
  9
$LIMCHECK
 70
     0
  9
$CHAMFERA
 40
0.0
  9
$CHAMFERB
 40
0.0
  9
$CHAMFERC
 40
0.0
  9
$CHAMFERD
 40
0.0
  9
$SKPOLY
 70
     0
  9
$TDCREATE
 40
2458206.720474537
  9
$TDUCREATE
 40
2458206.387141204
  9
$TDUPDATE
 40
2458940.695266204
  9
$TDUUPDATE
 40
2458940.361932871
  9
$TDINDWG
 40
0.0184722222
  9
$TDUSRTIMER
 40
0.0184722222
  9
$USRTIMER
 70
     1
  9
$ANGBASE
 50
0.0
  9
$ANGDIR
 70
     0
  9
$PDMODE
 70
     0
  9
$PDSIZE
 40
0.0
  9
$PLINEWID
 40
0.0
  9
$SPLFRAME
 70
     0
  9
$SPLINETYPE
 70
     6
  9
$SPLINESEGS
 70
     8
  9
$HANDSEED
  5
3DD
  9
$SURFTAB1
 70
     6
  9
$SURFTAB2
 70
     6
  9
$SURFTYPE
 70
     6
  9
$SURFU
 70
     6
  9
$SURFV
 70
     6
  9
$UCSBASE
  2

  9
$UCSNAME
  2

  9
$UCSORG
 10
0.0
 20
0.0
 30
0.0
  9
$UCSXDIR
 10
1.0
 20
0.0
 30
0.0
  9
$UCSYDIR
 10
0.0
 20
1.0
 30
0.0
  9
$UCSORTHOREF
  2

  9
$UCSORTHOVIEW
 70
     0
  9
$UCSORGTOP
 10
0.0
 20
0.0
 30
0.0
  9
$UCSORGBOTTOM
 10
0.0
 20
0.0
 30
0.0
  9
$UCSORGLEFT
 10
0.0
 20
0.0
 30
0.0
  9
$UCSORGRIGHT
 10
0.0
 20
0.0
 30
0.0
  9
$UCSORGFRONT
 10
0.0
 20
0.0
 30
0.0
  9
$UCSORGBACK
 10
0.0
 20
0.0
 30
0.0
  9
$PUCSBASE
  2

  9
$PUCSNAME
  2

  9
$PUCSORG
 10
0.0
 20
0.0
 30
0.0
  9
$PUCSXDIR
 10
1.0
 20
0.0
 30
0.0
  9
$PUCSYDIR
 10
0.0
 20
1.0
 30
0.0
  9
$PUCSORTHOREF
  2

  9
$PUCSORTHOVIEW
 70
     0
  9
$PUCSORGTOP
 10
0.0
 20
0.0
 30
0.0
  9
$PUCSORGBOTTOM
 10
0.0
 20
0.0
 30
0.0
  9
$PUCSORGLEFT
 10
0.0
 20
0.0
 30
0.0
  9
$PUCSORGRIGHT
 10
0.0
 20
0.0
 30
0.0
  9
$PUCSORGFRONT
 10
0.0
 20
0.0
 30
0.0
  9
$PUCSORGBACK
 10
0.0
 20
0.0
 30
0.0
  9
$USERI1
 70
     0
  9
$USERI2
 70
     0
  9
$USERI3
 70
     0
  9
$USERI4
 70
     0
  9
$USERI5
 70
     0
  9
$USERR1
 40
0.0
  9
$USERR2
 40
0.0
  9
$USERR3
 40
0.0
  9
$USERR4
 40
0.0
  9
$USERR5
 40
0.0
  9
$WORLDVIEW
 70
     1
  9
$SHADEDGE
 70
     3
  9
$SHADEDIF
 70
    70
  9
$TILEMODE
 70
     1
  9
$MAXACTVP
 70
    64
  9
$PINSBASE
 10
0.0
 20
0.0
 30
0.0
  9
$PLIMCHECK
 70
     0
  9
$PEXTMIN
 10
0.0
 20
0.0
 30
0.0
  9
$PEXTMAX
 10
0.0
 20
0.0
 30
0.0
  9
$PLIMMIN
 10
0.0
 20
0.0
  9
$PLIMMAX
 10
12.0
 20
9.0
  9
$UNITMODE
 70
     0
  9
$VISRETAIN
 70
     1
  9
$PLINEGEN
 70
     0
  9
$PSLTSCALE
 70
     1
  9
$TREEDEPTH
 70
  3020
  9
$CMLSTYLE
  2
Standard
  9
$CMLJUST
 70
     0
  9
$CMLSCALE
 40
20.0
  9
$PROXYGRAPHICS
 70
     1
  9
$MEASUREMENT
 70
     1
  9
$CELWEIGHT
370
    -1
  9
$ENDCAPS
280
     0
  9
$JOINSTYLE
280
     0
  9
$LWDISPLAY
290
     0
  9
$INSUNITS
 70
     4
  9
$HYPERLINKBASE
  1

  9
$STYLESHEET
  1

  9
$XEDIT
290
     1
  9
$CEPSNTYPE
380
     0
  9
$PSTYLEMODE
290
     1
  9
$FINGERPRINTGUID
  2
{CCA16F16-C867-BD49-A287-F6E4130D3E67}
  9
$VERSIONGUID
  2
{ECFE8269-F3DA-1342-AEBC-149051F63CB2}
  9
$EXTNAMES
290
     1
  9
$PSVPSCALE
 40
0.0
  9
$OLESTARTUP
290
     0
  9
$SORTENTS
280
   127
  9
$INDEXCTL
280
     0
  9
$HIDETEXT
280
     1
  9
$XCLIPFRAME
290
     0
  9
$HALOGAP
280
     0
  9
$OBSCOLOR
 70
   257
  9
$OBSLTYPE
280
     0
  9
$INTERSECTIONDISPLAY
280
     0
  9
$INTERSECTIONCOLOR
 70
   257
  9
$DIMASSOC
280
     2
  9
$PROJECTNAME
  1

  0
ENDSEC
  0
SECTION
  2
CLASSES
  0
CLASS
  1
ACDBDICTIONARYWDFLT
  2
AcDbDictionaryWithDefault
  3
ObjectDBX Classes
 90
        0
 91
        1
280
     0
281
     0
  0
CLASS
  1
DICTIONARYVAR
  2
AcDbDictionaryVar
  3
ObjectDBX Classes
 90
        0
 91
       12
280
     0
281
     0
  0
CLASS
  1
TABLESTYLE
  2
AcDbTableStyle
  3
ObjectDBX Classes
 90
     4095
 91
        1
280
     0
281
     0
  0
CLASS
  1
MATERIAL
  2
AcDbMaterial
  3
ObjectDBX Classes
 90
     1153
 91
        3
280
     0
281
     0
  0
CLASS
  1
VISUALSTYLE
  2
AcDbVisualStyle
  3
ObjectDBX Classes
 90
     4095
 91
        3
280
     0
281
     0
  0
CLASS
  1
SCALE
  2
AcDbScale
  3
ObjectDBX Classes
 90
     1153
 91
       17
280
     0
281
     0
  0
CLASS
  1
MLEADERSTYLE
  2
AcDbMLeaderStyle
  3
ACDB_MLEADERSTYLE_CLASS
 90
     4095
 91
        0
280
     0
281
     0
  0
CLASS
  1
CELLSTYLEMAP
  2
AcDbCellStyleMap
  3
ObjectDBX Classes
 90
     1152
 91
        1
280
     0
281
     0
  0
CLASS
  1
EXACXREFPANELOBJECT
  2
ExAcXREFPanelObject
  3
EXAC_ESW
 90
     1025
 91
        0
280
     1
281
     0
  0
CLASS
  1
NPOCOLLECTION
  2
AcDbImpNonPersistentObjectsCollection
  3
ObjectDBX Classes
 90
     1153
 91
        0
280
     0
281
     0
  0
CLASS
  1
LAYER_INDEX
  2
AcDbLayerIndex
  3
ObjectDBX Classes
 90
        0
 91
        0
280
     0
281
     0
  0
CLASS
  1
SPATIAL_INDEX
  2
AcDbSpatialIndex
  3
ObjectDBX Classes
 90
        0
 91
        0
280
     0
281
     0
  0
CLASS
  1
IDBUFFER
  2
AcDbIdBuffer
  3
ObjectDBX Classes
 90
        0
 91
        0
280
     0
281
     0
  0
CLASS
  1
ACDBSECTIONVIEWSTYLE
  2
AcDbSectionViewStyle
  3
ObjectDBX Classes
 90
     1025
 91
        0
280
     0
281
     0
  0
CLASS
  1
ACDBDETAILVIEWSTYLE
  2
AcDbDetailViewStyle
  3
ObjectDBX Classes
 90
     1025
 91
        0
280
     0
281
     0
  0
CLASS
  1
SORTENTSTABLE
  2
AcDbSortentsTable
  3
ObjectDBX Classes
 90
        0
 91
        2
280
     0
281
     0
  0
CLASS
  1
DIMASSOC
  2
AcDbDimAssoc
  3
"AcDbDimAssoc|Product Desc:     AcDim ARX App For Dimension|Company:          Autodesk, Inc.|WEB Address:      www.autodesk.com"
 90
        0
 91
        0
280
     0
281
     0
  0
ENDSEC
  0
SECTION
  2
TABLES
  0
TABLE
  2
VPORT
  5
2A
330
0
100
AcDbSymbolTable
 70
     1
  0
VPORT
  5
2B
330
2A
100
AcDbSymbolTableRecord
100
AcDbViewportTableRecord
  2
*Active
 70
     0
 10
0.0
 20
0.0
 11
1.0
 21
1.0
 12
25.18164866847042
 22
12.29937088071529
 13
0.0
 23
0.0
 14
10.0
 24
10.0
 15
10.0
 25
10.0
 16
0.0
 26
0.0
 36
1.0
 17
0.0
 27
0.0
 37
0.0
 40
36.89113107367202
 41
2.396084337349397
 42
50.0
 43
0.0
 44
0.0
 50
0.0
 51
0.0
 71
     0
 72
  1000
 73
     1
 74
     3
 75
     0
 76
     0
 77
     0
 78
     0
281
     0
 65
     1
110
0.0
120
0.0
130
0.0
111
1.0
121
0.0
131
0.0
112
0.0
122
1.0
132
0.0
 79
     0
146
0.0
1001
ACAD_NAV_VCDISPLAY
1070
     3
  0
ENDTAB
  0
TABLE
  2
LTYPE
  5
25
330
0
100
AcDbSymbolTable
 70
     1
  0
LTYPE
  5
26
330
25
100
AcDbSymbolTableRecord
100
AcDbLinetypeTableRecord
  2
ByBlock
 70
     0
  3

 72
    65
 73
     0
 40
0.0
  0
LTYPE
  5
27
330
25
100
AcDbSymbolTableRecord
100
AcDbLinetypeTableRecord
  2
ByLayer
 70
     0
  3

 72
    65
 73
     0
 40
0.0
  0
LTYPE
  5
15
330
25
100
AcDbSymbolTableRecord
100
AcDbLinetypeTableRecord
  2
Continuous
 70
     0
  3
Solid line
 72
    65
 73
     0
 40
0.0
  0
ENDTAB
  0
TABLE
  2
LAYER
  5
1F
102
{ACAD_XDICTIONARY
360
20
102
}
330
0
100
AcDbSymbolTable
 70
     1
  0
LAYER
  5
6
102
{ACAD_XDICTIONARY
360
7
102
}
330
1F
100
AcDbSymbolTableRecord
100
AcDbLayerTableRecord
  2
0
 70
     0
 62
     7
  6
Continuous
370
    -3
390
8
  0
ENDTAB
  0
TABLE
  2
STYLE
  5
22
330
0
100
AcDbSymbolTable
 70
     1
  0
STYLE
  5
23
330
22
100
AcDbSymbolTableRecord
100
AcDbTextStyleTableRecord
  2
Standard
 70
     0
 40
0.0
 41
1.0
 50
0.0
 71
     0
 42
2.5
  3
arial.ttf
  4

1001
ACAD
1000
Arial
1071
       34
  0
ENDTAB
  0
TABLE
  2
VIEW
  5
28
330
0
100
AcDbSymbolTable
 70
     0
  0
ENDTAB
  0
TABLE
  2
UCS
  5
29
330
0
100
AcDbSymbolTable
 70
     0
  0
ENDTAB
  0
TABLE
  2
APPID
  5
2F
330
0
100
AcDbSymbolTable
 70
     3
  0
APPID
  5
14
330
2F
100
AcDbSymbolTableRecord
100
AcDbRegAppTableRecord
  2
ACAD
 70
     0
  0
APPID
  5
1A
330
2F
100
AcDbSymbolTableRecord
100
AcDbRegAppTableRecord
  2
ACAD_PSEXT
 70
     0
  0
APPID
  5
2E
330
2F
100
AcDbSymbolTableRecord
100
AcDbRegAppTableRecord
  2
ACAD_NAV_VCDISPLAY
 70
     0
  0
ENDTAB
  0
TABLE
  2
DIMSTYLE
  5
30
330
0
100
AcDbSymbolTable
 70
     1
100
AcDbDimStyleTable
 71
     1
340
31
  0
DIMSTYLE
105
31
330
30
100
AcDbSymbolTableRecord
100
AcDbDimStyleTableRecord
  2
ISO-25
 70
     0
 41
2.5
 42
0.625
 43
3.75
 44
1.25
 73
     0
 74
     0
 77
     1
 78
     8
140
2.5
141
2.5
143
0.03937007874016
147
0.625
171
     3
172
     1
271
     2
272
     2
274
     3
278
    44
283
     0
284
     8
340
23
  0
ENDTAB
  0
TABLE
  2
BLOCK_RECORD
  5
1
330
0
100
AcDbSymbolTable
 70
     0
  0
BLOCK_RECORD
  5
2
102
{ACAD_XDICTIONARY
360
3
102
}
330
1
100
AcDbSymbolTableRecord
100
AcDbBlockTableRecord
  2
*Model_Space
340
17
  0
BLOCK_RECORD
  5
1B
330
1
100
AcDbSymbolTableRecord
100
AcDbBlockTableRecord
  2
*Paper_Space
340
1E
  0
ENDTAB
  0
ENDSEC
  0
SECTION
  2
BLOCKS
  0
BLOCK
  5
5
330
2
100
AcDbEntity
  8
0
100
AcDbBlockBegin
  2
*Model_Space
 70
     0
 10
0.0
 20
0.0
 30
0.0
  3
*Model_Space
  1

  0
ENDBLK
  5
16
330
2
100
AcDbEntity
  8
0
100
AcDbBlockEnd
  0
BLOCK
  5
1C
330
1B
100
AcDbEntity
 67
     1
  8
0
100
AcDbBlockBegin
  2
*Paper_Space
 70
     0
 10
0.0
 20
0.0
 30
0.0
  3
*Paper_Space
  1

  0
ENDBLK
  5
1D
330
1B
100
AcDbEntity
 67
     1
  8
0
100
AcDbBlockEnd
  0
ENDSEC
  0
SECTION
  2
ENTITIES
  0
LINE
  5
58
330
2
100
AcDbEntity
  8
0
100
AcDbLine
 10
50.65391602353478
 20
17.43336394736052
 30
0.0
 11
49.66123880705531
 21
18.2930476345855
 31
0.0
  0
LINE
  5
59
330
2
100
AcDbEntity
  8
0
100
AcDbLine
 10
32.12642389627834
 20
18.2930476345855
 30
0.0
 11
31.13374667979889
 21
17.43336394736052
 31
0.0
  0
LINE
  5
5A
330
2
100
AcDbEntity
  8
0
100
AcDbLine
 10
36.7770801249834
 20
16.49007983519812
 30
0.0
 11
36.77566073011859
 21
16.49004764283484
 31
0.0
  0
LINE
  5
5B
330
2
100
AcDbEntity
  8
0
100
AcDbLine
 10
37.81635723079476
 20
23.23650131598385
 30
0.0
 11
37.81635723079476
 21
17.67655887788038
 31
0.0
  0
SPLINE
  5
5C
330
2
100
AcDbEntity
  8
0
100
AcDbSpline
210
0.0
220
0.0
230
1.0
 70
     8
 71
     3
 72
    12
 73
     8
 74
     0
 42
0.000000001
 43
0.0000000001
 40
0.0
 40
0.0
 40
0.0
 40
0.0
 40
0.1814292812455421
 40
0.4157921650615057
 40
0.6513173281689834
 40
0.8893818971947961
 40
1.0
 40
1.0
 40
1.0
 40
1.0
 10
39.96496696317423
 20
24.30187729796678
 30
0.0
 10
39.93490817709576
 20
24.32184342257084
 30
0.0
 10
39.87883279627642
 20
24.36372293542414
 30
0.0
 10
39.76791956064373
 20
24.4015884588352
 30
0.0
 10
39.63890888777536
 20
24.41722139383483
 30
0.0
 10
39.5270278770387
 20
24.40713172566572
 30
0.0
 10
39.46026276603701
 20
24.38973121435004
 30
0.0
 10
39.4390818169701
 20
24.38421097573451
 30
0.0
  0
LINE
  5
5D
330
2
100
AcDbEntity
  8
0
100
AcDbLine
 10
40.01684397372644
 20
24.25748691131078
 30
0.0
 11
39.9796185781084
 21
24.2897250495799
 31
0.0
  0
SPLINE
  5
5E
330
2
100
AcDbEntity
  8
0
100
AcDbSpline
210
0.0
220
0.0
230
1.0
 70
     8
 71
     3
 72
    16
 73
    12
 74
     0
 42
0.000000001
 43
0.0000000001
 40
0.0
 40
0.0
 40
0.0
 40
0.0
 40
0.0698495378242813
 40
0.1990379081207496
 40
0.3285182403160729
 40
0.4581529125746114
 40
0.587925197279928
 40
0.717882895621127
 40
0.8480723407691128
 40
0.9707891010511616
 40
1.0
 40
1.0
 40
1.0
 40
1.0
 10
38.49342976101777
 20
24.11122474120266
 30
0.0
 10
38.46842050221472
 20
24.10318289920463
 30
0.0
 10
38.39715602844939
 20
24.08026748045445
 30
0.0
 10
38.28228304130019
 20
24.02156751003621
 30
0.0
 10
38.15584612423616
 20
23.92981861656617
 30
0.0
 10
38.04338542308072
 20
23.81732611691896
 30
0.0
 10
37.9493843943581
 20
23.68897282352824
 30
0.0
 10
37.87755012802143
 20
23.54952270955791
 30
0.0
 10
37.83208964411926
 20
23.40725653117456
 30
0.0
 10
37.81729385148916
 20
23.30221397942967
 30
0.0
 10
37.81650827280734
 20
23.24709831967811
 30
0.0
 10
37.81635723079437
 20
23.2365013159748
 30
0.0
  0
SPLINE
  5
5F
330
2
100
AcDbEntity
  8
0
100
AcDbSpline
210
0.0
220
0.0
230
1.0
 70
     8
 71
     3
 72
    10
 73
     6
 74
     0
 42
0.000000001
 43
0.0000000001
 40
0.0
 40
0.0
 40
0.0
 40
0.0
 40
0.2785574303014062
 40
0.638386462448938
 40
1.0
 40
1.0
 40
1.0
 40
1.0
 10
44.21931727911863
 20
22.5495059429789
 30
0.0
 10
44.19404377352215
 20
22.5685661323957
 30
0.0
 10
44.13612299282728
 20
22.61224749060695
 30
0.0
 10
44.02555419885949
 20
22.65157392048857
 30
0.0
 10
43.93900864075209
 20
22.65805826921285
 30
0.0
 10
43.89562882544718
 20
22.66130846317069
 30
0.0
  0
LINE
  5
60
330
2
100
AcDbEntity
  8
0
100
AcDbLine
 10
44.27418792667075
 20
22.5062394675478
 30
0.0
 11
44.2369625310529
 21
22.53847760581701
 31
0.0
  0
SPLINE
  5
61
330
2
100
AcDbEntity
  8
0
100
AcDbSpline
210
0.0
220
0.0
230
1.0
 70
     8
 71
     3
 72
    12
 73
     8
 74
     0
 42
0.000000001
 43
0.0000000001
 40
0.0
 40
0.0
 40
0.0
 40
0.0
 40
0.1814292812455341
 40
0.415792165061499
 40
0.6513173281689814
 40
0.8893818971947844
 40
1.0
 40
1.0
 40
1.0
 40
1.0
 10
43.40166292567128
 20
23.80358785364297
 30
0.0
 10
43.37640575067361
 20
23.8227173072628
 30
0.0
 10
43.31852239577321
 20
23.86655740232581
 30
0.0
 10
43.2076091601405
 20
23.90442292573679
 30
0.0
 10
43.07859848727233
 20
23.92005586073651
 30
0.0
 10
42.96671747653548
 20
23.9099661925673
 30
0.0
 10
42.89995236553379
 20
23.89256568125162
 30
0.0
 10
42.87877141646688
 20
23.88704544263617
 30
0.0
  0
LINE
  5
62
330
2
100
AcDbEntity
  8
0
100
AcDbLine
 10
43.45653357322205
 20
23.76032137821216
 30
0.0
 11
43.41930817760402
 21
23.79255951648127
 31
0.0
  0
LINE
  5
63
330
2
100
AcDbEntity
  8
0
100
AcDbLine
 10
36.5277865505235
 20
21.37440461022574
 30
0.0
 11
36.5277865505235
 21
16.51961335413644
 31
0.0
  0
LINE
  5
64
330
2
100
AcDbEntity
  8
0
100
AcDbLine
 10
42.87877141645801
 20
23.88704544262905
 30
0.0
 11
42.44909246552142
 21
23.76300781362982
 31
0.0
  0
SPLINE
  5
65
330
2
100
AcDbEntity
  8
0
100
AcDbSpline
210
0.0
220
0.0
230
1.0
 70
     8
 71
     3
 72
    11
 73
     7
 74
     0
 42
0.000000001
 43
0.0000000001
 40
0.0
 40
0.0
 40
0.0
 40
0.0
 40
0.1104046517395704
 40
0.5209289446612722
 40
0.9078897400403908
 40
1.0
 40
1.0
 40
1.0
 40
1.0
 10
36.61248127993279
 20
21.72392260290761
 30
0.0
 10
36.60586944751108
 20
21.71153850788378
 30
0.0
 10
36.57467243876656
 20
21.65310588344599
 30
0.0
 10
36.54467068503223
 20
21.54479534240702
 30
0.0
 10
36.52867020380894
 20
21.44013403616902
 30
0.0
 10
36.52792905087266
 20
21.38500431708644
 30
0.0
 10
36.52778655052986
 20
21.37440461021705
 30
0.0
  0
LINE
  5
66
330
2
100
AcDbEntity
  8
0
100
AcDbLine
 10
37.62577843049693
 20
22.43642675954904
 30
0.0
 11
37.62577843049693
 21
17.58968182874207
 31
0.0
  0
SPLINE
  5
67
330
2
100
AcDbEntity
  8
0
100
AcDbSpline
210
0.0
220
0.0
230
1.0
 70
     8
 71
     3
 72
    13
 73
     9
 74
     0
 42
0.000000001
 43
0.0000000001
 40
0.0
 40
0.0
 40
0.0
 40
0.0
 40
0.2867385838583293
 40
0.6571356937018638
 40
1.0
 40
1.0
 40
1.0
 40
1.049545685389709
 40
1.049545685389709
 40
1.049545685389709
 40
1.049545685389709
 10
40.9951389987482
 20
23.85420315340202
 30
0.0
 10
40.97001256791151
 20
23.87579027536068
 30
0.0
 10
40.90893719587778
 20
23.91577596031686
 30
0.0
 10
40.80160951843538
 20
23.95425938565363
 30
0.0
 10
40.7185279804237
 20
23.96062068342479
 30
0.0
 10
40.67859073826816
 20
23.96367855519271
 30
0.0
 10
40.67281959791075
 20
23.96412043365534
 30
0.0
 10
40.66704845755353
 20
23.96456231211799
 30
0.0
 10
40.66127731719611
 20
23.96500419058073
 30
0.0
  0
LINE
  5
68
330
2
100
AcDbEntity
  8
0
100
AcDbLine
 10
41.04701600928037
 20
23.80981276674603
 30
0.0
 11
41.00979061366252
 21
23.84205090501524
 31
0.0
  0
SPLINE
  5
69
330
2
100
AcDbEntity
  8
0
100
AcDbSpline
210
0.0
220
0.0
230
1.0
 70
     8
 71
     3
 72
    12
 73
     8
 74
     0
 42
0.000000001
 43
0.0000000001
 40
0.0
 40
0.0
 40
0.0
 40
0.0
 40
0.1535692531581339
 40
0.4205115435837768
 40
0.6879298583172734
 40
0.9399987505909608
 40
1.0
 40
1.0
 40
1.0
 40
1.0
 10
37.81635723079437
 20
22.96061659188246
 30
0.0
 10
37.79777470765308
 20
22.9364861808821
 30
0.0
 10
37.74689104878822
 20
22.87041099871918
 30
0.0
 10
37.68755671523614
 20
22.74905818021995
 30
0.0
 10
37.64135808543173
 20
22.60728373919549
 30
0.0
 10
37.62672207652075
 20
22.50213474287938
 30
0.0
 10
37.62593060543593
 20
22.44702300852355
 30
0.0
 10
37.62577843049943
 20
22.43642675955011
 30
0.0
  0
LINE
  5
6A
330
2
100
AcDbEntity
  8
0
100
AcDbLine
 10
43.66496490853953
 20
23.13479711605436
 30
0.0
 11
43.62439269612706
 21
23.15944091035718
 31
0.0
  0
LINE
  5
6B
330
2
100
AcDbEntity
  8
0
100
AcDbLine
 10
43.71684191907169
 20
23.09040672939838
 30
0.0
 11
43.67961652345364
 21
23.12264486766759
 31
0.0
  0
LINE
  5
6C
330
2
100
AcDbEntity
  8
0
100
AcDbLine
 10
44.19563337365385
 20
17.27641025352179
 30
0.0
 11
44.19563337365385
 21
17.53431535969531
 31
0.0
  0
LINE
  5
6D
330
2
100
AcDbEntity
  8
0
100
AcDbLine
 10
37.59202932967961
 20
17.53431535969531
 30
0.0
 11
37.59202932967961
 21
17.27641025352179
 31
0.0
  0
LINE
  5
6E
330
2
100
AcDbEntity
  8
0
100
AcDbLine
 10
45.60904812994462
 20
15.80616087259772
 30
0.0
 11
45.60904812994462
 21
15.89342026680258
 31
0.0
  0
LINE
  5
6F
330
2
100
AcDbEntity
  8
0
100
AcDbLine
 10
36.17861457338884
 20
15.89342026680258
 30
0.0
 11
36.17861457338884
 21
15.80616087259772
 31
0.0
  0
LINE
  5
70
330
2
100
AcDbEntity
  8
0
100
AcDbLine
 10
35.34193513661735
 20
12.9762451469397
 30
0.0
 11
35.35234359333063
 21
12.87334631437891
 31
0.0
  0
LINE
  5
71
330
2
100
AcDbEntity
  8
0
100
AcDbLine
 10
46.43531911000284
 20
12.87334631437891
 30
0.0
 11
46.4457275667161
 21
12.9762451469397
 31
0.0
  0
SPLINE
  5
72
330
2
100
AcDbEntity
  8
0
100
AcDbSpline
210
0.0
220
0.0
230
1.0
 70
     8
 71
     3
 72
     9
 73
     5
 74
     0
 42
0.000000001
 43
0.0000000001
 40
0.0
 40
0.0
 40
0.0
 40
0.0
 40
0.2348382332724162
 40
0.9921728383733604
 40
0.9921728383733604
 40
0.9921728383733604
 40
0.9921728383733604
 10
37.50254307625424
 20
17.18985932316577
 30
0.0
 10
37.49485304897609
 20
17.13928016060062
 30
0.0
 10
37.46236329598585
 20
16.92558722574291
 30
0.0
 10
37.43067477210712
 20
16.71161133936984
 30
0.0
 10
37.40649140729483
 20
16.54827990118355
 30
0.0
  0
SPLINE
  5
73
330
2
100
AcDbEntity
  8
0
100
AcDbSpline
210
0.0
220
0.0
230
1.0
 70
     8
 71
     3
 72
     9
 73
     5
 74
     0
 42
0.000000001
 43
0.0000000001
 40
0.0
 40
0.0
 40
0.0
 40
0.0
 40
0.2507808920842258
 40
1.0
 40
1.0
 40
1.0
 40
1.0
 10
44.37278425211573
 20
16.60525281238425
 30
0.0
 10
44.36555214573345
 20
16.65415533559892
 30
0.0
 10
44.33671379875214
 20
16.84915632952762
 30
0.0
 10
44.30721065912603
 20
17.04392331293731
 30
0.0
 10
44.28510634317481
 20
17.1898464584989
 30
0.0
  0
LINE
  5
74
330
2
100
AcDbEntity
  8
0
100
AcDbLine
 10
44.37389536995911
 20
16.54652827502039
 30
0.0
 11
44.37227715209238
 21
16.60436391547795
 31
0.0
  0
LINE
  5
75
330
2
100
AcDbEntity
  8
0
100
AcDbLine
 10
36.69376421019076
 20
15.8047734777353
 30
0.0
 11
36.57053634085416
 21
15.84034629948393
 31
0.0
  0
LINE
  5
76
330
2
100
AcDbEntity
  8
0
100
AcDbLine
 10
45.21708853877732
 20
15.84033538072935
 30
0.0
 11
45.09389849314271
 21
15.8047734777353
 31
0.0
  0
LINE
  5
77
330
2
100
AcDbEntity
  8
0
100
AcDbLine
 10
36.73672038780328
 20
16.24707189338914
 30
0.0
 11
36.49585880022371
 21
16.31660264460738
 31
0.0
  0
LINE
  5
78
330
2
100
AcDbEntity
  8
0
100
AcDbLine
 10
45.29180390310994
 20
16.31660264460738
 30
0.0
 11
45.05094231551033
 21
16.24707189338914
 31
0.0
  0
LWPOLYLINE
  5
79
330
2
100
AcDbEntity
  8
0
100
AcDbPolyline
 90
        9
 70
   128
 43
0.0
 10
31.72965443737413
 20
17.50801848374884
 10
31.72887338470509
 20
17.50508608555038
 10
31.73237805718934
 20
17.44160511376568
 10
31.77097229804677
 20
17.37548031749138
 10
31.83878048398822
 20
17.31677859753106
 10
31.92547943336375
 20
17.27443675860362
 10
32.01787001705838
 20
17.25490096187278
 10
32.10188660625464
 20
17.26114535527749
 10
32.16473843684942
 20
17.29221928653159
  0
LINE
  5
7A
330
2
100
AcDbEntity
  8
0
100
AcDbLine
 10
34.11091873956055
 20
15.79313887863205
 30
0.0
 11
33.5017796928884
 21
16.19149962109228
 31
0.0
  0
ARC
  5
7B
330
2
100
AcDbEntity
  8
0
100
AcDbCircle
 10
33.07016755751814
 20
15.52778508181651
 30
0.0
 40
0.7917108216105408
100
AcDbArc
 50
56.96413735999765
 51
75.62988647089698
  0
LINE
  5
7C
330
2
100
AcDbEntity
  8
0
100
AcDbLine
 10
33.26665800978849
 20
16.29472544927105
 30
0.0
 11
33.23811329409127
 21
16.30202850928158
 31
0.0
  0
ARC
  5
7D
330
2
100
AcDbEntity
  8
0
100
AcDbCircle
 10
34.02407510315279
 20
19.36978997907987
 30
0.0
 40
3.166843286441801
100
AcDbArc
 50
236.9641373599975
 51
255.629886470897
  0
LINE
  5
7E
330
2
100
AcDbEntity
  8
0
100
AcDbLine
 10
32.29762656163208
 20
16.71493182197693
 30
0.0
 11
31.41515984623018
 21
17.29204159332863
 31
0.0
  0
LINE
  5
7F
330
2
100
AcDbEntity
  8
0
100
AcDbLine
 10
35.13969499014423
 20
15.39905362819272
 30
0.0
 11
34.15472787538892
 21
15.77072612816014
 31
0.0
  0
ARC
  5
80
330
2
100
AcDbEntity
  8
0
100
AcDbCircle
 10
34.23523675496523
 20
15.98211519112554
 30
0.0
 40
0.2262012723959959
100
AcDbArc
 50
236.6610925818021
 51
249.1503439897935
  0
ARC
  5
81
330
2
100
AcDbEntity
  8
0
100
AcDbCircle
 10
34.25934792858548
 20
13.15519351465884
 30
0.0
 40
2.410377389097026
100
AcDbArc
 50
36.76938027300284
 51
68.57813619360058
  0
LWPOLYLINE
  5
82
330
2
100
AcDbEntity
  8
0
100
AcDbPolyline
 90
       17
 70
   128
 43
0.0
 10
40.5463943258989
 20
10.13623068472425
 10
40.45142404478194
 20
10.13297214752876
 10
40.37091212807012
 20
10.12369261873764
 10
40.31711578523274
 20
10.10980482244454
 10
40.29822502177899
 20
10.09342304976207
 10
40.31711578523274
 20
10.07704127709937
 10
40.37091212807012
 20
10.06315348080625
 10
40.45142404478194
 20
10.05387395199529
 10
40.5463943258989
 20
10.05061541481966
 10
40.64136460701585
 20
10.05387395199529
 10
40.72187652372766
 20
10.06315348080625
 10
40.77567286656505
 20
10.07704127709937
 10
40.79456363001881
 20
10.09342304976207
 10
40.77567286656505
 20
10.10980482244454
 10
40.72187652372766
 20
10.12369261873764
 10
40.64136460701585
 20
10.13297214752876
 10
40.5463943258989
 20
10.13623068472425
  0
LINE
  5
83
330
2
100
AcDbEntity
  8
0
100
AcDbLine
 10
39.9011541351871
 20
10.13008378490868
 30
0.0
 11
39.9011541351871
 21
9.910206372180743
 31
0.0
  0
LWPOLYLINE
  5
84
330
2
100
AcDbEntity
  8
0
100
AcDbPolyline
 90
        8
 70
   128
 43
0.0
 10
40.07357678291211
 20
10.26967695509727
 10
40.05228024275734
 20
10.26113796628908
 10
40.00651663784104
 20
10.24016429122247
 10
39.96880344701171
 20
10.21871923450496
 10
39.93930216392305
 20
10.19689462719724
 10
39.91813911759079
 20
10.17478392561031
 10
39.90540493142403
 20
10.15248181113847
 10
39.9011541351871
 20
10.13008378490868
  0
LWPOLYLINE
  5
85
330
2
100
AcDbEntity
  8
0
100
AcDbPolyline
 90
        8
 70
   128
 43
0.0
 10
41.88650856814637
 20
10.13008378490868
 10
41.88225777190961
 20
10.15248181113847
 10
41.86952358574266
 20
10.17478392561031
 10
41.8483605394104
 20
10.19689462719724
 10
41.81885925632173
 20
10.21871923450496
 10
41.78114606547275
 20
10.24016429122247
 10
41.73538246057612
 20
10.26113796628908
 10
41.71408592042135
 20
10.26967695509727
  0
LINE
  5
86
330
2
100
AcDbEntity
  8
0
100
AcDbLine
 10
41.88650856814637
 20
10.13008378490868
 30
0.0
 11
41.88650856814637
 21
9.910206372180743
 31
0.0
  0
ARC
  5
87
330
2
100
AcDbEntity
  8
0
100
AcDbCircle
 10
41.40459174330245
 20
9.765159399097651
 30
0.0
 40
0.4821609341404758
100
AcDbArc
 50
268.285986020705
 51
358.1767252638905
  0
LINE
  5
88
330
2
100
AcDbEntity
  8
0
100
AcDbLine
 10
41.39016995990655
 20
9.283214196212886
 30
0.0
 11
40.39749274342692
 21
9.283214196212886
 31
0.0
  0
ARC
  5
89
330
2
100
AcDbEntity
  8
0
100
AcDbCircle
 10
40.38307096001136
 20
9.765159399097651
 30
0.0
 40
0.4821609341404876
100
AcDbArc
 50
181.8232747361029
 51
271.714013979295
  0
LINE
  5
8A
330
2
100
AcDbEntity
  8
0
100
AcDbLine
 10
39.9011541351871
 20
9.778584418027847
 30
0.0
 11
39.9011541351871
 21
9.749818592275868
 31
0.0
  0
LINE
  5
8B
330
2
100
AcDbEntity
  8
0
100
AcDbLine
 10
41.88650856814637
 20
9.778584418027847
 30
0.0
 11
41.88650856814637
 21
9.749818592275868
 31
0.0
  0
LINE
  5
8C
330
2
100
AcDbEntity
  8
0
100
AcDbLine
 10
39.9011541351871
 20
9.910206372180743
 30
0.0
 11
39.9011541351871
 21
9.778584418027847
 31
0.0
  0
LINE
  5
8D
330
2
100
AcDbEntity
  8
0
100
AcDbLine
 10
41.88650856814637
 20
9.910206372180743
 30
0.0
 11
41.88650856814637
 21
9.778584418027847
 31
0.0
  0
LINE
  5
8E
330
2
100
AcDbEntity
  8
0
100
AcDbLine
 10
49.49003614170159
 20
16.71493182197693
 30
0.0
 11
50.37250285710328
 21
17.29204159332863
 31
0.0
  0
ARC
  5
8F
330
2
100
AcDbEntity
  8
0
100
AcDbCircle
 10
47.76358760018086
 20
19.36978997907987
 30
0.0
 40
3.166843286441789
100
AcDbArc
 50
284.3701135291031
 51
303.0358626400023
  0
LINE
  5
90
330
2
100
AcDbEntity
  8
0
100
AcDbLine
 10
48.5495494092422
 20
16.30202850928158
 30
0.0
 11
48.52100469354517
 21
16.29472544927105
 31
0.0
  0
ARC
  5
91
330
2
100
AcDbEntity
  8
0
100
AcDbCircle
 10
48.71749514581532
 20
15.52778508181651
 30
0.0
 40
0.7917108216097726
100
AcDbArc
 50
104.370113529103
 51
123.0358626401072
  0
LINE
  5
92
330
2
100
AcDbEntity
  8
0
100
AcDbLine
 10
48.28588301042522
 20
16.19149962109228
 30
0.0
 11
47.67674396377293
 21
15.79313887863205
 31
0.0
  0
LINE
  5
93
330
2
100
AcDbEntity
  8
0
100
AcDbLine
 10
47.63293482794455
 20
15.77072612816014
 30
0.0
 11
46.64796771318925
 21
15.39905362819272
 31
0.0
  0
ARC
  5
94
330
2
100
AcDbEntity
  8
0
100
AcDbCircle
 10
47.55242594836823
 20
15.98211519112554
 30
0.0
 40
0.2262012723940438
100
AcDbArc
 50
290.849656010095
 51
303.3389074183062
  0
ARC
  5
95
330
2
100
AcDbEntity
  8
0
100
AcDbCircle
 10
47.54584019526656
 20
13.13220995668094
 30
0.0
 40
2.438186872477823
100
AcDbArc
 50
111.6079876272003
 51
143.0444959061928
  0
POLYLINE
  5
96
330
2
100
AcDbEntity
  8
0
100
AcDb2dPolyline
 66
     1
 10
0.0
 20
0.0
 30
0.0
 70
   130
  0
VERTEX
  5
97
330
96
100
AcDbEntity
  8
0
100
AcDbVertex
100
AcDb2dVertex
 10
32.16473843684942
 20
17.29221928653159
 30
0.0
 42
0.075071374527922
  0
VERTEX
  5
98
330
96
100
AcDbEntity
  8
0
100
AcDbVertex
100
AcDb2dVertex
 10
32.18804239254722
 20
17.31931189014754
 30
0.0
 42
0.105186043889383
 70
     1
  0
VERTEX
  5
99
330
96
100
AcDbEntity
  8
0
100
AcDbVertex
100
AcDb2dVertex
 10
32.1968568873714
 20
17.34339203131294
 30
0.0
 42
0.0491521541477638
  0
VERTEX
  5
9A
330
96
100
AcDbEntity
  8
0
100
AcDbVertex
100
AcDb2dVertex
 10
32.19848427755521
 20
17.38115079625
 30
0.0
 42
0.0710092569925158
 70
     1
  0
VERTEX
  5
9B
330
96
100
AcDbEntity
  8
0
100
AcDbVertex
100
AcDb2dVertex
 10
32.19335221488734
 20
17.40687300309774
 30
0.0
 42
0.04743629529788
  0
VERTEX
  5
9C
330
96
100
AcDbEntity
  8
0
100
AcDbVertex
100
AcDb2dVertex
 10
32.17682300327343
 20
17.44258234220812
 30
0.0
 42
0.0496856510164225
 70
     1
  0
VERTEX
  5
9D
330
96
100
AcDbEntity
  8
0
100
AcDbVertex
100
AcDb2dVertex
 10
32.15475797402991
 20
17.47299779937194
 30
0.0
 42
0.03260174139668
  0
VERTEX
  5
9E
330
96
100
AcDbEntity
  8
0
100
AcDbVertex
100
AcDb2dVertex
 10
32.12125950342845
 20
17.50605183232856
 30
0.0
 42
0.0358246697656824
 70
     1
  0
VERTEX
  5
9F
330
96
100
AcDbEntity
  8
0
100
AcDbVertex
100
AcDb2dVertex
 10
32.08694978810812
 20
17.53169951933236
 30
0.0
 42
0.0290070761675503
  0
VERTEX
  5
A0
330
96
100
AcDbEntity
  8
0
100
AcDbVertex
100
AcDb2dVertex
 10
32.04427223163768
 20
17.55570087493959
 30
0.0
 42
0.0297836438693674
 70
     1
  0
VERTEX
  5
A1
330
96
100
AcDbEntity
  8
0
100
AcDbVertex
100
AcDb2dVertex
 10
32.00025083871274
 20
17.57404135825989
 30
0.0
 42
0.0317178157955908
  0
VERTEX
  5
A2
330
96
100
AcDbEntity
  8
0
100
AcDbVertex
100
AcDb2dVertex
 10
31.96255126868992
 20
17.5845478269427
 30
0.0
 42
0.0223824385526792
 70
     1
  0
VERTEX
  5
A3
330
96
100
AcDbEntity
  8
0
100
AcDbVertex
100
AcDb2dVertex
 10
31.90786025501811
 20
17.59357715499065
 30
0.0
 42
0.0483001780707695
  0
VERTEX
  5
A4
330
96
100
AcDbEntity
  8
0
100
AcDbVertex
100
AcDb2dVertex
 10
31.87970963217028
 20
17.59420609959172
 30
0.0
 42
0.0241199305555704
 70
     1
  0
VERTEX
  5
A5
330
96
100
AcDbEntity
  8
0
100
AcDbVertex
100
AcDb2dVertex
 10
31.82384366582205
 20
17.58733276158594
 30
0.0
 42
0.133084075532954
  0
VERTEX
  5
A6
330
96
100
AcDbEntity
  8
0
100
AcDbVertex
100
AcDb2dVertex
 10
31.77632357836729
 20
17.56523571723455
 30
0.0
 42
0.0936280817571718
 70
     1
  0
VERTEX
  5
A7
330
96
100
AcDbEntity
  8
0
100
AcDbVertex
100
AcDb2dVertex
 10
31.72965443737413
 20
17.50801848374884
 30
0.0
  0
SEQEND
  5
A8
330
96
100
AcDbEntity
  8
0
  0
LWPOLYLINE
  5
A9
330
2
100
AcDbEntity
  8
0
100
AcDbPolyline
 90
       17
 70
   128
 43
0.0
 10
49.15457820863574
 20
16.98593341575122
 10
49.21743003921086
 20
16.95485948449712
 10
49.30144662840692
 20
16.94861509107255
 10
49.3938372121214
 20
16.96815088782316
 10
49.48053616149675
 20
17.01049272675069
 10
49.54834434741872
 20
17.06919444671101
 10
49.58693858827595
 20
17.13531924298531
 10
49.59044326076003
 20
17.19880021477012
 10
49.55832481023804
 20
17.24997295953151
 10
49.49547297964307
 20
17.28104689080556
 10
49.411456390447
 20
17.28729128421028
 10
49.31906580675237
 20
17.26775548747943
 10
49.23236685737683
 20
17.225413648552
 10
49.16455867143539
 20
17.16671192859157
 10
49.12596443057796
 20
17.10058713231737
 10
49.12245975811376
 20
17.03710616053258
 10
49.15457820863574
 20
16.98593341575122
  0
LWPOLYLINE
  5
AA
330
2
100
AcDbEntity
  8
0
100
AcDbPolyline
 90
       17
 70
   128
 43
0.0
 10
49.29163710478277
 20
17.60367015881739
 10
49.35448893537756
 20
17.57259622756319
 10
49.43850552457361
 20
17.56635183413862
 10
49.53089610826824
 20
17.58588763088923
 10
49.61759505764379
 20
17.62822946981676
 10
49.68540324358541
 20
17.68693118977707
 10
49.72399748444284
 20
17.75305598605147
 10
49.72750215690705
 20
17.81653695783617
 10
49.69538370638507
 20
17.86770970259768
 10
49.63253187581013
 20
17.89878363387163
 10
49.54851528661408
 20
17.90502802727635
 10
49.4561247028994
 20
17.88549223054549
 10
49.36942575352386
 20
17.84315039161806
 10
49.30161756760227
 20
17.78444867165773
 10
49.26302332674485
 20
17.71832387536359
 10
49.25951865426078
 20
17.65484290359864
 10
49.29163710478277
 20
17.60367015881739
  0
LWPOLYLINE
  5
AB
330
2
100
AcDbEntity
  8
0
100
AcDbPolyline
 90
       17
 70
   128
 43
0.0
 10
48.32264526093318
 20
16.96997525375646
 10
48.38549709152815
 20
16.93890132248251
 10
48.46951368070417
 20
16.93265692907779
 10
48.56190426441885
 20
16.95219272580865
 10
48.64860321379438
 20
16.99453456473608
 10
48.71641139973583
 20
17.0532362846964
 10
48.75500564059326
 20
17.11936108099056
 10
48.75851031305765
 20
17.18284205275541
 10
48.72639186253548
 20
17.23401479753676
 10
48.66354003196036
 20
17.26508872879087
 10
48.57952344276429
 20
17.27133312221543
 10
48.48713285905001
 20
17.25179732546482
 10
48.40043390967447
 20
17.20945548653729
 10
48.3326257237525
 20
17.15075376657696
 10
48.29403148289526
 20
17.08462897030267
 10
48.2905268104112
 20
17.02114799853782
 10
48.32264526093318
 20
16.96997525375646
  0
ARC
  5
AC
330
2
100
AcDbEntity
  8
0
100
AcDbCircle
 10
50.88398361981376
 20
18.44530761704481
 30
0.0
 40
1.210744804514528
100
AcDbArc
 50
190.9690890527989
 51
224.3814861081985
  0
LINE
  5
AD
330
2
100
AcDbEntity
  8
0
100
AcDbLine
 10
49.69072697812852
 20
18.23968209543451
 30
0.0
 11
49.69535914512873
 21
18.21492784397239
 31
0.0
  0
LINE
  5
AE
330
2
100
AcDbEntity
  8
0
100
AcDbLine
 10
50.68340419460816
 20
17.37999840820964
 30
0.0
 11
50.68803636160819
 21
17.35524415674742
 31
0.0
  0
LWPOLYLINE
  5
AF
330
2
100
AcDbEntity
  8
0
100
AcDbPolyline
 90
        9
 70
   128
 43
0.0
 10
50.51500446189476
 20
17.16863158349701
 10
50.5619761472009
 20
17.13441794518099
 10
50.60425524865038
 20
17.11694982481054
 10
50.64021700413199
 20
17.11689851249143
 10
50.66847942349318
 20
17.13426598009735
 10
50.68795639784509
 20
17.16838480560864
 10
50.69789943798414
 20
17.21794382168754
 10
50.69792643844714
 20
17.28103850313962
 10
50.68803636160819
 20
17.35524415674742
  0
LINE
  5
B0
330
2
100
AcDbEntity
  8
0
100
AcDbLine
 10
50.01866585365495
 20
17.59847342711937
 30
0.0
 11
50.51500446189476
 21
17.16863158349701
 31
0.0
  0
LWPOLYLINE
  5
B1
330
2
100
AcDbEntity
  8
0
100
AcDbPolyline
 90
        9
 70
   128
 43
0.0
 10
49.51951345775032
 20
18.28883976856101
 10
49.54677830125156
 20
18.30341599873354
 10
49.57484820526069
 20
18.31216448940794
 10
49.60239243220537
 20
18.31467049228029
 10
49.62810516571506
 20
18.31081520274883
 10
49.65076741694928
 20
18.30078139238359
 10
49.66930481417573
 20
18.28504474388764
 10
49.68283853674081
 20
18.26435130007036
 10
49.69072697812852
 20
18.23968209543451
  0
LINE
  5
B2
330
2
100
AcDbEntity
  8
0
100
AcDbLine
 10
48.49875999536459
 20
17.62129414104559
 30
0.0
 11
49.51951345775032
 21
18.28883976856101
 31
0.0
  0
ARC
  5
B3
330
2
100
AcDbEntity
  8
0
100
AcDbCircle
 10
50.59366434300696
 20
17.36524080230995
 30
0.0
 40
0.0909451917222842
100
AcDbArc
 50
9.338634848297322
 51
48.50877017650444
  0
ARC
  5
B4
330
2
100
AcDbEntity
  8
0
100
AcDbCircle
 10
49.76602850767616
 20
15.61721210798896
 30
0.0
 40
2.371141977508965
100
AcDbArc
 50
122.3069534489003
 51
144.9765156397057
  0
ARC
  5
B5
330
2
100
AcDbEntity
  8
0
100
AcDbCircle
 10
46.92518182635648
 20
13.66518460688402
 30
0.0
 40
2.511431389099235
100
AcDbArc
 50
111.6424862234975
 51
145.9342958115957
  0
LINE
  5
B6
330
2
100
AcDbEntity
  8
0
100
AcDbLine
 10
45.99893101250084
 20
15.99956826258875
 30
0.0
 11
46.983898127276
 21
16.37124076255618
 31
0.0
  0
ARC
  5
B7
330
2
100
AcDbEntity
  8
0
100
AcDbCircle
 10
46.92351646757901
 20
16.52978255979015
 30
0.0
 40
0.1696509542996532
100
AcDbArc
 50
290.8496560102064
 51
303.3389074181039
  0
LINE
  5
B8
330
2
100
AcDbEntity
  8
0
100
AcDbLine
 10
47.0167549791374
 20
16.38805032541502
 30
0.0
 11
47.64204388985624
 21
16.79697264963517
 31
0.0
  0
ARC
  5
B9
330
2
100
AcDbEntity
  8
0
100
AcDbCircle
 10
47.32522676177826
 20
17.29799315790435
 30
0.0
 40
0.5927854943767569
100
AcDbArc
 50
302.3069534489002
 51
324.9765156397057
  0
LINE
  5
BA
330
2
100
AcDbEntity
  8
0
100
AcDbLine
 10
47.81066880835864
 20
16.95778636523668
 30
0.0
 11
47.82426032141454
 21
16.97803927861976
 31
0.0
  0
LWPOLYLINE
  5
BB
330
2
100
AcDbEntity
  8
0
100
AcDbPolyline
 90
       17
 70
   128
 43
0.0
 10
32.98052152046557
 20
17.28682270629686
 10
33.01263997098774
 20
17.33799545105826
 10
33.00913529852334
 20
17.40147642284305
 10
32.9705410576661
 20
17.46760121911735
 10
32.90273287172446
 20
17.52630293907768
 10
32.81603392234893
 20
17.5686447780052
 10
32.72364333863445
 20
17.58818057473596
 10
32.63962674945823
 20
17.58193618133124
 10
32.57677491886326
 20
17.55086225005729
 10
32.54465646834127
 20
17.49968950529579
 10
32.54816114082534
 20
17.43620853351099
 10
32.58675538168276
 20
17.3700837372367
 10
32.65456356760456
 20
17.31138201727637
 10
32.74126251697989
 20
17.26904017834894
 10
32.83365310069457
 20
17.24950438161808
 10
32.91766968989063
 20
17.2557487750228
 10
32.98052152046557
 20
17.28682270629686
  0
LWPOLYLINE
  5
BC
330
2
100
AcDbEntity
  8
0
100
AcDbPolyline
 90
       17
 70
   128
 43
0.0
 10
33.11758041663264
 20
16.66908596323068
 10
33.14969886715462
 20
16.7202587079922
 10
33.14619419467037
 20
16.78373967977689
 10
33.10759995381294
 20
16.84986447605129
 10
33.03979176789134
 20
16.90856619601161
 10
32.95309281851582
 20
16.95090803493904
 10
32.86070223480133
 20
16.97044383168974
 10
32.77668564560527
 20
16.96419943826518
 10
32.71383381503015
 20
16.93312550701098
 10
32.68171536450816
 20
16.88195276222972
 10
32.68522003697237
 20
16.81847179044492
 10
32.7238142778298
 20
16.75234699417063
 10
32.79162246377144
 20
16.6936452742103
 10
32.87832141314697
 20
16.65130343528287
 10
32.9707119968416
 20
16.63176763855202
 10
33.05472858603766
 20
16.63801203195674
 10
33.11758041663264
 20
16.66908596323068
  0
ARC
  5
BD
330
2
100
AcDbEntity
  8
0
100
AcDbCircle
 10
30.90367908351971
 20
18.44530761704481
 30
0.0
 40
1.210744804514837
100
AcDbArc
 50
315.6185138918015
 51
349.0309109472012
  0
LWPOLYLINE
  5
BE
330
2
100
AcDbEntity
  8
0
100
AcDbPolyline
 90
        9
 70
   128
 43
0.0
 10
31.09962634172529
 20
17.35524415674742
 10
31.08973626488633
 20
17.28103850313962
 10
31.08976326534932
 20
17.21794382168754
 10
31.09970630548837
 20
17.16838480560864
 10
31.11918327984028
 20
17.13426598009735
 10
31.14744569920167
 20
17.11689851249143
 10
31.18340745466323
 20
17.11694982481054
 10
31.22568655613255
 20
17.13441794518099
 10
31.27265824143889
 20
17.16863158349701
  0
LINE
  5
BF
330
2
100
AcDbEntity
  8
0
100
AcDbLine
 10
31.10425850870546
 20
17.37999840820964
 30
0.0
 11
31.09962634172529
 21
17.35524415674742
 31
0.0
  0
LINE
  5
C0
330
2
100
AcDbEntity
  8
0
100
AcDbLine
 10
32.09693572518509
 20
18.23968209543451
 30
0.0
 11
32.09230355820493
 21
18.21492784397239
 31
0.0
  0
LINE
  5
C1
330
2
100
AcDbEntity
  8
0
100
AcDbLine
 10
31.27265824143889
 20
17.16863158349701
 30
0.0
 11
31.76899684967871
 21
17.59847342711937
 31
0.0
  0
LWPOLYLINE
  5
C2
330
2
100
AcDbEntity
  8
0
100
AcDbPolyline
 90
        9
 70
   128
 43
0.0
 10
32.26814924558314
 20
18.28883976856101
 10
32.24088440208191
 20
18.30341599873354
 10
32.21281449807297
 20
18.31216448940794
 10
32.18527027112829
 20
18.31467049228029
 10
32.15955753759875
 20
18.31081520274883
 10
32.13689528638437
 20
18.30078139238359
 10
32.11835788915774
 20
18.28504474388764
 10
32.10482416659286
 20
18.26435130007036
 10
32.09693572518509
 20
18.23968209543451
  0
LINE
  5
C3
330
2
100
AcDbEntity
  8
0
100
AcDbLine
 10
33.28890270796888
 20
17.62129414104559
 30
0.0
 11
32.26814924558314
 21
18.28883976856101
 31
0.0
  0
ARC
  5
C4
330
2
100
AcDbEntity
  8
0
100
AcDbCircle
 10
31.19399836032651
 20
17.36524080230995
 30
0.0
 40
0.0909451917224548
100
AcDbArc
 50
131.4912298234955
 51
170.6613651515892
  0
ARC
  5
C5
330
2
100
AcDbEntity
  8
0
100
AcDbCircle
 10
32.0216341956573
 20
15.61721210798896
 30
0.0
 40
2.37114197750956
100
AcDbArc
 50
35.02348436040129
 51
57.69304655109976
  0
ARC
  5
C6
330
2
100
AcDbEntity
  8
0
100
AcDbCircle
 10
34.86414623575464
 20
16.52978255979015
 30
0.0
 40
0.1696509542972504
100
AcDbArc
 50
236.6610925818021
 51
249.1503439897935
  0
LINE
  5
C7
330
2
100
AcDbEntity
  8
0
100
AcDbLine
 10
34.80376457605747
 20
16.37124076255618
 30
0.0
 11
35.78873169083263
 21
15.99956826258875
 31
0.0
  0
ARC
  5
C8
330
2
100
AcDbEntity
  8
0
100
AcDbCircle
 10
34.86248087697698
 20
13.66518460688402
 30
0.0
 40
2.511431389099332
100
AcDbArc
 50
34.06570418840433
 51
68.35751377650241
  0
LINE
  5
C9
330
2
100
AcDbEntity
  8
0
100
AcDbLine
 10
34.14561881345736
 20
16.79697264963517
 30
0.0
 11
34.77090772419606
 21
16.38805032541502
 31
0.0
  0
ARC
  5
CA
330
2
100
AcDbEntity
  8
0
100
AcDbCircle
 10
34.46243594153536
 20
17.29799315790435
 30
0.0
 40
0.5927854943773316
100
AcDbArc
 50
215.0234843604009
 51
237.6930465510997
  0
LINE
  5
CB
330
2
100
AcDbEntity
  8
0
100
AcDbLine
 10
33.96340238191892
 20
16.97803927861976
 30
0.0
 11
33.97699389497481
 21
16.95778636523668
 31
0.0
  0
LINE
  5
CC
330
2
100
AcDbEntity
  8
0
100
AcDbLine
 10
33.13232921055637
 20
16.70520301331455
 30
0.0
 11
33.15096811522256
 21
16.72610426416035
 31
0.0
  0
LWPOLYLINE
  5
CD
330
2
100
AcDbEntity
  8
0
100
AcDbPolyline
 90
       17
 70
   128
 43
0.0
 10
41.24126837743456
 20
10.03006775003939
 10
41.14629809631781
 20
10.02680921286375
 10
41.0657861796058
 20
10.0175296840527
 10
41.0119898367684
 20
10.00364188775959
 10
40.99309907331466
 20
9.987260115096974
 10
41.0119898367684
 20
9.970878342414517
 10
41.0657861796058
 20
9.956990546141259
 10
41.14629809631781
 20
9.947711017330203
 10
41.24126837743456
 20
9.944452480134714
 10
41.33623865855152
 20
9.947711017330203
 10
41.41675057526351
 20
9.956990546141259
 10
41.47054691810072
 20
9.970878342414517
 10
41.48943768155447
 20
9.987260115096974
 10
41.47054691810072
 20
10.00364188775959
 10
41.41675057526351
 20
10.0175296840527
 10
41.33623865855152
 20
10.02680921286375
 10
41.24126837743456
 20
10.03006775003939
  0
LWPOLYLINE
  5
CE
330
2
100
AcDbEntity
  8
0
100
AcDbPolyline
 90
       17
 70
   128
 43
0.0
 10
41.24126837743456
 20
10.23554439780253
 10
41.14629809631781
 20
10.2322858606269
 10
41.0657861796058
 20
10.22300633181584
 10
41.0119898367684
 20
10.20911853552273
 10
40.99309907331466
 20
10.19273676286012
 10
41.0119898367684
 20
10.17635499017766
 10
41.0657861796058
 20
10.1624671939044
 10
41.14629809631781
 20
10.15318766509343
 10
41.24126837743456
 20
10.14992912789795
 10
41.33623865855152
 20
10.15318766509343
 10
41.41675057526351
 20
10.1624671939044
 10
41.47054691810072
 20
10.17635499017766
 10
41.48943768155447
 20
10.19273676286012
 10
41.47054691810072
 20
10.20911853552273
 10
41.41675057526351
 20
10.22300633181584
 10
41.33623865855152
 20
10.2322858606269
 10
41.24126837743456
 20
10.23554439780253
  0
LWPOLYLINE
  5
CF
330
2
100
AcDbEntity
  8
0
100
AcDbPolyline
 90
        9
 70
   128
 43
0.0
 10
49.51951345775032
 20
18.28883976856101
 10
49.54677830125156
 20
18.30341599873354
 10
49.57484820526069
 20
18.31216448940794
 10
49.60239243220537
 20
18.31467049228029
 10
49.62810516571506
 20
18.31081520274883
 10
49.65076741694928
 20
18.30078139238359
 10
49.66930481417573
 20
18.28504474388764
 10
49.68283853674081
 20
18.26435130007036
 10
49.69072697812852
 20
18.23968209543451
  0
LINE
  5
D0
330
2
100
AcDbEntity
  8
0
100
AcDbLine
 10
40.18470309663144
 20
23.85570760100951
 30
0.0
 11
40.18470309663144
 21
18.22272694056659
 31
0.0
  0
LINE
  5
D1
330
2
100
AcDbEntity
  8
0
100
AcDbLine
 10
40.74041136772887
 20
18.24868887520139
 30
0.0
 11
40.74041136772887
 21
23.67225328609184
 31
0.0
  0
ARC
  5
D2
330
2
100
AcDbEntity
  8
0
100
AcDbCircle
 10
40.24091691987389
 20
23.69430488707223
 30
0.0
 40
0.4999809761949713
100
AcDbArc
 50
357.4721565206041
 51
107.1778750530078
  0
LINE
  5
D3
330
2
100
AcDbEntity
  8
0
100
AcDbLine
 10
39.96496696317423
 20
24.30187729796678
 30
0.0
 11
39.9796185781084
 21
24.2897250495799
 31
0.0
  0
ARC
  5
D4
330
2
100
AcDbEntity
  8
0
100
AcDbCircle
 10
39.66845923766986
 20
23.87598094033446
 30
0.0
 40
0.5166417813159411
100
AcDbArc
 50
357.7511011825993
 51
47.5982054288021
  0
LINE
  5
D5
330
2
100
AcDbEntity
  8
0
100
AcDbLine
 10
44.44204704957594
 20
22.10446015724653
 30
0.0
 11
44.44204704957594
 21
16.84091806106538
 31
0.0
  0
LINE
  5
D6
330
2
100
AcDbEntity
  8
0
100
AcDbLine
 10
45.21267624249444
 20
16.51077319525833
 30
0.0
 11
45.21267624249444
 21
21.98304816835893
 31
0.0
  0
ARC
  5
D7
330
2
100
AcDbEntity
  8
0
100
AcDbCircle
 10
44.7087974013815
 20
22.00271399047814
 30
0.0
 40
0.5042624624994555
100
AcDbArc
 50
357.7649448217018
 51
111.3846782332897
  0
LINE
  5
D8
330
2
100
AcDbEntity
  8
0
100
AcDbLine
 10
44.52492929269866
 20
22.47225967483901
 30
0.0
 11
44.34990642966772
 21
22.42173492629752
 31
0.0
  0
LINE
  5
D9
330
2
100
AcDbEntity
  8
0
100
AcDbLine
 10
44.21931727911863
 20
22.5495059429789
 30
0.0
 11
44.2369625310529
 21
22.53847760581701
 31
0.0
  0
ARC
  5
DA
330
2
100
AcDbEntity
  8
0
100
AcDbCircle
 10
43.92580319061437
 20
22.12473349659132
 30
0.0
 40
0.5166417813162119
100
AcDbArc
 50
357.7511011825993
 51
47.5982054287001
  0
LINE
  5
DB
330
2
100
AcDbEntity
  8
0
100
AcDbLine
 10
43.62439269612706
 20
23.35854206791089
 30
0.0
 11
43.62439269612706
 21
17.81265568012728
 31
0.0
  0
LINE
  5
DC
330
2
100
AcDbEntity
  8
0
100
AcDbLine
 10
43.40166292567128
 20
23.80358785364297
 30
0.0
 11
43.41930817760402
 21
23.79255951648127
 31
0.0
  0
ARC
  5
DD
330
2
100
AcDbEntity
  8
0
100
AcDbCircle
 10
43.10814883716568
 20
23.37881540725559
 30
0.0
 40
0.5166417813157601
100
AcDbArc
 50
357.7511011825993
 51
47.5982054288021
  0
LINE
  5
DE
330
2
100
AcDbEntity
  8
0
100
AcDbLine
 10
42.54429872182302
 20
18.10188278211863
 30
0.0
 11
42.54429872182302
 21
23.4479315152152
 31
0.0
  0
LINE
  5
DF
330
2
100
AcDbEntity
  8
0
100
AcDbLine
 10
41.21487513220522
 20
23.40803345644475
 30
0.0
 11
41.21487513220522
 21
18.24372900383094
 31
0.0
  0
ARC
  5
E0
330
2
100
AcDbEntity
  8
0
100
AcDbCircle
 10
42.04041988069022
 20
23.46759733735427
 30
0.0
 40
0.5042624624994524
100
AcDbArc
 50
357.7649448217018
 51
111.3846782332897
  0
LINE
  5
E1
330
2
100
AcDbEntity
  8
0
100
AcDbLine
 10
41.85655177202722
 20
23.93714302171504
 30
0.0
 11
41.12273451229718
 21
23.72530822547579
 31
0.0
  0
LINE
  5
E2
330
2
100
AcDbEntity
  8
0
100
AcDbLine
 10
36.61248127993335
 20
21.73556331678796
 30
0.0
 11
36.61248127993335
 21
16.49890487105377
 31
0.0
  0
ARC
  5
E3
330
2
100
AcDbEntity
  8
0
100
AcDbCircle
 10
37.58969108494849
 20
21.68724137176056
 30
0.0
 40
0.9784038089544067
100
AcDbArc
 50
107.2086421098974
 51
177.1690928843083
  0
LINE
  5
E4
330
2
100
AcDbEntity
  8
0
100
AcDbLine
 10
37.68636220394073
 20
22.73331298684055
 30
0.0
 11
37.30022822970929
 21
22.6218457098796
 31
0.0
  0
LINE
  5
E5
330
2
100
AcDbEntity
  8
0
100
AcDbLine
 10
40.9951389987482
 20
23.85420315340202
 30
0.0
 11
41.00979061366252
 21
23.84205090501524
 31
0.0
  0
ARC
  5
E6
330
2
100
AcDbEntity
  8
0
100
AcDbCircle
 10
40.69863127324384
 20
23.4283067957697
 30
0.0
 40
0.5166417813161671
100
AcDbArc
 50
357.7511011825993
 51
47.5982054287001
  0
LINE
  5
E7
330
2
100
AcDbEntity
  8
0
100
AcDbLine
 10
43.88470104197668
 20
22.6886274190971
 30
0.0
 11
43.88470104197668
 21
17.71605351033744
 31
0.0
  0
LINE
  5
E8
330
2
100
AcDbEntity
  8
0
100
AcDbLine
 10
43.66496490853953
 20
23.13479711605436
 30
0.0
 11
43.67961652345364
 21
23.12264486766759
 31
0.0
  0
ARC
  5
E9
330
2
100
AcDbEntity
  8
0
100
AcDbCircle
 10
43.36845718301531
 20
22.70890075842205
 30
0.0
 40
0.5166417813161289
100
AcDbArc
 50
357.7511011825993
 51
47.5982054287001
  0
ARC
  5
EA
330
2
100
AcDbEntity
  8
0
100
AcDbCircle
 10
37.47009068389564
 20
15.61709072679399
 30
0.0
 40
1.292986336260853
100
AcDbArc
 50
154.1022431079026
 51
171.9092966937026
  0
ARC
  5
EB
330
2
100
AcDbEntity
  8
0
100
AcDbCircle
 10
36.45242479618223
 20
16.07270186863935
 30
0.0
 40
0.1818509515908446
100
AcDbArc
 50
91.71834299109475
 51
143.125574966199
  0
LWPOLYLINE
  5
EC
330
2
100
AcDbEntity
  8
0
100
AcDbPolyline
 90
        6
 70
   128
 43
0.0
 10
37.6541574508359
 20
17.34853751035166
 10
37.6245824211612
 20
17.33087625468213
 10
37.60394467044714
 20
17.31028229056297
 10
37.59335543329545
 20
17.28786449492808
 10
37.59338488459902
 20
17.26482994848205
 10
37.59833852263084
 20
17.25158390200744
  0
LWPOLYLINE
  5
ED
330
2
100
AcDbEntity
  8
0
100
AcDbPolyline
 90
       18
 70
   128
 43
0.0
 10
37.6541574508359
 20
17.34853751035166
 10
37.97190709667461
 20
17.48589538604565
 10
38.31284386604844
 20
17.60856944683849
 10
38.67426223262993
 20
17.7155862046193
 10
39.05329413702622
 20
17.80609642079323
 10
39.4469317464448
 20
17.8793818455473
 10
39.85205132355835
 20
17.93486091754439
 10
40.26543801512342
 20
17.97209337891973
 10
40.68381136364627
 20
17.99078376902787
 10
41.10385133968739
 20
17.99078376902787
 10
41.52222468821023
 20
17.97209337891973
 10
41.93561137977511
 20
17.93486091754439
 10
42.34073095688867
 20
17.8793818455473
 10
42.73436856630723
 20
17.80609642079323
 10
43.11340047070353
 20
17.7155862046193
 10
43.47481883728502
 20
17.60856944683849
 10
43.81575560665885
 20
17.48589538604565
 10
44.13350525249756
 20
17.34853751035166
  0
LWPOLYLINE
  5
EE
330
2
100
AcDbEntity
  8
0
100
AcDbPolyline
 90
        6
 70
   128
 43
0.0
 10
44.18932418070263
 20
17.25158390200744
 10
44.19427781873465
 20
17.26482994848205
 10
44.19430727003822
 20
17.28786449492808
 10
44.18371803288652
 20
17.31028229056297
 10
44.16308028217225
 20
17.33087625468213
 10
44.13350525249756
 20
17.34853751035166
  0
ARC
  5
EF
330
2
100
AcDbEntity
  8
0
100
AcDbCircle
 10
45.33109162668242
 20
16.0647103805467
 30
0.0
 40
0.1900033054423666
100
AcDbArc
 50
38.0520005143066
 51
87.10408152839411
  0
LWPOLYLINE
  5
F0
330
2
100
AcDbEntity
  8
0
100
AcDbPolyline
 90
        3
 70
   128
 43
0.0
 10
45.48071004628865
 20
16.18182393483628
 10
45.55974604287135
 20
15.9755553643108
 10
45.59768862528422
 20
15.79906638778918
  0
LWPOLYLINE
  5
F1
330
2
100
AcDbEntity
  8
0
100
AcDbPolyline
 90
       18
 70
   128
 43
0.0
 10
37.6541574508359
 20
17.60644261652508
 10
37.97190709667461
 20
17.74380049221916
 10
38.31284386604844
 20
17.86647455301181
 10
38.67426223262993
 20
17.97349131079262
 10
39.05329413702622
 20
18.06400152696665
 10
39.4469317464448
 20
18.13728695172072
 10
39.85205132355835
 20
18.1927660237178
 10
40.26543801512342
 20
18.22999848509304
 10
40.68381136364627
 20
18.24868887520139
 10
41.10385133968739
 20
18.24868887520139
 10
41.52222468821023
 20
18.22999848509304
 10
41.93561137977511
 20
18.1927660237178
 10
42.34073095688867
 20
18.13728695172072
 10
42.73436856630723
 20
18.06400152696665
 10
43.11340047070353
 20
17.97349131079262
 10
43.47481883728502
 20
17.86647455301181
 10
43.81575560665885
 20
17.74380049221916
 10
44.13350525249756
 20
17.60644261652508
  0
ARC
  5
F2
330
2
100
AcDbEntity
  8
0
100
AcDbCircle
 10
44.10880926215472
 20
17.52234905668621
 30
0.0
 40
0.0876448443680787
100
AcDbArc
 50
7.847202258501011
 51
73.63392158780626
  0
ARC
  5
F3
330
2
100
AcDbEntity
  8
0
100
AcDbCircle
 10
37.67885344117874
 20
17.52234905668621
 30
0.0
 40
0.0876448443680507
100
AcDbArc
 50
106.3660784120991
 51
172.152797741499
  0
LINE
  5
F4
330
2
100
AcDbEntity
  8
0
100
AcDbLine
 10
44.92152275400242
 20
16.42567992051341
 30
0.0
 11
44.92152275400242
 21
16.36622619723284
 31
0.0
  0
LINE
  5
F5
330
2
100
AcDbEntity
  8
0
100
AcDbLine
 10
44.92152275400242
 20
16.42567992051341
 30
0.0
 11
44.32199251694188
 21
16.94488833614671
 31
0.0
  0
LINE
  5
F6
330
2
100
AcDbEntity
  8
0
100
AcDbLine
 10
36.86613994933104
 20
16.42567992051341
 30
0.0
 11
36.86613994933104
 21
16.36622619723284
 31
0.0
  0
LINE
  5
F7
330
2
100
AcDbEntity
  8
0
100
AcDbLine
 10
37.46561412361559
 20
16.94483978436354
 30
0.0
 11
36.86613994933104
 21
16.42567992051341
 31
0.0
  0
ARC
  5
F8
330
2
100
AcDbEntity
  8
0
100
AcDbCircle
 10
45.2863770365514
 20
16.2476918490587
 30
0.0
 40
0.2732098127132074
100
AcDbArc
 50
44.65955158619123
 51
111.0352280555038
  0
ARC
  5
F9
330
2
100
AcDbEntity
  8
0
100
AcDbCircle
 10
36.50128566678226
 20
16.2476918490587
 30
0.0
 40
0.2732098127131997
100
AcDbArc
 50
68.96477194449611
 51
135.3404484138087
  0
LINE
  5
FA
330
2
100
AcDbEntity
  8
0
100
AcDbLine
 10
36.86613994933104
 20
16.42567992051341
 30
0.0
 11
36.59935211319997
 21
16.50269493502139
 31
0.0
  0
LINE
  5
FB
330
2
100
AcDbEntity
  8
0
100
AcDbLine
 10
45.18831059013348
 20
16.50269493502139
 30
0.0
 11
44.92152275400242
 21
16.42567992051341
 31
0.0
  0
ARC
  5
FC
330
2
100
AcDbEntity
  8
0
100
AcDbCircle
 10
44.35118118935753
 20
15.88615283379872
 30
0.0
 40
1.257887934511831
100
AcDbArc
 50
0.3310275456968312
 51
26.10923335450156
  0
ARC
  5
FD
330
2
100
AcDbEntity
  8
0
100
AcDbCircle
 10
37.43231091795795
 20
15.88713258431284
 30
0.0
 40
1.253712111824768
100
AcDbArc
 50
153.8470930918936
 51
179.7126460079025
  0
LWPOLYLINE
  5
FE
330
2
100
AcDbEntity
  8
0
100
AcDbPolyline
 90
       11
 70
   128
 43
0.0
 10
43.68813632895323
 20
14.5545643103894
 10
43.62656114927706
 20
14.40971510221367
 10
43.52739426251007
 20
14.25903283504059
 10
43.39510879409072
 20
14.11484961061441
 10
43.23136831057738
 20
13.97897861660824
 10
43.03823194352357
 20
13.85312850964
 10
42.81812849481862
 20
13.73888192778165
 10
42.57382589304017
 20
13.63767558813535
 10
42.3083963851501
 20
13.55078221911511
 10
42.02517790119888
 20
13.47929455525446
 10
41.87641200003263
 20
13.44932174810558
  0
ARC
  5
FF
330
2
100
AcDbEntity
  8
0
100
AcDbCircle
 10
40.8987801960492
 20
18.79479800556396
 30
0.0
 40
5.434140259802886
100
AcDbArc
 50
266.7067841863225
 51
280.3642563926028
  0
LWPOLYLINE
  5
100
330
2
100
AcDbEntity
  8
0
100
AcDbPolyline
 90
       14
 70
   128
 43
0.0
 10
40.58661157180904
 20
13.36963154606698
 10
40.47217139518099
 20
13.37706596260636
 10
40.16159860926586
 20
13.40946657459901
 10
39.86023407493956
 20
13.45905001798251
 10
39.57186762606733
 20
13.52519275219218
 10
39.30012563807485
 20
13.60706299394885
 10
39.04842542411851
 20
13.70363117747576
 10
38.81993226042187
 20
13.81368290182834
 10
38.61751958110922
 20
13.93583420271756
 10
38.44373284306874
 20
14.06854895666249
 10
38.30075751532759
 20
14.21015819864813
 10
38.19039159563187
 20
14.35888111025971
 10
38.11402299944387
 20
14.51284741459991
 10
38.09952637438021
 20
14.5545643103894
  0
LWPOLYLINE
  5
101
330
2
100
AcDbEntity
  8
0
100
AcDbPolyline
 90
       71
 70
   128
 43
0.0
 10
42.16762145852499
 20
10.834119263052
 10
41.79173692993988
 20
10.78535378019547
 10
41.40862299358626
 20
10.7536316275424
 10
41.02136425763942
 20
10.73920821319776
 10
40.63307870172065
 20
10.74219966600201
 10
40.24689257280404
 20
10.7625819005285
 10
39.86591521455604
 20
10.80019081103301
 10
39.4932140326321
 20
10.85472359266706
 10
39.13178979781933
 20
10.92574117955254
 10
38.78455248552465
 20
11.01267177982513
 10
38.45429784642834
 20
11.11481547939275
 10
38.14368489669366
 20
11.23134987726474
 10
37.85521450915647
 20
11.36133670700711
 10
37.59120927776027
 20
11.50372939105552
 10
37.35379481738506
 20
11.65738146727459
 10
37.14488264969289
 20
11.82105581948549
 10
36.96615481258317
 20
11.99343463802962
 10
36.81905031753266
 20
12.17313003003815
 10
36.70475356344495
 20
12.35869519386088
 10
36.62418480055622
 20
12.54863606791444
 10
36.57799272121084
 20
12.74142335996545
 10
36.56654923681216
 20
12.93550486009922
 10
36.58994648362944
 20
13.1293179381695
 10
36.64799608075086
 20
13.32130212526694
 10
36.74023064695568
 20
13.50991167757773
 10
36.86590756377336
 20
13.6936280218963
 10
37.02401495453811
 20
13.87097198223137
 10
37.21327983152829
 20
14.04051568931205
 10
37.43217834522079
 20
14.20089407688241
 10
37.67894805350238
 20
14.35081587248378
 10
37.95160211177282
 20
14.4890739939429
 10
38.24794526989833
 20
14.61455526817718
 10
38.565591546988
 20
14.7262493937607
 10
38.90198344200126
 20
14.82325707523806
 10
39.25441252518861
 20
14.90479726381182
 10
39.62004124480846
 20
14.97021344583332
 10
39.99592577339356
 20
15.01897892868985
 10
40.3790397097472
 20
15.05070108134291
 10
40.76629844569404
 20
15.06512449568756
 10
41.154584001613
 20
15.0621330428833
 10
41.54077013052963
 20
15.04175080835672
 10
41.92174748877743
 20
15.00414189785221
 10
42.29444867070136
 20
14.94960911621835
 10
42.65587290551414
 20
14.87859152933278
 10
43.0031102178088
 20
14.79166092906018
 10
43.33336485690531
 20
14.68951722949257
 10
43.6439778066398
 20
14.57298283162058
 10
43.93244819417719
 20
14.44299600187821
 10
44.19645342557319
 20
14.30060331782979
 10
44.43386788594859
 20
14.14695124161082
 10
44.64278005364056
 20
13.98327688939982
 10
44.82150789075028
 20
13.81089807085569
 10
44.96861238580081
 20
13.63120267884707
 10
45.0829091398885
 20
13.44563751502443
 10
45.16347790277744
 20
13.25569664097078
 10
45.20966998212261
 20
13.06290934891996
 10
45.22111346650144
 20
12.86882784878609
 10
45.19771621970422
 20
12.67501477071572
 10
45.1396666225826
 20
12.48303058361837
 10
45.04743205637779
 20
12.29442103130759
 10
44.92175513956011
 20
12.11070468698901
 10
44.76364774879535
 20
11.93336072665404
 10
44.57438287180518
 20
11.76381701957327
 10
44.35548435811266
 20
11.603438632003
 10
44.10871464983109
 20
11.45351683640154
 10
43.83606059156064
 20
11.31525871494251
 10
43.53971743343513
 20
11.18977744070814
 10
43.22207115634546
 20
11.07808331514446
 10
42.88567926133241
 20
10.98107563364726
 10
42.53325017814485
 20
10.8995354450735
 10
42.16762145852499
 20
10.834119263052
  0
LWPOLYLINE
  5
102
330
2
100
AcDbEntity
  8
0
100
AcDbPolyline
 90
       80
 70
   128
 43
0.0
 10
43.66811667762223
 20
10.6108783449581
 10
44.04112090684614
 20
10.72868207148354
 10
44.39422695815375
 20
10.86093102562157
 10
44.72520238140794
 20
11.0067890868876
 10
45.03195464343237
 20
11.1653340936655
 10
45.31254435765819
 20
11.33556367337944
 10
45.56519754555404
 20
11.51640157980506
 10
45.78831685233062
 20
11.70670449747455
 10
45.98049164590185
 20
11.90526927007406
 10
46.14050693531535
 20
12.11084050717039
 10
46.26735105242733
 20
12.32211852124158
 10
46.36022204787961
 20
12.53776754462151
 10
46.41853276133754
 20
12.75642417478093
 10
46.44191453368665
 20
12.97670599408156
 10
46.43021953781845
 20
13.19722030996084
 10
46.38352171331513
 20
13.4165729599
 10
46.30211629879987
 20
13.63337712582179
 10
46.18651796556412
 20
13.84626210197149
 10
46.03745756345317
 20
14.05388196102885
 10
45.85587750033081
 20
14.25492406333692
 10
45.64292578383152
 20
14.44811735606117
 10
45.39994876326255
 20
14.632240408951
 10
45.12848261757576
 20
14.80612913679289
 10
44.8302436431525
 20
14.96868415909912
 10
44.5071174028279
 20
15.11887775063564
 10
44.16114680469337
 20
15.25576033916907
 10
43.79451918629243
 20
15.37846650892043
 10
43.40955248547567
 20
15.48622047196384
 10
43.00868058564693
 20
15.57834097306436
 10
42.59443792805392
 20
15.65424559672604
 10
42.16944348813294
 20
15.71345444950784
 10
41.73638421757283
 20
15.75559319396306
 10
41.29799805653044
 20
15.78039541538037
 10
40.85705662344462
 20
15.78770430613866
 10
40.41634769201975
 20
15.77747365709345
 10
39.9786575660444
 20
15.74976814966293
 10
39.54675346339885
 20
15.70476294700301
 10
39.12336602087609
 20
15.64274258651763
 10
38.71117203021235
 20
15.56409918086903
 10
38.31277751453053
 20
15.46932993898548
 10
37.93070125222065
 20
15.35903402252966
 10
37.56735885245136
 20
15.23390875782351
 10
37.22504748285164
 20
15.09474522704992
 10
36.90593134610602
 20
14.94242326686797
 10
36.61202799719055
 20
14.77790590574701
 10
36.34519558768829
 20
14.60223327540124
 10
36.10712111801099
 20
14.4165160347988
 10
35.89930977161787
 20
14.22192834810318
 10
35.72307539873573
 20
14.01970046131268
 10
35.57953220981421
 20
13.81111092425827
 10
35.46958773113147
 20
13.59747850715266
 10
35.39393706706019
 20
13.3801538629164
 10
35.35305850544534
 20
13.16051098792999
 10
35.34721049375111
 20
12.93993853513534
 10
35.3764300049551
 20
12.71983103463937
 10
35.44053230393223
 20
12.50158007689474
 10
35.53911211527827
 20
12.2865655147398
 10
35.67154618569026
 20
12.07614673947384
 10
35.83699722435653
 20
11.87165408633689
 10
36.03441919652861
 20
11.67438042371451
 10
36.2625639369352
 20
11.48557297921514
 10
36.51998904104881
 20
11.30642545431922
 10
36.80506698451516
 20
11.1380704773317
 10
37.11599541276714
 20
10.98157244264557
 10
37.45080853618623
 20
10.83792078120432
 10
37.80738955840057
 20
10.70802370506744
 10
38.18348405936104
 20
10.59270246536746
 10
38.57671424855803
 20
10.49268616013255
 10
38.98459399812526
 20
10.40860712463048
 10
39.40454456096979
 20
10.34099693361946
 10
39.83391087440433
 20
10.29028304044065
 10
40.26997834635761
 20
10.2567860747126
 10
40.709990017871
 20
10.24071781500696
 10
41.15116399349651
 20
10.24217985004356
 10
41.59071102929536
 20
10.26116293636974
 10
42.02585216741018
 20
10.29754705678847
 10
42.45383630543943
 20
10.35110217920121
 10
42.87195758988914
 20
10.42148971085952
 10
43.27757252335677
 20
10.50826463911384
 10
43.66811667762223
 20
10.6108783449581
  0
LWPOLYLINE
  5
103
330
2
100
AcDbEntity
  8
0
100
AcDbPolyline
 90
       43
 70
   128
 43
0.0
 10
46.4457275667161
 20
12.9762451469397
 10
46.4523353784357
 20
13.07979896490276
 10
46.44061841612971
 20
13.30072746804454
 10
46.39383288009692
 20
13.52049212332177
 10
46.31227456354969
 20
13.73770350783264
 10
46.19645910444853
 20
13.9509883412345
 10
46.04711872541199
 20
14.15899816817584
 10
45.86519760438636
 20
14.36041788352718
 10
45.65184590527957
 20
14.55397404702544
 10
45.40841250622455
 20
14.73844293426366
 10
45.13643647154796
 20
14.91265827355748
 10
44.83763732131079
 20
15.07551861943221
 10
44.51390415992285
 20
15.22599431635309
 10
44.16728373270895
 20
15.36313400850398
 10
43.79996748558591
 20
15.48607065459689
 10
43.41427771010798
 20
15.59402700959487
 10
43.01265286127513
 20
15.68632053862256
 10
42.59763214063922
 20
15.76236773231338
 10
42.17183944284895
 20
15.82168779579583
 10
41.73796676642297
 20
15.86390568854972
 10
41.29875719412265
 20
15.88875449545512
 10
40.85698755026363
 20
15.89607711434358
 10
40.41545084478445
 20
15.88582724927132
 10
39.97693861490701
 20
15.85806970319954
 10
39.54422327611029
 20
15.81297996823772
 10
39.12004059409176
 20
15.75084311624699
 10
38.70707238835957
 20
15.67205199637713
 10
38.30792957686796
 20
15.57710475148656
 10
37.92513566898738
 20
15.46660166859655
 10
37.56111081103747
 20
15.34124138380698
 10
37.21815648537724
 20
15.20181646518001
 10
36.89844095970526
 20
15.04920840194367
 10
36.60398557846314
 20
14.88438203142394
 10
36.33665198340757
 20
14.70837943898322
 10
36.09813034361578
 20
14.52231336968117
 10
35.88992866965206
 20
14.32736019315176
 10
35.7133632795583
 20
14.12475246608789
 10
35.56955047656639
 20
13.91577113982492
 10
35.45939949154023
 20
13.7017374615635
 10
35.3836067344609
 20
13.4840046211498
 10
35.34265139154647
 20
13.26394919566683
 10
35.33679239564072
 20
13.04296244641507
 10
35.34193513661735
 20
12.9762451469397
  0
SPLINE
  5
104
330
2
100
AcDbEntity
  8
0
100
AcDbSpline
210
0.0
220
0.0
230
1.0
 70
     8
 71
     3
 72
     8
 73
     4
 74
     0
 42
0.000000001
 43
0.0000000001
 40
0.0
 40
0.0
 40
0.0
 40
0.0
 40
1.0
 40
1.0
 40
1.0
 40
1.0
 10
37.51512324326303
 20
17.20803838873684
 30
0.0
 10
37.51396431281929
 20
17.20741587206778
 30
0.0
 10
37.51281439477079
 20
17.20672702911697
 30
0.0
 10
37.51167317081868
 20
17.20597413709149
 30
0.0
  0
LWPOLYLINE
  5
105
330
2
100
AcDbEntity
  8
0
100
AcDbPolyline
 90
       19
 70
   128
 43
0.0
 10
37.51512324327056
 20
17.20803838872758
 10
37.81574824099195
 20
17.35542722649808
 10
38.14198218903122
 20
17.48850678767229
 10
38.4911108952272
 20
17.60616988062395
 10
38.86022968828543
 20
17.70743757520696
 10
39.24626758392972
 20
17.79146734729548
 10
39.64601283480499
 20
17.85756008831515
 10
40.05613965148238
 20
17.90516592171631
 10
40.47323587228396
 20
17.93388877778706
 10
40.89383135166674
 20
17.943489688964
 10
41.3144268310497
 20
17.93388877778706
 10
41.7315230518511
 20
17.90516592171631
 10
42.14164986852866
 20
17.85756008831515
 10
42.54139511940393
 20
17.79146734729548
 10
42.92743301504822
 20
17.70743757520696
 10
43.29655180810646
 20
17.60616988062395
 10
43.64568051430224
 20
17.48850678767229
 10
43.97191446234152
 20
17.35542722649808
 10
44.27253946006309
 20
17.20803838872758
  0
SPLINE
  5
106
330
2
100
AcDbEntity
  8
0
100
AcDbSpline
210
0.0
220
0.0
230
1.0
 70
     8
 71
     3
 72
     8
 73
     4
 74
     0
 42
0.000000001
 43
0.0000000001
 40
0.0
 40
0.0
 40
0.0
 40
0.0
 40
1.0
 40
1.0
 40
1.0
 40
1.0
 10
44.27598953251247
 20
17.20597413709149
 30
0.0
 10
44.27484779062286
 20
17.20672737081239
 30
0.0
 10
44.27369248651692
 20
17.20741904338418
 30
0.0
 10
44.27253946006791
 20
17.20803838873684
 30
0.0
  0
SPLINE
  5
107
330
2
100
AcDbEntity
  8
0
100
AcDbSpline
210
0.0
220
0.0
230
1.0
 70
     8
 71
     3
 72
    14
 73
    10
 74
     0
 42
0.000000001
 43
0.0000000001
 40
0.0
 40
0.0
 40
0.0
 40
0.0
 40
0.0006000000141114
 40
0.0006000000141114
 40
0.0006000000141114
 40
0.0030000017795524
 40
0.0030000017795524
 40
0.0030000017795524
 40
0.0065523447819319
 40
0.0065523447819319
 40
0.0065523447819319
 40
0.0065523447819319
 10
44.36545018696773
 20
16.61266904373034
 30
0.0
 10
44.3627602863532
 20
16.6307930839155
 30
0.0
 10
44.36006668323389
 20
16.6489158290271
 30
0.0
 10
44.35736937004368
 20
16.66703727371974
 30
0.0
 10
44.34658011344185
 20
16.73952307829935
 30
0.0
 10
44.33573149217012
 20
16.8119881113895
 30
0.0
 10
44.32482300899637
 20
16.88443202380431
 30
0.0
 10
44.30867691430378
 20
16.99165923872829
 30
0.0
 10
44.29239965508081
 20
17.09884033641453
 30
0.0
 10
44.27598953251247
 20
17.20597413709149
 30
0.0
  0
LINE
  5
108
330
2
100
AcDbEntity
  8
0
100
AcDbLine
 10
44.36702514111866
 20
16.55633857793584
 30
0.0
 11
44.36545018696405
 21
16.61266904372919
 31
0.0
  0
ARC
  5
109
330
2
100
AcDbEntity
  8
0
100
AcDbCircle
 10
42.41729668604597
 20
13.11707599109228
 30
0.0
 40
3.953475457103361
100
AcDbArc
 50
58.94361143670085
 51
60.45096691849328
  0
SPLINE
  5
10A
330
2
100
AcDbEntity
  8
0
100
AcDbSpline
210
0.0
220
0.0
230
1.0
 70
     8
 71
     3
 72
    12
 73
     8
 74
     0
 42
0.000000001
 43
0.0000000001
 40
0.0
 40
0.0
 40
0.0
 40
0.0
 40
0.2500000000000004
 40
0.2500000000000004
 40
0.5000000000000008
 40
0.5000000000000008
 40
1.0
 40
1.0
 40
1.0
 40
1.0
 10
44.52195625517368
 20
16.38013492544231
 30
0.0
 10
44.52164713875076
 20
16.3914851968683
 30
0.0
 10
44.51971698543768
 20
16.40362193637254
 30
0.0
 10
44.51288465521366
 20
16.42822226598897
 30
0.0
 10
44.50798762170168
 20
16.44055578593962
 30
0.0
 10
44.49005334297206
 20
16.47472223137918
 30
0.0
 10
44.47359549216872
 20
16.49375584847222
 30
0.0
 10
44.45682122010988
 20
16.50386028667055
 30
0.0
  0
LWPOLYLINE
  5
10B
330
2
100
AcDbEntity
  8
0
100
AcDbPolyline
 90
        3
 70
   128
 43
0.0
 10
44.55384427286785
 20
15.20829932744702
 10
44.54999624482991
 20
15.34985250119691
 10
44.52195625516867
 20
16.38013492543537
  0
LWPOLYLINE
  5
10C
330
2
100
AcDbEntity
  8
0
100
AcDbPolyline
 90
        3
 70
   128
 43
0.0
 10
37.26570644816499
 20
16.38013492543537
 10
37.23766645850355
 20
15.34985250119691
 10
37.23371051594967
 20
15.20432959533579
  0
SPLINE
  5
10D
330
2
100
AcDbEntity
  8
0
100
AcDbSpline
210
0.0
220
0.0
230
1.0
 70
     8
 71
     3
 72
    12
 73
     8
 74
     0
 42
0.000000001
 43
0.0000000001
 40
0.0
 40
0.0
 40
0.0
 40
0.0
 40
0.2499999999999954
 40
0.2499999999999954
 40
0.4999999999999908
 40
0.4999999999999908
 40
1.0
 40
1.0
 40
1.0
 40
1.0
 10
37.33084148322126
 20
16.50386028667055
 30
0.0
 10
37.3224524490838
 20
16.49880692419456
 30
0.0
 10
37.31423171481233
 20
16.49167928960878
 30
0.0
 10
37.29877379660179
 20
16.47392248025703
 30
0.0
 10
37.29167502565085
 20
16.46340599849387
 30
0.0
 10
37.27370719552741
 20
16.42920789020358
 30
0.0
 10
37.26632482416551
 20
16.40284072498036
 30
0.0
 10
37.26570644815747
 20
16.38013492544231
 30
0.0
  0
ARC
  5
10E
330
2
100
AcDbEntity
  8
0
100
AcDbCircle
 10
39.36561324850316
 20
13.1251204079996
 30
0.0
 40
3.944132262548402
100
AcDbArc
 50
119.7831070303824
 51
121.0575283144911
  0
ELLIPSE
  5
10F
330
2
100
AcDbEntity
  8
0
100
AcDbEllipse
 10
45.06533255214056
 20
16.19956543664591
 30
0.0
 11
-0.0145269223849332
 21
0.0474658143927141
 31
0.0
210
0.0
220
0.0
230
1.0
 40
0.4241965134
 41
6.27641327682523
 42
7.084936568821442
  0
LINE
  5
110
330
2
100
AcDbEntity
  8
0
100
AcDbLine
 10
44.99727185403122
 20
15.75966419517219
 30
0.0
 11
45.04076142347763
 21
16.228147453341
 31
0.0
  0
LINE
  5
111
330
2
100
AcDbEntity
  8
0
100
AcDbLine
 10
44.99727185403122
 20
15.75966419517219
 30
0.0
 11
45.00326137426424
 21
15.28181981557595
 31
0.0
  0
LINE
  5
112
330
2
100
AcDbEntity
  8
0
100
AcDbLine
 10
44.33228772218884
 20
16.8765187035857
 30
0.0
 11
45.05706829848541
 21
16.24884031235214
 31
0.0
  0
LINE
  5
113
330
2
100
AcDbEntity
  8
0
100
AcDbLine
 10
36.79039084930226
 20
15.75966419517219
 30
0.0
 11
36.78440132906922
 21
15.28181981557614
 31
0.0
  0
LINE
  5
114
330
2
100
AcDbEntity
  8
0
100
AcDbLine
 10
36.74690127985602
 20
16.228147453341
 30
0.0
 11
36.79039084930226
 21
15.75966419517219
 31
0.0
  0
ELLIPSE
  5
115
330
2
100
AcDbEntity
  8
0
100
AcDbEllipse
 10
36.7223301511931
 20
16.19956543664591
 30
0.0
 11
0.0145269223849106
 21
0.047465814392714
 31
0.0
210
0.0
220
0.0
230
0.9999999999999998
 40
0.4241965134
 41
5.481434045538433
 42
6.289957337534478
  0
LINE
  5
116
330
2
100
AcDbEntity
  8
0
100
AcDbLine
 10
36.73059440484824
 20
16.24884031235214
 30
0.0
 11
37.45543710657771
 21
16.87657250579739
 31
0.0
  0
SPLINE
  5
117
330
2
100
AcDbEntity
  8
0
100
AcDbSpline
210
0.0
220
0.0
230
1.0
 70
     8
 71
     3
 72
    10
 73
     6
 74
     0
 42
0.000000001
 43
0.0000000001
 40
0.0
 40
0.0
 40
0.0
 40
0.0
 40
0.1192843903783986
 40
0.5585647750023331
 40
1.0
 40
1.0
 40
1.0
 40
1.0
 10
37.50285783221335
 20
17.18982650376125
 30
0.0
 10
37.50287763935927
 20
17.19065715207828
 30
0.0
 10
37.50297038891279
 20
17.1945467715737
 30
0.0
 10
37.50560958448808
 20
17.20052209714472
 30
0.0
 10
37.50964868123246
 20
17.20415382853247
 30
0.0
 10
37.51167317081868
 20
17.20597413709149
 30
0.0
  0
SPLINE
  5
118
330
2
100
AcDbEntity
  8
0
100
AcDbSpline
210
0.0
220
0.0
230
1.0
 70
     8
 71
     3
 72
    11
 73
     7
 74
     0
 42
0.000000001
 43
0.0000000001
 40
0.0
 40
0.0
 40
0.0
 40
0.0
 40
0.4166255624397043
 40
0.8869877975159706
 40
0.9606464220182104
 40
1.0
 40
1.0
 40
1.0
 40
1.0
 10
44.37268728810553
 20
16.60440078920064
 30
0.0
 10
44.3724887496
 20
16.60572108853983
 30
0.0
 10
44.37206606494649
 20
16.60853198040161
 30
0.0
 10
44.368696085576
 20
16.61107045935021
 30
0.0
 10
44.36615545005601
 20
16.61235188146177
 30
0.0
 10
44.36563234483712
 20
16.61258712592685
 30
0.0
 10
44.36545018696754
 20
16.61266904373034
 30
0.0
  0
SPLINE
  5
119
330
2
100
AcDbEntity
  8
0
100
AcDbSpline
210
0.0
220
0.0
230
1.0
 70
     8
 71
     3
 72
    10
 73
     6
 74
     0
 42
0.000000001
 43
0.0000000001
 40
0.0
 40
0.0
 40
0.0
 40
0.0
 40
0.4411952332106951
 40
0.8802367975535435
 40
1.0
 40
1.0
 40
1.0
 40
1.0
 10
44.27598953251247
 20
17.20597413709149
 30
0.0
 10
44.27801409945799
 20
17.20415385944528
 30
0.0
 10
44.28205335054349
 20
17.20052218973237
 30
0.0
 10
44.28469310759614
 20
17.19454326452888
 30
0.0
 10
44.28478560525723
 20
17.19064972037799
 30
0.0
 10
44.28480542938322
 20
17.18981525484718
 30
0.0
  0
LINE
  5
11A
330
2
100
AcDbEntity
  8
0
100
AcDbLine
 10
36.73876352166884
 20
15.33254019457932
 30
0.0
 11
36.73710241069593
 21
15.66078791219863
 31
0.0
  0
LINE
  5
11B
330
2
100
AcDbEntity
  8
0
100
AcDbLine
 10
36.5800139379943
 20
15.48786133486268
 30
0.0
 11
36.58524621188454
 21
15.790839074552
 31
0.0
  0
LINE
  5
11C
330
2
100
AcDbEntity
  8
0
100
AcDbLine
 10
36.73710241069593
 20
15.66078791219863
 30
0.0
 11
36.72521233834839
 21
15.75043433415171
 31
0.0
  0
LINE
  5
11D
330
2
100
AcDbEntity
  8
0
100
AcDbLine
 10
45.0488991816648
 20
15.33254019457932
 30
0.0
 11
45.05056029263752
 21
15.66078791219863
 31
0.0
  0
LINE
  5
11E
330
2
100
AcDbEntity
  8
0
100
AcDbLine
 10
45.05056029263752
 20
15.66078791219863
 30
0.0
 11
45.06245036498508
 21
15.75043433415171
 31
0.0
  0
LINE
  5
11F
330
2
100
AcDbEntity
  8
0
100
AcDbLine
 10
45.20241649144892
 20
15.790839074552
 30
0.0
 11
45.20748501740203
 21
15.49734325030452
 31
0.0
  0
SPLINE
  5
120
330
2
100
AcDbEntity
  8
0
100
AcDbSpline
210
0.0
220
0.0
230
1.0
 70
     8
 71
     3
 72
     8
 73
     4
 74
     0
 42
0.000000001
 43
0.0000000001
 40
0.0
 40
0.0
 40
0.0
 40
0.0
 40
1.0
 40
1.0
 40
1.0
 40
1.0
 10
36.48226905629869
 20
16.31448402315692
 30
0.0
 10
36.48177962424662
 20
16.31382461880632
 30
0.0
 10
36.48128339471166
 20
16.31308602128999
 30
0.0
 10
36.48078717031797
 20
16.31227707351561
 30
0.0
  0
SPLINE
  5
121
330
2
100
AcDbEntity
  8
0
100
AcDbSpline
210
0.0
220
0.0
230
1.0
 70
     8
 71
     3
 72
     8
 73
     4
 74
     0
 42
0.000000001
 43
0.0000000001
 40
0.0
 40
0.0
 40
0.0
 40
0.0
 40
1.0
 40
1.0
 40
1.0
 40
1.0
 10
36.50870375205101
 20
15.7687812097959
 30
0.0
 10
36.49934729297239
 20
15.95086724049025
 30
0.0
 10
36.49053083825442
 20
16.13276983527819
 30
0.0
 10
36.48226905629869
 20
16.31448402315692
 30
0.0
  0
ARC
  5
122
330
2
100
AcDbEntity
  8
0
100
AcDbCircle
 10
37.98622179656432
 20
14.76610476095842
 30
0.0
 40
1.785614637298567
100
AcDbArc
 50
143.4852171867004
 51
145.8383162471943
  0
SPLINE
  5
123
330
2
100
AcDbEntity
  8
0
100
AcDbSpline
210
0.0
220
0.0
230
1.0
 70
     8
 71
     3
 72
    12
 73
     8
 74
     0
 42
0.000000001
 43
0.0000000001
 40
0.0
 40
0.0
 40
0.0
 40
0.0
 40
0.2499999999999984
 40
0.2499999999999984
 40
0.4999999999999969
 40
0.4999999999999969
 40
1.0
 40
1.0
 40
1.0
 40
1.0
 10
36.58524621187587
 20
15.7908390745574
 30
0.0
 10
36.58544072010805
 20
15.80209009237861
 30
0.0
 10
36.58466676304423
 20
15.81188500360204
 30
0.0
 10
36.58134193242456
 20
15.82768897389742
 30
0.0
 10
36.57879172458085
 20
15.83357299364592
 30
0.0
 10
36.56922687539401
 20
15.84392449572783
 30
0.0
 10
36.5602315694144
 20
15.84091503244041
 30
0.0
 10
36.55111730510245
 20
15.82859934047476
 30
0.0
  0
ARC
  5
124
330
2
100
AcDbEntity
  8
0
100
AcDbCircle
 10
37.5906941213872
 20
15.60752927892414
 30
0.0
 40
1.314748224569196
100
AcDbArc
 50
147.5860389817929
 51
174.305948632403
  0
SPLINE
  5
125
330
2
100
AcDbEntity
  8
0
100
AcDbSpline
210
0.0
220
0.0
230
1.0
 70
     8
 71
     3
 72
    12
 73
     8
 74
     0
 42
0.000000001
 43
0.0000000001
 40
0.0
 40
0.0
 40
0.0
 40
0.0
 40
0.2499999999999957
 40
0.2499999999999957
 40
0.4999999999999913
 40
0.4999999999999913
 40
1.0
 40
1.0
 40
1.0
 40
1.0
 10
45.2365453982287
 20
15.82859934047476
 30
0.0
 10
45.23198723473973
 20
15.83475858005083
 30
0.0
 10
45.2275129745542
 20
15.83862513316588
 30
0.0
 10
45.21911655445133
 20
15.84152678678394
 30
0.0
 10
45.21527109968184
 20
15.84048828251943
 30
0.0
 10
45.20568770634655
 20
15.83015023364974
 30
0.0
 10
45.20202738490762
 20
15.81334632091839
 30
0.0
 10
45.20241649145509
 20
15.7908390745574
 30
0.0
  0
ARC
  5
126
330
2
100
AcDbEntity
  8
0
100
AcDbCircle
 10
43.80514302567021
 20
14.76876447358438
 30
0.0
 40
1.781056623820717
100
AcDbArc
 50
33.9518450879065
 51
36.5168819550005
  0
LINE
  5
127
330
2
100
AcDbEntity
  8
0
100
AcDbLine
 10
45.28154175216813
 20
15.81931047607328
 30
0.0
 11
45.28254242551855
 21
15.76347735204804
 31
0.0
  0
SPLINE
  5
128
330
2
100
AcDbEntity
  8
0
100
AcDbSpline
210
0.0
220
0.0
230
1.0
 70
     8
 71
     3
 72
    14
 73
    10
 74
     0
 42
0.000000001
 43
0.0000000001
 40
0.0000000000000001
 40
0.0000000000000001
 40
0.0000000000000001
 40
0.0000000000000001
 40
0.0006000000147734
 40
0.0006000000147734
 40
0.0006000000147734
 40
0.0030000018293978
 40
0.0030000018293978
 40
0.0030000018293978
 40
0.0065523447927329
 40
0.0065523447927329
 40
0.0065523447927329
 40
0.0065523447927329
 10
45.30539364703246
 20
16.31448402315692
 30
0.0
 10
45.30470710187623
 20
16.2993837704322
 30
0.0
 10
45.3040167248998
 20
16.28428220587266
 30
0.0
 10
45.30332252511553
 20
16.26917933474851
 30
0.0
 10
45.30054572496353
 20
16.20876782815835
 30
0.0
 10
45.29770776026614
 20
16.14833538786708
 30
0.0
 10
45.29480919331923
 20
16.08788234408675
 30
0.0
 10
45.29051890520118
 20
15.99840330834659
 30
0.0
 10
45.28609584714668
 20
15.90887901000911
 30
0.0
 10
45.28154175216234
 20
15.81931047607907
 30
0.0
  0
SPLINE
  5
129
330
2
100
AcDbEntity
  8
0
100
AcDbSpline
210
0.0
220
0.0
230
1.0
 70
     8
 71
     3
 72
     8
 73
     4
 74
     0
 42
0.000000001
 43
0.0000000001
 40
0.0
 40
0.0
 40
0.0
 40
0.0
 40
1.0
 40
1.0
 40
1.0
 40
1.0
 10
45.30687553301299
 20
16.31227707351561
 30
0.0
 10
45.30637676773569
 20
16.31309016345299
 30
0.0
 10
45.30588285705958
 20
16.31382491793716
 30
0.0
 10
45.30539364703246
 20
16.31448402315692
 30
0.0
  0
ARC
  5
12A
330
2
100
AcDbEntity
  8
0
100
AcDbCircle
 10
44.19696858194646
 20
15.60752927892414
 30
0.0
 40
1.314748224569201
100
AcDbArc
 50
5.694051367596967
 51
32.4139610182071
  0
ELLIPSE
  5
12B
330
2
100
AcDbEntity
  8
0
100
AcDbEllipse
 10
36.67567944905746
 20
15.70667297808145
 30
0.0
 11
0.0149736912682462
 21
0.0987829675736514
 31
0.0
210
0.0
220
0.0
230
0.9999999999999998
 40
0.4926395442000001
 41
5.244502075587023
 42
6.218569152574455
  0
ELLIPSE
  5
12C
330
2
100
AcDbEntity
  8
0
100
AcDbEllipse
 10
45.1119832542762
 20
15.70667297808145
 30
0.0
 11
-0.014973691268235
 21
0.0987829675736626
 31
0.0
210
0.0
220
0.0
230
1.0
 40
0.4926395442000001
 41
0.0646161546056219
 42
1.038683231592731
  0
SPLINE
  5
12D
330
2
100
AcDbEntity
  8
0
100
AcDbSpline
210
0.0
220
0.0
230
1.0
 70
     8
 71
     3
 72
     8
 73
     4
 74
     0
 42
0.000000001
 43
0.0000000001
 40
0.0
 40
0.0
 40
0.0
 40
0.0
 40
1.0
 40
1.0
 40
1.0
 40
1.0
 10
36.48226905629869
 20
16.31448402315692
 30
0.0
 10
36.48402722845964
 20
16.31685278173547
 30
0.0
 10
36.48729307320354
 20
16.31784865718883
 30
0.0
 10
36.49585880022371
 20
16.31660264460738
 30
0.0
  0
SPLINE
  5
12E
330
2
100
AcDbEntity
  8
0
100
AcDbSpline
210
0.0
220
0.0
230
1.0
 70
     8
 71
     3
 72
     8
 73
     4
 74
     0
 42
0.000000001
 43
0.0000000001
 40
0.0
 40
0.0
 40
0.0
 40
0.0
 40
1.0
 40
1.0
 40
1.0
 40
1.0
 10
45.30539364703246
 20
16.31448402315692
 30
0.0
 10
45.30363547487151
 20
16.31685278173547
 30
0.0
 10
45.30036963012741
 20
16.31784865718883
 30
0.0
 10
45.29180390310994
 20
16.31660264460738
 30
0.0
  0
LINE
  5
12F
330
2
100
AcDbEntity
  8
0
100
AcDbLine
 10
38.49342976101777
 20
24.11122474120266
 30
0.0
 11
39.46026276603701
 21
24.38973121435004
 31
0.0
  0
ELLIPSE
  5
130
330
2
100
AcDbEntity
  8
0
100
AcDbEllipse
 10
26.86788637257516
 20
10.78769865439101
 30
0.0
 11
0.210886223456784
 21
0.0
 31
0.0
210
0.0
220
0.0
230
1.0
 40
0.6171303644892954
 41
2.053477493147564
 42
7.380107028926092
  0
ELLIPSE
  5
131
330
2
100
AcDbEntity
  8
0
100
AcDbEllipse
 10
27.00390052620615
 20
10.62640178681723
 30
0.0
 11
-0.0244655705717411
 21
0.0682950636032552
 31
0.0
210
0.0
220
0.0
230
0.9999999999999998
 40
0.5293258385647972
 41
0.0
 42
6.283185307179584
  0
LINE
  5
132
330
2
100
AcDbEntity
  8
0
100
AcDbLine
 10
26.92947523593018
 20
10.443210942829
 30
0.0
 11
26.97065966253225
 21
10.45509986271377
 31
0.0
  0
ARC
  5
133
330
2
100
AcDbEntity
  8
0
100
AcDbCircle
 10
26.95795702821444
 20
10.55561219355629
 30
0.0
 40
0.1159536702933143
100
AcDbArc
 50
174.8069247137969
 51
194.1647841650016
  0
ARC
  5
134
330
2
100
AcDbEntity
  8
0
100
AcDbCircle
 10
26.95795702821444
 20
10.55561219355629
 30
0.0
 40
0.1159536702933143
100
AcDbArc
 50
221.9476948517862
 51
255.7808851648964
  0
POLYLINE
  5
135
330
2
100
AcDbEntity
  8
0
100
AcDb2dPolyline
 66
     1
 10
0.0
 20
0.0
 30
0.0
 70
     2
  0
VERTEX
  5
136
330
135
100
AcDbEntity
  8
0
100
AcDbVertex
100
AcDb2dVertex
 10
26.68097118247852
 20
12.45113853905984
 30
0.0
 42
0.0077676725024825
  0
VERTEX
  5
137
330
135
100
AcDbEntity
  8
0
100
AcDbVertex
100
AcDb2dVertex
 10
26.91488511723534
 20
12.65804288014841
 30
0.0
 42
0.0214366767901178
 70
     1
  0
VERTEX
  5
138
330
135
100
AcDbEntity
  8
0
100
AcDbVertex
100
AcDb2dVertex
 10
26.96024616526987
 20
12.70315123121229
 30
0.0
 42
0.1526085335870358
  0
VERTEX
  5
139
330
135
100
AcDbEntity
  8
0
100
AcDbVertex
100
AcDb2dVertex
 10
27.86923116858136
 20
14.62177180532792
 30
0.0
 42
-0.1008587676420542
 70
     1
  0
VERTEX
  5
13A
330
135
100
AcDbEntity
  8
0
100
AcDbVertex
100
AcDb2dVertex
 10
28.92858371422035
 20
17.61079607271821
 30
0.0
 42
-0.01919476608375
  0
VERTEX
  5
13B
330
135
100
AcDbEntity
  8
0
100
AcDbVertex
100
AcDb2dVertex
 10
29.53318317000504
 20
18.53356234498724
 30
0.0
 42
-0.0442992914063253
 70
     1
  0
VERTEX
  5
13C
330
135
100
AcDbEntity
  8
0
100
AcDbVertex
100
AcDb2dVertex
 10
29.84415462819483
 20
18.89759567952978
 30
0.0
 42
-0.1505701543002183
  0
VERTEX
  5
13D
330
135
100
AcDbEntity
  8
0
100
AcDbVertex
100
AcDb2dVertex
 10
30.32797477356851
 20
19.14727458548247
 30
0.0
 42
-0.0786376230687711
 70
     1
  0
VERTEX
  5
13E
330
135
100
AcDbEntity
  8
0
100
AcDbVertex
100
AcDb2dVertex
 10
31.35342075196517
 20
19.16836429976051
 30
0.0
 42
-0.1431923972440899
  0
VERTEX
  5
13F
330
135
100
AcDbEntity
  8
0
100
AcDbVertex
100
AcDb2dVertex
 10
32.17225864434198
 20
18.8018685251165
 30
0.0
 42
-0.1226874489830121
 70
     1
  0
VERTEX
  5
140
330
135
100
AcDbEntity
  8
0
100
AcDbVertex
100
AcDb2dVertex
 10
32.7785259767762
 20
17.9550669548033
 30
0.0
  0
SEQEND
  5
141
330
135
100
AcDbEntity
  8
0
  0
POLYLINE
  5
142
330
2
100
AcDbEntity
  8
0
100
AcDb2dPolyline
 66
     1
 10
0.0
 20
0.0
 30
0.0
  0
VERTEX
  5
143
330
142
100
AcDbEntity
  8
0
100
AcDbVertex
100
AcDb2dVertex
 10
26.67823566689154
 20
12.24899369559468
 30
0.0
 42
0.0110421595839001
  0
VERTEX
  5
144
330
142
100
AcDbEntity
  8
0
100
AcDbVertex
100
AcDb2dVertex
 10
27.0177311073403
 20
12.54534848003007
 30
0.0
 42
0.0214366767901133
  0
VERTEX
  5
145
330
142
100
AcDbEntity
  8
0
100
AcDbVertex
100
AcDb2dVertex
 10
27.07236427749887
 20
12.59967730015281
 30
0.0
 42
0.152608533587035
  0
VERTEX
  5
146
330
142
100
AcDbEntity
  8
0
100
AcDbVertex
100
AcDb2dVertex
 10
28.02031678137682
 20
14.60054768921195
 30
0.0
 42
-0.100858767642055
  0
VERTEX
  5
147
330
142
100
AcDbEntity
  8
0
100
AcDbVertex
100
AcDb2dVertex
 10
29.05931476000232
 20
17.53214037255959
 30
0.0
 42
-0.0191947660837495
  0
VERTEX
  5
148
330
142
100
AcDbEntity
  8
0
100
AcDbVertex
100
AcDb2dVertex
 10
29.65749672817239
 20
18.44511199306905
 30
0.0
 42
-0.0442992914063293
  0
VERTEX
  5
149
330
142
100
AcDbEntity
  8
0
100
AcDbVertex
100
AcDb2dVertex
 10
29.95094299296589
 20
18.7886297644544
 30
0.0
 42
-0.1505701543002064
  0
VERTEX
  5
14A
330
142
100
AcDbEntity
  8
0
100
AcDbVertex
100
AcDb2dVertex
 10
30.35491616962988
 20
18.9971030612944
 30
0.0
 42
-0.0786376230687679
  0
VERTEX
  5
14B
330
142
100
AcDbEntity
  8
0
100
AcDbVertex
100
AcDb2dVertex
 10
31.33267649582443
 20
19.017212054207
 30
0.0
 42
-0.1431923972440916
  0
VERTEX
  5
14C
330
142
100
AcDbEntity
  8
0
100
AcDbVertex
100
AcDb2dVertex
 10
32.07335489242034
 20
18.68569893634851
 30
0.0
 42
-0.0927916017300064
  0
VERTEX
  5
14D
330
142
100
AcDbEntity
  8
0
100
AcDbVertex
100
AcDb2dVertex
 10
32.53676121977668
 20
18.11317467852839
 30
0.0
 42
-0.1226874489830138
  0
SEQEND
  5
14E
330
142
100
AcDbEntity
  8
0
  0
POLYLINE
  5
14F
330
2
100
AcDbEntity
  8
0
100
AcDb2dPolyline
 66
     1
 10
0.0
 20
0.0
 30
0.0
 70
     2
  0
VERTEX
  5
150
330
14F
100
AcDbEntity
  8
0
100
AcDbVertex
100
AcDb2dVertex
 10
26.88112053422901
 20
10.53264303659541
 30
0.0
 42
-0.1720596708029103
  0
VERTEX
  5
151
330
14F
100
AcDbEntity
  8
0
100
AcDbVertex
100
AcDb2dVertex
 10
26.6363776747023
 20
10.56747054065874
 30
0.0
 42
-0.2899910785731739
 70
     1
  0
VERTEX
  5
152
330
14F
100
AcDbEntity
  8
0
100
AcDbVertex
100
AcDb2dVertex
 10
26.55908328462909
 20
10.70117439630793
 30
0.0
 42
-0.1238179328475234
  0
VERTEX
  5
153
330
14F
100
AcDbEntity
  8
0
100
AcDbVertex
100
AcDb2dVertex
 10
26.61203977489524
 20
10.88078390937575
 30
0.0
 42
0.1295442674349022
 70
     1
  0
VERTEX
  5
154
330
14F
100
AcDbEntity
  8
0
100
AcDbVertex
100
AcDb2dVertex
 10
26.66078675253691
 20
11.05325973257456
 30
0.0
 42
0.0003470033116146
  0
VERTEX
  5
155
330
14F
100
AcDbEntity
  8
0
100
AcDbVertex
100
AcDb2dVertex
 10
26.66465316203591
 20
11.2793578500187
 30
0.0
 42
0.0001790697528412
 70
     1
  0
VERTEX
  5
156
330
14F
100
AcDbEntity
  8
0
100
AcDbVertex
100
AcDb2dVertex
 10
26.67168454522816
 20
11.71750083911465
 30
0.0
 42
0.0017697939597891
  0
VERTEX
  5
157
330
14F
100
AcDbEntity
  8
0
100
AcDbVertex
100
AcDb2dVertex
 10
26.67848033529487
 20
12.27684152366011
 30
0.0
 42
-0.0040163123638862
 70
     1
  0
VERTEX
  5
158
330
14F
100
AcDbEntity
  8
0
100
AcDbVertex
100
AcDb2dVertex
 10
26.6825823379194
 20
12.52330308154265
 30
0.0
 42
-0.251992011374556
  0
VERTEX
  5
159
330
14F
100
AcDbEntity
  8
0
100
AcDbVertex
100
AcDb2dVertex
 10
26.76282639185804
 20
12.66398030422344
 30
0.0
 42
0.1011741384883213
 70
     1
  0
VERTEX
  5
15A
330
14F
100
AcDbEntity
  8
0
100
AcDbVertex
100
AcDb2dVertex
 10
27.04046557198139
 20
12.92806020505037
 30
0.0
 42
0.0338829944212855
  0
VERTEX
  5
15B
330
14F
100
AcDbEntity
  8
0
100
AcDbVertex
100
AcDb2dVertex
 10
27.48859814586882
 20
13.67393071446894
 30
0.0
 42
0.0484605521380047
 70
     1
  0
VERTEX
  5
15C
330
14F
100
AcDbEntity
  8
0
100
AcDbVertex
100
AcDb2dVertex
 10
27.71251580700816
 20
14.2404015549591
 30
0.0
 42
0.0424571349975442
  0
VERTEX
  5
15D
330
14F
100
AcDbEntity
  8
0
100
AcDbVertex
100
AcDb2dVertex
 10
27.87340743472997
 20
15.05617443834457
 30
0.0
 42
-0.0368665673551751
 70
     1
  0
VERTEX
  5
15E
330
14F
100
AcDbEntity
  8
0
100
AcDbVertex
100
AcDb2dVertex
 10
28.04812057612632
 20
15.99724694870123
 30
0.0
 42
-0.0070073754447878
  0
VERTEX
  5
15F
330
14F
100
AcDbEntity
  8
0
100
AcDbVertex
100
AcDb2dVertex
 10
28.2021794417736
 20
16.55114843588841
 30
0.0
 42
-0.0159640318963769
 70
     1
  0
VERTEX
  5
160
330
14F
100
AcDbEntity
  8
0
100
AcDbVertex
100
AcDb2dVertex
 10
28.28091368611295
 20
16.79096950808557
 30
0.0
 42
-0.0468525850060314
  0
VERTEX
  5
161
330
14F
100
AcDbEntity
  8
0
100
AcDbVertex
100
AcDb2dVertex
 10
28.45850040554782
 20
17.16548241154324
 30
0.0
 42
-0.0145719470946157
 70
     1
  0
VERTEX
  5
162
330
14F
100
AcDbEntity
  8
0
100
AcDbVertex
100
AcDb2dVertex
 10
29.17124980056268
 20
18.28841866034166
 30
0.0
 42
-0.018915296625719
  0
VERTEX
  5
163
330
14F
100
AcDbEntity
  8
0
100
AcDbVertex
100
AcDb2dVertex
 10
29.42441131734073
 20
18.63380032175031
 30
0.0
 42
-0.0175083401075683
 70
     1
  0
VERTEX
  5
164
330
14F
100
AcDbEntity
  8
0
100
AcDbVertex
100
AcDb2dVertex
 10
29.72433101789709
 20
18.98602483272104
 30
0.0
 42
-0.1543945095956064
  0
VERTEX
  5
165
330
14F
100
AcDbEntity
  8
0
100
AcDbVertex
100
AcDb2dVertex
 10
30.22435002526307
 20
19.27501063529296
 30
0.0
 42
-0.08732751941215
 70
     1
  0
VERTEX
  5
166
330
14F
100
AcDbEntity
  8
0
100
AcDbVertex
100
AcDb2dVertex
 10
31.22828894044573
 20
19.31867452123245
 30
0.0
 42
-0.0848986319605484
  0
VERTEX
  5
167
330
14F
100
AcDbEntity
  8
0
100
AcDbVertex
100
AcDb2dVertex
 10
31.98752274353939
 20
19.08370037522577
 30
0.0
 42
-0.0860219009241848
 70
     1
  0
VERTEX
  5
168
330
14F
100
AcDbEntity
  8
0
100
AcDbVertex
100
AcDb2dVertex
 10
32.61625502360441
 20
18.61445550131691
 30
0.0
 42
-0.077670393222595
  0
VERTEX
  5
169
330
14F
100
AcDbEntity
  8
0
100
AcDbVertex
100
AcDb2dVertex
 10
32.83763204820579
 20
18.2929395548629
 30
0.0
 42
-0.0589490663873817
 70
     1
  0
VERTEX
  5
16A
330
14F
100
AcDbEntity
  8
0
100
AcDbVertex
100
AcDb2dVertex
 10
33.00397219700858
 20
17.80763112029315
 30
0.0
  0
SEQEND
  5
16B
330
14F
100
AcDbEntity
  8
0
  0
POLYLINE
  5
16C
330
2
100
AcDbEntity
  8
0
100
AcDb2dPolyline
 66
     1
 10
0.0
 20
0.0
 30
0.0
  0
VERTEX
  5
16D
330
16C
100
AcDbEntity
  8
0
100
AcDbVertex
100
AcDb2dVertex
 10
26.93255730666507
 20
10.4880974849769
 30
0.0
 42
-0.1298166996315897
  0
VERTEX
  5
16E
330
16C
100
AcDbEntity
  8
0
100
AcDbVertex
100
AcDb2dVertex
 10
26.60803520872511
 20
10.50332608087491
 30
0.0
 42
-0.3066950891225741
  0
VERTEX
  5
16F
330
16C
100
AcDbEntity
  8
0
100
AcDbVertex
100
AcDb2dVertex
 10
26.49136801144253
 20
10.7047285487003
 30
0.0
 42
-0.1191183605176273
  0
VERTEX
  5
170
330
16C
100
AcDbEntity
  8
0
100
AcDbVertex
100
AcDb2dVertex
 10
26.55459076581471
 20
10.91693421165274
 30
0.0
 42
0.1279009424904339
  0
VERTEX
  5
171
330
16C
100
AcDbEntity
  8
0
100
AcDbVertex
100
AcDb2dVertex
 10
26.5929890564272
 20
11.05446912257529
 30
0.0
 42
0.000357853979317
  0
VERTEX
  5
172
330
16C
100
AcDbEntity
  8
0
100
AcDbVertex
100
AcDb2dVertex
 10
26.59678047565549
 20
11.27590090525727
 30
0.0
 42
0.0001790697528741
  0
VERTEX
  5
173
330
16C
100
AcDbEntity
  8
0
100
AcDbVertex
100
AcDb2dVertex
 10
26.60388440808131
 20
11.7185646176745
 30
0.0
 42
0.0017697939597891
  0
VERTEX
  5
174
330
16C
100
AcDbEntity
  8
0
100
AcDbVertex
100
AcDb2dVertex
 10
26.61067436642546
 20
12.27742531098196
 30
0.0
 42
-0.0040163123638862
  0
VERTEX
  5
175
330
16C
100
AcDbEntity
  8
0
100
AcDbVertex
100
AcDb2dVertex
 10
26.61479449709997
 20
12.5249760606227
 30
0.0
 42
-0.2519920113745543
  0
VERTEX
  5
176
330
16C
100
AcDbEntity
  8
0
100
AcDbVertex
100
AcDb2dVertex
 10
26.72688153301222
 20
12.72147775933679
 30
0.0
 42
0.1011741384883219
  0
VERTEX
  5
177
330
16C
100
AcDbEntity
  8
0
100
AcDbVertex
100
AcDb2dVertex
 10
26.9848383964431
 20
12.96683658398895
 30
0.0
 42
0.0338829944212857
  0
VERTEX
  5
178
330
16C
100
AcDbEntity
  8
0
100
AcDbVertex
100
AcDb2dVertex
 10
27.42824333146753
 20
13.70483842548964
 30
0.0
 42
0.0484605521380046
  0
VERTEX
  5
179
330
16C
100
AcDbEntity
  8
0
100
AcDbVertex
100
AcDb2dVertex
 10
27.64734042175039
 20
14.25911410097709
 30
0.0
 42
0.042457134997544
  0
VERTEX
  5
17A
330
16C
100
AcDbEntity
  8
0
100
AcDbVertex
100
AcDb2dVertex
 10
27.80600776543858
 20
15.06360914085149
 30
0.0
 42
-0.0368665673551751
  0
VERTEX
  5
17B
330
16C
100
AcDbEntity
  8
0
100
AcDbVertex
100
AcDb2dVertex
 10
27.98254367312112
 20
16.01449977496856
 30
0.0
 42
-0.0070073754447877
  0
VERTEX
  5
17C
330
16C
100
AcDbEntity
  8
0
100
AcDbVertex
100
AcDb2dVertex
 10
28.13711181347623
 20
16.5702323026272
 30
0.0
 42
-0.0159640318963768
  0
VERTEX
  5
17D
330
16C
100
AcDbEntity
  8
0
100
AcDbVertex
100
AcDb2dVertex
 10
28.21719634079497
 20
16.81416627785207
 30
0.0
 42
-0.0468525850060314
  0
VERTEX
  5
17E
330
16C
100
AcDbEntity
  8
0
100
AcDbVertex
100
AcDb2dVertex
 10
28.40021591401918
 20
17.20013653495184
 30
0.0
 42
-0.0145719470946158
  0
VERTEX
  5
17F
330
16C
100
AcDbEntity
  8
0
100
AcDbVertex
100
AcDb2dVertex
 10
29.11508290272931
 20
18.32640905136014
 30
0.0
 42
-0.0189152966257189
  0
VERTEX
  5
180
330
16C
100
AcDbEntity
  8
0
100
AcDbVertex
100
AcDb2dVertex
 10
29.37127638608461
 20
18.67592714577469
 30
0.0
 42
-0.0175083401075684
  0
VERTEX
  5
181
330
16C
100
AcDbEntity
  8
0
100
AcDbVertex
100
AcDb2dVertex
 10
29.67427388276293
 20
19.03176620834667
 30
0.0
 42
-0.1543945095956066
  0
VERTEX
  5
182
330
16C
100
AcDbEntity
  8
0
100
AcDbVertex
100
AcDb2dVertex
 10
30.20970588463136
 20
19.34121893814933
 30
0.0
 42
-0.08732751941215
  0
VERTEX
  5
183
330
16C
100
AcDbEntity
  8
0
100
AcDbVertex
100
AcDb2dVertex
 10
31.23712951848411
 20
19.38590423491554
 30
0.0
 42
-0.0848986319605482
  0
VERTEX
  5
184
330
16C
100
AcDbEntity
  8
0
100
AcDbVertex
100
AcDb2dVertex
 10
32.01820385929926
 20
19.14417069321477
 30
0.0
 42
-0.0860219009241848
  0
VERTEX
  5
185
330
16C
100
AcDbEntity
  8
0
100
AcDbVertex
100
AcDb2dVertex
 10
32.66549728099418
 20
18.66107299062202
 30
0.0
 42
-0.077670393222595
  0
VERTEX
  5
186
330
16C
100
AcDbEntity
  8
0
100
AcDbVertex
100
AcDb2dVertex
 10
32.89874990586659
 20
18.32230956842978
 30
0.0
 42
-0.0664902612493204
  0
VERTEX
  5
187
330
16C
100
AcDbEntity
  8
0
100
AcDbVertex
100
AcDb2dVertex
 10
33.0835219320476
 20
17.75560770841931
 30
0.0
 42
-0.0589490663873819
  0
SEQEND
  5
188
330
16C
100
AcDbEntity
  8
0
  0
ELLIPSE
  5
189
330
2
100
AcDbEntity
  8
0
100
AcDbEllipse
 10
31.83374869437568
 20
17.19503812905388
 30
0.0
 11
0.0744798299019338
 21
0.1750578140459101
 31
0.0
210
0.0
220
0.0
230
1.0
 40
0.6712413703634488
 41
2.352820198665336
 42
7.100790044620264
  0
ELLIPSE
  5
18A
330
2
100
AcDbEntity
  8
0
100
AcDbEllipse
 10
32.26711052002237
 20
18.76746243234445
 30
0.0
 11
-0.1840656987075945
 21
-0.1474093785232314
 31
0.0
210
0.0
220
0.0
230
1.0
 40
0.7356898586556864
 41
2.666381976218051
 42
7.005601581096779
  0
ELLIPSE
  5
18B
330
2
100
AcDbEntity
  8
0
100
AcDbEllipse
 10
32.26711052002237
 20
18.76746243234445
 30
0.0
 11
-0.1840656987075945
 21
-0.1474093785232314
 31
0.0
210
0.0
220
0.0
230
1.0
 40
0.7356898586556864
 41
7.774292969413258
 42
8.547122479703091
  0
ELLIPSE
  5
18C
330
2
100
AcDbEntity
  8
0
100
AcDbEllipse
 10
29.78386589907155
 20
18.88442549441494
 30
0.0
 11
-0.1344993276148392
 21
0.1731588363007274
 31
0.0
210
0.0
220
0.0
230
0.9999999999999998
 40
0.7304303203114987
 41
5.791767423477494
 42
10.06461968877127
  0
ELLIPSE
  5
18D
330
2
100
AcDbEntity
  8
0
100
AcDbEllipse
 10
29.78386589907155
 20
18.88442549441494
 30
0.0
 11
-0.1344993276148392
 21
0.1731588363007274
 31
0.0
210
0.0
220
0.0
230
0.9999999999999998
 40
0.7304303203114987
 41
10.9019966656526
 42
11.62661930491355
  0
ELLIPSE
  5
18E
330
2
100
AcDbEntity
  8
0
100
AcDbEllipse
 10
28.24046818040475
 20
16.25720813830527
 30
0.0
 11
0.2101377210687659
 21
-0.0784131871216723
 31
0.0
210
0.0
220
0.0
230
1.0
 40
0.717724279218843
 41
2.606324269753272
 42
6.848745401999693
  0
ELLIPSE
  5
18F
330
2
100
AcDbEntity
  8
0
100
AcDbEllipse
 10
28.24046818040475
 20
16.25720813830527
 30
0.0
 11
0.2101377210687659
 21
-0.0784131871216723
 31
0.0
210
0.0
220
0.0
230
1.0
 40
0.717724279218843
 41
7.68627859155904
 42
8.465913474286624
  0
ELLIPSE
  5
190
330
2
100
AcDbEntity
  8
0
100
AcDbEllipse
 10
27.27750732731758
 20
13.09196947082596
 30
0.0
 11
0.1460797522040184
 21
-0.1630998947802589
 31
0.0
210
0.0
220
0.0
230
1.0
 40
0.7058933915698731
 41
2.718566686488587
 42
7.276815129577357
  0
ELLIPSE
  5
191
330
2
100
AcDbEntity
  8
0
100
AcDbEllipse
 10
27.27750732731758
 20
13.09196947082596
 30
0.0
 11
0.1460797522040184
 21
-0.1630998947802589
 31
0.0
210
0.0
220
0.0
230
1.0
 40
0.7058933915698731
 41
8.060701348695166
 42
8.575985258860635
  0
ELLIPSE
  5
192
330
2
100
AcDbEntity
  8
0
100
AcDbEllipse
 10
31.77264706009167
 20
16.95518945055976
 30
0.0
 11
0.0085389781429864
 21
0.0747468439504155
 31
0.0
210
0.0
220
0.0
230
0.9999999999999998
 40
0.5639676530798945
 41
0.0
 42
6.283185307179585
  0
ARC
  5
193
330
2
100
AcDbEntity
  8
0
100
AcDbCircle
 10
26.83247270356604
 20
15.63821146902215
 30
0.0
 40
5.08033135147631
100
AcDbArc
 50
272.2837153392045
 51
14.17001468523263
  0
POLYLINE
  5
194
330
2
100
AcDbEntity
  8
0
100
AcDb2dPolyline
 66
     1
 10
0.0
 20
0.0
 30
0.0
 70
     2
  0
VERTEX
  5
195
330
194
100
AcDbEntity
  8
0
100
AcDbVertex
100
AcDb2dVertex
 10
33.28890270796117
 20
17.6212941410482
 30
0.0
 42
-0.0651972217183833
  0
VERTEX
  5
196
330
194
100
AcDbEntity
  8
0
100
AcDbVertex
100
AcDb2dVertex
 10
33.56254214841785
 20
19.32152055392458
 30
0.0
 42
-0.0769302858885146
 70
     1
  0
VERTEX
  5
197
330
194
100
AcDbEntity
  8
0
100
AcDbVertex
100
AcDb2dVertex
 10
34.18963296252181
 20
20.64207130593397
 30
0.0
 42
-0.0421572760494638
  0
VERTEX
  5
198
330
194
100
AcDbEntity
  8
0
100
AcDbVertex
100
AcDb2dVertex
 10
35.30796526297809
 20
22.0217218632852
 30
0.0
 42
-0.0877798921140086
 70
     1
  0
VERTEX
  5
199
330
194
100
AcDbEntity
  8
0
100
AcDbVertex
100
AcDb2dVertex
 10
36.00110873869332
 20
22.52737390426947
 30
0.0
 42
-0.0959306875048855
  0
VERTEX
  5
19A
330
194
100
AcDbEntity
  8
0
100
AcDbVertex
100
AcDb2dVertex
 10
36.49078084606518
 20
22.65966750011712
 30
0.0
 42
-0.0597126088432014
 70
     1
  0
VERTEX
  5
19B
330
194
100
AcDbEntity
  8
0
100
AcDbVertex
100
AcDb2dVertex
 10
37.30022822970929
 20
22.6218457098796
 30
0.0
  0
SEQEND
  5
19C
330
194
100
AcDbEntity
  8
0
  0
POLYLINE
  5
19D
330
2
100
AcDbEntity
  8
0
100
AcDb2dPolyline
 66
     1
 10
0.0
 20
0.0
 30
0.0
  0
VERTEX
  5
19E
330
19D
100
AcDbEntity
  8
0
100
AcDbVertex
100
AcDb2dVertex
 10
33.43925654182639
 20
17.51791228454229
 30
0.0
 42
-0.0690316575833152
  0
VERTEX
  5
19F
330
19D
100
AcDbEntity
  8
0
100
AcDbVertex
100
AcDb2dVertex
 10
33.70874992913101
 20
19.27792456376964
 30
0.0
 42
-0.0769302858885144
  0
VERTEX
  5
1A0
330
19D
100
AcDbEntity
  8
0
100
AcDbVertex
100
AcDb2dVertex
 10
34.31582003274431
 20
20.55631497201419
 30
0.0
 42
-0.0421572760494639
  0
VERTEX
  5
1A1
330
19D
100
AcDbEntity
  8
0
100
AcDbVertex
100
AcDb2dVertex
 10
35.41798044012943
 20
21.91601478549456
 30
0.0
 42
-0.0877798921140092
  0
VERTEX
  5
1A2
330
19D
100
AcDbEntity
  8
0
100
AcDbVertex
100
AcDb2dVertex
 10
36.06817686382864
 20
22.39033671191093
 30
0.0
 42
-0.0959306875048859
  0
VERTEX
  5
1A3
330
19D
100
AcDbEntity
  8
0
100
AcDbVertex
100
AcDb2dVertex
 10
36.50184643082158
 20
22.50750022921861
 30
0.0
 42
-0.0419819600654144
  0
VERTEX
  5
1A4
330
19D
100
AcDbEntity
  8
0
100
AcDbVertex
100
AcDb2dVertex
 10
37.04697800564557
 20
22.50132768593736
 30
0.0
 42
-0.0597126088432013
  0
SEQEND
  5
1A5
330
19D
100
AcDbEntity
  8
0
  0
ARC
  5
1A6
330
2
100
AcDbEntity
  8
0
100
AcDbCircle
 10
34.55215601916623
 20
15.5397074558051
 30
0.0
 40
2.205296253571221
100
AcDbArc
 50
26.3812521628786
 51
118.6458326183395
  0
ARC
  5
1A7
330
2
100
AcDbEntity
  8
0
100
AcDbCircle
 10
34.55215601916623
 20
15.5397074558051
 30
0.0
 40
2.137487771638917
100
AcDbArc
 50
27.19726869253236
 51
117.9075667316458
  0
SPLINE
  5
1A8
330
2
100
AcDbEntity
  8
0
100
AcDbSpline
210
0.0
220
0.0
230
1.0
 70
     8
 71
     3
 72
    12
 73
     8
 74
     0
 42
0.000000001
 43
0.0000000001
 40
0.0
 40
0.0
 40
0.0
 40
0.0
 40
0.0561527116454317
 40
0.2973809050237443
 40
0.5349953206127607
 40
0.7911384943783137
 40
1.0
 40
1.0
 40
1.0
 40
1.0
 10
2.49446718277881
 20
4.87122126726051
 30
0.0
 10
2.498480212256783
 20
4.870227257706525
 30
0.0
 10
2.519732940808167
 20
4.864963051364567
 30
0.0
 10
2.559589210001805
 20
4.878909866676317
 30
0.0
 10
2.604441251372271
 20
4.91123581914708
 30
0.0
 10
2.638944233989999
 20
4.95817188611326
 30
0.0
 10
2.653888059812841
 20
4.996913998542136
 30
0.0
 10
2.660600228742501
 20
5.014315406079644
 30
0.0
  0
SPLINE
  5
1A9
330
2
100
AcDbEntity
  8
0
100
AcDbSpline
210
0.0
220
0.0
230
1.0
 70
     8
 71
     3
 72
    14
 73
    10
 74
     0
 42
0.000000001
 43
0.0000000001
 40
0.0
 40
0.0
 40
0.0
 40
0.0
 40
0.0895666099134426
 40
0.2574446574809165
 40
0.4265404418782642
 40
0.5984839071749279
 40
0.7563954180467296
 40
0.9018621575732323
 40
1.0
 40
1.0
 40
1.0
 40
1.0
 10
2.660600228742501
 20
5.014315406079644
 30
0.0
 10
2.664353487815174
 20
5.027207806639173
 30
0.0
 10
2.675141620773966
 20
5.064264915860628
 30
0.0
 10
2.681633561561695
 20
5.131207393982213
 30
0.0
 10
2.674081390573075
 20
5.208713266526873
 30
0.0
 10
2.651025726818539
 20
5.276062210595745
 30
0.0
 10
2.615262138992654
 20
5.325494486971549
 30
0.0
 10
2.574239238459015
 20
5.355644583748764
 30
0.0
 10
2.544802325232149
 20
5.358188305569345
 30
0.0
 10
2.532943454891445
 20
5.35921306203821
 30
0.0
  0
LINE
  5
1AA
330
2
100
AcDbEntity
  8
0
100
AcDbLine
 10
2.375803374553554
 20
4.876786280014933
 30
0.0
 11
2.497472139685
 21
4.868932108000931
 31
0.0
  0
LINE
  5
1AB
330
2
100
AcDbEntity
  8
0
100
AcDbLine
 10
2.534557258815912
 20
5.361457275012
 30
0.0
 11
2.413083233754371
 21
5.371911143293057
 31
0.0
  0
LINE
  5
1AC
330
2
100
AcDbEntity
  8
0
100
AcDbLine
 10
2.198112674300918
 20
5.460438970234222
 30
0.0
 11
1.971812730709984
 21
5.47504641693399
 31
0.0
  0
SPLINE
  5
1AD
330
2
100
AcDbEntity
  8
0
100
AcDbSpline
210
0.0
220
0.0
230
1.0
 70
     8
 71
     3
 72
    12
 73
     8
 74
     0
 42
0.000000001
 43
0.0000000001
 40
0.0
 40
0.0
 40
0.0
 40
0.0
 40
0.0561526623884076
 40
0.2973808932933741
 40
0.5349958086800302
 40
0.7911384618867823
 40
1.0
 40
1.0
 40
1.0
 40
1.0
 10
2.788613531019635
 20
5.764293890272179
 30
0.0
 10
2.79262656068055
 20
5.763299851666464
 30
0.0
 10
2.8138793080057
 20
5.758035487058225
 30
0.0
 10
2.853735623921536
 20
5.771982426335339
 30
0.0
 10
2.898587483151479
 20
5.80430851012197
 30
0.0
 10
2.933090631457244
 20
5.851244453604972
 30
0.0
 10
2.948034417729121
 20
5.889986534603467
 30
0.0
 10
2.954746576983241
 20
5.907387948995192
 30
0.0
  0
SPLINE
  5
1AE
330
2
100
AcDbEntity
  8
0
100
AcDbSpline
210
0.0
220
0.0
230
1.0
 70
     8
 71
     3
 72
    14
 73
    10
 74
     0
 42
0.000000001
 43
0.0000000001
 40
0.0
 40
0.0
 40
0.0
 40
0.0
 40
0.0895670159676381
 40
0.2574451310446296
 40
0.4265406876876749
 40
0.5984844361673513
 40
0.7563960547221375
 40
0.9018622010086328
 40
1.0
 40
1.0
 40
1.0
 40
1.0
 10
2.954746576983241
 20
5.907387948995192
 30
0.0
 10
2.958499833355824
 20
5.920280400976693
 30
0.0
 10
2.969287929489784
 20
5.957337558167893
 30
0.0
 10
2.975779973271998
 20
6.02428008244941
 30
0.0
 10
2.968227526630416
 20
6.101785793036103
 30
0.0
 10
2.945172750651424
 20
6.169135111998084
 30
0.0
 10
2.909406386742071
 20
6.218566504696876
 30
0.0
 10
2.868385829584505
 20
6.248717162595908
 30
0.0
 10
2.838948761574068
 20
6.251260971407449
 30
0.0
 10
2.827089803132269
 20
6.25228576514603
 30
0.0
  0
LINE
  5
1AF
330
2
100
AcDbEntity
  8
0
100
AcDbLine
 10
2.669948441248341
 20
5.769858452980557
 30
0.0
 11
2.791618487929437
 21
5.76200481110824
 31
0.0
  0
LINE
  5
1B0
330
2
100
AcDbEntity
  8
0
100
AcDbLine
 10
2.828703607060422
 20
6.254529817926843
 30
0.0
 11
2.707229581998965
 21
6.264983686207863
 31
0.0
  0
LINE
  5
1B1
330
2
100
AcDbEntity
  8
0
100
AcDbLine
 10
2.49225902254544
 20
6.353511513149029
 30
0.0
 11
2.265959078944508
 21
6.368118959848832
 31
0.0
  0
LINE
  5
1B2
330
2
100
AcDbEntity
  8
0
100
AcDbLine
 10
2.731457543443979
 20
6.664123754994842
 30
0.0
 11
2.634690811005706
 21
6.670040477191141
 31
0.0
  0
LINE
  5
1B3
330
2
100
AcDbEntity
  8
0
100
AcDbLine
 10
2.710587526564882
 20
2.994778354969502
 30
0.0
 11
2.752331071965422
 21
3.121519123198945
 31
0.0
  0
LINE
  5
1B4
330
2
100
AcDbEntity
  8
0
100
AcDbLine
 10
3.849486624666077
 20
2.309896017858518
 30
0.0
 11
3.882343983837559
 21
2.409655327916321
 31
0.0
  0
LINE
  5
1B5
330
2
100
AcDbEntity
  8
0
100
AcDbLine
 10
3.780051591416186
 20
1.769982893839217
 30
0.0
 11
4.082891598414497
 21
1.743921016779515
 31
0.0
  0
LINE
  5
1B6
330
2
100
AcDbEntity
  8
0
100
AcDbLine
 10
4.465047050901847
 20
1.421898921608993
 30
0.0
 11
4.562238661936055
 21
1.413211351519935
 31
0.0
  0
SPLINE
  5
1B7
330
2
100
AcDbEntity
  8
0
100
AcDbSpline
210
0.0
220
0.0
230
1.0
 70
     8
 71
     3
 72
     9
 73
     5
 74
     0
 42
0.000000001
 43
0.0000000001
 40
0.0
 40
0.0
 40
0.0
 40
0.0
 40
0.6184372295390216
 40
1.0
 40
1.0
 40
1.0
 40
1.0
 10
3.984949953212752
 20
6.054909246067128
 30
0.0
 10
3.970410010486895
 20
6.065757949918928
 30
0.0
 10
3.946899228743142
 20
6.083300075996662
 30
0.0
 10
3.917815015086703
 20
6.085418905924781
 30
0.0
 10
3.906717561947263
 20
6.086227372542286
 30
0.0
  0
LINE
  5
1B8
330
2
100
AcDbEntity
  8
0
100
AcDbLine
 10
3.907284170613334
 20
6.088434564704896
 30
0.0
 11
2.965650738545623
 21
6.172604834775473
 31
0.0
  0
LINE
  5
1B9
330
2
100
AcDbEntity
  8
0
100
AcDbLine
 10
4.748012217629779
 20
5.394077940417576
 30
0.0
 11
3.984949953208584
 21
6.054909246068779
 31
0.0
  0
SPLINE
  5
1BA
330
2
100
AcDbEntity
  8
0
100
AcDbSpline
210
0.0
220
0.0
230
1.0
 70
     8
 71
     3
 72
     9
 73
     5
 74
     0
 42
0.000000001
 43
0.0000000001
 40
0.0
 40
0.0
 40
0.0
 40
0.0
 40
0.4962257895678297
 40
1.0
 40
1.0
 40
1.0
 40
1.0
 10
3.529306604861028
 20
2.924352568273236
 30
0.0
 10
3.535710407883686
 20
2.92974605476995
 30
0.0
 10
3.548615426440396
 20
2.940615071677365
 30
0.0
 10
3.557861969114791
 20
2.953268462189299
 30
0.0
 10
3.562520138849739
 20
2.959642914003729
 30
0.0
  0
SPLINE
  5
1BB
330
2
100
AcDbEntity
  8
0
100
AcDbSpline
210
0.0
220
0.0
230
1.0
 70
     8
 71
     3
 72
    10
 73
     6
 74
     0
 42
0.000000001
 43
0.0000000001
 40
0.0
 40
0.0
 40
0.0
 40
0.0
 40
0.4246994035048667
 40
0.9248441483348596
 40
1.0
 40
1.0
 40
1.0
 40
1.0
 10
3.475451028263388
 20
2.896974547885929
 30
0.0
 10
3.483272726525267
 20
2.899180531700357
 30
0.0
 10
3.500305601560705
 20
2.903984379328253
 30
0.0
 10
3.518925929657591
 20
2.914750280291498
 30
0.0
 10
3.528107187916205
 20
2.923243088717403
 30
0.0
 10
3.529306604861028
 20
2.924352568273278
 30
0.0
  0
LINE
  5
1BC
330
2
100
AcDbEntity
  8
0
100
AcDbLine
 10
3.562520138850136
 20
2.959642913999875
 30
0.0
 11
3.587386023616875
 21
2.992780391244066
 31
0.0
  0
LINE
  5
1BD
330
2
100
AcDbEntity
  8
0
100
AcDbLine
 10
3.458263631827707
 20
2.893819529008474
 30
0.0
 11
3.47545102825875
 21
2.896974547888368
 31
0.0
  0
SPLINE
  5
1BE
330
2
100
AcDbEntity
  8
0
100
AcDbSpline
210
0.0
220
0.0
230
1.0
 70
     8
 71
     2
 72
     6
 73
     3
 74
     0
 42
0.000000001
 43
0.0000000001
 40
0.0
 40
0.0
 40
0.0
 40
1.0
 40
1.0
 40
1.0
 10
3.455731249216833
 20
2.893263360674337
 30
0.0
 10
3.457007704291827
 20
2.893545480447738
 30
0.0
 10
3.458263631829128
 20
2.893819529008552
 30
0.0
  0
SPLINE
  5
1BF
330
2
100
AcDbEntity
  8
0
100
AcDbSpline
210
0.0
220
0.0
230
1.0
 70
     8
 71
     3
 72
    12
 73
     8
 74
     0
 42
0.000000001
 43
0.0000000001
 40
0.0
 40
0.0
 40
0.0
 40
0.0
 40
0.067366168286369
 40
0.3069842954474938
 40
0.5348031355017388
 40
0.7837831707209901
 40
1.0
 40
1.0
 40
1.0
 40
1.0
 10
4.645122485958064
 20
1.889852156966926
 30
0.0
 10
4.649871599018253
 20
1.888987429446735
 30
0.0
 10
4.671513072236402
 20
1.885046908925876
 30
0.0
 10
4.709745943717996
 20
1.897829530489788
 30
0.0
 10
4.751956447162953
 20
1.925844861122946
 30
0.0
 10
4.783233515995919
 20
1.965233654226405
 30
0.0
 10
4.795836203612389
 20
1.997156616514241
 30
0.0
 10
4.80169375202848
 20
2.011993951444528
 30
0.0
  0
LINE
  5
1C0
330
2
100
AcDbEntity
  8
0
100
AcDbLine
 10
4.147262525754627
 20
1.918295115462519
 30
0.0
 11
4.644670223982314
 21
1.887882919846779
 31
0.0
  0
LINE
  5
1C1
330
2
100
AcDbEntity
  8
0
100
AcDbLine
 10
5.06694284595375
 20
2.473369109047292
 30
0.0
 11
5.202067933863465
 21
2.583558870078078
 31
0.0
  0
SPLINE
  5
1C2
330
2
100
AcDbEntity
  8
0
100
AcDbSpline
210
0.0
220
0.0
230
1.0
 70
     8
 71
     3
 72
    11
 73
     7
 74
     0
 42
0.000000001
 43
0.0000000001
 40
0.0
 40
0.0
 40
0.0
 40
0.0
 40
0.1430693510064041
 40
0.4273942590745158
 40
0.7122227007896443
 40
1.0
 40
1.0
 40
1.0
 40
1.0
 10
4.852479831315559
 20
2.166186632057878
 30
0.0
 10
4.858310604568948
 20
2.182442554647864
 30
0.0
 10
4.875729003387109
 20
2.231004234295066
 30
0.0
 10
4.918694817625835
 20
2.310500740473747
 30
0.0
 10
4.984913003757136
 20
2.399848960296427
 30
0.0
 10
5.039505849476667
 20
2.448778399027548
 30
0.0
 10
5.06694284595516
 20
2.473369109045877
 30
0.0
  0
LINE
  5
1C3
330
2
100
AcDbEntity
  8
0
100
AcDbLine
 10
4.801693752027215
 20
2.011993951444408
 30
0.0
 11
4.852479831316739
 21
2.166186632060437
 31
0.0
  0
LINE
  5
1C4
330
2
100
AcDbEntity
  8
0
100
AcDbLine
 10
4.990441021278374
 20
6.115203884300654
 30
0.0
 11
4.41097299717635
 21
4.355850893155038
 31
0.0
  0
LINE
  5
1C5
330
2
100
AcDbEntity
  8
0
100
AcDbLine
 10
4.9581484358575
 20
6.731918752649825
 30
0.0
 11
4.602172003267286
 21
6.865847230614053
 31
0.0
  0
LINE
  5
1C6
330
2
100
AcDbEntity
  8
0
100
AcDbLine
 10
5.354682134326431
 20
6.592762353907972
 30
0.0
 11
5.256758318520513
 21
6.677566866029901
 31
0.0
  0
LINE
  5
1C7
330
2
100
AcDbEntity
  8
0
100
AcDbLine
 10
5.230743396764954
 20
6.688019739262483
 30
0.0
 11
5.103733985471764
 21
6.697582447522725
 31
0.0
  0
LINE
  5
1C8
330
2
100
AcDbEntity
  8
0
100
AcDbLine
 10
3.914716784308656
 20
6.921919804791188
 30
0.0
 11
3.901479775728251
 21
6.881731437501648
 31
0.0
  0
LINE
  5
1C9
330
2
100
AcDbEntity
  8
0
100
AcDbLine
 10
3.909382462944325
 20
6.862110457153905
 30
0.0
 11
3.695471942968223
 21
6.878216781890723
 31
0.0
  0
LINE
  5
1CA
330
2
100
AcDbEntity
  8
0
100
AcDbLine
 10
3.517752506443255
 20
6.970123256321746
 30
0.0
 11
2.977711006589249
 21
7.010785836515241
 31
0.0
  0
LINE
  5
1CB
330
2
100
AcDbEntity
  8
0
100
AcDbLine
 10
3.695505752846526
 20
6.878188095818245
 30
0.0
 11
3.642797143543469
 21
6.923005449459375
 31
0.0
  0
LINE
  5
1CC
330
2
100
AcDbEntity
  8
0
100
AcDbLine
 10
0.6978994379841411
 20
2.893047164198065
 30
0.0
 11
0.6978994379841411
 21
2.85434600562211
 31
0.0
  0
LINE
  5
1CD
330
2
100
AcDbEntity
  8
0
100
AcDbLine
 10
2.485588587716738
 20
6.714540037035026
 30
0.0
 11
2.229198765712724
 21
6.564386318263053
 31
0.0
  0
LINE
  5
1CE
330
2
100
AcDbEntity
  8
0
100
AcDbLine
 10
7.693074855296305
 20
6.489288210254843
 30
0.0
 11
7.895115768016249
 21
6.474075810867569
 31
0.0
  0
LINE
  5
1CF
330
2
100
AcDbEntity
  8
0
100
AcDbLine
 10
7.922133048258795
 20
7.353013201331274
 30
0.0
 11
7.765675191652178
 21
7.488509679776079
 31
0.0
  0
LINE
  5
1D0
330
2
100
AcDbEntity
  8
0
100
AcDbLine
 10
7.072313762961013
 20
5.097837714008305
 30
0.0
 11
7.140089437645356
 21
5.128831971212566
 31
0.0
  0
SPLINE
  5
1D1
330
2
100
AcDbEntity
  8
0
100
AcDbSpline
210
0.0
220
0.0
230
1.0
 70
     8
 71
     3
 72
    10
 73
     6
 74
     0
 42
0.000000001
 43
0.0000000001
 40
0.0
 40
0.0
 40
0.0
 40
0.0
 40
0.223414656091903
 40
0.6496074072459033
 40
1.0
 40
1.0
 40
1.0
 40
1.0
 10
7.17403834682362
 20
5.181900833152434
 30
0.0
 10
7.178950125625719
 20
5.192443434386487
 30
0.0
 10
7.193231766537078
 20
5.223097429845395
 30
0.0
 10
7.23106915346991
 20
5.258396244789216
 30
0.0
 10
7.257513291770725
 20
5.273490982813815
 30
0.0
 10
7.269444794541198
 20
5.280301675849489
 30
0.0
  0
LINE
  5
1D2
330
2
100
AcDbEntity
  8
0
100
AcDbLine
 10
7.163767410466996
 20
5.162125905305066
 30
0.0
 11
7.174038346823079
 21
5.18190083315656
 31
0.0
  0
LINE
  5
1D3
330
2
100
AcDbEntity
  8
0
100
AcDbLine
 10
6.15442291378739
 20
7.670029553227283
 30
0.0
 11
6.11298181140807
 21
7.544209553188505
 31
0.0
  0
LINE
  5
1D4
330
2
100
AcDbEntity
  8
0
100
AcDbLine
 10
7.305620087100919
 20
4.675690591497583
 30
0.0
 11
7.330446884832123
 21
4.654189953963812
 31
0.0
  0
SPLINE
  5
1D5
330
2
100
AcDbEntity
  8
0
100
AcDbSpline
210
0.0
220
0.0
230
1.0
 70
     8
 71
     3
 72
    12
 73
     8
 74
     0
 42
0.000000001
 43
0.0000000001
 40
0.0
 40
0.0
 40
0.0
 40
0.0
 40
0.0606925764686208
 40
0.3204610155387727
 40
0.5571976569296279
 40
0.7857352886232667
 40
1.0
 40
1.0
 40
1.0
 40
1.0
 10
11.41617379845864
 20
7.930396424694131
 30
0.0
 10
11.41220592846923
 20
7.925202138619914
 30
0.0
 10
11.39125529957317
 20
7.897775947688623
 30
0.0
 10
11.37301743161951
 20
7.839990750934465
 30
0.0
 10
11.36589507382943
 20
7.765977404559619
 30
0.0
 10
11.37967392141394
 20
7.697395438604148
 30
0.0
 10
11.40485976219683
 20
7.661162331130181
 30
0.0
 10
11.41704677292658
 20
7.643629731231624
 30
0.0
  0
SPLINE
  5
1D6
330
2
100
AcDbEntity
  8
0
100
AcDbSpline
210
0.0
220
0.0
230
1.0
 70
     8
 71
     3
 72
    13
 73
     9
 74
     0
 42
0.000000001
 43
0.0000000001
 40
0.0
 40
0.0
 40
0.0
 40
0.0
 40
0.1303754809643037
 40
0.303283450701318
 40
0.4791018037484784
 40
0.6622248062783119
 40
0.8520685611530565
 40
1.0
 40
1.0
 40
1.0
 40
1.0
 10
11.76470565714433
 20
8.039117465402124
 30
0.0
 10
11.75020332898669
 20
8.048026813035946
 30
0.0
 10
11.71646756752045
 20
8.068752011316316
 30
0.0
 10
11.65243323488275
 20
8.076261385328207
 30
0.0
 10
11.58169452084065
 20
8.065841458987948
 30
0.0
 10
11.51277336848361
 20
8.033709159561066
 30
0.0
 10
11.45400089040786
 20
7.987707880946977
 30
0.0
 10
11.42769477792285
 20
7.947851747758278
 30
0.0
 10
11.41617379845864
 20
7.930396424694131
 30
0.0
  0
LINE
  5
1D7
330
2
100
AcDbEntity
  8
0
100
AcDbLine
 10
11.82544523573273
 20
8.000438451433874
 30
0.0
 11
11.76470565714433
 21
8.039117465402124
 31
0.0
  0
LINE
  5
1D8
330
2
100
AcDbEntity
  8
0
100
AcDbLine
 10
11.42044161021082
 20
7.639087267642758
 30
0.0
 11
11.44394286011276
 21
7.612556732587391
 31
0.0
  0
SPLINE
  5
1D9
330
2
100
AcDbEntity
  8
0
100
AcDbSpline
210
0.0
220
0.0
230
1.0
 70
     8
 71
     3
 72
    12
 73
     8
 74
     0
 42
0.000000001
 43
0.0000000001
 40
0.0
 40
0.0
 40
0.0
 40
0.0
 40
0.0606937166279216
 40
0.3204616990037354
 40
0.5571981577917608
 40
0.7857356728127672
 40
1.0
 40
1.0
 40
1.0
 40
1.0
 10
23.37053207266039
 20
11.38132240849393
 30
0.0
 10
23.3665640273567
 20
11.37612808494872
 30
0.0
 10
23.34561282169024
 20
11.34870215289254
 30
0.0
 10
23.32737556658461
 20
11.29091653818916
 30
0.0
 10
23.32025291902782
 20
11.21690327954479
 30
0.0
 10
23.33403212068565
 20
11.14832144664142
 30
0.0
 10
23.35921780149135
 20
11.11208825268481
 30
0.0
 10
23.37140472674368
 20
11.09455562254435
 30
0.0
  0
SPLINE
  5
1DA
330
2
100
AcDbEntity
  8
0
100
AcDbSpline
210
0.0
220
0.0
230
1.0
 70
     8
 71
     3
 72
    13
 73
     9
 74
     0
 42
0.000000001
 43
0.0000000001
 40
0.0
 40
0.0
 40
0.0
 40
0.0
 40
0.1303755812226645
 40
0.3032836839253981
 40
0.4791021721763542
 40
0.6622244685674682
 40
0.8520687492924226
 40
1.0
 40
1.0
 40
1.0
 40
1.0
 10
23.71906361096145
 20
11.49004335671485
 30
0.0
 10
23.70456128266963
 20
11.49895270484011
 30
0.0
 10
23.67082552089112
 20
11.51967790426357
 30
0.0
 10
23.60679119120253
 20
11.52718726747915
 30
0.0
 10
23.53605257767033
 20
11.51676740217647
 30
0.0
 10
23.46713152219525
 20
11.48463500546804
 30
0.0
 10
23.40835902845986
 20
11.43863392636271
 30
0.0
 10
23.38205299245732
 20
11.39877772274939
 30
0.0
 10
23.37053207266039
 20
11.38132240849393
 30
0.0
  0
LINE
  5
1DB
330
2
100
AcDbEntity
  8
0
100
AcDbLine
 10
23.37479972422261
 20
11.09001320519572
 30
0.0
 11
23.39830081393209
 21
11.06348262389295
 31
0.0
  0
LINE
  5
1DC
330
2
100
AcDbEntity
  8
0
100
AcDbLine
 10
23.39830081393209
 20
11.06348262389295
 30
0.0
 11
23.45699539930472
 21
11.0083826962271
 31
0.0
  0
LINE
  5
1DD
330
2
100
AcDbEntity
  8
0
100
AcDbLine
 10
23.81456042993439
 20
11.42126331966676
 30
0.0
 11
23.75749256978155
 21
11.46744076901157
 31
0.0
  0
LINE
  5
1DE
330
2
100
AcDbEntity
  8
0
100
AcDbLine
 10
11.44394286011276
 20
7.612556732587391
 30
0.0
 11
11.50263760567778
 21
7.557456851158946
 31
0.0
  0
LINE
  5
1DF
330
2
100
AcDbEntity
  8
0
100
AcDbLine
 10
11.86020279649999
 20
7.970337520836043
 30
0.0
 11
11.82544523573273
 21
8.000438451433874
 31
0.0
  0
LINE
  5
1E0
330
2
100
AcDbEntity
  8
0
100
AcDbLine
 10
26.80363539559202
 20
12.03199426281581
 30
0.0
 11
26.76063402040296
 21
12.01958083504679
 31
0.0
  0
LINE
  5
1E1
330
2
100
AcDbEntity
  8
0
100
AcDbLine
 10
29.55163108065632
 20
12.47771959440202
 30
0.0
 11
29.53106165790586
 21
12.49553323704504
 31
0.0
  0
LINE
  5
1E2
330
2
100
AcDbEntity
  8
0
100
AcDbLine
 10
29.53106165790586
 20
12.49553323704504
 30
0.0
 11
27.86448891402308
 21
13.93882757049812
 31
0.0
  0
LINE
  5
1E3
330
2
100
AcDbEntity
  8
0
100
AcDbLine
 10
27.73929920382536
 20
14.04724503982146
 30
0.0
 11
27.67083524188876
 21
14.10653657010211
 31
0.0
  0
LINE
  5
1E4
330
2
100
AcDbEntity
  8
0
100
AcDbLine
 10
27.61532085808904
 20
14.15461343674797
 30
0.0
 11
26.77102880917974
 21
14.88579179931453
 31
0.0
  0
LINE
  5
1E5
330
2
100
AcDbEntity
  8
0
100
AcDbLine
 10
26.68175044183839
 20
14.88354957161392
 30
0.0
 11
7.93318930479706
 21
9.471306161918567
 31
0.0
  0
LINE
  5
1E6
330
2
100
AcDbEntity
  8
0
100
AcDbLine
 10
26.78469580799675
 20
10.62524897635028
 30
0.0
 11
29.41633713119501
 21
8.34618073681249
 31
0.0
  0
LINE
  5
1E7
330
2
100
AcDbEntity
  8
0
100
AcDbLine
 10
30.23197237169937
 20
8.618178938414448
 30
0.0
 11
30.23197237169937
 21
8.661180228497221
 31
0.0
  0
LINE
  5
1E8
330
2
100
AcDbEntity
  8
0
100
AcDbLine
 10
10.71208546753297
 20
3.727943758517938
 30
0.0
 11
28.73978454311576
 21
8.932092215601798
 31
0.0
  0
LINE
  5
1E9
330
2
100
AcDbEntity
  8
0
100
AcDbLine
 10
4.603548255986829
 20
4.364717655616045
 30
0.0
 11
4.654789813770217
 21
4.320341164858711
 31
0.0
  0
LINE
  5
1EA
330
2
100
AcDbEntity
  8
0
100
AcDbLine
 10
5.163225086028818
 20
6.244094413479885
 30
0.0
 11
5.148516871537232
 21
6.199440655521222
 31
0.0
  0
LINE
  5
1EB
330
2
100
AcDbEntity
  8
0
100
AcDbLine
 10
8.809706793724132
 20
3.705392419662604
 30
0.0
 11
8.001546987483783
 21
3.766242966866866
 31
0.0
  0
LINE
  5
1EC
330
2
100
AcDbEntity
  8
0
100
AcDbLine
 10
8.8636002439315
 20
3.594552641886586
 30
0.0
 11
8.878307176873351
 21
3.639206190078624
 31
0.0
  0
ARC
  5
1ED
330
2
100
AcDbEntity
  8
0
100
AcDbCircle
 10
5.304856023164021
 20
6.72426803790351
 30
0.0
 40
0.0243937473652091
100
AcDbArc
 50
99.61106931520331
 51
162.1753033699015
  0
LINE
  5
1EE
330
2
100
AcDbEntity
  8
0
100
AcDbLine
 10
5.470232093750315
 20
6.767356630592865
 30
0.0
 11
5.426349661014389
 21
6.762426791362598
 31
0.0
  0
LINE
  5
1EF
330
2
100
AcDbEntity
  8
0
100
AcDbLine
 10
5.422041129417601
 20
6.761942657230391
 30
0.0
 11
5.300783261795824
 21
6.748319389738393
 31
0.0
  0
LINE
  5
1F0
330
2
100
AcDbEntity
  8
0
100
AcDbLine
 10
5.281633235734488
 20
6.731735102525122
 30
0.0
 11
5.26223074663563
 21
6.672827541734598
 31
0.0
  0
LINE
  5
1F1
330
2
100
AcDbEntity
  8
0
100
AcDbLine
 10
3.697953795110029
 20
1.806809445209871
 30
0.0
 11
2.91373290257639
 21
2.48596466032086
 31
0.0
  0
LINE
  5
1F2
330
2
100
AcDbEntity
  8
0
100
AcDbLine
 10
3.464475216865498
 20
2.463547104439494
 30
0.0
 11
2.91373290257639
 21
2.48596466032086
 31
0.0
  0
ELLIPSE
  5
1F3
330
2
100
AcDbEntity
  8
0
100
AcDbEllipse
 10
3.447528851453132
 20
2.476577716248608
 30
0.0
 11
0.0282289681661551
 21
-0.009525795979422
 31
0.0
210
0.0
220
0.0
230
1.0
 40
0.3166888303999999
 41
5.458480189693617
 42
6.942010053889517
  0
LINE
  5
1F4
330
2
100
AcDbEntity
  8
0
100
AcDbLine
 10
3.201074055787694
 20
2.708883935708653
 30
0.0
 11
3.47169621834308
 21
2.474518268105844
 31
0.0
  0
ELLIPSE
  5
1F5
330
2
100
AcDbEntity
  8
0
100
AcDbEllipse
 10
3.17690667940398
 20
2.710943392074047
 30
0.0
 11
0.0282289681661438
 21
-0.009525795979422
 31
0.0
210
0.0
220
0.0
230
1.0
 40
0.3166888303999999
 41
0.6588247467100106
 42
2.142354610904445
  0
LINE
  5
1F6
330
2
100
AcDbEntity
  8
0
100
AcDbLine
 10
2.550649313830006
 20
2.800404271866603
 30
0.0
 11
3.164174246850646
 21
2.723615373253449
 31
0.0
  0
LINE
  5
1F7
330
2
100
AcDbEntity
  8
0
100
AcDbLine
 10
2.550649313830006
 20
2.800404271866603
 30
0.0
 11
1.766428392398015
 21
3.479559512012951
 31
0.0
  0
LINE
  5
1F8
330
2
100
AcDbEntity
  8
0
100
AcDbLine
 10
1.809791435101098
 20
3.7879672719589
 30
0.0
 11
2.697027862269374
 21
3.019597986860539
 31
0.0
  0
ELLIPSE
  5
1F9
330
2
100
AcDbEntity
  8
0
100
AcDbEllipse
 10
2.616467952115048
 20
3.026462247673812
 30
0.0
 11
0.0940965605538295
 21
-0.0317526532647382
 31
0.0
210
0.0
220
0.0
230
1.0
 40
0.3166888303999999
 41
5.458480189693979
 42
6.942010053889137
  0
LINE
  5
1FA
330
2
100
AcDbEntity
  8
0
100
AcDbLine
 10
2.548667626846114
 20
2.988085471308644
 30
0.0
 11
2.672954020447324
 21
2.983026351465495
 31
0.0
  0
ELLIPSE
  5
1FB
330
2
100
AcDbEntity
  8
0
100
AcDbEllipse
 10
2.576910129897398
 20
2.966367371358803
 30
0.0
 11
0.047048280276912
 21
-0.0158763266323776
 31
0.0
210
0.0
220
0.0
230
0.9999999999999998
 40
0.3166888304
 41
2.316887536104295
 42
3.800417400299778
  0
LINE
  5
1FC
330
2
100
AcDbEntity
  8
0
100
AcDbLine
 10
2.540784537502914
 20
2.966201590049099
 30
0.0
 11
2.536630065160264
 21
2.969799468626627
 31
0.0
  0
ELLIPSE
  5
1FD
330
2
100
AcDbEntity
  8
0
100
AcDbEllipse
 10
2.581064589191128
 20
2.962769504072524
 30
0.0
 11
0.047048280276912
 21
-0.0158763266323776
 31
0.0
210
0.0
220
0.0
230
0.9999999999999998
 40
0.3166888304
 41
3.800417400299803
 42
5.283947264494716
  0
LINE
  5
1FE
330
2
100
AcDbEntity
  8
0
100
AcDbLine
 10
2.602286766725161
 20
2.941649934036189
 30
0.0
 11
3.087754434676174
 21
2.880888313618034
 31
0.0
  0
ELLIPSE
  5
1FF
330
2
100
AcDbEntity
  8
0
100
AcDbEllipse
 10
3.172641578986068
 20
2.796409638617281
 30
0.0
 11
0.188193121107659
 21
-0.0635053065294934
 31
0.0
210
0.0
220
0.0
230
1.0
 40
0.3166888304
 41
0.6588247467096388
 42
2.14235461090486
  0
LINE
  5
200
330
2
100
AcDbEntity
  8
0
100
AcDbLine
 10
3.333760765377062
 20
2.782680969718143
 30
0.0
 11
3.822367284515723
 21
2.359535311681018
 31
0.0
  0
ELLIPSE
  5
201
330
2
100
AcDbEntity
  8
0
100
AcDbEllipse
 10
3.661248102434649
 20
2.37326397685614
 30
0.0
 11
0.1881931211076589
 21
-0.0635053065294877
 31
0.0
210
0.0
220
0.0
230
1.0
 40
0.3166888304
 41
5.458480189694113
 42
6.942010053889237
  0
LINE
  5
202
330
2
100
AcDbEntity
  8
0
100
AcDbLine
 10
3.774219589302371
 20
2.28639205090108
 30
0.0
 11
3.338430418963604
 21
2.304130830367917
 31
0.0
  0
ELLIPSE
  5
203
330
2
100
AcDbEntity
  8
0
100
AcDbEllipse
 10
3.366672916751591
 20
2.28241273497627
 30
0.0
 11
0.0470482802769176
 21
-0.0158763266323776
 31
0.0
210
0.0
220
0.0
230
1.0
 40
0.3166888304
 41
2.316887536104025
 42
3.800417400300071
  0
LINE
  5
204
330
2
100
AcDbEntity
  8
0
100
AcDbLine
 10
3.330547306491658
 20
2.28224696912866
 30
0.0
 11
3.326392857277669
 21
2.285844827695806
 31
0.0
  0
ELLIPSE
  5
205
330
2
100
AcDbEntity
  8
0
100
AcDbEllipse
 10
3.370827376045249
 20
2.278814867689985
 30
0.0
 11
0.047048280276912
 21
-0.0158763266323776
 31
0.0
210
0.0
220
0.0
230
0.9999999999999998
 40
0.3166888304
 41
3.800417400300069
 42
5.283947264494716
  0
LINE
  5
206
330
2
100
AcDbEntity
  8
0
100
AcDbLine
 10
3.530504137138074
 20
2.240366165388771
 30
0.0
 11
3.392049535723961
 21
2.257695313125705
 31
0.0
  0
ELLIPSE
  5
207
330
2
100
AcDbEntity
  8
0
100
AcDbEllipse
 10
3.572947419867094
 20
2.198126730403497
 30
0.0
 11
0.0940965605538295
 21
-0.0317526532647439
 31
0.0
210
0.0
220
0.0
230
1.0
 40
0.3166888304
 41
0.6588247467096168
 42
2.142354610904783
  0
LINE
  5
208
330
2
100
AcDbEntity
  8
0
100
AcDbLine
 10
3.653507314042912
 20
2.191262483423728
 30
0.0
 11
4.54074378745854
 21
1.422893158284656
 31
0.0
  0
LINE
  5
209
330
2
100
AcDbEntity
  8
0
100
AcDbLine
 10
4.082891598414497
 20
1.743921016779515
 30
0.0
 11
4.44355217643433
 21
1.431580728373757
 31
0.0
  0
ELLIPSE
  5
20A
330
2
100
AcDbEntity
  8
0
100
AcDbEllipse
 10
2.724470145053193
 20
6.565058412198194
 30
0.0
 11
0.0074522214587393
 21
0.0990337510603318
 31
0.0
210
0.0
220
0.0
230
0.9999999999999998
 40
0.5778770211000001
 41
5.877920137287945
 42
7.448640311660927
  0
LINE
  5
20B
330
2
100
AcDbEntity
  8
0
100
AcDbLine
 10
3.349833707534752
 20
6.138263738452292
 30
0.0
 11
2.753882721929151
 21
6.654372431397833
 31
0.0
  0
LINE
  5
20C
330
2
100
AcDbEntity
  8
0
100
AcDbLine
 10
2.191858950617407
 20
3.898763620462719
 30
0.0
 11
2.511736023828413
 21
4.869958079043904
 31
0.0
  0
LINE
  5
20D
330
2
100
AcDbEntity
  8
0
100
AcDbLine
 10
2.646005349299563
 20
5.277621734944838
 30
0.0
 11
2.805882372072851
 21
5.76303078215117
 31
0.0
  0
ARC
  5
20E
330
2
100
AcDbEntity
  8
0
100
AcDbCircle
 10
2.517413704963807
 20
3.770173940463553
 30
0.0
 40
0.3500302899435943
100
AcDbArc
 50
158.4466572452005
 51
209.5566189156511
  0
ELLIPSE
  5
20F
330
2
100
AcDbEntity
  8
0
100
AcDbEllipse
 10
1.839210311272373
 20
3.877274506846752
 30
0.0
 11
0.0074608290053477
 21
0.0990276072079355
 31
0.0
210
0.0
220
0.0
230
1.0
 40
0.5779408021
 41
1.165636268090271
 42
2.736356442463288
  0
LINE
  5
210
330
2
100
AcDbEntity
  8
0
100
AcDbLine
 10
2.674817087170477
 20
6.608068232016478
 30
0.0
 11
1.789552250609654
 21
3.920270567828356
 31
0.0
  0
LWPOLYLINE
  5
211
330
2
100
AcDbEntity
  8
0
100
AcDbPolyline
 90
        7
 70
   128
 43
0.0
 10
2.563570567186805
 20
6.124990856627839
 10
2.545906651352318
 20
6.042145496725075
 10
2.545344171052356
 20
5.956325853628605
 10
2.561954133323332
 20
5.877883599273406
 10
2.593730534149935
 20
5.816279434446098
 10
2.636841803335211
 20
5.77894398014333
 10
2.669948441248341
 20
5.769858452980557
  0
LWPOLYLINE
  5
212
330
2
100
AcDbEntity
  8
0
100
AcDbPolyline
 90
        5
 70
   128
 43
0.0
 10
2.707229581998965
 20
6.264983686207863
 10
2.689322375320528
 20
6.26459520614141
 10
2.639880684644739
 20
6.243353881420373
 10
2.59620830918403
 20
6.19486982227221
 10
2.563570567186805
 20
6.124990856627839
  0
LWPOLYLINE
  5
213
330
2
100
AcDbEntity
  8
0
100
AcDbPolyline
 90
        7
 70
   128
 43
0.0
 10
2.269425500482105
 20
5.231918683662223
 10
2.251760303117709
 20
5.149072953810233
 10
2.251197822817747
 20
5.063253310713799
 10
2.267807785088808
 20
4.984811056358564
 10
2.299584185905341
 20
4.923206811430069
 10
2.342695455090773
 20
4.885871357127301
 10
2.375803374553554
 20
4.876786280014933
  0
LWPOLYLINE
  5
214
330
2
100
AcDbEntity
  8
0
100
AcDbPolyline
 90
        5
 70
   128
 43
0.0
 10
2.413083233754371
 20
5.371911143293057
 10
2.395176027085919
 20
5.371522503034095
 10
2.345735617940039
 20
5.350281548262248
 10
2.30206196093952
 20
5.301797279357367
 10
2.269425500482105
 20
5.231918683662223
  0
LINE
  5
215
330
2
100
AcDbEntity
  8
0
100
AcDbLine
 10
2.495597312355273
 20
5.443518879993149
 30
0.0
 11
2.580900342853286
 21
5.702511939436624
 31
0.0
  0
ELLIPSE
  5
216
330
2
100
AcDbEntity
  8
0
100
AcDbEllipse
 10
2.510494562193681
 20
5.430620057754186
 30
0.0
 11
0.0022382487016071
 21
0.0297082821623772
 31
0.0
210
0.0
220
0.0
230
1.0
 40
0.5779408021000001
 41
1.165636268090297
 42
2.73635644246337
  0
LINE
  5
217
330
2
100
AcDbEntity
  8
0
100
AcDbLine
 10
2.501668142883366
 20
5.40382771235915
 30
0.0
 11
2.557828873321908
 21
5.355191093098613
 31
0.0
  0
LINE
  5
218
330
2
100
AcDbEntity
  8
0
100
AcDbLine
 10
2.590019974567109
 20
5.342687750176535
 30
0.0
 11
2.689030970902703
 21
5.643300423195792
 31
0.0
  0
LINE
  5
219
330
2
100
AcDbEntity
  8
0
100
AcDbLine
 10
2.604619236615513
 20
5.71640312945891
 30
0.0
 11
2.689030970902703
 21
5.643300423195792
 31
0.0
  0
ELLIPSE
  5
21A
330
2
100
AcDbEntity
  8
0
100
AcDbEllipse
 10
2.595796269025582
 20
5.689609052801365
 30
0.0
 11
0.0022356664376167
 21
0.0297101253180978
 31
0.0
210
0.0
220
0.0
230
1.0
 40
0.5778770211000001
 41
5.877920137287437
 42
7.448640311660861
  0
LINE
  5
21B
330
2
100
AcDbEntity
  8
0
100
AcDbLine
 10
2.429871213106924
 20
6.164093613515805
 30
0.0
 11
2.135724864862401
 21
5.271020910408497
 31
0.0
  0
LINE
  5
21C
330
2
100
AcDbEntity
  8
0
100
AcDbLine
 10
2.578049073192393
 20
6.6139845842636
 30
0.0
 11
2.429871213106924
 21
6.164093613515805
 31
0.0
  0
LINE
  5
21D
330
2
100
AcDbEntity
  8
0
100
AcDbLine
 10
2.135724864862401
 20
5.271020910408497
 30
0.0
 11
1.975384902858597
 21
4.784202132433086
 31
0.0
  0
LWPOLYLINE
  5
21E
330
2
100
AcDbEntity
  8
0
100
AcDbPolyline
 90
       17
 70
   128
 43
0.0
 10
2.653847262651392
 20
5.026806258888795
 10
2.668702904154513
 20
5.10121471928447
 10
2.666277295471543
 20
5.177302462759955
 10
2.646940234319538
 20
5.243485781837986
 10
2.613634312177108
 20
5.289688748927934
 10
2.571431951516829
 20
5.308877872937292
 10
2.526756223603198
 20
5.298131255360463
 10
2.486409898118939
 20
5.259085093439264
 10
2.456534728564991
 20
5.197683925888581
 10
2.441679087061955
 20
5.123275465492947
 10
2.444104695744841
 20
5.047187882209892
 10
2.463441849391718
 20
4.981004402949345
 10
2.496747771524151
 20
4.934801435849442
 10
2.538950132194354
 20
4.915612311840083
 10
2.583625767613185
 20
4.92635908960938
 10
2.623972093097445
 20
4.965405091338112
 10
2.653847262651392
 20
5.026806258888795
  0
ARC
  5
21F
330
2
100
AcDbEntity
  8
0
100
AcDbCircle
 10
2.15902153882068
 20
3.79688211765607
 30
0.0
 40
0.5047999749090729
100
AcDbArc
 50
158.4462968151021
 51
218.9476879695054
  0
LWPOLYLINE
  5
220
330
2
100
AcDbEntity
  8
0
100
AcDbPolyline
 90
       10
 70
   128
 43
0.0
 10
1.971812730709984
 20
5.47504641693399
 10
1.931815946483978
 20
5.470163324214482
 10
1.875805571080727
 20
5.437361062834226
 10
1.826966480851954
 20
5.377201170538508
 10
1.790079882188421
 20
5.295573061845267
 10
1.768756450485575
 20
5.200466855189994
 10
1.765083229406414
 20
5.10119233302368
 10
1.779420544019981
 20
5.007467184997804
 10
1.810364213520172
 20
4.928465504049591
 10
1.85488549468287
 20
4.871921006337659
  0
LWPOLYLINE
  5
221
330
2
100
AcDbEntity
  8
0
100
AcDbPolyline
 90
        3
 70
   128
 43
0.0
 10
2.196786560807695
 20
3.620947951957652
 10
2.208356289979311
 20
3.602580442695295
 10
2.229630140347563
 20
3.579012373800649
  0
LINE
  5
222
330
2
100
AcDbEntity
  8
0
100
AcDbLine
 10
1.975384902858597
 20
4.784202132433086
 30
0.0
 11
1.954192639390372
 21
4.785918496243255
 31
0.0
  0
LINE
  5
223
330
2
100
AcDbEntity
  8
0
100
AcDbLine
 10
1.689520389341703
 20
3.982332071306378
 30
0.0
 11
1.954192639390372
 21
4.785918496243255
 31
0.0
  0
LWPOLYLINE
  5
224
330
2
100
AcDbEntity
  8
0
100
AcDbPolyline
 90
       17
 70
   128
 43
0.0
 10
2.947993610895915
 20
5.91987896199611
 10
2.962849252399035
 20
5.994287262199271
 10
2.960423643716138
 20
6.070375005674756
 10
2.941086582554063
 20
6.136558324752829
 10
2.90778066042163
 20
6.182761291842777
 10
2.86557829976134
 20
6.201950415852135
 10
2.820902571847708
 20
6.191203798275306
 10
2.780556246363461
 20
6.152157636354107
 10
2.750681076809514
 20
6.090756629005839
 10
2.735825435306465
 20
6.016348168600214
 10
2.738251043989363
 20
5.940260425124735
 10
2.75758819763624
 20
5.874077025955426
 10
2.790894119768673
 20
5.827874058865477
 10
2.833096480428879
 20
5.808684934856119
 10
2.877772115857708
 20
5.819431632524222
 10
2.918118441341967
 20
5.858477794445421
 10
2.947993610895915
 20
5.91987896199611
  0
LINE
  5
225
330
2
100
AcDbEntity
  8
0
100
AcDbLine
 10
2.229630140347563
 20
3.579012373800649
 30
0.0
 11
2.752740956015133
 21
3.12598511844049
 31
0.0
  0
LINE
  5
226
330
2
100
AcDbEntity
  8
0
100
AcDbLine
 10
1.85488549468287
 20
4.871921006337659
 30
0.0
 11
1.954192639390372
 21
4.785918496243255
 31
0.0
  0
LWPOLYLINE
  5
227
330
2
100
AcDbEntity
  8
0
100
AcDbPolyline
 90
       10
 70
   128
 43
0.0
 10
2.265959078944508
 20
6.368118959848832
 10
2.2259622947285
 20
6.36323602732179
 10
2.169951919325249
 20
6.330433605749027
 10
2.121112829096464
 20
6.270273873645781
 10
2.08422623042303
 20
6.188645764952582
 10
2.062902798730013
 20
6.093539558297303
 10
2.059229577650852
 20
5.994264875938522
 10
2.073566892254577
 20
5.900539727912647
 10
2.104510561764695
 20
5.821538207156899
 10
2.149031842917394
 20
5.764993549252459
  0
LINE
  5
228
330
2
100
AcDbEntity
  8
0
100
AcDbLine
 10
2.689030970902703
 20
5.643300423195792
 30
0.0
 11
2.564714833845406
 21
5.653368766455619
 31
0.0
  0
LINE
  5
229
330
2
100
AcDbEntity
  8
0
100
AcDbLine
 10
2.26953125110312
 20
5.677274675347887
 30
0.0
 11
2.248338987624981
 21
5.678991039158097
 31
0.0
  0
LINE
  5
22A
330
2
100
AcDbEntity
  8
0
100
AcDbLine
 10
2.149031842917394
 20
5.764993549252459
 30
0.0
 11
2.248338987624981
 21
5.678991039158097
 31
0.0
  0
ELLIPSE
  5
22B
330
2
100
AcDbEntity
  8
0
100
AcDbEllipse
 10
2.627702909375665
 20
6.570974902492261
 30
0.0
 11
0.0074522214587393
 21
0.0990337510603318
 31
0.0
210
0.0
220
0.0
230
0.9999999999999998
 40
0.5778770211000001
 41
0.0081150858514489
 42
1.165455004481329
  0
ELLIPSE
  5
22C
330
2
100
AcDbEntity
  8
0
100
AcDbEllipse
 10
3.217149105284371
 20
2.93154127825137
 30
0.0
 11
0.1761375932775699
 21
-0.0997615156887636
 31
0.0
210
0.0
220
0.0
230
1.0
 40
0.165794471
 41
0.6896272446617182
 42
2.173157108856921
  0
ARC
  5
22D
330
2
100
AcDbEntity
  8
0
100
AcDbCircle
 10
3.025317290880089
 20
6.100807811024537
 30
0.0
 40
0.0946937982547166
100
AcDbArc
 50
51.27721473400147
 51
145.8445444761049
  0
LINE
  5
22E
330
2
100
AcDbEntity
  8
0
100
AcDbLine
 10
3.130980719836322
 20
3.012128168499372
 30
0.0
 11
3.117468655567329
 21
3.017869905364342
 31
0.0
  0
LINE
  5
22F
330
2
100
AcDbEntity
  8
0
100
AcDbLine
 10
2.734000380547337
 20
3.065864737200891
 30
0.0
 11
3.117468655567329
 21
3.017869905364342
 31
0.0
  0
LINE
  5
230
330
2
100
AcDbEntity
  8
0
100
AcDbLine
 10
3.852166893429735
 20
2.45001161225643
 30
0.0
 11
3.363560374291073
 21
2.873157270283612
 31
0.0
  0
LINE
  5
231
330
2
100
AcDbEntity
  8
0
100
AcDbLine
 10
3.100918492043132
 20
6.160513487881617
 30
0.0
 11
3.084553277313894
 21
6.174686179574477
 31
0.0
  0
ELLIPSE
  5
232
330
2
100
AcDbEntity
  8
0
100
AcDbEllipse
 10
3.705755628732952
 20
2.508395616500178
 30
0.0
 11
0.1761375932775699
 21
-0.0997615156887525
 31
0.0
210
0.0
220
0.0
230
0.9999999999999998
 40
0.165794471
 41
0.0331063377241576
 42
0.689627244661631
  0
LINE
  5
233
330
2
100
AcDbEntity
  8
0
100
AcDbLine
 10
2.998823197721707
 20
2.744310765524749
 30
0.0
 11
2.91373290257639
 21
2.48596466032086
 31
0.0
  0
LINE
  5
234
330
2
100
AcDbEntity
  8
0
100
AcDbLine
 10
3.71965498249399
 20
2.288613008236336
 30
0.0
 11
4.16115554306949
 21
1.906262306997611
 31
0.0
  0
LINE
  5
235
330
2
100
AcDbEntity
  8
0
100
AcDbLine
 10
4.619808048192687
 20
1.469197147909335
 30
0.0
 11
4.789813067745731
 21
1.985356276380614
 31
0.0
  0
ELLIPSE
  5
236
330
2
100
AcDbEntity
  8
0
100
AcDbEllipse
 10
4.570155104999785
 20
1.512206939147032
 30
0.0
 11
0.0074522214587336
 21
0.0990337510603319
 31
0.0
210
0.0
220
0.0
230
1.0
 40
0.5778770210999999
 41
2.736327483698102
 42
4.30704765807106
  0
ARC
  5
237
330
2
100
AcDbEntity
  8
0
100
AcDbCircle
 10
4.219585166637395
 20
1.972704464805591
 30
0.0
 40
0.0884792701486286
100
AcDbArc
 50
228.6714130374034
 51
314.9203592104971
  0
ARC
  5
238
330
2
100
AcDbEntity
  8
0
100
AcDbCircle
 10
3.793470266797227
 20
1.909821271553985
 30
0.0
 40
0.1404807201393404
100
AcDbArc
 50
227.1621517867994
 51
264.5187678972925
  0
ELLIPSE
  5
239
330
2
100
AcDbEntity
  8
0
100
AcDbEllipse
 10
4.47296397398689
 20
1.520894563398256
 30
0.0
 11
0.0074522214587393
 21
0.0990337510603318
 31
0.0
210
0.0
220
0.0
230
0.9999999999999998
 40
0.5778770211000001
 41
2.736327483698255
 42
3.133477567738518
  0
LINE
  5
23A
330
2
100
AcDbEntity
  8
0
100
AcDbLine
 10
3.342707844966722
 20
4.501821408810026
 30
0.0
 11
3.017253662558432
 21
4.240609499241121
 31
0.0
  0
ELLIPSE
  5
23B
330
2
100
AcDbEntity
  8
0
100
AcDbEllipse
 10
2.809850306675161
 20
3.750274130395372
 30
0.0
 11
0.0074608290053477
 21
0.0990276072079355
 31
0.0
210
0.0
220
0.0
230
1.0
 40
0.5779408021
 41
1.16563626809024
 42
2.736356442463259
  0
ELLIPSE
  5
23C
330
2
100
AcDbEntity
  8
0
100
AcDbEllipse
 10
3.142941767235075
 20
4.827091525612062
 30
0.0
 11
0.3270108961881777
 21
0.3736507197299742
 31
0.0
210
0.0
220
0.0
230
1.0
 40
0.7540258493
 41
4.482373612415839
 42
5.224320880421761
  0
ELLIPSE
  5
23D
330
2
100
AcDbEntity
  8
0
100
AcDbEllipse
 10
3.217657917827024
 20
3.914785938679145
 30
0.0
 11
0.3280055202996642
 21
0.3727827993962407
 31
0.0
210
0.0
220
0.0
230
0.9999999999999998
 40
0.7560319662000003
 41
1.342801356481428
 42
2.084748624487349
  0
LINE
  5
23E
330
2
100
AcDbEntity
  8
0
100
AcDbLine
 10
2.810978220493064
 20
3.947462794543367
 30
0.0
 11
2.760192141203539
 21
3.79327011393725
 31
0.0
  0
LINE
  5
23F
330
2
100
AcDbEntity
  8
0
100
AcDbLine
 10
3.880135065963461
 20
2.708595442357547
 30
0.0
 11
4.764418295860859
 21
1.942783701124088
 31
0.0
  0
LINE
  5
240
330
2
100
AcDbEntity
  8
0
100
AcDbLine
 10
2.780431233210265
 20
3.660966898159032
 30
0.0
 11
3.561741078290083
 21
2.984332724083422
 31
0.0
  0
LINE
  5
241
330
2
100
AcDbEntity
  8
0
100
AcDbLine
 10
3.921689529690534
 20
5.92745113138423
 30
0.0
 11
3.548755491411565
 21
4.795165430351849
 31
0.0
  0
ELLIPSE
  5
242
330
2
100
AcDbEntity
  8
0
100
AcDbEllipse
 10
3.971342651259121
 20
5.884441256470263
 30
0.0
 11
0.0074522214587393
 21
0.0990337510603318
 31
0.0
210
0.0
220
0.0
230
0.9999999999999998
 40
0.5778770211000001
 41
5.877920137287912
 42
7.44864031166087
  0
LINE
  5
243
330
2
100
AcDbEntity
  8
0
100
AcDbLine
 10
4.327008389847879
 20
5.691211749506926
 30
0.0
 11
4.00075516443938
 21
5.973755330775534
 31
0.0
  0
LINE
  5
244
330
2
100
AcDbEntity
  8
0
100
AcDbLine
 10
3.886310988407876
 20
2.768242019198779
 30
0.0
 11
3.61768036120305
 21
3.000882966586674
 31
0.0
  0
LINE
  5
245
330
2
100
AcDbEntity
  8
0
100
AcDbLine
 10
3.719843014420739
 20
2.642561659720694
 30
0.0
 11
3.886310988407876
 21
2.768242019198779
 31
0.0
  0
LINE
  5
246
330
2
100
AcDbEntity
  8
0
100
AcDbLine
 10
3.451212387215913
 20
2.875202607118509
 30
0.0
 11
3.719843014420739
 21
2.642561659720694
 31
0.0
  0
ELLIPSE
  5
247
330
2
100
AcDbEntity
  8
0
100
AcDbEllipse
 10
3.826539192306572
 20
2.675668720156219
 30
0.0
 11
0.0585765204044383
 21
0.0934579397367451
 31
0.0
210
0.0
220
0.0
230
1.0
 40
0.2945542466
 41
5.171606599400139
 42
6.237537654344468
  0
ELLIPSE
  5
248
330
2
100
AcDbEntity
  8
0
100
AcDbEllipse
 10
3.817333445579891
 20
2.668718539788086
 30
0.0
 11
0.1004458086981747
 21
0.0215302906815076
 31
0.0
210
0.0
220
0.0
230
1.0
 40
0.2601647543999999
 41
3.335243632973681
 42
4.401174687917908
  0
ELLIPSE
  5
249
330
2
100
AcDbEntity
  8
0
100
AcDbEllipse
 10
3.824355125349622
 20
2.684297560163388
 30
0.0
 11
-0.0263370586251113
 21
0.0491645967566798
 31
0.0
210
0.0
220
0.0
230
1.0
 40
0.8730488701000002
 41
2.500405314970203
 42
4.062474995505384
  0
LINE
  5
24A
330
2
100
AcDbEntity
  8
0
100
AcDbLine
 10
3.874464955057401
 20
2.672853218662332
 30
0.0
 11
3.877179672036092
 21
2.701627260535032
 31
0.0
  0
LINE
  5
24B
330
2
100
AcDbEntity
  8
0
100
AcDbLine
 10
3.791907398454269
 20
2.637248407525298
 30
0.0
 11
3.819786558758164
 21
2.631144087275505
 31
0.0
  0
LINE
  5
24C
330
2
100
AcDbEntity
  8
0
100
AcDbLine
 10
5.182007149342428
 20
5.528989095230289
 30
0.0
 11
5.056381799361529
 21
5.147572770042171
 31
0.0
  0
LWPOLYLINE
  5
24D
330
2
100
AcDbEntity
  8
0
100
AcDbPolyline
 90
        9
 70
   128
 43
0.0
 10
5.182007149342428
 20
5.528989095230289
 10
5.243267240737294
 20
5.509499540074632
 10
5.285638739877212
 20
5.463943615071477
 10
5.30267038322048
 20
5.399256600732134
 10
5.29176961887002
 20
5.325286651013376
 10
5.254596038862768
 20
5.2532949908196
 10
5.196808916121993
 20
5.194241786247604
 10
5.127204729178548
 20
5.15711682449357
 10
5.056381799361529
 20
5.147572770042171
  0
ARC
  5
24E
330
2
100
AcDbEntity
  8
0
100
AcDbCircle
 10
5.724781292260666
 20
6.004095596989358
 30
0.0
 40
0.0664111928758897
100
AcDbArc
 50
333.6487475794982
 51
82.98636861719677
  0
LINE
  5
24F
330
2
100
AcDbEntity
  8
0
100
AcDbLine
 10
5.784291680425142
 20
5.974617465450605
 30
0.0
 11
5.342992702693536
 21
4.63476483916454
 31
0.0
  0
ARC
  5
250
330
2
100
AcDbEntity
  8
0
100
AcDbCircle
 10
5.223861194265021
 20
4.674414649134572
 30
0.0
 40
0.125556456352453
100
AcDbArc
 50
287.7679507352945
 51
341.591326154098
  0
LINE
  5
251
330
2
100
AcDbEntity
  8
0
100
AcDbLine
 10
5.262176337609546
 20
4.554847205730744
 30
0.0
 11
4.599099476582003
 21
4.363433403622559
 31
0.0
  0
ARC
  5
252
330
2
100
AcDbEntity
  8
0
100
AcDbCircle
 10
4.551292913847603
 20
4.523835495351898
 30
0.0
 40
0.1673747247036375
100
AcDbArc
 50
266.2240578527004
 51
286.5962675312991
  0
LINE
  5
253
330
2
100
AcDbEntity
  8
0
100
AcDbLine
 10
4.540270463245041
 20
4.356824106353069
 30
0.0
 11
4.442241757930927
 21
4.364205323496961
 31
0.0
  0
LINE
  5
254
330
2
100
AcDbEntity
  8
0
100
AcDbLine
 10
5.732890462784489
 20
6.07000984348997
 30
0.0
 11
5.021709782023025
 21
6.123558284602147
 31
0.0
  0
LWPOLYLINE
  5
255
330
2
100
AcDbEntity
  8
0
100
AcDbPolyline
 90
        6
 70
   128
 43
0.0
 10
4.990441021278374
 20
6.115203884300654
 10
4.991888082406401
 20
6.117753774133363
 10
4.996137724195573
 20
6.120851746079487
 10
5.002706533603264
 20
6.122896976844353
 10
5.011341023655036
 20
6.123810897891521
 10
5.021709782023025
 20
6.123558284602147
  0
LWPOLYLINE
  5
256
330
2
100
AcDbEntity
  8
0
100
AcDbPolyline
 90
        9
 70
   128
 43
0.0
 10
4.442241757930927
 20
4.364205323496961
 10
4.431872999562926
 20
4.364457906735956
 10
4.423238509511166
 20
4.363544015729261
 10
4.416669700093562
 20
4.361498774954202
 10
4.412420058314291
 20
4.358400913139788
 10
4.410651458707278
 20
4.354369155852213
 10
4.411433133241982
 20
4.349558874481994
 10
4.414734246648956
 20
4.344154493045064
 10
4.420428375751329
 20
4.338364003097441
  0
LINE
  5
257
330
2
100
AcDbEntity
  8
0
100
AcDbLine
 10
7.191099757029135
 20
1.938892201370784
 30
0.0
 11
7.185894770449791
 21
1.943399851969565
 31
0.0
  0
LINE
  5
258
330
2
100
AcDbEntity
  8
0
100
AcDbLine
 10
4.554252592080584
 20
4.222468832098326
 30
0.0
 11
4.420428375751329
 21
4.338364003097441
 31
0.0
  0
LINE
  5
259
330
2
100
AcDbEntity
  8
0
100
AcDbLine
 10
3.979706138379813
 20
6.577038637112263
 30
0.0
 11
3.880398901187435
 21
6.663041227307812
 31
0.0
  0
LINE
  5
25A
330
2
100
AcDbEntity
  8
0
100
AcDbLine
 10
4.262562134643864
 20
6.555741036180799
 30
0.0
 11
3.979706138379813
 21
6.577038637112263
 31
0.0
  0
LINE
  5
25B
330
2
100
AcDbEntity
  8
0
100
AcDbLine
 10
4.163254897451559
 20
6.641743626366442
 30
0.0
 11
4.262562134643864
 21
6.555741036180799
 31
0.0
  0
LINE
  5
25C
330
2
100
AcDbEntity
  8
0
100
AcDbLine
 10
3.880398901187435
 20
6.663041227307812
 30
0.0
 11
4.163254897451559
 21
6.641743626366442
 31
0.0
  0
LINE
  5
25D
330
2
100
AcDbEntity
  8
0
100
AcDbLine
 10
4.244395432437463
 20
0.8404804642433337
 30
0.0
 11
4.440074789284131
 21
1.434592039277704
 31
0.0
  0
LINE
  5
25E
330
2
100
AcDbEntity
  8
0
100
AcDbLine
 10
2.987268848865117
 20
2.709232611077449
 30
0.0
 11
2.937969819864406
 21
2.751926822577273
 31
0.0
  0
LINE
  5
25F
330
2
100
AcDbEntity
  8
0
100
AcDbLine
 10
2.052485930700855
 20
6.311611164903966
 30
0.0
 11
1.129504141912575
 21
3.509298464314783
 31
0.0
  0
ARC
  5
260
330
2
100
AcDbEntity
  8
0
100
AcDbCircle
 10
5.226164777879501
 20
6.641393542404177
 30
0.0
 40
0.0464875755240748
100
AcDbArc
 50
333.6488063391012
 51
82.98770571809695
  0
ARC
  5
261
330
2
100
AcDbEntity
  8
0
100
AcDbCircle
 10
5.230575939586326
 20
6.686162466370938
 30
0.0
 40
0.0018648068264102
100
AcDbArc
 50
47.32038030139878
 51
84.84797494359753
  0
ARC
  5
262
330
2
100
AcDbEntity
  8
0
100
AcDbCircle
 10
4.412623887427939
 20
6.375691825599061
 30
0.0
 40
0.5252591019968859
100
AcDbArc
 50
68.87912926580006
 51
84.5949662208975
  0
ARC
  5
263
330
2
100
AcDbEntity
  8
0
100
AcDbCircle
 10
5.156840680914666
 20
7.246808396130639
 30
0.0
 40
0.5521667420156905
100
AcDbArc
 50
248.8786432781044
 51
264.5952845953962
  0
ARC
  5
264
330
2
100
AcDbEntity
  8
0
100
AcDbCircle
 10
4.161005527029383
 20
0.868233127684509
 30
0.0
 40
0.0878867831451052
100
AcDbArc
 50
287.7674011092009
 51
341.5922464559994
  0
LINE
  5
265
330
2
100
AcDbEntity
  8
0
100
AcDbLine
 10
1.075784504936656
 20
3.479643950035777
 30
0.0
 11
4.187824489490533
 21
0.7845382658093602
 31
0.0
  0
ARC
  5
266
330
2
100
AcDbEntity
  8
0
100
AcDbCircle
 10
1.099722997974651
 20
3.519209131839438
 30
0.0
 40
0.0313869059487647
100
AcDbArc
 50
287.7671483982982
 51
341.5934186932954
  0
LINE
  5
267
330
2
100
AcDbEntity
  8
0
100
AcDbLine
 10
2.17428752533767
 20
2.095336862103449
 30
0.0
 11
2.002282024581455
 21
2.045683151017465
 31
0.0
  0
LWPOLYLINE
  5
268
330
2
100
AcDbEntity
  8
0
100
AcDbPolyline
 90
        9
 70
   128
 43
0.0
 10
2.002282024581455
 20
2.045683151017465
 10
1.944018970981471
 20
2.020135312274781
 10
1.909742771778157
 20
1.985383269195449
 10
1.904673996462792
 20
1.946718382770701
 10
1.929585030988031
 20
1.91002722970521
 10
1.980680455011621
 20
1.880894858808741
 10
2.050184390441708
 20
1.863757259685739
 10
2.127514794309315
 20
1.861223267777199
 10
2.200896475847388
 20
1.873677990666519
  0
LINE
  5
269
330
2
100
AcDbEntity
  8
0
100
AcDbLine
 10
2.200896475847388
 20
1.873677990666519
 30
0.0
 11
2.372901976603676
 21
1.923331701742553
 31
0.0
  0
LWPOLYLINE
  5
26A
330
2
100
AcDbEntity
  8
0
100
AcDbPolyline
 90
        9
 70
   128
 43
0.0
 10
2.372901976603676
 20
1.923331701742553
 10
2.431166311743482
 20
1.948879910444371
 10
2.46544122940689
 20
1.983631583564534
 10
2.470510004712425
 20
2.022296469999273
 10
2.445600251736837
 20
2.058987993003993
 10
2.394503546163512
 20
2.088119993951278
 10
2.324999610743339
 20
2.105257593074279
 10
2.247670488415637
 20
2.107791954931967
 10
2.17428752533767
 20
2.095336862103449
  0
LINE
  5
26B
330
2
100
AcDbEntity
  8
0
100
AcDbLine
 10
4.142112020139517
 20
0.7713422125695253
 30
0.0
 11
4.187824489490533
 21
0.7845382658093602
 31
0.0
  0
ARC
  5
26C
330
2
100
AcDbEntity
  8
0
100
AcDbCircle
 10
4.04251501683041
 20
1.134619156447317
 30
0.0
 40
0.3766824936503657
100
AcDbArc
 50
262.2008268918018
 51
285.3316431664972
  0
LINE
  5
26D
330
2
100
AcDbEntity
  8
0
100
AcDbLine
 10
2.997252722942104
 20
0.8946116312696322
 30
0.0
 11
3.991398722560139
 21
0.7614210515686199
 31
0.0
  0
ARC
  5
26E
330
2
100
AcDbEntity
  8
0
100
AcDbCircle
 10
3.018352210267838
 20
1.129913150707807
 30
0.0
 40
0.2362456209480381
100
AcDbArc
 50
233.1444269821997
 51
264.8759916605935
  0
LINE
  5
26F
330
2
100
AcDbEntity
  8
0
100
AcDbLine
 10
2.876652093507956
 20
0.9408812213297744
 30
0.0
 11
0.7245084357840252
 21
2.804692301507505
 31
0.0
  0
ARC
  5
270
330
2
100
AcDbEntity
  8
0
100
AcDbCircle
 10
0.762329950236302
 20
2.856917149364667
 30
0.0
 40
0.064481793470852
100
AcDbArc
 50
182.2852148176459
 51
234.0877427972317
  0
LINE
  5
271
330
2
100
AcDbEntity
  8
0
100
AcDbLine
 10
1.109300691416454
 20
3.489319239682139
 30
0.0
 11
1.063588222055441
 21
3.476123186432348
 31
0.0
  0
ARC
  5
272
330
2
100
AcDbEntity
  8
0
100
AcDbCircle
 10
1.093206987912406
 20
3.329508781893441
 30
0.0
 40
0.1495762511562154
100
AcDbArc
 50
101.4210714680931
 51
144.7560980463016
  0
LWPOLYLINE
  5
273
330
2
100
AcDbEntity
  8
0
100
AcDbPolyline
 90
        6
 70
   128
 43
0.0
 10
3.959385370483946
 20
6.933854322385039
 10
3.944572701876759
 20
6.934215145658598
 10
3.932237676453624
 20
6.932909624262452
 10
3.922854814315284
 20
6.929988022933719
 10
3.916783518115754
 20
6.925562368887183
 10
3.914716784308656
 20
6.921919804791188
  0
LINE
  5
274
330
2
100
AcDbEntity
  8
0
100
AcDbLine
 10
0.9710476183562896
 20
3.415822994742046
 30
0.0
 11
0.7046674696733115
 21
2.918749859522646
 31
0.0
  0
ARC
  5
275
330
2
100
AcDbEntity
  8
0
100
AcDbCircle
 10
3.498673643856963
 20
6.727968339664605
 30
0.0
 40
0.2425099118777884
100
AcDbArc
 50
53.53729464470021
 51
85.22747148609594
  0
LWPOLYLINE
  5
276
330
2
100
AcDbEntity
  8
0
100
AcDbPolyline
 90
        3
 70
   128
 43
0.0
 10
2.762662835980458
 20
6.967991898469797
 10
2.762220436810121
 20
6.967362573406902
 10
2.761844508322337
 20
6.966524750132562
  0
ARC
  5
277
330
2
100
AcDbEntity
  8
0
100
AcDbCircle
 10
2.927752219877453
 20
6.625588799426792
 30
0.0
 40
0.3880844159537818
100
AcDbArc
 50
82.44019616819752
 51
109.3018013701014
  0
ARC
  5
278
330
2
100
AcDbEntity
  8
0
100
AcDbCircle
 10
2.488284372590183
 20
6.195105148935166
 30
0.0
 40
0.4511030189560494
100
AcDbArc
 50
125.0532852855033
 51
165.0326126333989
  0
ARC
  5
279
330
2
100
AcDbEntity
  8
0
100
AcDbCircle
 10
0.7517482551867439
 20
2.892610124380201
 30
0.0
 40
0.0538505906961872
100
AcDbArc
 50
150.9605160887984
 51
179.534994665199
  0
LINE
  5
27A
330
2
100
AcDbEntity
  8
0
100
AcDbLine
 10
2.761844508322337
 20
6.966524750132562
 30
0.0
 11
2.660795371024035
 21
6.846818505274338
 31
0.0
  0
ARC
  5
27B
330
2
100
AcDbEntity
  8
0
100
AcDbCircle
 10
2.629831674723277
 20
6.892316232998714
 30
0.0
 40
0.0550344775305298
100
AcDbArc
 50
257.7914719907967
 51
304.2374325905977
  0
ARC
  5
27C
330
2
100
AcDbEntity
  8
0
100
AcDbCircle
 10
2.433769785418861
 20
6.788397559131682
 30
0.0
 40
0.0902226237805411
100
AcDbArc
 50
305.0536892742026
 51
345.0319929205971
  0
LINE
  5
27D
330
2
100
AcDbEntity
  8
0
100
AcDbLine
 10
2.618193518655843
 20
6.838526391574061
 30
0.0
 11
2.599415138686833
 21
6.839940304080851
 31
0.0
  0
ARC
  5
27E
330
2
100
AcDbEntity
  8
0
100
AcDbCircle
 10
2.600765270922403
 20
6.76365394242957
 30
0.0
 40
0.076298308179581
100
AcDbArc
 50
91.01392702580204
 51
163.0906939452
  0
LINE
  5
27F
330
2
100
AcDbEntity
  8
0
100
AcDbLine
 10
2.52776561669597
 20
6.785845884976651
 30
0.0
 11
2.520931173213405
 21
6.765094891496048
 31
0.0
  0
ARC
  5
280
330
2
100
AcDbEntity
  8
0
100
AcDbCircle
 10
8.069904714203321
 20
2.203712458524155
 30
0.0
 40
0.1132882437922589
100
AcDbArc
 50
286.6490829758923
 51
308.1274944216974
  0
LINE
  5
281
330
2
100
AcDbEntity
  8
0
100
AcDbLine
 10
7.439285979384321
 20
1.903759740710147
 30
0.0
 11
8.102362840411863
 21
2.095173542808426
 31
0.0
  0
ARC
  5
282
330
2
100
AcDbEntity
  8
0
100
AcDbCircle
 10
7.391479416649933
 20
2.064161832429616
 30
0.0
 40
0.167374724703923
100
AcDbArc
 50
266.2240578527004
 51
286.5962675312991
  0
LINE
  5
283
330
2
100
AcDbEntity
  8
0
100
AcDbLine
 10
7.282428260733244
 20
1.904531660574643
 30
0.0
 11
7.38045696604737
 21
1.897150443440665
 31
0.0
  0
ARC
  5
284
330
2
100
AcDbEntity
  8
0
100
AcDbCircle
 10
7.297293917141161
 20
2.082597232080479
 30
0.0
 40
0.1786850175483963
100
AcDbArc
 50
233.5365937101961
 51
265.2277757242018
  0
ARC
  5
285
330
2
100
AcDbEntity
  8
0
100
AcDbCircle
 10
6.463534056590133
 20
7.442316386351486
 30
0.0
 40
0.0243948247318651
100
AcDbArc
 50
99.61260672580433
 51
162.1737659591987
  0
LINE
  5
286
330
2
100
AcDbEntity
  8
0
100
AcDbLine
 10
6.634453236371864
 20
7.486028994911253
 30
0.0
 11
6.459460469949123
 21
7.466368691138445
 31
0.0
  0
LINE
  5
287
330
2
100
AcDbEntity
  8
0
100
AcDbLine
 10
7.86285506536729
 20
7.39353579473937
 30
0.0
 11
6.634453236371864
 21
7.486028994911253
 31
0.0
  0
ARC
  5
288
330
2
100
AcDbEntity
  8
0
100
AcDbCircle
 10
7.861234975776586
 20
7.380353792994564
 30
0.0
 40
0.0132811844386058
100
AcDbArc
 50
333.6434646951031
 51
82.99339176569528
  0
LINE
  5
289
330
2
100
AcDbEntity
  8
0
100
AcDbLine
 10
7.796658488636246
 20
7.14225885477091
 30
0.0
 11
7.873135565207344
 21
7.374457537291547
 31
0.0
  0
LINE
  5
28A
330
2
100
AcDbEntity
  8
0
100
AcDbLine
 10
6.713724066324299
 20
7.22379844576422
 30
0.0
 11
7.796658488636246
 21
7.14225885477091
 31
0.0
  0
LINE
  5
28B
330
2
100
AcDbEntity
  8
0
100
AcDbLine
 10
5.405069749062506
 20
6.745744839837294
 30
0.0
 11
5.296235113235707
 21
6.415307909645147
 31
0.0
  0
ARC
  5
28C
330
2
100
AcDbEntity
  8
0
100
AcDbCircle
 10
5.427530878499518
 20
6.738917115818951
 30
0.0
 40
0.0234759483476093
100
AcDbArc
 50
91.01248601779753
 51
163.0918007758038
  0
LINE
  5
28D
330
2
100
AcDbEntity
  8
0
100
AcDbLine
 10
5.427116051571964
 20
6.762389398827415
 30
0.0
 11
5.536217247364428
 21
6.754174457006856
 31
0.0
  0
LINE
  5
28E
330
2
100
AcDbEntity
  8
0
100
AcDbLine
 10
5.536217247364428
 20
6.754174457006856
 30
0.0
 11
6.284581760421934
 21
6.976968317235825
 31
0.0
  0
LINE
  5
28F
330
2
100
AcDbEntity
  8
0
100
AcDbLine
 10
6.440310443887871
 20
7.449784403925178
 30
0.0
 11
6.284581760421934
 21
6.976968317235825
 31
0.0
  0
LINE
  5
290
330
2
100
AcDbEntity
  8
0
100
AcDbLine
 10
6.454524403729165
 20
6.243071059549635
 30
0.0
 11
6.721778953346311
 21
7.05449752591718
 31
0.0
  0
LINE
  5
291
330
2
100
AcDbEntity
  8
0
100
AcDbLine
 10
7.804713375658257
 20
6.972957934923827
 30
0.0
 11
7.737477471400685
 21
6.768820629471058
 31
0.0
  0
LINE
  5
292
330
2
100
AcDbEntity
  8
0
100
AcDbLine
 10
7.535437840220551
 20
6.784033238624998
 30
0.0
 11
7.335417913321168
 21
6.17674378785236
 31
0.0
  0
LINE
  5
293
330
2
100
AcDbEntity
  8
0
100
AcDbLine
 10
7.335417913321168
 20
6.17674378785236
 30
0.0
 11
6.454524403729165
 21
6.243071059549635
 31
0.0
  0
ARC
  5
294
330
2
100
AcDbEntity
  8
0
100
AcDbCircle
 10
7.899026435759003
 20
6.528127900537008
 30
0.0
 40
0.0539992881493497
100
AcDbArc
 50
226.969013919705
 51
295.3354855813935
  0
LINE
  5
295
330
2
100
AcDbEntity
  8
0
100
AcDbLine
 10
7.767835865144703
 20
6.57035763223361
 30
0.0
 11
7.862177657237684
 21
6.488655243645868
 31
0.0
  0
ARC
  5
296
330
2
100
AcDbEntity
  8
0
100
AcDbCircle
 10
7.922811028348387
 20
6.695617222408823
 30
0.0
 40
0.1992668214704744
100
AcDbArc
 50
158.4468754029974
 51
218.9470807937983
  0
ARC
  5
297
330
2
100
AcDbEntity
  8
0
100
AcDbCircle
 10
7.732404045528102
 20
6.997798371061946
 30
0.0
 40
0.076457089209396
100
AcDbArc
 50
341.0408574851015
 51
24.40699054409735
  0
ARC
  5
298
330
2
100
AcDbEntity
  8
0
100
AcDbCircle
 10
7.941256347032872
 20
7.092577082473333
 30
0.0
 40
0.1528947976606711
100
AcDbArc
 50
161.0380058708977
 51
204.4098498788006
  0
LINE
  5
299
330
2
100
AcDbEntity
  8
0
100
AcDbLine
 10
7.335417913321168
 20
6.17674378785236
 30
0.0
 11
7.404012696148839
 21
6.117338963353105
 31
0.0
  0
LINE
  5
29A
330
2
100
AcDbEntity
  8
0
100
AcDbLine
 10
5.399776581702864
 20
6.268248241856099
 30
0.0
 11
5.306355035822006
 21
6.349153673848664
 31
0.0
  0
LINE
  5
29B
330
2
100
AcDbEntity
  8
0
100
AcDbLine
 10
5.306355035822006
 20
6.349153673848664
 30
0.0
 11
6.429697640675906
 21
6.264571667052936
 31
0.0
  0
LINE
  5
29C
330
2
100
AcDbEntity
  8
0
100
AcDbLine
 10
6.429697640675906
 20
6.264571667052936
 30
0.0
 11
6.454524403729165
 21
6.243071059549635
 31
0.0
  0
ARC
  5
29D
330
2
100
AcDbEntity
  8
0
100
AcDbCircle
 10
7.370208721093373
 20
6.084301653389954
 30
0.0
 40
0.0472670348083958
100
AcDbArc
 50
6.368136345499464
 51
44.34285004420472
  0
ARC
  5
29E
330
2
100
AcDbEntity
  8
0
100
AcDbCircle
 10
7.72076638729772
 20
6.710829166303684
 30
0.0
 40
0.1992624063051666
100
AcDbArc
 50
158.446168294299
 51
218.9478017275991
  0
LINE
  5
29F
330
2
100
AcDbEntity
  8
0
100
AcDbLine
 10
7.660138026067476
 20
6.503868012982331
 30
0.0
 11
7.565796233964653
 21
6.585570401570067
 31
0.0
  0
ARC
  5
2A0
330
2
100
AcDbEntity
  8
0
100
AcDbCircle
 10
7.698102476547454
 20
6.545139211928386
 30
0.0
 40
0.0560768344536589
100
AcDbArc
 50
227.3897431828998
 51
264.8561861738975
  0
ARC
  5
2A1
330
2
100
AcDbEntity
  8
0
100
AcDbCircle
 10
6.858321924720926
 20
7.174116673476557
 30
0.0
 40
0.1528947976607051
100
AcDbArc
 50
161.0380058708977
 51
204.4098498788006
  0
ARC
  5
2A2
330
2
100
AcDbEntity
  8
0
100
AcDbCircle
 10
5.366042628407143
 20
6.235256958863261
 30
0.0
 40
0.0471847894853881
100
AcDbArc
 50
6.491114374099542
 51
44.36230848150006
  0
ARC
  5
2A3
330
2
100
AcDbEntity
  8
0
100
AcDbCircle
 10
6.64947588970033
 20
7.079338260195409
 30
0.0
 40
0.0764512595852188
100
AcDbArc
 50
341.0391203479009
 51
24.40872768130068
  0
ELLIPSE
  5
2A4
330
2
100
AcDbEntity
  8
0
100
AcDbEllipse
 10
7.957017719140679
 20
7.990819029217027
 30
0.0
 11
0.2398030114490234
 21
0.8553171375994597
 31
0.0
210
0.0
220
0.0
230
1.0
 40
0.033449368
 41
2.272263534317461
 42
2.34174625460599
  0
SPLINE
  5
2A5
330
2
100
AcDbEntity
  8
0
100
AcDbSpline
210
0.0
220
0.0
230
1.0
 70
     8
 71
     3
 72
    11
 73
     7
 74
     0
 42
0.000000001
 43
0.0000000001
 40
0.0
 40
0.0
 40
0.0
 40
0.0
 40
0.2517137385180087
 40
0.5017633876615959
 40
0.7884835531649208
 40
1.0
 40
1.0
 40
1.0
 40
1.0
 10
7.76078612323517
 20
7.491908581109567
 30
0.0
 10
7.764055707187355
 20
7.48954517104906
 30
0.0
 10
7.770573259744451
 20
7.484833975524358
 30
0.0
 10
7.778093799751759
 20
7.472209874395655
 30
0.0
 10
7.78227477348567
 20
7.458320984404799
 30
0.0
 10
7.780964882165378
 20
7.448953592641111
 30
0.0
 10
7.780408793851218
 20
7.444976852729028
 30
0.0
  0
ARC
  5
2A6
330
2
100
AcDbEntity
  8
0
100
AcDbCircle
 10
5.358008232665502
 20
6.390906468564846
 30
0.0
 40
0.06641798409208
100
AcDbArc
 50
158.4451304928023
 51
218.9496259357013
  0
LINE
  5
2A7
330
2
100
AcDbEntity
  8
0
100
AcDbLine
 10
7.534123016131115
 20
7.558088634065628
 30
0.0
 11
7.090307097282635
 21
7.591505827804036
 31
0.0
  0
LINE
  5
2A8
330
2
100
AcDbEntity
  8
0
100
AcDbLine
 10
7.534123016131115
 20
7.558088634065628
 30
0.0
 11
7.754670622705051
 21
7.494422244386219
 31
0.0
  0
ARC
  5
2A9
330
2
100
AcDbEntity
  8
0
100
AcDbCircle
 10
7.746414844930957
 20
7.465640689256908
 30
0.0
 40
0.0299422073743885
100
AcDbArc
 50
61.3167382975007
 51
73.99485028310414
  0
ELLIPSE
  5
2AA
330
2
100
AcDbEntity
  8
0
100
AcDbEllipse
 10
6.481244408947924
 20
7.469394217712171
 30
0.0
 11
0.046083134472243
 21
-0.0187793377181655
 31
0.0
210
0.0
220
0.0
230
0.9999999999999998
 40
0.2713924154000001
 41
1.896947681047104
 42
2.246013531439856
  0
LINE
  5
2AB
330
2
100
AcDbEntity
  8
0
100
AcDbLine
 10
6.518246133509398
 20
7.47297314193754
 30
0.0
 11
6.471307675949167
 21
7.487258614338657
 31
0.0
  0
LINE
  5
2AC
330
2
100
AcDbEntity
  8
0
100
AcDbLine
 10
6.119994929763239
 20
7.532508257441058
 30
0.0
 11
6.31403758396393
 21
7.364462389491459
 31
0.0
  0
ELLIPSE
  5
2AD
330
2
100
AcDbEntity
  8
0
100
AcDbEllipse
 10
6.159152136571956
 20
7.525667326972542
 30
0.0
 11
0.0460831344715713
 21
-0.0187793377178889
 31
0.0
210
0.0
220
0.0
230
0.9999999999999998
 40
0.2713924153999999
 41
2.246013531444893
 42
3.816809858235645
  0
LINE
  5
2AE
330
2
100
AcDbEntity
  8
0
100
AcDbLine
 10
6.134325475437798
 20
7.547168053803334
 30
0.0
 11
6.456417046744469
 21
7.490894810815886
 31
0.0
  0
LINE
  5
2AF
330
2
100
AcDbEntity
  8
0
100
AcDbLine
 10
5.474097822731287
 20
6.779092117230501
 30
0.0
 11
5.467592734586419
 21
6.759341607217244
 31
0.0
  0
LINE
  5
2B0
330
2
100
AcDbEntity
  8
0
100
AcDbLine
 10
5.472030701536653
 20
6.779247813881993
 30
0.0
 11
5.474097822731287
 21
6.779092117230501
 31
0.0
  0
LWPOLYLINE
  5
2B1
330
2
100
AcDbEntity
  8
0
100
AcDbPolyline
 90
        9
 70
   128
 43
0.0
 10
5.467309514632791
 20
6.789870831477106
 10
5.466659774736202
 20
6.787986671284617
 10
5.466381680931998
 20
6.786111277814396
 10
5.466486767068489
 20
6.784328076748897
 10
5.466969906996392
 20
6.78271648540343
 10
5.467810596088466
 20
6.781348598248269
 10
5.468970388199551
 20
6.78028556354585
 10
5.470398021806294
 20
6.779574577787768
 10
5.472030701536653
 20
6.779247813881993
  0
LINE
  5
2B2
330
2
100
AcDbEntity
  8
0
100
AcDbLine
 10
5.688558122626681
 20
7.287965811117238
 30
0.0
 11
5.467309514632791
 21
6.789870831477106
 31
0.0
  0
ARC
  5
2B3
330
2
100
AcDbEntity
  8
0
100
AcDbCircle
 10
5.720812613688395
 20
7.274873297711106
 30
0.0
 40
0.0348104309199256
100
AcDbArc
 50
90.72684154310181
 51
157.9071328554996
  0
LINE
  5
2B4
330
2
100
AcDbEntity
  8
0
100
AcDbLine
 10
5.868788535876827
 20
7.298505971394955
 30
0.0
 11
5.720371028132268
 21
7.309680927669644
 31
0.0
  0
LINE
  5
2B5
330
2
100
AcDbEntity
  8
0
100
AcDbLine
 10
6.417244615870599
 20
7.379751243402812
 30
0.0
 11
5.868788535876827
 21
7.298505971394955
 31
0.0
  0
ARC
  5
2B6
330
2
100
AcDbEntity
  8
0
100
AcDbCircle
 10
6.988676258960475
 20
8.031731094572096
 30
0.0
 40
0.4518042859475232
100
AcDbArc
 50
248.3883789471948
 51
282.9996079636007
  0
SPLINE
  5
2B7
330
2
100
AcDbEntity
  8
0
100
AcDbSpline
210
0.0
220
0.0
230
1.0
 70
     8
 71
     3
 72
     9
 73
     5
 74
     0
 42
0.000000001
 43
0.0000000001
 40
0.0
 40
0.0
 40
0.0
 40
0.0
 40
0.3637854744933605
 40
1.0
 40
1.0
 40
1.0
 40
1.0
 10
6.853575380207928
 20
5.393174552213687
 30
0.0
 10
6.85203398976157
 20
5.401493040051711
 30
0.0
 10
6.84779690347187
 20
5.424359505101154
 30
0.0
 10
6.842653731668281
 20
5.446561598827096
 30
0.0
 10
6.839381571059758
 20
5.460686893352159
 30
0.0
  0
SPLINE
  5
2B8
330
2
100
AcDbEntity
  8
0
100
AcDbSpline
210
0.0
220
0.0
230
1.0
 70
     8
 71
     3
 72
     9
 73
     5
 74
     0
 42
0.000000001
 43
0.0000000001
 40
0.0
 40
0.0
 40
0.0
 40
0.0
 40
0.4931078804754943
 40
1.0
 40
1.0
 40
1.0
 40
1.0
 10
7.128349996270166
 20
5.372485428329156
 30
0.0
 10
7.120492321880461
 20
5.358772238132925
 30
0.0
 10
7.104557321243129
 20
5.330962521964897
 30
0.0
 10
7.095714976424275
 20
5.299815303763906
 30
0.0
 10
7.091232861517521
 20
5.284027024312679
 30
0.0
  0
SPLINE
  5
2B9
330
2
100
AcDbEntity
  8
0
100
AcDbSpline
210
0.0
220
0.0
230
1.0
 70
     8
 71
     3
 72
     9
 73
     5
 74
     0
 42
0.000000001
 43
0.0000000001
 40
0.0
 40
0.0
 40
0.0
 40
0.0
 40
0.3964137364449641
 40
1.0
 40
1.0
 40
1.0
 40
1.0
 10
7.091232861517521
 20
5.284027024312679
 30
0.0
 10
7.084949606276357
 20
5.276690204234808
 30
0.0
 10
7.069099360274597
 20
5.258182217746594
 30
0.0
 10
7.05178906737776
 20
5.242280495851427
 30
0.0
 10
7.041340812367065
 20
5.232682434948647
 30
0.0
  0
LINE
  5
2BA
330
2
100
AcDbEntity
  8
0
100
AcDbLine
 10
6.852281882122572
 20
5.246917458440425
 30
0.0
 11
6.861878524087106
 21
5.301296490401202
 31
0.0
  0
SPLINE
  5
2BB
330
2
100
AcDbEntity
  8
0
100
AcDbSpline
210
0.0
220
0.0
230
1.0
 70
     8
 71
     3
 72
     9
 73
     5
 74
     0
 42
0.000000001
 43
0.0000000001
 40
0.0
 40
0.0
 40
0.0
 40
0.0
 40
0.3822979274184181
 40
1.0
 40
1.0
 40
1.0
 40
1.0
 10
6.861878524091899
 20
5.301296490405092
 30
0.0
 10
6.862461931206564
 20
5.313409276041562
 30
0.0
 10
6.863987984770573
 20
5.345093428028101
 30
0.0
 10
6.857551320851329
 20
5.374815294001144
 30
0.0
 10
6.853575380207928
 20
5.393174552213687
 30
0.0
  0
LINE
  5
2BC
330
2
100
AcDbEntity
  8
0
100
AcDbLine
 10
6.839381571059758
 20
5.460686893352786
 30
0.0
 11
6.842571584612609
 21
5.491185032972835
 31
0.0
  0
ARC
  5
2BD
330
2
100
AcDbEntity
  8
0
100
AcDbCircle
 10
6.955683332522509
 20
5.158432777775641
 30
0.0
 40
0.351451747549365
100
AcDbArc
 50
62.61379871470381
 51
108.7743259455002
  0
LINE
  5
2BE
330
2
100
AcDbEntity
  8
0
100
AcDbLine
 10
7.040902168233372
 20
5.152465008450251
 30
0.0
 11
7.038635127074376
 21
5.15083091413816
 31
0.0
  0
LWPOLYLINE
  5
2BF
330
2
100
AcDbEntity
  8
0
100
AcDbPolyline
 90
        9
 70
   128
 43
0.0
 10
6.887299556734397
 20
5.162226133789134
 10
6.887806010939144
 20
5.17188620750621
 10
6.896143726286866
 20
5.178811028206435
 10
6.911632485077744
 20
5.182436752876276
 10
6.933014662066486
 20
5.182469005458409
 10
6.958548318854195
 20
5.178904571388016
 10
6.986157691389941
 20
5.172033536640502
 10
7.013597960888668
 20
5.162415060185929
 10
7.038635127074376
 20
5.15083091413816
  0
LINE
  5
2C0
330
2
100
AcDbEntity
  8
0
100
AcDbLine
 10
6.887299556734397
 20
5.162226133789134
 30
0.0
 11
6.886192307686558
 21
5.164114108352126
 31
0.0
  0
LINE
  5
2C1
330
2
100
AcDbEntity
  8
0
100
AcDbLine
 10
6.886192307686558
 20
5.164114108352126
 30
0.0
 11
6.852281882122572
 21
5.246917458440425
 31
0.0
  0
LINE
  5
2C2
330
2
100
AcDbEntity
  8
0
100
AcDbLine
 10
7.041340812369269
 20
5.232682434951634
 30
0.0
 11
7.040902168233372
 21
5.152465008450251
 31
0.0
  0
LINE
  5
2C3
330
2
100
AcDbEntity
  8
0
100
AcDbLine
 10
6.822270809335821
 20
7.61168783592472
 30
0.0
 11
6.624943394300741
 21
7.626545565948029
 31
0.0
  0
LINE
  5
2C4
330
2
100
AcDbEntity
  8
0
100
AcDbLine
 10
7.039742376122214
 20
5.150747665818428
 30
0.0
 11
7.081947919559056
 21
5.114196593026191
 31
0.0
  0
LINE
  5
2C5
330
2
100
AcDbEntity
  8
0
100
AcDbLine
 10
7.039742376122214
 20
5.150747665818428
 30
0.0
 11
7.040902168233372
 21
5.152465008450251
 31
0.0
  0
LINE
  5
2C6
330
2
100
AcDbEntity
  8
0
100
AcDbLine
 10
7.142097946576119
 20
5.458537685862046
 30
0.0
 11
7.117346200674293
 21
5.470495989183745
 31
0.0
  0
LINE
  5
2C7
330
2
100
AcDbEntity
  8
0
100
AcDbLine
 10
7.142097946576119
 20
5.458537685862046
 30
0.0
 11
7.128349996266468
 21
5.372485428331752
 31
0.0
  0
LWPOLYLINE
  5
2C8
330
2
100
AcDbEntity
  8
0
100
AcDbPolyline
 90
        9
 70
   128
 43
0.0
 10
7.080840670511218
 20
5.114279841345917
 10
7.080334216306543
 20
5.104619767628805
 10
7.071996500958833
 20
5.097694946928579
 10
7.056507742167871
 20
5.09406922225874
 10
7.03512684671895
 20
5.094037259524597
 10
7.00959190839142
 20
5.097601403747042
 10
6.981982535855673
 20
5.104472438494513
 10
6.954542266356946
 20
5.114090914949122
 10
6.929505100171239
 20
5.125675060996891
  0
LINE
  5
2C9
330
2
100
AcDbEntity
  8
0
100
AcDbLine
 10
6.928397851123412
 20
5.125758309316623
 30
0.0
 11
6.929505100171239
 21
5.125675060996891
 31
0.0
  0
LINE
  5
2CA
330
2
100
AcDbEntity
  8
0
100
AcDbLine
 10
6.886192307686558
 20
5.162309382108866
 30
0.0
 11
6.928397851123412
 21
5.125758309316623
 31
0.0
  0
LINE
  5
2CB
330
2
100
AcDbEntity
  8
0
100
AcDbLine
 10
6.886192307686558
 20
5.162309382108866
 30
0.0
 11
6.887299556734397
 21
5.162226133789134
 31
0.0
  0
LINE
  5
2CC
330
2
100
AcDbEntity
  8
0
100
AcDbLine
 10
7.038635127074376
 20
5.15083091413816
 30
0.0
 11
7.039742376122214
 21
5.150747665818428
 31
0.0
  0
LINE
  5
2CD
330
2
100
AcDbEntity
  8
0
100
AcDbLine
 10
7.080840670511218
 20
5.114279841345917
 30
0.0
 11
7.081947919559056
 21
5.114196593026191
 31
0.0
  0
LINE
  5
2CE
330
2
100
AcDbEntity
  8
0
100
AcDbLine
 10
6.624943394300741
 20
7.626545565948029
 30
0.0
 11
6.524458193305108
 21
7.648632489847789
 31
0.0
  0
LWPOLYLINE
  5
2CF
330
2
100
AcDbEntity
  8
0
100
AcDbPolyline
 90
        3
 70
   128
 43
0.0
 10
7.15136720694402
 20
5.137396782164099
 10
7.141945160400841
 20
5.129735687300739
 10
7.140089437645356
 20
5.128831971212566
  0
LINE
  5
2D0
330
2
100
AcDbEntity
  8
0
100
AcDbLine
 10
7.285474124095178
 20
5.291632164021156
 30
0.0
 11
7.271745460876331
 21
5.281653526473543
 31
0.0
  0
ARC
  5
2D1
330
2
100
AcDbEntity
  8
0
100
AcDbCircle
 10
6.50011061163516
 20
7.540441368854358
 30
0.0
 40
0.1108969043546214
100
AcDbArc
 50
77.31730820779643
 51
85.32930291050435
  0
LINE
  5
2D2
330
2
100
AcDbEntity
  8
0
100
AcDbLine
 10
6.509140811865278
 20
7.650970002608397
 30
0.0
 11
6.176757206870043
 21
7.675996972216656
 31
0.0
  0
LINE
  5
2D3
330
2
100
AcDbEntity
  8
0
100
AcDbLine
 10
6.886192307686558
 20
5.164114108352126
 30
0.0
 11
6.886192307686558
 21
5.162309382108866
 31
0.0
  0
SPLINE
  5
2D4
330
2
100
AcDbEntity
  8
0
100
AcDbSpline
210
0.0
220
0.0
230
1.0
 70
     8
 71
     3
 72
     9
 73
     5
 74
     0
 42
0.000000001
 43
0.0000000001
 40
0.0
 40
0.0
 40
0.0
 40
0.0
 40
0.690265050481048
 40
1.0
 40
1.0
 40
1.0
 40
1.0
 10
7.299331132330276
 20
5.312892415268575
 30
0.0
 10
7.294788884461457
 20
5.319112106361327
 30
0.0
 10
7.288208444287444
 20
5.328122690177505
 30
0.0
 10
7.281510884681368
 20
5.336885067566531
 30
0.0
 10
7.27943641639488
 20
5.339599082084825
 30
0.0
  0
LINE
  5
2D5
330
2
100
AcDbEntity
  8
0
100
AcDbLine
 10
7.285474124095178
 20
5.291632164021156
 30
0.0
 11
7.299331132333661
 21
5.312892415268497
 31
0.0
  0
LWPOLYLINE
  5
2D6
330
2
100
AcDbEntity
  8
0
100
AcDbPolyline
 90
        6
 70
   128
 43
0.0
 10
6.176757206870043
 20
7.675996972216656
 10
6.169350231796538
 20
7.676176958590142
 10
6.163182765332322
 20
7.675524318028989
 10
6.158491334258202
 20
7.674063437268368
 10
6.155455639916078
 20
7.671850570204438
 10
6.15442291378739
 20
7.670029553227283
  0
ARC
  5
2D7
330
2
100
AcDbEntity
  8
0
100
AcDbCircle
 10
7.324845748252743
 20
4.697782452902718
 30
0.0
 40
0.0292459195236034
100
AcDbArc
 50
206.3093621142017
 51
267.201958473101
  0
ARC
  5
2D8
330
2
100
AcDbEntity
  8
0
100
AcDbCircle
 10
7.583861405014657
 20
4.815406719878338
 30
0.0
 40
0.3137040160559146
100
AcDbArc
 50
168.1565985803998
 51
204.5995217088995
  0
LINE
  5
2D9
330
2
100
AcDbEntity
  8
0
100
AcDbLine
 10
7.3483260677179
 20
5.096849391713178
 30
0.0
 11
7.276835456476593
 21
4.879790542499486
 31
0.0
  0
LINE
  5
2DA
330
2
100
AcDbEntity
  8
0
100
AcDbLine
 10
7.753649703718326
 20
4.843888729373975
 30
0.0
 11
7.825140314959633
 21
5.060947578587631
 31
0.0
  0
ARC
  5
2DB
330
2
100
AcDbEntity
  8
0
100
AcDbCircle
 10
7.282919829401269
 20
5.071313705354008
 30
0.0
 40
0.5227893785030908
100
AcDbArc
 50
308.3912028773998
 51
334.2132946608982
  0
ARC
  5
2DC
330
2
100
AcDbEntity
  8
0
100
AcDbCircle
 10
7.575206820424777
 20
4.699882573211525
 30
0.0
 40
0.0501723773885895
100
AcDbArc
 50
268.1090752518036
 51
310.1931445754983
  0
LINE
  5
2DD
330
2
100
AcDbEntity
  8
0
100
AcDbLine
 10
7.323418090305806
 20
4.668571400170166
 30
0.0
 11
7.57355128891116
 21
4.649737516938555
 31
0.0
  0
ARC
  5
2DE
330
2
100
AcDbEntity
  8
0
100
AcDbCircle
 10
7.388765771722394
 20
4.990261617122951
 30
0.0
 40
0.310738469723522
100
AcDbArc
 50
305.8579809468014
 51
16.63386199700213
  0
ARC
  5
2DF
330
2
100
AcDbEntity
  8
0
100
AcDbCircle
 10
7.680376744242028
 20
4.845982639783794
 30
0.0
 40
0.3116611475718755
100
AcDbArc
 50
126.1985519929036
 51
197.4443547745024
  0
ARC
  5
2E0
330
2
100
AcDbEntity
  8
0
100
AcDbCircle
 10
7.393704201593338
 20
4.757372015308145
 30
0.0
 40
0.0116939483080198
100
AcDbArc
 50
204.3362626065007
 51
267.2102901677973
  0
LINE
  5
2E1
330
2
100
AcDbEntity
  8
0
100
AcDbLine
 10
7.422427172384055
 20
4.74348615481645
 30
0.0
 11
7.393135052614808
 21
4.745691925565137
 31
0.0
  0
LINE
  5
2E2
330
2
100
AcDbEntity
  8
0
100
AcDbLine
 10
7.556781079379725
 20
4.733370170863305
 30
0.0
 11
7.422427172384055
 21
4.74348615481645
 31
0.0
  0
ARC
  5
2E3
330
2
100
AcDbEntity
  8
0
100
AcDbCircle
 10
7.557405843673675
 20
4.75360125452765
 30
0.0
 40
0.0202407281651786
100
AcDbArc
 50
268.2311879514998
 51
311.3935721910029
  0
ARC
  5
2E4
330
2
100
AcDbEntity
  8
0
100
AcDbCircle
 10
7.307746627132557
 20
5.049813067810317
 30
0.0
 40
0.5227893785031338
100
AcDbArc
 50
308.3912028773998
 51
334.2132946608982
  0
ARC
  5
2E5
330
2
100
AcDbEntity
  8
0
100
AcDbCircle
 10
7.600033618165967
 20
4.678381935667841
 30
0.0
 40
0.0501723773885895
100
AcDbArc
 50
268.1090752518036
 51
310.1931445754983
  0
LINE
  5
2E6
330
2
100
AcDbEntity
  8
0
100
AcDbLine
 10
7.778476501449613
 20
4.822388091840197
 30
0.0
 11
7.849967112700906
 21
5.039446941053896
 31
0.0
  0
LINE
  5
2E7
330
2
100
AcDbEntity
  8
0
100
AcDbLine
 10
7.348244888047007
 20
4.647070762636388
 30
0.0
 11
7.598378086642435
 21
4.628236879404783
 31
0.0
  0
ARC
  5
2E8
330
2
100
AcDbEntity
  8
0
100
AcDbCircle
 10
7.350078098173296
 20
4.677460925167591
 30
0.0
 40
0.0304454042127574
100
AcDbArc
 50
229.849277062706
 51
266.5479592276035
  0
ARC
  5
2E9
330
2
100
AcDbEntity
  8
0
100
AcDbCircle
 10
7.711595114754994
 20
4.82146713938497
 30
0.0
 40
0.3186715209447022
100
AcDbArc
 50
124.0986910639975
 51
193.8826501116993
  0
LINE
  5
2EA
330
2
100
AcDbEntity
  8
0
100
AcDbLine
 10
7.546169499905444
 20
5.089778444141513
 30
0.0
 11
7.686500501288383
 21
5.079211846772146
 31
0.0
  0
ARC
  5
2EB
330
2
100
AcDbEntity
  8
0
100
AcDbCircle
 10
7.545472395052523
 20
5.069888401226537
 30
0.0
 40
0.019902255203934
100
AcDbArc
 50
87.99272310400047
 51
129.0223704634997
  0
LINE
  5
2EC
330
2
100
AcDbEntity
  8
0
100
AcDbLine
 10
11.42044161021082
 20
7.639087267642758
 30
0.0
 11
11.41758954683702
 21
7.642401954777715
 31
0.0
  0
LINE
  5
2ED
330
2
100
AcDbEntity
  8
0
100
AcDbLine
 10
23.37479972422261
 20
11.09001320519572
 30
0.0
 11
23.37194766084889
 21
11.09332789233067
 31
0.0
  0
LWPOLYLINE
  5
2EE
330
2
100
AcDbEntity
  8
0
100
AcDbPolyline
 90
       12
 70
   128
 43
0.0
 10
23.45699539930472
 20
11.0083826962271
 10
23.4617740952387
 20
11.0044105632829
 10
23.52321312142303
 20
10.97432660352447
 10
23.59685014903624
 20
10.97030407877957
 10
23.67470584038534
 20
10.9927790809587
 10
23.74834302820101
 20
11.03931600966238
 10
23.80978189418296
 20
11.10487176148486
 10
23.85236484713568
 20
11.18234247537291
 10
23.87147738820681
 20
11.26333302238291
 10
23.86504791080232
 20
11.3390666040933
 10
23.83377389213762
 20
11.4013366326653
 10
23.81456042993439
 20
11.42126331966676
  0
LWPOLYLINE
  5
2EF
330
2
100
AcDbEntity
  8
0
100
AcDbPolyline
 90
       12
 70
   128
 43
0.0
 10
11.50263760567778
 20
7.557456851158946
 10
11.50741582103436
 20
7.553484579482596
 10
11.56885532779609
 20
7.523400758456357
 10
11.6424918748419
 20
7.51937809497926
 10
11.72034788656601
 20
7.541853189643186
 10
11.79398507438168
 20
7.588390118356815
 10
11.85542394036355
 20
7.65394587016938
 10
11.89800689331636
 20
7.731416584057389
 10
11.91711911400255
 20
7.812407038582557
 10
11.91069027736793
 20
7.888140805272582
 10
11.87941561793328
 20
7.950410648874903
 10
11.86020279649999
 20
7.970337520836043
  0
LWPOLYLINE
  5
2F0
330
2
100
AcDbEntity
  8
0
100
AcDbPolyline
 90
       19
 70
   128
 43
0.0
 10
23.33535098770021
 20
11.14680536004181
 10
23.33783284671397
 20
11.08597561621073
 10
23.36197061964492
 20
11.01073803850683
 10
23.408290538128
 20
10.95203405404347
 10
23.4730402581847
 20
10.91461978344266
 10
23.55097396317125
 20
10.90152618567117
 10
23.63577815490829
 20
10.91381409174457
 10
23.72058202625032
 20
10.95048781610475
 10
23.79851589142942
 20
11.00857650567911
 10
23.86326561148613
 20
11.08337404458641
 10
23.90958552996913
 20
11.168820846458
 10
23.93372330290007
 20
11.25799437385534
 10
23.93372330290007
 20
11.34367049216792
 10
23.90958552996913
 20
11.41890806987179
 10
23.86326561148613
 20
11.47761197423396
 10
23.79851589142942
 20
11.51502640502727
 10
23.72058202625032
 20
11.52811987647003
 10
23.63577815490829
 20
11.51583214297271
 10
23.63577815490829
 20
11.51583214297271
  0
LWPOLYLINE
  5
2F1
330
2
100
AcDbEntity
  8
0
100
AcDbPolyline
 90
       19
 70
   128
 43
0.0
 10
11.38099271350579
 20
7.695879376241457
 10
11.38347505308712
 20
7.63504977114261
 10
11.40761282601807
 20
7.559812193438713
 10
11.45393274451097
 20
7.501108208975349
 10
11.51868246455785
 20
7.463693938374544
 10
11.59661600935194
 20
7.450600294355661
 10
11.68141988070395
 20
7.462888107944267
 10
11.76622375205597
 20
7.499561832304443
 10
11.84415793761002
 20
7.557650614363602
 10
11.90890765766681
 20
7.632448153270901
 10
11.95522757615972
 20
7.71789495514249
 10
11.97936534908075
 20
7.807068482539827
 10
11.97936534908075
 20
7.892744600862363
 10
11.95522757615972
 20
7.967982178556312
 10
11.90890765766681
 20
8.026686082928438
 10
11.84415793761002
 20
8.064100513721673
 10
11.76622375205597
 20
8.077193892669729
 10
11.68141988070395
 20
8.064906159172402
 10
11.68141988070395
 20
8.064906159172402
  0
ARC
  5
2F2
330
2
100
AcDbEntity
  8
0
100
AcDbCircle
 10
26.69191897341247
 20
10.70127349702562
 30
0.0
 40
0.6050533860602016
100
AcDbArc
 50
8.749285570098937
 51
43.73463283130219
  0
LINE
  5
2F3
330
2
100
AcDbEntity
  8
0
100
AcDbLine
 10
27.12909993762043
 20
11.11955857267845
 30
0.0
 11
26.83117822604327
 21
11.37756634324528
 31
0.0
  0
ARC
  5
2F4
330
2
100
AcDbEntity
  8
0
100
AcDbCircle
 10
26.96978625043044
 20
11.5049743817175
 30
0.0
 40
0.1882684059861998
100
AcDbArc
 50
179.5143540286999
 51
222.5891186933037
  0
LINE
  5
2F5
330
2
100
AcDbEntity
  8
0
100
AcDbLine
 10
26.7815246074422
 20
11.97958431438218
 30
0.0
 11
26.7815246074422
 21
11.50657014843748
 31
0.0
  0
LWPOLYLINE
  5
2F6
330
2
100
AcDbEntity
  8
0
100
AcDbPolyline
 90
        9
 70
   128
 43
0.0
 10
26.83117822604327
 20
12.02258568957125
 10
26.82149131670471
 20
12.02932225556883
 10
26.81217666776295
 20
12.03249494379523
 10
26.80359220414076
 20
12.0319818479236
 10
26.7960678271571
 20
12.02780259149768
 10
26.78989283633368
 20
12.02011768719182
 10
26.78530427599104
 20
12.00922284995318
 10
26.78247870392072
 20
11.99553634183533
 10
26.7815246074422
 20
11.97958431438218
  0
LINE
  5
2F7
330
2
100
AcDbEntity
  8
0
100
AcDbLine
 10
26.83117822604327
 20
12.02258568957125
 30
0.0
 11
26.93048546323566
 21
11.93658309938557
 31
0.0
  0
LWPOLYLINE
  5
2F8
330
2
100
AcDbEntity
  8
0
100
AcDbPolyline
 90
       11
 70
   128
 43
0.0
 10
26.93048546323566
 20
11.93658309938557
 10
26.98989988832996
 20
11.8976240162126
 10
27.04586140165098
 20
11.88591988757773
 10
27.09511769585481
 20
11.90215096998012
 10
27.13480611155663
 20
11.94537389109822
 10
27.1626201140591
 20
12.01307675585336
 10
27.17694339955161
 20
12.10132476125315
 10
27.17694339955161
 20
12.20498935139869
 10
27.1626201140591
 20
12.31804601499335
 10
27.13480611155663
 20
12.43392414523825
 10
27.07502748469553
 20
12.60256605732052
  0
LINE
  5
2F9
330
2
100
AcDbEntity
  8
0
100
AcDbLine
 10
26.87495853341441
 20
12.83753470519031
 30
0.0
 11
26.83117822604327
 21
12.88261143127497
 31
0.0
  0
ARC
  5
2FA
330
2
100
AcDbEntity
  8
0
100
AcDbCircle
 10
26.96978665189971
 20
13.01001962525236
 30
0.0
 40
0.188268806801391
100
AcDbArc
 50
179.514378016001
 51
222.5890708546995
  0
LINE
  5
2FB
330
2
100
AcDbEntity
  8
0
100
AcDbLine
 10
26.7815246074422
 20
14.86067076534058
 30
0.0
 11
26.7815246074422
 21
13.01161531655838
 31
0.0
  0
LINE
  5
2FC
330
2
100
AcDbEntity
  8
0
100
AcDbLine
 10
29.5621268789188
 20
12.45259856041812
 30
0.0
 11
29.5621268789188
 21
9.267893351342625
 31
0.0
  0
ARC
  5
2FD
330
2
100
AcDbEntity
  8
0
100
AcDbCircle
 10
26.92678487524136
 20
11.49256095394851
 30
0.0
 40
0.1882684059861884
100
AcDbArc
 50
179.5143540286999
 51
222.5891186933037
  0
LINE
  5
2FE
330
2
100
AcDbEntity
  8
0
100
AcDbLine
 10
26.73852323225313
 20
11.96717088660324
 30
0.0
 11
26.73852323225313
 21
11.49415672065854
 31
0.0
  0
LINE
  5
2FF
330
2
100
AcDbEntity
  8
0
100
AcDbLine
 10
26.78817685085419
 20
11.36515291547629
 30
0.0
 11
27.08609856243135
 21
11.10714514490943
 31
0.0
  0
ARC
  5
300
330
2
100
AcDbEntity
  8
0
100
AcDbCircle
 10
7.985143050207715
 20
6.303546697734188
 30
0.0
 40
0.0630571070699292
100
AcDbArc
 50
177.7639509145997
 51
291.3846800217994
  0
LINE
  5
301
330
2
100
AcDbEntity
  8
0
100
AcDbLine
 10
7.922133956969545
 20
6.306006966166494
 30
0.0
 11
7.922133956969545
 21
9.445101107600521
 31
0.0
  0
LINE
  5
302
330
2
100
AcDbEntity
  8
0
100
AcDbLine
 10
26.6706950940108
 20
13.0082890685137
 30
0.0
 11
26.6706950940108
 21
14.85734451729592
 31
0.0
  0
ARC
  5
303
330
2
100
AcDbEntity
  8
0
100
AcDbCircle
 10
26.54849455726203
 20
13.01433225221936
 30
0.0
 40
0.1223498722923699
100
AcDbArc
 50
287.208796779203
 51
357.1688579939019
  0
LINE
  5
304
330
2
100
AcDbEntity
  8
0
100
AcDbLine
 10
26.58469234362275
 20
12.89745962278014
 30
0.0
 11
25.98267437249587
 21
12.72367200393343
 31
0.0
  0
ARC
  5
305
330
2
100
AcDbEntity
  8
0
100
AcDbCircle
 10
26.01887196621056
 20
12.60679952398132
 30
0.0
 40
0.1223496725013064
100
AcDbArc
 50
107.2087313155017
 51
177.1689234576004
  0
LINE
  5
306
330
2
100
AcDbEntity
  8
0
100
AcDbLine
 10
25.89667162210781
 20
12.61284255819981
 30
0.0
 11
25.89667162210781
 21
11.49480904593913
 31
0.0
  0
ARC
  5
307
330
2
100
AcDbEntity
  8
0
100
AcDbCircle
 10
25.77447234835814
 20
11.50085124247144
 30
0.0
 40
0.1223485620919078
100
AcDbArc
 50
287.2085247059991
 51
357.1692905096015
  0
LINE
  5
308
330
2
100
AcDbEntity
  8
0
100
AcDbLine
 10
25.81066919211461
 20
11.38397969269036
 30
0.0
 11
8.008135425807795
 21
6.244830861569688
 31
0.0
  0
LINE
  5
309
330
2
100
AcDbEntity
  8
0
100
AcDbLine
 10
24.004614958329
 20
12.36766183169508
 30
0.0
 11
23.31659455719901
 21
12.16904744979516
 31
0.0
  0
LINE
  5
30A
330
2
100
AcDbEntity
  8
0
100
AcDbLine
 10
24.004614958329
 20
12.62566960226195
 30
0.0
 11
24.004614958329
 21
12.36766183169508
 31
0.0
  0
LINE
  5
30B
330
2
100
AcDbEntity
  8
0
100
AcDbLine
 10
24.004614958329
 20
12.62566960226195
 30
0.0
 11
23.31659455719901
 21
12.42705522036206
 31
0.0
  0
LINE
  5
30C
330
2
100
AcDbEntity
  8
0
100
AcDbLine
 10
23.31659455719901
 20
12.42705522036206
 30
0.0
 11
23.31659455719901
 21
12.16904744979516
 31
0.0
  0
LINE
  5
30D
330
2
100
AcDbEntity
  8
0
100
AcDbLine
 10
12.05025700451959
 20
8.916735940379574
 30
0.0
 11
11.36223628300458
 21
8.718121465994849
 31
0.0
  0
LINE
  5
30E
330
2
100
AcDbEntity
  8
0
100
AcDbLine
 10
12.05025700451959
 20
9.174743710946442
 30
0.0
 11
12.05025700451959
 21
8.916735940379574
 31
0.0
  0
LINE
  5
30F
330
2
100
AcDbEntity
  8
0
100
AcDbLine
 10
12.05025700451959
 20
9.174743710946442
 30
0.0
 11
11.36223628300458
 21
8.976129236561753
 31
0.0
  0
LINE
  5
310
330
2
100
AcDbEntity
  8
0
100
AcDbLine
 10
11.36223628300458
 20
8.976129236561753
 30
0.0
 11
11.36223628300458
 21
8.718121465994849
 31
0.0
  0
LWPOLYLINE
  5
311
330
2
100
AcDbEntity
  8
0
100
AcDbPolyline
 90
        7
 70
   128
 43
0.0
 10
26.76063402040296
 20
12.01958083504679
 10
26.76059082895176
 20
12.01956842014466
 10
26.75306645196802
 20
12.01538916372869
 10
26.74689146114469
 20
12.00770425942283
 10
26.74230290080197
 20
11.99680942218414
 10
26.73947732873165
 20
11.98312291406634
 10
26.73852323225313
 20
11.96717088660324
  0
ARC
  5
312
330
2
100
AcDbEntity
  8
0
100
AcDbCircle
 10
26.61649843806312
 20
10.67287836440653
 30
0.0
 40
0.6396185687204472
100
AcDbArc
 50
9.722545797199272
 51
42.76137260430007
  0
ARC
  5
313
330
2
100
AcDbEntity
  8
0
100
AcDbCircle
 10
26.75001949390291
 20
14.86189993522403
 30
0.0
 40
0.0315290824152459
100
AcDbArc
 50
357.7657421884998
 51
111.3844477884976
  0
ARC
  5
314
330
2
100
AcDbEntity
  8
0
100
AcDbCircle
 10
29.52984831805092
 20
12.45386541916953
 30
0.0
 40
0.0323034119378255
100
AcDbArc
 50
357.752426936099
 51
47.59881152089869
  0
LWPOLYLINE
  5
315
330
2
100
AcDbEntity
  8
0
100
AcDbPolyline
 90
        7
 70
   128
 43
0.0
 10
7.922133956969545
 20
9.445101107600521
 10
7.922611005203837
 20
9.453076921088996
 10
7.924023744991611
 20
9.459920415431676
 10
7.926318071405333
 20
9.465367673863468
 10
7.92940556681712
 20
9.469210126016401
 10
7.933167755308864
 20
9.471299834320637
 10
7.93318930479706
 20
9.471306161918567
  0
LWPOLYLINE
  5
316
330
2
100
AcDbEntity
  8
0
100
AcDbPolyline
 90
        9
 70
   128
 43
0.0
 10
26.69552185706406
 20
14.87884496459675
 10
26.69067840239477
 20
14.88221324760049
 10
26.68602112416621
 20
14.88379979195678
 10
26.68172889236012
 20
14.88354324401602
 10
26.67796670386829
 20
14.88145353571179
 10
26.67487920845657
 20
14.87761108355885
 10
26.67258488203295
 20
14.87216382512702
 10
26.67117214224511
 20
14.86532033078438
 10
26.6706950940108
 20
14.85734451729592
  0
LINE
  5
317
330
2
100
AcDbEntity
  8
0
100
AcDbLine
 10
26.69552185706406
 20
14.87884496459675
 30
0.0
 11
26.73852323225313
 21
14.89125839237565
 31
0.0
  0
ARC
  5
318
330
2
100
AcDbEntity
  8
0
100
AcDbCircle
 10
27.59811486048451
 20
10.50521378346297
 30
0.0
 40
0.321063117517939
100
AcDbArc
 50
57.13646885050122
 51
107.6021069081028
  0
LINE
  5
319
330
2
100
AcDbEntity
  8
0
100
AcDbLine
 10
27.77233652509591
 20
10.77489570167567
 30
0.0
 11
30.20536337389948
 21
8.66783264251911
 31
0.0
  0
LWPOLYLINE
  5
31A
330
2
100
AcDbEntity
  8
0
100
AcDbPolyline
 90
        9
 70
   128
 43
0.0
 10
30.13266511033565
 20
8.532176341247485
 10
30.16431408893494
 20
8.543515899032309
 10
30.19092942234678
 20
8.557724569959718
 10
30.21148994095295
 20
8.574256493041444
 10
30.22520498078007
 20
8.592476428059466
 10
30.23154711499116
 20
8.611683942018299
 10
30.23027319914089
 20
8.631141056930992
 10
30.22143219792578
 20
8.650100246798492
 10
30.20536337389948
 20
8.66783264251911
  0
LINE
  5
31B
330
2
100
AcDbEntity
  8
0
100
AcDbLine
 10
30.13266511033565
 20
8.532176341247485
 30
0.0
 11
29.46184519520226
 21
8.338527311952283
 31
0.0
  0
LINE
  5
31C
330
2
100
AcDbEntity
  8
0
100
AcDbLine
 10
27.50102378713732
 20
10.81124458077537
 30
0.0
 11
26.83020387200392
 21
10.61759555149007
 31
0.0
  0
LWPOLYLINE
  5
31D
330
2
100
AcDbEntity
  8
0
100
AcDbPolyline
 90
        9
 70
   128
 43
0.0
 10
28.41652823753505
 20
9.670819231763562
 10
28.35826454316519
 20
9.645271208041295
 10
28.32398898474175
 20
9.610519349941547
 10
28.3189202094263
 20
9.571854463516757
 10
28.34383060317176
 20
9.535163125481671
 10
28.39492666797521
 20
9.50603093955484
 10
28.46443060339538
 20
9.488893340431838
 10
28.54176036650295
 20
9.486359163553661
 10
28.61514268880105
 20
9.498814071412617
  0
LINE
  5
31E
330
2
100
AcDbEntity
  8
0
100
AcDbLine
 10
28.61514268880105
 20
9.498814071412617
 30
0.0
 11
28.78714818956718
 21
9.548467782498565
 31
0.0
  0
LWPOLYLINE
  5
31F
330
2
100
AcDbEntity
  8
0
100
AcDbPolyline
 90
        9
 70
   128
 43
0.0
 10
28.78714818956718
 20
9.548467782498565
 10
28.84541252470699
 20
9.574015991190469
 10
28.87968744237047
 20
9.608767664320581
 10
28.88475621767593
 20
9.647432550745364
 10
28.85984582393047
 20
9.684123888780414
 10
28.80874975912711
 20
9.713256074707288
 10
28.73924582370693
 20
9.73039367383029
 10
28.66191670136923
 20
9.732928035688008
 10
28.58853373830125
 20
9.720472942849511
  0
LINE
  5
320
330
2
100
AcDbEntity
  8
0
100
AcDbLine
 10
28.58853373830125
 20
9.720472942849511
 30
0.0
 11
28.41652823753505
 21
9.670819231763562
 31
0.0
  0
ARC
  5
321
330
2
100
AcDbEntity
  8
0
100
AcDbCircle
 10
27.59811486048451
 20
10.54821507355569
 30
0.0
 40
0.3210631175179868
100
AcDbArc
 50
57.13646885050122
 51
107.6021069081028
  0
LINE
  5
322
330
2
100
AcDbEntity
  8
0
100
AcDbLine
 10
27.50102378713732
 20
10.85424587086809
 30
0.0
 11
26.83020387200392
 21
10.66059684158276
 31
0.0
  0
LINE
  5
323
330
2
100
AcDbEntity
  8
0
100
AcDbLine
 10
30.20536337389948
 20
8.710833932601881
 30
0.0
 11
27.77233652509591
 21
10.81789699175845
 31
0.0
  0
ARC
  5
324
330
2
100
AcDbEntity
  8
0
100
AcDbCircle
 10
26.81410891493492
 20
10.6586967448157
 30
0.0
 40
0.0441401827860786
100
AcDbArc
 50
177.7643096007013
 51
291.3849844368014
  0
ARC
  5
325
330
2
100
AcDbEntity
  8
0
100
AcDbCircle
 10
26.8256054630563
 20
10.67233997104319
 30
0.0
 40
0.012611362116546
100
AcDbArc
 50
177.763632320301
 51
291.3844626884983
  0
ARC
  5
326
330
2
100
AcDbEntity
  8
0
100
AcDbCircle
 10
29.44592942987019
 20
8.383015072617972
 30
0.0
 40
0.0472490469226214
100
AcDbArc
 50
231.221989142398
 51
289.6849767793981
  0
LINE
  5
327
330
2
100
AcDbEntity
  8
0
100
AcDbLine
 10
26.81300370639226
 20
10.67283209248498
 30
0.0
 11
26.81300370639226
 21
11.34365222788179
 31
0.0
  0
LWPOLYLINE
  5
328
330
2
100
AcDbEntity
  8
0
100
AcDbPolyline
 90
       13
 70
   128
 43
0.0
 10
27.20442983226021
 20
10.76862657602813
 10
27.20274638285521
 20
10.77865265048024
 10
27.18119070202008
 20
10.86198735836279
 10
27.14816551631669
 20
10.93858558034895
 10
27.1076541507816
 20
10.99920842686056
 10
27.06454288159623
 20
11.03654388116329
 10
27.02403151606121
 20
11.04608877803789
 10
26.99100633035766
 20
11.02669185562513
 10
26.96945074200743
 20
10.98069260203535
 10
26.96196456218578
 20
10.91363927693366
 10
26.96945074200743
 20
10.83361954805994
 10
26.99100633035766
 20
10.75028490023834
 10
27.00596231980146
 20
10.71133398688171
  0
LINE
  5
329
330
2
100
AcDbEntity
  8
0
100
AcDbLine
 10
26.77000233120318
 20
10.66041866471596
 30
0.0
 11
26.77000233120318
 21
11.38686052368777
 31
0.0
  0
LINE
  5
32A
330
2
100
AcDbEntity
  8
0
100
AcDbLine
 10
7.982482188296309
 20
6.079753994433291
 30
0.0
 11
26.59972418320931
 21
11.45694218860072
 31
0.0
  0
LINE
  5
32B
330
2
100
AcDbEntity
  8
0
100
AcDbLine
 10
26.13650494074117
 20
12.73941158726229
 30
0.0
 11
26.13650494074117
 21
12.52440503169198
 31
0.0
  0
LINE
  5
32C
330
2
100
AcDbEntity
  8
0
100
AcDbLine
 10
26.13650494074117
 20
12.52440503169198
 30
0.0
 11
26.43751424668958
 21
12.61129893360018
 31
0.0
  0
LINE
  5
32D
330
2
100
AcDbEntity
  8
0
100
AcDbLine
 10
26.43751424668958
 20
12.61129893360018
 30
0.0
 11
26.43751424668958
 21
12.82630548917044
 31
0.0
  0
LINE
  5
32E
330
2
100
AcDbEntity
  8
0
100
AcDbLine
 10
26.43751424668958
 20
12.00928096247323
 30
0.0
 11
26.43751424668958
 21
12.18128614284455
 31
0.0
  0
LINE
  5
32F
330
2
100
AcDbEntity
  8
0
100
AcDbLine
 10
26.43751424668958
 20
12.18128614284455
 30
0.0
 11
26.13650494074117
 21
12.09439224093636
 31
0.0
  0
LINE
  5
330
330
2
100
AcDbEntity
  8
0
100
AcDbLine
 10
26.13650494074117
 20
12.09439224093636
 30
0.0
 11
26.13650494074117
 21
11.92238706055516
 31
0.0
  0
LINE
  5
331
330
2
100
AcDbEntity
  8
0
100
AcDbLine
 10
26.13650494074117
 20
11.92238706055516
 30
0.0
 11
26.43751424668958
 21
12.00928096247323
 31
0.0
  0
LINE
  5
332
330
2
100
AcDbEntity
  8
0
100
AcDbLine
 10
26.67734733741296
 20
12.68241975580817
 30
0.0
 11
26.6706950940064
 21
13.00828906850997
 31
0.0
  0
LINE
  5
333
330
2
100
AcDbEntity
  8
0
100
AcDbLine
 10
10.65308251735027
 20
3.768930956061825
 30
0.0
 11
10.69280543073214
 21
3.734529903967324
 31
0.0
  0
LINE
  5
334
330
2
100
AcDbEntity
  8
0
100
AcDbLine
 10
10.65308251735027
 20
3.768930956061825
 30
0.0
 11
10.52711115205363
 21
3.732566155234034
 31
0.0
  0
ARC
  5
335
330
2
100
AcDbEntity
  8
0
100
AcDbCircle
 10
30.16599125915429
 20
8.657778131245679
 30
0.0
 40
0.0660687632535093
100
AcDbArc
 50
2.95165295259915
 51
53.42130466590005
  0
ARC
  5
336
330
2
100
AcDbEntity
  8
0
100
AcDbCircle
 10
10.70852789400256
 20
3.749042353727187
 30
0.0
 40
0.0213964260867086
100
AcDbArc
 50
222.7082226247959
 51
279.570991519398
  0
LINE
  5
337
330
2
100
AcDbEntity
  8
0
100
AcDbLine
 10
7.895469828855366
 20
6.054635689859678
 30
0.0
 11
7.984200974173183
 21
6.080250165177676
 31
0.0
  0
ARC
  5
338
330
2
100
AcDbEntity
  8
0
100
AcDbCircle
 10
7.890687930561384
 20
6.070681400537471
 30
0.0
 40
0.0167430995429239
100
AcDbArc
 50
266.2273906944015
 51
286.5949634005968
  0
LINE
  5
339
330
2
100
AcDbEntity
  8
0
100
AcDbLine
 10
10.5065206769973
 20
3.730252794932979
 30
0.0
 11
7.81700764510914
 21
6.059439404356578
 31
0.0
  0
ARC
  5
33A
330
2
100
AcDbEntity
  8
0
100
AcDbCircle
 10
10.51037752136834
 20
3.788715539286282
 30
0.0
 40
0.0585898261314942
100
AcDbArc
 50
266.2256106960968
 51
286.5951008251002
  0
LINE
  5
33B
330
2
100
AcDbEntity
  8
0
100
AcDbLine
 10
5.861317485510297
 20
6.206693441486408
 30
0.0
 11
7.88958628675073
 21
6.053974582672723
 31
0.0
  0
LINE
  5
33C
330
2
100
AcDbEntity
  8
0
100
AcDbLine
 10
7.856860890907273
 20
3.929759320134182
 30
0.0
 11
10.5065206769973
 21
3.730252794932979
 31
0.0
  0
LINE
  5
33D
330
2
100
AcDbEntity
  8
0
100
AcDbLine
 10
5.204541913902053
 20
6.109791899356744
 30
0.0
 11
5.205795258311102
 21
6.113596721421697
 31
0.0
  0
LINE
  5
33E
330
2
100
AcDbEntity
  8
0
100
AcDbLine
 10
6.038781920099427
 20
6.031245486622902
 30
0.0
 11
5.571263951314097
 21
4.611791748083317
 31
0.0
  0
ARC
  5
33F
330
2
100
AcDbEntity
  8
0
100
AcDbCircle
 10
5.452137233187944
 20
4.651436643636929
 30
0.0
 40
0.1255503592839995
100
AcDbArc
 50
287.7671609107023
 51
341.5927637648004
  0
LINE
  5
340
330
2
100
AcDbEntity
  8
0
100
AcDbLine
 10
5.490448867769917
 20
4.531874478332433
 30
0.0
 11
4.719802249163318
 21
4.309407961983314
 31
0.0
  0
LINE
  5
341
330
2
100
AcDbEntity
  8
0
100
AcDbLine
 10
5.815260441900636
 20
4.950457438268774
 30
0.0
 11
5.759372558846044
 21
4.780773687376998
 31
0.0
  0
ARC
  5
342
330
2
100
AcDbEntity
  8
0
100
AcDbCircle
 10
5.796442837644931
 20
4.766133265793927
 30
0.0
 40
0.0398565868387261
100
AcDbArc
 50
158.4491067602004
 51
218.9439832005041
  0
LINE
  5
343
330
2
100
AcDbEntity
  8
0
100
AcDbLine
 10
5.765443944292999
 20
4.741080997919403
 30
0.0
 11
6.033573447717416
 21
4.508874036453693
 31
0.0
  0
LWPOLYLINE
  5
344
330
2
100
AcDbEntity
  8
0
100
AcDbPolyline
 90
        9
 70
   128
 43
0.0
 10
6.033573447717416
 20
4.508874036453693
 10
6.036649974358589
 20
4.50687241793454
 10
6.039946741277189
 20
4.505977068867017
 10
6.043337147943588
 20
4.506222488102992
 10
6.046691453158151
 20
4.507599416425859
 10
6.049881894834353
 20
4.510055326641656
 10
6.05278345645248
 20
4.513495045351392
 10
6.055286893991927
 20
4.517786996435832
 10
6.057294224185679
 20
4.522765956860705
  0
LINE
  5
345
330
2
100
AcDbEntity
  8
0
100
AcDbLine
 10
6.057294224185679
 20
4.522765956860705
 30
0.0
 11
6.113182107240271
 21
4.692449707742572
 31
0.0
  0
ARC
  5
346
330
2
100
AcDbEntity
  8
0
100
AcDbCircle
 10
5.989626498277783
 20
4.741252361834209
 30
0.0
 40
0.1328445992596549
100
AcDbArc
 50
338.4467067232989
 51
38.94685972650222
  0
LINE
  5
347
330
2
100
AcDbEntity
  8
0
100
AcDbLine
 10
6.092943636082468
 20
4.824758389092258
 30
0.0
 11
5.894329207935212
 21
4.996763529422874
 31
0.0
  0
LWPOLYLINE
  5
348
330
2
100
AcDbEntity
  8
0
100
AcDbPolyline
 90
        9
 70
   128
 43
0.0
 10
5.894329207935212
 20
4.996763529422874
 10
5.884077093981853
 20
5.003436788090033
 10
5.873087428307677
 20
5.006421068213956
 10
5.861784868301947
 20
5.005602567403763
 10
5.850603027405181
 20
5.001012533014214
 10
5.839970754059233
 20
4.99282693220721
 10
5.830297142434287
 20
4.981360736603027
 10
5.821953220415041
 20
4.967054279384499
 10
5.815260441900636
 20
4.950457438268774
  0
LINE
  5
349
330
2
100
AcDbEntity
  8
0
100
AcDbLine
 10
7.83481458840774
 20
3.913114761144061
 30
0.0
 11
7.752453969722081
 21
3.663054565531074
 31
0.0
  0
LINE
  5
34A
330
2
100
AcDbEntity
  8
0
100
AcDbLine
 10
7.792176883103947
 20
3.628653513436572
 30
0.0
 11
7.752453969722081
 21
3.663054565531074
 31
0.0
  0
LINE
  5
34B
330
2
100
AcDbEntity
  8
0
100
AcDbLine
 10
7.792176883103947
 20
3.628653513436572
 30
0.0
 11
7.629649639230899
 21
3.135194989684054
 31
0.0
  0
LWPOLYLINE
  5
34C
330
2
100
AcDbEntity
  8
0
100
AcDbPolyline
 90
        9
 70
   128
 43
0.0
 10
7.577072962543481
 20
3.091818709814999
 10
7.581469671415075
 20
3.103071113308597
 10
7.586823864670781
 20
3.113087142914746
 10
7.592991109332295
 20
3.1215956023115
 10
7.599801789361525
 20
3.128365362214423
 10
7.6070734852389
 20
3.133213606441197
 10
7.614607063314639
 20
3.13600854751702
 10
7.622201816743864
 20
3.136675239305148
 10
7.629649639230899
 20
3.135194989684054
  0
LINE
  5
34D
330
2
100
AcDbEntity
  8
0
100
AcDbLine
 10
7.577072962543481
 20
3.091818709814999
 30
0.0
 11
7.506476864997316
 21
2.877481040781997
 31
0.0
  0
ARC
  5
34E
330
2
100
AcDbEntity
  8
0
100
AcDbCircle
 10
7.618390764412001
 20
2.837990892254615
 30
0.0
 40
0.1186768415245668
100
AcDbArc
 50
160.5640055550011
 51
207.8755931541978
  0
LINE
  5
34F
330
2
100
AcDbEntity
  8
0
100
AcDbLine
 10
7.513484604615295
 20
2.782503142720578
 30
0.0
 11
7.282049049069319
 21
2.079829555673048
 31
0.0
  0
LINE
  5
350
330
2
100
AcDbEntity
  8
0
100
AcDbLine
 10
7.282049049069319
 20
2.079829555673048
 30
0.0
 11
7.242326135697378
 21
2.114230607767549
 31
0.0
  0
LINE
  5
351
330
2
100
AcDbEntity
  8
0
100
AcDbLine
 10
7.242326135697378
 20
2.114230607767549
 30
0.0
 11
7.187617267821538
 21
1.948123140879609
 31
0.0
  0
LINE
  5
352
330
2
100
AcDbEntity
  8
0
100
AcDbLine
 10
4.601031529359109
 20
4.363991139218056
 30
0.0
 11
4.555975944633186
 21
4.227191380417403
 31
0.0
  0
LINE
  5
353
330
2
100
AcDbEntity
  8
0
100
AcDbLine
 10
5.842567364334532
 20
3.870822917845412
 30
0.0
 11
5.898455247389112
 21
4.040506708777855
 31
0.0
  0
ARC
  5
354
330
2
100
AcDbEntity
  8
0
100
AcDbCircle
 10
5.861389006550957
 20
4.055147686620383
 30
0.0
 40
0.0398530355479585
100
AcDbArc
 50
338.4462305090001
 51
38.94700718389577
  0
LINE
  5
355
330
2
100
AcDbEntity
  8
0
100
AcDbLine
 10
5.892383815701647
 20
4.080199358183382
 30
0.0
 11
5.624254312270388
 21
4.312406319660534
 31
0.0
  0
LWPOLYLINE
  5
356
330
2
100
AcDbEntity
  8
0
100
AcDbPolyline
 90
        9
 70
   128
 43
0.0
 10
5.624254312270388
 20
4.312406319660534
 10
5.621179067169038
 20
4.314408388220107
 10
5.61788230025051
 20
4.315303737287637
 10
5.61449193983139
 20
4.315058278001044
 10
5.611136329958339
 20
4.313680999759239
 10
5.607947169822033
 20
4.311225459482754
 10
5.605044326654098
 20
4.307785370823834
 10
5.602542170654461
 20
4.303493709597298
 10
5.600533582059402
 20
4.298514439294148
  0
LINE
  5
357
330
2
100
AcDbEntity
  8
0
100
AcDbLine
 10
5.600533582059402
 20
4.298514439294148
 30
0.0
 11
5.544645698994898
 21
4.128830648361705
 31
0.0
  0
ARC
  5
358
330
2
100
AcDbEntity
  8
0
100
AcDbCircle
 10
5.668200008681346
 20
4.080029004452929
 30
0.0
 40
0.1328430197239586
100
AcDbArc
 50
158.4469060871004
 51
218.9477876243997
  0
LINE
  5
359
330
2
100
AcDbEntity
  8
0
100
AcDbLine
 10
5.564885451692522
 20
3.996522296920542
 30
0.0
 11
5.763499879839767
 21
3.824517156589884
 31
0.0
  0
LWPOLYLINE
  5
35A
330
2
100
AcDbEntity
  8
0
100
AcDbPolyline
 90
        9
 70
   128
 43
0.0
 10
5.763499879839767
 20
3.824517156589884
 10
5.773751970664535
 20
3.817844038084989
 10
5.784740331680139
 20
3.814859367991514
 10
5.796042937933305
 20
3.81567782875109
 10
5.807224778830071
 20
3.820267903191257
 10
5.817858310597055
 20
3.82845377382592
 10
5.827531945340861
 20
3.839919989450435
 10
5.835874539572848
 20
3.854226156820966
 10
5.842567364334532
 20
3.870822917845412
  0
ARC
  5
35B
330
2
100
AcDbEntity
  8
0
100
AcDbCircle
 10
5.833180922021949
 20
5.952953859126683
 30
0.0
 40
0.2552801182067188
100
AcDbArc
 50
53.53777866929661
 51
85.22706836750108
  0
LINE
  5
35C
330
2
100
AcDbEntity
  8
0
100
AcDbLine
 10
5.16202399275958
 20
6.174459079571341
 30
0.0
 11
5.201746813646659
 21
6.140058107568119
 31
0.0
  0
ARC
  5
35D
330
2
100
AcDbEntity
  8
0
100
AcDbCircle
 10
4.697065727624556
 20
4.372968403569306
 30
0.0
 40
0.0675046601857361
100
AcDbArc
 50
231.2247871519007
 51
289.6828904016961
  0
LINE
  5
35E
330
2
100
AcDbEntity
  8
0
100
AcDbLine
 10
5.207893672204108
 20
6.256029091266207
 30
0.0
 11
5.854422029816275
 21
6.207348737403482
 31
0.0
  0
LINE
  5
35F
330
2
100
AcDbEntity
  8
0
100
AcDbLine
 10
6.024614834388579
 20
6.123861638707499
 30
0.0
 11
5.984892013501428
 21
6.158262610700807
 31
0.0
  0
ARC
  5
360
330
2
100
AcDbEntity
  8
0
100
AcDbCircle
 10
5.952291591137981
 20
6.065407055610275
 30
0.0
 40
0.0929924179609204
100
AcDbArc
 50
338.4471897567049
 51
38.94655127820064
  0
ARC
  5
361
330
2
100
AcDbEntity
  8
0
100
AcDbCircle
 10
5.181084647843522
 20
6.123356523501754
 30
0.0
 40
0.0265681765675614
100
AcDbArc
 50
338.4477632986965
 51
38.94920519329672
  0
ARC
  5
362
330
2
100
AcDbEntity
  8
0
100
AcDbCircle
 10
4.472582625032912
 20
4.25494755736793
 30
0.0
 40
0.0878911321619462
100
AcDbArc
 50
287.7679525381047
 51
341.5907760378013
  0
ARC
  5
363
330
2
100
AcDbEntity
  8
0
100
AcDbCircle
 10
7.104223948221348
 20
1.9758793178301
 30
0.0
 40
0.0878911321618716
100
AcDbArc
 50
287.7679525381047
 51
341.5907760379012
  0
LINE
  5
364
330
2
100
AcDbEntity
  8
0
100
AcDbLine
 10
7.131045043344796
 20
1.892180572506365
 30
0.0
 11
4.49940372014653
 21
4.171248812044201
 31
0.0
  0
ARC
  5
365
330
2
100
AcDbEntity
  8
0
100
AcDbCircle
 10
6.357977727889696
 20
2.003069132859319
 30
0.0
 40
0.3210586176014869
100
AcDbArc
 50
237.1360984817999
 51
287.6022525421922
  0
LINE
  5
366
330
2
100
AcDbEntity
  8
0
100
AcDbLine
 10
6.183756761874763
 20
1.733392120602092
 30
0.0
 11
3.750729913071179
 21
3.840455179768566
 31
0.0
  0
LWPOLYLINE
  5
367
330
2
100
AcDbEntity
  8
0
100
AcDbPolyline
 90
        9
 70
   128
 43
0.0
 10
3.823426895095194
 20
3.976111111091008
 10
3.791779198045643
 20
3.964771923245454
 10
3.765163864623885
 20
3.950563252318044
 10
3.744602705257759
 20
3.93403114426669
 10
3.730887665420655
 20
3.915811209248661
 10
3.724546171979508
 20
3.896603880259428
 10
3.725818806289868
 20
3.877146395397593
 10
3.734661089044822
 20
3.858187575479276
 10
3.750729913071179
 20
3.840455179768566
  0
LINE
  5
368
330
2
100
AcDbEntity
  8
0
100
AcDbLine
 10
3.823426895095194
 20
3.976111111091008
 30
0.0
 11
4.49940372014653
 21
4.171248812044201
 31
0.0
  0
LINE
  5
369
330
2
100
AcDbEntity
  8
0
100
AcDbLine
 10
7.131045043344796
 20
1.892180572506365
 30
0.0
 11
6.455068218293543
 21
1.697042871553214
 31
0.0
  0
LWPOLYLINE
  5
36A
330
2
100
AcDbEntity
  8
0
100
AcDbPolyline
 90
        9
 70
   128
 43
0.0
 10
5.340949316629791
 20
3.009473380915968
 10
5.414332279707759
 20
3.021928473754466
 10
5.491662683575282
 20
3.019394481845932
 10
5.561165337455645
 20
3.002256512773704
 10
5.612262043028959
 20
2.973124511826419
 10
5.637171796004558
 20
2.936432988821735
 10
5.632104302238833
 20
2.897768472336215
 10
5.597828103035603
 20
2.863016429256884
 10
5.539563767895797
 20
2.837468220565022
  0
LINE
  5
36B
330
2
100
AcDbEntity
  8
0
100
AcDbLine
 10
5.168945097403413
 20
2.959820039789117
 30
0.0
 11
5.340949316629791
 21
3.009473380915968
 31
0.0
  0
LWPOLYLINE
  5
36C
330
2
100
AcDbEntity
  8
0
100
AcDbPolyline
 90
        9
 70
   128
 43
0.0
 10
5.367559548669419
 20
2.787814879428216
 10
5.294176585601436
 20
2.775359786599703
 10
5.216846181733829
 20
2.777893778508166
 10
5.147343527843565
 20
2.795031747580393
 10
5.096246822280165
 20
2.824163748527678
 10
5.071337069294735
 20
2.860855271532398
 10
5.076404563070362
 20
2.899519788017954
 10
5.110680762263607
 20
2.9342718310873
 10
5.168945097403413
 20
2.959820039789117
  0
LINE
  5
36D
330
2
100
AcDbEntity
  8
0
100
AcDbLine
 10
5.539563767895797
 20
2.837468220565022
 30
0.0
 11
5.367559548669419
 21
2.787814879428216
 31
0.0
  0
LWPOLYLINE
  5
36E
330
2
100
AcDbEntity
  8
0
100
AcDbPolyline
 90
        6
 70
   128
 43
0.0
 10
5.163225086028818
 20
6.244094413479885
 10
5.165291727351114
 20
6.247737217859595
 10
5.171363116035446
 20
6.252162791814887
 10
5.180747259713596
 20
6.25508460289039
 10
5.193082192651941
 20
6.256390204387763
 10
5.207893672204108
 20
6.256029091266207
  0
ARC
  5
36F
330
2
100
AcDbEntity
  8
0
100
AcDbCircle
 10
7.857276928479241
 20
3.906285433592195
 30
0.0
 40
0.02347757305603
100
AcDbArc
 50
91.01537091239954
 51
163.0889158813005
  0
LINE
  5
370
330
2
100
AcDbEntity
  8
0
100
AcDbLine
 10
5.894329207935212
 20
4.996763529422874
 30
0.0
 11
5.853921025393258
 21
4.999806105417834
 31
0.0
  0
LINE
  5
371
330
2
100
AcDbEntity
  8
0
100
AcDbLine
 10
5.853921025393258
 20
4.999806105417834
 30
0.0
 11
5.851686057417915
 21
5.001627833464457
 31
0.0
  0
ARC
  5
372
330
2
100
AcDbEntity
  8
0
100
AcDbCircle
 10
7.537169399118011
 20
2.864309783711131
 30
0.0
 40
0.0939070553655729
100
AcDbArc
 50
271.0145916048997
 51
343.0899246265995
  0
LINE
  5
373
330
2
100
AcDbEntity
  8
0
100
AcDbLine
 10
7.6976109594696
 20
3.051332376075158
 30
0.0
 11
7.62701614345326
 21
2.836994996890111
 31
0.0
  0
ARC
  5
374
330
2
100
AcDbEntity
  8
0
100
AcDbCircle
 10
7.650003391881146
 20
3.074915343476003
 30
0.0
 40
0.0531284937023898
100
AcDbArc
 50
333.6479453033988
 51
82.98683627680162
  0
LINE
  5
375
330
2
100
AcDbEntity
  8
0
100
AcDbLine
 10
7.818270348728113
 20
3.61883615613858
 30
0.0
 11
7.923330854419363
 21
3.610925492894166
 31
0.0
  0
LINE
  5
376
330
2
100
AcDbEntity
  8
0
100
AcDbLine
 10
7.961570674239736
 20
3.727025204103729
 30
0.0
 11
7.923330854419363
 21
3.610925492894166
 31
0.0
  0
ARC
  5
377
330
2
100
AcDbEntity
  8
0
100
AcDbCircle
 10
7.835113057789546
 20
2.67654385628162
 30
0.0
 40
0.0199229396657112
100
AcDbArc
 50
153.6475781335
 51
262.9889434904018
  0
LINE
  5
378
330
2
100
AcDbEntity
  8
0
100
AcDbLine
 10
7.986231314773644
 20
2.645208211845665
 30
0.0
 11
7.832681246337928
 21
2.656769888095399
 31
0.0
  0
ARC
  5
379
330
2
100
AcDbEntity
  8
0
100
AcDbCircle
 10
7.984153729388415
 20
2.76257275126186
 30
0.0
 40
0.1173829266665455
100
AcDbArc
 50
271.0141431408977
 51
343.0903272024994
  0
LINE
  5
37A
330
2
100
AcDbEntity
  8
0
100
AcDbLine
 10
8.214120853984823
 20
3.085659611662444
 30
0.0
 11
8.096461545761101
 21
2.728430316452175
 31
0.0
  0
ARC
  5
37B
330
2
100
AcDbEntity
  8
0
100
AcDbCircle
 10
8.154609628551279
 20
3.115137236704588
 30
0.0
 40
0.066411718323633
100
AcDbArc
 50
333.6494597713016
 51
82.98569660479783
  0
LINE
  5
37C
330
2
100
AcDbEntity
  8
0
100
AcDbLine
 10
8.009168286358789
 20
3.192613255951777
 30
0.0
 11
8.162719636334255
 21
3.181051909610528
 31
0.0
  0
ARC
  5
37D
330
2
100
AcDbEntity
  8
0
100
AcDbCircle
 10
8.009791748233961
 20
3.157403969526914
 30
0.0
 40
0.0352148059088073
100
AcDbArc
 50
91.01444831259879
 51
163.0903211841985
  0
LINE
  5
37E
330
2
100
AcDbEntity
  8
0
100
AcDbLine
 10
7.817260496581022
 20
2.685387474501555
 30
0.0
 11
7.976099473374434
 21
3.167646682542407
 31
0.0
  0
LINE
  5
37F
330
2
100
AcDbEntity
  8
0
100
AcDbLine
 10
8.327039367252716
 20
2.225220230755399
 30
0.0
 11
8.794557336028049
 21
3.644673969304927
 31
0.0
  0
ARC
  5
380
330
2
100
AcDbEntity
  8
0
100
AcDbCircle
 10
8.207912649116565
 20
2.264865126309006
 30
0.0
 40
0.1255503592839884
100
AcDbArc
 50
287.7671609107023
 51
341.5927637648004
  0
LINE
  5
381
330
2
100
AcDbEntity
  8
0
100
AcDbLine
 10
8.246224283698623
 20
2.145302961014464
 30
0.0
 11
8.139850273712704
 21
2.11459542936333
 31
0.0
  0
SPLINE
  5
382
330
2
100
AcDbEntity
  8
0
100
AcDbSpline
210
0.0
220
0.0
230
1.0
 70
     8
 71
     3
 72
    11
 73
     7
 74
     0
 42
0.000000001
 43
0.0000000001
 40
0.0
 40
0.0
 40
0.0
 40
0.0
 40
0.2500008980131977
 40
0.4999945491153201
 40
0.7499934820642217
 40
1.0
 40
1.0
 40
1.0
 40
1.0
 10
7.513484604611128
 20
2.782503142717157
 30
0.0
 10
7.514966970129411
 20
2.781168982314845
 30
0.0
 10
7.517931658195717
 20
2.778500700184258
 30
0.0
 10
7.524764537903948
 20
2.774808849844927
 30
0.0
 10
7.532217105959076
 20
2.771850682164284
 30
0.0
 10
7.536627156335704
 20
2.770895199735831
 30
0.0
 10
7.538832214973838
 20
2.770417451274348
 30
0.0
  0
ARC
  5
383
330
2
100
AcDbEntity
  8
0
100
AcDbCircle
 10
8.008096314165337
 20
3.719583313832838
 30
0.0
 40
0.0471170553140876
100
AcDbArc
 50
97.99005346269856
 51
170.9123793011008
  0
LWPOLYLINE
  5
384
330
2
100
AcDbEntity
  8
0
100
AcDbPolyline
 90
        9
 70
   128
 43
0.0
 10
8.810370301812172
 20
3.653935029637268
 10
8.808320107583
 20
3.655269715319857
 10
8.806122659325605
 20
3.655866711314192
 10
8.803862449867899
 20
3.655703045089404
 10
8.801625834634032
 20
3.654784956217513
 10
8.799498811850098
 20
3.653147736131182
 10
8.797564895442912
 20
3.650854686937372
 10
8.795895113561547
 20
3.64799305949369
 10
8.794557336028049
 20
3.644673969304927
  0
LINE
  5
385
330
2
100
AcDbEntity
  8
0
100
AcDbLine
 10
8.810370301812172
 20
3.653935029637268
 30
0.0
 11
8.850093122699238
 21
3.619534057643959
 31
0.0
  0
LINE
  5
386
330
2
100
AcDbEntity
  8
0
100
AcDbLine
 10
8.825078516303745
 20
3.698588947788402
 30
0.0
 11
8.864801337190897
 21
3.66418797579513
 31
0.0
  0
LWPOLYLINE
  5
387
330
2
100
AcDbEntity
  8
0
100
AcDbPolyline
 90
        9
 70
   128
 43
0.0
 10
8.818931657756209
 20
3.582617964100264
 10
8.833743137308378
 20
3.582256850978708
 10
8.84607807024671
 20
3.583562452466132
 10
8.855462213924873
 20
3.586484263551583
 10
8.861533602609192
 20
3.59090983750684
 10
8.864059048575292
 20
3.596669122176238
 10
8.862943389874141
 20
3.603541401392182
 10
8.858228181711861
 20
3.61126201903746
 10
8.850093122699238
 20
3.619534057643959
  0
LINE
  5
388
330
2
100
AcDbEntity
  8
0
100
AcDbLine
 10
8.77520300960065
 20
3.58591065499365
 30
0.0
 11
8.818931657756209
 21
3.582617964100264
 31
0.0
  0
LWPOLYLINE
  5
389
330
2
100
AcDbEntity
  8
0
100
AcDbPolyline
 90
        5
 70
   128
 43
0.0
 10
8.864801337190897
 20
3.66418797579513
 10
8.872935114663626
 20
3.655915567239411
 10
8.877650322825976
 20
3.648194949594132
 10
8.878767263066878
 20
3.641323040327373
 10
8.878307176873351
 20
3.639206190078624
  0
ARC
  5
38A
330
2
100
AcDbEntity
  8
0
100
AcDbCircle
 10
7.822520311329255
 20
3.66971756588145
 30
0.0
 40
0.0510585941840991
100
AcDbArc
 50
233.5382219833971
 51
265.2253486921031
  0
SPLINE
  5
38B
330
2
100
AcDbEntity
  8
0
100
AcDbSpline
210
0.0
220
0.0
230
1.0
 70
     8
 71
     3
 72
    11
 73
     7
 74
     0
 42
0.000000001
 43
0.0000000001
 40
0.0
 40
0.0
 40
0.0
 40
0.0
 40
0.2499849550576336
 40
0.5000043246191953
 40
0.7500107420831888
 40
1.0
 40
1.0
 40
1.0
 40
1.0
 10
7.656490241654847
 20
3.127646336480485
 30
0.0
 10
7.65416085270909
 20
3.127746078089145
 30
0.0
 10
7.649501754139358
 20
3.127945575037434
 30
0.0
 10
7.64167571830304
 20
3.12976918765457
 30
0.0
 10
7.634467980721376
 20
3.132325941917006
 30
0.0
 10
7.631255716313791
 20
3.134238662312167
 30
0.0
 10
7.629649639231525
 20
3.135194989688065
 30
0.0
  0
LINE
  5
38C
330
2
100
AcDbEntity
  8
0
100
AcDbLine
 10
2.604619236615513
 20
5.71640312945891
 30
0.0
 11
2.591352299688723
 21
5.717588968384308
 31
0.0
  0
LINE
  5
38D
330
2
100
AcDbEntity
  8
0
100
AcDbLine
 10
4.734548119403893
 20
5.338271990656547
 30
0.0
 11
4.327008389847879
 21
5.691211749506926
 31
0.0
  0
ARC
  5
38E
330
2
100
AcDbEntity
  8
0
100
AcDbCircle
 10
3.541320733951361
 20
2.971332109112753
 30
0.0
 40
0.0242075701512636
100
AcDbArc
 50
331.1040592006979
 51
32.48287448140536
  0
ELLIPSE
  5
38F
330
2
100
AcDbEntity
  8
0
100
AcDbEllipse
 10
3.557908569123701
 20
2.908309664068338
 30
0.0
 11
0.0585765204044383
 21
0.0934579397367451
 31
0.0
210
0.0
220
0.0
230
1.0
 40
0.2945542466
 41
6.237537654344557
 42
6.941786914968744
  0
ELLIPSE
  5
390
330
2
100
AcDbEntity
  8
0
100
AcDbEllipse
 10
3.548702822396947
 20
2.901359483700211
 30
0.0
 11
0.1004458086981691
 21
0.0215302906815133
 31
0.0
210
0.0
220
0.0
230
1.0
 40
0.2601647544
 41
2.693902237372129
 42
3.335243632973141
  0
LINE
  5
391
330
2
100
AcDbEntity
  8
0
100
AcDbLine
 10
5.267821838230058
 20
6.62075900822947
 30
0.0
 11
5.102068962591017
 21
6.117507647998813
 31
0.0
  0
LINE
  5
392
330
2
100
AcDbEntity
  8
0
100
AcDbLine
 10
2.55628263493796
 20
6.825643674861151
 30
0.0
 11
3.350019839039075
 21
6.138247092178713
 31
0.0
  0
LINE
  5
393
330
2
100
AcDbEntity
  8
0
100
AcDbLine
 10
7.383049346589754
 20
4.752553043235308
 30
0.0
 11
7.390412252733374
 21
4.746176579471318
 31
0.0
  0
LINE
  5
394
330
2
100
AcDbEntity
  8
0
100
AcDbLine
 10
7.83481458840774
 20
3.913114761144061
 30
0.0
 11
5.894574823988174
 21
5.593411686566228
 31
0.0
  0
LINE
  5
395
330
2
100
AcDbEntity
  8
0
100
AcDbLine
 10
23.71906361096145
 20
11.49004335671485
 30
0.0
 11
23.75749256978155
 21
11.46744076901157
 31
0.0
  0
LINE
  5
396
330
2
100
AcDbEntity
  8
0
100
AcDbLine
 10
2.762662835980458
 20
6.967991898469797
 30
0.0
 11
2.799473219270811
 21
6.991859207608469
 31
0.0
  0
LINE
  5
397
330
2
100
AcDbEntity
  8
0
100
AcDbLine
 10
3.901479775728251
 20
6.881731437501648
 30
0.0
 11
3.909382462944325
 21
6.862110457153905
 31
0.0
  0
ARC
  5
398
330
2
100
AcDbEntity
  8
0
100
AcDbCircle
 10
5.178372288075665
 20
6.199440655521222
 30
0.0
 40
0.0298554165384359
100
AcDbArc
 50
180.0
 51
236.7986991297108
  0
LINE
  5
399
330
2
100
AcDbEntity
  8
0
100
AcDbLine
 10
26.43751424668958
 20
12.82630548917044
 30
0.0
 11
26.13650494074117
 21
12.73941158726229
 31
0.0
  0
ARC
  5
39A
330
2
100
AcDbEntity
  8
0
100
AcDbCircle
 10
8.809706793724132
 20
3.684625295918069
 30
0.0
 40
0.0207671237445402
100
AcDbArc
 50
42.25196494832522
 51
90.0
  0
ARC
  5
39B
330
2
100
AcDbEntity
  8
0
100
AcDbCircle
 10
7.132909264577871
 20
5.162125905305066
 30
0.0
 40
0.0308581458890858
100
AcDbArc
 50
306.7378456754334
 51
0.0
  0
ARC
  5
39C
330
2
100
AcDbEntity
  8
0
100
AcDbCircle
 10
6.911183529010701
 20
5.053138979163314
 30
0.0
 40
0.4665507256800764
100
AcDbArc
 50
37.8789765818889
 51
60.33423412112917
  0
LINE
  5
39D
330
2
100
AcDbEntity
  8
0
100
AcDbLine
 10
6.575777669484049
 20
5.527850584855251
 30
0.0
 11
6.64355334416839
 21
5.558844842059511
 31
0.0
  0
SPLINE
  5
39E
330
2
100
AcDbEntity
  8
0
100
AcDbSpline
210
0.0
220
0.0
230
1.0
 70
     8
 71
     3
 72
    10
 73
     6
 74
     0
 42
0.000000001
 43
0.0000000001
 40
0.0
 40
0.0
 40
0.0
 40
0.0
 40
0.223414656091903
 40
0.6496074072459033
 40
1.0
 40
1.0
 40
1.0
 40
1.0
 10
6.677502253346656
 20
5.61191370399938
 30
0.0
 10
6.682414032148754
 20
5.622456305233432
 30
0.0
 10
6.696695673060113
 20
5.653110300692346
 30
0.0
 10
6.734533059992945
 20
5.688409115636119
 30
0.0
 10
6.760977198293748
 20
5.703503853660718
 30
0.0
 10
6.772908701064233
 20
5.710314546696435
 30
0.0
  0
LINE
  5
39F
330
2
100
AcDbEntity
  8
0
100
AcDbLine
 10
6.66723131699003
 20
5.592138776151975
 30
0.0
 11
6.677502253346101
 21
5.611913704003469
 31
0.0
  0
SPLINE
  5
3A0
330
2
100
AcDbEntity
  8
0
100
AcDbSpline
210
0.0
220
0.0
230
1.0
 70
     8
 71
     3
 72
     9
 73
     5
 74
     0
 42
0.000000001
 43
0.0000000001
 40
0.0
 40
0.0
 40
0.0
 40
0.0
 40
0.3637854744933605
 40
1.0
 40
1.0
 40
1.0
 40
1.0
 10
6.357039286730963
 20
5.823187423060637
 30
0.0
 10
6.355497896284604
 20
5.83150591089862
 30
0.0
 10
6.351260809994905
 20
5.854372375948105
 30
0.0
 10
6.346117638191317
 20
5.876574469673998
 30
0.0
 10
6.342845477582793
 20
5.890699764199104
 30
0.0
  0
SPLINE
  5
3A1
330
2
100
AcDbEntity
  8
0
100
AcDbSpline
210
0.0
220
0.0
230
1.0
 70
     8
 71
     3
 72
     9
 73
     5
 74
     0
 42
0.000000001
 43
0.0000000001
 40
0.0
 40
0.0
 40
0.0
 40
0.0
 40
0.4931078804754943
 40
1.0
 40
1.0
 40
1.0
 40
1.0
 10
6.631813902793201
 20
5.802498299176058
 30
0.0
 10
6.623956228403496
 20
5.78878510897987
 30
0.0
 10
6.608021227766164
 20
5.760975392811842
 30
0.0
 10
6.59917888294731
 20
5.729828174610815
 30
0.0
 10
6.594696768040555
 20
5.714039895159624
 30
0.0
  0
SPLINE
  5
3A2
330
2
100
AcDbEntity
  8
0
100
AcDbSpline
210
0.0
220
0.0
230
1.0
 70
     8
 71
     3
 72
     9
 73
     5
 74
     0
 42
0.000000001
 43
0.0000000001
 40
0.0
 40
0.0
 40
0.0
 40
0.0
 40
0.3964137364449641
 40
1.0
 40
1.0
 40
1.0
 40
1.0
 10
6.594696768040555
 20
5.714039895159624
 30
0.0
 10
6.588413512799391
 20
5.706703075081754
 30
0.0
 10
6.572563266797632
 20
5.688195088593539
 30
0.0
 10
6.555252973900795
 20
5.672293366698378
 30
0.0
 10
6.5448047188901
 20
5.662695305795592
 30
0.0
  0
LINE
  5
3A3
330
2
100
AcDbEntity
  8
0
100
AcDbLine
 10
6.355745788645523
 20
5.676930329287333
 30
0.0
 11
6.36534243061014
 21
5.731309361248146
 31
0.0
  0
SPLINE
  5
3A4
330
2
100
AcDbEntity
  8
0
100
AcDbSpline
210
0.0
220
0.0
230
1.0
 70
     8
 71
     3
 72
     9
 73
     5
 74
     0
 42
0.000000001
 43
0.0000000001
 40
0.0
 40
0.0
 40
0.0
 40
0.0
 40
0.3822979274184181
 40
1.0
 40
1.0
 40
1.0
 40
1.0
 10
6.365342430614934
 20
5.731309361252001
 30
0.0
 10
6.365925837729598
 20
5.743422146888471
 30
0.0
 10
6.367451891293608
 20
5.775106298875046
 30
0.0
 10
6.361015227374352
 20
5.804828164848089
 30
0.0
 10
6.357039286730963
 20
5.823187423060637
 30
0.0
  0
LINE
  5
3A5
330
2
100
AcDbEntity
  8
0
100
AcDbLine
 10
6.342845477582793
 20
5.890699764199736
 30
0.0
 11
6.346035491135643
 21
5.92119790381978
 31
0.0
  0
ARC
  5
3A6
330
2
100
AcDbEntity
  8
0
100
AcDbCircle
 10
6.459147239045544
 20
5.588445648622586
 30
0.0
 40
0.351451747549365
100
AcDbArc
 50
62.61379871470381
 51
108.7743259455002
  0
LINE
  5
3A7
330
2
100
AcDbEntity
  8
0
100
AcDbLine
 10
6.544366074756406
 20
5.58247787929716
 30
0.0
 11
6.542099033597411
 21
5.580843784985106
 31
0.0
  0
LWPOLYLINE
  5
3A8
330
2
100
AcDbEntity
  8
0
100
AcDbPolyline
 90
        9
 70
   128
 43
0.0
 10
6.390763463257432
 20
5.592239004636043
 10
6.391269917462179
 20
5.601899078353155
 10
6.399607632809816
 20
5.608823899053381
 10
6.415096391600779
 20
5.61244962372322
 10
6.436478568589509
 20
5.61248187630536
 10
6.46201222537723
 20
5.608917442234961
 10
6.489621597912976
 20
5.602046407487447
 10
6.517061867411704
 20
5.592427931032838
 10
6.542099033597411
 20
5.580843784985106
  0
LINE
  5
3A9
330
2
100
AcDbEntity
  8
0
100
AcDbLine
 10
6.390763463257432
 20
5.592239004636043
 30
0.0
 11
6.389656214209593
 21
5.594126979199035
 31
0.0
  0
LINE
  5
3AA
330
2
100
AcDbEntity
  8
0
100
AcDbLine
 10
6.389656214209593
 20
5.594126979199035
 30
0.0
 11
6.355745788645523
 21
5.676930329287333
 31
0.0
  0
LINE
  5
3AB
330
2
100
AcDbEntity
  8
0
100
AcDbLine
 10
6.544804718892303
 20
5.662695305798579
 30
0.0
 11
6.544366074756406
 21
5.58247787929716
 31
0.0
  0
LINE
  5
3AC
330
2
100
AcDbEntity
  8
0
100
AcDbLine
 10
6.543206282645237
 20
5.580760536665337
 30
0.0
 11
6.585411826082092
 21
5.544209463873094
 31
0.0
  0
LINE
  5
3AD
330
2
100
AcDbEntity
  8
0
100
AcDbLine
 10
6.543206282645237
 20
5.580760536665337
 30
0.0
 11
6.544366074756406
 21
5.58247787929716
 31
0.0
  0
LINE
  5
3AE
330
2
100
AcDbEntity
  8
0
100
AcDbLine
 10
6.645561853099154
 20
5.888550556708955
 30
0.0
 11
6.620810107197327
 21
5.90050886003069
 31
0.0
  0
LINE
  5
3AF
330
2
100
AcDbEntity
  8
0
100
AcDbLine
 10
6.645561853099154
 20
5.888550556708955
 30
0.0
 11
6.631813902789503
 21
5.802498299178655
 31
0.0
  0
LWPOLYLINE
  5
3B0
330
2
100
AcDbEntity
  8
0
100
AcDbPolyline
 90
        9
 70
   128
 43
0.0
 10
6.584304577034253
 20
5.544292712192862
 10
6.583798122829506
 20
5.534632638475756
 10
6.575460407481784
 20
5.527707817775525
 10
6.559971648690906
 20
5.524082093105684
 10
6.538590753241985
 20
5.524050130371542
 10
6.513055814914455
 20
5.527614274593987
 10
6.485446442378709
 20
5.534485309341464
 10
6.458006172879981
 20
5.544103785796067
 10
6.432969006694274
 20
5.5556879318438
  0
LINE
  5
3B1
330
2
100
AcDbEntity
  8
0
100
AcDbLine
 10
6.431861757646363
 20
5.555771180163532
 30
0.0
 11
6.432969006694274
 21
5.5556879318438
 31
0.0
  0
LINE
  5
3B2
330
2
100
AcDbEntity
  8
0
100
AcDbLine
 10
6.389656214209593
 20
5.592322252955812
 30
0.0
 11
6.431861757646363
 21
5.555771180163532
 31
0.0
  0
LINE
  5
3B3
330
2
100
AcDbEntity
  8
0
100
AcDbLine
 10
6.389656214209593
 20
5.592322252955812
 30
0.0
 11
6.390763463257432
 21
5.592239004636043
 31
0.0
  0
LINE
  5
3B4
330
2
100
AcDbEntity
  8
0
100
AcDbLine
 10
6.542099033597411
 20
5.580843784985106
 30
0.0
 11
6.543206282645237
 21
5.580760536665337
 31
0.0
  0
LINE
  5
3B5
330
2
100
AcDbEntity
  8
0
100
AcDbLine
 10
6.584304577034253
 20
5.544292712192862
 30
0.0
 11
6.585411826082092
 21
5.544209463873094
 31
0.0
  0
LWPOLYLINE
  5
3B6
330
2
100
AcDbEntity
  8
0
100
AcDbPolyline
 90
        3
 70
   128
 43
0.0
 10
6.654831113467055
 20
5.567409653011044
 10
6.645409066923877
 20
5.559748558147683
 10
6.64355334416839
 20
5.558844842059511
  0
LINE
  5
3B7
330
2
100
AcDbEntity
  8
0
100
AcDbLine
 10
6.788938030618129
 20
5.721645034868108
 30
0.0
 11
6.775209367399366
 21
5.711666397320493
 31
0.0
  0
LINE
  5
3B8
330
2
100
AcDbEntity
  8
0
100
AcDbLine
 10
6.389656214209593
 20
5.594126979199035
 30
0.0
 11
6.389656214209593
 21
5.592322252955812
 31
0.0
  0
SPLINE
  5
3B9
330
2
100
AcDbEntity
  8
0
100
AcDbSpline
210
0.0
220
0.0
230
1.0
 70
     8
 71
     3
 72
     9
 73
     5
 74
     0
 42
0.000000001
 43
0.0000000001
 40
0.0
 40
0.0
 40
0.0
 40
0.0
 40
0.690265050481048
 40
1.0
 40
1.0
 40
1.0
 40
1.0
 10
6.802795038853312
 20
5.74290528611552
 30
0.0
 10
6.798252790984492
 20
5.74912497720823
 30
0.0
 10
6.791672350810467
 20
5.758135561024456
 30
0.0
 10
6.784974791204404
 20
5.766897938413483
 30
0.0
 10
6.782900322917916
 20
5.769611952931771
 30
0.0
  0
LINE
  5
3BA
330
2
100
AcDbEntity
  8
0
100
AcDbLine
 10
6.788938030618129
 20
5.721645034868108
 30
0.0
 11
6.802795038856612
 21
5.742905286115442
 31
0.0
  0
ARC
  5
3BB
330
2
100
AcDbEntity
  8
0
100
AcDbCircle
 10
6.636373171100906
 20
5.592138776151975
 30
0.0
 40
0.0308581458890858
100
AcDbArc
 50
306.7378456754334
 51
0.0
  0
ARC
  5
3BC
330
2
100
AcDbEntity
  8
0
100
AcDbCircle
 10
6.414647435533651
 20
5.483151850010223
 30
0.0
 40
0.4665507256800764
100
AcDbArc
 50
37.8789765818889
 51
60.33423412112917
  0
LINE
  5
3BD
330
2
100
AcDbEntity
  8
0
100
AcDbLine
 10
3.959385370483946
 20
6.933854322385039
 30
0.0
 11
4.462101077752171
 21
6.898615464257875
 31
0.0
  0
ENDSEC
  0
SECTION
  2
OBJECTS
  0
DICTIONARY
  5
A
330
0
100
AcDbDictionary
281
     1
  3
ACAD_COLOR
350
3E
  3
ACAD_GROUP
350
33
  3
ACAD_LAYOUT
350
18
  3
ACAD_MATERIAL
350
C
  3
ACAD_MLEADERSTYLE
350
41
  3
ACAD_MLINESTYLE
350
34
  3
ACAD_PLOTSETTINGS
350
35
  3
ACAD_PLOTSTYLENAME
350
9
  3
ACAD_SCALELIST
350
3F
  3
ACAD_TABLESTYLE
350
40
  3
ACAD_VISUALSTYLE
350
2D
  3
ACDB_RECOMPOSE_DATA
350
3CD
  3
AcDbVariableDictionary
350
3BF
  3
AcDsDecomposeData
350
3D3
  0
DICTIONARY
  5
20
330
1F
100
AcDbDictionary
280
     1
281
     1
  3
ACAD_LAYERSTATES
360
21
  0
DICTIONARY
  5
7
330
6
100
AcDbDictionary
280
     1
281
     1
  0
DICTIONARY
  5
3
330
2
100
AcDbDictionary
280
     1
281
     1
  3
ACAD_SORTENTS
360
3BE
  0
DICTIONARY
  5
3E
102
{ACAD_REACTORS
330
A
102
}
330
A
100
AcDbDictionary
281
     1
  0
DICTIONARY
  5
33
102
{ACAD_REACTORS
330
A
102
}
330
A
100
AcDbDictionary
281
     1
  0
DICTIONARY
  5
18
102
{ACAD_REACTORS
330
A
102
}
330
A
100
AcDbDictionary
281
     1
  3
Model
350
17
  3
レイアウト1
350
1E
  0
DICTIONARY
  5
C
102
{ACAD_REACTORS
330
A
102
}
330
A
100
AcDbDictionary
281
     1
  3
ByBlock
350
3A
  3
ByLayer
350
36
  3
Global
350
B
  0
DICTIONARY
  5
41
102
{ACAD_REACTORS
330
A
102
}
330
A
100
AcDbDictionary
281
     1
  0
DICTIONARY
  5
34
102
{ACAD_REACTORS
330
A
102
}
330
A
100
AcDbDictionary
281
     1
  3
Standard
350
42
  0
DICTIONARY
  5
35
102
{ACAD_REACTORS
330
A
102
}
330
A
100
AcDbDictionary
281
     1
  0
ACDBDICTIONARYWDFLT
  5
9
102
{ACAD_REACTORS
330
A
102
}
330
A
100
AcDbDictionary
281
     1
  3
Normal
350
8
100
AcDbDictionaryWithDefault
340
8
  0
DICTIONARY
  5
3F
102
{ACAD_REACTORS
330
A
102
}
330
A
100
AcDbDictionary
281
     1
  3
A0
350
47
  3
A1
350
48
  3
A2
350
49
  3
A3
350
4A
  3
A4
350
4B
  3
A5
350
4C
  3
A6
350
4D
  3
A7
350
4E
  3
A8
350
4F
  3
A9
350
50
  3
B0
350
51
  3
B1
350
52
  3
B2
350
53
  3
B3
350
54
  3
B4
350
55
  3
B5
350
56
  3
B6
350
57
  0
DICTIONARY
  5
40
102
{ACAD_REACTORS
330
A
102
}
330
A
100
AcDbDictionary
281
     1
  3
Standard
350
43
  0
DICTIONARY
  5
2D
102
{ACAD_REACTORS
330
A
102
}
330
A
100
AcDbDictionary
281
     1
  3
2dWireframe
350
2C
  3
Realistic
350
45
  3
Wireframe
350
46
  0
XRECORD
  5
3CD
102
{ACAD_REACTORS
330
A
102
}
330
A
100
AcDbXrecord
280
     1
 90
        1
330
43
  0
DICTIONARY
  5
3BF
102
{ACAD_REACTORS
330
A
102
}
330
A
100
AcDbDictionary
281
     1
  3
CANNOSCALE
350
3C5
  3
CMLEADERSTYLE
350
3C1
  3
CTABLESTYLE
350
3C0
  3
CVIEWDETAILSTYLE
350
3C2
  3
CVIEWSECTIONSTYLE
350
3C3
  3
LAYEREVAL
350
3C7
  3
LAYERNOTIFY
350
3C8
  3
LIGHTINGUNITS
350
3C6
  3
MSLTSCALE
350
3C4
  3
PSOLHEIGHT
350
3CA
  3
PSOLWIDTH
350
3C9
  3
XCLIPFRAME
350
3CB
  0
DICTIONARY
  5
3D3
102
{ACAD_REACTORS
330
A
102
}
330
A
100
AcDbDictionary
281
     1
  3
AcDsRecords
350
3D5
  3
AcDsSchemas
350
3D4
1001
ACAD
1070
     2
  0
DICTIONARY
  5
21
102
{ACAD_REACTORS
330
20
102
}
330
20
100
AcDbDictionary
281
     1
  0
SORTENTSTABLE
  5
3BE
102
{ACAD_REACTORS
330
3
102
}
330
3
100
AcDbSortentsTable
330
2
  0
LAYOUT
  5
17
102
{ACAD_XDICTIONARY
360
19
102
}
102
{ACAD_REACTORS
330
18
102
}
330
18
100
AcDbPlotSettings
  1

  2
none_device
  4
ISO_A4_(210.00_x_297.00_MM)
  6

 40
7.5
 41
20.0
 42
7.5
 43
20.0
 44
210.0
 45
297.0
 46
11.54999923706054
 47
-13.65000009536743
 48
0.0
 49
0.0
140
0.0
141
0.0
142
1.0
143
8.704084754739808
 70
 11952
 72
     1
 73
     0
 74
     0
  7

 75
     0
147
0.1148885871608098
 76
     0
 77
     2
 78
   300
148
0.0
149
0.0
100
AcDbLayout
  1
Model
 70
     1
 71
     0
 10
0.0
 20
0.0
 11
12.0
 21
9.0
 12
0.0
 22
0.0
 32
0.0
 14
0.0
 24
0.0
 34
0.0
 15
0.0
 25
0.0
 35
0.0
146
0.0
 13
0.0
 23
0.0
 33
0.0
 16
1.0
 26
0.0
 36
0.0
 17
0.0
 27
1.0
 37
0.0
 76
     0
330
2
331
2B
1001
ACAD_PSEXT
1000
None
1000
None
1000
Not applicable
1000
The layout will not be plotted unless a new plotter configuration name is selected.
1070
     0
  0
LAYOUT
  5
1E
102
{ACAD_REACTORS
330
18
102
}
330
18
100
AcDbPlotSettings
  1

  2
C:\Documents and Settings\basas\Application Data\Autodesk\AutoCAD 2005\R16.1\enu\plotters\Default Windows System Printer.pc3
  4

  6

 40
0.0
 41
0.0
 42
0.0
 43
0.0
 44
0.0
 45
0.0
 46
0.0
 47
0.0
 48
0.0
 49
0.0
140
0.0
141
0.0
142
1.0
143
1.0
 70
   688
 72
     0
 73
     0
 74
     5
  7

 75
    16
147
1.0
 76
     0
 77
     2
 78
   300
148
0.0
149
0.0
100
AcDbLayout
  1
レイアウト1
 70
     1
 71
     1
 10
0.0
 20
0.0
 11
12.0
 21
9.0
 12
0.0
 22
0.0
 32
0.0
 14
0.0
 24
0.0
 34
0.0
 15
0.0
 25
0.0
 35
0.0
146
0.0
 13
0.0
 23
0.0
 33
0.0
 16
1.0
 26
0.0
 36
0.0
 17
0.0
 27
1.0
 37
0.0
 76
     0
330
1B
  0
MATERIAL
  5
3A
102
{ACAD_XDICTIONARY
360
3B
102
}
102
{ACAD_REACTORS
330
C
102
}
330
C
100
AcDbMaterial
  1
ByBlock
  0
MATERIAL
  5
36
102
{ACAD_XDICTIONARY
360
37
102
}
102
{ACAD_REACTORS
330
C
102
}
330
C
100
AcDbMaterial
  1
ByLayer
  0
MATERIAL
  5
B
102
{ACAD_XDICTIONARY
360
D
102
}
102
{ACAD_REACTORS
330
C
102
}
330
C
100
AcDbMaterial
  1
Global
 43
0.0007999999797903
 43
0.0
 43
0.0
 43
0.0
 43
0.0
 43
0.0007999999797903
 43
0.0
 43
0.0
 43
0.0
 43
0.0
 43
1.0
 43
0.0
 43
0.0
 43
0.0
 43
0.0
 43
1.0
 49
0.0007999999797903
 49
0.0
 49
0.0
 49
0.0
 49
0.0
 49
0.0007999999797903
 49
0.0
 49
0.0
 49
0.0
 49
0.0
 49
1.0
 49
0.0
 49
0.0
 49
0.0
 49
0.0
 49
1.0
142
0.0007999999797903
142
0.0
142
0.0
142
0.0
142
0.0
142
0.0007999999797903
142
0.0
142
0.0
142
0.0
142
0.0
142
1.0
142
0.0
142
0.0
142
0.0
142
0.0
142
1.0
144
0.0007999999797903
144
0.0
144
0.0
144
0.0
144
0.0
144
0.0007999999797903
144
0.0
144
0.0
144
0.0
144
0.0
144
1.0
144
0.0
144
0.0
144
0.0
144
0.0
144
1.0
1001
ACAD
1070
    -1
1070
     3
1070
     0
1000

1071
        0
1070
     0
  0
MLINESTYLE
  5
42
102
{ACAD_REACTORS
330
34
102
}
330
34
100
AcDbMlineStyle
  2
STANDARD
 70
     0
  3

 62
   256
 51
90.0
 52
90.0
 71
     2
 49
0.5
 62
   256
  6
BYLAYER
 49
-0.5
 62
   256
  6
BYLAYER
  0
ACDBPLACEHOLDER
  5
8
102
{ACAD_REACTORS
330
9
102
}
330
9
  0
SCALE
  5
47
102
{ACAD_REACTORS
330
3F
102
}
330
3F
100
AcDbScale
 70
     0
300
1:1
140
1.0
141
1.0
290
     1
  0
SCALE
  5
48
102
{ACAD_REACTORS
330
3F
102
}
330
3F
100
AcDbScale
 70
     0
300
1:2
140
1.0
141
2.0
290
     0
  0
SCALE
  5
49
102
{ACAD_REACTORS
330
3F
102
}
330
3F
100
AcDbScale
 70
     0
300
1:4
140
1.0
141
4.0
290
     0
  0
SCALE
  5
4A
102
{ACAD_REACTORS
330
3F
102
}
330
3F
100
AcDbScale
 70
     0
300
1:5
140
1.0
141
5.0
290
     0
  0
SCALE
  5
4B
102
{ACAD_REACTORS
330
3F
102
}
330
3F
100
AcDbScale
 70
     0
300
1:8
140
1.0
141
8.0
290
     0
  0
SCALE
  5
4C
102
{ACAD_REACTORS
330
3F
102
}
330
3F
100
AcDbScale
 70
     0
300
1:10
140
1.0
141
10.0
290
     0
  0
SCALE
  5
4D
102
{ACAD_REACTORS
330
3F
102
}
330
3F
100
AcDbScale
 70
     0
300
1:16
140
1.0
141
16.0
290
     0
  0
SCALE
  5
4E
102
{ACAD_REACTORS
330
3F
102
}
330
3F
100
AcDbScale
 70
     0
300
1:20
140
1.0
141
20.0
290
     0
  0
SCALE
  5
4F
102
{ACAD_REACTORS
330
3F
102
}
330
3F
100
AcDbScale
 70
     0
300
1:30
140
1.0
141
30.0
290
     0
  0
SCALE
  5
50
102
{ACAD_REACTORS
330
3F
102
}
330
3F
100
AcDbScale
 70
     0
300
1:40
140
1.0
141
40.0
290
     0
  0
SCALE
  5
51
102
{ACAD_REACTORS
330
3F
102
}
330
3F
100
AcDbScale
 70
     0
300
1:50
140
1.0
141
50.0
290
     0
  0
SCALE
  5
52
102
{ACAD_REACTORS
330
3F
102
}
330
3F
100
AcDbScale
 70
     0
300
1:100
140
1.0
141
100.0
290
     0
  0
SCALE
  5
53
102
{ACAD_REACTORS
330
3F
102
}
330
3F
100
AcDbScale
 70
     0
300
2:1
140
2.0
141
1.0
290
     0
  0
SCALE
  5
54
102
{ACAD_REACTORS
330
3F
102
}
330
3F
100
AcDbScale
 70
     0
300
4:1
140
4.0
141
1.0
290
     0
  0
SCALE
  5
55
102
{ACAD_REACTORS
330
3F
102
}
330
3F
100
AcDbScale
 70
     0
300
8:1
140
8.0
141
1.0
290
     0
  0
SCALE
  5
56
102
{ACAD_REACTORS
330
3F
102
}
330
3F
100
AcDbScale
 70
     0
300
10:1
140
10.0
141
1.0
290
     0
  0
SCALE
  5
57
102
{ACAD_REACTORS
330
3F
102
}
330
3F
100
AcDbScale
 70
     0
300
100:1
140
100.0
141
1.0
290
     0
  0
TABLESTYLE
  5
43
102
{ACAD_XDICTIONARY
360
44
102
}
102
{ACAD_REACTORS
330
40
102
}
330
40
100
AcDbTableStyle
  3
Standard
 70
     0
 71
     0
 40
1.5
 41
1.5
280
     0
281
     0
  7
Standard
140
4.5
170
     2
 62
     0
 63
     7
283
     0
274
    -2
284
     1
 64
     0
275
    -2
285
     1
 65
     0
276
    -2
286
     1
 66
     0
277
    -2
287
     1
 67
     0
278
    -2
288
     1
 68
     0
279
    -2
289
     1
 69
     0
  7
Standard
140
6.0
170
     5
 62
     0
 63
     7
283
     0
274
    -2
284
     1
 64
     0
275
    -2
285
     1
 65
     0
276
    -2
286
     1
 66
     0
277
    -2
287
     1
 67
     0
278
    -2
288
     1
 68
     0
279
    -2
289
     1
 69
     0
  7
Standard
140
4.5
170
     5
 62
     0
 63
     7
283
     0
274
    -2
284
     1
 64
     0
275
    -2
285
     1
 65
     0
276
    -2
286
     1
 66
     0
277
    -2
287
     1
 67
     0
278
    -2
288
     1
 68
     0
279
    -2
289
     1
 69
     0
  0
VISUALSTYLE
  5
2C
102
{ACAD_XDICTIONARY
360
3D6
102
}
102
{ACAD_REACTORS
330
2D
102
}
330
2D
100
AcDbVisualStyle
  2

 70
     4
 71
     0
 72
     2
 73
     1
 90
        0
 40
-0.6
 41
-30.0
 62
     5
 63
     7
421
 16777215
 74
     1
 91
        4
 64
     7
 65
   257
 75
     1
175
     1
 42
1.0
 92
        0
 66
   257
 43
1.0
 76
     1
 77
     6
 78
     2
 67
     7
 79
     5
170
     0
171
     0
290
     0
174
     0
 93
        1
 44
0.0
173
     0
291
     0
 45
0.0
1001
ACAD
1000
AcDbSavedByObjectVersion
1070
     0
  0
VISUALSTYLE
  5
45
102
{ACAD_XDICTIONARY
360
3D9
102
}
102
{ACAD_REACTORS
330
2D
102
}
330
2D
100
AcDbVisualStyle
  2

 70
     8
 71
     2
 72
     3
 73
     0
 90
        2
 40
-0.6
 41
30.0
 62
     5
 63
     7
421
 16777215
 74
     0
 91
        0
 64
     7
 65
   257
 75
     1
175
     1
 42
1.0
 92
        8
 66
   257
 43
1.0
 76
     1
 77
     6
 78
     2
 67
     7
 79
     3
170
     0
171
     0
290
     0
174
     0
 93
       13
 44
0.0
173
     0
291
     0
 45
0.0
1001
ACAD
1000
AcDbSavedByObjectVersion
1070
     0
  0
VISUALSTYLE
  5
46
102
{ACAD_XDICTIONARY
360
3DB
102
}
102
{ACAD_REACTORS
330
2D
102
}
330
2D
100
AcDbVisualStyle
  2

 70
     5
 71
     0
 72
     2
 73
     0
 90
        0
 40
-0.6
 41
-30.0
 62
     5
 63
     7
421
 16777215
 74
     1
 91
        4
 64
     7
 65
   257
 75
     1
175
     1
 42
1.0
 92
        0
 66
   257
 43
1.0
 76
     1
 77
     6
 78
     2
 67
     7
 79
     3
170
     0
171
     0
290
     0
174
     0
 93
        1
 44
0.0
173
     0
291
     0
 45
0.0
1001
ACAD
1000
AcDbSavedByObjectVersion
1070
     0
  0
DICTIONARYVAR
  5
3C5
102
{ACAD_REACTORS
330
3BF
102
}
330
3BF
100
DictionaryVariables
280
     0
  1
1:1
  0
DICTIONARYVAR
  5
3C1
102
{ACAD_REACTORS
330
3BF
102
}
330
3BF
100
DictionaryVariables
280
     0
  1
STANDARD
  0
DICTIONARYVAR
  5
3C0
102
{ACAD_REACTORS
330
3BF
102
}
330
3BF
100
DictionaryVariables
280
     0
  1
STANDARD
  0
DICTIONARYVAR
  5
3C2
102
{ACAD_REACTORS
330
3BF
102
}
330
3BF
100
DictionaryVariables
280
     0
  1

  0
DICTIONARYVAR
  5
3C3
102
{ACAD_REACTORS
330
3BF
102
}
330
3BF
100
DictionaryVariables
280
     0
  1

  0
DICTIONARYVAR
  5
3C7
102
{ACAD_REACTORS
330
3BF
102
}
330
3BF
100
DictionaryVariables
280
     0
  1
0
  0
DICTIONARYVAR
  5
3C8
102
{ACAD_REACTORS
330
3BF
102
}
330
3BF
100
DictionaryVariables
280
     0
  1
0
  0
DICTIONARYVAR
  5
3C6
102
{ACAD_REACTORS
330
3BF
102
}
330
3BF
100
DictionaryVariables
280
     0
  1
2
  0
DICTIONARYVAR
  5
3C4
102
{ACAD_REACTORS
330
3BF
102
}
330
3BF
100
DictionaryVariables
280
     0
  1
1
  0
DICTIONARYVAR
  5
3CA
102
{ACAD_REACTORS
330
3BF
102
}
330
3BF
100
DictionaryVariables
280
     0
  1
80.000000
  0
DICTIONARYVAR
  5
3C9
102
{ACAD_REACTORS
330
3BF
102
}
330
3BF
100
DictionaryVariables
280
     0
  1
5.000000
  0
DICTIONARYVAR
  5
3CB
102
{ACAD_REACTORS
330
3BF
102
}
330
3BF
100
DictionaryVariables
280
     0
  1
2
  0
DICTIONARY
  5
3D5
102
{ACAD_REACTORS
330
3D3
102
}
330
3D3
100
AcDbDictionary
281
     1
  0
DICTIONARY
  5
3D4
102
{ACAD_REACTORS
330
3D3
102
}
330
3D3
100
AcDbDictionary
281
     1
  3
1386513873120
350
3CE
  3
1386513873136
350
3CF
  3
1386513873152
350
3D0
  3
1386513873168
350
3D1
  3
1386513873184
350
3D2
  0
DICTIONARY
  5
19
330
17
100
AcDbDictionary
280
     1
281
     1
  0
DICTIONARY
  5
3B
330
3A
100
AcDbDictionary
280
     1
281
     1
  3
ACAD_XREC_ROUNDTRIP
360
3C
  3
FBXASSET
360
3D
  0
DICTIONARY
  5
37
330
36
100
AcDbDictionary
280
     1
281
     1
  3
ACAD_XREC_ROUNDTRIP
360
38
  3
FBXASSET
360
39
  0
DICTIONARY
  5
D
330
B
100
AcDbDictionary
280
     1
281
     1
  3
ACAD_XREC_ROUNDTRIP
360
E
  3
BUMPTILE
360
F
  3
DIFFUSETILE
360
10
  3
FBXASSET
360
11
  3
OPACITYTILE
360
12
  3
REFLECTIONTILE
360
13
  0
DICTIONARY
  5
44
330
43
100
AcDbDictionary
280
     1
281
     1
  3
ACAD_ROUNDTRIP_2008_TABLESTYLE_CELLSTYLEMAP
360
3CC
  3
ACAD_XREC_ROUNDTRIP
360
3D8
  0
DICTIONARY
  5
3D6
330
2C
100
AcDbDictionary
280
     1
281
     1
  3
ACAD_XREC_ROUNDTRIP
360
3D7
  0
DICTIONARY
  5
3D9
330
45
100
AcDbDictionary
280
     1
281
     1
  3
ACAD_XREC_ROUNDTRIP
360
3DA
  0
DICTIONARY
  5
3DB
330
46
100
AcDbDictionary
280
     1
281
     1
  3
ACAD_XREC_ROUNDTRIP
360
3DC
  0
XRECORD
  5
3CE
102
{ACAD_REACTORS
330
3D4
102
}
330
3D4
100
AcDbXrecord
280
     1
  1
AcDb_Thumbnail_Schema
102
{ATTRRECORD
341
3CF
  2
AcDbDs::TreatedAsObjectData
280
     1
291
     1
102
ATTRRECORD}
102
{ATTRRECORD
341
3D0
  2
AcDbDs::Legacy
280
     1
291
     1
102
ATTRRECORD}
  2
AcDbDs::ID
280
    10
 91
        8
102
{ATTRRECORD
341
3D1
  2
AcDs:Indexable
280
     1
291
     1
102
ATTRRECORD}
102
{ATTRRECORD
341
3D2
  2
AcDbDs::HandleAttribute
280
     7
282
     1
102
ATTRRECORD}
  2
Thumbnail_Data
280
    15
 91
        0
  0
XRECORD
  5
3CF
102
{ACAD_REACTORS
330
3D4
102
}
330
3D4
100
AcDbXrecord
280
     1
  1
AcDbDs::TreatedAsObjectDataSchema
  2
AcDbDs::TreatedAsObjectData
280
     1
 91
        0
  0
XRECORD
  5
3D0
102
{ACAD_REACTORS
330
3D4
102
}
330
3D4
100
AcDbXrecord
280
     1
  1
AcDbDs::LegacySchema
  2
AcDbDs::Legacy
280
     1
 91
        0
  0
XRECORD
  5
3D1
102
{ACAD_REACTORS
330
3D4
102
}
330
3D4
100
AcDbXrecord
280
     1
  1
AcDbDs::IndexedPropertySchema
  2
AcDs:Indexable
280
     1
 91
        0
  0
XRECORD
  5
3D2
102
{ACAD_REACTORS
330
3D4
102
}
330
3D4
100
AcDbXrecord
280
     1
  1
AcDbDs::HandleAttributeSchema
  2
AcDbDs::HandleAttribute
280
     7
 91
        1
284
     1
  0
XRECORD
  5
3C
102
{ACAD_REACTORS
330
3B
102
}
330
3B
100
AcDbXrecord
280
     1
102
MATERIAL
148
0.0
149
0.0
149
0.0
 93
        0
 94
      127
282
     0
 72
     1
 77
     1
171
     1
175
     1
179
     1
273
     0
  0
XRECORD
  5
3D
102
{ACAD_REACTORS
330
3B
102
}
330
3B
100
AcDbXrecord
280
     1
 70
     1
 90
429727718
  1
D62C5603-E3A1-4AEA-B7FB-FE5D8D0755AF
310
504B03040A0000080000CC70623B3DEE336E79000000790000001B0000006175746F6465736B2D64657369676E2D7061636B6167652E786D6C3C3F786D6C2076657273696F6E3D22312E302220656E636F64696E673D227574662D3822203F3E3C666F726D6174733E3C666F726D61743E687474703A2F2F736368656D612E
310
6175746F6465736B2E636F6D2F64657369676E2D7061636B6167652F323030393C2F666F726D61743E3C2F666F726D6174733E504B0304140006080800CC70623BD486FD9CA0000000F4000000130000005B436F6E74656E745F54797065735D2E786D6C7D8EC10E82300C865F65E91D8A1E8C310C0EEA1BF002731658846E
310
D98AC1B77784ABF1D8FE5FBFBF75BBCE937A534CCEB38643598122B6FEE978D0B0485F9C41B54DDD7D022595594E1A469170414C76A4D9A4D207E29CF43ECE46F218070CC6BECC4078ACAA135ACF422C856C0E68EA1BF5669944DDD7BCDE7B1F8E415D77AECB980613C2E4AC91FC167A2B244592486606FC29C8FD7F045B9A
310
EF7053A7E60B504B0304140006080800CC70623B853B8169EB0000007C01000008000000636F72652E786D6C8D90416EC3201045AF62CDB6C206821CC7C244919D9CA01740401C94182C03558F5F9C3852BBEB6A467FFE9B197D7EFC9E1EC5975982F5AE035262288C535E5B377690E21535501C055FBC8FBF6C503839990E
310
5619041F179FE64D52DE45E362569DD7661365082642A11EB9E920A89B99642953CC8E702F67A9EE7234257977194EC9EAE275C4EABCCF5EAD5940D4AC6F0E35A568B8F43562CD7046CD199FD07E60174276A7BE677B5EADB0E0D14EEFFB6A31321A0D82627C4084204C3F096B71DD52F6819B16635EADF63F509AF53FA164
310
5DDCD1EDDD17164090FCC8732078B56691CB33A85CD7DCC40F504B0304140006080800CC70623B55019EA25F0000007C00000007000000636E782E786D6C4DCB3B0E80201045D1AD90E915ED2CF8AC45050C11660C8261F98AB1B07AC9C97D42D718D865D3E909258CFD00CCE24AC6E326A164D74DC0B4128928FF32603847
310
2BA13128B1252AC747C6BAB984FC68F0B87FE8960A5C09FE86CFB69FBA01504B0304140006080800CC70623BDBABAAF470010000D40300000C0000006662782F636F72652E786D6CC553D16E823014FD95A6AF4B694182CC941A83FA05FB810A9511A125A5257EFE2E82712ECEB8A7F100CD39F7F69E734AF9FADC366850B6
310
AF8DCE7018308C942E4C59EB2AC3DE1D498AD15A706B8CFB56869196ADCAF00863C12B6B7C374385D14E6907A836A59A41D9F7CA615434B0C8705F7CAA5606D23BA8E84F41278B93AC54100640439DE0BDB320004D43C63716C7C399D30917DCFBBA9CD9BA8469F5B156168B24CED3F7248AC8769F27244EB73B92EED8862C
310
B7F13E0C179B3C8F979C8ECD82BBBABDAA2BAC924E9558448CBD9330242CFA08E3154B5651FCC6D215639C8EE5774DBE2B5F6CF2B5768B68963BB5F5588420E442FC700B1139D4CB01F450C1E918227C2E09DF070D8140C84E1E9AAB8F1340832A9CB13130A5F1376A908D57309505ECF2A0DF179C4E9D30F5B239B87E3823
310
7A79C6F31DE1A8A5AEC08474B03C7837EAE4938639B44E5932B833D2C6B6B279CDC613877FA26EE21F4A2A4C63EC7F29A2F301D1F9F7A0E37D145F504B0304140006080800CC70623B9C113CC27E0000009D0000000B0000006662782F636E782E786D6C4DCCDF0A83201C86E15B91DFB94BFB330DD428C8FB886521330DA7
310
6397BF1A1DECE883878F57749FCDA1B7892F1BBC047A23808C7F84D9FA55424E0BE6803A256208E9EF06C84F9B91703228B1C690F78B66B34CD9A5439DF5CF0BFBF65E35BCA1B8D6A5C6F540381E886698B5741C695F9503EBA150A2F8958E3DC3EA0B504B0304140006080800CC70623B7DF2F77C2A010000120200003100
310
00006662782F41393633353835312D344632462D344230382D423046372D3739314545314133324237412F636F72652E786D6C8D51DB8EC22014FC15C2939B0D2DB4B45643319AE817EC0F6041255A68B86CFCFC856D4D76DF7CE190393373060EDB3DC707F856CE6B6B7A480A0C81328395DA5C7B18C3057510EC3873D686
310
3F34088C18550F330C39BB3A1BA7051AAC09CA84841A2BD5020AEF55806078A44B0FFD7053A328440C89E1EFC52486BBB8AA8214A99D789CF9E05200300FC927E4FB4D5B375D43103D5527440FB843077C5AA3F5861C8F645F5787F59E95B390B318B55CE45AA638FAA2957BD7248B390B7A7CC51F9C124149C82B8C378810
310
84AB2F42B7B8DD56F413775B8C5999E9FF4471926F8AA236A1AE96B8B3CC434E5839373893369E1FAF30EA395917409EB7F26AF8801C171837A4A6AC9C89E9F9C9B1A58BA30FD6A5EF5DDDCF894B9AD9B6A59C957943A9FCAE2FD5BC4DFE03504B0304140006080800CC70623BAD7543B64E01000033030000300000006662
310
782F41393633353835312D344632462D344230382D423046372D3739314545314133324237412F636E782E786D6CD593CD6EC32010845F0571AD6CE3D48AD20813A9873E410FBD12D82434182C7EAAE6EDBB2424CD25871E7B41D6EC30B3FA84F9E67BB2E40B4234DE8DB46F1925E094D7C6ED479AD3AE5951B2113C789FEE
310
6C943839C1488B4C05DF079FE72A69D8C96C13AAD6B8631503449F83828872B949AC57D26200B826A308D316B4064D6E46FCDA41C05550DC9E483A00797BFD207EFB092A45DE9514C1BBD22178396BD39D891265658C238DEA00936C654E5E433CB65A26D9F6EDB5EBC14EBF49A45CB856E66048291F6939A9A81BB5C89177
310
38143CA680F4AA299D66A042CEB3354A2684DC9D8D178FE0D9B8B41CAAD720F880EE7EF93C0C18769E099ECC04D5A102C8049A8A05632F4DDF376CF1DE0F6BB65C2F8627B65A33C6BB62177CEBBDAD973006829F89F22E814B54F4BC2BE347F8AA8F681390B50FA73F804400B5F542E796F19FF974E7F78DB802FE05E20750
310
4B0304140006080800CC70623BE75B7789680500003C100000340000006662782F41393633353835312D344632462D344230382D423046372D3739314545314133324237412F6F626A656374732E786D6CAD575B8F9B3818FD2B887D06C22499CB8AA1CA655245D5B455A356FB305264C061D8018C6C3393D95FBFC7600890
310
A4CD5EF210B0B1BFEBF98E3F7B1FF6596ABC522E1296DF9BAE3D320D9A872C4AF2F8DE2CE5CEBA358D0FBEC719939D65A691938CDE9B6ADAF4BD98B3B2D05311DD91329583D9D5FC0F438434A7A611A644887B5384CF34233629258BA878B12322891DEFF6B66BD70BFB62634E8AE781D082709A4B588AF91C528CDA28B73F
310
1C998EEF39EABBEFA97FBD6A7C7E9553F9D3D79FE442923C3C523610337627CB87ABE99D359D4CC6D6E4FACAB5E6ABF9D2726FC6A3C5F56271377BB88362213924694B38DD99FE47C48627A1E7D49F5A8BB5E1A74C0A599ED3B0F21F1E56366B89112D681E218F0915D0D6F17AD41FBA2A369DCF6335D62ABBD39779D5DDD1
310
11D4D8DE3CBB96B2E04FB8202E41051754A1AA8E8F76B4C6DFE810B580B1547F4B84911149794252234D024EF8BBE963A95AE27B3D310A9D5C215C7960FAEE415ED75694C6AFB17BCACA5D99A60A9AA65F217B0BFC53292ACB92BF283FAD0D3621576592CB5BED907C2FA8E9DF794E35E97BEA31BED21FEB401ABB94C44839
310
DCACBF0E1C5DA8DA5B2F4DFFD32AD86F543D9E565E7056502E157C00AD2671CD534549AB752FCA9CDA00677A313F04E51B22FF19E57B300579E3C97EB29F682D92935CEC18CF901B7B54FD8C51F362B56FC72FE0B3C1EAE335EDCCBF5AEC39ADB17DC238973F804BA5E6F6BFE7AF1FB32E523BE9F3BD571418E3631DCA4D48
310
5250CF639223210A9446CA30052EDF057BD35F8329C1ECD84552BF0DC8D18BE7BCE23BFE6BD960AB4A7DE79923A103BEBD80F911CBAA2C60DB19B01CF164A5583B772EE6D3FFA56666CBCDA74DC97724A48F9A58967497E489C4D979006FD7A05E227A1EBDD0F737C623387A9C844D3709995625106D157315F8B8392CD4E0
310
A0B9A720C4BE9829CEF37EA1E13111214D53925356365ADA634861B52519DD27A00AEB808EAF0628E6F435519D446F45CF2C9CF5214F0A15B2F6D06B79DA3EE3CBF7F56780D2F4E7EF73A0F5E5B02A38D07DC852C6B7C1FBB6664213E0C39E3EBA7FF4E1AD23EA2829407C85E586727488B751B2DB9502BC7B228A3FD68B6E
310
A65A22397E690AA8D158D7E404EC8CDA235CC3B7D1898680131CEC2CDF2638C65196279577750F15884AEE19F94199155B92B13297978469D4F8D358DF0AEF7631E28DC8F0D9F437D5D39A83B2231A1D52D543813A824EF8D44BCFF2FA6A31BD1E8DAD87F1CCB526B3879935BF59CDADD5C37479BB1CDD4CA7B3556B516589
310
EF352754B706114D9C885EC9131DE6EFEB43D99AFE2391C2F958179413D7CFEF6B1B6DB1E7600F00DE6E5C67454A339A4BA2E0FBA85ED26F045D454F463DBFCE484C2F90F2E5E3666003662ED8F755951A7D1BECD5B30B550B2785C8E7320B7292A4838DDA71BBC863ED7613CAF659337A3354231D4FF4A182A54904C2898C
310
98B28C4AD0CE056CCF332A80986E571EE9DBC305BB5FEB7E509220A58D25CF042D712A806AC0AD0C657FDEF80D2D9CEAA2EE4D1C76F60BFE74219A06527D6F82DF6412526107381E55E353090704D085B52408A8913C4ED159D79BDA71BB4BC506F4831350EB6F975CD22D69BF7AC49B91A2C0A9DDA3D5CA36AD20FC478E37
310
E61844E2352865EBCB61A275A65283CAAA9DD27703B4102F5AF51EF5F573B75CBB5AD38BC845F7A49F82A0966A49C2E3EA5EA0ECD326CD965F1DB402C6FA8B51A4658C5C5E2EC9E214602E55810345408596591009A82E7E7FFACA19EEA299B14A0081A705CB3296EBC14CDF658DCD336EA6D1136881AAEB87B81AB9EE53D5
310
F5EB8BC8362082DA24122F98680A4E7930C01A0079749CEA14382A0783E5EBA5A10F8C098456A03D6A4AEB6BB881E2513747552A5DB22C7EDAF83BD5528081A365F7FF06504B0304140006080000CC70623B000000000000000000000000350000006662782F41393633353835312D344632462D344230382D423046372D37
310
39314545314133324237412F76657274696365732E62696E504B0304140006080800CC70623BF270F1330600000004000000360000006662782F41393633353835312D344632462D344230382D423046372D3739314545314133324237412F747269616E676C65732E62696E636660600000504B0304140006080000CC7062
310
3B000000000000000000000000370000006662782F41393633353835312D344632462D344230382D423046372D3739314545314133324237412F617474726962757465732E62696E504B0304140006080800CC70623B08DA0BD19000000041010000360000006662782F41393633353835312D344632462D344230382D4230
310
46372D3739314545314133324237412F6469726563746F72792E786D6C858F410AC3201045AF22B36F53E9A60B35CBEEBAE80D244E44489C6234F4F835464A48035D0DF398FF9F8AF63D0E6CC63039F212F8F9020C7D47C6792B21C5FE7403D62A1188E2E60C98D7234A5830286103A55745067B9D86B8A3CF9C7F90C11DE6
310
07FB144396D7B6A82D282E9A152AD114D5EF2CB866EEE831B8EEA07A7BB5A8D7D61A2BAAEB7FD5F70921FF497D00504B0304140006080800CC70623BEDD1DC58FD000000A00100003B0000006662782F41393633353835312D344632462D344230382D423046372D3739314545314133324237412F7265736F75726365732F
310
636F72652E786D6C8D504B6E833010BD0A9A6D65B00922041947112427E8052C33A156828DFCA97AFC9A40A576D7CDCCE87D344F8F9FBFE667F689CE6B6B3A6039850C8DB2A336530731DC4903D95970676DF82583CCC8193B5861107C72362E3BA4AC096842428D1D7107A5F7182053CF7474E0D507CE32973124857FE48B
310
540F3961CEF244279DE03EB81420DB9EAC1384436FA353E879B1B182C7A8C75DA3C7F453DF353A1075D537A7BA6464B8F535A99AE14A9A2BBD90E350DD183B5CFABE3AF262350B1EF4FC9351399401471025A527C218A1E53BAB5A5AB765F5469B96525EACF23FA6B88CFF34456DC2A1DCE36E360F82A5202F42F062ED2BAD
310
579969AFDD8A6F504B010214000A0000080000CC70623B3DEE336E79000000790000001B00000000000000000000000000000000006175746F6465736B2D64657369676E2D7061636B6167652E786D6C504B01021400140006080800CC70623BD486FD9CA0000000F40000001300000000000000000000000000B20000005B
310
436F6E74656E745F54797065735D2E786D6C504B01021400140006080800CC70623B853B8169EB0000007C010000080000000000000000000000000083010000636F72652E786D6C504B01021400140006080800CC70623B55019EA25F0000007C000000070000000000000000000000000094020000636E782E786D6C504B
310
01021400140006080800CC70623BDBABAAF470010000D40300000C00000000000000000000000000180300006662782F636F72652E786D6C504B01021400140006080800CC70623B9C113CC27E0000009D0000000B00000000000000000000000000B20400006662782F636E782E786D6C504B01021400140006080800CC70
310
623B7DF2F77C2A010000120200003100000000000000000000000000590500006662782F41393633353835312D344632462D344230382D423046372D3739314545314133324237412F636F72652E786D6C504B01021400140006080800CC70623BAD7543B64E010000330300003000000000000000000000000000D2060000
310
6662782F41393633353835312D344632462D344230382D423046372D3739314545314133324237412F636E782E786D6C504B01021400140006080800CC70623BE75B7789680500003C10000034000000000000000000000000006E0800006662782F41393633353835312D344632462D344230382D423046372D3739314545
310
314133324237412F6F626A656374732E786D6C504B01021400140006080000CC70623B0000000000000000000000003500000000000000000000000000280E00006662782F41393633353835312D344632462D344230382D423046372D3739314545314133324237412F76657274696365732E62696E504B01021400140006
310
080800CC70623BF270F133060000000400000036000000000000000000000000007B0E00006662782F41393633353835312D344632462D344230382D423046372D3739314545314133324237412F747269616E676C65732E62696E504B01021400140006080000CC70623B0000000000000000000000003700000000000000
310
000000000000D50E00006662782F41393633353835312D344632462D344230382D423046372D3739314545314133324237412F617474726962757465732E62696E504B01021400140006080800CC70623B08DA0BD1900000004101000036000000000000000000000000002A0F00006662782F41393633353835312D344632
310
462D344230382D423046372D3739314545314133324237412F6469726563746F72792E786D6C504B01021400140006080800CC70623BEDD1DC58FD000000A00100003B000000000000000000000000000E1000006662782F41393633353835312D344632462D344230382D423046372D3739314545314133324237412F7265
310
736F75726365732F636F72652E786D6C504B0506000000000E000E0080040000641100000000
  0
XRECORD
  5
38
102
{ACAD_REACTORS
330
37
102
}
330
37
100
AcDbXrecord
280
     1
102
MATERIAL
148
0.0
149
0.0
149
0.0
 93
        0
 94
      127
282
     0
 72
     1
 77
     1
171
     1
175
     1
179
     1
273
     0
  0
XRECORD
  5
39
102
{ACAD_REACTORS
330
37
102
}
330
37
100
AcDbXrecord
280
     1
 70
     1
 90
429727718
  1
30362254-06B7-45E0-A893-8CFA70E3D6BC
310
504B03040A0000080000CC70623B3DEE336E79000000790000001B0000006175746F6465736B2D64657369676E2D7061636B6167652E786D6C3C3F786D6C2076657273696F6E3D22312E302220656E636F64696E673D227574662D3822203F3E3C666F726D6174733E3C666F726D61743E687474703A2F2F736368656D612E
310
6175746F6465736B2E636F6D2F64657369676E2D7061636B6167652F323030393C2F666F726D61743E3C2F666F726D6174733E504B0304140006080800CC70623BD486FD9CA0000000F4000000130000005B436F6E74656E745F54797065735D2E786D6C7D8EC10E82300C865F65E91D8A1E8C310C0EEA1BF002731658846E
310
D98AC1B77784ABF1D8FE5FBFBF75BBCE937A534CCEB38643598122B6FEE978D0B0485F9C41B54DDD7D022595594E1A469170414C76A4D9A4D207E29CF43ECE46F218070CC6BECC4078ACAA135ACF422C856C0E68EA1BF5669944DDD7BCDE7B1F8E415D77AECB980613C2E4AC91FC167A2B244592486606FC29C8FD7F045B9A
310
EF7053A7E60B504B0304140006080800CC70623B1EC5D7A3EB0000007C01000008000000636F72652E786D6C8D90416EC3201045AF82665B6103C6756C6122AB4D4ED00B204C5C94182C03558F5F9C3852BBEB6A467FFE9B197D71FC9E6FE8CBACC17AD7032D0820E3B41FAD9B7A48F1820F808E52ACDEC75F36404ECDA687
310
4D0629A6D5A76597B477D1B89855E747B38B2A041301E95B6E7A08FAD3CCAA50296647B8168BD2573599823EBB0CA76447F43862C7BCCF5EAC59410E4DDD9C7973C2755553CCCFA4C603E3040F1565ED3B1FDE4E432BCA0D9622DAF9795FAF464533826484B498524CD807E51D79ED187F21878E10516EF63F505AC67F42C9
310
BA58B1FDDD071640D2FCC87D2045B96591CB3DA85CB7DCE40F504B0304140006080800CC70623B55019EA25F0000007C00000007000000636E782E786D6C4DCB3B0E80201045D1AD90E915ED2CF8AC45050C11660C8261F98AB1B07AC9C97D42D718D865D3E909258CFD00CCE24AC6E326A164D74DC0B4128928FF32603847
310
2BA13128B1252AC747C6BAB984FC68F0B87FE8960A5C09FE86CFB69FBA01504B0304140006080800CC70623B8C9102E971010000D40300000C0000006662782F636F72652E786D6CC5535B6E833010BC8AE5DF0A6C08340F1947A84D4ED00B38C6A128602363A31CBFCB234A53A551FA553EC09AD9F5CE8C31DB9E9B1AF5CA
310
7695D1198E428A91D2D214952E33ECDD315861B4E5CC1AE3BE9561A445A3323CC098B3D21ADFCE9034DA29ED00D5A6503328BA4E398C640D8B0C77F253352214DE4145770A5B214FA2546114020D759C75CE8200340D19DE981F0F6746269C33EFAB6266AB02A655C74A59CCF365BADC27CB5D902ED22848F6340DF238A141
310
BE88E2F57B92BFEDF23523433367AE6A2EEAA455C2A902F398D2751045018D3FA264435F3771F242571B4A1919CA6F9A7C5B3CD9E42BED16F12C776AEB308F40C848FC700B1139D4891EF410CEC810227CC6846F8386402064270EF5C5C709A05E49676C024C61FC95EA45ED154CA5211D1FF4FB8291A913A68E9B83EBBB33
310
E2A7673CDE118E5AE8124C0807CB8377834E366998436B950D7A7746DAD846D4CFD978E0F04FD455FC5D49D2D4C6FE9722321F10997F0F32DC47FE05504B0304140006080800CC70623BFFEA85907E0000009D0000000B0000006662782F636E782E786D6C4DCCD10A83201886E15B91FFDC95D95A811AB6F23E625948A6C3
310
E9D8E5AF46073BFAE0E1E365ED67B3E8ADC3CB78C7815C7240DA3DFC64DCC221C519D7805AC182F7F1EF06C88D9BE6703008B6049F9E274D7A1E938DBB5AE3D6131B2589BA0D3D965551E0B2EA732C9B9A624AAEB41E3A557677029960D9AFB4EF11165F504B0304140006080800CC70623B4FEEA4082C0100001202000031
310
0000006662782F39464131463745442D413632322D343644302D413938332D3331353338454246344243312F636F72652E786D6C8D515B6EC32010BC0AE2AB55850DD871ED0813254D72825EC00192A2C460F1A872FC42ED48ED5F7E00CDCECCCEB26C731F6FE05B39AFADE921293004CA082BB5B9F43086336A21D870E6AC
310
0D7F68109861543DCC30E4ECE26C9C164858139409093556AA051CBC570102714B8F1E7AF1A5C6A11862480C7F2DA6415C878B2A4891CA89C7990F2E050073937C42DE1DB7E4F87ED8A36D4329AA9B3D46DBAEAD504556557BD81DEBDD0761E52CE42C462D17B996298E3E6BE59E35C962CE821E1FF18553435012728A7187
310
0841987E927A8D9B35ADDF70BBC6989599FE4F1427F9A4286A132ABAC49D651EF234CD5CE04CDA78BA3DC2A8FB645D00B9DF8B57E215725C60BCA2A463E54C4CE327C7A65E1C7DB02E7DEFCBF594B864C5CA6CDBD49C957943E9FA5D5FBAF336F90F504B0304140006080800CC70623BAD7543B64E01000033030000300000
310
006662782F39464131463745442D413632322D343644302D413938332D3331353338454246344243312F636E782E786D6CD593CD6EC32010845F0571AD6CE3D48AD20813A9873E410FBD12D82434182C7EAAE6EDBB2424CD25871E7B41D6EC30B3FA84F9E67BB2E40B4234DE8DB46F1925E094D7C6ED479AD3AE5951B2113C
310
789FEE6C943839C1488B4C05DF079FE72A69D8C96C13AAD6B8631503449F83828872B949AC57D26200B826A308D316B4064D6E46FCDA41C05550DC9E483A00797BFD207EFB092A45DE9514C1BBD22178396BD39D891265658C238DEA00936C654E5E433CB65A26D9F6EDB5EBC14EBF49A45CB856E66048291F6939A9A81BB5
310
C8917738143CA680F4AA299D66A042CEB3354A2684DC9D8D178FE0D9B8B41CAAD720F880EE7EF93C0C18769E099ECC04D5A102C8049A8A05632F4DDF376CF1DE0F6BB65C2F8627B65A33C6BB62177CEBBDAD973006829F89F22E814B54F4BC2BE347F8AA8F681390B50FA73F804400B5F542E796F19FF974E7F78DB802FE05
310
E207504B0304140006080800CC70623B16AB87BA640500003C100000340000006662782F39464131463745442D413632322D343644302D413938332D3331353338454246344243312F6F626A656374732E786D6CAD575B6FA33818FD2B887DE6924B3BED8A326A92B68A663B534DD4D13E548A0C38942D60649B369D5FBFC7
310
600890A493BDE42160637FD7F31D7FF63E6FB3D478A55C242CBF3247B66B1A340F5994E4F19559CA8D75611A9F7D8F33263BCB4C232719BD32D5B4E97B316765A1A722BA21652A07B3B7B33F0D11D29C9A46981221AE4C113ED38CD8A4942CA2E2C58E882476BCD9DA23BB5ED8171B73523C0F841684D35CC252CCE79062D4
310
468DFA43D7747CCF51DF7D4FFDEB5593E3AB9CCA9FBEFE241792E4E19EB28198C968BAB8199F5D5A67D3E9C49A9E8F47D6EC76B6B0469F26EEFC7C3EBFBCBEB98462213924694B38DD98FE1D62C393D073EA4FADC5DAF04326852CCF6958F90F0F2B9BB5C48816348F90C7840A68EB78EDF68723159BCEE7891A6B95DDE9D3
310
BCEAEEE8086A6C6F9E5D4B59F0175C10A7A0820BAA5055C7473B5AE3CFDD452D602CD5DF12616444529E90D448938013FE6EFA58AA96F85E4F8C42275708571E98FE6827AF6B2B4AE3D7D83D64E5A64C53054DD3AF90BD06FEA9149565C94FCA0F6B834DC85599E4F2423B24DF0B6AFA979E534DFA9E7A4CC6FA631D486393
310
921829879BF5D781A373557BCB85E97FB90DB62B558F8795179C15944B051F40AB495CF35451D26A4727654E6D8033BD98EF82F21D91FF8AF2DD9982BCF1643BDD4EB516C9492E368C67C88DED563FC36D5EACF66DFF057C3658BDBFA69DF9578B3DA735B64F18C7F20770A9D45CFCF7FCF563D6456A277DBEF78A02637CA2
310
43B90A490AEAB94F72244481D24819A6C0E59B606BFA4B3025981DBB48EAB701D97BF19C577CC77F2D1B6C55A9EF3C732474C0B727303F625995056C3B02963D9EAC146BE78EC5FCEC7FA999EBC5EACBAAE41B12D27B4D2C0BBA49F244E2ECDC81B76B502F113D8F5EE8FB1BE3111CDD4FC2AA9B844CAB1288B68AB90A7CDC
310
1C166AB0D3DC5310625FCC14E779BFD0709F8890A629C9292B1B2DED31A4B0DA928CEE135085754027E3018A397D4D5427D15BD1330B677DC8934285AC3DF45A9EB68FF8F2B8FC0A509AFEECFD0FF2DE25CC6047F7214B195F07EFEB9A094D800F7BFAE8FED187B78EA8A3A400F115961BCAD1215E47C966530AF0EE8128FE
310
58CEBB996A8964FFA529A046635D9353B0336A8F700DDF46271A024E70B0B37C9DE01847591E54DED53D54202AB947E4076556AC49C6CA5C9E1226B7F1A7B1BE15DEED62C41B91E1B3E9AFAAA735036547343A925075041DF0A9979E893B391F8FCFA6967B3EFB644DCF6E5CEBFAE272625DCC6FAF3FB93793C5F90CE1EF57
310
407342756B10D1C489E8953CD1617E5CEECAD6F4EF8914CE5D5D504E5C3F1F9736DA62CFC11E00BCDDB8CC8A9466349744C1F75EBDA4DF09BA8A9E8C7A7E9991989E20E5DBDD6A6003664ED8F7A04A8DBE0DF6EAD9B9AA858342E47399053949D2C146EDB85DE4B176BB0965FBAC19BD19AA918E27FA50C1D22402E144464C
310
59462568E704B6E71915404CB72B8FF4EDE184DDAF753F284990D2C6926782963815403548A70C657FDEF80D2D9CEAA2AE4C1C76F60BFE74219A06527D6582DF6412526107381E55E353090704D085B52408D0933C4ED159D79BDA71BB4BC506F4831350EB6F979CD22D69BF7AC49B91A2C0A9DDA3D5CA36AD20FC478E37E6
310
1844E2352865EBCB6EA275A652E3836BE04EFB400BF1A2556F515F1FBB35B2AB35BD889C744FFA1004B5544B121E57F70215746DD2F5E2C1412B602CBF19455AC6C8E5E9922C4E01E65215385004546899059180EAFCF7A707CE7017CD8CDB0410789AB32C63B91E5CEBBBACB17AC6CD347A022D5075FD106377347AAABA7E
310
7D11590744509B44E205134DC1290F06580320F78E537D3D73540E06CB970B431F185308AD40BBD794D6D77003C5A36E8EAA54BA64597CD8F83BD552A080A365F7FF06504B0304140006080000CC70623B000000000000000000000000350000006662782F39464131463745442D413632322D343644302D413938332D3331
310
353338454246344243312F76657274696365732E62696E504B0304140006080800CC70623BF270F1330600000004000000360000006662782F39464131463745442D413632322D343644302D413938332D3331353338454246344243312F747269616E676C65732E62696E636660600000504B0304140006080000CC70623B
310
000000000000000000000000370000006662782F39464131463745442D413632322D343644302D413938332D3331353338454246344243312F617474726962757465732E62696E504B0304140006080800CC70623B08DA0BD19000000041010000360000006662782F39464131463745442D413632322D343644302D413938
310
332D3331353338454246344243312F6469726563746F72792E786D6C858F410AC3201045AF22B36F53E9A60B35CBEEBAE80D244E44489C6234F4F835464A48035D0DF398FF9F8AF63D0E6CC63039F212F8F9020C7D47C6792B21C5FE7403D62A1188E2E60C98D7234A5830286103A55745067B9D86B8A3CF9C7F90C11DE607
310
FB144396D7B6A82D282E9A152AD114D5EF2CB866EEE831B8EEA07A7BB5A8D7D61A2BAAEB7FD5F70921FF497D00504B0304140006080800CC70623B0D6EF93BFE000000A00100003B0000006662782F39464131463745442D413632322D343644302D413938332D3331353338454246344243312F7265736F75726365732F63
310
6F72652E786D6C8D50596E833010BD0A9ADFCA60B334011947A8694ED00B586642AC041B79A97AFC9A40A5F6AF3F33A3B7689E1E3F7DCD8FEC139DD7D6F4C0720A191A65476DA61E62B892236427C19DB5E1970C322367EC618541F0C9D9B8EC90B226A009093576C41D94DE63804C3DD2D18357379C652E63480A7FCF17A9
310
EE72C29CE5894E3AC17D702940B63D59270887DE46A7D0F36263058F518FBB468FE9A7BE6A7420864373B8D4873369AA8691FA421B3294352543C5CAF65C0F6FEF43CB8BD52C78D0F34F46E550061C419494B6843142CB0F5677F4B52BEB177AEC28E5C52AFF638ACBF84F53D42654E51E77B379102C05791282176B5F693D
310
CB4C7BED567C03504B010214000A0000080000CC70623B3DEE336E79000000790000001B00000000000000000000000000000000006175746F6465736B2D64657369676E2D7061636B6167652E786D6C504B01021400140006080800CC70623BD486FD9CA0000000F40000001300000000000000000000000000B20000005B
310
436F6E74656E745F54797065735D2E786D6C504B01021400140006080800CC70623B1EC5D7A3EB0000007C010000080000000000000000000000000083010000636F72652E786D6C504B01021400140006080800CC70623B55019EA25F0000007C000000070000000000000000000000000094020000636E782E786D6C504B
310
01021400140006080800CC70623B8C9102E971010000D40300000C00000000000000000000000000180300006662782F636F72652E786D6C504B01021400140006080800CC70623BFFEA85907E0000009D0000000B00000000000000000000000000B30400006662782F636E782E786D6C504B01021400140006080800CC70
310
623B4FEEA4082C0100001202000031000000000000000000000000005A0500006662782F39464131463745442D413632322D343644302D413938332D3331353338454246344243312F636F72652E786D6C504B01021400140006080800CC70623BAD7543B64E010000330300003000000000000000000000000000D5060000
310
6662782F39464131463745442D413632322D343644302D413938332D3331353338454246344243312F636E782E786D6C504B01021400140006080800CC70623B16AB87BA640500003C1000003400000000000000000000000000710800006662782F39464131463745442D413632322D343644302D413938332D3331353338
310
454246344243312F6F626A656374732E786D6C504B01021400140006080000CC70623B0000000000000000000000003500000000000000000000000000270E00006662782F39464131463745442D413632322D343644302D413938332D3331353338454246344243312F76657274696365732E62696E504B01021400140006
310
080800CC70623BF270F133060000000400000036000000000000000000000000007A0E00006662782F39464131463745442D413632322D343644302D413938332D3331353338454246344243312F747269616E676C65732E62696E504B01021400140006080000CC70623B0000000000000000000000003700000000000000
310
000000000000D40E00006662782F39464131463745442D413632322D343644302D413938332D3331353338454246344243312F617474726962757465732E62696E504B01021400140006080800CC70623B08DA0BD190000000410100003600000000000000000000000000290F00006662782F39464131463745442D413632
310
322D343644302D413938332D3331353338454246344243312F6469726563746F72792E786D6C504B01021400140006080800CC70623B0D6EF93BFE000000A00100003B000000000000000000000000000D1000006662782F39464131463745442D413632322D343644302D413938332D3331353338454246344243312F7265
310
736F75726365732F636F72652E786D6C504B0506000000000E000E0080040000641100000000
  0
XRECORD
  5
E
102
{ACAD_REACTORS
330
D
102
}
330
D
100
AcDbXrecord
280
     1
102
MATERIAL
148
0.0
149
0.0
149
0.0
 93
        0
 94
      127
282
     0
 72
     1
 77
     1
171
     1
175
     1
179
     1
273
     0
  0
XRECORD
  5
F
102
{ACAD_REACTORS
330
D
102
}
330
D
100
AcDbXrecord
280
     1
270
     1
271
     1
  0
XRECORD
  5
10
102
{ACAD_REACTORS
330
D
102
}
330
D
100
AcDbXrecord
280
     1
270
     1
271
     1
  0
XRECORD
  5
11
102
{ACAD_REACTORS
330
D
102
}
330
D
100
AcDbXrecord
280
     1
 70
     0
 90
1673772943
  1
ECE7A1D2-D628-4531-984C-D00F80459256
310
504B03040A0000080000CC70623B3DEE336E79000000790000001B0000006175746F6465736B2D64657369676E2D7061636B6167652E786D6C3C3F786D6C2076657273696F6E3D22312E302220656E636F64696E673D227574662D3822203F3E3C666F726D6174733E3C666F726D61743E687474703A2F2F736368656D612E
310
6175746F6465736B2E636F6D2F64657369676E2D7061636B6167652F323030393C2F666F726D61743E3C2F666F726D6174733E504B0304140006080800CC70623BD486FD9CA0000000F4000000130000005B436F6E74656E745F54797065735D2E786D6C7D8EC10E82300C865F65E91D8A1E8C310C0EEA1BF002731658846E
310
D98AC1B77784ABF1D8FE5FBFBF75BBCE937A534CCEB38643598122B6FEE978D0B0485F9C41B54DDD7D022595594E1A469170414C76A4D9A4D207E29CF43ECE46F218070CC6BECC4078ACAA135ACF422C856C0E68EA1BF5669944DDD7BCDE7B1F8E415D77AECB980613C2E4AC91FC167A2B244592486606FC29C8FD7F045B9A
310
EF7053A7E60B504B0304140006080800CC70623BD9DDAED0EC0000007C01000008000000636F72652E786D6C8D90416EC3201045AF82665B61836D9CD8C2444DD39CA01740405C94182C03558F5F9C3852BBEB6A467FFE9B197D7EF89E6EE8CB2CC17A37002D0820E394D7D68D03A478C17B4007C117EFE32F1B20272733C0
310
2A83E0E3E2D3BC49CABB685CCCAAF3DA6CA20CC14440EA969B0182FA34932C648AD911AEC52CD5558EA6A0CF2EC329598D1E47ACCEFBECC59A050463A7EA5833865FEBDD0E37353BE3EE8DBDE3F6786A48D375FBF6CC78B9C282473B3DEFABC5C86834888A900E538A49F5419B9EB47DD5BC907D4F082F57FB1F28CDFA9F50
310
B22ED6D5F6EE030B20687EE43E10BC5CB3C8E51E54AE6B6EE207504B0304140006080800CC70623B55019EA25F0000007C00000007000000636E782E786D6C4DCB3B0E80201045D1AD90E915ED2CF8AC45050C11660C8261F98AB1B07AC9C97D42D718D865D3E909258CFD00CCE24AC6E326A164D74DC0B4128928FF326038
310
472BA13128B1252AC747C6BAB984FC68F0B87FE8960A5C09FE86CFB69FBA01504B0304140006080800CC70623BA24EB22D72010000D40300000C0000006662782F636F72652E786D6CC5535B6E833010BC8AE5DF0A6C5E49888CA3A6694ED00B38E05014B091B1518EDFE511A5A9D228FD2A1F60CDEC7A67C6986DCE4D8D7A
310
69BA4AAB0C073EC548AA5C17952A33ECECD15B61B4E1CC686DBF9561A44423333CC098B3D268D7CE50AE9595CA02AA74216750749DB418E5352C32DCE59FB211BE70162ABA93DF8AFC244AE9073ED050C759670D0840D390E18DF9F1706664C23973AE2A66B62A605A75ACA4C13C4976E1364A12EF355A2EBD384AF65EFA96
310
BC7B8BED2EA6719AAE16FB8491A199335B351775B991C2CA02F390D2D40B028F861F41BCA68B7518BFD0D59A524686F29B26D7164F36B94AD9289CE54E6D1DE6010819891F6E21228B3AD1831EC219194284CF98F06DD01008846CC5A1BEF83801D4CBDC6A1303536877A57A513B0953A94FC707FDBE6064EA84A9E3E6E0FA
310
EE8CF0E9198F7784A316AA0413C2C2F2E0ECA0934D1AE6D05A69BCDE9E91D2A611F573361E38FC1375157F5752AE6B6DFE4B11990F88CCBF0719EE23FF02504B0304140006080800CC70623B408A7D3B7C0000009D0000000B0000006662782F636E782E786D6C4DCCD10A83201886E15B91FFDC552A92A0064DBC8F581632
310
D3703A76F9ABD1C18E3E78F878E5F0D9027ABBFCF2292AE86E2D20171F69F6715550CB827B40839639A5F2770314A7CD293819B45C73AAFB45B35BA61ACAA1C1C7E7855C58C15BC331339661262CC762340413D68D77DA5B42298546CBE6573AF60CEB2F504B0304140006080800CC70623B449FB9BD290100001202000031
310
0000006662782F36394639363044362D344446342D343946362D394244322D3234314243333846323333332F636F72652E786D6C8D515B6EC32010BC0AE22B55850D98B871848994463E412FE002495162B07854397EA176A4F62F3F2C9A9D991D587EB84F37F0AD7D30CEF6905418026DA553C65E7A98E219ED203808EE9D
310
8B7F6810D871D23D2C3014FCE25D9A57483A1BB58D19B54EE9151C43D0110279CB971E06F9A5A7B11A53CC8C70ADE6515EC78BAE4895DB992778883E0700CB907242D17643D7E2538BD869608875438BBAE38922CAC8F1BDD90DB4691A5E2F42C153326A951B95E398B3D1FE599322163C9AE9115F7A3D46ADA0A018778810
310
84E907617BDCEE297BC5BB3DC6BC2EF47FA234AB2745C9D8D8D035EE220B50105E2F0DC1954B9FB747187D9F9D8FA0CCDB042D5FA0C015C65B42DF78BD10F3F3B363CB56C7109DCFDFBBB97E662ED92EB62D13BC2E1BCAE5777DB9966D8A1F504B0304140006080800CC70623BAD7543B64E01000033030000300000006662
310
782F36394639363044362D344446342D343946362D394244322D3234314243333846323333332F636E782E786D6CD593CD6EC32010845F0571AD6CE3D48AD20813A9873E410FBD12D82434182C7EAAE6EDBB2424CD25871E7B41D6EC30B3FA84F9E67BB2E40B4234DE8DB46F1925E094D7C6ED479AD3AE5951B2113C789FEE
310
6C943839C1488B4C05DF079FE72A69D8C96C13AAD6B8631503449F83828872B949AC57D26200B826A308D316B4064D6E46FCDA41C05550DC9E483A00797BFD207EFB092A45DE9514C1BBD22178396BD39D891265658C238DEA00936C654E5E433CB65A26D9F6EDB5EBC14EBF49A45CB856E66048291F6939A9A81BB5C89177
310
38143CA680F4AA299D66A042CEB3354A2684DC9D8D178FE0D9B8B41CAAD720F880EE7EF93C0C18769E099ECC04D5A102C8049A8A05632F4DDF376CF1DE0F6BB65C2F8627B65A33C6BB62177CEBBDAD973006829F89F22E814B54F4BC2BE347F8AA8F681390B50FA73F804400B5F542E796F19FF974E7F78DB802FE05E20750
310
4B0304140006080800CC70623B8D05915C650500003B100000340000006662782F36394639363044362D344446342D343946362D394244322D3234314243333846323333332F6F626A656374732E786D6CAD575B6FA33814FE2B887D06429276DA1565D4266D158D3A339A6846FB502932E050B66023DB74D2FDF5FB190C01
310
9276B2973C046C8ECFF53B17071F77456EBD502133CEAE6CDF9DD81665314F32965ED995DA3A17B6F5310C04E7AA47665B8C14F4CAD6DB7618A48257A5D94AE89654B91AEDDEDDFC61C998326A5B714EA4BCB265FC440BE2924AF184CA6737218AB8E976E7FA6E4338649B0A523E8D98964450A6A029F619B8588D52FE7039
310
B1BD30F0F4F730D0FF866AF6369557DB33949F31A9088B0F848DD8CCFCF9F2767A76E99CCDE733677E3EF59D9BBB9BA5E37F984D16E78BC5E5F5ED25044B25C0C96822E8D60EEFE11B91C581D77CEA34368A1F5329E68CD1B8B61F16D63A1B8E092D294B10C78C4A48EB593D192E7DED9BDEE7995E1B91FDEDD3ACEA9FE831
310
6A756F9F7D4D79F4274C90A7A04248AA51D5F8C718DAE06FB2F75AC4796EBE65D22A88A22223B995679120E2D50E41AA49C260C046A35368846B0BECD0DFF3EBEB8AD4F835768F69B9ADF25C43D30E6B646F807FAA64AD59F61715C7A54127C4AACA98BA3006A9D792DAE165E0D59B61A01FB3A9F9D838D2DAE62445C86166
310
F37564E842E7DE6A69879FEEA2DD5AE7E371E1A5E025154AC307D06A03D73EB5978C58FFA4C8E9033066E0F3BD53BEC1F39F91BE7B55103791EDE6BBB991A2046172CB4581D8B893FA674DDA17A77B3B7C413D1B511FD2743BFF8A38F03A658705E3ADF8015C3A3417FF3D7E439FF591DA0B5F18BC20C1B8981957AE6392A3
310
F43C640C01D1A0B4728E2DD4F26DB4B3C3152A252A3B4E913CEC1C72F012782FF88EFF8637AA552DBEF76408E8A8DE9E50F9E1CB3A2DA0DB1B6039A893B56063DC5B3E3FFB5F72E67AB9FEB4AEC496C4F4C1149625DD662C53E89D7BF0F6151A046260D1337DFDC94502430F83B0EE07A130A224BCAD7DAE1D9FB6CD422FF6
310
920702629C4BB9AE79C12F243C6432A6794E18E5552BA56B431AAB5D91317302B2B071E86C3A42B1A02F999E24061403B5D0EB639195DA655DD3EBEAB4FB862DDF579F014AD0E73C22F99E28DA57FB98E75C6CA2D74D53086D600F4786E0FE3144B771A8A7B900F03594DB8A633CBC49B2EDB69228BB479CF863B5E807AAAB
310
23872F6DFEB4129B949CA33823F58830E86D65621E10047D9DB34D862E8EAC3C2ABC2F7B2C40D67CDFE01F5545B92105AF983AC54D93D69E56FB8E797F88913F898A9FEC705D3F9D1B54EC8426FB500D40A03BD0119B06E1B95DDC7EB8F6975367793EBD70E66733DFB9BC982F9CE564727731999F5D4ECFCE3B8D6A4DC2A0
310
6D50FD148437D110834A64C6CDDF57FBACB5C307A2A477DFE4939736CFEF2B175371E0E10CF0DD1D5C15654E0BCA14D1E87DD02FF93782A162C0A3D95F1524A52770F972BF1EE9809D13CE7DD599467F8ECE9ADD85CE85A34CD45355448C64F9E8A031DC2D596ACC6E5DD93D9B82DE2EF5CAF81363A8E47996A0DE24564A79
310
4115AACE09C55E14540231FDA13C319787134EBF34E3A022514E5B4D9E0826E25C02D5805B15ABE1BEF51B26383D445DD9E875EE33FE4C22DA16427D65A3BCA92CA6D28DD01DF5DC53330704308475351050232CCD31583787BA75774AFB06E5070DD0C8EF484E19968C5D83BA5B90B244D31E54D55A372320FE4786B7EA58
310
44E135AA5467CB7EA333A61683CC6A8C3257034C10CF46F40EF9F5BE59BE5BD30C3C72D235E95D10345C1D45445A5F0BB47E46A5EBE5570F9380B5FA629579952296A773720405982B9DE04011506178964401AA8BDF1FBF0A8EAB6861DD6580C0E38217056766716DAEB2D6FA0917D3E4116581EADB879C4E7CFFB11EFACD
310
3D641311495D92C8676CB409A72D18610D803CE8A626049E8EC1887CB5B44CC39883690DDA8399B4B9855B481E7D71D4A9D22F96E5BB73BF5793020C02137BF837504B0304140006080000CC70623B000000000000000000000000350000006662782F36394639363044362D344446342D343946362D394244322D32343142
310
43333846323333332F76657274696365732E62696E504B0304140006080800CC70623BF270F1330600000004000000360000006662782F36394639363044362D344446342D343946362D394244322D3234314243333846323333332F747269616E676C65732E62696E636660600000504B0304140006080000CC70623B0000
310
00000000000000000000370000006662782F36394639363044362D344446342D343946362D394244322D3234314243333846323333332F617474726962757465732E62696E504B0304140006080800CC70623B08DA0BD19000000041010000360000006662782F36394639363044362D344446342D343946362D394244322D
310
3234314243333846323333332F6469726563746F72792E786D6C858F410AC3201045AF22B36F53E9A60B35CBEEBAE80D244E44489C6234F4F835464A48035D0DF398FF9F8AF63D0E6CC63039F212F8F9020C7D47C6792B21C5FE7403D62A1188E2E60C98D7234A5830286103A55745067B9D86B8A3CF9C7F90C11DE607FB14
310
4396D7B6A82D282E9A152AD114D5EF2CB866EEE831B8EEA07A7BB5A8D7D61A2BAAEB7FD5F70921FF497D00504B0304140006080800CC70623BCA768048FE000000A00100003B0000006662782F36394639363044362D344446342D343946362D394244322D3234314243333846323333332F7265736F75726365732F636F72
310
652E786D6C8D50596E833010BD0A9ADFCA60D600328E9AA639412F609909B1126CE4A5EAF16B0295DABFFECC8CDEA2797AECF8353F924FB44E193D409E5248504B332A3D0D10FC95B4901C39B3C6F85F3248B49871801506CE266BC2B243D2688FDA47549B11775038871E12F988C7004EDE7016A9083E2ADC3D5D84BC8B09
310
D33C8D74D471E6BC8D0192EDC93A815B742658898E651BCB59086ADC356A8C3FD555A1055ED7E7E254D615792D0F075295F585746FF53B694EE78A565DD736979A65AB9933AFE69F8CD2A2F038022F28ED489E135A7CE4554F9BBEA85E68DB53CAB255FEC71496F19FA6A0B42F8B3DEE6673C0F318E4497096AD7DC5F52C33
310
EEB55BFE0D504B010214000A0000080000CC70623B3DEE336E79000000790000001B00000000000000000000000000000000006175746F6465736B2D64657369676E2D7061636B6167652E786D6C504B01021400140006080800CC70623BD486FD9CA0000000F40000001300000000000000000000000000B20000005B436F
310
6E74656E745F54797065735D2E786D6C504B01021400140006080800CC70623BD9DDAED0EC0000007C010000080000000000000000000000000083010000636F72652E786D6C504B01021400140006080800CC70623B55019EA25F0000007C000000070000000000000000000000000095020000636E782E786D6C504B0102
310
1400140006080800CC70623BA24EB22D72010000D40300000C00000000000000000000000000190300006662782F636F72652E786D6C504B01021400140006080800CC70623B408A7D3B7C0000009D0000000B00000000000000000000000000B50400006662782F636E782E786D6C504B01021400140006080800CC70623B
310
449FB9BD290100001202000031000000000000000000000000005A0500006662782F36394639363044362D344446342D343946362D394244322D3234314243333846323333332F636F72652E786D6C504B01021400140006080800CC70623BAD7543B64E010000330300003000000000000000000000000000D20600006662
310
782F36394639363044362D344446342D343946362D394244322D3234314243333846323333332F636E782E786D6C504B01021400140006080800CC70623B8D05915C650500003B10000034000000000000000000000000006E0800006662782F36394639363044362D344446342D343946362D394244322D32343142433338
310
46323333332F6F626A656374732E786D6C504B01021400140006080000CC70623B0000000000000000000000003500000000000000000000000000250E00006662782F36394639363044362D344446342D343946362D394244322D3234314243333846323333332F76657274696365732E62696E504B010214001400060808
310
00CC70623BF270F13306000000040000003600000000000000000000000000780E00006662782F36394639363044362D344446342D343946362D394244322D3234314243333846323333332F747269616E676C65732E62696E504B01021400140006080000CC70623B00000000000000000000000037000000000000000000
310
00000000D20E00006662782F36394639363044362D344446342D343946362D394244322D3234314243333846323333332F617474726962757465732E62696E504B01021400140006080800CC70623B08DA0BD190000000410100003600000000000000000000000000270F00006662782F36394639363044362D344446342D
310
343946362D394244322D3234314243333846323333332F6469726563746F72792E786D6C504B01021400140006080800CC70623BCA768048FE000000A00100003B000000000000000000000000000B1000006662782F36394639363044362D344446342D343946362D394244322D3234314243333846323333332F7265736F
310
75726365732F636F72652E786D6C504B0506000000000E000E0080040000621100000000
  0
XRECORD
  5
12
102
{ACAD_REACTORS
330
D
102
}
330
D
100
AcDbXrecord
280
     1
270
     1
271
     1
  0
XRECORD
  5
13
102
{ACAD_REACTORS
330
D
102
}
330
D
100
AcDbXrecord
280
     1
270
     1
271
     1
  0
CELLSTYLEMAP
  5
3CC
102
{ACAD_REACTORS
330
44
102
}
330
44
100
AcDbCellStyleMap
 90
        3
300
CELLSTYLE
  1
TABLEFORMAT_BEGIN
 90
        5
170
     1
 91
        0
 92
    32768
 62
   257
 93
        1
300
CONTENTFORMAT
  1
CONTENTFORMAT_BEGIN
 90
        0
 91
        0
 92
      512
 93
        0
300

 40
0.0
140
1.0
 94
        5
 62
     0
340
23
144
6.0
309
CONTENTFORMAT_END
171
     1
301
MARGIN
  1
CELLMARGIN_BEGIN
 40
1.5
 40
1.5
 40
1.5
 40
1.5
 40
0.18
 40
0.18
309
CELLMARGIN_END
 94
        6
 95
        1
302
GRIDFORMAT
  1
GRIDFORMAT_BEGIN
 90
        0
 91
        1
 62
     0
 92
       -2
340
26
 93
        0
 40
1.125
309
GRIDFORMAT_END
 95
        2
302
GRIDFORMAT
  1
GRIDFORMAT_BEGIN
 90
        0
 91
        1
 62
     0
 92
       -2
340
26
 93
        0
 40
1.125
309
GRIDFORMAT_END
 95
        4
302
GRIDFORMAT
  1
GRIDFORMAT_BEGIN
 90
        0
 91
        1
 62
     0
 92
       -2
340
26
 93
        0
 40
1.125
309
GRIDFORMAT_END
 95
        8
302
GRIDFORMAT
  1
GRIDFORMAT_BEGIN
 90
        0
 91
        1
 62
     0
 92
       -2
340
26
 93
        0
 40
1.125
309
GRIDFORMAT_END
 95
       16
302
GRIDFORMAT
  1
GRIDFORMAT_BEGIN
 90
        0
 91
        1
 62
     0
 92
       -2
340
26
 93
        0
 40
1.125
309
GRIDFORMAT_END
 95
       32
302
GRIDFORMAT
  1
GRIDFORMAT_BEGIN
 90
        0
 91
        1
 62
     0
 92
       -2
340
26
 93
        0
 40
1.125
309
GRIDFORMAT_END
309
TABLEFORMAT_END
  1
CELLSTYLE_BEGIN
 90
        1
 91
        1
300
_TITLE
309
CELLSTYLE_END
300
CELLSTYLE
  1
TABLEFORMAT_BEGIN
 90
        5
170
     1
 91
        0
 92
        0
 62
   257
 93
        1
300
CONTENTFORMAT
  1
CONTENTFORMAT_BEGIN
 90
        0
 91
        0
 92
      512
 93
        0
300

 40
0.0
140
1.0
 94
        5
 62
     0
340
23
144
4.5
309
CONTENTFORMAT_END
171
     1
301
MARGIN
  1
CELLMARGIN_BEGIN
 40
1.5
 40
1.5
 40
1.5
 40
1.5
 40
0.18
 40
0.18
309
CELLMARGIN_END
 94
        6
 95
        1
302
GRIDFORMAT
  1
GRIDFORMAT_BEGIN
 90
        0
 91
        1
 62
     0
 92
       -2
340
26
 93
        0
 40
1.125
309
GRIDFORMAT_END
 95
        2
302
GRIDFORMAT
  1
GRIDFORMAT_BEGIN
 90
        0
 91
        1
 62
     0
 92
       -2
340
26
 93
        0
 40
1.125
309
GRIDFORMAT_END
 95
        4
302
GRIDFORMAT
  1
GRIDFORMAT_BEGIN
 90
        0
 91
        1
 62
     0
 92
       -2
340
26
 93
        0
 40
1.125
309
GRIDFORMAT_END
 95
        8
302
GRIDFORMAT
  1
GRIDFORMAT_BEGIN
 90
        0
 91
        1
 62
     0
 92
       -2
340
26
 93
        0
 40
1.125
309
GRIDFORMAT_END
 95
       16
302
GRIDFORMAT
  1
GRIDFORMAT_BEGIN
 90
        0
 91
        1
 62
     0
 92
       -2
340
26
 93
        0
 40
1.125
309
GRIDFORMAT_END
 95
       32
302
GRIDFORMAT
  1
GRIDFORMAT_BEGIN
 90
        0
 91
        1
 62
     0
 92
       -2
340
26
 93
        0
 40
1.125
309
GRIDFORMAT_END
309
TABLEFORMAT_END
  1
CELLSTYLE_BEGIN
 90
        2
 91
        1
300
_HEADER
309
CELLSTYLE_END
300
CELLSTYLE
  1
TABLEFORMAT_BEGIN
 90
        5
170
     1
 91
        0
 92
        0
 62
   257
 93
        1
300
CONTENTFORMAT
  1
CONTENTFORMAT_BEGIN
 90
        0
 91
        0
 92
      512
 93
        0
300

 40
0.0
140
1.0
 94
        2
 62
     0
340
23
144
4.5
309
CONTENTFORMAT_END
171
     1
301
MARGIN
  1
CELLMARGIN_BEGIN
 40
1.5
 40
1.5
 40
1.5
 40
1.5
 40
0.18
 40
0.18
309
CELLMARGIN_END
 94
        6
 95
        1
302
GRIDFORMAT
  1
GRIDFORMAT_BEGIN
 90
        0
 91
        1
 62
     0
 92
       -2
340
26
 93
        0
 40
1.125
309
GRIDFORMAT_END
 95
        2
302
GRIDFORMAT
  1
GRIDFORMAT_BEGIN
 90
        0
 91
        1
 62
     0
 92
       -2
340
26
 93
        0
 40
1.125
309
GRIDFORMAT_END
 95
        4
302
GRIDFORMAT
  1
GRIDFORMAT_BEGIN
 90
        0
 91
        1
 62
     0
 92
       -2
340
26
 93
        0
 40
1.125
309
GRIDFORMAT_END
 95
        8
302
GRIDFORMAT
  1
GRIDFORMAT_BEGIN
 90
        0
 91
        1
 62
     0
 92
       -2
340
26
 93
        0
 40
1.125
309
GRIDFORMAT_END
 95
       16
302
GRIDFORMAT
  1
GRIDFORMAT_BEGIN
 90
        0
 91
        1
 62
     0
 92
       -2
340
26
 93
        0
 40
1.125
309
GRIDFORMAT_END
 95
       32
302
GRIDFORMAT
  1
GRIDFORMAT_BEGIN
 90
        0
 91
        1
 62
     0
 92
       -2
340
26
 93
        0
 40
1.125
309
GRIDFORMAT_END
309
TABLEFORMAT_END
  1
CELLSTYLE_BEGIN
 90
        3
 91
        2
300
_DATA
309
CELLSTYLE_END
  0
XRECORD
  5
3D8
102
{ACAD_REACTORS
330
44
102
}
330
44
100
AcDbXrecord
280
     1
102
ACAD_ROUNDTRIP_PRE2007_TABLESTYLE
 90
      512
 91
        0
  1

 92
      512
 93
        0
  2

 94
      512
 95
        0
  3

  0
XRECORD
  5
3D7
102
{ACAD_REACTORS
330
3D6
102
}
330
3D6
100
AcDbXrecord
280
     1
102
RTVSPost2010Prop28
280
     1
102
RTVSPost2010PropOp28
 70
     1
102
RTVSPost2010Prop29
280
     1
102
RTVSPost2010PropOp29
 70
     1
102
RTVSPost2010Prop30
280
     0
102
RTVSPost2010PropOp30
 70
     1
102
RTVSPost2010Prop31
280
     0
102
RTVSPost2010PropOp31
 70
     1
102
RTVSPost2010Prop32
280
     0
102
RTVSPost2010PropOp32
 70
     1
102
RTVSPost2010Prop33
280
     0
102
RTVSPost2010PropOp33
 70
     1
102
RTVSPost2010Prop34
280
     0
102
RTVSPost2010PropOp34
 70
     1
102
RTVSPost2010Prop35
280
     0
102
RTVSPost2010PropOp35
 70
     1
102
RTVSPost2010Prop36
280
     0
102
RTVSPost2010PropOp36
 70
     1
102
RTVSPost2010Prop37
 90
       50
102
RTVSPost2010PropOp37
 70
     1
102
RTVSPost2010Prop38
140
0.0
102
RTVSPost2010PropOp38
 70
     1
102
RTVSPost2010Prop39
140
1.0
102
RTVSPost2010PropOp39
 70
     1
102
RTVSPost2010Prop40
 90
        0
102
RTVSPost2010PropOp40
 70
     1
102
RTVSPost2010Prop41ColorIndex
 90
       18
102
RTVSPost2010Prop41ColorRGB
 90
        0
102
RTVSPost2010PropOp41
 70
     1
102
RTVSPost2010Prop42
 90
       50
102
RTVSPost2010PropOp42
 70
     1
102
RTVSPost2010Prop43
 90
        3
102
RTVSPost2010PropOp43
 70
     1
102
RTVSPost2010Prop44ColorIndex
 90
        5
102
RTVSPost2010Prop44ColorRGB
 90
      255
102
RTVSPost2010PropOp44
 70
     1
102
RTVSPost2010Prop45
280
     0
102
RTVSPost2010PropOp45
 70
     1
102
RTVSPost2010Prop46
 90
       50
102
RTVSPost2010PropOp46
 70
     1
102
RTVSPost2010Prop47
 90
       50
102
RTVSPost2010PropOp47
 70
     1
102
RTVSPost2010Prop48
 90
       50
102
RTVSPost2010PropOp48
 70
     1
102
RTVSPost2010Prop49
280
     0
102
RTVSPost2010PropOp49
 70
     1
102
RTVSPost2010Prop50
 90
       50
102
RTVSPost2010PropOp50
 70
     1
102
RTVSPost2010Prop51ColorIndex
 90
      256
102
RTVSPost2010Prop51ColorRGB
 90
-16777216
102
RTVSPost2010PropOp51
 70
     0
102
RTVSPost2010Prop52
140
1.0
102
RTVSPost2010PropOp52
 70
     0
102
RTVSPost2010Prop53
 90
        2
102
RTVSPost2010PropOp53
 70
     1
102
RTVSPost2010Prop54
  1
strokes_ogs.tif
102
RTVSPost2010PropOp54
 70
     1
102
RTVSPost2010Prop55
280
     0
102
RTVSPost2010PropOp55
 70
     1
102
RTVSPost2010Prop56
140
1.0
102
RTVSPost2010PropOp56
 70
     1
102
RTVSPost2010Prop57
140
1.0
102
RTVSPost2010PropOp57
 70
     1
102
RTVSPropertyOp0
 70
     1
102
RTVSPropertyOp1
 70
     1
102
RTVSPropertyOp2
 70
     1
102
RTVSPropertyOp3
 70
     1
102
RTVSPropertyOp4
 70
     1
102
RTVSPropertyOp5
 70
     1
102
RTVSPropertyOp6
 70
     1
102
RTVSPropertyOp7
 70
     1
102
RTVSPropertyOp8
 70
     1
102
RTVSPropertyOp9
 70
     1
102
RTVSPropertyOp10
 70
     1
102
RTVSPropertyOp11
 70
     1
102
RTVSPropertyOp12
 70
     1
102
RTVSPropertyOp13
 70
     1
102
RTVSPropertyOp14
 70
     1
102
RTVSPropertyOp15
 70
     1
102
RTVSPropertyOp16
 70
     1
102
RTVSPropertyOp17
 70
     1
102
RTVSPropertyOp18
 70
     1
102
RTVSPropertyOp19
 70
     1
102
RTVSPropertyOp20
 70
     1
102
RTVSPropertyOp21
 70
     1
102
RTVSPropertyOp22
 70
     1
102
RTVSPropertyOp23
 70
     1
102
RTVSPropertyOp24
 70
     1
102
RTVSPropertyOp25
 70
     1
102
RTVSPropertyOp26
 70
     1
102
RTVSPropertyOp27
 70
     1
102
RTVSPropertyOp28
 70
     1
102
RTVSPropertyOp29
 70
     1
102
RTVSPropertyOp30
 70
     1
102
RTVSPropertyOp31
 70
     1
102
RTVSPropertyOp32
 70
     1
102
RTVSPropertyOp33
 70
     1
102
RTVSPropertyOp34
 70
     1
102
RTVSPropertyOp35
 70
     1
102
RTVSPropertyOp36
 70
     1
102
RTVSPropertyOp37
 70
     1
102
RTVSPropertyOp38
 70
     1
102
RTVSPropertyOp39
 70
     1
102
RTVSPropertyOp40
 70
     1
102
RTVSPropertyOp41
 70
     1
102
RTVSPropertyOp42
 70
     1
102
RTVSPropertyOp43
 70
     1
102
RTVSPropertyOp44
 70
     1
102
RTVSPropertyOp45
 70
     1
102
RTVSPropertyOp46
 70
     1
102
RTVSPropertyOp47
 70
     1
102
RTVSPropertyOp48
 70
     1
102
RTVSPropertyOp49
 70
     1
102
RTVSPropertyOp50
 70
     1
102
RTVSPropertyOp51
 70
     0
102
RTVSPropertyOp52
 70
     0
102
RTVSPropertyOp53
 70
     1
102
RTVSPropertyOp54
 70
     1
102
RTVSPropertyOp55
 70
     1
102
RTVSPropertyOp56
 70
     1
102
RTVSPropertyOp57
 70
     1
102
RTVSPropertyOp58
 70
     1
102
RTVSPropertyOp59
 70
     1
102
RTVSPropertyOp60
 70
     1
102
RTVSPropertyOp61
 70
     1
102
RTVSPropertyOp62
 70
     1
  0
XRECORD
  5
3DA
102
{ACAD_REACTORS
330
3D9
102
}
330
3D9
100
AcDbXrecord
280
     1
102
RTVSPost2010Prop28
280
     0
102
RTVSPost2010PropOp28
 70
     1
102
RTVSPost2010Prop29
280
     1
102
RTVSPost2010PropOp29
 70
     1
102
RTVSPost2010Prop30
280
     1
102
RTVSPost2010PropOp30
 70
     1
102
RTVSPost2010Prop31
280
     0
102
RTVSPost2010PropOp31
 70
     1
102
RTVSPost2010Prop32
280
     0
102
RTVSPost2010PropOp32
 70
     1
102
RTVSPost2010Prop33
280
     0
102
RTVSPost2010PropOp33
 70
     1
102
RTVSPost2010Prop34
280
     0
102
RTVSPost2010PropOp34
 70
     1
102
RTVSPost2010Prop35
280
     0
102
RTVSPost2010PropOp35
 70
     1
102
RTVSPost2010Prop36
280
     0
102
RTVSPost2010PropOp36
 70
     1
102
RTVSPost2010Prop37
 90
       50
102
RTVSPost2010PropOp37
 70
     1
102
RTVSPost2010Prop38
140
0.0
102
RTVSPost2010PropOp38
 70
     1
102
RTVSPost2010Prop39
140
1.0
102
RTVSPost2010PropOp39
 70
     1
102
RTVSPost2010Prop40
 90
        0
102
RTVSPost2010PropOp40
 70
     1
102
RTVSPost2010Prop41ColorIndex
 90
       18
102
RTVSPost2010Prop41ColorRGB
 90
        0
102
RTVSPost2010PropOp41
 70
     1
102
RTVSPost2010Prop42
 90
       50
102
RTVSPost2010PropOp42
 70
     1
102
RTVSPost2010Prop43
 90
        3
102
RTVSPost2010PropOp43
 70
     1
102
RTVSPost2010Prop44ColorIndex
 90
        5
102
RTVSPost2010Prop44ColorRGB
 90
      255
102
RTVSPost2010PropOp44
 70
     1
102
RTVSPost2010Prop45
280
     0
102
RTVSPost2010PropOp45
 70
     1
102
RTVSPost2010Prop46
 90
       50
102
RTVSPost2010PropOp46
 70
     1
102
RTVSPost2010Prop47
 90
       50
102
RTVSPost2010PropOp47
 70
     1
102
RTVSPost2010Prop48
 90
       50
102
RTVSPost2010PropOp48
 70
     1
102
RTVSPost2010Prop49
280
     0
102
RTVSPost2010PropOp49
 70
     1
102
RTVSPost2010Prop50
 90
       50
102
RTVSPost2010PropOp50
 70
     1
102
RTVSPost2010Prop51ColorIndex
 90
      256
102
RTVSPost2010Prop51ColorRGB
 90
-16777216
102
RTVSPost2010PropOp51
 70
     0
102
RTVSPost2010Prop52
140
1.0
102
RTVSPost2010PropOp52
 70
     0
102
RTVSPost2010Prop53
 90
        2
102
RTVSPost2010PropOp53
 70
     1
102
RTVSPost2010Prop54
  1
strokes_ogs.tif
102
RTVSPost2010PropOp54
 70
     1
102
RTVSPost2010Prop55
280
     0
102
RTVSPost2010PropOp55
 70
     1
102
RTVSPost2010Prop56
140
1.0
102
RTVSPost2010PropOp56
 70
     1
102
RTVSPost2010Prop57
140
1.0
102
RTVSPost2010PropOp57
 70
     1
102
RTVSPropertyOp0
 70
     1
102
RTVSPropertyOp1
 70
     1
102
RTVSPropertyOp2
 70
     1
102
RTVSPropertyOp3
 70
     1
102
RTVSPropertyOp4
 70
     1
102
RTVSPropertyOp5
 70
     1
102
RTVSPropertyOp6
 70
     1
102
RTVSPropertyOp7
 70
     1
102
RTVSPropertyOp8
 70
     1
102
RTVSPropertyOp9
 70
     1
102
RTVSPropertyOp10
 70
     1
102
RTVSPropertyOp11
 70
     1
102
RTVSPropertyOp12
 70
     1
102
RTVSPropertyOp13
 70
     1
102
RTVSPropertyOp14
 70
     1
102
RTVSPropertyOp15
 70
     1
102
RTVSPropertyOp16
 70
     1
102
RTVSPropertyOp17
 70
     1
102
RTVSPropertyOp18
 70
     1
102
RTVSPropertyOp19
 70
     1
102
RTVSPropertyOp20
 70
     1
102
RTVSPropertyOp21
 70
     1
102
RTVSPropertyOp22
 70
     1
102
RTVSPropertyOp23
 70
     1
102
RTVSPropertyOp24
 70
     1
102
RTVSPropertyOp25
 70
     1
102
RTVSPropertyOp26
 70
     1
102
RTVSPropertyOp27
 70
     1
102
RTVSPropertyOp28
 70
     1
102
RTVSPropertyOp29
 70
     1
102
RTVSPropertyOp30
 70
     1
102
RTVSPropertyOp31
 70
     1
102
RTVSPropertyOp32
 70
     1
102
RTVSPropertyOp33
 70
     1
102
RTVSPropertyOp34
 70
     1
102
RTVSPropertyOp35
 70
     1
102
RTVSPropertyOp36
 70
     1
102
RTVSPropertyOp37
 70
     1
102
RTVSPropertyOp38
 70
     1
102
RTVSPropertyOp39
 70
     1
102
RTVSPropertyOp40
 70
     1
102
RTVSPropertyOp41
 70
     1
102
RTVSPropertyOp42
 70
     1
102
RTVSPropertyOp43
 70
     1
102
RTVSPropertyOp44
 70
     1
102
RTVSPropertyOp45
 70
     1
102
RTVSPropertyOp46
 70
     1
102
RTVSPropertyOp47
 70
     1
102
RTVSPropertyOp48
 70
     1
102
RTVSPropertyOp49
 70
     1
102
RTVSPropertyOp50
 70
     1
102
RTVSPropertyOp51
 70
     0
102
RTVSPropertyOp52
 70
     0
102
RTVSPropertyOp53
 70
     1
102
RTVSPropertyOp54
 70
     1
102
RTVSPropertyOp55
 70
     1
102
RTVSPropertyOp56
 70
     1
102
RTVSPropertyOp57
 70
     1
102
RTVSPropertyOp58
 70
     1
102
RTVSPropertyOp59
 70
     1
102
RTVSPropertyOp60
 70
     1
102
RTVSPropertyOp61
 70
     1
102
RTVSPropertyOp62
 70
     1
  0
XRECORD
  5
3DC
102
{ACAD_REACTORS
330
3DB
102
}
330
3DB
100
AcDbXrecord
280
     1
102
RTVSPost2010Prop28
280
     0
102
RTVSPost2010PropOp28
 70
     1
102
RTVSPost2010Prop29
280
     1
102
RTVSPost2010PropOp29
 70
     1
102
RTVSPost2010Prop30
280
     1
102
RTVSPost2010PropOp30
 70
     1
102
RTVSPost2010Prop31
280
     0
102
RTVSPost2010PropOp31
 70
     1
102
RTVSPost2010Prop32
280
     0
102
RTVSPost2010PropOp32
 70
     1
102
RTVSPost2010Prop33
280
     0
102
RTVSPost2010PropOp33
 70
     1
102
RTVSPost2010Prop34
280
     0
102
RTVSPost2010PropOp34
 70
     1
102
RTVSPost2010Prop35
280
     0
102
RTVSPost2010PropOp35
 70
     1
102
RTVSPost2010Prop36
280
     0
102
RTVSPost2010PropOp36
 70
     1
102
RTVSPost2010Prop37
 90
       50
102
RTVSPost2010PropOp37
 70
     1
102
RTVSPost2010Prop38
140
0.0
102
RTVSPost2010PropOp38
 70
     1
102
RTVSPost2010Prop39
140
1.0
102
RTVSPost2010PropOp39
 70
     1
102
RTVSPost2010Prop40
 90
        0
102
RTVSPost2010PropOp40
 70
     1
102
RTVSPost2010Prop41ColorIndex
 90
       18
102
RTVSPost2010Prop41ColorRGB
 90
        0
102
RTVSPost2010PropOp41
 70
     1
102
RTVSPost2010Prop42
 90
       50
102
RTVSPost2010PropOp42
 70
     1
102
RTVSPost2010Prop43
 90
        3
102
RTVSPost2010PropOp43
 70
     1
102
RTVSPost2010Prop44ColorIndex
 90
        5
102
RTVSPost2010Prop44ColorRGB
 90
      255
102
RTVSPost2010PropOp44
 70
     1
102
RTVSPost2010Prop45
280
     0
102
RTVSPost2010PropOp45
 70
     1
102
RTVSPost2010Prop46
 90
       50
102
RTVSPost2010PropOp46
 70
     1
102
RTVSPost2010Prop47
 90
       50
102
RTVSPost2010PropOp47
 70
     1
102
RTVSPost2010Prop48
 90
       50
102
RTVSPost2010PropOp48
 70
     1
102
RTVSPost2010Prop49
280
     0
102
RTVSPost2010PropOp49
 70
     1
102
RTVSPost2010Prop50
 90
       50
102
RTVSPost2010PropOp50
 70
     1
102
RTVSPost2010Prop51ColorIndex
 90
      256
102
RTVSPost2010Prop51ColorRGB
 90
-16777216
102
RTVSPost2010PropOp51
 70
     0
102
RTVSPost2010Prop52
140
1.0
102
RTVSPost2010PropOp52
 70
     0
102
RTVSPost2010Prop53
 90
        2
102
RTVSPost2010PropOp53
 70
     1
102
RTVSPost2010Prop54
  1
strokes_ogs.tif
102
RTVSPost2010PropOp54
 70
     1
102
RTVSPost2010Prop55
280
     0
102
RTVSPost2010PropOp55
 70
     1
102
RTVSPost2010Prop56
140
1.0
102
RTVSPost2010PropOp56
 70
     1
102
RTVSPost2010Prop57
140
1.0
102
RTVSPost2010PropOp57
 70
     1
102
RTVSPropertyOp0
 70
     1
102
RTVSPropertyOp1
 70
     1
102
RTVSPropertyOp2
 70
     1
102
RTVSPropertyOp3
 70
     1
102
RTVSPropertyOp4
 70
     1
102
RTVSPropertyOp5
 70
     1
102
RTVSPropertyOp6
 70
     1
102
RTVSPropertyOp7
 70
     1
102
RTVSPropertyOp8
 70
     1
102
RTVSPropertyOp9
 70
     1
102
RTVSPropertyOp10
 70
     1
102
RTVSPropertyOp11
 70
     1
102
RTVSPropertyOp12
 70
     1
102
RTVSPropertyOp13
 70
     1
102
RTVSPropertyOp14
 70
     1
102
RTVSPropertyOp15
 70
     1
102
RTVSPropertyOp16
 70
     1
102
RTVSPropertyOp17
 70
     1
102
RTVSPropertyOp18
 70
     1
102
RTVSPropertyOp19
 70
     1
102
RTVSPropertyOp20
 70
     1
102
RTVSPropertyOp21
 70
     1
102
RTVSPropertyOp22
 70
     1
102
RTVSPropertyOp23
 70
     1
102
RTVSPropertyOp24
 70
     1
102
RTVSPropertyOp25
 70
     1
102
RTVSPropertyOp26
 70
     1
102
RTVSPropertyOp27
 70
     1
102
RTVSPropertyOp28
 70
     1
102
RTVSPropertyOp29
 70
     1
102
RTVSPropertyOp30
 70
     1
102
RTVSPropertyOp31
 70
     1
102
RTVSPropertyOp32
 70
     1
102
RTVSPropertyOp33
 70
     1
102
RTVSPropertyOp34
 70
     1
102
RTVSPropertyOp35
 70
     1
102
RTVSPropertyOp36
 70
     1
102
RTVSPropertyOp37
 70
     1
102
RTVSPropertyOp38
 70
     1
102
RTVSPropertyOp39
 70
     1
102
RTVSPropertyOp40
 70
     1
102
RTVSPropertyOp41
 70
     1
102
RTVSPropertyOp42
 70
     1
102
RTVSPropertyOp43
 70
     1
102
RTVSPropertyOp44
 70
     1
102
RTVSPropertyOp45
 70
     1
102
RTVSPropertyOp46
 70
     1
102
RTVSPropertyOp47
 70
     1
102
RTVSPropertyOp48
 70
     1
102
RTVSPropertyOp49
 70
     1
102
RTVSPropertyOp50
 70
     1
102
RTVSPropertyOp51
 70
     0
102
RTVSPropertyOp52
 70
     0
102
RTVSPropertyOp53
 70
     1
102
RTVSPropertyOp54
 70
     1
102
RTVSPropertyOp55
 70
     1
102
RTVSPropertyOp56
 70
     1
102
RTVSPropertyOp57
 70
     1
102
RTVSPropertyOp58
 70
     1
102
RTVSPropertyOp59
 70
     1
102
RTVSPropertyOp60
 70
     1
102
RTVSPropertyOp61
 70
     1
102
RTVSPropertyOp62
 70
     1
  0
ENDSEC
  0
EOF
