  0
SECTION
  2
HEADER
  9
$ACADVER
  1
AC1018
  9
$ACADMAINTVER
 70
   104
  9
$DWGCODEPAGE
  3
ANSI_932
  9
$INSBASE
 10
0.0
 20
0.0
 30
0.0
  9
$EXTMIN
 10
1.716008208233319
 20
0.9711703488436569
 30
-0.0000000349181948
  9
$EXTMAX
 10
51.72172245289513
 20
23.98336173575598
 30
0.0000000814935746
  9
$LIMMIN
 10
-6.946406986082934
 20
-5.497179226551622
  9
$LIMMAX
 10
58.28397696892716
 20
29.57146338831922
  9
$ORTHOMODE
 70
     1
  9
$REGENMODE
 70
     1
  9
$FILLMODE
 70
     1
  9
$QTEXTMODE
 70
     0
  9
$MIRRTEXT
 70
     0
  9
$LTSCALE
 40
1.0
  9
$ATTMODE
 70
     1
  9
$TEXTSIZE
 40
2.5
  9
$TRACEWID
 40
1.0
  9
$TEXTSTYLE
  7
Standard
  9
$CLAYER
  8
0
  9
$CELTYPE
  6
ByLayer
  9
$CECOLOR
 62
   256
  9
$CELTSCALE
 40
1.0
  9
$DISPSILH
 70
     0
  9
$DIMSCALE
 40
1.0
  9
$DIMASZ
 40
2.5
  9
$DIMEXO
 40
0.625
  9
$DIMDLI
 40
3.75
  9
$DIMRND
 40
0.0
  9
$DIMDLE
 40
0.0
  9
$DIMEXE
 40
1.25
  9
$DIMTP
 40
0.0
  9
$DIMTM
 40
0.0
  9
$DIMTXT
 40
2.5
  9
$DIMCEN
 40
2.5
  9
$DIMTSZ
 40
0.0
  9
$DIMTOL
 70
     0
  9
$DIMLIM
 70
     0
  9
$DIMTIH
 70
     0
  9
$DIMTOH
 70
     0
  9
$DIMSE1
 70
     0
  9
$DIMSE2
 70
     0
  9
$DIMTAD
 70
     1
  9
$DIMZIN
 70
     8
  9
$DIMBLK
  1

  9
$DIMASO
 70
     1
  9
$DIMSHO
 70
     1
  9
$DIMPOST
  1

  9
$DIMAPOST
  1

  9
$DIMALT
 70
     0
  9
$DIMALTD
 70
     3
  9
$DIMALTF
 40
0.03937007874016
  9
$DIMLFAC
 40
1.0
  9
$DIMTOFL
 70
     1
  9
$DIMTVP
 40
0.0
  9
$DIMTIX
 70
     0
  9
$DIMSOXD
 70
     0
  9
$DIMSAH
 70
     0
  9
$DIMBLK1
  1

  9
$DIMBLK2
  1

  9
$DIMSTYLE
  2
ISO-25
  9
$DIMCLRD
 70
     0
  9
$DIMCLRE
 70
     0
  9
$DIMCLRT
 70
     0
  9
$DIMTFAC
 40
1.0
  9
$DIMGAP
 40
0.625
  9
$DIMJUST
 70
     0
  9
$DIMSD1
 70
     0
  9
$DIMSD2
 70
     0
  9
$DIMTOLJ
 70
     0
  9
$DIMTZIN
 70
     8
  9
$DIMALTZ
 70
     0
  9
$DIMALTTZ
 70
     0
  9
$DIMUPT
 70
     0
  9
$DIMDEC
 70
     2
  9
$DIMTDEC
 70
     2
  9
$DIMALTU
 70
     2
  9
$DIMALTTD
 70
     3
  9
$DIMTXSTY
  7
Standard
  9
$DIMAUNIT
 70
     0
  9
$DIMADEC
 70
     0
  9
$DIMALTRND
 40
0.0
  9
$DIMAZIN
 70
     0
  9
$DIMDSEP
 70
    44
  9
$DIMATFIT
 70
     3
  9
$DIMFRAC
 70
     0
  9
$DIMLDRBLK
  1

  9
$DIMLUNIT
 70
     2
  9
$DIMLWD
 70
    -2
  9
$DIMLWE
 70
    -2
  9
$DIMTMOVE
 70
     0
  9
$LUNITS
 70
     2
  9
$LUPREC
 70
     4
  9
$SKETCHINC
 40
1.0
  9
$FILLETRAD
 40
0.0
  9
$AUNITS
 70
     0
  9
$AUPREC
 70
     0
  9
$MENU
  1
.
  9
$ELEVATION
 40
0.0
  9
$PELEVATION
 40
0.0
  9
$THICKNESS
 40
0.0
  9
$LIMCHECK
 70
     0
  9
$CHAMFERA
 40
0.0
  9
$CHAMFERB
 40
0.0
  9
$CHAMFERC
 40
0.0
  9
$CHAMFERD
 40
0.0
  9
$SKPOLY
 70
     0
  9
$TDCREATE
 40
2458205.436967593
  9
$TDUCREATE
 40
2458205.103634259
  9
$TDUPDATE
 40
2458940.714004630
  9
$TDUUPDATE
 40
2458940.380671296
  9
$TDINDWG
 40
0.0164699074
  9
$TDUSRTIMER
 40
0.0164699074
  9
$USRTIMER
 70
     1
  9
$ANGBASE
 50
0.0
  9
$ANGDIR
 70
     0
  9
$PDMODE
 70
     0
  9
$PDSIZE
 40
0.0
  9
$PLINEWID
 40
0.0
  9
$SPLFRAME
 70
     0
  9
$SPLINETYPE
 70
     6
  9
$SPLINESEGS
 70
     8
  9
$HANDSEED
  5
41D
  9
$SURFTAB1
 70
     6
  9
$SURFTAB2
 70
     6
  9
$SURFTYPE
 70
     6
  9
$SURFU
 70
     6
  9
$SURFV
 70
     6
  9
$UCSBASE
  2

  9
$UCSNAME
  2

  9
$UCSORG
 10
0.0
 20
0.0
 30
0.0
  9
$UCSXDIR
 10
1.0
 20
0.0
 30
0.0
  9
$UCSYDIR
 10
0.0
 20
1.0
 30
0.0
  9
$UCSORTHOREF
  2

  9
$UCSORTHOVIEW
 70
     0
  9
$UCSORGTOP
 10
0.0
 20
0.0
 30
0.0
  9
$UCSORGBOTTOM
 10
0.0
 20
0.0
 30
0.0
  9
$UCSORGLEFT
 10
0.0
 20
0.0
 30
0.0
  9
$UCSORGRIGHT
 10
0.0
 20
0.0
 30
0.0
  9
$UCSORGFRONT
 10
0.0
 20
0.0
 30
0.0
  9
$UCSORGBACK
 10
0.0
 20
0.0
 30
0.0
  9
$PUCSBASE
  2

  9
$PUCSNAME
  2

  9
$PUCSORG
 10
0.0
 20
0.0
 30
0.0
  9
$PUCSXDIR
 10
1.0
 20
0.0
 30
0.0
  9
$PUCSYDIR
 10
0.0
 20
1.0
 30
0.0
  9
$PUCSORTHOREF
  2

  9
$PUCSORTHOVIEW
 70
     0
  9
$PUCSORGTOP
 10
0.0
 20
0.0
 30
0.0
  9
$PUCSORGBOTTOM
 10
0.0
 20
0.0
 30
0.0
  9
$PUCSORGLEFT
 10
0.0
 20
0.0
 30
0.0
  9
$PUCSORGRIGHT
 10
0.0
 20
0.0
 30
0.0
  9
$PUCSORGFRONT
 10
0.0
 20
0.0
 30
0.0
  9
$PUCSORGBACK
 10
0.0
 20
0.0
 30
0.0
  9
$USERI1
 70
     0
  9
$USERI2
 70
     0
  9
$USERI3
 70
     0
  9
$USERI4
 70
     0
  9
$USERI5
 70
     0
  9
$USERR1
 40
0.0
  9
$USERR2
 40
0.0
  9
$USERR3
 40
0.0
  9
$USERR4
 40
0.0
  9
$USERR5
 40
0.0
  9
$WORLDVIEW
 70
     1
  9
$SHADEDGE
 70
     3
  9
$SHADEDIF
 70
    70
  9
$TILEMODE
 70
     1
  9
$MAXACTVP
 70
    64
  9
$PINSBASE
 10
0.0
 20
0.0
 30
0.0
  9
$PLIMCHECK
 70
     0
  9
$PEXTMIN
 10
0.0
 20
0.0
 30
0.0
  9
$PEXTMAX
 10
0.0
 20
0.0
 30
0.0
  9
$PLIMMIN
 10
0.0
 20
0.0
  9
$PLIMMAX
 10
12.0
 20
9.0
  9
$UNITMODE
 70
     0
  9
$VISRETAIN
 70
     1
  9
$PLINEGEN
 70
     0
  9
$PSLTSCALE
 70
     1
  9
$TREEDEPTH
 70
  3020
  9
$CMLSTYLE
  2
Standard
  9
$CMLJUST
 70
     0
  9
$CMLSCALE
 40
20.0
  9
$PROXYGRAPHICS
 70
     1
  9
$MEASUREMENT
 70
     1
  9
$CELWEIGHT
370
    -1
  9
$ENDCAPS
280
     0
  9
$JOINSTYLE
280
     0
  9
$LWDISPLAY
290
     0
  9
$INSUNITS
 70
     4
  9
$HYPERLINKBASE
  1

  9
$STYLESHEET
  1

  9
$XEDIT
290
     1
  9
$CEPSNTYPE
380
     0
  9
$PSTYLEMODE
290
     1
  9
$FINGERPRINTGUID
  2
{E28C9F6C-1713-CB49-ACF2-088DA72AB4D7}
  9
$VERSIONGUID
  2
{63FDE8D6-8527-6F48-984C-BA33DC533CB6}
  9
$EXTNAMES
290
     1
  9
$PSVPSCALE
 40
0.0
  9
$OLESTARTUP
290
     0
  9
$SORTENTS
280
   127
  9
$INDEXCTL
280
     0
  9
$HIDETEXT
280
     1
  9
$XCLIPFRAME
290
     0
  9
$HALOGAP
280
     0
  9
$OBSCOLOR
 70
   257
  9
$OBSLTYPE
280
     0
  9
$INTERSECTIONDISPLAY
280
     0
  9
$INTERSECTIONCOLOR
 70
   257
  9
$DIMASSOC
280
     2
  9
$PROJECTNAME
  1

  0
ENDSEC
  0
SECTION
  2
CLASSES
  0
CLASS
  1
ACDBDICTIONARYWDFLT
  2
AcDbDictionaryWithDefault
  3
ObjectDBX Classes
 90
        0
 91
        1
280
     0
281
     0
  0
CLASS
  1
DICTIONARYVAR
  2
AcDbDictionaryVar
  3
ObjectDBX Classes
 90
        0
 91
       12
280
     0
281
     0
  0
CLASS
  1
TABLESTYLE
  2
AcDbTableStyle
  3
ObjectDBX Classes
 90
     4095
 91
        1
280
     0
281
     0
  0
CLASS
  1
MATERIAL
  2
AcDbMaterial
  3
ObjectDBX Classes
 90
     1153
 91
        3
280
     0
281
     0
  0
CLASS
  1
VISUALSTYLE
  2
AcDbVisualStyle
  3
ObjectDBX Classes
 90
     4095
 91
        3
280
     0
281
     0
  0
CLASS
  1
SCALE
  2
AcDbScale
  3
ObjectDBX Classes
 90
     1153
 91
       17
280
     0
281
     0
  0
CLASS
  1
MLEADERSTYLE
  2
AcDbMLeaderStyle
  3
ACDB_MLEADERSTYLE_CLASS
 90
     4095
 91
        0
280
     0
281
     0
  0
CLASS
  1
CELLSTYLEMAP
  2
AcDbCellStyleMap
  3
ObjectDBX Classes
 90
     1152
 91
        1
280
     0
281
     0
  0
CLASS
  1
EXACXREFPANELOBJECT
  2
ExAcXREFPanelObject
  3
EXAC_ESW
 90
     1025
 91
        0
280
     1
281
     0
  0
CLASS
  1
NPOCOLLECTION
  2
AcDbImpNonPersistentObjectsCollection
  3
ObjectDBX Classes
 90
     1153
 91
        0
280
     0
281
     0
  0
CLASS
  1
LAYER_INDEX
  2
AcDbLayerIndex
  3
ObjectDBX Classes
 90
        0
 91
        0
280
     0
281
     0
  0
CLASS
  1
SPATIAL_INDEX
  2
AcDbSpatialIndex
  3
ObjectDBX Classes
 90
        0
 91
        0
280
     0
281
     0
  0
CLASS
  1
IDBUFFER
  2
AcDbIdBuffer
  3
ObjectDBX Classes
 90
        0
 91
        0
280
     0
281
     0
  0
CLASS
  1
ACDBSECTIONVIEWSTYLE
  2
AcDbSectionViewStyle
  3
ObjectDBX Classes
 90
     1025
 91
        0
280
     0
281
     0
  0
CLASS
  1
ACDBDETAILVIEWSTYLE
  2
AcDbDetailViewStyle
  3
ObjectDBX Classes
 90
     1025
 91
        0
280
     0
281
     0
  0
CLASS
  1
SORTENTSTABLE
  2
AcDbSortentsTable
  3
ObjectDBX Classes
 90
        0
 91
        2
280
     0
281
     0
  0
CLASS
  1
DIMASSOC
  2
AcDbDimAssoc
  3
"AcDbDimAssoc|Product Desc:     AcDim ARX App For Dimension|Company:          Autodesk, Inc.|WEB Address:      www.autodesk.com"
 90
        0
 91
        0
280
     0
281
     0
  0
ENDSEC
  0
SECTION
  2
TABLES
  0
TABLE
  2
VPORT
  5
2A
330
0
100
AcDbSymbolTable
 70
     1
  0
VPORT
  5
2B
330
2A
100
AcDbSymbolTableRecord
100
AcDbViewportTableRecord
  2
*Active
 70
     0
 10
0.0
 20
0.0
 11
1.0
 21
1.0
 12
25.66878499142212
 22
12.0371420808838
 13
0.0
 23
0.0
 14
10.0
 24
10.0
 15
10.0
 25
10.0
 16
0.0
 26
0.0
 36
1.0
 17
0.0
 27
0.0
 37
0.0
 40
35.38505142041855
 41
2.396084337349397
 42
50.0
 43
0.0
 44
0.0
 50
0.0
 51
0.0
 71
     0
 72
  1000
 73
     1
 74
     3
 75
     0
 76
     1
 77
     0
 78
     0
281
     0
 65
     1
110
0.0
120
0.0
130
0.0
111
1.0
121
0.0
131
0.0
112
0.0
122
1.0
132
0.0
 79
     0
146
0.0
1001
ACAD_NAV_VCDISPLAY
1070
     3
  0
ENDTAB
  0
TABLE
  2
LTYPE
  5
25
330
0
100
AcDbSymbolTable
 70
     1
  0
LTYPE
  5
26
330
25
100
AcDbSymbolTableRecord
100
AcDbLinetypeTableRecord
  2
ByBlock
 70
     0
  3

 72
    65
 73
     0
 40
0.0
  0
LTYPE
  5
27
330
25
100
AcDbSymbolTableRecord
100
AcDbLinetypeTableRecord
  2
ByLayer
 70
     0
  3

 72
    65
 73
     0
 40
0.0
  0
LTYPE
  5
15
330
25
100
AcDbSymbolTableRecord
100
AcDbLinetypeTableRecord
  2
Continuous
 70
     0
  3
Solid line
 72
    65
 73
     0
 40
0.0
  0
ENDTAB
  0
TABLE
  2
LAYER
  5
1F
102
{ACAD_XDICTIONARY
360
20
102
}
330
0
100
AcDbSymbolTable
 70
     1
  0
LAYER
  5
6
102
{ACAD_XDICTIONARY
360
7
102
}
330
1F
100
AcDbSymbolTableRecord
100
AcDbLayerTableRecord
  2
0
 70
     0
 62
     7
  6
Continuous
370
    -3
390
8
  0
ENDTAB
  0
TABLE
  2
STYLE
  5
22
330
0
100
AcDbSymbolTable
 70
     1
  0
STYLE
  5
23
330
22
100
AcDbSymbolTableRecord
100
AcDbTextStyleTableRecord
  2
Standard
 70
     0
 40
0.0
 41
1.0
 50
0.0
 71
     0
 42
2.5
  3
arial.ttf
  4

1001
ACAD
1000
Arial
1071
       34
  0
ENDTAB
  0
TABLE
  2
VIEW
  5
28
330
0
100
AcDbSymbolTable
 70
     0
  0
ENDTAB
  0
TABLE
  2
UCS
  5
29
330
0
100
AcDbSymbolTable
 70
     0
  0
ENDTAB
  0
TABLE
  2
APPID
  5
2F
330
0
100
AcDbSymbolTable
 70
     3
  0
APPID
  5
14
330
2F
100
AcDbSymbolTableRecord
100
AcDbRegAppTableRecord
  2
ACAD
 70
     0
  0
APPID
  5
1A
330
2F
100
AcDbSymbolTableRecord
100
AcDbRegAppTableRecord
  2
ACAD_PSEXT
 70
     0
  0
APPID
  5
2E
330
2F
100
AcDbSymbolTableRecord
100
AcDbRegAppTableRecord
  2
ACAD_NAV_VCDISPLAY
 70
     0
  0
ENDTAB
  0
TABLE
  2
DIMSTYLE
  5
30
330
0
100
AcDbSymbolTable
 70
     1
100
AcDbDimStyleTable
 71
     1
340
31
  0
DIMSTYLE
105
31
330
30
100
AcDbSymbolTableRecord
100
AcDbDimStyleTableRecord
  2
ISO-25
 70
     0
 41
2.5
 42
0.625
 43
3.75
 44
1.25
 73
     0
 74
     0
 77
     1
 78
     8
140
2.5
141
2.5
143
0.03937007874016
147
0.625
171
     3
172
     1
271
     2
272
     2
274
     3
278
    44
283
     0
284
     8
340
23
  0
ENDTAB
  0
TABLE
  2
BLOCK_RECORD
  5
1
330
0
100
AcDbSymbolTable
 70
     0
  0
BLOCK_RECORD
  5
2
102
{ACAD_XDICTIONARY
360
3
102
}
330
1
100
AcDbSymbolTableRecord
100
AcDbBlockTableRecord
  2
*Model_Space
340
17
  0
BLOCK_RECORD
  5
1B
330
1
100
AcDbSymbolTableRecord
100
AcDbBlockTableRecord
  2
*Paper_Space
340
1E
  0
ENDTAB
  0
ENDSEC
  0
SECTION
  2
BLOCKS
  0
BLOCK
  5
5
330
2
100
AcDbEntity
  8
0
100
AcDbBlockBegin
  2
*Model_Space
 70
     0
 10
0.0
 20
0.0
 30
0.0
  3
*Model_Space
  1

  0
ENDBLK
  5
16
330
2
100
AcDbEntity
  8
0
100
AcDbBlockEnd
  0
BLOCK
  5
1C
330
1B
100
AcDbEntity
 67
     1
  8
0
100
AcDbBlockBegin
  2
*Paper_Space
 70
     0
 10
0.0
 20
0.0
 30
0.0
  3
*Paper_Space
  1

  0
ENDBLK
  5
1D
330
1B
100
AcDbEntity
 67
     1
  8
0
100
AcDbBlockEnd
  0
ENDSEC
  0
SECTION
  2
ENTITIES
  0
LINE
  5
58
330
2
100
AcDbEntity
  8
0
100
AcDbLine
 10
51.67405564184702
 20
15.79155760166199
 30
0.0
 11
50.65680164282029
 21
16.67252540693627
 31
0.0
  0
LINE
  5
59
330
2
100
AcDbEntity
  8
0
100
AcDbLine
 10
32.68785837096875
 20
16.67252540693627
 30
0.0
 11
31.67060437194202
 21
15.79155760166199
 31
0.0
  0
LINE
  5
5A
330
2
100
AcDbEntity
  8
0
100
AcDbLine
 10
51.62625549304129
 20
15.45053632650722
 30
0.0
 11
51.66001746102757
 21
15.46725709004548
 31
0.0
  0
LINE
  5
5B
330
2
100
AcDbEntity
  8
0
100
AcDbLine
 10
31.68464255281234
 20
15.46725709004548
 30
0.0
 11
31.71840452079862
 21
15.45053632650722
 31
0.0
  0
LINE
  5
5C
330
2
100
AcDbEntity
  8
0
100
AcDbLine
 10
41.56348012812686
 20
17.66661041998016
 30
0.0
 11
41.56348012812686
 21
23.17234207060243
 31
0.0
  0
LINE
  5
5D
330
2
100
AcDbEntity
  8
0
100
AcDbLine
 10
38.51866353368759
 20
22.77791152324824
 30
0.0
 11
38.51866353368759
 21
17.08031558207448
 31
0.0
  0
SPLINE
  5
5E
330
2
100
AcDbEntity
  8
0
100
AcDbSpline
210
0.0
220
0.0
230
1.0
 70
     8
 71
     3
 72
    12
 73
     8
 74
     0
 42
0.000000001
 43
0.0000000001
 40
0.0
 40
0.0
 40
0.0
 40
0.0
 40
0.1814292812455421
 40
0.4157921650615057
 40
0.6513173281689834
 40
0.8893818971947961
 40
1.0
 40
1.0
 40
1.0
 40
1.0
 10
40.71740096530765
 20
23.86851243258221
 30
0.0
 10
40.69151847113523
 20
23.88811549475682
 30
0.0
 10
40.63220203546825
 20
23.93304098642749
 30
0.0
 10
40.51854280100663
 20
23.9718439875195
 30
0.0
 10
40.38633807149995
 20
23.98786396398409
 30
0.0
 10
40.27168710168036
 20
23.97752449499704
 30
0.0
 10
40.20326901467839
 20
23.9596931804194
 30
0.0
 10
40.18156366596709
 20
23.9540362712913
 30
0.0
  0
LINE
  5
5F
330
2
100
AcDbEntity
  8
0
100
AcDbLine
 10
40.77363010475552
 20
23.8241747622885
 30
0.0
 11
40.73548307979199
 21
23.85721105494304
 31
0.0
  0
LINE
  5
60
330
2
100
AcDbEntity
  8
0
100
AcDbLine
 10
41.38124367101948
 20
23.6031421779176
 30
0.0
 11
41.31639535666471
 21
23.65257712187631
 31
0.0
  0
SPLINE
  5
61
330
2
100
AcDbEntity
  8
0
100
AcDbSpline
210
0.0
220
0.0
230
1.0
 70
     8
 71
     3
 72
    11
 73
     7
 74
     0
 42
0.000000001
 43
0.0000000001
 40
0.0
 40
0.0
 40
0.0
 40
0.0
 40
0.1545073475750386
 40
0.4388240648005335
 40
0.7213350165583309
 40
1.0
 40
1.0
 40
1.0
 40
1.0
 10
41.56348012815146
 20
23.17234207059097
 30
0.0
 10
41.56263177944952
 20
23.19821818066511
 30
0.0
 10
41.56022234176393
 20
23.27171021830695
 30
0.0
 10
41.53314798987437
 20
23.38535580795468
 30
0.0
 10
41.4760294487929
 20
23.50568200971384
 30
0.0
 10
41.41647755998931
 20
23.56747661127503
 30
0.0
 10
41.38690568231864
 20
23.59816216021018
 30
0.0
  0
LINE
  5
62
330
2
100
AcDbEntity
  8
0
100
AcDbLine
 10
40.18156366598039
 20
23.9540362712772
 30
0.0
 11
40.00488085947327
 21
23.9030323383747
 31
0.0
  0
SPLINE
  5
63
330
2
100
AcDbEntity
  8
0
100
AcDbSpline
210
0.0
220
0.0
230
1.0
 70
     8
 71
     3
 72
    16
 73
    12
 74
     0
 42
0.000000001
 43
0.0000000001
 40
0.0
 40
0.0
 40
0.0
 40
0.0
 40
0.0698495378242813
 40
0.1990379081207496
 40
0.3285182403160729
 40
0.4581529125746114
 40
0.587925197279928
 40
0.717882895621127
 40
0.8480723407691128
 40
0.9707891010511616
 40
1.0
 40
1.0
 40
1.0
 40
1.0
 10
39.21249908018282
 20
23.67429142155899
 30
0.0
 10
39.18687064013428
 20
23.66605047898849
 30
0.0
 10
39.11384179478264
 20
23.64256771845376
 30
0.0
 10
38.99612477295756
 20
23.58241444943591
 30
0.0
 10
38.86655752050828
 20
23.48839402946523
 30
0.0
 10
38.75131250824784
 20
23.37311643144357
 30
0.0
 10
38.65498419447865
 20
23.24158535686837
 30
0.0
 10
38.58137144958533
 20
23.09868272573494
 30
0.0
 10
38.53478545135835
 20
22.95289430983887
 30
0.0
 10
38.51962334330151
 20
22.84525110613008
 30
0.0
 10
38.51881831519933
 20
22.78877088843158
 30
0.0
 10
38.51866353367597
 20
22.7779115232564
 30
0.0
  0
LINE
  5
64
330
2
100
AcDbEntity
  8
0
100
AcDbLine
 10
40.00488085947327
 20
23.9030323383747
 30
0.0
 11
39.21249908015846
 21
23.67429142154488
 31
0.0
  0
SPLINE
  5
65
330
2
100
AcDbEntity
  8
0
100
AcDbSpline
210
0.0
220
0.0
230
1.0
 70
     8
 71
     3
 72
    12
 73
     8
 74
     0
 42
0.000000001
 43
0.0000000001
 40
0.0
 40
0.0
 40
0.0
 40
0.0
 40
0.1814292812455341
 40
0.415792165061499
 40
0.6513173281689814
 40
0.8893818971947844
 40
1.0
 40
1.0
 40
1.0
 40
1.0
 10
44.2422506771884
 20
23.35903803513796
 30
0.0
 10
44.21636818301622
 20
23.37864109731252
 30
0.0
 10
44.15705174734923
 20
23.4235665889832
 30
0.0
 10
44.04339251288761
 20
23.46236959007526
 30
0.0
 10
43.91118778338069
 20
23.47838956653985
 30
0.0
 10
43.79653681356111
 20
23.46805009755275
 30
0.0
 10
43.72811872655936
 20
23.45021878297531
 30
0.0
 10
43.70641337784788
 20
23.44456187384715
 30
0.0
  0
LINE
  5
66
330
2
100
AcDbEntity
  8
0
100
AcDbLine
 10
44.29847981662507
 20
23.31470036481345
 30
0.0
 11
44.26033279166158
 21
23.3477366575189
 31
0.0
  0
LINE
  5
67
330
2
100
AcDbEntity
  8
0
100
AcDbLine
 10
37.19819031665033
 20
20.86971287716243
 30
0.0
 11
37.19819031665033
 21
15.89002251003331
 31
0.0
  0
LINE
  5
68
330
2
100
AcDbEntity
  8
0
100
AcDbLine
 10
43.70641337784999
 20
23.44456187385296
 30
0.0
 11
43.27672042984908
 21
23.3205202042349
 31
0.0
  0
SPLINE
  5
69
330
2
100
AcDbEntity
  8
0
100
AcDbSpline
210
0.0
220
0.0
230
1.0
 70
     8
 71
     3
 72
    11
 73
     7
 74
     0
 42
0.000000001
 43
0.0000000001
 40
0.0
 40
0.0
 40
0.0
 40
0.0
 40
0.1104046517395704
 40
0.5209289446612722
 40
0.9078897400403908
 40
1.0
 40
1.0
 40
1.0
 40
1.0
 10
37.28498192497621
 20
21.22788426447918
 30
0.0
 10
37.27820639627449
 20
21.21519356303264
 30
0.0
 10
37.24623700947254
 20
21.15531425896847
 30
0.0
 10
37.21549246990093
 20
21.04432215682341
 30
0.0
 10
37.19909584747362
 20
20.93706963752877
 30
0.0
 10
37.19833634501327
 20
20.88057501241681
 30
0.0
 10
37.19819031663537
 20
20.86971287715035
 30
0.0
  0
LINE
  5
6A
330
2
100
AcDbEntity
  8
0
100
AcDbLine
 10
46.14646969718962
 20
15.89472630778269
 30
0.0
 11
46.14646969718951
 21
21.44131547638451
 31
0.0
  0
SPLINE
  5
6B
330
2
100
AcDbEntity
  8
0
100
AcDbSpline
210
0.0
220
0.0
230
1.0
 70
     8
 71
     3
 72
    11
 73
     7
 74
     0
 42
0.000000001
 43
0.0000000001
 40
0.0
 40
0.0
 40
0.0
 40
0.0
 40
0.2705903802847378
 40
0.6201279048840167
 40
0.9713988960623025
 40
1.0
 40
1.0
 40
1.0
 40
1.0
 10
45.08321633673846
 20
22.07505920054853
 30
0.0
 10
45.054282478049
 20
22.09362288930728
 30
0.0
 10
44.99500360245436
 20
22.13880589147723
 30
0.0
 10
44.88099869052648
 20
22.17523894034693
 30
0.0
 10
44.79062798365496
 20
22.19287670073207
 30
0.0
 10
44.7409855395047
 20
22.18779343440961
 30
0.0
 10
44.73724789011398
 20
22.18741070814385
 30
0.0
  0
LINE
  5
6C
330
2
100
AcDbEntity
  8
0
100
AcDbLine
 10
45.13637772249961
 20
22.02956979313146
 30
0.0
 11
45.09823069753614
 21
22.06260608583688
 31
0.0
  0
SPLINE
  5
6D
330
2
100
AcDbEntity
  8
0
100
AcDbSpline
210
0.0
220
0.0
230
1.0
 70
     8
 71
     3
 72
    11
 73
     7
 74
     0
 42
0.000000001
 43
0.0000000001
 40
0.0
 40
0.0
 40
0.0
 40
0.0
 40
0.1545073475750416
 40
0.4388240648005168
 40
0.7213350165583227
 40
1.0
 40
1.0
 40
1.0
 40
1.0
 10
46.14646969718972
 20
21.44131547638369
 30
0.0
 10
46.14562134848725
 20
21.46719158645774
 30
0.0
 10
46.14321191080219
 20
21.54068362409967
 30
0.0
 10
46.1161375589121
 20
21.6543292137474
 30
0.0
 10
46.05901901783115
 20
21.77465541550661
 30
0.0
 10
45.99946712902703
 20
21.83645001706779
 30
0.0
 10
45.96989525135654
 20
21.86713556600295
 30
0.0
  0
LINE
  5
6E
330
2
100
AcDbEntity
  8
0
100
AcDbLine
 10
43.4120282707687
 20
17.50698493453046
 30
0.0
 11
43.4120282707687
 21
22.94246652325974
 31
0.0
  0
LINE
  5
6F
330
2
100
AcDbEntity
  8
0
100
AcDbLine
 10
38.3233663680586
 20
21.95802865647006
 30
0.0
 11
38.3233663680586
 21
16.99128762396123
 31
0.0
  0
SPLINE
  5
70
330
2
100
AcDbEntity
  8
0
100
AcDbSpline
210
0.0
220
0.0
230
1.0
 70
     8
 71
     3
 72
    10
 73
     6
 74
     0
 42
0.000000001
 43
0.0000000001
 40
0.0
 40
0.0
 40
0.0
 40
0.0
 40
0.2867385838583293
 40
0.6571356937018638
 40
1.0
 40
1.0
 40
1.0
 40
1.0
 10
41.77307808317898
 20
23.40975473544842
 30
0.0
 10
41.74717453324028
 20
23.4292728626981
 30
0.0
 10
41.68780984283348
 20
23.4740037040005
 30
0.0
 10
41.57782493810095
 20
23.513439905084
 30
0.0
 10
41.49268646067374
 20
23.5199586963782
 30
0.0
 10
41.45176044905769
 20
23.52309227518176
 30
0.0
  0
LINE
  5
71
330
2
100
AcDbEntity
  8
0
100
AcDbLine
 10
43.23545382492262
 20
23.36828661285756
 30
0.0
 11
43.17381233295233
 21
23.41525497298061
 31
0.0
  0
LINE
  5
72
330
2
100
AcDbEntity
  8
0
100
AcDbLine
 10
41.82930722261999
 20
23.36541706511397
 30
0.0
 11
41.79116019765651
 21
23.39845335781938
 31
0.0
  0
SPLINE
  5
73
330
2
100
AcDbEntity
  8
0
100
AcDbSpline
210
0.0
220
0.0
230
1.0
 70
     8
 71
     3
 72
    11
 73
     7
 74
     0
 42
0.000000001
 43
0.0000000001
 40
0.0
 40
0.0
 40
0.0
 40
0.0
 40
0.1545073475750336
 40
0.4388240648005334
 40
0.7213350165583262
 40
1.0
 40
1.0
 40
1.0
 40
1.0
 10
43.41202827075575
 20
22.9424665232383
 30
0.0
 10
43.41117992205357
 20
22.96834263331235
 30
0.0
 10
43.40877048436802
 20
23.04183467095418
 30
0.0
 10
43.38169613247841
 20
23.15548026060206
 30
0.0
 10
43.32457759139713
 20
23.27580646236123
 30
0.0
 10
43.26502570259335
 20
23.33760106392236
 30
0.0
 10
43.23545382492262
 20
23.36828661285756
 30
0.0
  0
SPLINE
  5
74
330
2
100
AcDbEntity
  8
0
100
AcDbSpline
210
0.0
220
0.0
230
1.0
 70
     8
 71
     3
 72
    12
 73
     8
 74
     0
 42
0.000000001
 43
0.0000000001
 40
0.0
 40
0.0
 40
0.0
 40
0.0
 40
0.1535692531581339
 40
0.4205115435837768
 40
0.6879298583172734
 40
0.9399987505909608
 40
1.0
 40
1.0
 40
1.0
 40
1.0
 10
38.51866353367597
 20
22.49519642292531
 30
0.0
 10
38.49962094292885
 20
22.47046858926422
 30
0.0
 10
38.4474775023358
 20
22.40275751241493
 30
0.0
 10
38.38667416457083
 20
22.27840023105265
 30
0.0
 10
38.33933174536532
 20
22.13311572698874
 30
0.0
 10
38.32433337696596
 20
22.02536344334546
 30
0.0
 10
38.32352231057642
 20
21.96888724822784
 30
0.0
 10
38.32336636808053
 20
21.95802865646809
 30
0.0
  0
LINE
  5
75
330
2
100
AcDbEntity
  8
0
100
AcDbLine
 10
44.51207151178504
 20
22.6736893225383
 30
0.0
 11
44.4704948092671
 21
22.6989432498871
 31
0.0
  0
LINE
  5
76
330
2
100
AcDbEntity
  8
0
100
AcDbLine
 10
44.56523289749528
 20
22.62819991512138
 30
0.0
 11
44.52708587253179
 21
22.66123620782664
 31
0.0
  0
LINE
  5
77
330
2
100
AcDbEntity
  8
0
100
AcDbLine
 10
45.05587830949623
 20
16.67026004580793
 30
0.0
 11
45.05587830949623
 21
16.9345503874004
 31
0.0
  0
LINE
  5
78
330
2
100
AcDbEntity
  8
0
100
AcDbLine
 10
38.28878170429283
 20
16.9345503874004
 30
0.0
 11
38.28878170429283
 21
16.67026004580793
 31
0.0
  0
LINE
  5
79
330
2
100
AcDbEntity
  8
0
100
AcDbLine
 10
46.50428650227141
 20
14.98873953998064
 30
0.0
 11
46.50428650227141
 21
15.2530298815223
 31
0.0
  0
LINE
  5
7A
330
2
100
AcDbEntity
  8
0
100
AcDbLine
 10
36.84037351151764
 20
15.2530298815223
 30
0.0
 11
36.84037351151764
 21
14.98873953998064
 31
0.0
  0
LINE
  5
7B
330
2
100
AcDbEntity
  8
0
100
AcDbLine
 10
35.98297949782482
 20
11.22408909468383
 30
0.0
 11
35.99364564795839
 21
11.11864268453157
 31
0.0
  0
LINE
  5
7C
330
2
100
AcDbEntity
  8
0
100
AcDbLine
 10
47.35101436588148
 20
11.11864268453157
 30
0.0
 11
47.3616805160151
 21
11.22408909468383
 31
0.0
  0
SPLINE
  5
7D
330
2
100
AcDbEntity
  8
0
100
AcDbSpline
210
0.0
220
0.0
230
1.0
 70
     8
 71
     3
 72
     9
 73
     5
 74
     0
 42
0.000000001
 43
0.0000000001
 40
0.0
 40
0.0
 40
0.0
 40
0.0
 40
0.2498542969126537
 40
1.0
 40
1.0
 40
1.0
 40
1.0
 10
45.24888968673692
 20
14.97715903063206
 30
0.0
 10
45.23479921910193
 20
15.11389751061858
 30
0.0
 10
45.17840448101204
 20
15.66117038795628
 30
0.0
 10
45.11956268510949
 20
16.20762970809792
 30
0.0
 10
45.07542276475123
 20
16.61755381901428
 30
0.0
  0
SPLINE
  5
7E
330
2
100
AcDbEntity
  8
0
100
AcDbSpline
210
0.0
220
0.0
230
1.0
 70
     8
 71
     3
 72
     9
 73
     5
 74
     0
 42
0.000000001
 43
0.0000000001
 40
0.0
 40
0.0
 40
0.0
 40
0.0
 40
0.2406360407857041
 40
1.0
 40
1.0
 40
1.0
 40
1.0
 10
38.26920788804536
 20
16.61757929110279
 30
0.0
 10
38.25494926091455
 20
16.48611417089981
 30
0.0
 10
38.1956953474761
 20
15.93979068679563
 30
0.0
 10
38.13890845871384
 20
15.39264286019272
 30
0.0
 10
38.09624582123831
 20
14.97646584379918
 30
0.0
  0
LINE
  5
7F
330
2
100
AcDbEntity
  8
0
100
AcDbLine
 10
45.25026484106084
 20
14.89223705774959
 30
0.0
 11
45.24888968673692
 21
14.97715903063206
 31
0.0
  0
LINE
  5
80
330
2
100
AcDbEntity
  8
0
100
AcDbLine
 10
38.09624582123831
 20
14.97646584379918
 30
0.0
 11
38.09441804005496
 21
14.89225009594485
 31
0.0
  0
LINE
  5
81
330
2
100
AcDbEntity
  8
0
100
AcDbLine
 10
36.94226857743459
 20
15.0087713262272
 30
0.0
 11
36.92633559945126
 21
14.0682166052934
 31
0.0
  0
LINE
  5
82
330
2
100
AcDbEntity
  8
0
100
AcDbLine
 10
46.41832441438865
 20
14.0682166052934
 30
0.0
 11
46.40239143640527
 21
15.0087713262272
 31
0.0
  0
LINE
  5
83
330
2
100
AcDbEntity
  8
0
100
AcDbLine
 10
37.36827726455477
 20
14.12264635791624
 30
0.0
 11
37.23041595099727
 21
14.16244349114012
 31
0.0
  0
LINE
  5
84
330
2
100
AcDbEntity
  8
0
100
AcDbLine
 10
46.11420136472503
 20
14.1624311652768
 30
0.0
 11
45.97638274928514
 21
14.12264635791624
 31
0.0
  0
LINE
  5
85
330
2
100
AcDbEntity
  8
0
100
AcDbLine
 10
37.48219587667243
 20
15.53509815612226
 30
0.0
 11
37.12173692918526
 21
15.63392213853603
 31
0.0
  0
LINE
  5
86
330
2
100
AcDbEntity
  8
0
100
AcDbLine
 10
46.21099217863414
 20
15.63570953545031
 30
0.0
 11
45.86246413716753
 21
15.53509815612226
 31
0.0
  0
LWPOLYLINE
  5
87
330
2
100
AcDbEntity
  8
0
100
AcDbPolyline
 90
       17
 70
   128
 43
0.0
 10
33.57965151670935
 20
15.63056521446617
 10
33.61256515843884
 20
15.68300489818783
 10
33.60897371700104
 20
15.74805753697927
 10
33.56942395680709
 20
15.81581945632063
 10
33.49993697035222
 20
15.87597451820596
 10
33.41109152137878
 20
15.91936465979496
 10
33.31641352412458
 20
15.93938412536616
 10
33.2303168454505
 20
15.9329851327254
 10
33.16590892418754
 20
15.90114187057643
 10
33.13299528250881
 20
15.84870218685468
 10
33.13658672394681
 20
15.78364954806333
 10
33.17613648408975
 20
15.71588762877274
 10
33.24562347059552
 20
15.6557325668874
 10
33.33446891951816
 20
15.6123424252985
 10
33.42914691677226
 20
15.5923229597273
 10
33.51524359544634
 20
15.59872195231705
 10
33.57965151670935
 20
15.63056521446617
  0
LWPOLYLINE
  5
88
330
2
100
AcDbEntity
  8
0
100
AcDbPolyline
 90
        9
 70
   128
 43
0.0
 10
32.72712150601366
 20
15.64691846997281
 10
32.76003514774325
 20
15.69935815369467
 10
32.75644370630538
 20
15.76441079248592
 10
32.71689394611159
 20
15.83217271177651
 10
32.64740695965652
 20
15.89232777366185
 10
32.55856151068318
 20
15.93571791525074
 10
32.46388351347979
 20
15.95573738082195
 10
32.37778683480586
 20
15.94933838818129
 10
32.37360950058658
 20
15.94823035026465
  0
LWPOLYLINE
  5
89
330
2
100
AcDbEntity
  8
0
100
AcDbPolyline
 90
        9
 70
   128
 43
0.0
 10
32.28126566185724
 20
15.86806044109039
 10
32.28046527181331
 20
15.86505544231046
 10
32.28405671325112
 20
15.80000280351917
 10
32.32360647344496
 20
15.73224088422862
 10
32.39309345989983
 20
15.67208582234329
 10
32.48193890887337
 20
15.62869568075429
 10
32.57661690607672
 20
15.60867621518309
 10
32.66271358475069
 20
15.61507520777298
 10
32.72712150601366
 20
15.64691846997281
  0
LINE
  5
8A
330
2
100
AcDbEntity
  8
0
100
AcDbLine
 10
33.88055368472867
 20
15.93630628107824
 30
0.0
 11
32.81797862217422
 21
16.63120212329415
 31
0.0
  0
LINE
  5
8B
330
2
100
AcDbEntity
  8
0
100
AcDbLine
 10
34.75848043663871
 20
15.09157617172329
 30
0.0
 11
35.38270059692206
 21
14.68335278186837
 31
0.0
  0
LINE
  5
8C
330
2
100
AcDbEntity
  8
0
100
AcDbLine
 10
34.72148549755476
 20
14.11072370846041
 30
0.0
 11
34.09726533727145
 21
14.51894709831524
 31
0.0
  0
ARC
  5
8D
330
2
100
AcDbEntity
  8
0
100
AcDbCircle
 10
33.65496731385036
 20
13.83880026095252
 30
0.0
 40
0.8113120619518255
100
AcDbArc
 50
56.96413735990332
 51
75.62988647089771
  0
LINE
  5
8E
330
2
100
AcDbEntity
  8
0
100
AcDbLine
 10
33.85632249259792
 20
14.62472859986941
 30
0.0
 11
33.82707106449799
 21
14.63221246963848
 31
0.0
  0
ARC
  5
8F
330
2
100
AcDbEntity
  8
0
100
AcDbCircle
 10
34.63249177938588
 20
17.77592582520402
 30
0.0
 40
3.245248247813688
100
AcDbArc
 50
236.9641373600047
 51
255.6298864708976
  0
LINE
  5
90
330
2
100
AcDbEntity
  8
0
100
AcDbLine
 10
32.86329968570199
 20
15.05533847580391
 30
0.0
 11
31.99699755463068
 21
15.62187703874474
 31
0.0
  0
ARC
  5
91
330
2
100
AcDbEntity
  8
0
100
AcDbCircle
 10
31.47821094401856
 20
16.80833538960677
 30
0.0
 40
1.240720521985421
100
AcDbArc
 50
315.6185138918031
 51
349.0309109471987
  0
LWPOLYLINE
  5
92
330
2
100
AcDbEntity
  8
0
100
AcDbPolyline
 90
        9
 70
   128
 43
0.0
 10
32.81797862217422
 20
16.63120212329415
 10
32.79935204303431
 20
16.64116019638674
 10
32.78017546904042
 20
16.64713692073802
 10
32.76135802299066
 20
16.64884895184328
 10
32.74379180200433
 20
16.64621512580344
 10
32.72830958528968
 20
16.63936030693552
 10
32.71564535354868
 20
16.62860946847362
 10
32.70639949253293
 20
16.61447228595184
 10
32.70101032981897
 20
16.59761897477694
  0
LINE
  5
93
330
2
100
AcDbEntity
  8
0
100
AcDbLine
 10
32.70101032981897
 20
16.59761897477694
 30
0.0
 11
32.69626347923456
 21
16.57225185554136
 31
0.0
  0
LINE
  5
94
330
2
100
AcDbEntity
  8
0
100
AcDbLine
 10
31.85632531767341
 20
15.5000513079357
 30
0.0
 11
32.3649523171867
 21
15.94053521057281
 31
0.0
  0
ARC
  5
95
330
2
100
AcDbEntity
  8
0
100
AcDbCircle
 10
35.51155752776129
 20
11.94724910727789
 30
0.0
 40
2.509141421911583
100
AcDbArc
 50
34.1041895558999
 51
68.35791659620202
  0
LINE
  5
96
330
2
100
AcDbEntity
  8
0
100
AcDbLine
 10
35.42759436290758
 20
14.6603851347134
 30
0.0
 11
36.43694737285941
 21
14.27951073703066
 31
0.0
  0
ARC
  5
97
330
2
100
AcDbEntity
  8
0
100
AcDbCircle
 10
35.5100964878042
 20
14.87700778516056
 30
0.0
 40
0.2318015817326289
100
AcDbArc
 50
236.6610925817988
 51
249.1503439898984
  0
LWPOLYLINE
  5
98
330
2
100
AcDbEntity
  8
0
100
AcDbPolyline
 90
        5
 70
   128
 43
0.0
 10
31.85632531767341
 20
15.5000513079357
 10
31.80819070358559
 20
15.46499060556359
 10
31.76486485270382
 20
15.44709000810155
 10
31.72801275322186
 20
15.44703742537771
 10
31.71840452079862
 20
15.45053632650722
  0
LINE
  5
99
330
2
100
AcDbEntity
  8
0
100
AcDbLine
 10
35.77573227349216
 20
13.70688166362275
 30
0.0
 11
34.76637926354018
 21
14.08775606130544
 31
0.0
  0
ARC
  5
9A
330
2
100
AcDbEntity
  8
0
100
AcDbCircle
 10
34.84888138843688
 20
14.30437871175264
 30
0.0
 40
0.2318015817317862
100
AcDbArc
 50
236.6610925817988
 51
249.1503439898984
  0
ARC
  5
9B
330
2
100
AcDbEntity
  8
0
100
AcDbCircle
 10
34.87358950840674
 20
11.40746788052633
 30
0.0
 40
2.470053706800773
100
AcDbArc
 50
36.76938027300237
 51
68.57813619359818
  0
LINE
  5
9C
330
2
100
AcDbEntity
  8
0
100
AcDbLine
 10
50.48136032808707
 20
15.05533847580391
 30
0.0
 11
51.34766245920922
 21
15.62187703874474
 31
0.0
  0
ARC
  5
9D
330
2
100
AcDbEntity
  8
0
100
AcDbCircle
 10
48.71216823440317
 20
17.77592582520402
 30
0.0
 40
3.245248247813428
100
AcDbArc
 50
284.3701135291023
 51
303.0358626399953
  0
LINE
  5
9E
330
2
100
AcDbEntity
  8
0
100
AcDbLine
 10
49.51758894929106
 20
14.63221246963848
 30
0.0
 11
49.48833752124213
 21
14.62472859986941
 31
0.0
  0
ARC
  5
9F
330
2
100
AcDbEntity
  8
0
100
AcDbCircle
 10
49.68969269993869
 20
13.83880026095252
 30
0.0
 40
0.8113120619519655
100
AcDbArc
 50
104.3701135291023
 51
123.0358626400967
  0
LINE
  5
A0
330
2
100
AcDbEntity
  8
0
100
AcDbLine
 10
49.24739467651759
 20
14.51894709831524
 30
0.0
 11
48.62317451623445
 21
14.11072370846041
 31
0.0
  0
LINE
  5
A1
330
2
100
AcDbEntity
  8
0
100
AcDbLine
 10
47.961959416867
 20
14.68335278186837
 30
0.0
 11
48.58617957715035
 21
15.09157617172329
 31
0.0
  0
LINE
  5
A2
330
2
100
AcDbEntity
  8
0
100
AcDbLine
 10
49.46410632906038
 20
15.93630628107824
 30
0.0
 11
50.52668139166575
 21
16.63120212329415
 31
0.0
  0
ARC
  5
A3
330
2
100
AcDbEntity
  8
0
100
AcDbCircle
 10
51.8664490698214
 20
16.80833538960677
 30
0.0
 40
1.240720521985427
100
AcDbArc
 50
190.9690890528013
 51
224.3814861081969
  0
LWPOLYLINE
  5
A4
330
2
100
AcDbEntity
  8
0
100
AcDbPolyline
 90
        9
 70
   128
 43
0.0
 10
50.52668139166575
 20
16.63120212329415
 10
50.54530797080546
 20
16.64116019638674
 10
50.56448454474864
 20
16.64713692073802
 10
50.5833019908494
 20
16.64884895184328
 10
50.60086821183558
 20
16.64621512580344
 10
50.61635042855021
 20
16.63936030693552
 10
50.62901466024042
 20
16.62860946847362
 10
50.63826052130698
 20
16.61447228595184
 10
50.64364968402095
 20
16.59761897477694
  0
LINE
  5
A5
330
2
100
AcDbEntity
  8
0
100
AcDbLine
 10
50.64364968402095
 20
16.59761897477694
 30
0.0
 11
50.64839653455449
 21
16.57225185554136
 31
0.0
  0
LINE
  5
A6
330
2
100
AcDbEntity
  8
0
100
AcDbLine
 10
50.97970769665316
 20
15.94053521057281
 30
0.0
 11
51.48833469616655
 21
15.5000513079357
 31
0.0
  0
ARC
  5
A7
330
2
100
AcDbEntity
  8
0
100
AcDbCircle
 10
47.83456352603576
 20
14.87700778516056
 30
0.0
 40
0.2318015817333261
100
AcDbArc
 50
290.8496560101992
 51
303.3389074182013
  0
LINE
  5
A8
330
2
100
AcDbEntity
  8
0
100
AcDbLine
 10
46.90771264098049
 20
14.27951073703066
 30
0.0
 11
47.91706565093238
 21
14.6603851347134
 31
0.0
  0
ARC
  5
A9
330
2
100
AcDbEntity
  8
0
100
AcDbCircle
 10
47.83310248607863
 20
11.94724910727789
 30
0.0
 40
2.509141421911713
100
AcDbArc
 50
111.6420834037979
 51
145.8958104441
  0
LWPOLYLINE
  5
AA
330
2
100
AcDbEntity
  8
0
100
AcDbPolyline
 90
        5
 70
   128
 43
0.0
 10
51.62625549304129
 20
15.45053632650722
 10
51.61664726061805
 20
15.44703742537771
 10
51.57979516108532
 20
15.44709000810155
 10
51.53646931025433
 20
15.46499060556359
 10
51.48833469616655
 20
15.5000513079357
  0
LINE
  5
AB
330
2
100
AcDbEntity
  8
0
100
AcDbLine
 10
48.5782807502998
 20
14.08775606130544
 30
0.0
 11
47.56892774034777
 21
13.70688166362275
 31
0.0
  0
ARC
  5
AC
330
2
100
AcDbEntity
  8
0
100
AcDbCircle
 10
48.49577862540318
 20
14.30437871175264
 30
0.0
 40
0.2318015817307095
100
AcDbArc
 50
290.8496560100982
 51
303.3389074182013
  0
ARC
  5
AD
330
2
100
AcDbEntity
  8
0
100
AcDbCircle
 10
48.48902982169516
 20
11.38391529375712
 30
0.0
 40
2.498551699613558
100
AcDbArc
 50
111.6079876271987
 51
143.0444959061994
  0
LWPOLYLINE
  5
AE
330
2
100
AcDbEntity
  8
0
100
AcDbPolyline
 90
       17
 70
   128
 43
0.0
 10
41.31629110723511
 20
8.313761325453674
 10
41.21896954429355
 20
8.310422113162122
 10
41.13646430700658
 20
8.300912841038931
 10
41.08133606999703
 20
8.286681209586012
 10
41.06197760747846
 20
8.269893855634629
 10
41.08133606999703
 20
8.253106501734009
 10
41.13646430700658
 20
8.238874870230233
 10
41.21896954429355
 20
8.229365598107092
 10
41.31629110723511
 20
8.226026385815494
 10
41.41361267022772
 20
8.229365598107092
 10
41.49611790746387
 20
8.238874870230233
 10
41.55124614452432
 20
8.253106501734009
 10
41.57060460699176
 20
8.269893855634629
 10
41.55124614452432
 20
8.286681209586012
 10
41.49611790746387
 20
8.300912841038931
 10
41.41361267022772
 20
8.310422113162122
 10
41.31629110723511
 20
8.313761325453674
  0
LWPOLYLINE
  5
AF
330
2
100
AcDbEntity
  8
0
100
AcDbPolyline
 90
       17
 70
   128
 43
0.0
 10
42.02836890655384
 20
8.208479397898027
 10
41.93104734361225
 20
8.205140185555567
 10
41.84854210632518
 20
8.195630913432426
 10
41.79341386931572
 20
8.181399281979556
 10
41.77405540679716
 20
8.164611928078887
 10
41.79341386931572
 20
8.14782457412741
 10
41.84854210632518
 20
8.133592942674491
 10
41.93104734361225
 20
8.12408367055135
 10
42.02836890655384
 20
8.120744458208937
 10
42.12569046954651
 20
8.12408367055135
 10
42.20819570678255
 20
8.133592942674491
 10
42.26332394384302
 20
8.14782457412741
 10
42.28268240631044
 20
8.164611928078887
 10
42.26332394384302
 20
8.181399281979556
 10
42.20819570678255
 20
8.195630913432426
 10
42.12569046954651
 20
8.205140185555567
 10
42.02836890655384
 20
8.208479397898027
  0
LWPOLYLINE
  5
B0
330
2
100
AcDbEntity
  8
0
100
AcDbPolyline
 90
       17
 70
   128
 43
0.0
 10
42.02836890655384
 20
8.419043253060227
 10
41.93104734361225
 20
8.415704040768675
 10
41.84854210632518
 20
8.406194768594627
 10
41.79341386931572
 20
8.391963137141706
 10
41.77405540679716
 20
8.375175783241136
 10
41.79341386931572
 20
8.358388429289611
 10
41.84854210632518
 20
8.344156797836738
 10
41.93104734361225
 20
8.334647525713549
 10
42.02836890655384
 20
8.331308313421997
 10
42.12569046954651
 20
8.334647525713549
 10
42.20819570678255
 20
8.344156797836738
 10
42.26332394384302
 20
8.358388429289611
 10
42.28268240631044
 20
8.375175783241136
 10
42.26332394384302
 20
8.391963137141706
 10
42.20819570678255
 20
8.406194768594627
 10
42.12569046954651
 20
8.415704040768675
 10
42.02836890655384
 20
8.419043253060227
  0
LINE
  5
B1
330
2
100
AcDbEntity
  8
0
100
AcDbLine
 10
40.65507600786785
 20
8.307462240227405
 30
0.0
 11
40.65507600786785
 21
8.082141084760017
 31
0.0
  0
LWPOLYLINE
  5
B2
330
2
100
AcDbEntity
  8
0
100
AcDbPolyline
 90
        8
 70
   128
 43
0.0
 10
40.83176750940443
 20
8.450511469376383
 10
40.80994370781213
 20
8.441761071584833
 10
40.76304708390664
 20
8.420268128600438
 10
40.72440018683841
 20
8.398292133450262
 10
40.69416850857438
 20
8.375927190724944
 10
40.67248150582482
 20
8.353269070615999
 10
40.65943204569105
 20
8.330414798606302
 10
40.65507600786785
 20
8.307462240227405
  0
LINE
  5
B3
330
2
100
AcDbEntity
  8
0
100
AcDbLine
 10
42.68958400592119
 20
8.307462240227405
 30
0.0
 11
42.68958400592119
 21
8.082141084760017
 31
0.0
  0
ARC
  5
B4
330
2
100
AcDbEntity
  8
0
100
AcDbCircle
 10
42.19573584548984
 20
7.933503027045197
 30
0.0
 40
0.4940983134157883
100
AcDbArc
 50
268.2859860207017
 51
358.1767252639003
  0
LINE
  5
B5
330
2
100
AcDbEntity
  8
0
100
AcDbLine
 10
42.1809570064079
 20
7.4396257859667
 30
0.0
 11
41.16370300738118
 21
7.4396257859667
 31
0.0
  0
ARC
  5
B6
330
2
100
AcDbEntity
  8
0
100
AcDbCircle
 10
41.14892416829931
 20
7.933503027045197
 30
0.0
 40
0.4940983134158403
100
AcDbArc
 50
181.8232747360964
 51
271.7140139792981
  0
LINE
  5
B7
330
2
100
AcDbEntity
  8
0
100
AcDbLine
 10
40.65507600786785
 20
7.947260423686408
 30
0.0
 11
40.65507600786785
 21
7.917782411260849
 31
0.0
  0
LINE
  5
B8
330
2
100
AcDbEntity
  8
0
100
AcDbLine
 10
42.68958400592119
 20
7.947260423686408
 30
0.0
 11
42.68958400592119
 21
7.917782411260849
 31
0.0
  0
LINE
  5
B9
330
2
100
AcDbEntity
  8
0
100
AcDbLine
 10
40.65507600786785
 20
8.082141084760017
 30
0.0
 11
40.65507600786785
 21
7.947260423686408
 31
0.0
  0
LINE
  5
BA
330
2
100
AcDbEntity
  8
0
100
AcDbLine
 10
42.68958400592119
 20
8.082141084760017
 30
0.0
 11
42.68958400592119
 21
7.947260423686408
 31
0.0
  0
LWPOLYLINE
  5
BB
330
2
100
AcDbEntity
  8
0
100
AcDbPolyline
 90
       17
 70
   128
 43
0.0
 10
50.13759710047254
 20
15.33304954889309
 10
50.20200502173559
 20
15.30120628674393
 10
50.28810170040953
 20
15.29480729410328
 10
50.38277969766373
 20
15.31482675967457
 10
50.47162514658626
 20
15.35821690126347
 10
50.54111213309213
 20
15.41837196314881
 10
50.58066189328597
 20
15.48613388249026
 10
50.5842533347238
 20
15.55118652128151
 10
50.55133969299426
 20
15.60362620500336
 10
50.48693177173128
 20
15.63546946715238
 10
50.40083509305727
 20
15.64186845974228
 10
50.30615709580311
 20
15.62184899417093
 10
50.21731164682956
 20
15.57845885258203
 10
50.1478246603747
 20
15.51830379069669
 10
50.1082749001809
 20
15.45054187140615
 10
50.10468345874304
 20
15.38548923261481
 10
50.13759710047254
 20
15.33304954889309
  0
LWPOLYLINE
  5
BC
330
2
100
AcDbEntity
  8
0
100
AcDbPolyline
 90
       17
 70
   128
 43
0.0
 10
50.27804931184952
 20
15.96608026803065
 10
50.3424572331125
 20
15.93423700588168
 10
50.42855391178638
 20
15.92783801329183
 10
50.52323190898983
 20
15.94785747881227
 10
50.61207735796322
 20
15.99124762040113
 10
50.68156434441823
 20
16.05140268228646
 10
50.72111410461206
 20
16.11916460162791
 10
50.72470554604989
 20
16.18421724041926
 10
50.69179190432035
 20
16.23665692414092
 10
50.62738398305739
 20
16.26850018628999
 10
50.5412873043834
 20
16.27489917887979
 10
50.44660930717992
 20
16.25487971330863
 10
50.35776385820653
 20
16.21148957171968
 10
50.28827687175166
 20
16.15133450983435
 10
50.24872711155781
 20
16.08357259054376
 10
50.24513567011985
 20
16.0185199517525
 10
50.27804931184952
 20
15.96608026803065
  0
LWPOLYLINE
  5
BD
330
2
100
AcDbEntity
  8
0
100
AcDbPolyline
 90
       17
 70
   128
 43
0.0
 10
49.28506708977693
 20
15.31669629343716
 10
49.34947501109076
 20
15.28485303123733
 10
49.43557168976468
 20
15.27845403864748
 10
49.53024968696813
 20
15.29847350421869
 10
49.61909513594157
 20
15.34186364580769
 10
49.68858212239653
 20
15.40201870769298
 10
49.72813188259029
 20
15.46978062698357
 10
49.73172332402829
 20
15.53483326577486
 10
49.69880968229876
 20
15.58727294949662
 10
49.63440176103564
 20
15.61911621169654
 10
49.54830508236167
 20
15.62551520428635
 10
49.45362708510742
 20
15.60549573871504
 10
49.36478163618488
 20
15.56210559712624
 10
49.29529464972993
 20
15.50195053524091
 10
49.25574488953607
 20
15.43418861595031
 10
49.25215344809825
 20
15.36913597715897
 10
49.28506708977693
 20
15.31669629343716
  0
LINE
  5
BE
330
2
100
AcDbEntity
  8
0
100
AcDbLine
 10
50.49791003182047
 20
15.06616154204645
 30
0.0
 11
51.34766245920922
 21
15.62187703874474
 31
0.0
  0
ARC
  5
BF
330
2
100
AcDbEntity
  8
0
100
AcDbCircle
 10
48.72871793813668
 20
17.78674889144645
 30
0.0
 40
3.245248247812594
100
AcDbArc
 50
284.3701135291023
 51
303.0358626399953
  0
LINE
  5
C0
330
2
100
AcDbEntity
  8
0
100
AcDbLine
 10
49.53413865302457
 20
14.64303553588091
 30
0.0
 11
49.50488722492458
 21
14.63555166611175
 31
0.0
  0
ARC
  5
C1
330
2
100
AcDbEntity
  8
0
100
AcDbCircle
 10
49.706242403672
 20
13.84962332719491
 30
0.0
 40
0.8113120619535322
100
AcDbArc
 50
104.3701135291023
 51
123.0358626399953
  0
LINE
  5
C2
330
2
100
AcDbEntity
  8
0
100
AcDbLine
 10
49.26394438025102
 20
14.52977016455767
 30
0.0
 11
48.62317451623445
 21
14.11072370846041
 31
0.0
  0
LINE
  5
C3
330
2
100
AcDbEntity
  8
0
100
AcDbLine
 10
47.961959416867
 20
14.68335278186837
 30
0.0
 11
48.60272928088376
 21
15.10239923796563
 31
0.0
  0
ARC
  5
C4
330
2
100
AcDbEntity
  8
0
100
AcDbCircle
 10
48.27806836878936
 20
15.61582405233614
 30
0.0
 40
0.6074617254329739
100
AcDbArc
 50
302.3069534488982
 51
324.9765156397045
  0
LINE
  5
C5
330
2
100
AcDbEntity
  8
0
100
AcDbLine
 10
48.77552902868107
 20
15.26719439252178
 30
0.0
 11
48.78945704150274
 21
15.2879487291467
 31
0.0
  0
ARC
  5
C6
330
2
100
AcDbEntity
  8
0
100
AcDbCircle
 10
50.77929968106979
 20
13.89343008973676
 30
0.0
 40
2.42984690172982
100
AcDbArc
 50
122.3069534488982
 51
144.9765156397045
  0
LINE
  5
C7
330
2
100
AcDbEntity
  8
0
100
AcDbLine
 10
49.4806560327938
 20
15.94712934732063
 30
0.0
 11
50.52668139166575
 21
16.63120212329415
 31
0.0
  0
ARC
  5
C8
330
2
100
AcDbEntity
  8
0
100
AcDbCircle
 10
51.90981927023102
 20
16.82855505427465
 30
0.0
 40
1.240720521985075
100
AcDbArc
 50
190.9690890528013
 51
224.3814861081969
  0
LINE
  5
C9
330
2
100
AcDbEntity
  8
0
100
AcDbLine
 10
50.68701988443046
 20
16.61783863944481
 30
0.0
 11
50.69176673501502
 21
16.59247152020908
 31
0.0
  0
LINE
  5
CA
330
2
100
AcDbEntity
  8
0
100
AcDbLine
 10
51.70427388345734
 20
15.73687083417053
 30
0.0
 11
51.70902073404175
 21
15.71150371498566
 31
0.0
  0
LWPOLYLINE
  5
CB
330
2
100
AcDbEntity
  8
0
100
AcDbPolyline
 90
        9
 70
   128
 43
0.0
 10
51.53170489657613
 20
15.52027097260347
 10
51.5798395106639
 20
15.48521027023137
 10
51.62316536154581
 20
15.46730967276937
 10
51.66001746102757
 20
15.46725709004548
 10
51.688979603656
 20
15.4850545428348
 10
51.70893879051909
 20
15.52001808493777
 10
51.71912800121709
 20
15.57080408714192
 10
51.71915567016974
 20
15.63546087181382
 10
51.70902073404175
 20
15.71150371498566
  0
LINE
  5
CC
330
2
100
AcDbEntity
  8
0
100
AcDbLine
 10
51.02307789706278
 20
15.96075487524062
 30
0.0
 11
51.53170489657613
 21
15.52027097260347
 31
0.0
  0
LWPOLYLINE
  5
CD
330
2
100
AcDbEntity
  8
0
100
AcDbPolyline
 90
        9
 70
   128
 43
0.0
 10
50.51156744592307
 20
16.66821336219504
 10
50.53950731460741
 20
16.68315047185934
 10
50.5682721755728
 20
16.6921155583609
 10
50.59649834469862
 20
16.69468360504427
 10
50.62284767612713
 20
16.69073286598436
 10
50.64607100122443
 20
16.68045063773332
 10
50.66506734883612
 20
16.66432438001512
 10
50.67893614038509
 20
16.643118606258
 10
50.68701988443046
 20
16.61783863944481
  0
LINE
  5
CE
330
2
100
AcDbEntity
  8
0
100
AcDbLine
 10
49.46554208700028
 20
15.98414058622156
 30
0.0
 11
50.51156744592307
 21
16.66821336219504
 31
0.0
  0
ARC
  5
CF
330
2
100
AcDbEntity
  8
0
100
AcDbCircle
 10
51.61231224536592
 20
15.72174785831505
 30
0.0
 40
0.0931968201104579
100
AcDbArc
 50
9.338634848400035
 51
48.50877017650114
  0
ARC
  5
D0
330
2
100
AcDbEntity
  8
0
100
AcDbCircle
 10
50.76418573532717
 20
13.93044132863766
 30
0.0
 40
2.429846901730907
100
AcDbArc
 50
122.3069534488982
 51
144.9765156396052
  0
ARC
  5
D1
330
2
100
AcDbEntity
  8
0
100
AcDbCircle
 10
47.85300514286549
 20
11.93008537331404
 30
0.0
 40
2.573609609881267
100
AcDbArc
 50
111.6424862234977
 51
145.9342958116007
  0
LINE
  5
D2
330
2
100
AcDbEntity
  8
0
100
AcDbLine
 10
46.9038221366834
 20
14.3222638877457
 30
0.0
 11
47.91317514668619
 21
14.70313828542844
 31
0.0
  0
ARC
  5
D3
330
2
100
AcDbEntity
  8
0
100
AcDbCircle
 10
47.85129855300104
 20
14.86560527323836
 30
0.0
 40
0.1738511862949641
100
AcDbArc
 50
290.8496560099994
 51
303.3389074183022
  0
LINE
  5
D4
330
2
100
AcDbEntity
  8
0
100
AcDbLine
 10
47.94684547112437
 20
14.72036402082003
 30
0.0
 11
48.58761533514119
 21
15.13941047686649
 31
0.0
  0
ARC
  5
D5
330
2
100
AcDbEntity
  8
0
100
AcDbCircle
 10
48.26295442304678
 20
15.65283529128789
 30
0.0
 40
0.6074617254333818
100
AcDbArc
 50
302.3069534488982
 51
324.9765156396051
  0
LINE
  5
D6
330
2
100
AcDbEntity
  8
0
100
AcDbLine
 10
48.76041508293859
 20
15.30420563142272
 30
0.0
 11
48.77434309576012
 21
15.3249599680476
 31
0.0
  0
LINE
  5
D7
330
2
100
AcDbEntity
  8
0
100
AcDbLine
 10
40.65507600786785
 20
8.303952842613416
 30
0.0
 11
40.65507600786785
 21
8.082141084760017
 31
0.0
  0
LWPOLYLINE
  5
D8
330
2
100
AcDbEntity
  8
0
100
AcDbPolyline
 90
        8
 70
   128
 43
0.0
 10
42.68958400592119
 20
8.307462240227405
 10
42.68522796814891
 20
8.326905400992361
 10
42.67217850796423
 20
8.349759673001917
 10
42.65049150521466
 20
8.372417793161716
 10
42.6202598270015
 20
8.394782735836272
 10
42.58161292993325
 20
8.416758730986401
 10
42.53471630602781
 20
8.438251674021612
 10
42.50519801359912
 20
8.449939096409362
  0
LINE
  5
D9
330
2
100
AcDbEntity
  8
0
100
AcDbLine
 10
42.68958400592119
 20
8.303952842613416
 30
0.0
 11
42.68958400592119
 21
8.082141084760017
 31
0.0
  0
LWPOLYLINE
  5
DA
330
2
100
AcDbEntity
  8
0
100
AcDbPolyline
 90
       17
 70
   128
 43
0.0
 10
33.7035540243529
 20
15.00835756157085
 10
33.73646766608243
 20
15.06079724529261
 10
33.73287622464442
 20
15.12584988408395
 10
33.69332646445067
 20
15.1936118034254
 10
33.62383947799571
 20
15.25376686531064
 10
33.53499402902218
 20
15.29715700684878
 10
33.44031603181882
 20
15.31717647241999
 10
33.35421935314495
 20
15.31077747983019
 10
33.28981143183107
 20
15.27893421768112
 10
33.25689779015239
 20
15.22649453395946
 10
33.26048923159021
 20
15.16144189516802
 10
33.30003899178405
 20
15.09367997587752
 10
33.36952597823902
 20
15.03352491399214
 10
33.45837142716155
 20
14.99013477240319
 10
33.55304942441581
 20
14.97011530683203
 10
33.63914610308973
 20
14.97651429942187
 10
33.7035540243529
 20
15.00835756157085
  0
LINE
  5
DB
330
2
100
AcDbEntity
  8
0
100
AcDbLine
 10
33.86400398104611
 20
15.94712934732063
 30
0.0
 11
32.81797862217422
 21
16.63120212329415
 31
0.0
  0
ARC
  5
DC
330
2
100
AcDbEntity
  8
0
100
AcDbCircle
 10
32.56536033277011
 20
13.89343008973676
 30
0.0
 40
2.429846901731218
100
AcDbArc
 50
35.02348436039476
 51
57.6930465511018
  0
LINE
  5
DD
330
2
100
AcDbEntity
  8
0
100
AcDbLine
 10
34.5552029722863
 20
15.2879487291467
 30
0.0
 11
34.5691309851588
 21
15.26719439252178
 31
0.0
  0
ARC
  5
DE
330
2
100
AcDbEntity
  8
0
100
AcDbCircle
 10
35.06659164505066
 20
15.61582405233614
 30
0.0
 40
0.6074617254334047
100
AcDbArc
 50
215.0234843603946
 51
237.6930465511018
  0
LINE
  5
DF
330
2
100
AcDbEntity
  8
0
100
AcDbLine
 10
34.74193073295615
 20
15.10239923796563
 30
0.0
 11
35.38270059692206
 21
14.68335278186837
 31
0.0
  0
ARC
  5
E0
330
2
100
AcDbEntity
  8
0
100
AcDbCircle
 10
31.43484074360904
 20
16.82855505427465
 30
0.0
 40
1.240720521985114
100
AcDbArc
 50
315.6185138918031
 51
349.0309109471987
  0
LWPOLYLINE
  5
E1
330
2
100
AcDbEntity
  8
0
100
AcDbPolyline
 90
        9
 70
   128
 43
0.0
 10
31.63563927979821
 20
15.71150371498566
 10
31.62550434367016
 20
15.63546087181382
 10
31.62553201257198
 20
15.57080408714192
 10
31.63572122332086
 20
15.52001808493777
 10
31.65568041018397
 20
15.4850545428348
 10
31.68464255281234
 20
15.46725709004548
 10
31.72149465229415
 20
15.46730967276937
 10
31.76482050317606
 20
15.48521027023137
 10
31.81295511721293
 20
15.52027097260347
  0
LINE
  5
E2
330
2
100
AcDbEntity
  8
0
100
AcDbLine
 10
31.64038613038262
 20
15.73687083417053
 30
0.0
 11
31.63563927979821
 21
15.71150371498566
 31
0.0
  0
LINE
  5
E3
330
2
100
AcDbEntity
  8
0
100
AcDbLine
 10
32.65764012940931
 20
16.61783863944481
 30
0.0
 11
32.65289327882489
 21
16.59247152020908
 31
0.0
  0
LINE
  5
E4
330
2
100
AcDbEntity
  8
0
100
AcDbLine
 10
31.81295511721293
 20
15.52027097260347
 30
0.0
 11
32.32158211672627
 21
15.96075487524062
 31
0.0
  0
LWPOLYLINE
  5
E5
330
2
100
AcDbEntity
  8
0
100
AcDbPolyline
 90
        9
 70
   128
 43
0.0
 10
32.83309256791689
 20
16.66821336219504
 10
32.8051526992325
 20
16.68315047185934
 10
32.77638783826702
 20
16.6921155583609
 10
32.74816166914135
 20
16.69468360504427
 10
32.72181233766197
 20
16.69073286598436
 10
32.69858901261544
 20
16.68045063773332
 10
32.67959266500389
 20
16.66432438001512
 10
32.66572387345481
 20
16.643118606258
 10
32.65764012940931
 20
16.61783863944481
  0
LINE
  5
E6
330
2
100
AcDbEntity
  8
0
100
AcDbLine
 10
33.87911792678878
 20
15.98414058622156
 30
0.0
 11
32.83309256791689
 21
16.66821336219504
 31
0.0
  0
ARC
  5
E7
330
2
100
AcDbEntity
  8
0
100
AcDbCircle
 10
31.73234776842313
 20
15.72174785831505
 30
0.0
 40
0.0931968201105603
100
AcDbArc
 50
131.4912298236046
 51
170.6613651516
  0
ARC
  5
E8
330
2
100
AcDbEntity
  8
0
100
AcDbCircle
 10
32.58047427851278
 20
13.93044132863766
 30
0.0
 40
2.429846901730638
100
AcDbArc
 50
35.02348436039476
 51
57.6930465511018
  0
ARC
  5
E9
330
2
100
AcDbEntity
  8
0
100
AcDbCircle
 10
35.49336146083901
 20
14.86560527323836
 30
0.0
 40
0.1738511862955778
100
AcDbArc
 50
236.6610925816019
 51
249.1503439898984
  0
LINE
  5
EA
330
2
100
AcDbEntity
  8
0
100
AcDbLine
 10
35.43148486715377
 20
14.70313828542844
 30
0.0
 11
36.44083787715651
 21
14.3222638877457
 31
0.0
  0
ARC
  5
EB
330
2
100
AcDbEntity
  8
0
100
AcDbCircle
 10
35.49165487097447
 20
11.93008537331404
 30
0.0
 40
2.573609609881446
100
AcDbArc
 50
34.06570418839932
 51
68.3575137765024
  0
LINE
  5
EC
330
2
100
AcDbEntity
  8
0
100
AcDbLine
 10
34.75704467869877
 20
15.13941047686649
 30
0.0
 11
35.39781454271559
 21
14.72036402082003
 31
0.0
  0
ARC
  5
ED
330
2
100
AcDbEntity
  8
0
100
AcDbCircle
 10
35.08170559079318
 20
15.65283529128789
 30
0.0
 40
0.6074617254333076
100
AcDbArc
 50
215.0234843603946
 51
237.6930465511018
  0
LINE
  5
EE
330
2
100
AcDbEntity
  8
0
100
AcDbLine
 10
34.57031691807973
 20
15.3249599680476
 30
0.0
 11
34.58424493090138
 21
15.30420563142272
 31
0.0
  0
LINE
  5
EF
330
2
100
AcDbEntity
  8
0
100
AcDbLine
 10
33.71866797009533
 20
15.04536880052265
 30
0.0
 11
33.73776833828617
 21
15.06678752623195
 31
0.0
  0
LINE
  5
F0
330
2
100
AcDbEntity
  8
0
100
AcDbLine
 10
40.94564509734678
 20
23.41244816740415
 30
0.0
 11
40.94564509734678
 21
17.64000571768866
 31
0.0
  0
ARC
  5
F1
330
2
100
AcDbEntity
  8
0
100
AcDbCircle
 10
41.00325066700743
 20
23.24704943205405
 30
0.0
 40
0.5123595455080105
100
AcDbArc
 50
52.32501578654819
 51
107.1778750529978
  0
LINE
  5
F2
330
2
100
AcDbEntity
  8
0
100
AcDbLine
 10
40.7204687190452
 20
23.86966416970556
 30
0.0
 11
40.73548307979199
 21
23.85721105494304
 31
0.0
  0
ARC
  5
F3
330
2
100
AcDbEntity
  8
0
100
AcDbCircle
 10
40.41662003132996
 20
23.43322343570849
 30
0.0
 40
0.5294328401849678
100
AcDbArc
 50
357.7511011825993
 51
47.59820542880005
  0
LINE
  5
F4
330
2
100
AcDbEntity
  8
0
100
AcDbLine
 10
44.4704948092671
 20
22.90297376997996
 30
0.0
 11
44.4704948092671
 21
17.21978187990329
 31
0.0
  0
LINE
  5
F5
330
2
100
AcDbEntity
  8
0
100
AcDbLine
 10
44.2422506771884
 20
23.35903803513796
 30
0.0
 11
44.26033279166158
 21
23.3477366575189
 31
0.0
  0
ARC
  5
F6
330
2
100
AcDbEntity
  8
0
100
AcDbCircle
 10
43.94146974319958
 20
22.92374903828434
 30
0.0
 40
0.5294328401852513
100
AcDbArc
 50
357.7511011825993
 51
47.59820542880005
  0
LINE
  5
F7
330
2
100
AcDbEntity
  8
0
100
AcDbLine
 10
45.30839271509093
 20
21.61784319829793
 30
0.0
 11
45.30839271509093
 21
16.22398590253466
 31
0.0
  0
ARC
  5
F8
330
2
100
AcDbEntity
  8
0
100
AcDbCircle
 10
45.57235664739693
 20
21.43732019525886
 30
0.0
 40
0.5854726249501416
100
AcDbArc
 50
47.2340923472079
 51
107.8054939517954
  0
LINE
  5
F9
330
2
100
AcDbEntity
  8
0
100
AcDbLine
 10
45.39332696348036
 20
21.99474872594508
 30
0.0
 11
45.21397087027734
 21
21.94297308162663
 31
0.0
  0
LINE
  5
FA
330
2
100
AcDbEntity
  8
0
100
AcDbLine
 10
45.08321633673846
 20
22.07505920054853
 30
0.0
 11
45.09823069753614
 21
22.06260608583688
 31
0.0
  0
ARC
  5
FB
330
2
100
AcDbEntity
  8
0
100
AcDbCircle
 10
44.77936764907409
 20
21.63861846655145
 30
0.0
 40
0.5294328401852302
100
AcDbArc
 50
357.7511011825993
 51
47.59820542880005
  0
LINE
  5
FC
330
2
100
AcDbEntity
  8
0
100
AcDbLine
 10
42.00132221526215
 20
22.95369047028048
 30
0.0
 11
42.00132221526215
 21
17.6615277517193
 31
0.0
  0
ARC
  5
FD
330
2
100
AcDbEntity
  8
0
100
AcDbCircle
 10
42.8473058671889
 20
23.01472903857546
 30
0.0
 40
0.5167470331956254
100
AcDbArc
 50
50.81327660355196
 51
111.3846782333007
  0
LINE
  5
FE
330
2
100
AcDbEntity
  8
0
100
AcDbLine
 10
42.65888553705949
 20
23.49589977282022
 30
0.0
 11
41.90690037044858
 21
23.27882035366
 31
0.0
  0
LINE
  5
FF
330
2
100
AcDbEntity
  8
0
100
AcDbLine
 10
37.28498192496786
 20
21.23981318007497
 30
0.0
 11
37.28498192496786
 21
15.87350512242498
 31
0.0
  0
ARC
  5
100
330
2
100
AcDbEntity
  8
0
100
AcDbCircle
 10
38.28638556911016
 20
21.19029487644741
 30
0.0
 40
1.002627209327252
100
AcDbArc
 50
107.2086421099009
 51
177.1690928842982
  0
LINE
  5
101
330
2
100
AcDbEntity
  8
0
100
AcDbLine
 10
38.38545007943895
 20
22.26226521692987
 30
0.0
 11
37.98975616919743
 21
22.14803822410989
 31
0.0
  0
LINE
  5
102
330
2
100
AcDbEntity
  8
0
100
AcDbLine
 10
41.77307808317898
 20
23.40975473544842
 30
0.0
 11
41.79116019765651
 21
23.39845335781938
 31
0.0
  0
ARC
  5
103
330
2
100
AcDbEntity
  8
0
100
AcDbCircle
 10
41.47229714919444
 20
22.97446573858482
 30
0.0
 40
0.5294328401853102
100
AcDbArc
 50
357.7511011825993
 51
47.59820542869862
  0
LINE
  5
104
330
2
100
AcDbEntity
  8
0
100
AcDbLine
 10
44.73724789013738
 20
22.2164733202879
 30
0.0
 11
44.73724789013738
 21
17.12078802583654
 31
0.0
  0
LINE
  5
105
330
2
100
AcDbEntity
  8
0
100
AcDbLine
 10
44.51207151178504
 20
22.6736893225383
 30
0.0
 11
44.52708587253179
 21
22.66123620782664
 31
0.0
  0
ARC
  5
106
330
2
100
AcDbEntity
  8
0
100
AcDbCircle
 10
44.20822282406986
 20
22.2372485885921
 30
0.0
 40
0.5294328401855364
100
AcDbArc
 50
357.7511011825993
 51
47.59820542869862
  0
ARC
  5
107
330
2
100
AcDbEntity
  8
0
100
AcDbCircle
 10
38.10500830858501
 20
14.98975975912247
 30
0.0
 40
1.263420982631137
100
AcDbArc
 50
153.7491252294997
 51
202.0399703625993
  0
ARC
  5
108
330
2
100
AcDbEntity
  8
0
100
AcDbCircle
 10
37.17088873354994
 20
15.24883286450628
 30
0.0
 40
0.3779124060033443
100
AcDbArc
 50
74.5556454280006
 51
93.16583361735483
  0
ARC
  5
109
330
2
100
AcDbEntity
  8
0
100
AcDbCircle
 10
37.12096274992007
 20
15.4367501516994
 30
0.0
 40
0.1863532321096645
100
AcDbArc
 50
91.71834299110127
 51
143.125574966201
  0
LINE
  5
10A
330
2
100
AcDbEntity
  8
0
100
AcDbLine
 10
37.4920626278218
 20
15.5494357310696
 30
0.0
 11
37.27152770526615
 21
15.61309867953982
 31
0.0
  0
LWPOLYLINE
  5
10B
330
2
100
AcDbEntity
  8
0
100
AcDbPolyline
 90
        6
 70
   128
 43
0.0
 10
38.35244799851143
 20
16.74417303508684
 10
38.32214074783749
 20
16.72607452063596
 10
38.30099204604787
 20
16.70497068951321
 10
38.29014063971945
 20
16.68199787226662
 10
38.29017082017056
 20
16.65839303465261
 10
38.29524710078226
 20
16.64481904148149
  0
LWPOLYLINE
  5
10C
330
2
100
AcDbEntity
  8
0
100
AcDbPolyline
 90
       18
 70
   128
 43
0.0
 10
38.35244799851143
 20
16.74417303508684
 10
38.67806451565558
 20
16.88493162816032
 10
39.02744222504911
 20
17.01064286320862
 10
39.39780861668518
 20
17.12030915051556
 10
39.78622462352478
 20
17.21306022592796
 10
40.18960794463971
 20
17.28816005714591
 10
40.60475750488062
 20
17.34501268448992
 10
41.0283788574894
 20
17.38316695011477
 10
41.45711032707033
 20
17.40232007843856
 10
41.88754968671881
 20
17.40232007843856
 10
42.31628115635056
 20
17.38316695011477
 10
42.73990250890864
 20
17.34501268448992
 10
43.15505206920019
 20
17.28816005714591
 10
43.55843539026428
 20
17.21306022592796
 10
43.94685139710388
 20
17.12030915051556
 10
44.31721778873985
 20
17.01064286320862
 10
44.66659549813331
 20
16.88493162816032
 10
44.99221201532848
 20
16.74417303508684
  0
LWPOLYLINE
  5
10D
330
2
100
AcDbEntity
  8
0
100
AcDbPolyline
 90
        6
 70
   128
 43
0.0
 10
45.04941291305772
 20
16.64481904148149
 10
45.05448919366938
 20
16.65839303465261
 10
45.0545193741205
 20
16.68199787226662
 10
45.04366796779208
 20
16.70497068951321
 10
45.02251926595155
 20
16.72607452063596
 10
44.99221201532848
 20
16.74417303508684
  0
LINE
  5
10E
330
2
100
AcDbEntity
  8
0
100
AcDbLine
 10
45.8525973859673
 20
15.5494357310696
 30
0.0
 11
46.07313230852297
 21
15.61309867953982
 31
0.0
  0
ARC
  5
10F
330
2
100
AcDbEntity
  8
0
100
AcDbCircle
 10
46.21944832951505
 20
15.4285608097207
 30
0.0
 40
0.1947074225952724
100
AcDbArc
 50
38.05200051430306
 51
87.1040815284005
  0
ARC
  5
110
330
2
100
AcDbEntity
  8
0
100
AcDbCircle
 10
46.17377128023912
 20
15.24883286450628
 30
0.0
 40
0.3779124060008091
100
AcDbArc
 50
89.0898963465983
 51
105.4443545719994
  0
ARC
  5
111
330
2
100
AcDbEntity
  8
0
100
AcDbCircle
 10
45.2424315958973
 20
14.98986195795246
 30
0.0
 40
1.260883103889747
100
AcDbArc
 50
337.9083226160975
 51
26.30258179170065
  0
LINE
  5
112
330
2
100
AcDbEntity
  8
0
100
AcDbLine
 10
38.35244799851143
 20
17.00846337667921
 30
0.0
 11
38.35244799851143
 21
16.74417303508684
 31
0.0
  0
LWPOLYLINE
  5
113
330
2
100
AcDbEntity
  8
0
100
AcDbPolyline
 90
       18
 70
   128
 43
0.0
 10
38.35244799851143
 20
17.00846337667921
 10
38.67806451565558
 20
17.14922196970191
 10
39.02744222504911
 20
17.27493320480107
 10
39.39780861668518
 20
17.38459949210801
 10
39.78622462352478
 20
17.47735056752042
 10
40.18960794463971
 20
17.55245039868751
 10
40.60475750488062
 20
17.60930302603152
 10
41.0283788574894
 20
17.64745729170738
 10
41.45711032707033
 20
17.66661041998016
 10
41.88754968671881
 20
17.66661041998016
 10
42.31628115635056
 20
17.64745729170738
 10
42.73990250890864
 20
17.60930302603152
 10
43.15505206920019
 20
17.55245039868751
 10
43.55843539026428
 20
17.47735056752042
 10
43.94685139710388
 20
17.38459949210801
 10
44.31721778873985
 20
17.27493320480107
 10
44.66659549813331
 20
17.14922196970191
 10
44.99221201532848
 20
17.00846337667921
  0
ARC
  5
114
330
2
100
AcDbEntity
  8
0
100
AcDbCircle
 10
44.96690459969628
 20
16.922287821707
 30
0.0
 40
0.0898147624900857
100
AcDbArc
 50
7.847202258501442
 51
73.63392158790087
  0
ARC
  5
115
330
2
100
AcDbEntity
  8
0
100
AcDbCircle
 10
38.37775541414363
 20
16.922287821707
 30
0.0
 40
0.0898147624902928
100
AcDbArc
 50
106.3660784122015
 51
172.1527977414985
  0
LINE
  5
116
330
2
100
AcDbEntity
  8
0
100
AcDbLine
 10
45.7997393176793
 20
15.79846726267667
 30
0.0
 11
45.7997393176793
 21
15.59521216102579
 31
0.0
  0
LINE
  5
117
330
2
100
AcDbEntity
  8
0
100
AcDbLine
 10
45.7997393176793
 20
15.79846726267667
 30
0.0
 11
45.09793044667685
 21
16.40625157349845
 31
0.0
  0
LINE
  5
118
330
2
100
AcDbEntity
  8
0
100
AcDbLine
 10
37.54492069616057
 20
15.79846726267667
 30
0.0
 11
37.54492069616057
 21
15.59521216102579
 31
0.0
  0
LINE
  5
119
330
2
100
AcDbEntity
  8
0
100
AcDbLine
 10
38.24632925101152
 20
16.40590488962266
 30
0.0
 11
37.54492069616057
 21
15.79846726267667
 31
0.0
  0
ARC
  5
11A
330
2
100
AcDbEntity
  8
0
100
AcDbCircle
 10
46.17362669192647
 20
15.61607254816025
 30
0.0
 40
0.2799739632802624
100
AcDbArc
 50
44.65955158619959
 51
111.0352280554994
  0
ARC
  5
11B
330
2
100
AcDbEntity
  8
0
100
AcDbCircle
 10
37.17103332186258
 20
15.61607254816025
 30
0.0
 40
0.2799739632802125
100
AcDbArc
 50
68.96477194439872
 51
135.3404484138003
  0
LINE
  5
11C
330
2
100
AcDbEntity
  8
0
100
AcDbLine
 10
37.54492069616057
 20
15.79846726267667
 30
0.0
 11
37.27152770526615
 21
15.87738902108152
 31
0.0
  0
LINE
  5
11D
330
2
100
AcDbEntity
  8
0
100
AcDbLine
 10
46.07313230852297
 20
15.87738902108152
 30
0.0
 11
45.7997393176793
 21
15.79846726267667
 31
0.0
  0
ARC
  5
11E
330
2
100
AcDbEntity
  8
0
100
AcDbCircle
 10
45.21527719058051
 20
15.24558252084658
 30
0.0
 40
1.289030825394396
100
AcDbArc
 50
0.331027545703345
 51
26.10923335450205
  0
ARC
  5
11F
330
2
100
AcDbEntity
  8
0
100
AcDbCircle
 10
38.12510897126875
 20
15.24658652806231
 30
0.0
 40
1.284751617353233
100
AcDbArc
 50
153.8470930919008
 51
179.7126460079025
  0
ARC
  5
120
330
2
100
AcDbEntity
  8
0
100
AcDbCircle
 10
42.00526420369956
 20
16.63894673942297
 30
0.0
 40
3.94847273123409
100
AcDbArc
 50
279.828063999199
 51
296.2958369520994
  0
ARC
  5
121
330
2
100
AcDbEntity
  8
0
100
AcDbCircle
 10
41.67747178670502
 20
18.2257785746011
 30
0.0
 40
5.568212416697492
100
AcDbArc
 50
266.7408050475699
 51
280.3643981844409
  0
ARC
  5
122
330
2
100
AcDbEntity
  8
0
100
AcDbCircle
 10
41.50005029551595
 20
17.07728653664209
 30
0.0
 40
4.412908486921705
100
AcDbArc
 50
244.355405151397
 51
268.193045810902
  0
LWPOLYLINE
  5
123
330
2
100
AcDbEntity
  8
0
100
AcDbPolyline
 90
       71
 70
   128
 43
0.0
 10
42.9788312073978
 20
9.017755419840279
 10
42.59329391498513
 20
8.967737633156902
 10
42.20034156266124
 20
8.935200851583621
 10
41.80313797180144
 20
8.920407042184933
 10
41.40488119208899
 20
8.923475316045529
 10
41.00877775303661
 20
8.944380969151827
 10
40.61801684648709
 20
8.982955681469418
 10
40.23574464964648
 20
9.038888872178675
 10
39.86503899337495
 20
9.111730200086253
 10
39.50888458167574
 20
9.20089318962567
 10
39.17014896044237
 20
9.305659952849874
 10
38.85155942976059
 20
9.425186969416788
 10
38.55568108515821
 20
9.558511877980766
 10
38.28489616516169
 20
9.704561224819784
 10
38.04138487061614
 20
9.86215910652692
 10
37.82710781140809
 20
10.03003663754278
 10
37.64379022031091
 20
10.20684216669138
 10
37.49290806283922
 20
10.39115215986546
 10
37.37567615343349
 20
10.58148266137627
 10
37.29303837446086
 20
10.77630124190701
 10
37.24566007671779
 20
10.9740393367864
 10
37.23392272241758
 20
11.17310487519731
 10
37.25792081379545
 20
11.37189509839113
 10
37.31746113240612
 20
11.56880946446975
 10
37.4120642945562
 20
11.76226253470517
 10
37.54096861122285
 20
11.95069673865327
 10
37.70313622067231
 20
12.13259491501317
 10
37.89726144464103
 20
12.30649252655949
 10
38.12178130094456
 20
12.47098945199786
 10
38.37488808772243
 20
12.62476125881763
 10
38.65454393800423
 20
12.76656986680949
 10
38.95849722725248
 20
12.89527351644286
 10
39.28430070235559
 20
13.00983596163728
 10
39.62933118527838
 20
13.10933481292412
 10
39.99081069349233
 20
13.19296896411257
 10
40.36582880644217
 20
13.26006504208691
 10
40.75136609885482
 20
13.31008282877029
 10
41.1443184511278
 20
13.34261961034362
 10
41.54152204203852
 20
13.3574134197423
 10
41.93977882170007
 20
13.35434514593257
 10
42.33588226080324
 20
13.33343949282622
 10
42.72664316730198
 20
13.29486478045787
 10
43.10891536419352
 20
13.23893158974852
 10
43.479621020465
 20
13.16609026184108
 10
43.83577543216417
 20
13.07692727230162
 10
44.17451105334669
 20
12.97216050907736
 10
44.49310058402846
 20
12.85263349256136
 10
44.78897892863085
 20
12.71930858399738
 10
45.05976384867831
 20
12.5732592371075
 10
45.30327514317291
 20
12.41566135545122
 10
45.51755220243188
 20
12.24778382443541
 10
45.70086979352896
 20
12.0709782952359
 10
45.85175195094984
 20
11.88666830206177
 10
45.96898386040647
 20
11.69633780060178
 10
46.051621639379
 20
11.50151922007123
 10
46.09899993712216
 20
11.30378112514093
 10
46.11073729142247
 20
11.10471558678073
 10
46.08673919999374
 20
10.90592536353606
 10
46.02719888143378
 20
10.70901099745748
 10
45.93259571928371
 20
10.51555792727293
 10
45.80369140256619
 20
10.32712372327406
 10
45.64152379316763
 20
10.14522554691402
 10
45.44739856919883
 20
9.971327935367657
 10
45.22287871289539
 20
9.80683100992933
 10
44.96977192606661
 20
9.65305920316052
 10
44.69011607583563
 20
9.511250595168554
 10
44.38616278653657
 20
9.382546945535379
 10
44.06035931143346
 20
9.267984500290001
 10
43.71532882851076
 20
9.168485649003169
 10
43.35384932034753
 20
9.084851497865574
 10
42.9788312073978
 20
9.017755419840279
  0
LWPOLYLINE
  5
124
330
2
100
AcDbEntity
  8
0
100
AcDbPolyline
 90
       80
 70
   128
 43
0.0
 10
44.51530131261064
 20
8.80016035076238
 10
44.89754041060004
 20
8.920880671425303
 10
45.25938869002091
 20
9.056403855861249
 10
45.59855842948472
 20
9.205873082725311
 10
45.9129052887401
 20
9.368343359571669
 10
46.20044186571935
 20
9.542787496932602
 10
46.45935026160817
 20
9.72810260282317
 10
46.68799357413749
 20
9.923117055458808
 10
46.88492624676977
 20
10.12659791069473
 10
47.0489032076077
 20
10.33725869709137
 10
47.17888774161663
 20
10.55376754926641
 10
47.27405804464022
 20
10.77475562852047
 10
47.33381241943246
 20
10.99882577717614
 10
47.35777307957617
 20
11.2245613515468
 10
47.34578853809806
 20
11.45053517860412
 10
47.29793456506079
 20
11.67531857912276
 10
47.21451370874088
 20
11.89749040008181
 10
47.09605338263202
 20
12.11564599961174
 10
46.94330253108995
 20
12.32840612787621
 10
46.757226894117
 20
12.53442564676975
 10
46.53900290185421
 20
12.73240203461917
 10
46.29001023662328
 20
12.92108362090507
 10
46.01182311022842
 20
13.09927749988838
 10
45.70620031124465
 20
13.26585707253058
 10
45.37507408541439
 20
13.41976916910368
 10
45.02053791929143
 20
13.56004070777787
 10
44.64483330480026
 20
13.68578484677158
 10
44.25033556736171
 20
13.79620659114875
 10
43.83953884873212
 20
13.89060781902123
 10
43.41504033798891
 20
13.96839169546406
 10
42.97952385147502
 20
14.02906644581637
 10
42.53574286459484
 20
14.07224846471381
 10
42.08650310364834
 20
14.09766474152839
 10
41.63464480700684
 20
14.10515458639326
 10
41.18302476834173
 20
14.09467064608385
 10
40.7344982749241
 20
14.06627920349738
 10
40.2919010556887
 20
14.02015975839197
 10
39.85803135274402
 20
13.95660389284234
 10
39.43563223000112
 20
13.87601342736626
 10
39.0273742308254
 20
13.77889788099333
 10
38.63583849360331
 20
13.66587124936712
 10
38.26350043341093
 20
13.53764812326049
 10
37.91271409130785
 20
13.39503917054335
 10
37.58569725155468
 20
13.23894601100244
 10
37.28451741983459
 20
13.07035551580297
 10
37.0110787519976
 20
12.89033356831375
 10
36.76711001541862
 20
12.70001832530778
 10
36.55415365895943
 20
12.50061302095841
 10
36.37355606126689
 20
12.29337835986523
 10
36.22645901849249
 20
12.07962454620702
 10
36.11379252555398
 20
11.86070300049739
 10
36.0362688962533
 20
11.6379978152105
 10
35.99437825994522
 20
11.41291700420918
 10
35.98838546267558
 20
11.18688360085748
 10
36.01832839288335
 20
10.96132666112112
 10
36.08401774173562
 20
10.73767222857099
 10
36.18503820002825
 20
10.51733431856367
 10
36.32075108382107
 20
10.3017059783077
 10
36.49029837262975
 20
10.09215047952888
 10
36.6926081339342
 20
9.889992699684997
 10
36.9264013001741
 20
9.6965107452852
 10
37.1901997558177
 20
9.512927871485842
 10
37.48233568195852
 20
9.340404748416785
 10
37.80096210132201
 20
9.18003212276214
 10
38.14406455502028
 20
9.032823921896708
 10
38.50947383892725
 20
8.899710843508088
 10
38.89487971783978
 20
8.781534471289864
 10
39.29784553177018
 20
8.679041954297408
 10
39.71582360108755
 20
8.59288128322607
 10
40.14617133381999
 20
8.523597193676083
 10
40.58616793303427
 20
8.47162772183158
 10
41.0330315986003
 20
8.437301435546219
 10
41.48393711454685
 20
8.420835356551037
 10
41.93603371102495
 20
8.422333588789287
 10
42.38646308775868
 20
8.441786659897015
 10
42.83237748525871
 20
8.479071581271616
 10
43.27095768909808
 20
8.533952625712032
 10
43.6994308539831
 20
8.606082817543102
 10
44.11508803470139
 20
8.695006126476384
 10
44.51530131261064
 20
8.80016035076238
  0
LWPOLYLINE
  5
125
330
2
100
AcDbEntity
  8
0
100
AcDbPolyline
 90
       43
 70
   128
 43
0.0
 10
47.3616805160151
 20
11.22408909468383
 10
47.36845192442928
 20
11.33020670641967
 10
47.35644487264616
 20
11.55660497523133
 10
47.30850101652054
 20
11.78181058157981
 10
47.2249234726181
 20
12.00439970306841
 10
47.10624064508507
 20
12.22296505957912
 10
46.95320288488541
 20
12.43612481058386
 10
46.76677774609061
 20
12.6425312914745
 10
46.54814386841858
 20
12.84087953408179
 10
46.2986835256462
 20
13.02991551691085
 10
46.01997388632785
 20
13.20844409361859
 10
45.71377704267269
 20
13.37533654902424
 10
45.38202886957856
 20
13.52953773540012
 10
45.02682678589619
 20
13.67007274311452
 10
44.65041649350654
 20
13.79605306458118
 10
44.25517777950681
 20
13.90668221173906
 10
43.8436094702602
 20
14.0012607514086
 10
43.4183136331877
 20
14.07919072760019
 10
42.98197912543086
 20
14.13997944203695
 10
42.53736459431691
 20
14.18324256878288
 10
42.08728103603021
 20
14.20870658441203
 10
41.63457402372696
 20
14.21621049728941
 10
41.18210571689032
 20
14.20570686523132
 10
40.73273676585572
 20
14.17726209559632
 10
40.28930822579878
 20
14.13105602536183
 10
39.85462359477534
 20
14.06738078419088
 10
39.43143108893576
 20
13.98663894740339
 10
39.02240626752137
 20
13.88934099095961
 10
38.63013511720171
 20
13.77610206386614
 10
38.25709770246344
 20
13.6476380990098
 10
37.90565248601337
 20
13.5047612870385
 10
37.57802141756354
 20
13.34837494106045
 10
37.27627588626613
 20
13.17946778598262
 10
37.00232362448349
 20
12.99910770718056
 10
36.75789664671628
 20
12.80843499913566
 10
36.5445402989148
 20
12.60865515610549
 10
36.36360348867004
 20
12.40103125065324
 10
36.2162301567087
 20
12.18687594784795
 10
36.10335204472588
 20
11.96754320650614
 10
36.02568280446723
 20
11.74441971889794
 10
35.98371348585109
 20
11.5189161434416
 10
35.97770943246249
 20
11.29245818643778
 10
35.98297949782482
 20
11.22408909468383
  0
SPLINE
  5
126
330
2
100
AcDbEntity
  8
0
100
AcDbSpline
210
0.0
220
0.0
230
1.0
 70
     8
 71
     3
 72
     8
 73
     4
 74
     0
 42
0.000000001
 43
0.0000000001
 40
0.0
 40
0.0
 40
0.0
 40
0.0
 40
1.0
 40
1.0
 40
1.0
 40
1.0
 10
38.28390092738929
 20
16.63901486468645
 30
0.0
 10
38.28218191307432
 20
16.63813247282049
 30
0.0
 10
38.28048229580814
 20
16.63711553169068
 30
0.0
 10
38.27880128674943
 20
16.6359692659999
 30
0.0
  0
LWPOLYLINE
  5
127
330
2
100
AcDbEntity
  8
0
100
AcDbPolyline
 90
       19
 70
   128
 43
0.0
 10
38.28390092738752
 20
16.63901486466899
 10
38.5896906100941
 20
16.78264732505602
 10
38.91973192136094
 20
16.9121668193138
 10
39.27142837218467
 20
17.02655439640963
 10
39.64201310905011
 20
17.12491015057858
 10
40.02857068123291
 20
17.20646030100493
 10
40.42805997697858
 20
17.2705632792738
 10
40.83733814865505
 20
17.31671477678121
 10
41.25318533792454
 20
17.34455171217812
 10
41.67233000689452
 20
17.3538550877178
 10
42.09147467591541
 20
17.34455171217812
 10
42.50732186518491
 20
17.31671477678121
 10
42.91660003686136
 20
17.2705632792738
 10
43.31608933260699
 20
17.20646030100493
 10
43.70264690478994
 20
17.12491015057858
 10
44.07323164165529
 20
17.02655439640963
 10
44.42492809247902
 20
16.9121668193138
 10
44.75496940374585
 20
16.78264732505602
 10
45.06075908645244
 20
16.63901486466899
  0
SPLINE
  5
128
330
2
100
AcDbEntity
  8
0
100
AcDbSpline
210
0.0
220
0.0
230
1.0
 70
     8
 71
     3
 72
     8
 73
     4
 74
     0
 42
0.000000001
 43
0.0000000001
 40
0.0
 40
0.0
 40
0.0
 40
0.0
 40
1.0
 40
1.0
 40
1.0
 40
1.0
 10
45.06585872707559
 20
16.6359692659999
 30
0.0
 10
45.06417171634771
 20
16.63711962417756
 30
0.0
 10
45.06246580588004
 20
16.63813878393369
 30
0.0
 10
45.06075908643574
 20
16.63901486468645
 30
0.0
  0
ARC
  5
129
330
2
100
AcDbEntity
  8
0
100
AcDbCircle
 10
43.23999499374899
 20
11.36651186321627
 30
0.0
 40
4.058561691828513
100
AcDbArc
 50
58.91894095319822
 51
60.30942141249127
  0
SPLINE
  5
12A
330
2
100
AcDbEntity
  8
0
100
AcDbSpline
210
0.0
220
0.0
230
1.0
 70
     8
 71
     3
 72
    12
 73
     8
 74
     0
 42
0.000000001
 43
0.0000000001
 40
0.0
 40
0.0
 40
0.0
 40
0.0
 40
0.2500000000000026
 40
0.2500000000000026
 40
0.5000000000000054
 40
0.5000000000000054
 40
1.0
 40
1.0
 40
1.0
 40
1.0
 10
45.40141045367114
 20
14.71546564376932
 30
0.0
 10
45.40116389521116
 20
14.72711393207798
 30
0.0
 10
45.39925630106175
 20
14.73957028869289
 30
0.0
 10
45.39238678058782
 20
14.7648180076483
 30
0.0
 10
45.38742897203451
 20
14.77747691771637
 30
0.0
 10
45.3692035088386
 20
14.81253912446216
 30
0.0
 10
45.35240139372443
 20
14.83206281320917
 30
0.0
 10
45.33522841753088
 20
14.84241748713566
 30
0.0
  0
LWPOLYLINE
  5
12B
330
2
100
AcDbEntity
  8
0
100
AcDbPolyline
 90
        3
 70
   128
 43
0.0
 10
45.4269049704905
 20
13.50993200066146
 10
45.42378055397485
 20
13.65783824513736
 10
45.40141045367003
 20
14.71546564379293
  0
LWPOLYLINE
  5
12C
330
2
100
AcDbEntity
  8
0
100
AcDbPolyline
 90
        3
 70
   128
 43
0.0
 10
37.94324956016982
 20
14.71546564379293
 10
37.92087945986506
 20
13.65783824513736
 10
37.91765893390366
 20
13.50538229029077
  0
SPLINE
  5
12D
330
2
100
AcDbEntity
  8
0
100
AcDbSpline
210
0.0
220
0.0
230
1.0
 70
     8
 71
     3
 72
    12
 73
     8
 74
     0
 42
0.000000001
 43
0.0000000001
 40
0.0
 40
0.0
 40
0.0
 40
0.0
 40
0.2499999999999969
 40
0.2499999999999969
 40
0.4999999999999938
 40
0.4999999999999938
 40
1.0
 40
1.0
 40
1.0
 40
1.0
 10
38.00943159629421
 20
14.84241748713566
 30
0.0
 10
38.00084321350565
 20
14.83723900774289
 30
0.0
 10
37.99243824769332
 20
14.82993090673165
 30
0.0
 10
37.97665930118302
 20
14.81171742197164
 30
0.0
 10
37.96942609775248
 20
14.80092652483979
 30
0.0
 10
37.95116644029808
 20
14.7658322889188
 30
0.0
 10
37.94374279173318
 20
14.73876763729103
 30
0.0
 10
37.94324956015394
 20
14.71546564376932
 30
0.0
  0
ARC
  5
12E
330
2
100
AcDbEntity
  8
0
100
AcDbCircle
 10
40.10466501988748
 20
11.36651186352142
 30
0.0
 40
4.058561691473681
100
AcDbArc
 50
119.6902069767078
 51
121.0810590468965
  0
LINE
  5
12F
330
2
100
AcDbEntity
  8
0
100
AcDbLine
 10
45.8769805751734
 20
14.10699555749462
 30
0.0
 11
45.9260915665359
 21
15.00291686568484
 31
0.0
  0
LINE
  5
130
330
2
100
AcDbEntity
  8
0
100
AcDbLine
 10
45.8769805751734
 20
14.10699555749462
 30
0.0
 11
45.8835016293048
 21
13.58674536683873
 31
0.0
  0
LINE
  5
131
330
2
100
AcDbEntity
  8
0
100
AcDbLine
 10
45.17844297071096
 20
15.6503995427596
 30
0.0
 11
45.9260915665359
 21
15.00291686568484
 31
0.0
  0
LINE
  5
132
330
2
100
AcDbEntity
  8
0
100
AcDbLine
 10
37.46767943861563
 20
14.10699555749462
 30
0.0
 11
37.46115838448506
 21
13.58674536689861
 31
0.0
  0
LINE
  5
133
330
2
100
AcDbEntity
  8
0
100
AcDbLine
 10
37.41856844730401
 20
15.00291686568484
 30
0.0
 11
37.46767943861563
 21
14.10699555749462
 31
0.0
  0
SPLINE
  5
134
330
2
100
AcDbEntity
  8
0
100
AcDbSpline
210
0.0
220
0.0
230
1.0
 70
     8
 71
     3
 72
    10
 73
     6
 74
     0
 42
0.000000001
 43
0.0000000001
 40
0.0
 40
0.0
 40
0.0
 40
0.0
 40
0.4078392726141181
 40
0.8137745974586408
 40
1.0
 40
1.0
 40
1.0
 40
1.0
 10
45.06585872707559
 20
16.6359692659999
 30
0.0
 10
45.06794958884956
 20
16.63406334689112
 30
0.0
 10
45.07212155146511
 20
16.63026040622388
 30
0.0
 10
45.07494162772231
 20
16.62352768225906
 30
0.0
 10
45.07499378517746
 20
16.61895879225666
 30
0.0
 10
45.0750101878916
 20
16.61752194691969
 30
0.0
  0
SPLINE
  5
135
330
2
100
AcDbEntity
  8
0
100
AcDbSpline
210
0.0
220
0.0
230
1.0
 70
     8
 71
     3
 72
    10
 73
     6
 74
     0
 42
0.000000001
 43
0.0000000001
 40
0.0
 40
0.0
 40
0.0
 40
0.0
 40
0.1854124774339302
 40
0.5917533138519261
 40
1.0
 40
1.0
 40
1.0
 40
1.0
 10
38.26965094705135
 20
16.61754473807957
 30
0.0
 10
38.26966744872685
 20
16.61897381630992
 30
0.0
 10
38.26972011465968
 20
16.62353479187233
 30
0.0
 10
38.2725388151776
 20
16.63026027928929
 30
0.0
 10
38.27671054276446
 20
16.6340633045138
 30
0.0
 10
38.27880128674943
 20
16.63596926599999
 30
0.0
  0
LINE
  5
136
330
2
100
AcDbEntity
  8
0
100
AcDbLine
 10
37.41439067261385
 20
13.6387214850683
 30
0.0
 11
37.41268843573182
 21
13.97509598612074
 31
0.0
  0
LINE
  5
137
330
2
100
AcDbEntity
  8
0
100
AcDbLine
 10
37.24264359044544
 20
13.81622029117111
 30
0.0
 11
37.2459424344861
 21
14.11157995871892
 31
0.0
  0
LINE
  5
138
330
2
100
AcDbEntity
  8
0
100
AcDbLine
 10
37.41268843573182
 20
13.97509598612074
 30
0.0
 11
37.40050398802471
 21
14.06696188143544
 31
0.0
  0
LINE
  5
139
330
2
100
AcDbEntity
  8
0
100
AcDbLine
 10
45.9302693411752
 20
13.6387214850683
 30
0.0
 11
45.93197157810814
 21
13.97509598612074
 31
0.0
  0
LINE
  5
13A
330
2
100
AcDbEntity
  8
0
100
AcDbLine
 10
45.93197157810814
 20
13.97509598612074
 30
0.0
 11
45.94415602581521
 21
14.06696188143544
 31
0.0
  0
LINE
  5
13B
330
2
100
AcDbEntity
  8
0
100
AcDbLine
 10
46.09871757935376
 20
14.11157995871892
 30
0.0
 11
46.10201642342191
 21
13.81622029119626
 31
0.0
  0
SPLINE
  5
13C
330
2
100
AcDbEntity
  8
0
100
AcDbSpline
210
0.0
220
0.0
230
1.0
 70
     8
 71
     3
 72
     8
 73
     4
 74
     0
 42
0.000000001
 43
0.0000000001
 40
0.0
 40
0.0
 40
0.0
 40
0.0
 40
1.0
 40
1.0
 40
1.0
 40
1.0
 10
37.12173692918526
 20
15.63392213853603
 30
0.0
 10
37.12108190332202
 20
15.63304423352906
 30
0.0
 10
37.12041881489706
 20
15.6320117800625
 30
0.0
 10
37.11975475824376
 20
15.63083470848824
 30
0.0
  0
SPLINE
  5
13D
330
2
100
AcDbEntity
  8
0
100
AcDbSpline
210
0.0
220
0.0
230
1.0
 70
     8
 71
     3
 72
     8
 73
     4
 74
     0
 42
0.000000001
 43
0.0000000001
 40
0.0
 40
0.0
 40
0.0
 40
0.0
 40
1.0
 40
1.0
 40
1.0
 40
1.0
 10
37.16424762440219
 20
14.17220579454824
 30
0.0
 10
37.14844511233922
 20
14.65997871278496
 30
0.0
 10
37.13424778861103
 20
15.14722890300721
 30
0.0
 10
37.12173692918526
 20
15.63392213853603
 30
0.0
  0
LWPOLYLINE
  5
13E
330
2
100
AcDbEntity
  8
0
100
AcDbPolyline
 90
        3
 70
   128
 43
0.0
 10
37.1632069586938
 20
14.08372997892129
 10
37.16382279958537
 20
14.1360907116274
 10
37.16424762438665
 20
14.17220579456523
  0
ARC
  5
13F
330
2
100
AcDbEntity
  8
0
100
AcDbCircle
 10
38.68222614382911
 20
13.05907829091781
 30
0.0
 40
1.832301931069978
100
AcDbArc
 50
143.4429852452975
 51
145.9984365210995
  0
SPLINE
  5
140
330
2
100
AcDbEntity
  8
0
100
AcDbSpline
210
0.0
220
0.0
230
1.0
 70
     8
 71
     3
 72
    12
 73
     8
 74
     0
 42
0.000000001
 43
0.0000000001
 40
0.0
 40
0.0
 40
0.0
 40
0.0
 40
0.2499999999999952
 40
0.2499999999999952
 40
0.4999999999999905
 40
0.4999999999999905
 40
1.0
 40
1.0
 40
1.0
 40
1.0
 10
37.24594243448936
 20
14.111579958704
 30
0.0
 10
37.2460715799629
 20
14.12312656438378
 30
0.0
 10
37.24520930996477
 20
14.13318414828161
 30
0.0
 10
37.24167104215401
 20
14.14941845818549
 30
0.0
 10
37.23899632029066
 20
14.15546740301753
 30
0.0
 10
37.22903771658855
 20
14.1661214918475
 30
0.0
 10
37.21975127735819
 20
14.16305182978422
 30
0.0
 10
37.21040294411844
 20
14.150438376
 30
0.0
  0
ARC
  5
141
330
2
100
AcDbEntity
  8
0
100
AcDbCircle
 10
38.23024573703488
 20
14.9776393714601
 30
0.0
 40
1.28835335302672
100
AcDbArc
 50
149.5357833040964
 51
178.6153618132983
  0
SPLINE
  5
142
330
2
100
AcDbEntity
  8
0
100
AcDbSpline
210
0.0
220
0.0
230
1.0
 70
     8
 71
     3
 72
    12
 73
     8
 74
     0
 42
0.000000001
 43
0.0000000001
 40
0.0
 40
0.0
 40
0.0
 40
0.0
 40
0.25
 40
0.25
 40
0.5
 40
0.5
 40
1.0
 40
1.0
 40
1.0
 40
1.0
 10
46.13425706970635
 20
14.15043837599985
 30
0.0
 10
46.12958187168643
 20
14.1567464945324
 30
0.0
 10
46.12497830116978
 20
14.16070411644816
 30
0.0
 10
46.11631181530667
 20
14.16366099713012
 30
0.0
 10
46.11232733342472
 20
14.16258490045036
 30
0.0
 10
46.10234968540911
 20
14.15194488840088
 30
0.0
 10
46.09845922833042
 20
14.13467853968159
 30
0.0
 10
46.09871757933567
 20
14.111579958704
 30
0.0
  0
ARC
  5
143
330
2
100
AcDbEntity
  8
0
100
AcDbCircle
 10
44.66243387006165
 20
13.05907829096867
 30
0.0
 40
1.832301930990576
100
AcDbArc
 50
34.00156347890045
 51
36.55701475479984
  0
LWPOLYLINE
  5
144
330
2
100
AcDbEntity
  8
0
100
AcDbPolyline
 90
        3
 70
   128
 43
0.0
 10
46.18041238940239
 20
14.17220579456523
 10
46.18102829773799
 20
14.11984508317061
 10
46.18145305509526
 20
14.08372997892129
  0
SPLINE
  5
145
330
2
100
AcDbEntity
  8
0
100
AcDbSpline
210
0.0
220
0.0
230
1.0
 70
     8
 71
     3
 72
     8
 73
     4
 74
     0
 42
0.000000001
 43
0.0000000001
 40
0.0
 40
0.0
 40
0.0
 40
0.0
 40
1.0
 40
1.0
 40
1.0
 40
1.0
 10
46.22292308463978
 20
15.63392213853603
 30
0.0
 10
46.21041222519433
 20
15.14722890224568
 30
0.0
 10
46.19621490150842
 20
14.65997871348421
 30
0.0
 10
46.18041238942285
 20
14.17220579454824
 30
0.0
  0
SPLINE
  5
146
330
2
100
AcDbEntity
  8
0
100
AcDbSpline
210
0.0
220
0.0
230
1.0
 70
     8
 71
     3
 72
     8
 73
     4
 74
     0
 42
0.000000001
 43
0.0000000001
 40
0.0
 40
0.0
 40
0.0
 40
0.0
 40
1.0
 40
1.0
 40
1.0
 40
1.0
 10
46.22490525558132
 20
15.63083470848824
 30
0.0
 10
46.22423641519458
 20
15.63202025945428
 30
0.0
 10
46.2235757801985
 20
15.63304735674289
 30
0.0
 10
46.22292308463978
 20
15.63392213853603
 30
0.0
  0
ARC
  5
147
330
2
100
AcDbEntity
  8
0
100
AcDbCircle
 10
45.11441427675422
 20
14.9776393714601
 30
0.0
 40
1.288353353093745
100
AcDbArc
 50
1.384638187402171
 51
30.46421669510242
  0
ELLIPSE
  5
148
330
2
100
AcDbEntity
  8
0
100
AcDbEllipse
 10
45.88345789708428
 20
15.48821895604834
 30
0.0
 11
-0.0218360124506172
 21
0.0465628135869291
 31
0.0
210
0.0
220
0.0
230
1.0
 40
0.3316363469000001
 41
6.230574358443153
 42
7.094878122530499
  0
LINE
  5
149
330
2
100
AcDbEntity
  8
0
100
AcDbLine
 10
45.9260915665359
 20
15.00291686568484
 30
0.0
 11
45.85722640176491
 21
15.51501335314042
 31
0.0
  0
LINE
  5
14A
330
2
100
AcDbEntity
  8
0
100
AcDbLine
 10
45.12178113581408
 20
16.18234116922286
 30
0.0
 11
45.86748077790661
 21
15.53654633559817
 31
0.0
  0
LINE
  5
14B
330
2
100
AcDbEntity
  8
0
100
AcDbLine
 10
37.41856844730401
 20
15.00291686568484
 30
0.0
 11
37.48743361202413
 21
15.51501335314042
 31
0.0
  0
ELLIPSE
  5
14C
330
2
100
AcDbEntity
  8
0
100
AcDbEllipse
 10
37.46120211675558
 20
15.48821895604834
 30
0.0
 11
0.0218360124506172
 21
0.0465628135869291
 31
0.0
210
0.0
220
0.0
230
1.0
 40
0.3316363469000001
 41
5.471492491827452
 42
6.335796255916787
  0
LINE
  5
14D
330
2
100
AcDbEntity
  8
0
100
AcDbLine
 10
37.4771792359333
 20
15.53654633559817
 30
0.0
 11
38.2222340535841
 21
16.18178273487355
 31
0.0
  0
ELLIPSE
  5
14E
330
2
100
AcDbEntity
  8
0
100
AcDbEllipse
 10
37.34974475943711
 20
14.02211707817382
 30
0.0
 11
0.0153444111237107
 21
0.1012286442478993
 31
0.0
210
0.0
220
0.0
230
0.9999999999999998
 40
0.4926395442000002
 41
5.244502075587121
 42
6.218569152574162
  0
ELLIPSE
  5
14F
330
2
100
AcDbEntity
  8
0
100
AcDbEllipse
 10
45.99491525435195
 20
14.02211707817382
 30
0.0
 11
-0.0153444111237107
 21
0.1012286442479283
 31
0.0
210
0.0
220
0.0
230
1.0
 40
0.4926395442000001
 41
0.0646161546055559
 42
1.038683231592637
  0
SPLINE
  5
150
330
2
100
AcDbEntity
  8
0
100
AcDbSpline
210
0.0
220
0.0
230
1.0
 70
     8
 71
     3
 72
    10
 73
     6
 74
     0
 42
0.000000001
 43
0.0000000001
 40
0.0
 40
0.0
 40
0.0
 40
0.0
 40
0.25
 40
0.25
 40
0.3134236595885231
 40
0.3134236595885231
 40
0.3134236595885231
 40
0.3134236595885231
 10
46.22292308463978
 20
15.63392213853603
 30
0.0
 10
46.22123426467163
 20
15.63618559649856
 30
0.0
 10
46.21792159362208
 20
15.63698380785262
 30
0.0
 10
46.21304838471949
 20
15.6362484879294
 30
0.0
 10
46.21203151394404
 20
15.63601670914746
 30
0.0
 10
46.21099217863381
 20
15.63570953544345
 30
0.0
  0
ELLIPSE
  5
151
330
2
100
AcDbEntity
  8
0
100
AcDbEllipse
 10
32.44223616687666
 20
15.35812993109006
 30
0.0
 11
-0.0053597634659928
 21
0.2927998833773323
 31
0.0
210
0.0
220
0.0
230
1.0
 40
0.814281221439867
 41
1.147565261479764
 42
6.283185307179584
  0
ELLIPSE
  5
152
330
2
100
AcDbEntity
  8
0
100
AcDbEllipse
 10
32.42791007916271
 20
14.93766088299409
 30
0.0
 11
0.0163612308531119
 21
0.1852823105170467
 31
0.0
210
0.0
220
0.0
230
0.9999999999999998
 40
0.6457159237112303
 41
0.0
 42
6.283185307179584
  0
POLYLINE
  5
153
330
2
100
AcDbEntity
  8
0
100
AcDb2dPolyline
 66
     1
 10
0.0
 20
0.0
 30
0.0
  0
VERTEX
  5
154
330
153
100
AcDbEntity
  8
0
100
AcDbVertex
100
AcDb2dVertex
 10
33.61894144413701
 20
16.15449389965512
 30
0.0
 42
0.0006037448902222
  0
VERTEX
  5
155
330
153
100
AcDbEntity
  8
0
100
AcDbVertex
100
AcDb2dVertex
 10
34.09186948458549
 20
17.1976860467532
 30
0.0
 42
0.0007647010685485
  0
VERTEX
  5
156
330
153
100
AcDbEntity
  8
0
100
AcDbVertex
100
AcDb2dVertex
 10
34.46299898936656
 20
18.02232353212164
 30
0.0
 42
0.0017626404754466
  0
VERTEX
  5
157
330
153
100
AcDbEntity
  8
0
100
AcDbVertex
100
AcDb2dVertex
 10
35.17940999242672
 20
19.63590921327945
 30
0.0
 42
-0.002619272766959
  0
VERTEX
  5
158
330
153
100
AcDbEntity
  8
0
100
AcDbVertex
100
AcDb2dVertex
 10
35.66338048389564
 20
20.72094873490694
 30
0.0
 42
-0.1749357632335214
  0
VERTEX
  5
159
330
153
100
AcDbEntity
  8
0
100
AcDbVertex
100
AcDb2dVertex
 10
36.40290558464336
 20
21.4818373526233
 30
0.0
 42
-0.1478817340090604
  0
VERTEX
  5
15A
330
153
100
AcDbEntity
  8
0
100
AcDbVertex
100
AcDb2dVertex
 10
37.39070879356824
 20
21.64087720481594
 30
0.0
 42
-0.0969150506333591
  0
SEQEND
  5
15B
330
153
100
AcDbEntity
  8
0
  0
POLYLINE
  5
15C
330
2
100
AcDbEntity
  8
0
100
AcDb2dPolyline
 66
     1
 10
0.0
 20
0.0
 30
0.0
  0
VERTEX
  5
15D
330
15C
100
AcDbEntity
  8
0
100
AcDbVertex
100
AcDb2dVertex
 10
33.77978146515965
 20
16.0493088029718
 30
0.0
 42
0.0006191094235402
  0
VERTEX
  5
15E
330
15C
100
AcDbEntity
  8
0
100
AcDbVertex
100
AcDb2dVertex
 10
34.26497202725521
 20
17.11946236687366
 30
0.0
 42
0.0007647010685485
  0
VERTEX
  5
15F
330
15C
100
AcDbEntity
  8
0
100
AcDbVertex
100
AcDb2dVertex
 10
34.63633999274577
 20
17.94462970405201
 30
0.0
 42
0.0017626404754467
  0
VERTEX
  5
160
330
15C
100
AcDbEntity
  8
0
100
AcDbVertex
100
AcDb2dVertex
 10
35.35329446744386
 20
19.55943945637744
 30
0.0
 42
-0.002619272766959
  0
VERTEX
  5
161
330
15C
100
AcDbEntity
  8
0
100
AcDbVertex
100
AcDb2dVertex
 10
35.83645425132576
 20
20.64266140898411
 30
0.0
 42
-0.1749357632335211
  0
VERTEX
  5
162
330
15C
100
AcDbEntity
  8
0
100
AcDbVertex
100
AcDb2dVertex
 10
36.48608876836378
 20
21.3110626697257
 30
0.0
 42
-0.1403364824140866
  0
VERTEX
  5
163
330
15C
100
AcDbEntity
  8
0
100
AcDbVertex
100
AcDb2dVertex
 10
37.32016753657391
 20
21.45803361941329
 30
0.0
 42
-0.0969150506333573
  0
SEQEND
  5
164
330
15C
100
AcDbEntity
  8
0
  0
POLYLINE
  5
165
330
2
100
AcDbEntity
  8
0
100
AcDb2dPolyline
 66
     1
 10
0.0
 20
0.0
 30
0.0
  0
VERTEX
  5
166
330
165
100
AcDbEntity
  8
0
100
AcDbVertex
100
AcDb2dVertex
 10
33.85120585843969
 20
16.00259914908753
 30
0.0
 42
-0.0337349947023
  0
VERTEX
  5
167
330
165
100
AcDbEntity
  8
0
100
AcDbVertex
100
AcDb2dVertex
 10
34.49192698024564
 20
16.31963124420072
 30
0.0
 42
-0.0365289724527151
  0
VERTEX
  5
168
330
165
100
AcDbEntity
  8
0
100
AcDbVertex
100
AcDb2dVertex
 10
35.11892836268809
 20
16.52672640547842
 30
0.0
 42
-0.0236306789244121
  0
VERTEX
  5
169
330
165
100
AcDbEntity
  8
0
100
AcDbVertex
100
AcDb2dVertex
 10
35.72822820640247
 20
16.64943546454139
 30
0.0
 42
-0.0322252972238375
  0
VERTEX
  5
16A
330
165
100
AcDbEntity
  8
0
100
AcDbVertex
100
AcDb2dVertex
 10
36.18248806795973
 20
16.68908093562753
 30
0.0
 42
-0.2143068448211105
  0
VERTEX
  5
16B
330
165
100
AcDbEntity
  8
0
100
AcDbVertex
100
AcDb2dVertex
 10
36.7783337412998
 20
16.43744156224332
 30
0.0
 42
-0.097484282920407
  0
VERTEX
  5
16C
330
165
100
AcDbEntity
  8
0
100
AcDbVertex
100
AcDb2dVertex
 10
37.11697596016306
 20
15.89077824843039
 30
0.0
  0
SEQEND
  5
16D
330
165
100
AcDbEntity
  8
0
  0
POLYLINE
  5
16E
330
2
100
AcDbEntity
  8
0
100
AcDb2dPolyline
 66
     1
 10
0.0
 20
0.0
 30
0.0
  0
VERTEX
  5
16F
330
16E
100
AcDbEntity
  8
0
100
AcDbVertex
100
AcDb2dVertex
 10
33.9305596985154
 20
15.95089203976546
 30
0.0
 42
-0.0316928671166253
  0
VERTEX
  5
170
330
16E
100
AcDbEntity
  8
0
100
AcDbVertex
100
AcDb2dVertex
 10
34.52418353633883
 20
16.24161133287143
 30
0.0
 42
-0.036528972452715
  0
VERTEX
  5
171
330
16E
100
AcDbEntity
  8
0
100
AcDbVertex
100
AcDb2dVertex
 10
35.13948708455595
 20
16.44484276285052
 30
0.0
 42
-0.023630678924412
  0
VERTEX
  5
172
330
16E
100
AcDbEntity
  8
0
100
AcDbVertex
100
AcDb2dVertex
 10
35.74096827905327
 20
16.5659771963849
 30
0.0
 42
-0.0322252972238374
  0
VERTEX
  5
173
330
16E
100
AcDbEntity
  8
0
100
AcDbVertex
100
AcDb2dVertex
 10
36.18439810590805
 20
16.60467747758311
 30
0.0
 42
-0.2143068448211092
  0
VERTEX
  5
174
330
16E
100
AcDbEntity
  8
0
100
AcDbVertex
100
AcDb2dVertex
 10
36.71650151342495
 20
16.37995793352295
 30
0.0
 42
-0.0972875434694386
  0
VERTEX
  5
175
330
16E
100
AcDbEntity
  8
0
100
AcDbVertex
100
AcDb2dVertex
 10
37.03753577082203
 20
15.862169732177
 30
0.0
 42
-0.1439978508364684
  0
SEQEND
  5
176
330
16E
100
AcDbEntity
  8
0
  0
LINE
  5
177
330
2
100
AcDbEntity
  8
0
100
AcDbLine
 10
29.54099708425465
 20
14.48033588401491
 30
0.0
 11
29.49128021777549
 21
14.52339195338245
 31
0.0
  0
LINE
  5
178
330
2
100
AcDbEntity
  8
0
100
AcDbLine
 10
28.54340806912862
 20
10.91379651931323
 30
0.0
 11
28.6917334740122
 21
10.78534295064995
 31
0.0
  0
LINE
  5
179
330
2
100
AcDbEntity
  8
0
100
AcDbLine
 10
28.58863813702216
 20
10.89311184789626
 30
0.0
 11
28.63084262117514
 21
10.9052952330316
 31
0.0
  0
ARC
  5
17A
330
2
100
AcDbEntity
  8
0
100
AcDbCircle
 10
28.61782536749432
 20
11.00829705736712
 30
0.0
 40
0.1188256155090296
100
AcDbArc
 50
174.8069247138071
 51
197.7982758284785
  0
ARC
  5
17B
330
2
100
AcDbEntity
  8
0
100
AcDbCircle
 10
28.61782536749432
 20
11.00829705736712
 30
0.0
 40
0.1188256155090296
100
AcDbArc
 50
231.7295710137046
 51
255.7808851649022
  0
LWPOLYLINE
  5
17C
330
2
100
AcDbEntity
  8
0
100
AcDbPolyline
 90
        3
 70
   128
 43
0.0
 10
28.6917334740122
 20
10.78534295064995
 10
28.71109992301601
 20
10.77200688754405
 10
28.7412276982865
 20
10.76096541148126
  0
LINE
  5
17D
330
2
100
AcDbEntity
  8
0
100
AcDbLine
 10
28.7412276982865
 20
10.76096541148126
 30
0.0
 11
28.78343218243953
 21
10.77314879663699
 31
0.0
  0
POLYLINE
  5
17E
330
2
100
AcDbEntity
  8
0
100
AcDb2dPolyline
 66
     1
 10
0.0
 20
0.0
 30
0.0
  0
VERTEX
  5
17F
330
17E
100
AcDbEntity
  8
0
100
AcDbVertex
100
AcDb2dVertex
 10
28.58842573169386
 20
13.16228968403476
 30
0.0
 42
0.0044112531648725
  0
VERTEX
  5
180
330
17E
100
AcDbEntity
  8
0
100
AcDbVertex
100
AcDb2dVertex
 10
28.69199332201061
 20
13.24401602551529
 30
0.0
 42
0.0291794099195393
  0
VERTEX
  5
181
330
17E
100
AcDbEntity
  8
0
100
AcDbVertex
100
AcDb2dVertex
 10
28.81142238427903
 20
13.35202550604183
 30
0.0
 42
0.1060429522538081
  0
VERTEX
  5
182
330
17E
100
AcDbEntity
  8
0
100
AcDbVertex
100
AcDb2dVertex
 10
29.56003333984229
 20
14.53050019466437
 30
0.0
 42
-0.0805593695922003
  0
VERTEX
  5
183
330
17E
100
AcDbEntity
  8
0
100
AcDbVertex
100
AcDb2dVertex
 10
30.46159370032239
 20
16.1220332070232
 30
0.0
 42
-0.0517676505868929
  0
VERTEX
  5
184
330
17E
100
AcDbEntity
  8
0
100
AcDbVertex
100
AcDb2dVertex
 10
31.48121875732313
 20
17.1535164898114
 30
0.0
 42
-0.0977815306855604
  0
VERTEX
  5
185
330
17E
100
AcDbEntity
  8
0
100
AcDbVertex
100
AcDb2dVertex
 10
32.16235828831216
 20
17.51927571379811
 30
0.0
 42
-0.1184190061307396
  0
VERTEX
  5
186
330
17E
100
AcDbEntity
  8
0
100
AcDbVertex
100
AcDb2dVertex
 10
32.80630246335331
 20
17.55932237887154
 30
0.0
 42
-0.1921535501220301
  0
VERTEX
  5
187
330
17E
100
AcDbEntity
  8
0
100
AcDbVertex
100
AcDb2dVertex
 10
33.15222623681952
 20
17.34565619077697
 30
0.0
 42
-0.0831129062954341
  0
VERTEX
  5
188
330
17E
100
AcDbEntity
  8
0
100
AcDbVertex
100
AcDb2dVertex
 10
33.34175528951157
 20
16.97434905066104
 30
0.0
 42
-0.0861746503897062
  0
VERTEX
  5
189
330
17E
100
AcDbEntity
  8
0
100
AcDbVertex
100
AcDb2dVertex
 10
33.39557633416926
 20
16.57568874561723
 30
0.0
 42
-0.0297993162658494
  0
VERTEX
  5
18A
330
17E
100
AcDbEntity
  8
0
100
AcDbVertex
100
AcDb2dVertex
 10
33.3838461825839
 20
16.45552799018362
 30
0.0
 42
-0.0271912732367879
  0
VERTEX
  5
18B
330
17E
100
AcDbEntity
  8
0
100
AcDbVertex
100
AcDb2dVertex
 10
33.35610524735283
 20
16.3261769742083
 30
0.0
  0
SEQEND
  5
18C
330
17E
100
AcDbEntity
  8
0
  0
POLYLINE
  5
18D
330
2
100
AcDbEntity
  8
0
100
AcDb2dPolyline
 66
     1
 10
0.0
 20
0.0
 30
0.0
 70
     2
  0
VERTEX
  5
18E
330
18D
100
AcDbEntity
  8
0
100
AcDbVertex
100
AcDb2dVertex
 10
28.59340784045132
 20
10.93771471861138
 30
0.0
 42
-0.1151182201586705
  0
VERTEX
  5
18F
330
18D
100
AcDbEntity
  8
0
100
AcDbVertex
100
AcDb2dVertex
 10
28.45833100396074
 20
10.89504267624491
 30
0.0
 42
-0.0930958482265581
 70
     1
  0
VERTEX
  5
190
330
18D
100
AcDbEntity
  8
0
100
AcDbVertex
100
AcDb2dVertex
 10
28.3927682111274
 20
10.90221056187762
 30
0.0
 42
-0.1200410900046724
  0
VERTEX
  5
191
330
18D
100
AcDbEntity
  8
0
100
AcDbVertex
100
AcDb2dVertex
 10
28.24289861909515
 20
10.99072605842254
 30
0.0
 42
-0.1606151241716885
 70
     1
  0
VERTEX
  5
192
330
18D
100
AcDbEntity
  8
0
100
AcDbVertex
100
AcDb2dVertex
 10
28.18216941502725
 20
11.10741698086678
 30
0.0
 42
-0.0180577322826295
  0
VERTEX
  5
193
330
18D
100
AcDbEntity
  8
0
100
AcDbVertex
100
AcDb2dVertex
 10
28.16979417811814
 20
11.20571634096798
 30
0.0
 42
-0.009203459628712
 70
     1
  0
VERTEX
  5
194
330
18D
100
AcDbEntity
  8
0
100
AcDbVertex
100
AcDb2dVertex
 10
28.15606224176283
 20
11.39957525083814
 30
0.0
 42
-0.0136552259772848
  0
VERTEX
  5
195
330
18D
100
AcDbEntity
  8
0
100
AcDbVertex
100
AcDb2dVertex
 10
28.14058123955288
 20
12.01865110251157
 30
0.0
 42
-0.0255451955335001
 70
     1
  0
VERTEX
  5
196
330
18D
100
AcDbEntity
  8
0
100
AcDbVertex
100
AcDb2dVertex
 10
28.15825372668821
 20
12.34936497651208
 30
0.0
 42
-0.0502361945230798
  0
VERTEX
  5
197
330
18D
100
AcDbEntity
  8
0
100
AcDbVertex
100
AcDb2dVertex
 10
28.2248792466947
 20
12.67003703290991
 30
0.0
 42
-0.0644183283987058
 70
     1
  0
VERTEX
  5
198
330
18D
100
AcDbEntity
  8
0
100
AcDbVertex
100
AcDb2dVertex
 10
28.33243304278121
 20
12.90215880232261
 30
0.0
 42
-0.0099057539411911
  0
VERTEX
  5
199
330
18D
100
AcDbEntity
  8
0
100
AcDbVertex
100
AcDb2dVertex
 10
28.45416276311061
 20
13.08700056271823
 30
0.0
 42
-0.0052134826287925
 70
     1
  0
VERTEX
  5
19A
330
18D
100
AcDbEntity
  8
0
100
AcDbVertex
100
AcDb2dVertex
 10
28.69594754814155
 20
13.43102720374569
 30
0.0
 42
-0.0122586785159455
  0
VERTEX
  5
19B
330
18D
100
AcDbEntity
  8
0
100
AcDbVertex
100
AcDb2dVertex
 10
29.01307562652297
 20
13.85031596520087
 30
0.0
 42
0.0162354669869509
 70
     1
  0
VERTEX
  5
19C
330
18D
100
AcDbEntity
  8
0
100
AcDbVertex
100
AcDb2dVertex
 10
29.25002674381536
 20
14.16883239052834
 30
0.0
 42
0.0576879473984295
  0
VERTEX
  5
19D
330
18D
100
AcDbEntity
  8
0
100
AcDbVertex
100
AcDb2dVertex
 10
29.34380997223398
 20
14.34386334859092
 30
0.0
 42
-0.0203422342568804
 70
     1
  0
VERTEX
  5
19E
330
18D
100
AcDbEntity
  8
0
100
AcDbVertex
100
AcDb2dVertex
 10
29.57138577660233
 20
14.85716778982287
 30
0.0
 42
-0.0536520744420392
  0
VERTEX
  5
19F
330
18D
100
AcDbEntity
  8
0
100
AcDbVertex
100
AcDb2dVertex
 10
30.55403570634114
 20
16.40657855513556
 30
0.0
 42
-0.074633849108014
 70
     1
  0
VERTEX
  5
1A0
330
18D
100
AcDbEntity
  8
0
100
AcDbVertex
100
AcDb2dVertex
 10
31.52221261055768
 20
17.30746146277111
 30
0.0
 42
-0.0567687690580313
  0
VERTEX
  5
1A1
330
18D
100
AcDbEntity
  8
0
100
AcDbVertex
100
AcDb2dVertex
 10
32.03945400428797
 20
17.58136335517791
 30
0.0
 42
-0.0685491451265846
 70
     1
  0
VERTEX
  5
1A2
330
18D
100
AcDbEntity
  8
0
100
AcDbVertex
100
AcDb2dVertex
 10
32.51133587840812
 20
17.69519272707423
 30
0.0
 42
-0.0704824027024928
  0
VERTEX
  5
1A3
330
18D
100
AcDbEntity
  8
0
100
AcDbVertex
100
AcDb2dVertex
 10
32.95968537280454
 20
17.67683873563197
 30
0.0
 42
-0.1219889887757701
 70
     1
  0
VERTEX
  5
1A4
330
18D
100
AcDbEntity
  8
0
100
AcDbVertex
100
AcDb2dVertex
 10
33.19827598543034
 20
17.56902204803451
 30
0.0
 42
-0.1038622959485782
  0
VERTEX
  5
1A5
330
18D
100
AcDbEntity
  8
0
100
AcDbVertex
100
AcDb2dVertex
 10
33.33450877728418
 20
17.40616380603294
 30
0.0
 42
-0.0517745217082802
 70
     1
  0
VERTEX
  5
1A6
330
18D
100
AcDbEntity
  8
0
100
AcDbVertex
100
AcDb2dVertex
 10
33.49364873648063
 20
17.01475932279134
 30
0.0
 42
-0.08086374955725
  0
VERTEX
  5
1A7
330
18D
100
AcDbEntity
  8
0
100
AcDbVertex
100
AcDb2dVertex
 10
33.53771586353012
 20
16.65336926580109
 30
0.0
 42
-0.0727473130169917
 70
     1
  0
VERTEX
  5
1A8
330
18D
100
AcDbEntity
  8
0
100
AcDbVertex
100
AcDb2dVertex
 10
33.46325772817779
 20
16.2561021004123
 30
0.0
  0
SEQEND
  5
1A9
330
18D
100
AcDbEntity
  8
0
  0
POLYLINE
  5
1AA
330
2
100
AcDbEntity
  8
0
100
AcDb2dPolyline
 66
     1
 10
0.0
 20
0.0
 30
0.0
  0
VERTEX
  5
1AB
330
1AA
100
AcDbEntity
  8
0
100
AcDbVertex
100
AcDb2dVertex
 10
28.53874511103027
 20
10.98505403093054
 30
0.0
 42
-0.0914136302802417
  0
VERTEX
  5
1AC
330
1AA
100
AcDbEntity
  8
0
100
AcDbVertex
100
AcDb2dVertex
 10
28.45315283853043
 20
10.96236884324185
 30
0.0
 42
-0.093095848226562
  0
VERTEX
  5
1AD
330
1AA
100
AcDbEntity
  8
0
100
AcDbVertex
100
AcDb2dVertex
 10
28.41237151582079
 20
10.96682740646806
 30
0.0
 42
-0.1200410900046716
  0
VERTEX
  5
1AE
330
1AA
100
AcDbEntity
  8
0
100
AcDbVertex
100
AcDb2dVertex
 10
28.29002283190032
 20
11.03908859275661
 30
0.0
 42
-0.1606151241716851
  0
VERTEX
  5
1AF
330
1AA
100
AcDbEntity
  8
0
100
AcDbVertex
100
AcDb2dVertex
 10
28.24881740004708
 20
11.1182646650676
 30
0.0
 42
-0.0180577322826296
  0
VERTEX
  5
1B0
330
1AA
100
AcDbEntity
  8
0
100
AcDbVertex
100
AcDb2dVertex
 10
28.23705118719776
 20
11.21172640664046
 30
0.0
 42
-0.009203459628712
  0
VERTEX
  5
1B1
330
1AA
100
AcDbEntity
  8
0
100
AcDbVertex
100
AcDb2dVertex
 10
28.22349488061081
 20
11.40310588501945
 30
0.0
 42
-0.0136552259772848
  0
VERTEX
  5
1B2
330
1AA
100
AcDbEntity
  8
0
100
AcDbVertex
100
AcDb2dVertex
 10
28.20810606376811
 20
12.01849529998985
 30
0.0
 42
-0.0255451955335001
  0
VERTEX
  5
1B3
330
1AA
100
AcDbEntity
  8
0
100
AcDbVertex
100
AcDb2dVertex
 10
28.22541061124679
 20
12.34232373968107
 30
0.0
 42
-0.0502361945230799
  0
VERTEX
  5
1B4
330
1AA
100
AcDbEntity
  8
0
100
AcDbVertex
100
AcDb2dVertex
 10
28.2892828591588
 20
12.64974415580249
 30
0.0
 42
-0.0644183283987055
  0
VERTEX
  5
1B5
330
1AA
100
AcDbEntity
  8
0
100
AcDbVertex
100
AcDb2dVertex
 10
28.38955194920886
 20
12.86614412908748
 30
0.0
 42
-0.0099057539411911
  0
VERTEX
  5
1B6
330
1AA
100
AcDbEntity
  8
0
100
AcDbVertex
100
AcDb2dVertex
 10
28.50981025050704
 20
13.04875159794546
 30
0.0
 42
-0.0052134826287926
  0
VERTEX
  5
1B7
330
1AA
100
AcDbEntity
  8
0
100
AcDbVertex
100
AcDb2dVertex
 10
28.75078535981153
 20
13.3916261812847
 30
0.0
 42
-0.0122586785159455
  0
VERTEX
  5
1B8
330
1AA
100
AcDbEntity
  8
0
100
AcDbVertex
100
AcDb2dVertex
 10
29.06591638481293
 20
13.80827455201025
 30
0.0
 42
0.016235466986951
  0
VERTEX
  5
1B9
330
1AA
100
AcDbEntity
  8
0
100
AcDbVertex
100
AcDb2dVertex
 10
29.30548422414667
 20
14.13030844946533
 30
0.0
 42
0.0576879473984295
  0
VERTEX
  5
1BA
330
1AA
100
AcDbEntity
  8
0
100
AcDbVertex
100
AcDb2dVertex
 10
29.40660198399088
 20
14.31902810308687
 30
0.0
 42
-0.0203422342568804
  0
VERTEX
  5
1BB
330
1AA
100
AcDbEntity
  8
0
100
AcDbVertex
100
AcDb2dVertex
 10
29.63195177977577
 20
14.8273117113912
 30
0.0
 42
-0.0536520744420391
  0
VERTEX
  5
1BC
330
1AA
100
AcDbEntity
  8
0
100
AcDbVertex
100
AcDb2dVertex
 10
30.60686267390763
 20
16.36451981457601
 30
0.0
 42
-0.0746338491080141
  0
VERTEX
  5
1BD
330
1AA
100
AcDbEntity
  8
0
100
AcDbVertex
100
AcDb2dVertex
 10
31.56036339031006
 20
17.25174661588077
 30
0.0
 42
-0.0567687690580315
  0
VERTEX
  5
1BE
330
1AA
100
AcDbEntity
  8
0
100
AcDbVertex
100
AcDb2dVertex
 10
32.06409771519423
 20
17.51849592583256
 30
0.0
 42
-0.0685491451265845
  0
VERTEX
  5
1BF
330
1AA
100
AcDbEntity
  8
0
100
AcDbVertex
100
AcDb2dVertex
 10
32.51806491014238
 20
17.62800384189488
 30
0.0
 42
-0.0704824027024928
  0
VERTEX
  5
1C0
330
1AA
100
AcDbEntity
  8
0
100
AcDbVertex
100
AcDb2dVertex
 10
32.94748706463957
 20
17.61042467509027
 30
0.0
 42
-0.121988988775771
  0
VERTEX
  5
1C1
330
1AA
100
AcDbEntity
  8
0
100
AcDbVertex
100
AcDb2dVertex
 10
33.1564921123969
 20
17.51597740538279
 30
0.0
 42
-0.1038622959485785
  0
VERTEX
  5
1C2
330
1AA
100
AcDbEntity
  8
0
100
AcDbVertex
100
AcDb2dVertex
 10
33.2749174466619
 20
17.37440692529207
 30
0.0
 42
-0.0517745217082799
  0
VERTEX
  5
1C3
330
1AA
100
AcDbEntity
  8
0
100
AcDbVertex
100
AcDb2dVertex
 10
33.42880437137834
 20
16.99592227222057
 30
0.0
 42
-0.0808637495572497
  0
VERTEX
  5
1C4
330
1AA
100
AcDbEntity
  8
0
100
AcDbVertex
100
AcDb2dVertex
 10
33.47024497378299
 20
16.65607207849437
 30
0.0
 42
-0.0727473130169919
  0
VERTEX
  5
1C5
330
1AA
100
AcDbEntity
  8
0
100
AcDbVertex
100
AcDb2dVertex
 10
33.39938749440167
 20
16.27801600917155
 30
0.0
 42
-0.0727473130169919
  0
SEQEND
  5
1C6
330
1AA
100
AcDbEntity
  8
0
  0
POLYLINE
  5
1C7
330
2
100
AcDbEntity
  8
0
100
AcDb2dPolyline
 66
     1
 10
0.0
 20
0.0
 30
0.0
  0
VERTEX
  5
1C8
330
1C7
100
AcDbEntity
  8
0
100
AcDbVertex
100
AcDb2dVertex
 10
28.33629939700422
 20
12.76938200040858
 30
0.0
 42
0.0188069328363589
  0
VERTEX
  5
1C9
330
1C7
100
AcDbEntity
  8
0
100
AcDbVertex
100
AcDb2dVertex
 10
28.797732509442
 20
13.11242237924152
 30
0.0
 42
0.029179409919539
  0
VERTEX
  5
1CA
330
1C7
100
AcDbEntity
  8
0
100
AcDbVertex
100
AcDb2dVertex
 10
28.93176267668689
 20
13.23363683461815
 30
0.0
 42
0.1060429522538083
  0
VERTEX
  5
1CB
330
1C7
100
AcDbEntity
  8
0
100
AcDbVertex
100
AcDb2dVertex
 10
29.71834145012113
 20
14.47188103637786
 30
0.0
 42
-0.0805593695922002
  0
VERTEX
  5
1CC
330
1C7
100
AcDbEntity
  8
0
100
AcDbVertex
100
AcDb2dVertex
 10
30.59326287510133
 20
16.01638808450772
 30
0.0
 42
-0.0517676505868929
  0
VERTEX
  5
1CD
330
1C7
100
AcDbEntity
  8
0
100
AcDbVertex
100
AcDb2dVertex
 10
31.58837922462423
 20
17.02307762387765
 30
0.0
 42
-0.0977815306855602
  0
VERTEX
  5
1CE
330
1C7
100
AcDbEntity
  8
0
100
AcDbVertex
100
AcDb2dVertex
 10
32.21189891805305
 20
17.35789606978079
 30
0.0
 42
-0.1184190061307401
  0
VERTEX
  5
1CF
330
1C7
100
AcDbEntity
  8
0
100
AcDbVertex
100
AcDb2dVertex
 10
32.77713851599904
 20
17.3930481244814
 30
0.0
 42
-0.1921535501220296
  0
VERTEX
  5
1D0
330
1C7
100
AcDbEntity
  8
0
100
AcDbVertex
100
AcDb2dVertex
 10
33.0166017061254
 20
17.24513927592042
 30
0.0
 42
-0.0831129062954346
  0
VERTEX
  5
1D1
330
1C7
100
AcDbEntity
  8
0
100
AcDbVertex
100
AcDb2dVertex
 10
33.18079076618264
 20
16.92347581872352
 30
0.0
 42
-0.0861746503897062
  0
VERTEX
  5
1D2
330
1C7
100
AcDbEntity
  8
0
100
AcDbVertex
100
AcDb2dVertex
 10
33.22688397409947
 20
16.58205672428863
 30
0.0
 42
-0.0297993162658487
  0
VERTEX
  5
1D3
330
1C7
100
AcDbEntity
  8
0
100
AcDbVertex
100
AcDb2dVertex
 10
33.21710711305609
 20
16.48190499136418
 30
0.0
 42
-0.0140152693381043
  0
VERTEX
  5
1D4
330
1C7
100
AcDbEntity
  8
0
100
AcDbVertex
100
AcDb2dVertex
 10
33.20630241089351
 20
16.4241440467236
 30
0.0
 42
-0.0271912732367882
  0
SEQEND
  5
1D5
330
1C7
100
AcDbEntity
  8
0
  0
ELLIPSE
  5
1D6
330
2
100
AcDbEntity
  8
0
100
AcDbEllipse
 10
28.70937751889217
 20
11.05505336415493
 30
0.0
 11
0.0176440448799798
 21
0.2697104135049858
 31
0.0
210
0.0
220
0.0
230
1.0
 40
0.6128168285279183
 41
1.9018349736237
 42
6.870853096261243
  0
ELLIPSE
  5
1D7
330
2
100
AcDbEntity
  8
0
100
AcDbEllipse
 10
28.76518637974927
 20
10.73381347337175
 30
0.0
 11
-0.0434333310442412
 21
0.0672300885346898
 31
0.0
210
0.0
220
0.0
230
1.0
 40
0.6994241437507362
 41
0.0
 42
6.283185307179585
  0
ARC
  5
1D8
330
2
100
AcDbEntity
  8
0
100
AcDbCircle
 10
27.51183645690557
 20
15.45040255163896
 30
0.0
 40
4.947524784408007
100
AcDbArc
 50
285.3438350290872
 51
351.8912514965148
  0
ELLIPSE
  5
1D9
330
2
100
AcDbEntity
  8
0
100
AcDbEllipse
 10
32.97997346417794
 20
17.4896252256764
 30
0.0
 11
0.1508784370325414
 21
0.2081824675114282
 31
0.0
210
0.0
220
0.0
230
1.0
 40
0.494931122505213
 41
5.557379370176533
 42
10.31889283821844
  0
ELLIPSE
  5
1DA
330
2
100
AcDbEntity
  8
0
100
AcDbEllipse
 10
32.97997346417794
 20
17.4896252256764
 30
0.0
 11
0.1508784370325414
 21
0.2081824675114282
 31
0.0
210
0.0
220
0.0
230
1.0
 40
0.494931122505213
 41
11.01767635897517
 42
11.50461603394536
  0
ELLIPSE
  5
1DB
330
2
100
AcDbEntity
  8
0
100
AcDbEllipse
 10
31.23927518199406
 20
16.9022856256734
 30
0.0
 11
-0.1249465197463873
 21
0.1426771323710106
 31
0.0
210
0.0
220
0.0
230
1.0
 40
0.629528486277126
 41
5.608737805326533
 42
10.19703491182317
  0
ELLIPSE
  5
1DC
330
2
100
AcDbEntity
  8
0
100
AcDbEllipse
 10
31.23927518199406
 20
16.9022856256734
 30
0.0
 11
-0.1249465197463873
 21
0.1426771323710106
 31
0.0
210
0.0
220
0.0
230
1.0
 40
0.629528486277126
 41
11.17092692178789
 42
11.42811975830026
  0
ELLIPSE
  5
1DD
330
2
100
AcDbEntity
  8
0
100
AcDbEllipse
 10
30.00023159070021
 20
15.36622999989078
 30
0.0
 11
-0.1928472185666356
 21
0.0915261862314467
 31
0.0
210
0.0
220
0.0
230
1.0
 40
0.543729199522505
 41
5.345997738397891
 42
10.32604693078228
  0
ELLIPSE
  5
1DE
330
2
100
AcDbEntity
  8
0
100
AcDbEllipse
 10
30.00023159070021
 20
15.36622999989078
 30
0.0
 11
-0.1928472185666356
 21
0.0915261862314467
 31
0.0
210
0.0
220
0.0
230
1.0
 40
0.543729199522505
 41
11.15955990656775
 42
11.26398927792468
  0
ELLIPSE
  5
1DF
330
2
100
AcDbEntity
  8
0
100
AcDbEllipse
 10
29.04994995919558
 20
13.58957254066432
 30
0.0
 11
-0.14645469731787
 21
0.1838304363271007
 31
0.0
210
0.0
220
0.0
230
1.0
 40
0.4687092867517304
 41
5.796091500005254
 42
10.40444679973371
  0
ELLIPSE
  5
1E0
330
2
100
AcDbEntity
  8
0
100
AcDbEllipse
 10
29.04994995919558
 20
13.58957254066432
 30
0.0
 11
-0.14645469731787
 21
0.1838304363271007
 31
0.0
210
0.0
220
0.0
230
1.0
 40
0.4687092867517304
 41
11.19813408258396
 42
11.66857418650151
  0
SPLINE
  5
1E1
330
2
100
AcDbEntity
  8
0
100
AcDbSpline
210
0.0
220
0.0
230
1.0
 70
     8
 71
     3
 72
    12
 73
     8
 74
     0
 42
0.000000001
 43
0.0000000001
 40
0.0
 40
0.0
 40
0.0
 40
0.0
 40
0.0561527116454317
 40
0.2973809050237443
 40
0.5349953206127607
 40
0.7911384943783137
 40
1.0
 40
1.0
 40
1.0
 40
1.0
 10
3.559460595635177
 20
5.186206480166161
 30
0.0
 10
3.563571383537309
 20
5.185188256285284
 30
0.0
 10
3.585341833990264
 20
5.179795812530842
 30
0.0
 10
3.626169012092215
 20
5.194082375829611
 30
0.0
 10
3.672113660658585
 20
5.227195796767921
 30
0.0
 10
3.707457144754863
 20
5.275275238326363
 30
0.0
 10
3.722765005995701
 20
5.314961118519885
 30
0.0
 10
3.729640685076703
 20
5.332786428794339
 30
0.0
  0
SPLINE
  5
1E2
330
2
100
AcDbEntity
  8
0
100
AcDbSpline
210
0.0
220
0.0
230
1.0
 70
     8
 71
     3
 72
    14
 73
    10
 74
     0
 42
0.000000001
 43
0.0000000001
 40
0.0
 40
0.0
 40
0.0
 40
0.0
 40
0.0895666099134426
 40
0.2574446574809165
 40
0.4265404418782642
 40
0.5984839071749279
 40
0.7563954180467296
 40
0.9018621575732323
 40
1.0
 40
1.0
 40
1.0
 40
1.0
 10
3.729640685076703
 20
5.332786428794339
 30
0.0
 10
3.733485374500049
 20
5.345992891527918
 30
0.0
 10
3.74453630913612
 20
5.383952721405058
 30
0.0
 10
3.751186395261337
 20
5.452525935410053
 30
0.0
 10
3.743450251456437
 20
5.531919870827196
 30
0.0
 10
3.719832945837795
 20
5.60090945239388
 30
0.0
 10
3.683198147868166
 20
5.651545911661422
 30
0.0
 10
3.641175918988472
 20
5.682430472505141
 30
0.0
 10
3.611021915028746
 20
5.685036160039659
 30
0.0
 10
3.598874159574379
 20
5.686085879838136
 30
0.0
  0
LINE
  5
1E3
330
2
100
AcDbEntity
  8
0
100
AcDbLine
 10
3.437906106700676
 20
5.191907058054188
 30
0.0
 11
3.562538754059928
 21
5.183861556401708
 31
0.0
  0
LINE
  5
1E4
330
2
100
AcDbEntity
  8
0
100
AcDbLine
 10
3.60052727617507
 20
5.688384762413784
 30
0.0
 11
3.476094112803626
 21
5.699093289599091
 31
0.0
  0
LINE
  5
1E5
330
2
100
AcDbEntity
  8
0
100
AcDbLine
 10
3.255886815556569
 20
5.789777677040019
 30
0.0
 11
3.024074147477647
 21
5.804740964876333
 31
0.0
  0
SPLINE
  5
1E6
330
2
100
AcDbEntity
  8
0
100
AcDbSpline
210
0.0
220
0.0
230
1.0
 70
     8
 71
     3
 72
    12
 73
     8
 74
     0
 42
0.000000001
 43
0.0000000001
 40
0.0
 40
0.0
 40
0.0
 40
0.0
 40
0.0561526623884076
 40
0.2973808932933741
 40
0.5349958086800302
 40
0.7911384618867823
 40
1.0
 40
1.0
 40
1.0
 40
1.0
 10
3.860772424128736
 20
6.101034580622044
 30
0.0
 10
3.864883212218277
 20
6.100016326981741
 30
0.0
 10
3.88665368190233
 20
6.09462372110561
 30
0.0
 10
3.927480907864644
 20
6.108910411389577
 30
0.0
 10
3.9734253698535
 20
6.142023966842623
 30
0.0
 10
4.008769023674015
 20
6.190103281909816
 30
0.0
 10
4.024076844400426
 20
6.229789129907307
 30
0.0
 10
4.030952513570183
 20
6.247614447202946
 30
0.0
  0
SPLINE
  5
1E7
330
2
100
AcDbEntity
  8
0
100
AcDbSpline
210
0.0
220
0.0
230
1.0
 70
     8
 71
     3
 72
    14
 73
    10
 74
     0
 42
0.000000001
 43
0.0000000001
 40
0.0
 40
0.0
 40
0.0
 40
0.0
 40
0.0895670159676381
 40
0.2574451310446296
 40
0.4265406876876749
 40
0.5984844361673513
 40
0.7563960547221375
 40
0.9018622010086328
 40
1.0
 40
1.0
 40
1.0
 40
1.0
 10
4.030952513570183
 20
6.247614447202946
 30
0.0
 10
4.034797200227672
 20
6.260820962611155
 30
0.0
 10
4.045848097141841
 20
6.298780841626595
 30
0.0
 10
4.052498288770516
 20
6.367354102915987
 30
0.0
 10
4.044761862597686
 20
6.446747872429824
 30
0.0
 10
4.021145466381018
 20
6.51573783802211
 30
0.0
 10
3.984507824701812
 20
6.566373392086044
 30
0.0
 10
3.942487996283444
 20
6.597258527720648
 30
0.0
 10
3.912333833769572
 20
6.599864304365256
 30
0.0
 10
3.900185988067939
 20
6.600914062341339
 30
0.0
  0
LINE
  5
1E8
330
2
100
AcDbEntity
  8
0
100
AcDbLine
 10
3.739216622429416
 20
6.106734697500795
 30
0.0
 11
3.863850582557193
 21
6.098689738904384
 31
0.0
  0
LINE
  5
1E9
330
2
100
AcDbEntity
  8
0
100
AcDbLine
 10
3.901839104672416
 20
6.603212780821666
 30
0.0
 11
3.777405941301054
 21
6.613921308006937
 31
0.0
  0
LINE
  5
1EA
330
2
100
AcDbEntity
  8
0
100
AcDbLine
 10
3.557198644053916
 20
6.704605695447865
 30
0.0
 11
3.325385975964761
 21
6.719568983284214
 31
0.0
  0
LINE
  5
1EB
330
2
100
AcDbEntity
  8
0
100
AcDbLine
 10
3.802224102081651
 20
7.022784530924754
 30
0.0
 11
3.703100107299125
 21
7.028845385986592
 31
0.0
  0
LINE
  5
1EC
330
2
100
AcDbEntity
  8
0
100
AcDbLine
 10
3.780845686255176
 20
3.264052938748428
 30
0.0
 11
3.823606115094981
 21
3.393881144497988
 31
0.0
  0
LINE
  5
1ED
330
2
100
AcDbEntity
  8
0
100
AcDbLine
 10
4.947488657588579
 20
2.562486692789453
 30
0.0
 11
4.981146430430696
 21
2.664676165147491
 31
0.0
  0
LINE
  5
1EE
330
2
100
AcDbEntity
  8
0
100
AcDbLine
 10
4.876362169175032
 20
2.009421147019909
 30
0.0
 11
5.186579436176277
 21
1.982724395971337
 31
0.0
  0
LINE
  5
1EF
330
2
100
AcDbEntity
  8
0
100
AcDbLine
 10
5.578044293198661
 20
1.652857760225374
 30
0.0
 11
5.677603516728354
 21
1.643958558707645
 31
0.0
  0
SPLINE
  5
1F0
330
2
100
AcDbEntity
  8
0
100
AcDbSpline
210
0.0
220
0.0
230
1.0
 70
     8
 71
     3
 72
     9
 73
     5
 74
     0
 42
0.000000001
 43
0.0000000001
 40
0.0
 40
0.0
 40
0.0
 40
0.0
 40
0.6184372295390216
 40
1.0
 40
1.0
 40
1.0
 40
1.0
 10
5.086251907454956
 20
6.398729400790931
 30
0.0
 10
5.071357768006603
 20
6.40984238184244
 30
0.0
 10
5.047274257608157
 20
6.427811838596728
 30
0.0
 10
5.017481545070575
 20
6.42998228376366
 30
0.0
 10
5.006113755135176
 20
6.430810444834679
 30
0.0
  0
LINE
  5
1F1
330
2
100
AcDbEntity
  8
0
100
AcDbLine
 10
5.006694166533225
 20
6.433071404762721
 30
0.0
 11
4.042122303296294
 21
6.519292084133521
 31
0.0
  0
LINE
  5
1F2
330
2
100
AcDbEntity
  8
0
100
AcDbLine
 10
5.867902563738795
 20
5.721800075569335
 30
0.0
 11
5.086251907450683
 21
6.398729400792622
 31
0.0
  0
SPLINE
  5
1F3
330
2
100
AcDbEntity
  8
0
100
AcDbSpline
210
0.0
220
0.0
230
1.0
 70
     8
 71
     3
 72
     9
 73
     5
 74
     0
 42
0.000000001
 43
0.0000000001
 40
0.0
 40
0.0
 40
0.0
 40
0.0
 40
0.4962257895678297
 40
1.0
 40
1.0
 40
1.0
 40
1.0
 10
4.619508970634994
 20
3.191911561881239
 30
0.0
 10
4.626068771936662
 20
3.197436435088055
 30
0.0
 10
4.639288160045058
 20
3.208570224026409
 30
0.0
 10
4.64875995086323
 20
3.221531854366531
 30
0.0
 10
4.653531594803965
 20
3.228061589457031
 30
0.0
  0
SPLINE
  5
1F4
330
2
100
AcDbEntity
  8
0
100
AcDbSpline
210
0.0
220
0.0
230
1.0
 70
     8
 71
     3
 72
    10
 73
     6
 74
     0
 42
0.000000001
 43
0.0000000001
 40
0.0
 40
0.0
 40
0.0
 40
0.0
 40
0.4246994035048667
 40
0.9248441483348596
 40
1.0
 40
1.0
 40
1.0
 40
1.0
 10
4.564341458421233
 20
3.16386660591707
 30
0.0
 10
4.572353695252677
 20
3.166126328061268
 30
0.0
 10
4.589801495479077
 20
3.171047198645656
 30
0.0
 10
4.608875419529391
 20
3.182075359709073
 30
0.0
 10
4.618280335586724
 20
3.190775055119742
 30
0.0
 10
4.619508970634994
 20
3.191911561881275
 30
0.0
  0
LINE
  5
1F5
330
2
100
AcDbEntity
  8
0
100
AcDbLine
 10
4.653531594804367
 20
3.228061589453084
 30
0.0
 11
4.679003218881929
 21
3.262006304115786
 31
0.0
  0
LINE
  5
1F6
330
2
100
AcDbEntity
  8
0
100
AcDbLine
 10
4.54673537261377
 20
3.160634729973061
 30
0.0
 11
4.564341458416479
 21
3.163866605919571
 31
0.0
  0
SPLINE
  5
1F7
330
2
100
AcDbEntity
  8
0
100
AcDbSpline
210
0.0
220
0.0
230
1.0
 70
     8
 71
     2
 72
     6
 73
     3
 74
     0
 42
0.000000001
 43
0.0000000001
 40
0.0
 40
0.0
 40
0.0
 40
1.0
 40
1.0
 40
1.0
 10
4.544141300514992
 20
3.160065013236099
 30
0.0
 10
4.545448850361996
 20
3.160354005519316
 30
0.0
 10
4.546735372615217
 20
3.160634729973145
 30
0.0
  0
SPLINE
  5
1F8
330
2
100
AcDbEntity
  8
0
100
AcDbSpline
210
0.0
220
0.0
230
1.0
 70
     8
 71
     3
 72
    12
 73
     8
 74
     0
 42
0.000000001
 43
0.0000000001
 40
0.0
 40
0.0
 40
0.0
 40
0.0
 40
0.067366168286369
 40
0.3069842954474938
 40
0.5348031355017388
 40
0.7837831707209901
 40
1.0
 40
1.0
 40
1.0
 40
1.0
 10
5.762506411895913
 20
2.132210456046505
 30
0.0
 10
5.767371214564542
 20
2.131324663542822
 30
0.0
 10
5.789539879603737
 20
2.127288150934533
 30
0.0
 10
5.828704113610297
 20
2.140382160428094
 30
0.0
 10
5.871942875711877
 20
2.169079951678657
 30
0.0
 10
5.903981861938786
 20
2.209428265853338
 30
0.0
 10
5.916891554247938
 20
2.242128879664824
 30
0.0
 10
5.922891794041146
 20
2.257327655867726
 30
0.0
  0
LINE
  5
1F9
330
2
100
AcDbEntity
  8
0
100
AcDbLine
 10
5.252518455765273
 20
2.161346292283566
 30
0.0
 11
5.7620431327028
 21
2.130193247806594
 31
0.0
  0
LINE
  5
1FA
330
2
100
AcDbEntity
  8
0
100
AcDbLine
 10
6.19460242371536
 20
2.729942030277639
 30
0.0
 11
6.33301919331637
 21
2.842816042061296
 31
0.0
  0
SPLINE
  5
1FB
330
2
100
AcDbEntity
  8
0
100
AcDbSpline
210
0.0
220
0.0
230
1.0
 70
     8
 71
     3
 72
    11
 73
     7
 74
     0
 42
0.000000001
 43
0.0000000001
 40
0.0
 40
0.0
 40
0.0
 40
0.0
 40
0.1430693510064041
 40
0.4273942590745158
 40
0.7122227007896443
 40
1.0
 40
1.0
 40
1.0
 40
1.0
 10
5.974915035205035
 20
2.415276509605993
 30
0.0
 10
5.980887847585732
 20
2.431928430626706
 30
0.0
 10
5.998730563052777
 20
2.481673085206732
 30
0.0
 10
6.04274303551219
 20
2.563106146602205
 30
0.0
 10
6.110574313588811
 20
2.654630911905007
 30
0.0
 10
6.166497054988797
 20
2.704752284274271
 30
0.0
 10
6.194602423716811
 20
2.729942030276188
 30
0.0
  0
LINE
  5
1FC
330
2
100
AcDbEntity
  8
0
100
AcDbLine
 10
5.922891794039856
 20
2.257327655867606
 30
0.0
 11
5.974915035206244
 21
2.415276509608608
 31
0.0
  0
LINE
  5
1FD
330
2
100
AcDbEntity
  8
0
100
AcDbLine
 10
6.116236995030317
 20
6.46049283182842
 30
0.0
 11
5.522652981698347
 21
4.658281551973628
 31
0.0
  0
LINE
  5
1FE
330
2
100
AcDbEntity
  8
0
100
AcDbLine
 10
6.083157753971782
 20
7.092231032056963
 30
0.0
 11
5.718509644464877
 21
7.229422041988257
 31
0.0
  0
LINE
  5
1FF
330
2
100
AcDbEntity
  8
0
100
AcDbLine
 10
6.489351114724185
 20
6.949684747861181
 30
0.0
 11
6.389041849727326
 21
7.036555119581866
 31
0.0
  0
LINE
  5
200
330
2
100
AcDbEntity
  8
0
100
AcDbLine
 10
6.362393197826108
 20
7.047262627479068
 30
0.0
 11
6.232289804799074
 21
7.0570582857576
 31
0.0
  0
LINE
  5
201
330
2
100
AcDbEntity
  8
0
100
AcDbLine
 10
5.014307840598595
 20
7.28686055840941
 30
0.0
 11
5.000748375104629
 21
7.245693192217033
 31
0.0
  0
LINE
  5
202
330
2
100
AcDbEntity
  8
0
100
AcDbLine
 10
5.008843573801903
 20
7.225594239771176
 30
0.0
 11
4.789722138864907
 21
7.242092918696778
 31
0.0
  0
LINE
  5
203
330
2
100
AcDbEntity
  8
0
100
AcDbLine
 10
4.607673411425518
 20
7.336238258344287
 30
0.0
 11
4.054476362553117
 21
7.377891389388214
 31
0.0
  0
LINE
  5
204
330
2
100
AcDbEntity
  8
0
100
AcDbLine
 10
4.789756772360487
 20
7.242063533824232
 30
0.0
 11
4.735764167857863
 21
7.287972649659311
 31
0.0
  0
LINE
  5
205
330
2
100
AcDbEntity
  8
0
100
AcDbLine
 10
1.719128001217085
 20
3.159843550158389
 30
0.0
 11
1.719128001217085
 21
3.120199621464112
 31
0.0
  0
LINE
  5
206
330
2
100
AcDbEntity
  8
0
100
AcDbLine
 10
3.550365715727235
 20
7.074428966486264
 30
0.0
 11
3.287730172103495
 21
6.920617464732548
 31
0.0
  0
LINE
  5
207
330
2
100
AcDbEntity
  8
0
100
AcDbLine
 10
8.884707680275079
 20
6.843689947611598
 30
0.0
 11
9.091670361288251
 21
6.828106970285634
 31
0.0
  0
LINE
  5
208
330
2
100
AcDbEntity
  8
0
100
AcDbLine
 10
9.119345789385487
 20
7.728455500314488
 30
0.0
 11
8.959076579387589
 21
7.86725270761899
 31
0.0
  0
LINE
  5
209
330
2
100
AcDbEntity
  8
0
100
AcDbLine
 10
8.248824689009538
 20
5.41834336149976
 30
0.0
 11
8.318251396458594
 21
5.450092646734362
 31
0.0
  0
SPLINE
  5
20A
330
2
100
AcDbEntity
  8
0
100
AcDbSpline
210
0.0
220
0.0
230
1.0
 70
     8
 71
     3
 72
    10
 73
     6
 74
     0
 42
0.000000001
 43
0.0000000001
 40
0.0
 40
0.0
 40
0.0
 40
0.0
 40
0.223414656091903
 40
0.6496074072459033
 40
1.0
 40
1.0
 40
1.0
 40
1.0
 10
8.353027309744764
 20
5.504454279720147
 30
0.0
 10
8.35805874073436
 20
5.515253701415877
 30
0.0
 10
8.37268828606996
 20
5.546654436042013
 30
0.0
 10
8.41144740142303
 20
5.582813139143331
 30
0.0
 10
8.438535725694285
 20
5.598275588845745
 30
0.0
 10
8.450757882922992
 20
5.605252192105187
 30
0.0
  0
LINE
  5
20B
330
2
100
AcDbEntity
  8
0
100
AcDbLine
 10
8.342506170752331
 20
5.484197629574217
 30
0.0
 11
8.3530273097442
 21
5.504454279724368
 31
0.0
  0
LINE
  5
20C
330
2
100
AcDbEntity
  8
0
100
AcDbLine
 10
7.308573784056673
 20
8.053194451599853
 30
0.0
 11
7.266123165827411
 21
7.924309444189505
 31
0.0
  0
LINE
  5
20D
330
2
100
AcDbEntity
  8
0
100
AcDbLine
 10
8.487814414859043
 20
4.985912627146869
 30
0.0
 11
8.513245999730886
 21
4.963888228585318
 31
0.0
  0
SPLINE
  5
20E
330
2
100
AcDbEntity
  8
0
100
AcDbSpline
210
0.0
220
0.0
230
1.0
 70
     8
 71
     3
 72
    12
 73
     8
 74
     0
 42
0.000000001
 43
0.0000000001
 40
0.0
 40
0.0
 40
0.0
 40
0.0
 40
0.0606925764686208
 40
0.3204610155387727
 40
0.5571976569296279
 40
0.7857352886232667
 40
1.0
 40
1.0
 40
1.0
 40
1.0
 10
12.69850226564334
 20
8.319903926628231
 30
0.0
 10
12.69443773732645
 20
8.314583106417137
 30
0.0
 10
12.67297674575367
 20
8.286488806462216
 30
0.0
 10
12.65429459867347
 20
8.227295947540161
 30
0.0
 10
12.64699873842651
 20
8.15147961712333
 30
0.0
 10
12.66111324226126
 20
8.081226976941618
 30
0.0
 10
12.68691261656534
 20
8.044111221705229
 30
0.0
 10
12.69939650599252
 20
8.026151523190272
 30
0.0
  0
SPLINE
  5
20F
330
2
100
AcDbEntity
  8
0
100
AcDbSpline
210
0.0
220
0.0
230
1.0
 70
     8
 71
     3
 72
    13
 73
     9
 74
     0
 42
0.000000001
 43
0.0000000001
 40
0.0
 40
0.0
 40
0.0
 40
0.0
 40
0.1303754809643037
 40
0.303283450701318
 40
0.4791018037484784
 40
0.6622248062783119
 40
0.8520685611530565
 40
1.0
 40
1.0
 40
1.0
 40
1.0
 10
13.05552444952191
 20
8.431273439686503
 30
0.0
 10
13.04066884094228
 20
8.440399821306696
 30
0.0
 10
13.00611126770091
 20
8.46162989071635
 30
0.0
 10
12.94051704234737
 20
8.469322194999223
 30
0.0
 10
12.86805511514417
 20
8.458648436589067
 30
0.0
 10
12.79745502589344
 20
8.425733386132318
 30
0.0
 10
12.73725083522437
 20
8.37861150460923
 30
0.0
 10
12.71030389911308
 20
8.337784465825334
 30
0.0
 10
12.69850226564334
 20
8.319903926628231
 30
0.0
  0
LINE
  5
210
330
2
100
AcDbEntity
  8
0
100
AcDbLine
 10
13.1177436597751
 20
8.391652195048234
 30
0.0
 11
13.05552444952191
 21
8.431273439686503
 31
0.0
  0
LINE
  5
211
330
2
100
AcDbEntity
  8
0
100
AcDbLine
 10
12.70287404238103
 20
8.021498404026935
 30
0.0
 11
12.72694778873956
 21
7.994321578354083
 31
0.0
  0
SPLINE
  5
212
330
2
100
AcDbEntity
  8
0
100
AcDbSpline
210
0.0
220
0.0
230
1.0
 70
     8
 71
     3
 72
    12
 73
     8
 74
     0
 42
0.000000001
 43
0.0000000001
 40
0.0
 40
0.0
 40
0.0
 40
0.0
 40
0.0606937166279216
 40
0.3204616990037354
 40
0.5571981577917608
 40
0.7857356728127672
 40
1.0
 40
1.0
 40
1.0
 40
1.0
 10
24.94407176398665
 20
11.85489534975261
 30
0.0
 10
24.94000705608479
 20
11.84957449115772
 30
0.0
 10
24.91854547369133
 20
11.82148045638417
 30
0.0
 10
24.89986395438828
 20
11.76228716933156
 30
0.0
 10
24.89256779731583
 20
11.68647092878234
 30
0.0
 10
24.90668266384922
 20
11.61621842489392
 30
0.0
 10
24.93248187427902
 20
11.57910258106813
 30
0.0
 10
24.94496567614655
 20
11.56114285157457
 30
0.0
  0
SPLINE
  5
213
330
2
100
AcDbEntity
  8
0
100
AcDbSpline
210
0.0
220
0.0
230
1.0
 70
     8
 71
     3
 72
    13
 73
     9
 74
     0
 42
0.000000001
 43
0.0000000001
 40
0.0
 40
0.0
 40
0.0
 40
0.0
 40
0.1303755812226645
 40
0.3032836839253981
 40
0.4791021721763542
 40
0.6622244685674682
 40
0.8520687492924226
 40
1.0
 40
1.0
 40
1.0
 40
1.0
 10
25.30109361967595
 20
11.9662647680708
 30
0.0
 10
25.28623801095887
 20
11.9753911501944
 30
0.0
 10
25.25168043739762
 20
11.99662122077501
 30
0.0
 10
25.18608621506503
 20
12.00431351399857
 30
0.0
 10
25.1136243908202
 20
11.99363981811288
 30
0.0
 10
25.04302440081147
 20
11.96072466800478
 30
0.0
 10
24.9828201941013
 20
11.91360299085053
 30
0.0
 10
24.95587333633559
 20
11.87277587992645
 30
0.0
 10
24.94407176398665
 20
11.85489534975261
 30
0.0
  0
LINE
  5
214
330
2
100
AcDbEntity
  8
0
100
AcDbLine
 10
24.94844337663213
 20
11.55648977977789
 30
0.0
 11
24.97251695889585
 21
11.52931290673105
 31
0.0
  0
LINE
  5
215
330
2
100
AcDbEntity
  8
0
100
AcDbLine
 10
24.97251695889585
 20
11.52931290673105
 30
0.0
 11
25.03264135937565
 21
11.47287073073888
 31
0.0
  0
LINE
  5
216
330
2
100
AcDbEntity
  8
0
100
AcDbLine
 10
25.39891676557643
 20
11.89580923173402
 30
0.0
 11
25.34045871775872
 21
11.94311157555187
 31
0.0
  0
LINE
  5
217
330
2
100
AcDbEntity
  8
0
100
AcDbLine
 10
12.72694778873956
 20
7.994321578354083
 30
0.0
 11
12.78707235331407
 21
7.937879449725676
 31
0.0
  0
LINE
  5
218
330
2
100
AcDbEntity
  8
0
100
AcDbLine
 10
13.15334792360972
 20
8.360817998084604
 30
0.0
 11
13.1177436597751
 21
8.391652195048234
 31
0.0
  0
LINE
  5
219
330
2
100
AcDbEntity
  8
0
100
AcDbLine
 10
28.4608063616671
 20
12.52141773681456
 30
0.0
 11
28.4167574619835
 21
12.50870191477112
 31
0.0
  0
LINE
  5
21A
330
2
100
AcDbEntity
  8
0
100
AcDbLine
 10
31.28649540283997
 20
12.96868999785597
 30
0.0
 11
31.25467342510017
 21
12.9962486389772
 31
0.0
  0
LINE
  5
21B
330
2
100
AcDbEntity
  8
0
100
AcDbLine
 10
31.25467342510017
 20
12.9962486389772
 30
0.0
 11
29.67608465522728
 21
14.36334661581201
 31
0.0
  0
LINE
  5
21C
330
2
100
AcDbEntity
  8
0
100
AcDbLine
 10
29.54099708425308
 20
14.48033588401087
 30
0.0
 11
29.49128021777374
 21
14.52339195337841
 31
0.0
  0
LINE
  5
21D
330
2
100
AcDbEntity
  8
0
100
AcDbLine
 10
29.43779673183915
 20
14.56971001088058
 30
0.0
 11
28.4274054704727
 21
15.44473451098322
 31
0.0
  0
LINE
  5
21E
330
2
100
AcDbEntity
  8
0
100
AcDbLine
 10
28.33595225927555
 20
15.44243766204252
 30
0.0
 11
9.13067137915997
 21
9.898350619043075
 31
0.0
  0
LINE
  5
21F
330
2
100
AcDbEntity
  8
0
100
AcDbLine
 10
28.44140540087538
 20
11.0804037754833
 30
0.0
 11
31.13715417958499
 21
8.745816850900718
 31
0.0
  0
LINE
  5
220
330
2
100
AcDbEntity
  8
0
100
AcDbLine
 10
31.97265850309591
 20
9.024440998240288
 30
0.0
 11
31.97265850309591
 21
9.068489810744374
 31
0.0
  0
LINE
  5
221
330
2
100
AcDbEntity
  8
0
100
AcDbLine
 10
11.97726216294962
 20
4.015078438988664
 30
0.0
 11
30.44412059747397
 21
9.346001283123674
 31
0.0
  0
LINE
  5
222
330
2
100
AcDbEntity
  8
0
100
AcDbLine
 10
5.719919423052565
 20
4.667364311035307
 30
0.0
 11
5.772409238285388
 21
4.621906797616596
 31
0.0
  0
LINE
  5
223
330
2
100
AcDbEntity
  8
0
100
AcDbLine
 10
6.293230123776837
 20
6.592523167254179
 30
0.0
 11
6.278163613419533
 21
6.54678163233422
 31
0.0
  0
LINE
  5
224
330
2
100
AcDbEntity
  8
0
100
AcDbLine
 10
10.02854105823202
 20
3.991977743752705
 30
0.0
 11
9.200694272475162
 21
4.054310625845602
 31
0.0
  0
LINE
  5
225
330
2
100
AcDbEntity
  8
0
100
AcDbLine
 10
10.08374736666633
 20
3.8784378806497
 30
0.0
 11
10.09881256425503
 21
3.924179200693054
 31
0.0
  0
ARC
  5
226
330
2
100
AcDbEntity
  8
0
100
AcDbCircle
 10
6.438311226753948
 20
7.084393943943233
 30
0.0
 40
0.0249879852882061
100
AcDbArc
 50
99.61106931520331
 51
162.1753033699015
  0
LINE
  5
227
330
2
100
AcDbEntity
  8
0
100
AcDbLine
 10
6.607715900704343
 20
7.128532185767723
 30
0.0
 11
6.562764480686771
 21
7.123482254393303
 31
0.0
  0
LINE
  5
228
330
2
100
AcDbEntity
  8
0
100
AcDbLine
 10
6.558350992158639
 20
7.122986326629858
 30
0.0
 11
6.434139251877458
 21
7.10903119285845
 31
0.0
  0
LINE
  5
229
330
2
100
AcDbEntity
  8
0
100
AcDbLine
 10
6.41452272628484
 20
7.092042908168272
 30
0.0
 11
6.394647587590557
 21
7.031700344134942
 31
0.0
  0
LINE
  5
22A
330
2
100
AcDbEntity
  8
0
100
AcDbLine
 10
4.792264449559465
 20
2.04714480259805
 30
0.0
 11
3.988939735568095
 21
2.74284441240076
 31
0.0
  0
LINE
  5
22B
330
2
100
AcDbEntity
  8
0
100
AcDbLine
 10
4.5530982734513
 20
2.719880759126229
 30
0.0
 11
3.988939735568095
 21
2.74284441240076
 31
0.0
  0
ELLIPSE
  5
22C
330
2
100
AcDbEntity
  8
0
100
AcDbEllipse
 10
4.53573909024452
 20
2.733228799970782
 30
0.0
 11
0.0289166330484817
 21
-0.0097578468051093
 31
0.0
210
0.0
220
0.0
230
0.9999999999999998
 40
0.3166888303999999
 41
5.458480189693617
 42
6.942010053889517
  0
LINE
  5
22D
330
2
100
AcDbEntity
  8
0
100
AcDbLine
 10
4.28328059274122
 20
2.971194058334707
 30
0.0
 11
4.560495180371196
 21
2.731119183144679
 31
0.0
  0
ELLIPSE
  5
22E
330
2
100
AcDbEntity
  8
0
100
AcDbEllipse
 10
4.2585244928895
 20
2.973303683583738
 30
0.0
 11
0.0289166330484701
 21
-0.0097578468051093
 31
0.0
210
0.0
220
0.0
230
1.0
 40
0.3166888303999999
 41
0.6588247467100106
 42
2.142354610904445
  0
LINE
  5
22F
330
2
100
AcDbEntity
  8
0
100
AcDbLine
 10
3.617011337763849
 20
3.064943853282092
 30
0.0
 11
4.245481895023634
 21
2.98628435746474
 31
0.0
  0
LINE
  5
230
330
2
100
AcDbEntity
  8
0
100
AcDbLine
 10
3.617011337763849
 20
3.064943853282092
 30
0.0
 11
2.813686594170154
 21
3.76064348873002
 31
0.0
  0
LINE
  5
231
330
2
100
AcDbEntity
  8
0
100
AcDbLine
 10
2.858105971680878
 20
4.076564140564315
 30
0.0
 11
3.766955705070391
 21
3.289477183218406
 31
0.0
  0
ELLIPSE
  5
232
330
2
100
AcDbEntity
  8
0
100
AcDbEllipse
 10
3.684433334906532
 20
3.296508659180199
 30
0.0
 11
0.0963887768282511
 21
-0.0325261560170292
 31
0.0
210
0.0
220
0.0
230
1.0
 40
0.3166888304
 41
5.458480189693979
 42
6.942010053889137
  0
LINE
  5
233
330
2
100
AcDbEntity
  8
0
100
AcDbLine
 10
3.614981376378336
 20
3.257197014730304
 30
0.0
 11
3.742295418306173
 21
3.252014653434224
 31
0.0
  0
ELLIPSE
  5
234
330
2
100
AcDbEntity
  8
0
100
AcDbEllipse
 10
3.64391187402521
 20
3.234949856312632
 30
0.0
 11
0.0481943884141227
 21
-0.0162630780085233
 31
0.0
210
0.0
220
0.0
230
1.0
 40
0.3166888304
 41
2.316887536104295
 42
3.800417400299778
  0
LINE
  5
235
330
2
100
AcDbEntity
  8
0
100
AcDbLine
 10
3.60690625296313
 20
3.234780036527836
 30
0.0
 11
3.602650576611962
 21
3.238465560347443
 31
0.0
  0
ELLIPSE
  5
236
330
2
100
AcDbEntity
  8
0
100
AcDbEllipse
 10
3.648167537009585
 20
3.23126434405933
 30
0.0
 11
0.0481943884141227
 21
-0.0162630780085233
 31
0.0
210
0.0
220
0.0
230
1.0
 40
0.3166888304
 41
3.800417400299803
 42
5.283947264494716
  0
LINE
  5
237
330
2
100
AcDbEntity
  8
0
100
AcDbLine
 10
3.66990669221459
 20
3.209630295896896
 30
0.0
 11
4.167200476684991
 21
3.147388506869354
 31
0.0
  0
ELLIPSE
  5
238
330
2
100
AcDbEntity
  8
0
100
AcDbEllipse
 10
4.254155493534871
 20
3.06085190974543
 30
0.0
 11
0.1927775536565022
 21
-0.0650523120340757
 31
0.0
210
0.0
220
0.0
230
1.0
 40
0.3166888304
 41
0.6588247467096388
 42
2.14235461090486
  0
LINE
  5
239
330
2
100
AcDbEntity
  8
0
100
AcDbLine
 10
4.41919958450254
 20
3.046788806961659
 30
0.0
 11
4.919708683378075
 21
2.613335212501621
 31
0.0
  0
ELLIPSE
  5
23A
330
2
100
AcDbEntity
  8
0
100
AcDbEllipse
 10
4.754664596825316
 20
2.627398311470658
 30
0.0
 11
0.1927775536565022
 21
-0.0650523120340699
 31
0.0
210
0.0
220
0.0
230
1.0
 40
0.3166888303999999
 41
5.458480189694113
 42
6.942010053889237
  0
LINE
  5
23B
330
2
100
AcDbEntity
  8
0
100
AcDbLine
 10
4.870388097998556
 20
2.538410163187257
 30
0.0
 11
4.423982992044416
 21
2.556581063857489
 31
0.0
  0
ELLIPSE
  5
23C
330
2
100
AcDbEntity
  8
0
100
AcDbEllipse
 10
4.452913484299775
 20
2.534333910109053
 30
0.0
 11
0.0481943884141284
 21
-0.0162630780085233
 31
0.0
210
0.0
220
0.0
230
1.0
 40
0.3166888304
 41
2.316887536104025
 42
3.800417400300071
  0
LINE
  5
23D
330
2
100
AcDbEntity
  8
0
100
AcDbLine
 10
4.415907844937038
 20
2.534164106163013
 30
0.0
 11
4.411652192277963
 21
2.537849609484781
 31
0.0
  0
ELLIPSE
  5
23E
330
2
100
AcDbEntity
  8
0
100
AcDbEllipse
 10
4.45716914728407
 20
2.530648397855745
 30
0.0
 11
0.0481943884141227
 21
-0.0162630780085233
 31
0.0
210
0.0
220
0.0
230
1.0
 40
0.3166888304
 41
3.800417400300069
 42
5.283947264494716
  0
LINE
  5
23F
330
2
100
AcDbEntity
  8
0
100
AcDbLine
 10
4.620735675104504
 20
2.491263075335615
 30
0.0
 11
4.47890828419881
 21
2.509014365542268
 31
0.0
  0
ELLIPSE
  5
240
330
2
100
AcDbEntity
  8
0
100
AcDbEllipse
 10
4.664212887053026
 20
2.447994676914003
 30
0.0
 11
0.0963887768282511
 21
-0.032526156017035
 31
0.0
210
0.0
220
0.0
230
1.0
 40
0.3166888303999999
 41
0.6588247467096168
 42
2.142354610904783
  0
LINE
  5
241
330
2
100
AcDbEntity
  8
0
100
AcDbLine
 10
4.746735240849132
 20
2.440963215122698
 30
0.0
 11
5.655585021612598
 21
1.653876216760682
 31
0.0
  0
LINE
  5
242
330
2
100
AcDbEntity
  8
0
100
AcDbLine
 10
5.186579436176277
 20
1.982724395971337
 30
0.0
 11
5.556025798093135
 21
1.662775418278453
 31
0.0
  0
ELLIPSE
  5
243
330
2
100
AcDbEntity
  8
0
100
AcDbEllipse
 10
3.795066488879479
 20
6.921305931047797
 30
0.0
 11
0.0076337594789153
 21
0.1014462385578706
 31
0.0
210
0.0
220
0.0
230
1.0
 40
0.5778770211000001
 41
5.877920137287945
 42
7.448640311660927
  0
LINE
  5
244
330
2
100
AcDbEntity
  8
0
100
AcDbLine
 10
4.435664067640845
 20
6.484114429923311
 30
0.0
 11
3.825195563648572
 21
7.012795662591634
 31
0.0
  0
LINE
  5
245
330
2
100
AcDbEntity
  8
0
100
AcDbLine
 10
3.249480749565127
 20
4.190059516446943
 30
0.0
 11
3.577150110068171
 21
5.184912520361616
 31
0.0
  0
LINE
  5
246
330
2
100
AcDbEntity
  8
0
100
AcDbLine
 10
3.714690270638806
 20
5.60250696715486
 30
0.0
 11
3.878461938565437
 21
6.099740702864255
 31
0.0
  0
ARC
  5
247
330
2
100
AcDbEntity
  8
0
100
AcDbCircle
 10
3.582966100967733
 20
4.058337358964209
 30
0.0
 40
0.3585571173050495
100
AcDbArc
 50
158.446657245201
 51
209.5566189156511
  0
ELLIPSE
  5
248
330
2
100
AcDbEntity
  8
0
100
AcDbEllipse
 10
2.888241499197729
 20
4.168046922528791
 30
0.0
 11
0.00764257670756
 21
0.1014399450396589
 31
0.0
210
0.0
220
0.0
230
0.9999999999999998
 40
0.5779408021
 41
1.165636268090271
 42
2.736356442463288
  0
LINE
  5
249
330
2
100
AcDbEntity
  8
0
100
AcDbLine
 10
3.744203869811065
 20
6.965363481073938
 30
0.0
 11
2.837373755480316
 21
4.212090378549476
 31
0.0
  0
LWPOLYLINE
  5
24A
330
2
100
AcDbEntity
  8
0
100
AcDbPolyline
 90
        7
 70
   128
 43
0.0
 10
3.630247356156224
 20
6.470518217303898
 10
3.612153142815563
 20
6.385654723251373
 10
3.611576960351679
 20
6.297744491706048
 10
3.628591545550543
 20
6.217391363978038
 10
3.66114202762611
 20
6.154286505944117
 10
3.705303498351764
 20
6.116041550428308
 10
3.739216622429416
 20
6.106734697500795
  0
LWPOLYLINE
  5
24B
330
2
100
AcDbEntity
  8
0
100
AcDbPolyline
 90
        5
 70
   128
 43
0.0
 10
3.777405941301054
 20
6.613921308006937
 10
3.759062510489271
 20
6.613523364466731
 10
3.70841640758699
 20
6.591764595644347
 10
3.663680161893577
 20
6.542099452418563
 10
3.630247356156224
 20
6.470518217303898
  0
LWPOLYLINE
  5
24C
330
2
100
AcDbEntity
  8
0
100
AcDbPolyline
 90
        7
 70
   128
 43
0.0
 10
3.328936840417331
 20
5.555690577857298
 10
3.310841314328369
 20
5.470826704843485
 10
3.310265131864484
 20
5.382916473298203
 10
3.327279717063429
 20
5.302563345570157
 10
3.359830199128682
 20
5.239458405483753
 10
3.403991669854498
 20
5.20121344996795
 10
3.437906106700676
 20
5.191907058054188
  0
LWPOLYLINE
  5
24D
330
2
100
AcDbEntity
  8
0
100
AcDbPolyline
 90
        5
 70
   128
 43
0.0
 10
3.476094112803626
 20
5.699093289599091
 10
3.457750682002076
 20
5.698695181964049
 10
3.407105891848098
 20
5.676936792102905
 10
3.362368333396228
 20
5.627271434010669
 10
3.328936840417331
 20
5.555690577857298
  0
LINE
  5
24E
330
2
100
AcDbEntity
  8
0
100
AcDbLine
 10
3.560618255457077
 20
5.772445409074407
 30
0.0
 11
3.64799928958895
 21
6.037747605667258
 31
0.0
  0
ELLIPSE
  5
24F
330
2
100
AcDbEntity
  8
0
100
AcDbEllipse
 10
3.575878406110587
 20
5.759232368227633
 30
0.0
 11
0.0022927730122709
 21
0.0304319835118942
 31
0.0
210
0.0
220
0.0
230
1.0
 40
0.5779408021000002
 41
1.165636268090297
 42
2.73635644246337
  0
LINE
  5
250
330
2
100
AcDbEntity
  8
0
100
AcDbLine
 10
3.566836972969073
 20
5.731787354448306
 30
0.0
 11
3.624365793160699
 21
5.681965934706793
 31
0.0
  0
LINE
  5
251
330
2
100
AcDbEntity
  8
0
100
AcDbLine
 10
3.657341077863101
 20
5.669158007154192
 30
0.0
 11
3.75876400738532
 21
5.977093681751147
 31
0.0
  0
LINE
  5
252
330
2
100
AcDbEntity
  8
0
100
AcDbLine
 10
3.672295981667858
 20
6.051977188630293
 30
0.0
 11
3.75876400738532
 21
5.977093681751147
 31
0.0
  0
ELLIPSE
  5
253
330
2
100
AcDbEntity
  8
0
100
AcDbEllipse
 10
3.663258084331511
 20
6.024530401414454
 30
0.0
 11
0.0022901278436694
 21
0.0304338715673594
 31
0.0
210
0.0
220
0.0
230
1.0
 40
0.5778770211000001
 41
5.877920137287437
 42
7.448640311660861
  0
LINE
  5
254
330
2
100
AcDbEntity
  8
0
100
AcDbLine
 10
3.493291051625685
 20
6.510573527347756
 30
0.0
 11
3.191979223128336
 21
5.595745344845069
 31
0.0
  0
LINE
  5
255
330
2
100
AcDbEntity
  8
0
100
AcDbLine
 10
3.645078562270083
 20
6.971423957174537
 30
0.0
 11
3.493291051625685
 21
6.510573527347756
 31
0.0
  0
LINE
  5
256
330
2
100
AcDbEntity
  8
0
100
AcDbLine
 10
3.191979223128336
 20
5.595745344845069
 30
0.0
 11
3.027733338653163
 21
5.09706753696462
 31
0.0
  0
LWPOLYLINE
  5
257
330
2
100
AcDbEntity
  8
0
100
AcDbPolyline
 90
       17
 70
   128
 43
0.0
 10
3.722723215004975
 20
5.345581561971676
 10
3.737940743733516
 20
5.421802631487919
 10
3.735456046602827
 20
5.499743891849156
 10
3.715647929696907
 20
5.567539453502191
 10
3.681530666775177
 20
5.614867936683979
 10
3.638300245818586
 20
5.634524512660621
 10
3.59253620574995
 20
5.623516104731848
 10
3.551207033460838
 20
5.583518768322624
 10
3.520604097137843
 20
5.520621852630882
 10
3.505386568409382
 20
5.444400783114688
 10
3.507871265539991
 20
5.366459686848202
 10
3.527679477193976
 20
5.298663961110569
 10
3.561796740105473
 20
5.251335477918585
 10
3.605027161072215
 20
5.231678901941937
 10
3.650791106392869
 20
5.24268747396551
 10
3.692120278681981
 20
5.28268464627994
 10
3.722723215004975
 20
5.345581561971676
  0
ARC
  5
258
330
2
100
AcDbEntity
  8
0
100
AcDbCircle
 10
3.215843410020903
 20
4.085696154182082
 30
0.0
 40
0.5170970313689873
100
AcDbArc
 50
158.4462968151016
 51
218.9476879695059
  0
LWPOLYLINE
  5
259
330
2
100
AcDbEntity
  8
0
100
AcDbPolyline
 90
       10
 70
   128
 43
0.0
 10
3.024074147477647
 20
5.804740964876333
 10
2.983103031361218
 20
5.799738918769628
 10
2.925728228891977
 20
5.766137585915013
 10
2.875699405937673
 20
5.70451218326083
 10
2.837914240299257
 20
5.620895592968528
 10
2.816071364347982
 20
5.523472574801641
 10
2.812308662664137
 20
5.421779699892084
 10
2.826995237927562
 20
5.325771383295934
 10
2.858692703128701
 20
5.244845201200065
 10
2.904298534084061
 20
5.18692326506614
  0
LWPOLYLINE
  5
25A
330
2
100
AcDbEntity
  8
0
100
AcDbPolyline
 90
        3
 70
   128
 43
0.0
 10
3.254528397599577
 20
3.905476187223054
 10
3.266379968332054
 20
3.886661240738723
 10
3.288172055134732
 20
3.862519047659737
  0
LINE
  5
25B
330
2
100
AcDbEntity
  8
0
100
AcDbLine
 10
3.027733338653163
 20
5.09706753696462
 30
0.0
 11
3.006024826228257
 21
5.098825711836063
 31
0.0
  0
LINE
  5
25C
330
2
100
AcDbEntity
  8
0
100
AcDbLine
 10
2.734905092494968
 20
4.27566371612058
 30
0.0
 11
3.006024826228257
 21
5.098825711836063
 31
0.0
  0
LWPOLYLINE
  5
25D
330
2
100
AcDbEntity
  8
0
100
AcDbPolyline
 90
       17
 70
   128
 43
0.0
 10
4.024035043502321
 20
6.260409744474357
 10
4.039252572230864
 20
6.336630649895764
 10
4.036767875100256
 20
6.414571910257002
 10
4.016959758184021
 20
6.482367471910072
 10
3.982842495272526
 20
6.529695955091861
 10
3.939612074315934
 20
6.549352531068515
 10
3.893848034247295
 20
6.538344123139729
 10
3.852518861958186
 20
6.498346786730506
 10
3.821915925635189
 20
6.435450035143765
 10
3.80669839690673
 20
6.359228965617333
 10
3.809183094037337
 20
6.281287705256089
 10
3.828991305691323
 20
6.213492061560732
 10
3.863108568602818
 20
6.166163578378943
 10
3.906338989559328
 20
6.146507002402301
 10
3.952102934890214
 20
6.157515492373398
 10
3.993432107179326
 20
6.197512828782615
 10
4.024035043502321
 20
6.260409744474357
  0
LINE
  5
25E
330
2
100
AcDbEntity
  8
0
100
AcDbLine
 10
3.288172055134732
 20
3.862519047659737
 30
0.0
 11
3.824025984024955
 21
3.398455932525519
 31
0.0
  0
LINE
  5
25F
330
2
100
AcDbEntity
  8
0
100
AcDbLine
 10
2.904298534084061
 20
5.18692326506614
 30
0.0
 11
3.006024826228257
 21
5.098825711836063
 31
0.0
  0
LWPOLYLINE
  5
260
330
2
100
AcDbEntity
  8
0
100
AcDbPolyline
 90
       10
 70
   128
 43
0.0
 10
3.325385975964761
 20
6.719568983284214
 10
3.284414859858564
 20
6.714567101272315
 10
3.227040057389324
 20
6.680965604322858
 10
3.177011234435019
 20
6.619340365763475
 10
3.139226068786451
 20
6.535723775471208
 10
3.11738319284525
 20
6.438300757304328
 10
3.113620491161405
 20
6.336607718299966
 10
3.128307066414757
 20
6.240599401703815
 10
3.160004531626047
 20
6.159673383702751
 10
3.205610362571177
 20
6.101751283473986
  0
LINE
  5
261
330
2
100
AcDbEntity
  8
0
100
AcDbLine
 10
3.75876400738532
 20
5.977093681751147
 30
0.0
 11
3.631419497443213
 21
5.987407292427132
 31
0.0
  0
LINE
  5
262
330
2
100
AcDbEntity
  8
0
100
AcDbLine
 10
3.32904516715051
 20
6.011895555372466
 30
0.0
 11
3.307336654715452
 21
6.013653730243945
 31
0.0
  0
LINE
  5
263
330
2
100
AcDbEntity
  8
0
100
AcDbLine
 10
3.205610362571177
 20
6.101751283473986
 30
0.0
 11
3.307336654715452
 21
6.013653730243945
 31
0.0
  0
ELLIPSE
  5
264
330
2
100
AcDbEntity
  8
0
100
AcDbEllipse
 10
3.695941978598662
 20
6.927366548558198
 30
0.0
 11
0.0076337594789153
 21
0.1014462385578706
 31
0.0
210
0.0
220
0.0
230
1.0
 40
0.5778770211000001
 41
0.0081150858514489
 42
1.165455004481329
  0
ELLIPSE
  5
265
330
2
100
AcDbEntity
  8
0
100
AcDbEllipse
 10
4.299747234553824
 20
3.199275390672505
 30
0.0
 11
0.1804283500860222
 21
-0.1021917317187313
 31
0.0
210
0.0
220
0.0
230
1.0
 40
0.165794471
 41
0.6896272446617182
 42
2.173157108856921
  0
ARC
  5
266
330
2
100
AcDbEntity
  8
0
100
AcDbCircle
 10
4.103242348101622
 20
6.445746066526398
 30
0.0
 40
0.0970005633922382
100
AcDbArc
 50
51.27721473400137
 51
145.8445444761054
  0
LINE
  5
267
330
2
100
AcDbEntity
  8
0
100
AcDbLine
 10
4.211479765204066
 20
3.281825398172024
 30
0.0
 11
4.197638543594615
 21
3.28770700521511
 31
0.0
  0
LINE
  5
268
330
2
100
AcDbEntity
  8
0
100
AcDbLine
 10
3.804828883347018
 20
3.336871003426886
 30
0.0
 11
4.197638543594615
 21
3.28770700521511
 31
0.0
  0
LINE
  5
269
330
2
100
AcDbEntity
  8
0
100
AcDbLine
 10
4.950234218384625
 20
2.706015538892733
 30
0.0
 11
4.449725119509089
 21
3.139469133342581
 31
0.0
  0
LINE
  5
26A
330
2
100
AcDbEntity
  8
0
100
AcDbLine
 10
4.18068521385529
 20
6.506906188937723
 30
0.0
 11
4.163921338310873
 21
6.521424131024008
 31
0.0
  0
ELLIPSE
  5
26B
330
2
100
AcDbEntity
  8
0
100
AcDbEllipse
 10
4.800256337844271
 20
2.765821792407922
 30
0.0
 11
0.1804283500860224
 21
-0.10219173171872
 31
0.0
210
0.0
220
0.0
230
1.0
 40
0.1657944710000001
 41
0.0331063377241576
 42
0.689627244661631
  0
LINE
  5
26C
330
2
100
AcDbEntity
  8
0
100
AcDbLine
 10
4.076102852059692
 20
3.007483894783332
 30
0.0
 11
3.988939735568095
 21
2.74284441240076
 31
0.0
  0
LINE
  5
26D
330
2
100
AcDbEntity
  8
0
100
AcDbLine
 10
4.814494283416823
 20
2.540685223611068
 30
0.0
 11
5.266749910534197
 21
2.149020361527815
 31
0.0
  0
LINE
  5
26E
330
2
100
AcDbEntity
  8
0
100
AcDbLine
 10
5.73657530795398
 20
1.701308183411968
 30
0.0
 11
5.910721693251534
 21
2.230041080228334
 31
0.0
  0
ELLIPSE
  5
26F
330
2
100
AcDbEntity
  8
0
100
AcDbEllipse
 10
5.685712806369259
 20
1.745365704161289
 30
0.0
 11
0.0076337594789095
 21
0.1014462385578706
 31
0.0
210
0.0
220
0.0
230
1.0
 40
0.5778770211
 41
2.736327483698102
 42
4.30704765807106
  0
ARC
  5
270
330
2
100
AcDbEntity
  8
0
100
AcDbCircle
 10
5.326602894671948
 20
2.217081067288432
 30
0.0
 40
0.0906346477925076
100
AcDbArc
 50
228.671413037403
 51
314.9203592104971
  0
ARC
  5
271
330
2
100
AcDbEntity
  8
0
100
AcDbCircle
 10
4.890107726919347
 20
2.152666023370759
 30
0.0
 40
0.1439028664011228
100
AcDbArc
 50
227.1621517867999
 51
264.5187678972925
  0
ELLIPSE
  5
272
330
2
100
AcDbEntity
  8
0
100
AcDbEllipse
 10
5.586154074554316
 20
1.754264961160593
 30
0.0
 11
0.0076337594789153
 21
0.1014462385578706
 31
0.0
210
0.0
220
0.0
230
1.0
 40
0.5778770211000001
 41
2.736327483698255
 42
3.133477567738518
  0
LINE
  5
273
330
2
100
AcDbEntity
  8
0
100
AcDbLine
 10
4.428364617238664
 20
4.807807946712837
 30
0.0
 11
4.094982287732277
 21
4.540232848238168
 31
0.0
  0
ELLIPSE
  5
274
330
2
100
AcDbEntity
  8
0
100
AcDbEllipse
 10
3.882526533069214
 20
4.037952784434629
 30
0.0
 11
0.00764257670756
 21
0.1014399450396589
 31
0.0
210
0.0
220
0.0
230
0.9999999999999998
 40
0.5779408021
 41
1.16563626809024
 42
2.736356442463259
  0
ELLIPSE
  5
275
330
2
100
AcDbEntity
  8
0
100
AcDbEllipse
 10
4.223732186775747
 20
5.141001726727732
 30
0.0
 11
0.3349769652319759
 21
0.3827529468004785
 31
0.0
210
0.0
220
0.0
230
1.0
 40
0.7540258493
 41
4.482373612415839
 42
5.224320880421761
  0
ELLIPSE
  5
276
330
2
100
AcDbEntity
  8
0
100
AcDbEllipse
 10
4.300268441900115
 20
4.206472142431834
 30
0.0
 11
0.3359958186411311
 21
0.3818638837054986
 31
0.0
210
0.0
220
0.0
230
1.0
 40
0.7560319662000003
 41
1.342801356481428
 42
2.084748624487349
  0
LINE
  5
277
330
2
100
AcDbEntity
  8
0
100
AcDbLine
 10
3.88368192315611
 20
4.239945014859971
 30
0.0
 11
3.83165868198972
 21
4.081996161129129
 31
0.0
  0
LINE
  5
278
330
2
100
AcDbEntity
  8
0
100
AcDbLine
 10
4.97888370275239
 20
2.970898537211803
 30
0.0
 11
5.884708298230409
 21
2.186431426153274
 31
0.0
  0
LINE
  5
279
330
2
100
AcDbEntity
  8
0
100
AcDbLine
 10
3.852390803452613
 20
3.946470005186248
 30
0.0
 11
4.652733556129873
 21
3.253352849623142
 31
0.0
  0
LINE
  5
27A
330
2
100
AcDbEntity
  8
0
100
AcDbLine
 10
5.021450443840822
 20
6.268166373844893
 30
0.0
 11
4.639431637034742
 21
5.108297903623865
 31
0.0
  0
ELLIPSE
  5
27B
330
2
100
AcDbEntity
  8
0
100
AcDbEllipse
 10
5.072313128146507
 20
6.224108767380918
 30
0.0
 11
0.0076337594789153
 21
0.1014462385578706
 31
0.0
210
0.0
220
0.0
230
1.0
 40
0.5778770211000001
 41
5.877920137287912
 42
7.44864031166087
  0
LINE
  5
27C
330
2
100
AcDbEntity
  8
0
100
AcDbLine
 10
5.436642975066638
 20
6.02617214022155
 30
0.0
 11
5.102442137668259
 21
6.315598555372773
 31
0.0
  0
LINE
  5
27D
330
2
100
AcDbEntity
  8
0
100
AcDbLine
 10
4.985210072246654
 20
3.031998119915779
 30
0.0
 11
4.710035534277582
 21
3.270306260265475
 31
0.0
  0
LINE
  5
27E
330
2
100
AcDbEntity
  8
0
100
AcDbLine
 10
4.814686895849385
 20
2.903256154745892
 30
0.0
 11
4.985210072246654
 21
3.031998119915779
 31
0.0
  0
LINE
  5
27F
330
2
100
AcDbEntity
  8
0
100
AcDbLine
 10
4.53951235788031
 20
3.141564295105736
 30
0.0
 11
4.814686895849385
 21
2.903256154745892
 31
0.0
  0
ELLIPSE
  5
280
330
2
100
AcDbEntity
  8
0
100
AcDbEllipse
 10
4.923982219909415
 20
2.937169711638691
 30
0.0
 11
0.0600034594187845
 21
0.0957345990447751
 31
0.0
210
0.0
220
0.0
230
1.0
 40
0.2945542466
 41
5.171606599400139
 42
6.237537654344468
  0
ELLIPSE
  5
281
330
2
100
AcDbEntity
  8
0
100
AcDbEllipse
 10
4.914552218838672
 20
2.930050223099721
 30
0.0
 11
0.1028926942808171
 21
0.022054774067539
 31
0.0
210
0.0
220
0.0
230
1.0
 40
0.2601647544
 41
3.335243632973681
 42
4.401174687917908
  0
ELLIPSE
  5
282
330
2
100
AcDbEntity
  8
0
100
AcDbEllipse
 10
4.92174494852296
 20
2.946008752394729
 30
0.0
 11
-0.0269786361072802
 21
0.0503622589044538
 31
0.0
210
0.0
220
0.0
230
0.9999999999999998
 40
0.8730488701
 41
2.500405314970203
 42
4.062474995505384
  0
LINE
  5
283
330
2
100
AcDbEntity
  8
0
100
AcDbLine
 10
4.97307546649488
 20
2.934285623808528
 30
0.0
 11
4.975856314673295
 21
2.963760608698412
 31
0.0
  0
LINE
  5
284
330
2
100
AcDbEntity
  8
0
100
AcDbLine
 10
4.888506786703949
 20
2.897813470368481
 30
0.0
 11
4.917065090481198
 21
2.891560447316606
 31
0.0
  0
LINE
  5
285
330
2
100
AcDbEntity
  8
0
100
AcDbLine
 10
6.312469722955117
 20
5.859997700608411
 30
0.0
 11
6.183784107327829
 21
5.46928997621525
 31
0.0
  0
LWPOLYLINE
  5
286
330
2
100
AcDbEntity
  8
0
100
AcDbPolyline
 90
        9
 70
   128
 43
0.0
 10
6.312469722955117
 20
5.859997700608411
 10
6.375222125839804
 20
5.840033374905918
 10
6.418625805532646
 20
5.7933676959216
 10
6.436072344062534
 20
5.727104889373279
 10
6.424906034305309
 20
5.651333012766165
 10
6.386826896384255
 20
5.577587617322691
 10
6.327632064558051
 20
5.517095861588136
 10
6.256332301823734
 20
5.479066526273387
 10
6.183784107327829
 20
5.46928997621525
  0
ARC
  5
287
330
2
100
AcDbEntity
  8
0
100
AcDbCircle
 10
6.868465982775496
 20
6.346677918229202
 30
0.0
 40
0.0680289865148696
100
AcDbArc
 50
333.6487475794982
 51
82.98636861719677
  0
LINE
  5
288
330
2
100
AcDbEntity
  8
0
100
AcDbLine
 10
6.929426059211725
 20
6.316481691868967
 30
0.0
 11
6.477376925547878
 21
4.943989913022778
 31
0.0
  0
ARC
  5
289
330
2
100
AcDbEntity
  8
0
100
AcDbCircle
 10
6.355343343113582
 20
4.984605602501653
 30
0.0
 40
0.1286150437324365
100
AcDbArc
 50
287.7679507352946
 51
341.5913261540984
  0
LINE
  5
28A
330
2
100
AcDbEntity
  8
0
100
AcDbLine
 10
6.394591853146686
 20
4.862125465604583
 30
0.0
 11
5.715362270243937
 21
4.666048774334888
 31
0.0
  0
ARC
  5
28B
330
2
100
AcDbEntity
  8
0
100
AcDbCircle
 10
5.666391127417783
 20
4.830358302031595
 30
0.0
 40
0.1714520157930714
100
AcDbArc
 50
266.2240578527004
 51
286.5962675312989
  0
LINE
  5
28C
330
2
100
AcDbEntity
  8
0
100
AcDbLine
 10
5.655100167100237
 20
4.659278472894004
 30
0.0
 11
5.554683457459931
 21
4.666839498374805
 31
0.0
  0
LINE
  5
28D
330
2
100
AcDbEntity
  8
0
100
AcDbLine
 10
6.876772694766687
 20
6.414197852628031
 30
0.0
 11
6.14826747078175
 21
6.469050747457373
 31
0.0
  0
LWPOLYLINE
  5
28E
330
2
100
AcDbEntity
  8
0
100
AcDbPolyline
 90
        6
 70
   128
 43
0.0
 10
6.116236995030317
 20
6.46049283182842
 10
6.117719306937415
 20
6.46310483762943
 10
6.122072471087161
 20
6.466278276964273
 10
6.128801298371589
 20
6.468373330073516
 10
6.137646126808745
 20
6.469309514471068
 10
6.14826747078175
 20
6.469050747457373
  0
LWPOLYLINE
  5
28F
330
2
100
AcDbEntity
  8
0
100
AcDbPolyline
 90
        9
 70
   128
 43
0.0
 10
5.554683457459931
 20
4.666839498374805
 10
5.544062113486929
 20
4.667098234606081
 10
5.53521728504977
 20
4.666162080980795
 10
5.528488457755191
 20
4.664067017617514
 10
5.524135293615598
 20
4.660893691097218
 10
5.522323610469948
 20
4.656763719171246
 10
5.523124326796185
 20
4.651836258116922
 10
5.526505856169801
 20
4.646300224566346
 10
5.532338695713036
 20
4.640368676803046
  0
LINE
  5
290
330
2
100
AcDbEntity
  8
0
100
AcDbLine
 10
8.370504340265268
 20
2.182445128470972
 30
0.0
 11
8.365172558882008
 21
2.187062586590885
 31
0.0
  0
LINE
  5
291
330
2
100
AcDbEntity
  8
0
100
AcDbLine
 10
5.669422904169268
 20
4.521650269805424
 30
0.0
 11
5.532338695713036
 21
4.640368676803046
 31
0.0
  0
LINE
  5
292
330
2
100
AcDbEntity
  8
0
100
AcDbLine
 10
5.080880351951904
 20
6.933577997303974
 30
0.0
 11
4.97915396506988
 21
7.021675632586491
 31
0.0
  0
LINE
  5
293
330
2
100
AcDbEntity
  8
0
100
AcDbLine
 10
5.370626792607736
 20
6.911761581368287
 30
0.0
 11
5.080880351951904
 21
6.933577997303974
 31
0.0
  0
LINE
  5
294
330
2
100
AcDbEntity
  8
0
100
AcDbLine
 10
5.26890040572579
 20
6.999859216640645
 30
0.0
 11
5.370626792607736
 21
6.911761581368287
 31
0.0
  0
LINE
  5
295
330
2
100
AcDbEntity
  8
0
100
AcDbLine
 10
4.97915396506988
 20
7.021675632586491
 30
0.0
 11
5.26890040572579
 21
6.999859216640645
 31
0.0
  0
LINE
  5
296
330
2
100
AcDbEntity
  8
0
100
AcDbLine
 10
5.352017544890581
 20
1.05727580057676
 30
0.0
 11
5.552463700902835
 21
1.665860085485971
 31
0.0
  0
LINE
  5
297
330
2
100
AcDbEntity
  8
0
100
AcDbLine
 10
4.064267036310647
 20
2.971551227524636
 30
0.0
 11
4.013767070358332
 21
3.015285480932983
 31
0.0
  0
LINE
  5
298
330
2
100
AcDbEntity
  8
0
100
AcDbLine
 10
3.106712567247442
 20
6.661684644006144
 30
0.0
 11
2.161246706089209
 21
3.791106889513813
 31
0.0
  0
ARC
  5
299
330
2
100
AcDbEntity
  8
0
100
AcDbCircle
 10
6.357703042613903
 20
6.999500604543548
 30
0.0
 40
0.0476200247501412
100
AcDbArc
 50
333.6488063391012
 51
82.98770571809674
  0
ARC
  5
29A
330
2
100
AcDbEntity
  8
0
100
AcDbCircle
 10
6.362221661347792
 20
7.045360110945003
 30
0.0
 40
0.0019102339975097
100
AcDbArc
 50
47.32038030139931
 51
84.84797494359753
  0
ARC
  5
29B
330
2
100
AcDbEntity
  8
0
100
AcDbCircle
 10
5.524344088058569
 20
6.727326325980411
 30
0.0
 40
0.5380545480238059
100
AcDbArc
 50
68.87912926580006
 51
84.5949662208975
  0
ARC
  5
29C
330
2
100
AcDbEntity
  8
0
100
AcDbCircle
 10
6.286690192921689
 20
7.619663518903902
 30
0.0
 40
0.5656176650334205
100
AcDbArc
 50
248.8786432781039
 51
264.595284595396
  0
ARC
  5
29D
330
2
100
AcDbEntity
  8
0
100
AcDbCircle
 10
5.266596240064993
 20
1.085704525995383
 30
0.0
 40
0.0900277276540868
100
AcDbArc
 50
287.7674011092011
 51
341.5922464559994
  0
LINE
  5
29E
330
2
100
AcDbEntity
  8
0
100
AcDbLine
 10
2.106218445021119
 20
3.760729983684676
 30
0.0
 11
5.294068519308978
 21
0.9999708358852046
 31
0.0
  0
ARC
  5
29F
330
2
100
AcDbEntity
  8
0
100
AcDbCircle
 10
2.130740085870294
 20
3.801258983433397
 30
0.0
 40
0.0321514990029215
100
AcDbArc
 50
287.7671483982983
 51
341.5934186932954
  0
LINE
  5
2A0
330
2
100
AcDbEntity
  8
0
100
AcDbLine
 10
3.231481279872772
 20
2.342700821140063
 30
0.0
 11
3.055285681138451
 21
2.291837532956181
 31
0.0
  0
LWPOLYLINE
  5
2A1
330
2
100
AcDbEntity
  8
0
100
AcDbPolyline
 90
        9
 70
   128
 43
0.0
 10
3.055285681138451
 20
2.291837532956181
 10
2.995603324655622
 20
2.265667342329461
 10
2.960492148475724
 20
2.230068730595046
 10
2.955299896497648
 20
2.190461957650851
 10
2.980817770193368
 20
2.152876998715213
 10
3.033157891810645
 20
2.123034955814913
 10
3.104354960879105
 20
2.105479880395406
 10
3.183569153157353
 20
2.102884159796063
 10
3.258738431220485
 20
2.11564228291948
  0
LINE
  5
2A2
330
2
100
AcDbEntity
  8
0
100
AcDbLine
 10
3.258738431220485
 20
2.11564228291948
 30
0.0
 11
3.434934029954884
 21
2.166505571093178
 31
0.0
  0
LWPOLYLINE
  5
2A3
330
2
100
AcDbEntity
  8
0
100
AcDbPolyline
 90
        9
 70
   128
 43
0.0
 10
3.434934029954884
 20
2.166505571093178
 10
3.494617699196167
 20
2.192676140691327
 10
3.52972756261753
 20
2.228274373454272
 10
3.534919814585536
 20
2.267881146408693
 10
3.509403253658341
 20
2.30546648429538
 10
3.457061819272458
 20
2.335308148234435
 10
3.385864750214151
 20
2.352863223653948
 10
3.306651870694436
 20
2.355459323214494
 10
3.231481279872772
 20
2.342700821140063
  0
LINE
  5
2A4
330
2
100
AcDbEntity
  8
0
100
AcDbLine
 10
5.247242482516455
 20
0.9864533234143857
 30
0.0
 11
5.294068519308978
 21
0.9999708358852046
 31
0.0
  0
ARC
  5
2A5
330
2
100
AcDbEntity
  8
0
100
AcDbCircle
 10
5.145219270741011
 20
1.358579786530473
 30
0.0
 40
0.3858585755087577
100
AcDbArc
 50
262.2008268918018
 51
285.331643166497
  0
LINE
  5
2A6
330
2
100
AcDbEntity
  8
0
100
AcDbLine
 10
4.074494120112905
 20
1.11272561667249
 30
0.0
 11
5.092857770472516
 21
0.9762904803947709
 31
0.0
  0
ARC
  5
2A7
330
2
100
AcDbEntity
  8
0
100
AcDbCircle
 10
4.096107596344769
 20
1.353759141287878
 30
0.0
 40
0.2420006246794247
100
AcDbArc
 50
233.1444269821993
 51
264.8759916605935
  0
LINE
  5
2A8
330
2
100
AcDbEntity
  8
0
100
AcDbLine
 10
3.950955628509644
 20
1.160122345777062
 30
0.0
 11
1.746385201006966
 21
3.069336340421436
 31
0.0
  0
ARC
  5
2A9
330
2
100
AcDbEntity
  8
0
100
AcDbCircle
 10
1.785128057221794
 20
3.122833398925649
 30
0.0
 40
0.0660525864470015
100
AcDbArc
 50
182.2852148176459
 51
234.0877427972317
  0
LINE
  5
2AA
330
2
100
AcDbEntity
  8
0
100
AcDbLine
 10
2.140551094373235
 20
3.770640965860672
 30
0.0
 11
2.093725057570478
 21
3.757123453379645
 31
0.0
  0
ARC
  5
2AB
330
2
100
AcDbEntity
  8
0
100
AcDbCircle
 10
2.124065344136866
 20
3.606937484458677
 30
0.0
 40
0.1532199668791839
100
AcDbArc
 50
101.421071468093
 51
144.7560980463012
  0
LWPOLYLINE
  5
2AC
330
2
100
AcDbEntity
  8
0
100
AcDbPolyline
 90
        6
 70
   128
 43
0.0
 10
5.060064564954326
 20
7.29908580390336
 10
5.044891055952447
 20
7.299455416924128
 10
5.032255546156088
 20
7.298118092692963
 10
5.02264411509698
 20
7.295125320408847
 10
5.016424920569675
 20
7.290591856298155
 10
5.014307840598595
 20
7.28686055840941
  0
LINE
  5
2AD
330
2
100
AcDbEntity
  8
0
100
AcDbLine
 10
1.99893014110372
 20
3.69535433360175
 30
0.0
 11
1.726060903888705
 21
3.186172369712938
 31
0.0
  0
ARC
  5
2AE
330
2
100
AcDbEntity
  8
0
100
AcDbCircle
 10
4.588129782868401
 20
7.088184386001359
 30
0.0
 40
0.2484175153379256
100
AcDbArc
 50
53.53729464470083
 51
85.22747148609594
  0
LWPOLYLINE
  5
2AF
330
2
100
AcDbEntity
  8
0
100
AcDbPolyline
 90
        3
 70
   128
 43
0.0
 10
3.834189563523135
 20
7.334054980070102
 10
3.833736387395894
 20
7.333410324487758
 10
3.833351301194023
 20
7.332552091624241
  0
ARC
  5
2B0
330
2
100
AcDbEntity
  8
0
100
AcDbCircle
 10
4.003300567023176
 20
6.983310853986163
 30
0.0
 40
0.397538251554816
100
AcDbArc
 50
82.44019616819752
 51
109.3018013701014
  0
ARC
  5
2B1
330
2
100
AcDbEntity
  8
0
100
AcDbCircle
 10
3.55312717060948
 20
6.542340511699196
 30
0.0
 40
0.4620920038392986
100
AcDbArc
 50
125.0532852855038
 51
165.0326126333984
  0
ARC
  5
2B2
330
2
100
AcDbEntity
  8
0
100
AcDbCircle
 10
1.774288589375214
 20
3.159395863938812
 30
0.0
 40
0.0551624048544784
100
AcDbArc
 50
150.9605160887989
 51
179.534994665199
  0
LINE
  5
2B3
330
2
100
AcDbEntity
  8
0
100
AcDbLine
 10
3.833351301194023
 20
7.332552091624241
 30
0.0
 11
3.729840581074113
 21
7.209929772033858
 31
0.0
  0
ARC
  5
2B4
330
2
100
AcDbEntity
  8
0
100
AcDbCircle
 10
3.698122601214433
 20
7.256535836038809
 30
0.0
 40
0.0563751314748109
100
AcDbArc
 50
257.7914719907966
 51
304.2374325905977
  0
ARC
  5
2B5
330
2
100
AcDbEntity
  8
0
100
AcDbCircle
 10
3.497284594155957
 20
7.15008567670565
 30
0.0
 40
0.0924204699646475
100
AcDbArc
 50
305.0536892742021
 51
345.0319929205975
  0
LINE
  5
2B6
330
2
100
AcDbEntity
  8
0
100
AcDbLine
 10
3.686200936689463
 20
7.201435660323652
 30
0.0
 11
3.666965110583006
 21
7.202884016100621
 31
0.0
  0
ARC
  5
2B7
330
2
100
AcDbEntity
  8
0
100
AcDbCircle
 10
3.668348132385045
 20
7.124739299174035
 30
0.0
 40
0.0781569544753722
100
AcDbArc
 50
91.01392702580204
 51
163.0906939452
  0
LINE
  5
2B8
330
2
100
AcDbEntity
  8
0
100
AcDbLine
 10
3.593570187916554
 20
7.147471843115779
 30
0.0
 11
3.586569255643272
 21
7.126215350128209
 31
0.0
  0
ARC
  5
2B9
330
2
100
AcDbEntity
  8
0
100
AcDbCircle
 10
9.270717210895819
 20
2.453716474799879
 30
0.0
 40
0.1160479743774455
100
AcDbArc
 50
286.6490829758921
 51
308.127494421698
  0
LINE
  5
2BA
330
2
100
AcDbEntity
  8
0
100
AcDbLine
 10
8.624736442455194
 20
2.146456832085713
 30
0.0
 11
9.303966025357944
 21
2.342533523345248
 31
0.0
  0
ARC
  5
2BB
330
2
100
AcDbEntity
  8
0
100
AcDbCircle
 10
8.575765299629042
 20
2.310766359772302
 30
0.0
 40
0.1714520157933639
100
AcDbArc
 50
266.2240578527004
 51
286.5962675312989
  0
LINE
  5
2BC
330
2
100
AcDbEntity
  8
0
100
AcDbLine
 10
8.464057629671188
 20
2.14724755611547
 30
0.0
 11
8.564474339311493
 21
2.139686530644822
 31
0.0
  0
ARC
  5
2BD
330
2
100
AcDbEntity
  8
0
100
AcDbCircle
 10
8.479285417270169
 20
2.329650850472363
 30
0.0
 40
0.183037830263431
100
AcDbArc
 50
233.5365937101961
 51
265.2277757242018
  0
ARC
  5
2BE
330
2
100
AcDbEntity
  8
0
100
AcDbCircle
 10
7.625214953334
 20
7.819934133755515
 30
0.0
 40
0.0249890888997892
100
AcDbArc
 50
99.61260672580444
 51
162.1737659591987
  0
LINE
  5
2BF
330
2
100
AcDbEntity
  8
0
100
AcDbLine
 10
7.800297768037138
 20
7.864711592636571
 30
0.0
 11
7.621042133080853
 21
7.844572358836962
 31
0.0
  0
LINE
  5
2C0
330
2
100
AcDbEntity
  8
0
100
AcDbLine
 10
9.058623779674093
 20
7.769965234459133
 30
0.0
 11
7.800297768037138
 21
7.864711592636571
 31
0.0
  0
ARC
  5
2C1
330
2
100
AcDbEntity
  8
0
100
AcDbCircle
 10
9.056964224286728
 20
7.756462115781345
 30
0.0
 40
0.0136047174873654
100
AcDbArc
 50
333.6434646951036
 51
82.99339176569528
  0
LINE
  5
2C2
330
2
100
AcDbEntity
  8
0
100
AcDbLine
 10
8.990814637408236
 20
7.512567123984625
 30
0.0
 11
9.069154715118852
 21
7.750422225781806
 31
0.0
  0
LINE
  5
2C3
330
2
100
AcDbEntity
  8
0
100
AcDbLine
 10
7.881499655675791
 20
7.596093040263202
 30
0.0
 11
8.990814637408236
 21
7.512567123984625
 31
0.0
  0
LINE
  5
2C4
330
2
100
AcDbEntity
  8
0
100
AcDbLine
 10
6.540966184638729
 20
7.106393926263481
 30
0.0
 11
6.429480309255516
 21
6.767907467963208
 31
0.0
  0
ARC
  5
2C5
330
2
100
AcDbEntity
  8
0
100
AcDbCircle
 10
6.563974472931864
 20
7.09939987714229
 30
0.0
 40
0.0240478284518676
100
AcDbArc
 50
91.01248601779753
 51
163.0918007758038
  0
LINE
  5
2C6
330
2
100
AcDbEntity
  8
0
100
AcDbLine
 10
6.563549540714277
 20
7.123443950966406
 30
0.0
 11
6.675308469532079
 21
7.115028891062647
 31
0.0
  0
LINE
  5
2C7
330
2
100
AcDbEntity
  8
0
100
AcDbLine
 10
6.675308469532079
 20
7.115028891062647
 30
0.0
 11
7.441903333475245
 21
7.343250066692428
 31
0.0
  0
LINE
  5
2C8
330
2
100
AcDbEntity
  8
0
100
AcDbLine
 10
7.601425607488316
 20
7.827584074146778
 30
0.0
 11
7.441903333475245
 21
7.343250066692428
 31
0.0
  0
LINE
  5
2C9
330
2
100
AcDbEntity
  8
0
100
AcDbLine
 10
7.615985823025685
 20
6.59147488416053
 30
0.0
 11
7.88975076180519
 21
7.422667906720526
 31
0.0
  0
LINE
  5
2CA
330
2
100
AcDbEntity
  8
0
100
AcDbLine
 10
8.999065743537634
 20
7.339141990441908
 30
0.0
 11
8.930191955460959
 21
7.130031848032921
 31
0.0
  0
LINE
  5
2CB
330
2
100
AcDbEntity
  8
0
100
AcDbLine
 10
8.72323058720624
 20
7.145615040235521
 30
0.0
 11
8.518338123744955
 21
6.523531863165644
 31
0.0
  0
LINE
  5
2CC
330
2
100
AcDbEntity
  8
0
100
AcDbLine
 10
8.518338123744955
 20
6.523531863165644
 30
0.0
 11
7.615985823025685
 21
6.59147488416053
 31
0.0
  0
ARC
  5
2CD
330
2
100
AcDbEntity
  8
0
100
AcDbCircle
 10
9.095676293897126
 20
6.883475782679868
 30
0.0
 40
0.05531472461562
100
AcDbArc
 50
226.9690139197048
 51
295.3354855813932
  0
LINE
  5
2CE
330
2
100
AcDbEntity
  8
0
100
AcDbLine
 10
8.961289887438848
 20
6.926734241438223
 30
0.0
 11
9.057929869709251
 21
6.843041561774197
 31
0.0
  0
ARC
  5
2CF
330
2
100
AcDbEntity
  8
0
100
AcDbCircle
 10
9.120040285243419
 20
7.055045187257435
 30
0.0
 40
0.2041210121915645
100
AcDbArc
 50
158.4468754029978
 51
218.9470807937978
  0
ARC
  5
2D0
330
2
100
AcDbEntity
  8
0
100
AcDbCircle
 10
8.924994939636913
 20
7.364587545955746
 30
0.0
 40
0.0783196034516719
100
AcDbArc
 50
341.0408574851015
 51
24.40699054409735
  0
ARC
  5
2D1
330
2
100
AcDbEntity
  8
0
100
AcDbCircle
 10
9.138934936607292
 20
7.461675091010862
 30
0.0
 40
0.1566193540249996
100
AcDbArc
 50
161.0380058708973
 51
204.4098498788006
  0
LINE
  5
2D2
330
2
100
AcDbEntity
  8
0
100
AcDbLine
 10
8.518338123744955
 20
6.523531863165644
 30
0.0
 11
8.588603893021153
 21
6.462679921952499
 31
0.0
  0
LINE
  5
2D3
330
2
100
AcDbEntity
  8
0
100
AcDbLine
 10
6.5355440743688
 20
6.617265389065468
 30
0.0
 11
6.439846755743551
 21
6.700141698067898
 31
0.0
  0
LINE
  5
2D4
330
2
100
AcDbEntity
  8
0
100
AcDbLine
 10
6.439846755743551
 20
6.700141698067898
 30
0.0
 11
7.59055427367655
 21
6.61349925196004
 31
0.0
  0
LINE
  5
2D5
330
2
100
AcDbEntity
  8
0
100
AcDbLine
 10
7.59055427367655
 20
6.61349925196004
 30
0.0
 11
7.615985823025685
 21
6.59147488416053
 31
0.0
  0
ARC
  5
2D6
330
2
100
AcDbEntity
  8
0
100
AcDbCircle
 10
8.553976444490075
 20
6.42883781467141
 30
0.0
 40
0.0484184718619263
100
AcDbArc
 50
6.368136345499464
 51
44.34285004420482
  0
ARC
  5
2D7
330
2
100
AcDbEntity
  8
0
100
AcDbCircle
 10
8.913073785076432
 20
7.070627697995077
 30
0.0
 40
0.2041164894717008
100
AcDbArc
 50
158.4461682942994
 51
218.9478017275995
  0
LINE
  5
2D8
330
2
100
AcDbEntity
  8
0
100
AcDbLine
 10
8.850968501464688
 20
6.858624918061406
 30
0.0
 11
8.754328519184211
 21
6.942317597725432
 31
0.0
  0
ARC
  5
2D9
330
2
100
AcDbEntity
  8
0
100
AcDbCircle
 10
8.889857775665404
 20
6.900901493966327
 30
0.0
 40
0.0574428804791051
100
AcDbArc
 50
227.3897431828992
 51
264.8561861738973
  0
ARC
  5
2DA
330
2
100
AcDbEntity
  8
0
100
AcDbCircle
 10
8.029619954874846
 20
7.545201007299591
 30
0.0
 40
0.1566193540250345
100
AcDbArc
 50
161.0380058708973
 51
204.4098498788006
  0
ARC
  5
2DB
330
2
100
AcDbEntity
  8
0
100
AcDbCircle
 10
6.500988353345449
 20
6.583470429983462
 30
0.0
 40
0.0483342230218211
100
AcDbArc
 50
6.491114374099542
 51
44.36230848150003
  0
ARC
  5
2DC
330
2
100
AcDbEntity
  8
0
100
AcDbCircle
 10
7.8156863770418
 20
7.448113767637238
 30
0.0
 40
0.0783136318163592
100
AcDbArc
 50
341.0391203479005
 51
24.40872768130109
  0
ELLIPSE
  5
2DD
330
2
100
AcDbEntity
  8
0
100
AcDbEllipse
 10
9.155080259769638
 20
8.381798441246626
 30
0.0
 11
0.2456446741225949
 21
0.8761528817654284
 31
0.0
210
0.0
220
0.0
230
1.0
 40
0.033449368
 41
2.272263534317461
 42
2.34174625460599
  0
SPLINE
  5
2DE
330
2
100
AcDbEntity
  8
0
100
AcDbSpline
210
0.0
220
0.0
230
1.0
 70
     8
 71
     3
 72
    11
 73
     7
 74
     0
 42
0.000000001
 43
0.0000000001
 40
0.0
 40
0.0
 40
0.0
 40
0.0
 40
0.2517137385180087
 40
0.5017633876615959
 40
0.7884835531649208
 40
1.0
 40
1.0
 40
1.0
 40
1.0
 10
8.95406841201386
 20
7.870734407058015
 30
0.0
 10
8.957417643867128
 20
7.868313423724141
 30
0.0
 10
8.964093965670967
 20
7.863487462271856
 30
0.0
 10
8.971797707955762
 20
7.850555834811832
 30
0.0
 10
8.976080531278858
 20
7.836328607909588
 30
0.0
 10
8.974738730671075
 20
7.826733024087402
 30
0.0
 10
8.974169095903397
 20
7.822659409774256
 30
0.0
  0
ARC
  5
2DF
330
2
100
AcDbEntity
  8
0
100
AcDbCircle
 10
6.492758237669244
 20
6.742911601539033
 30
0.0
 40
0.0680359431668227
100
AcDbArc
 50
158.4451304928019
 51
218.9496259357014
  0
LINE
  5
2E0
330
2
100
AcDbEntity
  8
0
100
AcDbLine
 10
8.721883733665796
 20
7.938526623025508
 30
0.0
 11
8.267256345555905
 21
7.972757868147747
 31
0.0
  0
LINE
  5
2E1
330
2
100
AcDbEntity
  8
0
100
AcDbLine
 10
8.721883733665796
 20
7.938526623025508
 30
0.0
 11
8.947803936327174
 21
7.873309303814796
 31
0.0
  0
ARC
  5
2E2
330
2
100
AcDbEntity
  8
0
100
AcDbCircle
 10
8.93934704569561
 20
7.843826622643446
 30
0.0
 40
0.0306716072018818
100
AcDbArc
 50
61.31673829750058
 51
73.99485028310414
  0
ELLIPSE
  5
2E3
330
2
100
AcDbEntity
  8
0
100
AcDbEllipse
 10
7.643356734403549
 20
7.84767158801161
 30
0.0
 11
0.0472057314108762
 21
-0.0192368071866251
 31
0.0
210
0.0
220
0.0
230
0.9999999999999998
 40
0.2713924154000001
 41
1.896947681047104
 42
2.246013531439856
  0
LINE
  5
2E4
330
2
100
AcDbEntity
  8
0
100
AcDbLine
 10
7.681259830436215
 20
7.851337695746196
 30
0.0
 11
7.633177940048237
 21
7.865971165907629
 31
0.0
  0
LINE
  5
2E5
330
2
100
AcDbEntity
  8
0
100
AcDbLine
 10
7.273307125538881
 20
7.912323101885775
 30
0.0
 11
7.472076708410216
 21
7.740183593625665
 31
0.0
  0
ELLIPSE
  5
2E6
330
2
100
AcDbEntity
  8
0
100
AcDbEllipse
 10
7.313418211917469
 20
7.905315524601902
 30
0.0
 11
0.0472057314101881
 21
-0.0192368071863418
 31
0.0
210
0.0
220
0.0
230
1.0
 40
0.2713924153999999
 41
2.246013531444893
 42
3.816809858235645
  0
LINE
  5
2E7
330
2
100
AcDbEntity
  8
0
100
AcDbLine
 10
7.287986766970222
 20
7.927340014635767
 30
0.0
 11
7.617924571308765
 21
7.86969594106077
 31
0.0
  0
LINE
  5
2E8
330
2
100
AcDbEntity
  8
0
100
AcDbLine
 10
6.611675799831711
 20
7.140553551860473
 30
0.0
 11
6.605012246076361
 21
7.120321914373326
 31
0.0
  0
LINE
  5
2E9
330
2
100
AcDbEntity
  8
0
100
AcDbLine
 10
6.609558323036233
 20
7.140713041322207
 30
0.0
 11
6.611675799831711
 21
7.140553551860473
 31
0.0
  0
LWPOLYLINE
  5
2EA
330
2
100
AcDbEntity
  8
0
100
AcDbPolyline
 90
        9
 70
   128
 43
0.0
 10
6.60472212681225
 20
7.151594838342112
 10
6.604056559085639
 20
7.149664779525576
 10
6.603771690845271
 20
7.147743700990904
 10
6.603879336906913
 20
7.145917060691506
 10
6.604374246246988
 20
7.144266210568803
 10
6.605235414740302
 20
7.142865001332791
 10
6.606423459683757
 20
7.141776070833214
 10
6.607885870810183
 20
7.14104776528027
 10
6.609558323036233
 20
7.140713041322207
  0
LINE
  5
2EB
330
2
100
AcDbEntity
  8
0
100
AcDbLine
 10
6.83136040746741
 20
7.66182353904302
 30
0.0
 11
6.60472212681225
 21
7.151594838342112
 31
0.0
  0
ARC
  5
2EC
330
2
100
AcDbEntity
  8
0
100
AcDbCircle
 10
6.864400626178463
 20
7.64841208866272
 30
0.0
 40
0.035658421917733
100
AcDbArc
 50
90.72684154310181
 51
157.9071328554996
  0
LINE
  5
2ED
330
2
100
AcDbEntity
  8
0
100
AcDbLine
 10
7.015981279667026
 20
7.672620460320093
 30
0.0
 11
6.863948283485274
 21
7.684067641386929
 31
0.0
  0
LINE
  5
2EE
330
2
100
AcDbEntity
  8
0
100
AcDbLine
 10
7.577797890002899
 20
7.755844887927473
 30
0.0
 11
7.015981279667026
 21
7.672620460320093
 31
0.0
  0
ARC
  5
2EF
330
2
100
AcDbEntity
  8
0
100
AcDbCircle
 10
8.163149754026463
 20
8.423707134974447
 30
0.0
 40
0.46281035387399
100
AcDbArc
 50
248.3883789471951
 51
282.9996079636003
  0
SPLINE
  5
2F0
330
2
100
AcDbEntity
  8
0
100
AcDbSpline
210
0.0
220
0.0
230
1.0
 70
     8
 71
     3
 72
     9
 73
     5
 74
     0
 42
0.000000001
 43
0.0000000001
 40
0.0
 40
0.0
 40
0.0
 40
0.0
 40
0.3637854744933605
 40
1.0
 40
1.0
 40
1.0
 40
1.0
 10
8.024757783323885
 20
5.720874680597815
 30
0.0
 10
8.023178844212139
 20
5.729395808926508
 30
0.0
 10
8.018838541417045
 20
5.752819306911235
 30
0.0
 10
8.013570080633279
 20
5.775562249317135
 30
0.0
 10
8.010218209355683
 20
5.790031639628493
 30
0.0
  0
SPLINE
  5
2F1
330
2
100
AcDbEntity
  8
0
100
AcDbSpline
210
0.0
220
0.0
230
1.0
 70
     8
 71
     3
 72
     9
 73
     5
 74
     0
 42
0.000000001
 43
0.0000000001
 40
0.0
 40
0.0
 40
0.0
 40
0.0
 40
0.4931078804754943
 40
1.0
 40
1.0
 40
1.0
 40
1.0
 10
8.306225979289877
 20
5.6996815643655
 30
0.0
 10
8.298176889942931
 20
5.685634317349794
 30
0.0
 10
8.28185370861569
 20
5.657147149385311
 30
0.0
 10
8.272795962016164
 20
5.625241176984991
 30
0.0
 10
8.268204661644267
 20
5.609068291009458
 30
0.0
  0
SPLINE
  5
2F2
330
2
100
AcDbEntity
  8
0
100
AcDbSpline
210
0.0
220
0.0
230
1.0
 70
     8
 71
     3
 72
     9
 73
     5
 74
     0
 42
0.000000001
 43
0.0000000001
 40
0.0
 40
0.0
 40
0.0
 40
0.0
 40
0.3964137364449641
 40
1.0
 40
1.0
 40
1.0
 40
1.0
 10
8.268204661644267
 20
5.609068291009458
 30
0.0
 10
8.261768344698877
 20
5.601552744118555
 30
0.0
 10
8.245531982651801
 20
5.582593898347229
 30
0.0
 10
8.227800006593964
 20
5.566304806440824
 30
0.0
 10
8.217097229419724
 20
5.556472934320344
 30
0.0
  0
LINE
  5
2F3
330
2
100
AcDbEntity
  8
0
100
AcDbLine
 10
8.023432775294429
 20
5.571054726624105
 30
0.0
 11
8.033263193910963
 21
5.626758445707486
 31
0.0
  0
SPLINE
  5
2F4
330
2
100
AcDbEntity
  8
0
100
AcDbSpline
210
0.0
220
0.0
230
1.0
 70
     8
 71
     3
 72
     9
 73
     5
 74
     0
 42
0.000000001
 43
0.0000000001
 40
0.0
 40
0.0
 40
0.0
 40
0.0
 40
0.3822979274184181
 40
1.0
 40
1.0
 40
1.0
 40
1.0
 10
8.033263193915876
 20
5.626758445711481
 30
0.0
 10
8.033860812977025
 20
5.639166301903147
 30
0.0
 10
8.035424041596042
 20
5.671622287933312
 30
0.0
 10
8.028830578897949
 20
5.702068186160983
 30
0.0
 10
8.024757783323885
 20
5.720874680597815
 30
0.0
  0
LINE
  5
2F5
330
2
100
AcDbEntity
  8
0
100
AcDbLine
 10
8.010218209355683
 20
5.790031639629134
 30
0.0
 11
8.013485932454322
 21
5.821272721728326
 31
0.0
  0
ARC
  5
2F6
330
2
100
AcDbEntity
  8
0
100
AcDbCircle
 10
8.129353111464594
 20
5.480414536513883
 30
0.0
 40
0.360013201981546
100
AcDbArc
 50
62.61379871470369
 51
108.7743259455002
  0
LINE
  5
2F7
330
2
100
AcDbEntity
  8
0
100
AcDbLine
 10
8.216647899802774
 20
5.474301390801837
 30
0.0
 11
8.214325632941488
 21
5.472627489534489
 31
0.0
  0
LWPOLYLINE
  5
2F8
330
2
100
AcDbEntity
  8
0
100
AcDbPolyline
 90
        9
 70
   128
 43
0.0
 10
8.059303489413389
 20
5.484300299649775
 10
8.059822280972065
 20
5.494195695232557
 10
8.068363105197496
 20
5.501289206335637
 10
8.084229174112815
 20
5.505003254585482
 10
8.106132226400154
 20
5.505036292848771
 10
8.132287889595859
 20
5.501385028253036
 10
8.160569833505947
 20
5.494346613342234
 10
8.188678554985807
 20
5.48449382834191
 10
8.214325632941488
 20
5.472627489534489
  0
LINE
  5
2F9
330
2
100
AcDbEntity
  8
0
100
AcDbLine
 10
8.059303489413389
 20
5.484300299649775
 30
0.0
 11
8.058169267495639
 21
5.486234265755864
 31
0.0
  0
LINE
  5
2FA
330
2
100
AcDbEntity
  8
0
100
AcDbLine
 10
8.058169267495639
 20
5.486234265755864
 30
0.0
 11
8.023432775294429
 21
5.571054726624105
 31
0.0
  0
LINE
  5
2FB
330
2
100
AcDbEntity
  8
0
100
AcDbLine
 10
8.217097229421979
 20
5.556472934323402
 30
0.0
 11
8.216647899802774
 21
5.474301390801837
 31
0.0
  0
LINE
  5
2FC
330
2
100
AcDbEntity
  8
0
100
AcDbLine
 10
7.992690625101139
 20
7.993431515146543
 30
0.0
 11
7.790556263781613
 21
8.008651183272162
 31
0.0
  0
LINE
  5
2FD
330
2
100
AcDbEntity
  8
0
100
AcDbLine
 10
8.21545985485924
 20
5.472542213264404
 30
0.0
 11
8.258693536125646
 21
5.435100746993289
 31
0.0
  0
LINE
  5
2FE
330
2
100
AcDbEntity
  8
0
100
AcDbLine
 10
8.21545985485924
 20
5.472542213264404
 30
0.0
 11
8.216647899802774
 21
5.474301390801837
 31
0.0
  0
LINE
  5
2FF
330
2
100
AcDbEntity
  8
0
100
AcDbLine
 10
8.320308833180469
 20
5.787830076894397
 30
0.0
 11
8.29495412841975
 21
5.800079687542604
 31
0.0
  0
LINE
  5
300
330
2
100
AcDbEntity
  8
0
100
AcDbLine
 10
8.320308833180469
 20
5.787830076894397
 30
0.0
 11
8.306225979286089
 21
5.699681564368158
 31
0.0
  0
LWPOLYLINE
  5
301
330
2
100
AcDbEntity
  8
0
100
AcDbPolyline
 90
        9
 70
   128
 43
0.0
 10
8.257559314207897
 20
5.435186023263368
 10
8.257040522649301
 20
5.425290627680545
 10
8.248499698423866
 20
5.418197116577471
 10
8.232633629508468
 20
5.414483068327619
 10
8.210731889979584
 20
5.414450326973105
 10
8.184574914025425
 20
5.418101294660113
 10
8.156292970115336
 20
5.425139709570873
 10
8.128184248635475
 20
5.43499249457124
 10
8.102537170679795
 20
5.44685883337866
  0
LINE
  5
302
330
2
100
AcDbEntity
  8
0
100
AcDbLine
 10
8.101402948762046
 20
5.446944109648746
 30
0.0
 11
8.102537170679795
 21
5.44685883337866
 31
0.0
  0
LINE
  5
303
330
2
100
AcDbEntity
  8
0
100
AcDbLine
 10
8.058169267495639
 20
5.48438557591986
 30
0.0
 11
8.101402948762046
 21
5.446944109648746
 31
0.0
  0
LINE
  5
304
330
2
100
AcDbEntity
  8
0
100
AcDbLine
 10
8.058169267495639
 20
5.48438557591986
 30
0.0
 11
8.059303489413389
 21
5.484300299649775
 31
0.0
  0
LINE
  5
305
330
2
100
AcDbEntity
  8
0
100
AcDbLine
 10
8.214325632941488
 20
5.472627489534489
 30
0.0
 11
8.21545985485924
 21
5.472542213264404
 31
0.0
  0
LINE
  5
306
330
2
100
AcDbEntity
  8
0
100
AcDbLine
 10
8.257559314207897
 20
5.435186023263368
 30
0.0
 11
8.258693536125646
 21
5.435100746993289
 31
0.0
  0
LINE
  5
307
330
2
100
AcDbEntity
  8
0
100
AcDbLine
 10
7.790556263781613
 20
8.008651183272162
 30
0.0
 11
7.687623217596904
 21
8.031276150285471
 31
0.0
  0
LWPOLYLINE
  5
308
330
2
100
AcDbEntity
  8
0
100
AcDbPolyline
 90
        3
 70
   128
 43
0.0
 10
8.329803895100956
 20
5.458866098670601
 10
8.320152325094895
 20
5.451018377577522
 10
8.318251396458594
 20
5.450092646734362
  0
LINE
  5
309
330
2
100
AcDbEntity
  8
0
100
AcDbLine
 10
8.467177691043405
 20
5.616858693865777
 30
0.0
 11
8.453114594078295
 21
5.606636974156089
 31
0.0
  0
ARC
  5
30A
330
2
100
AcDbEntity
  8
0
100
AcDbCircle
 10
7.662682522612103
 20
7.920449465921503
 30
0.0
 40
0.1135983812996711
100
AcDbArc
 50
77.31730820779623
 51
85.32930291050435
  0
LINE
  5
30B
330
2
100
AcDbEntity
  8
0
100
AcDbLine
 10
7.671932700828739
 20
8.033670605454597
 30
0.0
 11
7.331452146229421
 21
8.059307238441604
 31
0.0
  0
LINE
  5
30C
330
2
100
AcDbEntity
  8
0
100
AcDbLine
 10
8.058169267495639
 20
5.486234265755864
 30
0.0
 11
8.058169267495639
 21
5.48438557591986
 31
0.0
  0
SPLINE
  5
30D
330
2
100
AcDbEntity
  8
0
100
AcDbSpline
210
0.0
220
0.0
230
1.0
 70
     8
 71
     3
 72
     9
 73
     5
 74
     0
 42
0.000000001
 43
0.0000000001
 40
0.0
 40
0.0
 40
0.0
 40
0.0
 40
0.690265050481048
 40
1.0
 40
1.0
 40
1.0
 40
1.0
 10
8.481372259542178
 20
5.638636850269572
 30
0.0
 10
8.476719361353881
 20
5.645008054627634
 30
0.0
 10
8.469978619974684
 20
5.654238138569469
 30
0.0
 10
8.463117906104127
 20
5.663213969712131
 30
0.0
 10
8.460992903239766
 20
5.665994098318027
 30
0.0
  0
LINE
  5
30E
330
2
100
AcDbEntity
  8
0
100
AcDbLine
 10
8.467177691043405
 20
5.616858693865777
 30
0.0
 11
8.481372259545643
 21
5.638636850269487
 31
0.0
  0
LWPOLYLINE
  5
30F
330
2
100
AcDbEntity
  8
0
100
AcDbPolyline
 90
        6
 70
   128
 43
0.0
 10
7.331452146229421
 20
8.059307238441604
 10
7.323864735349256
 20
8.059491609329169
 10
7.317547027825026
 20
8.058823070277075
 10
7.312741312290397
 20
8.057326602087597
 10
7.30963166765791
 20
8.055059829016183
 10
7.308573784056673
 20
8.053194451599853
  0
ARC
  5
310
330
2
100
AcDbEntity
  8
0
100
AcDbCircle
 10
8.507508418032294
 20
5.008542651944448
 30
0.0
 40
0.0299583576010194
100
AcDbArc
 50
206.3093621142017
 51
267.201958473101
  0
ARC
  5
311
330
2
100
AcDbEntity
  8
0
100
AcDbCircle
 10
8.772833762420034
 20
5.129032276138668
 30
0.0
 40
0.3213459260972857
100
AcDbArc
 50
168.1565985803998
 51
204.5995217088999
  0
LINE
  5
312
330
2
100
AcDbEntity
  8
0
100
AcDbLine
 10
8.53156072408325
 20
5.417330963420821
 30
0.0
 11
8.458328583272836
 21
5.194984505141015
 31
0.0
  0
LINE
  5
313
330
2
100
AcDbEntity
  8
0
100
AcDbLine
 10
8.946758147492902
 20
5.158208114668121
 30
0.0
 11
9.019990288303317
 21
5.38055457294789
 31
0.0
  0
ARC
  5
314
330
2
100
AcDbEntity
  8
0
100
AcDbCircle
 10
8.46456117307766
 20
5.391173221212784
 30
0.0
 40
0.5355246614342243
100
AcDbArc
 50
308.3912028773999
 51
334.2132946608982
  0
ARC
  5
315
330
2
100
AcDbEntity
  8
0
100
AcDbCircle
 10
8.76396834993667
 20
5.010693931720957
 30
0.0
 40
0.0513945893302338
100
AcDbArc
 50
268.1090752518036
 51
310.1931445754983
  0
LINE
  5
316
330
2
100
AcDbEntity
  8
0
100
AcDbLine
 10
8.506045981972736
 20
4.97862001049842
 30
0.0
 11
8.762272489252083
 21
4.959327329055702
 31
0.0
  0
ARC
  5
317
330
2
100
AcDbEntity
  8
0
100
AcDbCircle
 10
8.572985549617222
 20
5.308146683388406
 30
0.0
 40
0.3183081382979824
100
AcDbArc
 50
305.8579809468014
 51
16.63386199700213
  0
ARC
  5
318
330
2
100
AcDbEntity
  8
0
100
AcDbCircle
 10
8.871700239988772
 20
5.160353033270902
 30
0.0
 40
0.319253292814639
100
AcDbArc
 50
126.1985519929031
 51
197.4443547745024
  0
ARC
  5
319
330
2
100
AcDbEntity
  8
0
100
AcDbCircle
 10
8.578044280902519
 20
5.069583831326383
 30
0.0
 40
0.0119788158788016
100
AcDbArc
 50
204.3362626065007
 51
267.2102901677973
  0
LINE
  5
31A
330
2
100
AcDbEntity
  8
0
100
AcDbLine
 10
8.607466950605804
 20
5.05535970772267
 30
0.0
 11
8.577461267309347
 21
5.057619211610779
 31
0.0
  0
LINE
  5
31B
330
2
100
AcDbEntity
  8
0
100
AcDbLine
 10
8.745093753128525
 20
5.044997295813892
 30
0.0
 11
8.607466950605804
 21
5.05535970772267
 31
0.0
  0
ARC
  5
31C
330
2
100
AcDbEntity
  8
0
100
AcDbCircle
 10
8.745733736840422
 20
5.06572121384914
 30
0.0
 40
0.0207337974785869
100
AcDbArc
 50
268.2311879514998
 51
311.3935721910029
  0
ARC
  5
31D
330
2
100
AcDbEntity
  8
0
100
AcDbCircle
 10
8.489992757949583
 20
5.369148822641085
 30
0.0
 40
0.5355246614342683
100
AcDbArc
 50
308.3912028773999
 51
334.2132946608982
  0
ARC
  5
31E
330
2
100
AcDbEntity
  8
0
100
AcDbCircle
 10
8.789399934818746
 20
4.988669533149257
 30
0.0
 40
0.0513945893302338
100
AcDbArc
 50
268.1090752518036
 51
310.1931445754983
  0
LINE
  5
31F
330
2
100
AcDbEntity
  8
0
100
AcDbLine
 10
8.972189732364823
 20
5.136183716106569
 30
0.0
 11
9.045421873185469
 21
5.358530174386387
 31
0.0
  0
LINE
  5
320
330
2
100
AcDbEntity
  8
0
100
AcDbLine
 10
8.531477566854809
 20
4.95659561193688
 30
0.0
 11
8.787704074124006
 21
4.937302930494151
 31
0.0
  0
ARC
  5
321
330
2
100
AcDbEntity
  8
0
100
AcDbCircle
 10
8.533355434448511
 20
4.987726086597731
 30
0.0
 40
0.0311870620438947
100
AcDbArc
 50
229.8492770627066
 51
266.5479592276035
  0
ARC
  5
322
330
2
100
AcDbEntity
  8
0
100
AcDbCircle
 10
8.903679097989584
 20
5.135240329014056
 30
0.0
 40
0.3264344406752939
100
AcDbArc
 50
124.0986910639974
 51
193.8826501116993
  0
LINE
  5
323
330
2
100
AcDbEntity
  8
0
100
AcDbLine
 10
8.734223672865008
 20
5.410087765758365
 30
0.0
 11
8.877973173322541
 21
5.399263763375324
 31
0.0
  0
ARC
  5
324
330
2
100
AcDbEntity
  8
0
100
AcDbCircle
 10
8.733509586359627
 20
5.389713196312333
 30
0.0
 40
0.0203870792294631
100
AcDbArc
 50
87.99272310400047
 51
129.0223704634996
  0
LINE
  5
325
330
2
100
AcDbEntity
  8
0
100
AcDbLine
 10
12.70287404238103
 20
8.021498404026935
 30
0.0
 11
12.6999525020142
 21
8.024893837788019
 31
0.0
  0
LINE
  5
326
330
2
100
AcDbEntity
  8
0
100
AcDbLine
 10
24.94844337663213
 20
11.55648977977789
 30
0.0
 11
24.94552183626537
 21
11.55988521353898
 31
0.0
  0
LWPOLYLINE
  5
327
330
2
100
AcDbEntity
  8
0
100
AcDbPolyline
 90
       12
 70
   128
 43
0.0
 10
25.03264135937565
 20
11.47287073073888
 10
25.03753646556444
 20
11.46880183562054
 10
25.10047216213581
 20
11.43798502291029
 10
25.17590300656977
 20
11.4338645084341
 10
25.25565528246688
 20
11.45688700741289
 10
25.33108629100585
 20
11.50455758759871
 10
25.39402182347228
 20
11.57171029429738
 10
25.43764210804686
 20
11.65106821458405
 10
25.45722023550533
 20
11.7340317120275
 10
25.45063413438733
 20
11.8116101831525
 10
25.41859827263158
 20
11.8753971255422
 10
25.39891676557643
 20
11.89580923173402
  0
LWPOLYLINE
  5
328
330
2
100
AcDbEntity
  8
0
100
AcDbPolyline
 90
       12
 70
   128
 43
0.0
 10
12.78707235331407
 20
7.937879449725676
 10
12.79196696721847
 20
7.933810412495632
 10
12.85490315607423
 20
7.902993741897128
 10
12.93033350823403
 20
7.898873085309187
 10
13.01008611231058
 20
7.921895679025731
 10
13.08551712084956
 20
7.969566259221747
 10
13.1484526533159
 20
8.036718965910258
 10
13.19207293789057
 20
8.116076886196891
 10
13.21165073715944
 20
8.199040288902548
 10
13.20506529242062
 20
8.276618949513331
 10
13.17302877428561
 20
8.340405702427439
 10
13.15334792360972
 20
8.360817998084604
  0
LWPOLYLINE
  5
329
330
2
100
AcDbEntity
  8
0
100
AcDbPolyline
 90
       19
 70
   128
 43
0.0
 10
24.90803365880148
 20
11.61466540603708
 10
24.9105759765354
 20
11.55235383409286
 10
24.93530175178668
 20
11.47528344975878
 10
24.98275003532743
 20
11.415149421224
 10
25.04907707512042
 20
11.37682372942499
 10
25.12890926508714
 20
11.36341116826392
 10
25.21577930861827
 20
11.37599841087114
 10
25.3026490239495
 20
11.41356551653375
 10
25.38248137801109
 20
11.4730692614387
 10
25.44880841780409
 20
11.54968888751859
 10
25.49625670134476
 20
11.63721719533147
 10
25.52098247659604
 20
11.72856301265677
 10
25.52098247659604
 20
11.81632622311779
 10
25.49625670134476
 20
11.89339660745184
 10
25.44880841780409
 20
11.95353055393413
 10
25.38248137801109
 20
11.99185640982797
 10
25.3026490239495
 20
12.00526884158293
 10
25.21577930861827
 20
11.99268177575579
 10
25.21577930861827
 20
11.99268177575579
  0
LWPOLYLINE
  5
32A
330
2
100
AcDbEntity
  8
0
100
AcDbPolyline
 90
       19
 70
   128
 43
0.0
 10
12.66246416046567
 20
8.079673982912131
 10
12.66500697047391
 20
8.017362553079697
 10
12.68973274572517
 20
7.940292168745612
 10
12.737181029276
 20
7.880158140210837
 10
12.80350806905892
 20
7.841832448411827
 10
12.88334009493084
 20
7.828419839876761
 10
12.97020981027231
 20
7.841006987746228
 10
13.05707952561377
 20
7.878574093408838
 10
13.13691220785472
 20
7.938077933051539
 10
13.20323924764779
 20
8.014697559131434
 10
13.25068753119862
 20
8.102225866944312
 10
13.27541330643974
 20
8.193571684269615
 10
13.27541330643974
 20
8.281334894740821
 10
13.25068753119862
 20
8.358405279064715
 10
13.20323924764779
 20
8.418539225557205
 10
13.13691220785472
 20
8.45686508145097
 10
13.05707952561377
 20
8.470277418458019
 10
12.97020981027231
 20
8.457690352630875
 10
12.97020981027231
 20
8.457690352630875
  0
ARC
  5
32B
330
2
100
AcDbEntity
  8
0
100
AcDbCircle
 10
28.34636849887873
 20
11.15828027292081
 30
0.0
 40
0.6197926412493188
100
AcDbArc
 50
8.749285570098933
 51
43.73463283130274
  0
LINE
  5
32C
330
2
100
AcDbEntity
  8
0
100
AcDbLine
 10
28.79419930315658
 20
11.58675487996689
 30
0.0
 11
28.4890201425105
 21
11.85104778579413
 31
0.0
  0
ARC
  5
32D
330
2
100
AcDbEntity
  8
0
100
AcDbCircle
 10
28.6310046938121
 20
11.9815595166602
 30
0.0
 40
0.1928546724939336
100
AcDbArc
 50
179.5143540286999
 51
222.5891186933037
  0
LINE
  5
32E
330
2
100
AcDbEntity
  8
0
100
AcDbLine
 10
28.43815694906449
 20
12.4677310686365
 30
0.0
 11
28.43815694906449
 21
11.98319415666549
 31
0.0
  0
LWPOLYLINE
  5
32F
330
2
100
AcDbEntity
  8
0
100
AcDbPolyline
 90
        9
 70
   128
 43
0.0
 10
28.4890201425105
 20
12.5117799683201
 10
28.47909725758362
 20
12.51868063878783
 10
28.469555701412
 20
12.52193061451065
 10
28.46076211806103
 20
12.52140501949239
 10
28.45305444533016
 20
12.51712395531135
 10
28.44672903015141
 20
12.50925184477168
 10
28.44202869130559
 20
12.49809160651221
 10
28.43913428757717
 20
12.48407169155715
 10
28.43815694906449
 20
12.4677310686365
  0
LINE
  5
330
330
2
100
AcDbEntity
  8
0
100
AcDbLine
 10
28.4890201425105
 20
12.5117799683201
 30
0.0
 11
28.59074652939252
 21
12.4236823330477
 31
0.0
  0
LWPOLYLINE
  5
331
330
2
100
AcDbEntity
  8
0
100
AcDbPolyline
 90
       11
 70
   128
 43
0.0
 10
28.59074652939252
 20
12.4236823330477
 10
28.65160830507367
 20
12.38377419664727
 10
28.70893305516785
 20
12.37178495244624
 10
28.7593892452927
 20
12.38841142816606
 10
28.80004448094887
 20
12.43268727069416
 10
28.828536039664
 20
12.50203939454551
 10
28.84320824405339
 20
12.59243714392077
 10
28.84320824405339
 20
12.69862702998802
 10
28.828536039664
 20
12.81443778281504
 10
28.80004448094887
 20
12.93313873394131
 10
28.74998312847394
 20
13.07436717370477
  0
LINE
  5
332
330
2
100
AcDbEntity
  8
0
100
AcDbLine
 10
28.60013949369031
 20
13.29652397600777
 30
0.0
 11
28.4890201425105
 21
13.39275615698971
 31
0.0
  0
ARC
  5
333
330
2
100
AcDbEntity
  8
0
100
AcDbCircle
 10
28.63100510506127
 20
13.52326804714908
 30
0.0
 40
0.1928550830730854
100
AcDbArc
 50
179.514378016001
 51
222.5890708546995
  0
LINE
  5
334
330
2
100
AcDbEntity
  8
0
100
AcDbLine
 10
28.43815694906449
 20
15.41900152219852
 30
0.0
 11
28.43815694906449
 21
13.5249026099033
 31
0.0
  0
LINE
  5
335
330
2
100
AcDbEntity
  8
0
100
AcDbLine
 10
31.28649540283997
 20
12.96868999785597
 30
0.0
 11
31.28649540283997
 21
9.689982620391356
 31
0.0
  0
ARC
  5
336
330
2
100
AcDbEntity
  8
0
100
AcDbCircle
 10
28.5869557941285
 20
11.9688436946168
 30
0.0
 40
0.192854672493922
100
AcDbArc
 50
179.5143540286999
 51
222.5891186933037
  0
LINE
  5
337
330
2
100
AcDbEntity
  8
0
100
AcDbLine
 10
28.39410804938089
 20
12.4550152465829
 30
0.0
 11
28.39410804938089
 21
11.9704783346119
 31
0.0
  0
LINE
  5
338
330
2
100
AcDbEntity
  8
0
100
AcDbLine
 10
28.4449712428269
 20
11.83833196375074
 30
0.0
 11
28.75015040347298
 21
11.57403905792345
 31
0.0
  0
ARC
  5
339
330
2
100
AcDbEntity
  8
0
100
AcDbCircle
 10
9.183890731092759
 20
6.653423724354132
 30
0.0
 40
0.0645931943210775
100
AcDbArc
 50
177.7639509145997
 51
291.3846800217998
  0
LINE
  5
33A
330
2
100
AcDbEntity
  8
0
100
AcDbLine
 10
9.119346720232659
 20
6.655943925554502
 30
0.0
 11
9.119346720232659
 21
9.871507202901534
 31
0.0
  0
LINE
  5
33B
330
2
100
AcDbEntity
  8
0
100
AcDbLine
 10
28.32462760034816
 20
13.52149533360578
 30
0.0
 11
28.32462760034816
 21
15.41559424590101
 31
0.0
  0
ARC
  5
33C
330
2
100
AcDbEntity
  8
0
100
AcDbCircle
 10
28.19945022727901
 20
13.52768573081169
 30
0.0
 40
0.1253303464647658
100
AcDbArc
 50
287.2087967792028
 51
357.1688579939019
  0
LINE
  5
33D
330
2
100
AcDbEntity
  8
0
100
AcDbLine
 10
28.2365298009708
 20
13.40796605423642
 30
0.0
 11
27.61984651813872
 21
13.22994492455927
 31
0.0
  0
ARC
  5
33E
330
2
100
AcDbEntity
  8
0
100
AcDbCircle
 10
27.65692589449156
 20
13.11022540111267
 30
0.0
 40
0.1253301418067409
100
AcDbArc
 50
107.2087313155014
 51
177.1689234576004
  0
LINE
  5
33F
330
2
100
AcDbEntity
  8
0
100
AcDbLine
 10
27.53174871876136
 20
13.11641564518986
 30
0.0
 11
27.53174871876136
 21
11.97114655070311
 31
0.0
  0
ARC
  5
340
330
2
100
AcDbEntity
  8
0
100
AcDbCircle
 10
27.4065726394583
 20
11.97733593668787
 30
0.0
 40
0.1253290043474855
100
AcDbArc
 50
287.2085247059992
 51
357.1692905096015
  0
LINE
  5
341
330
2
100
AcDbEntity
  8
0
100
AcDbLine
 10
27.44365124758376
 20
11.85761736607152
 30
0.0
 11
9.207443206841325
 21
6.593277555407742
 31
0.0
  0
LINE
  5
342
330
2
100
AcDbEntity
  8
0
100
AcDbLine
 10
25.59360107087734
 20
12.86526225349778
 30
0.0
 11
24.88882031685748
 21
12.66180957447153
 31
0.0
  0
LINE
  5
343
330
2
100
AcDbEntity
  8
0
100
AcDbLine
 10
25.59360107087734
 20
13.12955515932506
 30
0.0
 11
25.59360107087734
 21
12.86526225349778
 31
0.0
  0
LINE
  5
344
330
2
100
AcDbEntity
  8
0
100
AcDbLine
 10
25.59360107087734
 20
13.12955515932506
 30
0.0
 11
24.88882031685748
 21
12.92610248029885
 31
0.0
  0
LINE
  5
345
330
2
100
AcDbEntity
  8
0
100
AcDbLine
 10
24.88882031685748
 20
12.92610248029885
 30
0.0
 11
24.88882031685748
 21
12.66180957447153
 31
0.0
  0
LINE
  5
346
330
2
100
AcDbEntity
  8
0
100
AcDbLine
 10
13.34803190073119
 20
9.330270925110626
 30
0.0
 11
12.64325081852167
 21
9.126818151346613
 31
0.0
  0
LINE
  5
347
330
2
100
AcDbEntity
  8
0
100
AcDbLine
 10
13.34803190073119
 20
9.594563830937907
 30
0.0
 11
13.34803190073119
 21
9.330270925110626
 31
0.0
  0
LINE
  5
348
330
2
100
AcDbEntity
  8
0
100
AcDbLine
 10
13.34803190073119
 20
9.594563830937907
 30
0.0
 11
12.64325081852167
 21
9.391111057173937
 31
0.0
  0
LINE
  5
349
330
2
100
AcDbEntity
  8
0
100
AcDbLine
 10
12.64325081852167
 20
9.391111057173937
 30
0.0
 11
12.64325081852167
 21
9.126818151346613
 31
0.0
  0
LWPOLYLINE
  5
34A
330
2
100
AcDbEntity
  8
0
100
AcDbPolyline
 90
        7
 70
   128
 43
0.0
 10
28.4167574619835
 20
12.50870191477112
 10
28.41671321837752
 20
12.5086891974388
 10
28.40900554564656
 20
12.50440813326795
 10
28.4026801304679
 20
12.49653602272827
 10
28.39797979162199
 20
12.48537578446877
 10
28.39508538789357
 20
12.47135586951375
 10
28.39410804938089
 20
12.4550152465829
  0
ARC
  5
34B
330
2
100
AcDbEntity
  8
0
100
AcDbCircle
 10
28.26911070000417
 20
11.12919342761084
 30
0.0
 40
0.6551998405970588
100
AcDbArc
 50
9.722545797199272
 51
42.76137260430008
  0
ARC
  5
34C
330
2
100
AcDbEntity
  8
0
100
AcDbCircle
 10
28.40588436290392
 20
15.42026063497463
 30
0.0
 40
0.0322971389244789
100
AcDbArc
 50
357.7657421884998
 51
111.3844477884979
  0
LWPOLYLINE
  5
34D
330
2
100
AcDbEntity
  8
0
100
AcDbPolyline
 90
        7
 70
   128
 43
0.0
 10
9.119346720232659
 20
9.871507202901534
 10
9.119835389483924
 20
9.879677309245902
 10
9.121282543974142
 20
9.886687512860572
 10
9.123632760765929
 20
9.892267467900559
 10
9.126795468355382
 20
9.896203523170404
 10
9.130649304720739
 20
9.898344137303242
 10
9.13067137915997
 20
9.898350619043075
  0
LWPOLYLINE
  5
34E
330
2
100
AcDbEntity
  8
0
100
AcDbPolyline
 90
        9
 70
   128
 43
0.0
 10
28.35005914969729
 20
15.43761844959549
 10
28.34509770723385
 20
15.44106878483445
 10
28.34032697651684
 20
15.44269397781691
 10
28.33593018484647
 20
15.44243118030272
 10
28.33207634848103
 20
15.44029056616987
 10
28.32891364089166
 20
15.43635451090004
 10
28.32656342408972
 20
15.43077455586001
 10
28.32511626959942
 20
15.42376435224537
 10
28.32462760034816
 20
15.41559424590101
  0
LINE
  5
34F
330
2
100
AcDbEntity
  8
0
100
AcDbLine
 10
28.35005914969729
 20
15.43761844959549
 30
0.0
 11
28.39410804938089
 21
15.45033427164905
 31
0.0
  0
ARC
  5
350
330
2
100
AcDbEntity
  8
0
100
AcDbCircle
 10
29.27463954946297
 20
10.95744449460573
 30
0.0
 40
0.3288842971525565
100
AcDbArc
 50
57.13646885050145
 51
107.6021069081029
  0
LINE
  5
351
330
2
100
AcDbEntity
  8
0
100
AcDbLine
 10
29.45310529837062
 20
11.23369593330044
 30
0.0
 11
31.94540130330603
 21
9.075304279272774
 31
0.0
  0
LWPOLYLINE
  5
352
330
2
100
AcDbEntity
  8
0
100
AcDbPolyline
 90
        9
 70
   128
 43
0.0
 10
31.87093209145373
 20
8.936343355816529
 10
31.90335204726395
 20
8.947959148128378
 10
31.93061573700293
 20
8.962513945912563
 10
31.95167711509941
 20
8.979448590867566
 10
31.96572625680348
 20
8.998112368161246
 10
31.97222288702556
 20
9.017787782071232
 10
31.97091793825946
 20
9.037718877278146
 10
31.9618615679942
 20
9.057139917858448
 10
31.94540130330603
 20
9.075304279272774
  0
LINE
  5
353
330
2
100
AcDbEntity
  8
0
100
AcDbLine
 10
31.87093209145373
 20
8.936343355816529
 30
0.0
 11
31.18377083166731
 21
8.737976986654031
 31
0.0
  0
LINE
  5
354
330
2
100
AcDbEntity
  8
0
100
AcDbLine
 10
29.17518331274404
 20
11.27093028038896
 30
0.0
 11
28.48802205295762
 21
11.07256391123661
 31
0.0
  0
LWPOLYLINE
  5
355
330
2
100
AcDbEntity
  8
0
100
AcDbPolyline
 90
        9
 70
   128
 43
0.0
 10
30.11298968563667
 20
10.10272387828252
 10
30.05330667277466
 20
10.07655349817007
 10
30.01819615298418
 20
10.04095507592139
 10
30.01300390100602
 20
10.00134830297716
 10
30.0385211183124
 20
9.963763154566015
 10
30.0908618963191
 20
9.933921301141264
 10
30.16205896537741
 20
9.916366225721757
 10
30.24127250128654
 20
9.913770315646871
 10
30.31644243571879
 20
9.926528628245838
  0
LINE
  5
356
330
2
100
AcDbEntity
  8
0
100
AcDbLine
 10
30.31644243571879
 20
9.926528628245838
 30
0.0
 11
30.49263803446326
 21
9.977391916429677
 31
0.0
  0
LWPOLYLINE
  5
357
330
2
100
AcDbEntity
  8
0
100
AcDbPolyline
 90
        9
 70
   128
 43
0.0
 10
30.49263803446326
 20
9.977391916429677
 10
30.55232170370454
 20
10.00356248601768
 10
30.58743156712598
 20
10.03916071879081
 10
30.59262381909391
 20
10.07876749173504
 10
30.56710660178753
 20
10.11635264014614
 10
30.51476582378091
 20
10.14619449357094
 10
30.4435687547226
 20
10.16374956899045
 10
30.36435587519266
 20
10.16634566855103
 10
30.28918528438123
 20
10.15358716646637
  0
LINE
  5
358
330
2
100
AcDbEntity
  8
0
100
AcDbLine
 10
30.28918528438123
 20
10.15358716646637
 30
0.0
 11
30.11298968563667
 21
10.10272387828252
 31
0.0
  0
ARC
  5
359
330
2
100
AcDbEntity
  8
0
100
AcDbCircle
 10
29.27463954946297
 20
11.00149330712001
 30
0.0
 40
0.3288842971526054
100
AcDbArc
 50
57.13646885050145
 51
107.6021069081029
  0
LINE
  5
35A
330
2
100
AcDbEntity
  8
0
100
AcDbLine
 10
29.17518331274404
 20
11.31497909290324
 30
0.0
 11
28.48802205295762
 21
11.11661272375085
 31
0.0
  0
LINE
  5
35B
330
2
100
AcDbEntity
  8
0
100
AcDbLine
 10
31.94540130330603
 20
9.11935309177686
 30
0.0
 11
29.45310529837062
 21
11.27774474580452
 31
0.0
  0
ARC
  5
35C
330
2
100
AcDbEntity
  8
0
100
AcDbCircle
 10
28.47153501861914
 20
11.11466634014072
 30
0.0
 40
0.045215448924848
100
AcDbArc
 50
177.7643096007013
 51
291.384984436801
  0
ARC
  5
35D
330
2
100
AcDbEntity
  8
0
100
AcDbCircle
 10
28.48331162559228
 20
11.1286419188475
 30
0.0
 40
0.0129185781222749
100
AcDbArc
 50
177.7636323203014
 51
291.3844626884989
  0
ARC
  5
35E
330
2
100
AcDbEntity
  8
0
100
AcDbCircle
 10
31.16746735422228
 20
8.783548480544505
 30
0.0
 40
0.0484000457866551
100
AcDbArc
 50
231.2219891423981
 51
289.684976779398
  0
LINE
  5
35F
330
2
100
AcDbEntity
  8
0
100
AcDbLine
 10
28.47040288691379
 20
11.12914602849346
 30
0.0
 11
28.47040288691379
 21
11.81630751390897
 31
0.0
  0
LWPOLYLINE
  5
360
330
2
100
AcDbEntity
  8
0
100
AcDbPolyline
 90
       13
 70
   128
 43
0.0
 10
28.87136425329072
 20
11.22727409014918
 10
28.86963979462777
 20
11.23754440233848
 10
28.84755901189599
 20
11.32290916501272
 10
28.81372932422472
 20
11.40137333927168
 10
28.77223109146693
 20
11.46347297382482
 10
28.7280696207412
 20
11.50171792934058
 10
28.68657138798349
 20
11.51149534234356
 10
28.65274170031207
 20
11.49162590594126
 10
28.63066101231812
 20
11.4445060987726
 10
28.6229924672419
 20
11.37581933752673
 10
28.63066101231812
 20
11.29385030759759
 10
28.65274170031207
 20
11.20848560644741
 10
28.66806202148278
 20
11.16858583888215
  0
LINE
  5
361
330
2
100
AcDbEntity
  8
0
100
AcDbLine
 10
28.42635398723018
 20
11.11643020645002
 30
0.0
 11
28.42635398723018
 21
11.86056837484861
 31
0.0
  0
LINE
  5
362
330
2
100
AcDbEntity
  8
0
100
AcDbLine
 10
9.181165049904842
 20
6.424179373579784
 30
0.0
 11
28.14092580529334
 21
11.90029671287045
 31
0.0
  0
LINE
  5
363
330
2
100
AcDbEntity
  8
0
100
AcDbLine
 10
28.20831067645586
 20
11.91975937730698
 30
0.0
 11
28.34161451383808
 21
11.95826131120271
 31
0.0
  0
ARC
  5
364
330
2
100
AcDbEntity
  8
0
100
AcDbCircle
 10
28.37001133093941
 20
12.02841241211369
 30
0.0
 40
0.038570823341533
100
AcDbArc
 50
179.5141860577003
 51
222.5891435567018
  0
LINE
  5
365
330
2
100
AcDbEntity
  8
0
100
AcDbLine
 10
27.77742443835904
 20
13.24606792816244
 30
0.0
 11
27.77742443835904
 21
13.02582375792391
 31
0.0
  0
LINE
  5
366
330
2
100
AcDbEntity
  8
0
100
AcDbLine
 10
27.77742443835904
 20
13.02582375792391
 30
0.0
 11
28.08576640796472
 21
13.11483441750028
 31
0.0
  0
LINE
  5
367
330
2
100
AcDbEntity
  8
0
100
AcDbLine
 10
28.08576640796472
 20
13.11483441750028
 30
0.0
 11
28.08576640796472
 21
13.33507858773877
 31
0.0
  0
LINE
  5
368
330
2
100
AcDbEntity
  8
0
100
AcDbLine
 10
28.08576640796472
 20
12.49815113466812
 30
0.0
 11
28.08576640796472
 21
12.67434640521288
 31
0.0
  0
LINE
  5
369
330
2
100
AcDbEntity
  8
0
100
AcDbLine
 10
28.08576640796472
 20
12.67434640521288
 30
0.0
 11
27.77742443835904
 21
12.58533574563651
 31
0.0
  0
LINE
  5
36A
330
2
100
AcDbEntity
  8
0
100
AcDbLine
 10
27.77742443835904
 20
12.58533574563651
 30
0.0
 11
27.77742443835904
 21
12.40914047508163
 31
0.0
  0
LINE
  5
36B
330
2
100
AcDbEntity
  8
0
100
AcDbLine
 10
27.77742443835904
 20
12.40914047508163
 30
0.0
 11
28.08576640796472
 21
12.49815113466812
 31
0.0
  0
LINE
  5
36C
330
2
100
AcDbEntity
  8
0
100
AcDbLine
 10
28.3314418941005
 20
12.0287394522416
 30
0.0
 11
28.3314418941005
 21
12.75899641661083
 31
0.0
  0
LINE
  5
36D
330
2
100
AcDbEntity
  8
0
100
AcDbLine
 10
28.33711918079012
 20
12.90957804707703
 30
0.0
 11
28.32462760034365
 21
13.52149533360196
 31
0.0
  0
LINE
  5
36E
330
2
100
AcDbEntity
  8
0
100
AcDbLine
 10
28.34161451383808
 20
11.95826131120271
 30
0.0
 11
28.38230508754659
 21
11.92302224068325
 31
0.0
  0
LINE
  5
36F
330
2
100
AcDbEntity
  8
0
100
AcDbLine
 10
28.38230508754659
 20
11.92302224068325
 30
0.0
 11
28.39914644515777
 21
11.92788392185534
 31
0.0
  0
LINE
  5
370
330
2
100
AcDbEntity
  8
0
100
AcDbLine
 10
11.91682188581414
 20
4.057064095144637
 30
0.0
 11
11.95751245952264
 21
4.021825024625187
 31
0.0
  0
LINE
  5
371
330
2
100
AcDbEntity
  8
0
100
AcDbLine
 10
11.91682188581414
 20
4.057064095144637
 30
0.0
 11
11.78778182584955
 21
4.019813438470648
 31
0.0
  0
LINE
  5
372
330
2
100
AcDbEntity
  8
0
100
AcDbLine
 10
28.38230508754659
 20
11.96707105832453
 30
0.0
 11
28.34161451383808
 21
12.00231012884398
 31
0.0
  0
LINE
  5
373
330
2
100
AcDbEntity
  8
0
100
AcDbLine
 10
28.38230508754659
 20
11.96707105832453
 30
0.0
 11
28.38230508754659
 21
11.92302224068325
 31
0.0
  0
LINE
  5
374
330
2
100
AcDbEntity
  8
0
100
AcDbLine
 10
28.38230508754659
 20
11.96707105832453
 30
0.0
 11
28.39410808437473
 21
11.97047829001504
 31
0.0
  0
ARC
  5
375
330
2
100
AcDbEntity
  8
0
100
AcDbCircle
 10
31.90507007377867
 20
9.065004837533908
 30
0.0
 40
0.0676782152193329
100
AcDbArc
 50
2.951652952599557
 51
53.42130466589995
  0
ARC
  5
376
330
2
100
AcDbEntity
  8
0
100
AcDbCircle
 10
11.97361792601839
 20
4.036691001371853
 30
0.0
 40
0.0219176484969832
100
AcDbArc
 50
222.7082226247964
 51
279.570991519398
  0
LINE
  5
377
330
2
100
AcDbEntity
  8
0
100
AcDbLine
 10
9.09203304713994
 20
6.398449180684313
 30
0.0
 11
9.182925705845159
 21
6.424687631170376
 31
0.0
  0
ARC
  5
378
330
2
100
AcDbEntity
  8
0
100
AcDbCircle
 10
9.087134660580835
 20
6.414885768976913
 30
0.0
 40
0.0171509657287937
100
AcDbArc
 50
266.2273906944015
 51
286.5949634005972
  0
LINE
  5
379
330
2
100
AcDbEntity
  8
0
100
AcDbLine
 10
11.76668976155612
 20
4.017443724121163
 30
0.0
 11
9.011659504535836
 21
6.403369914894613
 31
0.0
  0
ARC
  5
37A
330
2
100
AcDbEntity
  8
0
100
AcDbCircle
 10
11.77064055964218
 20
4.077330635875113
 30
0.0
 40
0.0600170892767535
100
AcDbArc
 50
266.2256106960968
 51
286.5951008251005
  0
LINE
  5
37B
330
2
100
AcDbEntity
  8
0
100
AcDbLine
 10
7.008328232603299
 20
6.554211098019967
 30
0.0
 11
9.086006180445279
 21
6.397771968757248
 31
0.0
  0
LINE
  5
37C
330
2
100
AcDbEntity
  8
0
100
AcDbLine
 10
9.052483585591598
 20
4.221810279287621
 30
0.0
 11
11.76668976155612
 21
4.017443724121163
 31
0.0
  0
LINE
  5
37D
330
2
100
AcDbEntity
  8
0
100
AcDbLine
 10
6.335553440141275
 20
6.454949009547497
 30
0.0
 11
6.336837316340593
 21
6.458846518050803
 31
0.0
  0
LINE
  5
37E
330
2
100
AcDbEntity
  8
0
100
AcDbLine
 10
7.190115746194495
 20
6.374489186116105
 30
0.0
 11
6.711208920150979
 21
4.92045719156888
 31
0.0
  0
ARC
  5
37F
330
2
100
AcDbEntity
  8
0
100
AcDbCircle
 10
6.589180244712031
 20
4.961067846914889
 30
0.0
 40
0.1286087981378366
100
AcDbArc
 50
287.7671609107019
 51
341.5927637648004
  0
LINE
  5
380
330
2
100
AcDbEntity
  8
0
100
AcDbLine
 10
6.628425160508241
 20
4.838593116693005
 30
0.0
 11
5.839005393227539
 21
4.610707259123678
 31
0.0
  0
LINE
  5
381
330
2
100
AcDbEntity
  8
0
100
AcDbLine
 10
6.961149227635097
 20
5.267372864559898
 30
0.0
 11
6.903899901459457
 21
5.093555574110352
 31
0.0
  0
ARC
  5
382
330
2
100
AcDbEntity
  8
0
100
AcDbCircle
 10
6.941873221728292
 20
5.07855850811415
 30
0.0
 40
0.0408275034849553
100
AcDbArc
 50
158.4491067602009
 51
218.9439832005041
  0
LINE
  5
383
330
2
100
AcDbEntity
  8
0
100
AcDbLine
 10
6.910119187408274
 20
5.052895960588644
 30
0.0
 11
7.184780394093521
 21
4.815032378169167
 31
0.0
  0
LWPOLYLINE
  5
384
330
2
100
AcDbEntity
  8
0
100
AcDbPolyline
 90
        9
 70
   128
 43
0.0
 10
7.184780394093521
 20
4.815032378169167
 10
7.187931865710303
 20
4.8129819997111
 10
7.19130894271398
 20
4.812064839711367
 10
7.19478194055366
 20
4.812316237422681
 10
7.198217957500898
 20
4.813726708071553
 10
7.201486119152089
 20
4.816242444888153
 10
7.204458363553126
 20
4.819765956025151
 10
7.207022785471133
 20
4.82416246013541
 10
7.209079014741657
 20
4.82926270930929
  0
LINE
  5
385
330
2
100
AcDbEntity
  8
0
100
AcDbLine
 10
7.209079014741657
 20
4.82926270930929
 30
0.0
 11
7.266328340917296
 21
5.003079999748683
 31
0.0
  0
ARC
  5
386
330
2
100
AcDbEntity
  8
0
100
AcDbCircle
 10
7.139762885728835
 20
5.053071498972231
 30
0.0
 40
0.1360807276643462
100
AcDbArc
 50
338.4467067232989
 51
38.94685972650222
  0
LINE
  5
387
330
2
100
AcDbEntity
  8
0
100
AcDbLine
 10
7.245596855427361
 20
5.138611754405743
 30
0.0
 11
7.042144129027186
 21
5.314806983934404
 31
0.0
  0
LWPOLYLINE
  5
388
330
2
100
AcDbEntity
  8
0
100
AcDbPolyline
 90
        9
 70
   128
 43
0.0
 10
7.042144129027186
 20
5.314806983934404
 10
7.031642270956584
 20
5.321642804888969
 10
7.020384894216655
 20
5.324699782839753
 10
7.008807000959262
 20
5.323861343140545
 10
6.997352767559189
 20
5.319159494339649
 10
6.986461489316004
 20
5.310774490204035
 10
6.976552226038442
 20
5.299028975143168
 10
6.968005043945369
 20
5.284374008968811
 10
6.961149227635097
 20
5.267372864559898
  0
LINE
  5
389
330
2
100
AcDbEntity
  8
0
100
AcDbLine
 10
9.029900229526203
 20
4.204760254584702
 30
0.0
 11
8.945533285110776
 21
3.948608528669271
 31
0.0
  0
LINE
  5
38A
330
2
100
AcDbEntity
  8
0
100
AcDbLine
 10
8.986223858819275
 20
3.913369458149816
 30
0.0
 11
8.945533285110776
 21
3.948608528669271
 31
0.0
  0
LINE
  5
38B
330
2
100
AcDbEntity
  8
0
100
AcDbLine
 10
8.986223858819275
 20
3.913369458149816
 30
0.0
 11
8.819737409729263
 21
3.407890158587423
 31
0.0
  0
LWPOLYLINE
  5
38C
330
2
100
AcDbEntity
  8
0
100
AcDbPolyline
 90
        9
 70
   128
 43
0.0
 10
8.765879951754538
 20
3.363457221449983
 10
8.770383765578428
 20
3.374983736369785
 10
8.775868388350843
 20
3.385243759018115
 10
8.782185868669204
 20
3.393959486661277
 10
8.789162458605357
 20
3.400894159646382
 10
8.796611294853581
 20
3.405860508342158
 10
8.804328392817485
 20
3.408723534897223
 10
8.81210815638213
 20
3.409406467467769
 10
8.819737409729263
 20
3.407890158587423
  0
LINE
  5
38D
330
2
100
AcDbEntity
  8
0
100
AcDbLine
 10
8.765879951754538
 20
3.363457221449983
 30
0.0
 11
8.693564115221594
 21
3.143898231995844
 31
0.0
  0
ARC
  5
38E
330
2
100
AcDbEntity
  8
0
100
AcDbCircle
 10
8.808204265841032
 20
3.103446093353179
 30
0.0
 40
0.1215678397283104
100
AcDbArc
 50
160.5640055550011
 51
207.8755931541978
  0
LINE
  5
38F
330
2
100
AcDbEntity
  8
0
100
AcDbLine
 10
8.700742565168461
 20
3.046606648052965
 30
0.0
 11
8.463669180314171
 21
2.326815752759987
 31
0.0
  0
LINE
  5
390
330
2
100
AcDbEntity
  8
0
100
AcDbLine
 10
8.463669180314171
 20
2.326815752759987
 30
0.0
 11
8.422978606615826
 21
2.362054823279431
 31
0.0
  0
LINE
  5
391
330
2
100
AcDbEntity
  8
0
100
AcDbLine
 10
8.422978606615826
 20
2.362054823279431
 30
0.0
 11
8.366937016730155
 21
2.191900936026473
 31
0.0
  0
LINE
  5
392
330
2
100
AcDbEntity
  8
0
100
AcDbLine
 10
5.717341388320701
 20
4.6666200965121
 30
0.0
 11
5.671188238030695
 21
4.526487860609056
 31
0.0
  0
LINE
  5
393
330
2
100
AcDbEntity
  8
0
100
AcDbLine
 10
6.989121353681522
 20
4.161438171169791
 30
0.0
 11
7.046370679857161
 21
4.335255502635398
 31
0.0
  0
ARC
  5
394
330
2
100
AcDbEntity
  8
0
100
AcDbCircle
 10
7.008401495914804
 20
4.350253138441694
 30
0.0
 40
0.0408238656838366
100
AcDbArc
 50
338.4462305090001
 51
38.94700718389626
  0
LINE
  5
395
330
2
100
AcDbEntity
  8
0
100
AcDbLine
 10
7.040151346541399
 20
4.375915075129368
 30
0.0
 11
6.765490139849146
 21
4.613778657560564
 31
0.0
  0
LWPOLYLINE
  5
396
330
2
100
AcDbEntity
  8
0
100
AcDbPolyline
 90
        9
 70
   128
 43
0.0
 10
6.765490139849146
 20
4.613778657560564
 10
6.762339980990818
 20
4.615829497022144
 10
6.758962903987222
 20
4.61674665702189
 10
6.755489953521413
 20
4.616495218284313
 10
6.752052600133861
 20
4.615084389192384
 10
6.748785751241204
 20
4.612569031326916
 10
6.745812194071483
 20
4.609045141228674
 10
6.743249084911931
 20
4.604648934037338
 10
6.741191566585111
 20
4.599548367436465
  0
LINE
  5
397
330
2
100
AcDbEntity
  8
0
100
AcDbLine
 10
6.741191566585111
 20
4.599548367436465
 30
0.0
 11
6.683942240399321
 21
4.425731035970852
 31
0.0
  0
ARC
  5
398
330
2
100
AcDbEntity
  8
0
100
AcDbCircle
 10
6.810506364661049
 20
4.375740571538479
 30
0.0
 40
0.1360791096507564
100
AcDbArc
 50
158.4469060871004
 51
218.9477876243997
  0
LINE
  5
399
330
2
100
AcDbEntity
  8
0
100
AcDbLine
 10
6.704675038647711
 20
4.290199619258971
 30
0.0
 11
6.908127765047887
 21
4.114004389730268
 31
0.0
  0
LWPOLYLINE
  5
39A
330
2
100
AcDbEntity
  8
0
100
AcDbPolyline
 90
        9
 70
   128
 43
0.0
 10
6.908127765047887
 20
4.114004389730268
 10
6.918629599426476
 20
4.107168712352357
 10
6.929885639726014
 20
4.104111334932259
 10
6.941463580357437
 20
4.104949733605211
 10
6.95291781375751
 20
4.109651623432363
 10
6.963810381077209
 20
4.118036903968712
 10
6.973719668036793
 20
4.129782439537612
 10
6.982265489997377
 20
4.144437108803201
 10
6.989121353681522
 20
4.161438171169791
  0
ARC
  5
39B
330
2
100
AcDbEntity
  8
0
100
AcDbCircle
 10
6.979506255234205
 20
6.29429035455588
 30
0.0
 40
0.2614988071582132
100
AcDbArc
 50
53.53777866929713
 51
85.22706836750108
  0
LINE
  5
39C
330
2
100
AcDbEntity
  8
0
100
AcDbLine
 10
6.291999771568462
 20
6.521191498806727
 30
0.0
 11
6.332690250528975
 21
6.4859525103296
 31
0.0
  0
ARC
  5
39D
330
2
100
AcDbEntity
  8
0
100
AcDbCircle
 10
5.815715004210654
 20
4.675816049318319
 30
0.0
 40
0.0691490909679699
100
AcDbArc
 50
231.2247871519012
 51
289.6828904016963
  0
LINE
  5
39E
330
2
100
AcDbEntity
  8
0
100
AcDbLine
 10
6.338986848132567
 20
6.604748576842922
 30
0.0
 11
7.001264801845501
 21
6.55488235711313
 31
0.0
  0
LINE
  5
39F
330
2
100
AcDbEntity
  8
0
100
AcDbLine
 10
7.175603546653377
 20
6.469361491346298
 30
0.0
 11
7.134913067692782
 21
6.504600479813265
 31
0.0
  0
ARC
  5
3A0
330
2
100
AcDbEntity
  8
0
100
AcDbCircle
 10
7.101518490705039
 20
6.409482939658704
 30
0.0
 40
0.0952577370394631
100
AcDbArc
 50
338.4471897567048
 51
38.94655127820066
  0
ARC
  5
3A1
330
2
100
AcDbEntity
  8
0
100
AcDbCircle
 10
6.311524749083816
 20
6.468844071404986
 30
0.0
 40
0.0272153841419024
100
AcDbArc
 50
338.4477632986961
 51
38.94920519329673
  0
ARC
  5
3A2
330
2
100
AcDbEntity
  8
0
100
AcDbCircle
 10
5.585763435842311
 20
4.554920185127013
 30
0.0
 40
0.09003218261409
100
AcDbArc
 50
287.7679525381044
 51
341.5907760378009
  0
ARC
  5
3A3
330
2
100
AcDbEntity
  8
0
100
AcDbCircle
 10
8.281512214541852
 20
2.220333260544387
 30
0.0
 40
0.0900321826140136
100
AcDbArc
 50
287.7679525381044
 51
341.5907760379009
  0
LINE
  5
3A4
330
2
100
AcDbEntity
  8
0
100
AcDbLine
 10
8.30898667840033
 20
2.134595592383826
 30
0.0
 11
5.613237899690719
 21
4.469182516966451
 31
0.0
  0
ARC
  5
3A5
330
2
100
AcDbEntity
  8
0
100
AcDbCircle
 10
7.517087245476969
 20
2.248185426419824
 30
0.0
 40
0.3288796876169891
100
AcDbArc
 50
237.1360984817999
 51
287.6022525421927
  0
LINE
  5
3A6
330
2
100
AcDbEntity
  8
0
100
AcDbLine
 10
7.338622212183764
 20
1.971939013190917
 30
0.0
 11
4.846326207248357
 21
4.130330667228736
 31
0.0
  0
LWPOLYLINE
  5
3A7
330
2
100
AcDbEntity
  8
0
100
AcDbPolyline
 90
        9
 70
   128
 43
0.0
 10
4.920794106342199
 20
4.269291211723738
 10
4.888375463300586
 20
4.25767579836298
 10
4.86111177355146
 20
4.243121000578794
 10
4.840049739085944
 20
4.226186166148254
 10
4.826000597371644
 20
4.207522388854575
 10
4.819504623528824
 20
4.187847164420083
 10
4.820808259536391
 20
4.167915690251978
 10
4.829865942560108
 20
4.148495028632908
 10
4.846326207248357
 20
4.130330667228736
  0
LINE
  5
3A8
330
2
100
AcDbEntity
  8
0
100
AcDbLine
 10
4.920794106342199
 20
4.269291211723738
 30
0.0
 11
5.613237899690719
 21
4.469182516966451
 31
0.0
  0
LINE
  5
3A9
330
2
100
AcDbEntity
  8
0
100
AcDbLine
 10
8.30898667840033
 20
2.134595592383826
 30
0.0
 11
7.61654288505189
 21
1.93470428714116
 31
0.0
  0
LWPOLYLINE
  5
3AA
330
2
100
AcDbEntity
  8
0
100
AcDbPolyline
 90
        9
 70
   128
 43
0.0
 10
6.475283762077149
 20
3.279105939284286
 10
6.550454352898814
 20
3.291864441368949
 10
6.629668545176983
 20
3.289268720769606
 10
6.700864301476835
 20
3.271713266388812
 10
6.753205735862718
 20
3.241871602449763
 10
6.778722296789917
 20
3.204286264563112
 10
6.773531357580361
 20
3.164679870569966
 10
6.738420181400544
 20
3.129081258835551
 10
6.678736512159265
 20
3.102910689247591
  0
LINE
  5
3AB
330
2
100
AcDbEntity
  8
0
100
AcDbLine
 10
6.299089476091051
 20
3.228243030071833
 30
0.0
 11
6.475283762077149
 21
3.279105939284286
 31
0.0
  0
LWPOLYLINE
  5
3AC
330
2
100
AcDbEntity
  8
0
100
AcDbPolyline
 90
        9
 70
   128
 43
0.0
 10
6.502542226173163
 20
3.052047780024949
 10
6.427371635361733
 20
3.039289277950518
 10
6.348157443083483
 20
3.041884998549783
 10
6.276961686773477
 20
3.059440452930577
 10
6.224620252397747
 20
3.089282116869626
 10
6.19910369146048
 20
3.126867454756319
 10
6.204294630680185
 20
3.166473848749501
 10
6.239405806849767
 20
3.202072460473684
 10
6.299089476091051
 20
3.228243030071833
  0
LINE
  5
3AD
330
2
100
AcDbEntity
  8
0
100
AcDbLine
 10
6.678736512159265
 20
3.102910689247591
 30
0.0
 11
6.502542226173163
 21
3.052047780024949
 31
0.0
  0
LWPOLYLINE
  5
3AE
330
2
100
AcDbEntity
  8
0
100
AcDbPolyline
 90
        6
 70
   128
 43
0.0
 10
6.293230123776837
 20
6.592523167254179
 10
6.295347109010166
 20
6.596254711279992
 10
6.301566398275221
 20
6.600788093348404
 10
6.311179142092784
 20
6.60378108048878
 10
6.323814557151393
 20
6.605118486772446
 10
6.338986848132567
 20
6.604748576842922
  0
ARC
  5
3AF
330
2
100
AcDbEntity
  8
0
100
AcDbCircle
 10
9.052909757945196
 20
4.19776456286749
 30
0.0
 40
0.0240494927386009
100
AcDbArc
 50
91.01537091239954
 51
163.0889158813009
  0
LINE
  5
3B0
330
2
100
AcDbEntity
  8
0
100
AcDbLine
 10
7.042144129027186
 20
5.314806983934404
 30
0.0
 11
7.000751592826632
 21
5.317923677858558
 31
0.0
  0
LINE
  5
3B1
330
2
100
AcDbEntity
  8
0
100
AcDbLine
 10
7.000751592826632
 20
5.317923677858558
 30
0.0
 11
6.998462180459957
 21
5.319789783666181
 31
0.0
  0
ARC
  5
3B2
330
2
100
AcDbEntity
  8
0
100
AcDbCircle
 10
8.725004327321173
 20
3.130406119734991
 30
0.0
 40
0.0961946552451545
100
AcDbArc
 50
271.0145916048997
 51
343.0899246265995
  0
LINE
  5
3B3
330
2
100
AcDbEntity
  8
0
100
AcDbLine
 10
8.889354285105856
 20
3.321984630268377
 30
0.0
 11
8.817039761321135
 21
3.102425937722965
 31
0.0
  0
ARC
  5
3B4
330
2
100
AcDbEntity
  8
0
100
AcDbCircle
 10
8.840586984998287
 20
3.346142084784986
 30
0.0
 40
0.0544227173932807
100
AcDbArc
 50
333.6479453033988
 51
82.98683627680143
  0
LINE
  5
3B5
330
2
100
AcDbEntity
  8
0
100
AcDbLine
 10
9.012952967937831
 20
3.903312947517869
 30
0.0
 11
9.120572774410391
 21
3.89520957849416
 31
0.0
  0
LINE
  5
3B6
330
2
100
AcDbEntity
  8
0
100
AcDbLine
 10
9.159744126019038
 20
4.014137508354052
 30
0.0
 11
9.120572774410391
 21
3.89520957849416
 31
0.0
  0
ARC
  5
3B7
330
2
100
AcDbEntity
  8
0
100
AcDbCircle
 10
9.030205969698473
 20
2.938066166303873
 30
0.0
 40
0.0204082675700179
100
AcDbArc
 50
153.6475781335
 51
262.9889434904017
  0
LINE
  5
3B8
330
2
100
AcDbEntity
  8
0
100
AcDbLine
 10
9.185005506061783
 20
2.905967177557317
 30
0.0
 11
9.0277149186981
 21
2.91781049919667
 31
0.0
  0
ARC
  5
3B9
330
2
100
AcDbEntity
  8
0
100
AcDbCircle
 10
9.182877310165343
 20
3.026190747162361
 30
0.0
 40
0.1202424047735096
100
AcDbArc
 50
271.0141431408977
 51
343.0903272024994
  0
LINE
  5
3BA
330
2
100
AcDbEntity
  8
0
100
AcDbLine
 10
9.418446492716682
 20
3.357148086091622
 30
0.0
 11
9.297920973660591
 21
2.991216593910913
 31
0.0
  0
ARC
  5
3BB
330
2
100
AcDbEntity
  8
0
100
AcDbCircle
 10
9.357485558615289
 20
3.387343793616859
 30
0.0
 40
0.0680295247626542
100
AcDbArc
 50
333.6494597713016
 51
82.98569660479783
  0
LINE
  5
3BC
330
2
100
AcDbEntity
  8
0
100
AcDbLine
 10
9.208501228139438
 20
3.466707148502576
 30
0.0
 11
9.365793128261492
 21
3.454864164808359
 31
0.0
  0
ARC
  5
3BD
330
2
100
AcDbEntity
  8
0
100
AcDbCircle
 10
9.209139877705291
 20
3.43064015485782
 30
0.0
 40
0.0360726475847375
100
AcDbArc
 50
91.01444831259879
 51
163.0903211841984
  0
LINE
  5
3BE
330
2
100
AcDbEntity
  8
0
100
AcDbLine
 10
9.011918515534224
 20
2.947125217324853
 30
0.0
 11
9.174626850415499
 21
3.441132382981306
 31
0.0
  0
LINE
  5
3BF
330
2
100
AcDbEntity
  8
0
100
AcDbLine
 10
9.534115729839655
 20
2.475748181861946
 30
0.0
 11
10.01302255587293
 21
3.92978017641936
 31
0.0
  0
ARC
  5
3C0
330
2
100
AcDbEntity
  8
0
100
AcDbCircle
 10
9.412087054390475
 20
2.516358837207949
 30
0.0
 40
0.1286087981378252
100
AcDbArc
 50
287.7671609107019
 51
341.5927637648004
  0
LINE
  5
3C1
330
2
100
AcDbEntity
  8
0
100
AcDbLine
 10
9.451331970186766
 20
2.393884106996254
 30
0.0
 11
9.342366662119069
 21
2.36242853202257
 31
0.0
  0
SPLINE
  5
3C2
330
2
100
AcDbEntity
  8
0
100
AcDbSpline
210
0.0
220
0.0
230
1.0
 70
     8
 71
     3
 72
    11
 73
     7
 74
     0
 42
0.000000001
 43
0.0000000001
 40
0.0
 40
0.0
 40
0.0
 40
0.0
 40
0.2500008980131977
 40
0.4999945491153201
 40
0.7499934820642217
 40
1.0
 40
1.0
 40
1.0
 40
1.0
 10
8.70074256516419
 20
3.046606648049462
 30
0.0
 10
8.702261041485524
 20
3.04523998715862
 30
0.0
 10
8.705297950111162
 20
3.042506704993082
 30
0.0
 10
8.712297280516171
 20
3.038724920235524
 30
0.0
 10
8.719931395034656
 20
3.03569469083382
 30
0.0
 10
8.724448875366052
 20
3.034715932609108
 30
0.0
 10
8.726707649796418
 20
3.034226546072941
 30
0.0
  0
ARC
  5
3C3
330
2
100
AcDbEntity
  8
0
100
AcDbCircle
 10
9.207403142429255
 20
4.006514331733366
 30
0.0
 40
0.0482648388287888
100
AcDbArc
 50
97.99005346269836
 51
170.9123793011008
  0
LWPOLYLINE
  5
3C4
330
2
100
AcDbEntity
  8
0
100
AcDbPolyline
 90
        9
 70
   128
 43
0.0
 10
10.02922072954673
 20
3.939266838549337
 10
10.02712059206193
 20
3.940634037516412
 10
10.02486961340312
 20
3.941245576485819
 10
10.02255434466512
 20
3.941077923309943
 10
10.02026324491228
 20
3.940137469558385
 10
10.01808440730947
 20
3.938460366372142
 10
10.01610338020413
 20
3.936111457913666
 10
10.0143929220092
 20
3.933180120493767
 10
10.01302255587293
 20
3.92978017641936
  0
LINE
  5
3C5
330
2
100
AcDbEntity
  8
0
100
AcDbLine
 10
10.02922072954673
 20
3.939266838549337
 30
0.0
 11
10.06991120850725
 21
3.904027850082358
 31
0.0
  0
LINE
  5
3C6
330
2
100
AcDbEntity
  8
0
100
AcDbLine
 10
10.04428723990404
 20
3.985008537564089
 30
0.0
 11
10.08497771886463
 21
3.949769549097153
 31
0.0
  0
LWPOLYLINE
  5
3C7
330
2
100
AcDbEntity
  8
0
100
AcDbPolyline
 90
        9
 70
   128
 43
0.0
 10
10.0379906423106
 20
3.866212471060951
 10
10.05316293329177
 20
3.865842561131426
 10
10.06579834835038
 20
3.867179967404909
 10
10.07541109216794
 20
3.870172954555476
 10
10.081630381433
 20
3.874706336623845
 10
10.08421734790856
 20
3.880605918940372
 10
10.08307451147618
 20
3.887645608635174
 10
10.07824443963746
 20
3.895554302500357
 10
10.06991120850725
 20
3.904027850082358
  0
LINE
  5
3C8
330
2
100
AcDbEntity
  8
0
100
AcDbLine
 10
9.993196753105097
 20
3.869585372746404
 30
0.0
 11
10.0379906423106
 21
3.866212471060951
 31
0.0
  0
LWPOLYLINE
  5
3C9
330
2
100
AcDbEntity
  8
0
100
AcDbPolyline
 90
        5
 70
   128
 43
0.0
 10
10.08497771886463
 20
3.949769549097153
 10
10.0933096372363
 20
3.941295622553865
 10
10.09813970907511
 20
3.933386928688682
 10
10.09928385826586
 20
3.926347617955118
 10
10.09881256425503
 20
3.924179200693054
  0
ARC
  5
3CA
330
2
100
AcDbEntity
  8
0
100
AcDbCircle
 10
9.017306460714591
 20
3.955433841411831
 30
0.0
 40
0.0523023945934767
100
AcDbArc
 50
233.5382219833973
 51
265.2253486921031
  0
SPLINE
  5
3CB
330
2
100
AcDbEntity
  8
0
100
AcDbSpline
210
0.0
220
0.0
230
1.0
 70
     8
 71
     3
 72
    11
 73
     7
 74
     0
 42
0.000000001
 43
0.0000000001
 40
0.0
 40
0.0
 40
0.0
 40
0.0
 40
0.2499849550576336
 40
0.5000043246191953
 40
0.7500107420831888
 40
1.0
 40
1.0
 40
1.0
 40
1.0
 10
8.847231856091072
 20
3.400157618261723
 30
0.0
 10
8.84484572263501
 20
3.400259789601471
 30
0.0
 10
8.840073127232837
 20
3.400464146346427
 30
0.0
 10
8.832056447162527
 20
3.402332182633188
 30
0.0
 10
8.824673127250445
 20
3.404951220083194
 30
0.0
 10
8.821382611260556
 20
3.406910534836243
 30
0.0
 10
8.819737409729908
 20
3.407890158591538
 30
0.0
  0
LINE
  5
3CC
330
2
100
AcDbEntity
  8
0
100
AcDbLine
 10
3.672295981667858
 20
6.051977188630293
 30
0.0
 11
3.658705858765338
 21
6.053191914895116
 31
0.0
  0
LINE
  5
3CD
330
2
100
AcDbEntity
  8
0
100
AcDbLine
 10
5.854110476637512
 20
5.664634678603233
 30
0.0
 11
5.436642975066638
 21
6.02617214022155
 31
0.0
  0
ARC
  5
3CE
330
2
100
AcDbEntity
  8
0
100
AcDbCircle
 10
4.631815766981828
 20
3.240035536347687
 30
0.0
 40
0.0247972727497256
100
AcDbArc
 50
331.1040592006978
 51
32.48287448140535
  0
ELLIPSE
  5
3CF
330
2
100
AcDbEntity
  8
0
100
AcDbEllipse
 10
4.64880768606028
 20
3.175477848427938
 30
0.0
 11
0.0600034594187845
 21
0.0957345990447751
 31
0.0
210
0.0
220
0.0
230
1.0
 40
0.2945542466
 41
6.237537654344557
 42
6.941786914968744
  0
ELLIPSE
  5
3D0
330
2
100
AcDbEntity
  8
0
100
AcDbEllipse
 10
4.639377684989455
 20
3.168358359888962
 30
0.0
 11
0.1028926942808113
 21
0.0220547740675448
 31
0.0
210
0.0
220
0.0
230
1.0
 40
0.2601647544
 41
2.693902237372129
 42
3.335243632973141
  0
LINE
  5
3D1
330
2
100
AcDbEntity
  8
0
100
AcDbLine
 10
6.400374879605797
 20
6.978363407840355
 30
0.0
 11
6.23058422153523
 21
6.462852715799315
 31
0.0
  0
LINE
  5
3D2
330
2
100
AcDbEntity
  8
0
100
AcDbLine
 10
3.622781888014367
 20
7.188239117337662
 30
0.0
 11
4.4358547333562
 21
6.48409737814225
 31
0.0
  0
LINE
  5
3D3
330
2
100
AcDbEntity
  8
0
100
AcDbLine
 10
8.567129870906734
 20
5.064647467861703
 30
0.0
 11
8.574672139326617
 21
5.058115671810034
 31
0.0
  0
LINE
  5
3D4
330
2
100
AcDbEntity
  8
0
100
AcDbLine
 10
9.029900229526203
 20
4.204760254584702
 30
0.0
 11
7.042395728349988
 21
5.925989642741356
 31
0.0
  0
LINE
  5
3D5
330
2
100
AcDbEntity
  8
0
100
AcDbLine
 10
25.30109361967595
 20
11.9662647680708
 30
0.0
 11
25.34045871775872
 21
11.94311157555187
 31
0.0
  0
LINE
  5
3D6
330
2
100
AcDbEntity
  8
0
100
AcDbLine
 10
3.834189563523135
 20
7.334054980070102
 30
0.0
 11
3.871896657162404
 21
7.358503702961969
 31
0.0
  0
LINE
  5
3D7
330
2
100
AcDbEntity
  8
0
100
AcDbLine
 10
5.000748375104629
 20
7.245693192217033
 30
0.0
 11
5.008843573801903
 21
7.225594239771176
 31
0.0
  0
ARC
  5
3D8
330
2
100
AcDbEntity
  8
0
100
AcDbCircle
 10
6.308746315538505
 20
6.54678163233422
 30
0.0
 40
0.0305827021189741
100
AcDbArc
 50
180.0
 51
236.7986991297108
  0
LINE
  5
3D9
330
2
100
AcDbEntity
  8
0
100
AcDbLine
 10
28.08576640796472
 20
13.33507858773877
 30
0.0
 11
27.77742443835904
 21
13.24606792816244
 31
0.0
  0
ARC
  5
3DA
330
2
100
AcDbEntity
  8
0
100
AcDbCircle
 10
10.02854105823202
 20
3.970704727563863
 30
0.0
 40
0.0212730161888547
100
AcDbArc
 50
42.25196494832569
 51
90.0
  0
ARC
  5
3DB
330
2
100
AcDbEntity
  8
0
100
AcDbCircle
 10
8.3108963125393
 20
5.484197629574217
 30
0.0
 40
0.0316098582129913
100
AcDbArc
 50
306.7378456754335
 51
0.0
  0
ARC
  5
3DC
330
2
100
AcDbEntity
  8
0
100
AcDbCircle
 10
8.083769281361179
 20
5.372555754045034
 30
0.0
 40
0.4779160206489111
100
AcDbArc
 50
37.8789765818889
 51
60.33423412112893
  0
LINE
  5
3DD
330
2
100
AcDbEntity
  8
0
100
AcDbLine
 10
7.740192849337316
 20
5.858831455829525
 30
0.0
 11
7.809619556786371
 21
5.890580741064134
 31
0.0
  0
SPLINE
  5
3DE
330
2
100
AcDbEntity
  8
0
100
AcDbSpline
210
0.0
220
0.0
230
1.0
 70
     8
 71
     3
 72
    10
 73
     6
 74
     0
 42
0.000000001
 43
0.0000000001
 40
0.0
 40
0.0
 40
0.0
 40
0.0
 40
0.223414656091903
 40
0.6496074072459033
 40
1.0
 40
1.0
 40
1.0
 40
1.0
 10
7.844395470072543
 20
5.944942374049912
 30
0.0
 10
7.849426901062138
 20
5.955741795745643
 30
0.0
 10
7.864056446397738
 20
5.987142530371778
 30
0.0
 10
7.902815561750808
 20
6.023301233473055
 30
0.0
 10
7.929903886022064
 20
6.038763683175474
 30
0.0
 10
7.94212604325077
 20
6.045740286434953
 30
0.0
  0
LINE
  5
3DF
330
2
100
AcDbEntity
  8
0
100
AcDbLine
 10
7.833874331080109
 20
5.92468572390394
 30
0.0
 11
7.844395470071979
 21
5.944942374054098
 31
0.0
  0
SPLINE
  5
3E0
330
2
100
AcDbEntity
  8
0
100
AcDbSpline
210
0.0
220
0.0
230
1.0
 70
     8
 71
     3
 72
     9
 73
     5
 74
     0
 42
0.000000001
 43
0.0000000001
 40
0.0
 40
0.0
 40
0.0
 40
0.0
 40
0.3637854744933605
 40
1.0
 40
1.0
 40
1.0
 40
1.0
 10
7.516125943651662
 20
6.161362774927581
 30
0.0
 10
7.514547004539917
 20
6.169883903256238
 30
0.0
 10
7.510206701744822
 20
6.193307401241001
 30
0.0
 10
7.504938240961056
 20
6.216050343646865
 30
0.0
 10
7.501586369683461
 20
6.230519733958264
 30
0.0
  0
SPLINE
  5
3E1
330
2
100
AcDbEntity
  8
0
100
AcDbSpline
210
0.0
220
0.0
230
1.0
 70
     8
 71
     3
 72
     9
 73
     5
 74
     0
 42
0.000000001
 43
0.0000000001
 40
0.0
 40
0.0
 40
0.0
 40
0.0
 40
0.4931078804754943
 40
1.0
 40
1.0
 40
1.0
 40
1.0
 10
7.797594139617654
 20
6.140169658695224
 30
0.0
 10
7.78954505027071
 20
6.126122411679566
 30
0.0
 10
7.773221868943468
 20
6.097635243715083
 30
0.0
 10
7.764164122343943
 20
6.065729271314714
 30
0.0
 10
7.759572821972045
 20
6.049556385339224
 30
0.0
  0
SPLINE
  5
3E2
330
2
100
AcDbEntity
  8
0
100
AcDbSpline
210
0.0
220
0.0
230
1.0
 70
     8
 71
     3
 72
     9
 73
     5
 74
     0
 42
0.000000001
 43
0.0000000001
 40
0.0
 40
0.0
 40
0.0
 40
0.0
 40
0.3964137364449641
 40
1.0
 40
1.0
 40
1.0
 40
1.0
 10
7.759572821972045
 20
6.049556385339224
 30
0.0
 10
7.753136505026655
 20
6.042040838448327
 30
0.0
 10
7.736900142979578
 20
6.023081992676995
 30
0.0
 10
7.719168166921742
 20
6.006792900770595
 30
0.0
 10
7.708465389747502
 20
5.996961028650109
 30
0.0
  0
LINE
  5
3E3
330
2
100
AcDbEntity
  8
0
100
AcDbLine
 10
7.514800935622125
 20
6.011542820953828
 30
0.0
 11
7.52463135423874
 21
6.067246540037252
 31
0.0
  0
SPLINE
  5
3E4
330
2
100
AcDbEntity
  8
0
100
AcDbSpline
210
0.0
220
0.0
230
1.0
 70
     8
 71
     3
 72
     9
 73
     5
 74
     0
 42
0.000000001
 43
0.0000000001
 40
0.0
 40
0.0
 40
0.0
 40
0.0
 40
0.3822979274184181
 40
1.0
 40
1.0
 40
1.0
 40
1.0
 10
7.524631354243656
 20
6.067246540041204
 30
0.0
 10
7.525228973304803
 20
6.079654396232871
 30
0.0
 10
7.526792201923821
 20
6.11211038226309
 30
0.0
 10
7.520198739225727
 20
6.142556280490748
 30
0.0
 10
7.516125943651662
 20
6.161362774927581
 30
0.0
  0
LINE
  5
3E5
330
2
100
AcDbEntity
  8
0
100
AcDbLine
 10
7.501586369683461
 20
6.230519733958906
 30
0.0
 11
7.5048540927821
 21
6.261760816058091
 31
0.0
  0
ARC
  5
3E6
330
2
100
AcDbEntity
  8
0
100
AcDbCircle
 10
7.620721271792371
 20
5.920902630843649
 30
0.0
 40
0.360013201981546
100
AcDbArc
 50
62.61379871470369
 51
108.7743259455002
  0
LINE
  5
3E7
330
2
100
AcDbEntity
  8
0
100
AcDbLine
 10
7.708016060130552
 20
5.914789485131566
 30
0.0
 11
7.705693793269266
 21
5.913115583864255
 31
0.0
  0
LWPOLYLINE
  5
3E8
330
2
100
AcDbEntity
  8
0
100
AcDbPolyline
 90
        9
 70
   128
 43
0.0
 10
7.550671649741167
 20
5.924788393979504
 10
7.551190441299843
 20
5.934683789562329
 10
7.559731265525194
 20
5.941777300665401
 10
7.575597334440593
 20
5.945491348915259
 10
7.597500386727931
 20
5.945524387178543
 10
7.623656049923638
 20
5.941873122582801
 10
7.651937993833724
 20
5.934834707672005
 10
7.680046715313588
 20
5.92498192267164
 10
7.705693793269266
 20
5.913115583864255
  0
LINE
  5
3E9
330
2
100
AcDbEntity
  8
0
100
AcDbLine
 10
7.550671649741167
 20
5.924788393979504
 30
0.0
 11
7.549537427823416
 21
5.926722360085587
 31
0.0
  0
LINE
  5
3EA
330
2
100
AcDbEntity
  8
0
100
AcDbLine
 10
7.549537427823416
 20
5.926722360085587
 30
0.0
 11
7.514800935622125
 21
6.011542820953828
 31
0.0
  0
LINE
  5
3EB
330
2
100
AcDbEntity
  8
0
100
AcDbLine
 10
7.708465389749757
 20
5.996961028653167
 30
0.0
 11
7.708016060130552
 21
5.914789485131566
 31
0.0
  0
LINE
  5
3EC
330
2
100
AcDbEntity
  8
0
100
AcDbLine
 10
7.706828015187017
 20
5.913030307594134
 30
0.0
 11
7.750061696453423
 21
5.875588841323013
 31
0.0
  0
LINE
  5
3ED
330
2
100
AcDbEntity
  8
0
100
AcDbLine
 10
7.706828015187017
 20
5.913030307594134
 30
0.0
 11
7.708016060130552
 21
5.914789485131566
 31
0.0
  0
LINE
  5
3EE
330
2
100
AcDbEntity
  8
0
100
AcDbLine
 10
7.811676993508247
 20
6.228318171224126
 30
0.0
 11
7.786322288747528
 21
6.240567781872369
 31
0.0
  0
LINE
  5
3EF
330
2
100
AcDbEntity
  8
0
100
AcDbLine
 10
7.811676993508247
 20
6.228318171224126
 30
0.0
 11
7.797594139613867
 21
6.140169658697887
 31
0.0
  0
LWPOLYLINE
  5
3F0
330
2
100
AcDbEntity
  8
0
100
AcDbPolyline
 90
        9
 70
   128
 43
0.0
 10
7.748927474535674
 20
5.87567411759314
 10
7.748408682976998
 20
5.865778722010317
 10
7.739867858751564
 20
5.858685210907243
 10
7.724001789836246
 20
5.854971162657385
 10
7.702100050307362
 20
5.85493842130287
 10
7.675943074353204
 20
5.858589388989878
 10
7.647661130443114
 20
5.865627803900639
 10
7.619552408963254
 20
5.875480588901004
 10
7.593905331007572
 20
5.88734692770839
  0
LINE
  5
3F1
330
2
100
AcDbEntity
  8
0
100
AcDbLine
 10
7.592771109089743
 20
5.887432203978475
 30
0.0
 11
7.593905331007572
 21
5.88734692770839
 31
0.0
  0
LINE
  5
3F2
330
2
100
AcDbEntity
  8
0
100
AcDbLine
 10
7.549537427823416
 20
5.924873670249631
 30
0.0
 11
7.592771109089743
 21
5.887432203978475
 31
0.0
  0
LINE
  5
3F3
330
2
100
AcDbEntity
  8
0
100
AcDbLine
 10
7.549537427823416
 20
5.924873670249631
 30
0.0
 11
7.550671649741167
 21
5.924788393979504
 31
0.0
  0
LINE
  5
3F4
330
2
100
AcDbEntity
  8
0
100
AcDbLine
 10
7.705693793269266
 20
5.913115583864255
 30
0.0
 11
7.706828015187017
 21
5.913030307594134
 31
0.0
  0
LINE
  5
3F5
330
2
100
AcDbEntity
  8
0
100
AcDbLine
 10
7.748927474535674
 20
5.87567411759314
 30
0.0
 11
7.750061696453423
 21
5.875588841323013
 31
0.0
  0
LWPOLYLINE
  5
3F6
330
2
100
AcDbEntity
  8
0
100
AcDbPolyline
 90
        3
 70
   128
 43
0.0
 10
7.821172055428735
 20
5.899354193000366
 10
7.811520485422672
 20
5.891506471907288
 10
7.809619556786371
 20
5.890580741064134
  0
LINE
  5
3F7
330
2
100
AcDbEntity
  8
0
100
AcDbLine
 10
7.958545851371101
 20
6.057346788195543
 30
0.0
 11
7.944482754406074
 21
6.04712506848586
 31
0.0
  0
LINE
  5
3F8
330
2
100
AcDbEntity
  8
0
100
AcDbLine
 10
7.549537427823416
 20
5.926722360085587
 30
0.0
 11
7.549537427823416
 21
5.924873670249631
 31
0.0
  0
SPLINE
  5
3F9
330
2
100
AcDbEntity
  8
0
100
AcDbSpline
210
0.0
220
0.0
230
1.0
 70
     8
 71
     3
 72
     9
 73
     5
 74
     0
 42
0.000000001
 43
0.0000000001
 40
0.0
 40
0.0
 40
0.0
 40
0.0
 40
0.690265050481048
 40
1.0
 40
1.0
 40
1.0
 40
1.0
 10
7.972740419869955
 20
6.079124944599337
 30
0.0
 10
7.968087521681658
 20
6.085496148957358
 30
0.0
 10
7.961346780302462
 20
6.094726232899247
 30
0.0
 10
7.954486066431905
 20
6.103702064041897
 30
0.0
 10
7.952361063567543
 20
6.106482192647793
 30
0.0
  0
LINE
  5
3FA
330
2
100
AcDbEntity
  8
0
100
AcDbLine
 10
7.958545851371101
 20
6.057346788195543
 30
0.0
 11
7.972740419873341
 21
6.079124944599253
 31
0.0
  0
ARC
  5
3FB
330
2
100
AcDbEntity
  8
0
100
AcDbCircle
 10
7.802264472867079
 20
5.92468572390394
 30
0.0
 40
0.0316098582129913
100
AcDbArc
 50
306.7378456754335
 51
0.0
  0
ARC
  5
3FC
330
2
100
AcDbEntity
  8
0
100
AcDbCircle
 10
7.575137441688875
 20
5.813043848374764
 30
0.0
 40
0.4779160206489111
100
AcDbArc
 50
37.8789765818889
 51
60.33423412112893
  0
LINE
  5
3FD
330
2
100
AcDbEntity
  8
0
100
AcDbLine
 10
5.060064564954326
 20
7.29908580390336
 30
0.0
 11
5.575026555389802
 21
7.262988518182085
 31
0.0
  0
ENDSEC
  0
SECTION
  2
OBJECTS
  0
DICTIONARY
  5
A
330
0
100
AcDbDictionary
281
     1
  3
ACAD_COLOR
350
3E
  3
ACAD_GROUP
350
33
  3
ACAD_LAYOUT
350
18
  3
ACAD_MATERIAL
350
C
  3
ACAD_MLEADERSTYLE
350
41
  3
ACAD_MLINESTYLE
350
34
  3
ACAD_PLOTSETTINGS
350
35
  3
ACAD_PLOTSTYLENAME
350
9
  3
ACAD_SCALELIST
350
3F
  3
ACAD_TABLESTYLE
350
40
  3
ACAD_VISUALSTYLE
350
2D
  3
ACDB_RECOMPOSE_DATA
350
40D
  3
AcDbVariableDictionary
350
3FF
  3
AcDsDecomposeData
350
413
  0
DICTIONARY
  5
20
330
1F
100
AcDbDictionary
280
     1
281
     1
  3
ACAD_LAYERSTATES
360
21
  0
DICTIONARY
  5
7
330
6
100
AcDbDictionary
280
     1
281
     1
  0
DICTIONARY
  5
3
330
2
100
AcDbDictionary
280
     1
281
     1
  3
ACAD_SORTENTS
360
3FE
  0
DICTIONARY
  5
3E
102
{ACAD_REACTORS
330
A
102
}
330
A
100
AcDbDictionary
281
     1
  0
DICTIONARY
  5
33
102
{ACAD_REACTORS
330
A
102
}
330
A
100
AcDbDictionary
281
     1
  0
DICTIONARY
  5
18
102
{ACAD_REACTORS
330
A
102
}
330
A
100
AcDbDictionary
281
     1
  3
Model
350
17
  3
レイアウト1
350
1E
  0
DICTIONARY
  5
C
102
{ACAD_REACTORS
330
A
102
}
330
A
100
AcDbDictionary
281
     1
  3
ByBlock
350
3A
  3
ByLayer
350
36
  3
Global
350
B
  0
DICTIONARY
  5
41
102
{ACAD_REACTORS
330
A
102
}
330
A
100
AcDbDictionary
281
     1
  0
DICTIONARY
  5
34
102
{ACAD_REACTORS
330
A
102
}
330
A
100
AcDbDictionary
281
     1
  3
Standard
350
42
  0
DICTIONARY
  5
35
102
{ACAD_REACTORS
330
A
102
}
330
A
100
AcDbDictionary
281
     1
  0
ACDBDICTIONARYWDFLT
  5
9
102
{ACAD_REACTORS
330
A
102
}
330
A
100
AcDbDictionary
281
     1
  3
Normal
350
8
100
AcDbDictionaryWithDefault
340
8
  0
DICTIONARY
  5
3F
102
{ACAD_REACTORS
330
A
102
}
330
A
100
AcDbDictionary
281
     1
  3
A0
350
47
  3
A1
350
48
  3
A2
350
49
  3
A3
350
4A
  3
A4
350
4B
  3
A5
350
4C
  3
A6
350
4D
  3
A7
350
4E
  3
A8
350
4F
  3
A9
350
50
  3
B0
350
51
  3
B1
350
52
  3
B2
350
53
  3
B3
350
54
  3
B4
350
55
  3
B5
350
56
  3
B6
350
57
  0
DICTIONARY
  5
40
102
{ACAD_REACTORS
330
A
102
}
330
A
100
AcDbDictionary
281
     1
  3
Standard
350
43
  0
DICTIONARY
  5
2D
102
{ACAD_REACTORS
330
A
102
}
330
A
100
AcDbDictionary
281
     1
  3
2dWireframe
350
2C
  3
Realistic
350
45
  3
Wireframe
350
46
  0
XRECORD
  5
40D
102
{ACAD_REACTORS
330
A
102
}
330
A
100
AcDbXrecord
280
     1
 90
        1
330
43
  0
DICTIONARY
  5
3FF
102
{ACAD_REACTORS
330
A
102
}
330
A
100
AcDbDictionary
281
     1
  3
CANNOSCALE
350
405
  3
CMLEADERSTYLE
350
401
  3
CTABLESTYLE
350
400
  3
CVIEWDETAILSTYLE
350
402
  3
CVIEWSECTIONSTYLE
350
403
  3
LAYEREVAL
350
407
  3
LAYERNOTIFY
350
408
  3
LIGHTINGUNITS
350
406
  3
MSLTSCALE
350
404
  3
PSOLHEIGHT
350
40A
  3
PSOLWIDTH
350
409
  3
XCLIPFRAME
350
40B
  0
DICTIONARY
  5
413
102
{ACAD_REACTORS
330
A
102
}
330
A
100
AcDbDictionary
281
     1
  3
AcDsRecords
350
415
  3
AcDsSchemas
350
414
1001
ACAD
1070
     2
  0
DICTIONARY
  5
21
102
{ACAD_REACTORS
330
20
102
}
330
20
100
AcDbDictionary
281
     1
  0
SORTENTSTABLE
  5
3FE
102
{ACAD_REACTORS
330
3
102
}
330
3
100
AcDbSortentsTable
330
2
  0
LAYOUT
  5
17
102
{ACAD_XDICTIONARY
360
19
102
}
102
{ACAD_REACTORS
330
18
102
}
330
18
100
AcDbPlotSettings
  1

  2
none_device
  4
ISO_A4_(210.00_x_297.00_MM)
  6

 40
7.5
 41
20.0
 42
7.5
 43
20.0
 44
210.0
 45
297.0
 46
11.54999923706054
 47
-13.65000009536743
 48
0.0
 49
0.0
140
0.0
141
0.0
142
1.0
143
8.704084754739808
 70
 11952
 72
     1
 73
     0
 74
     0
  7

 75
     0
147
0.1148885871608098
 76
     0
 77
     2
 78
   300
148
0.0
149
0.0
100
AcDbLayout
  1
Model
 70
     1
 71
     0
 10
0.0
 20
0.0
 11
12.0
 21
9.0
 12
0.0
 22
0.0
 32
0.0
 14
0.0
 24
0.0
 34
0.0
 15
0.0
 25
0.0
 35
0.0
146
0.0
 13
0.0
 23
0.0
 33
0.0
 16
1.0
 26
0.0
 36
0.0
 17
0.0
 27
1.0
 37
0.0
 76
     0
330
2
331
2B
1001
ACAD_PSEXT
1000
None
1000
None
1000
Not applicable
1000
The layout will not be plotted unless a new plotter configuration name is selected.
1070
     0
  0
LAYOUT
  5
1E
102
{ACAD_REACTORS
330
18
102
}
330
18
100
AcDbPlotSettings
  1

  2
C:\Documents and Settings\basas\Application Data\Autodesk\AutoCAD 2005\R16.1\enu\plotters\Default Windows System Printer.pc3
  4

  6

 40
0.0
 41
0.0
 42
0.0
 43
0.0
 44
0.0
 45
0.0
 46
0.0
 47
0.0
 48
0.0
 49
0.0
140
0.0
141
0.0
142
1.0
143
1.0
 70
   688
 72
     0
 73
     0
 74
     5
  7

 75
    16
147
1.0
 76
     0
 77
     2
 78
   300
148
0.0
149
0.0
100
AcDbLayout
  1
レイアウト1
 70
     1
 71
     1
 10
0.0
 20
0.0
 11
12.0
 21
9.0
 12
0.0
 22
0.0
 32
0.0
 14
0.0
 24
0.0
 34
0.0
 15
0.0
 25
0.0
 35
0.0
146
0.0
 13
0.0
 23
0.0
 33
0.0
 16
1.0
 26
0.0
 36
0.0
 17
0.0
 27
1.0
 37
0.0
 76
     0
330
1B
  0
MATERIAL
  5
3A
102
{ACAD_XDICTIONARY
360
3B
102
}
102
{ACAD_REACTORS
330
C
102
}
330
C
100
AcDbMaterial
  1
ByBlock
  0
MATERIAL
  5
36
102
{ACAD_XDICTIONARY
360
37
102
}
102
{ACAD_REACTORS
330
C
102
}
330
C
100
AcDbMaterial
  1
ByLayer
  0
MATERIAL
  5
B
102
{ACAD_XDICTIONARY
360
D
102
}
102
{ACAD_REACTORS
330
C
102
}
330
C
100
AcDbMaterial
  1
Global
 43
0.0007999999797903
 43
0.0
 43
0.0
 43
0.0
 43
0.0
 43
0.0007999999797903
 43
0.0
 43
0.0
 43
0.0
 43
0.0
 43
1.0
 43
0.0
 43
0.0
 43
0.0
 43
0.0
 43
1.0
 49
0.0007999999797903
 49
0.0
 49
0.0
 49
0.0
 49
0.0
 49
0.0007999999797903
 49
0.0
 49
0.0
 49
0.0
 49
0.0
 49
1.0
 49
0.0
 49
0.0
 49
0.0
 49
0.0
 49
1.0
142
0.0007999999797903
142
0.0
142
0.0
142
0.0
142
0.0
142
0.0007999999797903
142
0.0
142
0.0
142
0.0
142
0.0
142
1.0
142
0.0
142
0.0
142
0.0
142
0.0
142
1.0
144
0.0007999999797903
144
0.0
144
0.0
144
0.0
144
0.0
144
0.0007999999797903
144
0.0
144
0.0
144
0.0
144
0.0
144
1.0
144
0.0
144
0.0
144
0.0
144
0.0
144
1.0
1001
ACAD
1070
    -1
1070
     3
1070
     0
1000

1071
        0
1070
     0
  0
MLINESTYLE
  5
42
102
{ACAD_REACTORS
330
34
102
}
330
34
100
AcDbMlineStyle
  2
STANDARD
 70
     0
  3

 62
   256
 51
90.0
 52
90.0
 71
     2
 49
0.5
 62
   256
  6
BYLAYER
 49
-0.5
 62
   256
  6
BYLAYER
  0
ACDBPLACEHOLDER
  5
8
102
{ACAD_REACTORS
330
9
102
}
330
9
  0
SCALE
  5
47
102
{ACAD_REACTORS
330
3F
102
}
330
3F
100
AcDbScale
 70
     0
300
1:1
140
1.0
141
1.0
290
     1
  0
SCALE
  5
48
102
{ACAD_REACTORS
330
3F
102
}
330
3F
100
AcDbScale
 70
     0
300
1:2
140
1.0
141
2.0
290
     0
  0
SCALE
  5
49
102
{ACAD_REACTORS
330
3F
102
}
330
3F
100
AcDbScale
 70
     0
300
1:4
140
1.0
141
4.0
290
     0
  0
SCALE
  5
4A
102
{ACAD_REACTORS
330
3F
102
}
330
3F
100
AcDbScale
 70
     0
300
1:5
140
1.0
141
5.0
290
     0
  0
SCALE
  5
4B
102
{ACAD_REACTORS
330
3F
102
}
330
3F
100
AcDbScale
 70
     0
300
1:8
140
1.0
141
8.0
290
     0
  0
SCALE
  5
4C
102
{ACAD_REACTORS
330
3F
102
}
330
3F
100
AcDbScale
 70
     0
300
1:10
140
1.0
141
10.0
290
     0
  0
SCALE
  5
4D
102
{ACAD_REACTORS
330
3F
102
}
330
3F
100
AcDbScale
 70
     0
300
1:16
140
1.0
141
16.0
290
     0
  0
SCALE
  5
4E
102
{ACAD_REACTORS
330
3F
102
}
330
3F
100
AcDbScale
 70
     0
300
1:20
140
1.0
141
20.0
290
     0
  0
SCALE
  5
4F
102
{ACAD_REACTORS
330
3F
102
}
330
3F
100
AcDbScale
 70
     0
300
1:30
140
1.0
141
30.0
290
     0
  0
SCALE
  5
50
102
{ACAD_REACTORS
330
3F
102
}
330
3F
100
AcDbScale
 70
     0
300
1:40
140
1.0
141
40.0
290
     0
  0
SCALE
  5
51
102
{ACAD_REACTORS
330
3F
102
}
330
3F
100
AcDbScale
 70
     0
300
1:50
140
1.0
141
50.0
290
     0
  0
SCALE
  5
52
102
{ACAD_REACTORS
330
3F
102
}
330
3F
100
AcDbScale
 70
     0
300
1:100
140
1.0
141
100.0
290
     0
  0
SCALE
  5
53
102
{ACAD_REACTORS
330
3F
102
}
330
3F
100
AcDbScale
 70
     0
300
2:1
140
2.0
141
1.0
290
     0
  0
SCALE
  5
54
102
{ACAD_REACTORS
330
3F
102
}
330
3F
100
AcDbScale
 70
     0
300
4:1
140
4.0
141
1.0
290
     0
  0
SCALE
  5
55
102
{ACAD_REACTORS
330
3F
102
}
330
3F
100
AcDbScale
 70
     0
300
8:1
140
8.0
141
1.0
290
     0
  0
SCALE
  5
56
102
{ACAD_REACTORS
330
3F
102
}
330
3F
100
AcDbScale
 70
     0
300
10:1
140
10.0
141
1.0
290
     0
  0
SCALE
  5
57
102
{ACAD_REACTORS
330
3F
102
}
330
3F
100
AcDbScale
 70
     0
300
100:1
140
100.0
141
1.0
290
     0
  0
TABLESTYLE
  5
43
102
{ACAD_XDICTIONARY
360
44
102
}
102
{ACAD_REACTORS
330
40
102
}
330
40
100
AcDbTableStyle
  3
Standard
 70
     0
 71
     0
 40
1.5
 41
1.5
280
     0
281
     0
  7
Standard
140
4.5
170
     2
 62
     0
 63
     7
283
     0
274
    -2
284
     1
 64
     0
275
    -2
285
     1
 65
     0
276
    -2
286
     1
 66
     0
277
    -2
287
     1
 67
     0
278
    -2
288
     1
 68
     0
279
    -2
289
     1
 69
     0
  7
Standard
140
6.0
170
     5
 62
     0
 63
     7
283
     0
274
    -2
284
     1
 64
     0
275
    -2
285
     1
 65
     0
276
    -2
286
     1
 66
     0
277
    -2
287
     1
 67
     0
278
    -2
288
     1
 68
     0
279
    -2
289
     1
 69
     0
  7
Standard
140
4.5
170
     5
 62
     0
 63
     7
283
     0
274
    -2
284
     1
 64
     0
275
    -2
285
     1
 65
     0
276
    -2
286
     1
 66
     0
277
    -2
287
     1
 67
     0
278
    -2
288
     1
 68
     0
279
    -2
289
     1
 69
     0
  0
VISUALSTYLE
  5
2C
102
{ACAD_XDICTIONARY
360
416
102
}
102
{ACAD_REACTORS
330
2D
102
}
330
2D
100
AcDbVisualStyle
  2

 70
     4
 71
     0
 72
     2
 73
     1
 90
        0
 40
-0.6
 41
-30.0
 62
     5
 63
     7
421
 16777215
 74
     1
 91
        4
 64
     7
 65
   257
 75
     1
175
     1
 42
1.0
 92
        0
 66
   257
 43
1.0
 76
     1
 77
     6
 78
     2
 67
     7
 79
     5
170
     0
171
     0
290
     0
174
     0
 93
        1
 44
0.0
173
     0
291
     0
 45
0.0
1001
ACAD
1000
AcDbSavedByObjectVersion
1070
     0
  0
VISUALSTYLE
  5
45
102
{ACAD_XDICTIONARY
360
419
102
}
102
{ACAD_REACTORS
330
2D
102
}
330
2D
100
AcDbVisualStyle
  2

 70
     8
 71
     2
 72
     3
 73
     0
 90
        2
 40
-0.6
 41
30.0
 62
     5
 63
     7
421
 16777215
 74
     0
 91
        0
 64
     7
 65
   257
 75
     1
175
     1
 42
1.0
 92
        8
 66
   257
 43
1.0
 76
     1
 77
     6
 78
     2
 67
     7
 79
     3
170
     0
171
     0
290
     0
174
     0
 93
       13
 44
0.0
173
     0
291
     0
 45
0.0
1001
ACAD
1000
AcDbSavedByObjectVersion
1070
     0
  0
VISUALSTYLE
  5
46
102
{ACAD_XDICTIONARY
360
41B
102
}
102
{ACAD_REACTORS
330
2D
102
}
330
2D
100
AcDbVisualStyle
  2

 70
     5
 71
     0
 72
     2
 73
     0
 90
        0
 40
-0.6
 41
-30.0
 62
     5
 63
     7
421
 16777215
 74
     1
 91
        4
 64
     7
 65
   257
 75
     1
175
     1
 42
1.0
 92
        0
 66
   257
 43
1.0
 76
     1
 77
     6
 78
     2
 67
     7
 79
     3
170
     0
171
     0
290
     0
174
     0
 93
        1
 44
0.0
173
     0
291
     0
 45
0.0
1001
ACAD
1000
AcDbSavedByObjectVersion
1070
     0
  0
DICTIONARYVAR
  5
405
102
{ACAD_REACTORS
330
3FF
102
}
330
3FF
100
DictionaryVariables
280
     0
  1
1:1
  0
DICTIONARYVAR
  5
401
102
{ACAD_REACTORS
330
3FF
102
}
330
3FF
100
DictionaryVariables
280
     0
  1
STANDARD
  0
DICTIONARYVAR
  5
400
102
{ACAD_REACTORS
330
3FF
102
}
330
3FF
100
DictionaryVariables
280
     0
  1
STANDARD
  0
DICTIONARYVAR
  5
402
102
{ACAD_REACTORS
330
3FF
102
}
330
3FF
100
DictionaryVariables
280
     0
  1

  0
DICTIONARYVAR
  5
403
102
{ACAD_REACTORS
330
3FF
102
}
330
3FF
100
DictionaryVariables
280
     0
  1

  0
DICTIONARYVAR
  5
407
102
{ACAD_REACTORS
330
3FF
102
}
330
3FF
100
DictionaryVariables
280
     0
  1
0
  0
DICTIONARYVAR
  5
408
102
{ACAD_REACTORS
330
3FF
102
}
330
3FF
100
DictionaryVariables
280
     0
  1
0
  0
DICTIONARYVAR
  5
406
102
{ACAD_REACTORS
330
3FF
102
}
330
3FF
100
DictionaryVariables
280
     0
  1
2
  0
DICTIONARYVAR
  5
404
102
{ACAD_REACTORS
330
3FF
102
}
330
3FF
100
DictionaryVariables
280
     0
  1
1
  0
DICTIONARYVAR
  5
40A
102
{ACAD_REACTORS
330
3FF
102
}
330
3FF
100
DictionaryVariables
280
     0
  1
80.000000
  0
DICTIONARYVAR
  5
409
102
{ACAD_REACTORS
330
3FF
102
}
330
3FF
100
DictionaryVariables
280
     0
  1
5.000000
  0
DICTIONARYVAR
  5
40B
102
{ACAD_REACTORS
330
3FF
102
}
330
3FF
100
DictionaryVariables
280
     0
  1
2
  0
DICTIONARY
  5
415
102
{ACAD_REACTORS
330
413
102
}
330
413
100
AcDbDictionary
281
     1
  0
DICTIONARY
  5
414
102
{ACAD_REACTORS
330
413
102
}
330
413
100
AcDbDictionary
281
     1
  3
1386590129376
350
40E
  3
1386590129392
350
40F
  3
1386590129408
350
410
  3
1386590129424
350
411
  3
1386590129440
350
412
  0
DICTIONARY
  5
19
330
17
100
AcDbDictionary
280
     1
281
     1
  0
DICTIONARY
  5
3B
330
3A
100
AcDbDictionary
280
     1
281
     1
  3
ACAD_XREC_ROUNDTRIP
360
3C
  3
FBXASSET
360
3D
  0
DICTIONARY
  5
37
330
36
100
AcDbDictionary
280
     1
281
     1
  3
ACAD_XREC_ROUNDTRIP
360
38
  3
FBXASSET
360
39
  0
DICTIONARY
  5
D
330
B
100
AcDbDictionary
280
     1
281
     1
  3
ACAD_XREC_ROUNDTRIP
360
E
  3
BUMPTILE
360
F
  3
DIFFUSETILE
360
10
  3
FBXASSET
360
11
  3
OPACITYTILE
360
12
  3
REFLECTIONTILE
360
13
  0
DICTIONARY
  5
44
330
43
100
AcDbDictionary
280
     1
281
     1
  3
ACAD_ROUNDTRIP_2008_TABLESTYLE_CELLSTYLEMAP
360
40C
  3
ACAD_XREC_ROUNDTRIP
360
418
  0
DICTIONARY
  5
416
330
2C
100
AcDbDictionary
280
     1
281
     1
  3
ACAD_XREC_ROUNDTRIP
360
417
  0
DICTIONARY
  5
419
330
45
100
AcDbDictionary
280
     1
281
     1
  3
ACAD_XREC_ROUNDTRIP
360
41A
  0
DICTIONARY
  5
41B
330
46
100
AcDbDictionary
280
     1
281
     1
  3
ACAD_XREC_ROUNDTRIP
360
41C
  0
XRECORD
  5
40E
102
{ACAD_REACTORS
330
414
102
}
330
414
100
AcDbXrecord
280
     1
  1
AcDb_Thumbnail_Schema
102
{ATTRRECORD
341
40F
  2
AcDbDs::TreatedAsObjectData
280
     1
291
     1
102
ATTRRECORD}
102
{ATTRRECORD
341
410
  2
AcDbDs::Legacy
280
     1
291
     1
102
ATTRRECORD}
  2
AcDbDs::ID
280
    10
 91
        8
102
{ATTRRECORD
341
411
  2
AcDs:Indexable
280
     1
291
     1
102
ATTRRECORD}
102
{ATTRRECORD
341
412
  2
AcDbDs::HandleAttribute
280
     7
282
     1
102
ATTRRECORD}
  2
Thumbnail_Data
280
    15
 91
        0
  0
XRECORD
  5
40F
102
{ACAD_REACTORS
330
414
102
}
330
414
100
AcDbXrecord
280
     1
  1
AcDbDs::TreatedAsObjectDataSchema
  2
AcDbDs::TreatedAsObjectData
280
     1
 91
        0
  0
XRECORD
  5
410
102
{ACAD_REACTORS
330
414
102
}
330
414
100
AcDbXrecord
280
     1
  1
AcDbDs::LegacySchema
  2
AcDbDs::Legacy
280
     1
 91
        0
  0
XRECORD
  5
411
102
{ACAD_REACTORS
330
414
102
}
330
414
100
AcDbXrecord
280
     1
  1
AcDbDs::IndexedPropertySchema
  2
AcDs:Indexable
280
     1
 91
        0
  0
XRECORD
  5
412
102
{ACAD_REACTORS
330
414
102
}
330
414
100
AcDbXrecord
280
     1
  1
AcDbDs::HandleAttributeSchema
  2
AcDbDs::HandleAttribute
280
     7
 91
        1
284
     1
  0
XRECORD
  5
3C
102
{ACAD_REACTORS
330
3B
102
}
330
3B
100
AcDbXrecord
280
     1
102
MATERIAL
148
0.0
149
0.0
149
0.0
 93
        0
 94
      127
282
     0
 72
     1
 77
     1
171
     1
175
     1
179
     1
273
     0
  0
XRECORD
  5
3D
102
{ACAD_REACTORS
330
3B
102
}
330
3B
100
AcDbXrecord
280
     1
 70
     1
 90
429727718
  1
D62C5603-E3A1-4AEA-B7FB-FE5D8D0755AF
310
504B03040A0000080000CC70623B3DEE336E79000000790000001B0000006175746F6465736B2D64657369676E2D7061636B6167652E786D6C3C3F786D6C2076657273696F6E3D22312E302220656E636F64696E673D227574662D3822203F3E3C666F726D6174733E3C666F726D61743E687474703A2F2F736368656D612E
310
6175746F6465736B2E636F6D2F64657369676E2D7061636B6167652F323030393C2F666F726D61743E3C2F666F726D6174733E504B0304140006080800CC70623BD486FD9CA0000000F4000000130000005B436F6E74656E745F54797065735D2E786D6C7D8EC10E82300C865F65E91D8A1E8C310C0EEA1BF002731658846E
310
D98AC1B77784ABF1D8FE5FBFBF75BBCE937A534CCEB38643598122B6FEE978D0B0485F9C41B54DDD7D022595594E1A469170414C76A4D9A4D207E29CF43ECE46F218070CC6BECC4078ACAA135ACF422C856C0E68EA1BF5669944DDD7BCDE7B1F8E415D77AECB980613C2E4AC91FC167A2B244592486606FC29C8FD7F045B9A
310
EF7053A7E60B504B0304140006080800CC70623B853B8169EB0000007C01000008000000636F72652E786D6C8D90416EC3201045AF62CDB6C206821CC7C244919D9CA01740401C94182C03558F5F9C3852BBEB6A467FFE9B197D7EFC9E1EC5975982F5AE035262288C535E5B377690E21535501C055FBC8FBF6C503839990E
310
5619041F179FE64D52DE45E362569DD7661365082642A11EB9E920A89B99642953CC8E702F67A9EE7234257977194EC9EAE275C4EABCCF5EAD5940D4AC6F0E35A568B8F43562CD7046CD199FD07E60174276A7BE677B5EADB0E0D14EEFFB6A31321A0D82627C4084204C3F096B71DD52F6819B16635EADF63F509AF53FA164
310
5DDCD1EDDD17164090FCC8732078B56691CB33A85CD7DCC40F504B0304140006080800CC70623B55019EA25F0000007C00000007000000636E782E786D6C4DCB3B0E80201045D1AD90E915ED2CF8AC45050C11660C8261F98AB1B07AC9C97D42D718D865D3E909258CFD00CCE24AC6E326A164D74DC0B4128928FF32603847
310
2BA13128B1252AC747C6BAB984FC68F0B87FE8960A5C09FE86CFB69FBA01504B0304140006080800CC70623BDBABAAF470010000D40300000C0000006662782F636F72652E786D6CC553D16E823014FD95A6AF4B694182CC941A83FA05FB810A9511A125A5257EFE2E82712ECEB8A7F100CD39F7F69E734AF9FADC366850B6
310
AF8DCE7018308C942E4C59EB2AC3DE1D498AD15A706B8CFB56869196ADCAF00863C12B6B7C374385D14E6907A836A59A41D9F7CA615434B0C8705F7CAA5606D23BA8E84F41278B93AC54100640439DE0BDB320004D43C63716C7C399D30917DCFBBA9CD9BA8469F5B156168B24CED3F7248AC8769F27244EB73B92EED8862C
310
B7F13E0C179B3C8F979C8ECD82BBBABDAA2BAC924E9558448CBD9330242CFA08E3154B5651FCC6D215639C8EE5774DBE2B5F6CF2B5768B68963BB5F5588420E442FC700B1139D4CB01F450C1E918227C2E09DF070D8140C84E1E9AAB8F1340832A9CB13130A5F1376A908D57309505ECF2A0DF179C4E9D30F5B239B87E3823
310
7A79C6F31DE1A8A5AEC08474B03C7837EAE4938639B44E5932B833D2C6B6B279CDC613877FA26EE21F4A2A4C63EC7F29A2F301D1F9F7A0E37D145F504B0304140006080800CC70623B9C113CC27E0000009D0000000B0000006662782F636E782E786D6C4DCCDF0A83201C86E15B91DFB94BFB330DD428C8FB886521330DA7
310
6397BF1A1DECE883878F57749FCDA1B7892F1BBC047A23808C7F84D9FA55424E0BE6803A256208E9EF06C84F9B91703228B1C690F78B66B34CD9A5439DF5CF0BFBF65E35BCA1B8D6A5C6F540381E886698B5741C695F9503EBA150A2F8958E3DC3EA0B504B0304140006080800CC70623B7DF2F77C2A010000120200003100
310
00006662782F41393633353835312D344632462D344230382D423046372D3739314545314133324237412F636F72652E786D6C8D51DB8EC22014FC15C2939B0D2DB4B45643319AE817EC0F6041255A68B86CFCFC856D4D76DF7CE190393373060EDB3DC707F856CE6B6B7A480A0C81328395DA5C7B18C3057510EC3873D686
310
3F34088C18550F330C39BB3A1BA7051AAC09CA84841A2BD5020AEF55806078A44B0FFD7053A328440C89E1EFC52486BBB8AA8214A99D789CF9E05200300FC927E4FB4D5B375D43103D5527440FB843077C5AA3F5861C8F645F5787F59E95B390B318B55CE45AA638FAA2957BD7248B390B7A7CC51F9C124149C82B8C378810
310
84AB2F42B7B8DD56F413775B8C5999E9FF4471926F8AA236A1AE96B8B3CC434E5839373893369E1FAF30EA395917409EB7F26AF8801C171837A4A6AC9C89E9F9C9B1A58BA30FD6A5EF5DDDCF894B9AD9B6A59C957943A9FCAE2FD5BC4DFE03504B0304140006080800CC70623BAD7543B64E01000033030000300000006662
310
782F41393633353835312D344632462D344230382D423046372D3739314545314133324237412F636E782E786D6CD593CD6EC32010845F0571AD6CE3D48AD20813A9873E410FBD12D82434182C7EAAE6EDBB2424CD25871E7B41D6EC30B3FA84F9E67BB2E40B4234DE8DB46F1925E094D7C6ED479AD3AE5951B2113C789FEE
310
6C943839C1488B4C05DF079FE72A69D8C96C13AAD6B8631503449F83828872B949AC57D26200B826A308D316B4064D6E46FCDA41C05550DC9E483A00797BFD207EFB092A45DE9514C1BBD22178396BD39D891265658C238DEA00936C654E5E433CB65A26D9F6EDB5EBC14EBF49A45CB856E66048291F6939A9A81BB5C89177
310
38143CA680F4AA299D66A042CEB3354A2684DC9D8D178FE0D9B8B41CAAD720F880EE7EF93C0C18769E099ECC04D5A102C8049A8A05632F4DDF376CF1DE0F6BB65C2F8627B65A33C6BB62177CEBBDAD973006829F89F22E814B54F4BC2BE347F8AA8F681390B50FA73F804400B5F542E796F19FF974E7F78DB802FE05E20750
310
4B0304140006080800CC70623BE75B7789680500003C100000340000006662782F41393633353835312D344632462D344230382D423046372D3739314545314133324237412F6F626A656374732E786D6CAD575B8F9B3818FD2B887D06C22499CB8AA1CA655245D5B455A356FB305264C061D8018C6C3393D95FBFC7600890
310
A4CD5EF210B0B1BFEBF98E3F7B1FF6596ABC522E1296DF9BAE3D320D9A872C4AF2F8DE2CE5CEBA358D0FBEC719939D65A691938CDE9B6ADAF4BD98B3B2D05311DD91329583D9D5FC0F438434A7A611A644887B5384CF34233629258BA878B12322891DEFF6B66BD70BFB62634E8AE781D082709A4B588AF91C528CDA28B73F
310
1C998EEF39EABBEFA97FBD6A7C7E9553F9D3D79FE442923C3C523610337627CB87ABE99D359D4CC6D6E4FACAB5E6ABF9D2726FC6A3C5F56271377BB88362213924694B38DD99FE47C48627A1E7D49F5A8BB5E1A74C0A599ED3B0F21F1E56366B89112D681E218F0915D0D6F17AD41FBA2A369DCF6335D62ABBD39779D5DDD1
310
11D4D8DE3CBB96B2E04FB8202E41051754A1AA8E8F76B4C6DFE810B580B1547F4B84911149794252234D024EF8BBE963A95AE27B3D310A9D5C215C7960FAEE415ED75694C6AFB17BCACA5D99A60A9AA65F217B0BFC53292ACB92BF283FAD0D3621576592CB5BED907C2FA8E9DF794E35E97BEA31BED21FEB401ABB94C44839
310
DCACBF0E1C5DA8DA5B2F4DFFD32AD86F543D9E565E7056502E157C00AD2671CD534549AB752FCA9CDA00677A313F04E51B22FF19E57B300579E3C97EB29F682D92935CEC18CF901B7B54FD8C51F362B56FC72FE0B3C1EAE335EDCCBF5AEC39ADB17DC238973F804BA5E6F6BFE7AF1FB32E523BE9F3BD571418E3631DCA4D48
310
5250CF639223210A9446CA30052EDF057BD35F8329C1ECD84552BF0DC8D18BE7BCE23BFE6BD960AB4A7DE79923A103BEBD80F911CBAA2C60DB19B01CF164A5583B772EE6D3FFA56666CBCDA74DC97724A48F9A58967497E489C4D979006FD7A05E227A1EBDD0F737C623387A9C844D3709995625106D157315F8B8392CD4E0
310
A0B9A720C4BE9829CEF37EA1E13111214D53925356365ADA634861B52519DD27A00AEB808EAF0628E6F435519D446F45CF2C9CF5214F0A15B2F6D06B79DA3EE3CBF7F56780D2F4E7EF73A0F5E5B02A38D07DC852C6B7C1FBB6664213E0C39E3EBA7FF4E1AD23EA2829407C85E586727488B751B2DB9502BC7B228A3FD68B6E
310
A65A22397E690AA8D158D7E404EC8CDA235CC3B7D1898680131CEC2CDF2638C65196279577750F15884AEE19F94199155B92B13297978469D4F8D358DF0AEF7631E28DC8F0D9F437D5D39A83B2231A1D52D543813A824EF8D44BCFF2FA6A31BD1E8DAD87F1CCB526B3879935BF59CDADD5C37479BB1CDD4CA7B3556B516589
310
EF352754B706114D9C885EC9131DE6EFEB43D99AFE2391C2F958179413D7CFEF6B1B6DB1E7600F00DE6E5C67454A339A4BA2E0FBA85ED26F045D454F463DBFCE484C2F90F2E5E3666003662ED8F755951A7D1BECD5B30B550B2785C8E7320B7292A4838DDA71BBC863ED7613CAF659337A3354231D4FF4A182A54904C2898C
310
98B28C4AD0CE056CCF332A80986E571EE9DBC305BB5FEB7E509220A58D25CF042D712A806AC0AD0C657FDEF80D2D9CEAA2EE4D1C76F60BFE74219A06527D6F82DF6412526107381E55E353090704D085B52408A8913C4ED159D79BDA71BB4BC506F4831350EB6F975CD22D69BF7AC49B91A2C0A9DDA3D5CA36AD20FC478E37
310
E61844E2352865EBCB61A275A65283CAAA9DD27703B4102F5AF51EF5F573B75CBB5AD38BC845F7A49F82A0966A49C2E3EA5EA0ECD326CD965F1DB402C6FA8B51A4658C5C5E2EC9E214602E55810345408596591009A82E7E7FFACA19EEA299B14A0081A705CB3296EBC14CDF658DCD336EA6D1136881AAEB87B81AB9EE53D5
310
F5EB8BC8362082DA24122F98680A4E7930C01A0079749CEA14382A0783E5EBA5A10F8C098456A03D6A4AEB6BB881E2513747552A5DB22C7EDAF83BD5528081A365F7FF06504B0304140006080000CC70623B000000000000000000000000350000006662782F41393633353835312D344632462D344230382D423046372D37
310
39314545314133324237412F76657274696365732E62696E504B0304140006080800CC70623BF270F1330600000004000000360000006662782F41393633353835312D344632462D344230382D423046372D3739314545314133324237412F747269616E676C65732E62696E636660600000504B0304140006080000CC7062
310
3B000000000000000000000000370000006662782F41393633353835312D344632462D344230382D423046372D3739314545314133324237412F617474726962757465732E62696E504B0304140006080800CC70623B08DA0BD19000000041010000360000006662782F41393633353835312D344632462D344230382D4230
310
46372D3739314545314133324237412F6469726563746F72792E786D6C858F410AC3201045AF22B36F53E9A60B35CBEEBAE80D244E44489C6234F4F835464A48035D0DF398FF9F8AF63D0E6CC63039F212F8F9020C7D47C6792B21C5FE7403D62A1188E2E60C98D7234A5830286103A55745067B9D86B8A3CF9C7F90C11DE6
310
07FB144396D7B6A82D282E9A152AD114D5EF2CB866EEE831B8EEA07A7BB5A8D7D61A2BAAEB7FD5F70921FF497D00504B0304140006080800CC70623BEDD1DC58FD000000A00100003B0000006662782F41393633353835312D344632462D344230382D423046372D3739314545314133324237412F7265736F75726365732F
310
636F72652E786D6C8D504B6E833010BD0A9A6D65B00922041947112427E8052C33A156828DFCA97AFC9A40A576D7CDCCE87D344F8F9FBFE667F689CE6B6B3A6039850C8DB2A336530731DC4903D95970676DF82583CCC8193B5861107C72362E3BA4AC096842428D1D7107A5F7182053CF7474E0D507CE32973124857FE48B
310
540F3961CEF244279DE03EB81420DB9EAC1384436FA353E879B1B182C7A8C75DA3C7F453DF353A1075D537A7BA6464B8F535A99AE14A9A2BBD90E350DD183B5CFABE3AF262350B1EF4FC9351399401471025A527C218A1E53BAB5A5AB765F5469B96525EACF23FA6B88CFF34456DC2A1DCE36E360F82A5202F42F062ED2BAD
310
579969AFDD8A6F504B010214000A0000080000CC70623B3DEE336E79000000790000001B00000000000000000000000000000000006175746F6465736B2D64657369676E2D7061636B6167652E786D6C504B01021400140006080800CC70623BD486FD9CA0000000F40000001300000000000000000000000000B20000005B
310
436F6E74656E745F54797065735D2E786D6C504B01021400140006080800CC70623B853B8169EB0000007C010000080000000000000000000000000083010000636F72652E786D6C504B01021400140006080800CC70623B55019EA25F0000007C000000070000000000000000000000000094020000636E782E786D6C504B
310
01021400140006080800CC70623BDBABAAF470010000D40300000C00000000000000000000000000180300006662782F636F72652E786D6C504B01021400140006080800CC70623B9C113CC27E0000009D0000000B00000000000000000000000000B20400006662782F636E782E786D6C504B01021400140006080800CC70
310
623B7DF2F77C2A010000120200003100000000000000000000000000590500006662782F41393633353835312D344632462D344230382D423046372D3739314545314133324237412F636F72652E786D6C504B01021400140006080800CC70623BAD7543B64E010000330300003000000000000000000000000000D2060000
310
6662782F41393633353835312D344632462D344230382D423046372D3739314545314133324237412F636E782E786D6C504B01021400140006080800CC70623BE75B7789680500003C10000034000000000000000000000000006E0800006662782F41393633353835312D344632462D344230382D423046372D3739314545
310
314133324237412F6F626A656374732E786D6C504B01021400140006080000CC70623B0000000000000000000000003500000000000000000000000000280E00006662782F41393633353835312D344632462D344230382D423046372D3739314545314133324237412F76657274696365732E62696E504B01021400140006
310
080800CC70623BF270F133060000000400000036000000000000000000000000007B0E00006662782F41393633353835312D344632462D344230382D423046372D3739314545314133324237412F747269616E676C65732E62696E504B01021400140006080000CC70623B0000000000000000000000003700000000000000
310
000000000000D50E00006662782F41393633353835312D344632462D344230382D423046372D3739314545314133324237412F617474726962757465732E62696E504B01021400140006080800CC70623B08DA0BD1900000004101000036000000000000000000000000002A0F00006662782F41393633353835312D344632
310
462D344230382D423046372D3739314545314133324237412F6469726563746F72792E786D6C504B01021400140006080800CC70623BEDD1DC58FD000000A00100003B000000000000000000000000000E1000006662782F41393633353835312D344632462D344230382D423046372D3739314545314133324237412F7265
310
736F75726365732F636F72652E786D6C504B0506000000000E000E0080040000641100000000
  0
XRECORD
  5
38
102
{ACAD_REACTORS
330
37
102
}
330
37
100
AcDbXrecord
280
     1
102
MATERIAL
148
0.0
149
0.0
149
0.0
 93
        0
 94
      127
282
     0
 72
     1
 77
     1
171
     1
175
     1
179
     1
273
     0
  0
XRECORD
  5
39
102
{ACAD_REACTORS
330
37
102
}
330
37
100
AcDbXrecord
280
     1
 70
     1
 90
429727718
  1
30362254-06B7-45E0-A893-8CFA70E3D6BC
310
504B03040A0000080000CC70623B3DEE336E79000000790000001B0000006175746F6465736B2D64657369676E2D7061636B6167652E786D6C3C3F786D6C2076657273696F6E3D22312E302220656E636F64696E673D227574662D3822203F3E3C666F726D6174733E3C666F726D61743E687474703A2F2F736368656D612E
310
6175746F6465736B2E636F6D2F64657369676E2D7061636B6167652F323030393C2F666F726D61743E3C2F666F726D6174733E504B0304140006080800CC70623BD486FD9CA0000000F4000000130000005B436F6E74656E745F54797065735D2E786D6C7D8EC10E82300C865F65E91D8A1E8C310C0EEA1BF002731658846E
310
D98AC1B77784ABF1D8FE5FBFBF75BBCE937A534CCEB38643598122B6FEE978D0B0485F9C41B54DDD7D022595594E1A469170414C76A4D9A4D207E29CF43ECE46F218070CC6BECC4078ACAA135ACF422C856C0E68EA1BF5669944DDD7BCDE7B1F8E415D77AECB980613C2E4AC91FC167A2B244592486606FC29C8FD7F045B9A
310
EF7053A7E60B504B0304140006080800CC70623B1EC5D7A3EB0000007C01000008000000636F72652E786D6C8D90416EC3201045AF82665B6103C6756C6122AB4D4ED00B204C5C94182C03558F5F9C3852BBEB6A467FFE9B197D71FC9E6FE8CBACC17AD7032D0820E3B41FAD9B7A48F1820F808E52ACDEC75F36404ECDA687
310
4D0629A6D5A76597B477D1B89855E747B38B2A041301E95B6E7A08FAD3CCAA50296647B8168BD2573599823EBB0CA76447F43862C7BCCF5EAC59410E4DDD9C7973C2755553CCCFA4C603E3040F1565ED3B1FDE4E432BCA0D9622DAF9795FAF464533826484B498524CD807E51D79ED187F21878E10516EF63F505AC67F42C9
310
BA58B1FDDD071640D2FCC87D2045B96591CB3DA85CB7DCE40F504B0304140006080800CC70623B55019EA25F0000007C00000007000000636E782E786D6C4DCB3B0E80201045D1AD90E915ED2CF8AC45050C11660C8261F98AB1B07AC9C97D42D718D865D3E909258CFD00CCE24AC6E326A164D74DC0B4128928FF32603847
310
2BA13128B1252AC747C6BAB984FC68F0B87FE8960A5C09FE86CFB69FBA01504B0304140006080800CC70623B8C9102E971010000D40300000C0000006662782F636F72652E786D6CC5535B6E833010BC8AE5DF0A6C08340F1947A84D4ED00B38C6A128602363A31CBFCB234A53A551FA553EC09AD9F5CE8C31DB9E9B1AF5CA
310
7695D1198E428A91D2D214952E33ECDD315861B4E5CC1AE3BE9561A445A3323CC098B3D21ADFCE9034DA29ED00D5A6503328BA4E398C640D8B0C77F253352214DE4145770A5B214FA2546114020D759C75CE8200340D19DE981F0F6746269C33EFAB6266AB02A655C74A59CCF365BADC27CB5D902ED22848F6340DF238A141
310
BE88E2F57B92BFEDF23523433367AE6A2EEAA455C2A902F398D2751045018D3FA264435F3771F242571B4A1919CA6F9A7C5B3CD9E42BED16F12C776AEB308F40C848FC700B1139D4891EF410CEC810227CC6846F8386402064270EF5C5C709A05E49676C024C61FC95EA45ED154CA5211D1FF4FB8291A913A68E9B83EBBB33
310
E2A7673CDE118E5AE8124C0807CB8377834E366998436B950D7A7746DAD846D4CFD978E0F04FD455FC5D49D2D4C6FE9722321F10997F0F32DC47FE05504B0304140006080800CC70623BFFEA85907E0000009D0000000B0000006662782F636E782E786D6C4DCCD10A83201886E15B91FFDC95D95A811AB6F23E625948A6C3
310
E9D8E5AF46073BFAE0E1E365ED67B3E8ADC3CB78C7815C7240DA3DFC64DCC221C519D7805AC182F7F1EF06C88D9BE6703008B6049F9E274D7A1E938DBB5AE3D6131B2589BA0D3D965551E0B2EA732C9B9A624AAEB41E3A557677029960D9AFB4EF11165F504B0304140006080800CC70623B4FEEA4082C0100001202000031
310
0000006662782F39464131463745442D413632322D343644302D413938332D3331353338454246344243312F636F72652E786D6C8D515B6EC32010BC0AE2AB55850DD871ED0813254D72825EC00192A2C460F1A872FC42ED48ED5F7E00CDCECCCEB26C731F6FE05B39AFADE921293004CA082BB5B9F43086336A21D870E6AC
310
0D7F68109861543DCC30E4ECE26C9C164858139409093556AA051CBC570102714B8F1E7AF1A5C6A11862480C7F2DA6415C878B2A4891CA89C7990F2E050073937C42DE1DB7E4F87ED8A36D4329AA9B3D46DBAEAD504556557BD81DEBDD0761E52CE42C462D17B996298E3E6BE59E35C962CE821E1FF18553435012728A7187
310
0841987E927A8D9B35ADDF70BBC6989599FE4F1427F9A4286A132ABAC49D651EF234CD5CE04CDA78BA3DC2A8FB645D00B9DF8B57E215725C60BCA2A463E54C4CE327C7A65E1C7DB02E7DEFCBF594B864C5CA6CDBD49C957943E9FA5D5FBAF336F90F504B0304140006080800CC70623BAD7543B64E01000033030000300000
310
006662782F39464131463745442D413632322D343644302D413938332D3331353338454246344243312F636E782E786D6CD593CD6EC32010845F0571AD6CE3D48AD20813A9873E410FBD12D82434182C7EAAE6EDBB2424CD25871E7B41D6EC30B3FA84F9E67BB2E40B4234DE8DB46F1925E094D7C6ED479AD3AE5951B2113C
310
789FEE6C943839C1488B4C05DF079FE72A69D8C96C13AAD6B8631503449F83828872B949AC57D26200B826A308D316B4064D6E46FCDA41C05550DC9E483A00797BFD207EFB092A45DE9514C1BBD22178396BD39D891265658C238DEA00936C654E5E433CB65A26D9F6EDB5EBC14EBF49A45CB856E66048291F6939A9A81BB5
310
C8917738143CA680F4AA299D66A042CEB3354A2684DC9D8D178FE0D9B8B41CAAD720F880EE7EF93C0C18769E099ECC04D5A102C8049A8A05632F4DDF376CF1DE0F6BB65C2F8627B65A33C6BB62177CEBBDAD973006829F89F22E814B54F4BC2BE347F8AA8F681390B50FA73F804400B5F542E796F19FF974E7F78DB802FE05
310
E207504B0304140006080800CC70623B16AB87BA640500003C100000340000006662782F39464131463745442D413632322D343644302D413938332D3331353338454246344243312F6F626A656374732E786D6CAD575B6FA33818FD2B887DE6924B3BED8A326A92B68A663B534DD4D13E548A0C38942D60649B369D5FBFC7
310
600890A493BDE42160637FD7F31D7FF63E6FB3D478A55C242CBF3247B66B1A340F5994E4F19559CA8D75611A9F7D8F33263BCB4C232719BD32D5B4E97B316765A1A722BA21652A07B3B7B33F0D11D29C9A46981221AE4C113ED38CD8A4942CA2E2C58E882476BCD9DA23BB5ED8171B73523C0F841684D35CC252CCE79062D4
310
468DFA43D7747CCF51DF7D4FFDEB5593E3AB9CCA9FBEFE241792E4E19EB28198C968BAB8199F5D5A67D3E9C49A9E8F47D6EC76B6B0469F26EEFC7C3EBFBCBEB98462213924694B38DD98FE1D62C393D073EA4FADC5DAF04326852CCF6958F90F0F2B9BB5C48816348F90C7840A68EB78EDF68723159BCEE7891A6B95DDE9D3
310
BCEAEEE8086A6C6F9E5D4B59F0175C10A7A0820BAA5055C7473B5AE3CFDD452D602CD5DF12616444529E90D448938013FE6EFA58AA96F85E4F8C42275708571E98FE6827AF6B2B4AE3D7D83D64E5A64C53054DD3AF90BD06FEA9149565C94FCA0F6B834DC85599E4F2423B24DF0B6AFA979E534DFA9E7A4CC6FA631D486393
310
921829879BF5D781A373557BCB85E97FB90DB62B558F8795179C15944B051F40AB495CF35451D26A4727654E6D8033BD98EF82F21D91FF8AF2DD9982BCF1643BDD4EB516C9492E368C67C88DED563FC36D5EACF66DFF057C3658BDBFA69DF9578B3DA735B64F18C7F20770A9D45CFCF7FCF563D6456A277DBEF78A02637CA2
310
43B90A490AEAB94F72244481D24819A6C0E59B606BFA4B3025981DBB48EAB701D97BF19C577CC77F2D1B6C55A9EF3C732474C0B727303F625995056C3B02963D9EAC146BE78EC5FCEC7FA999EBC5EACBAAE41B12D27B4D2C0BBA49F244E2ECDC81B76B502F113D8F5EE8FB1BE3111CDD4FC2AA9B844CAB1288B68AB90A7CDC
310
1C166AB0D3DC5310625FCC14E779BFD0709F8890A629C9292B1B2DED31A4B0DA928CEE135085754027E3018A397D4D5427D15BD1330B677DC8934285AC3DF45A9EB68FF8F2B8FC0A509AFEECFD0FF2DE25CC6047F7214B195F07EFEB9A094D800F7BFAE8FED187B78EA8A3A400F115961BCAD1215E47C966530AF0EE8128FE
310
58CEBB996A8964FFA529A046635D9353B0336A8F700DDF46271A024E70B0B37C9DE01847591E54DED53D54202AB947E4076556AC49C6CA5C9E1226B7F1A7B1BE15DEED62C41B91E1B3E9AFAAA735036547343A925075041DF0A9979E893B391F8FCFA6967B3EFB644DCF6E5CEBFAE272625DCC6FAF3FB93793C5F90CE1EF57
310
407342756B10D1C489E8953CD1617E5CEECAD6F4EF8914CE5D5D504E5C3F1F9736DA62CFC11E00BCDDB8CC8A9466349744C1F75EBDA4DF09BA8A9E8C7A7E9991989E20E5DBDD6A6003664ED8F7A04A8DBE0DF6EAD9B9AA858342E47399053949D2C146EDB85DE4B176BB0965FBAC19BD19AA918E27FA50C1D22402E144464C
310
59462568E704B6E71915404CB72B8FF4EDE184DDAF753F284990D2C6926782963815403548A70C657FDEF80D2D9CEAA2AE4C1C76F60BFE74219A06527D6582DF6412526107381E55E353090704D085B52408D0933C4ED159D79BDA71BB4BC506F4831350EB6F979CD22D69BF7AC49B91A2C0A9DDA3D5CA36AD20FC478E37E6
310
1844E2352865EBCB6EA275A652E3836BE04EFB400BF1A2556F515F1FBB35B2AB35BD889C744FFA1004B5544B121E57F70215746DD2F5E2C1412B602CBF19455AC6C8E5E9922C4E01E65215385004546899059180EAFCF7A707CE7017CD8CDB0410789AB32C63B91E5CEBBBACB17AC6CD347A022D5075FD106377347AAABA7E
310
7D11590744509B44E205134DC1290F06580320F78E537D3D73540E06CB970B431F185308AD40BBD794D6D77003C5A36E8EAA54BA64597CD8F83BD552A080A365F7FF06504B0304140006080000CC70623B000000000000000000000000350000006662782F39464131463745442D413632322D343644302D413938332D3331
310
353338454246344243312F76657274696365732E62696E504B0304140006080800CC70623BF270F1330600000004000000360000006662782F39464131463745442D413632322D343644302D413938332D3331353338454246344243312F747269616E676C65732E62696E636660600000504B0304140006080000CC70623B
310
000000000000000000000000370000006662782F39464131463745442D413632322D343644302D413938332D3331353338454246344243312F617474726962757465732E62696E504B0304140006080800CC70623B08DA0BD19000000041010000360000006662782F39464131463745442D413632322D343644302D413938
310
332D3331353338454246344243312F6469726563746F72792E786D6C858F410AC3201045AF22B36F53E9A60B35CBEEBAE80D244E44489C6234F4F835464A48035D0DF398FF9F8AF63D0E6CC63039F212F8F9020C7D47C6792B21C5FE7403D62A1188E2E60C98D7234A5830286103A55745067B9D86B8A3CF9C7F90C11DE607
310
FB144396D7B6A82D282E9A152AD114D5EF2CB866EEE831B8EEA07A7BB5A8D7D61A2BAAEB7FD5F70921FF497D00504B0304140006080800CC70623B0D6EF93BFE000000A00100003B0000006662782F39464131463745442D413632322D343644302D413938332D3331353338454246344243312F7265736F75726365732F63
310
6F72652E786D6C8D50596E833010BD0A9ADFCA60B334011947A8694ED00B586642AC041B79A97AFC9A40A5F6AF3F33A3B7689E1E3F7DCD8FEC139DD7D6F4C0720A191A65476DA61E62B892236427C19DB5E1970C322367EC618541F0C9D9B8EC90B226A009093576C41D94DE63804C3DD2D18357379C652E63480A7FCF17A9
310
EE72C29CE5894E3AC17D702940B63D59270887DE46A7D0F36263058F518FBB468FE9A7BE6A7420864373B8D4873369AA8691FA421B3294352543C5CAF65C0F6FEF43CB8BD52C78D0F34F46E550061C419494B6843142CB0F5677F4B52BEB177AEC28E5C52AFF638ACBF84F53D42654E51E77B379102C05791282176B5F693D
310
CB4C7BED567C03504B010214000A0000080000CC70623B3DEE336E79000000790000001B00000000000000000000000000000000006175746F6465736B2D64657369676E2D7061636B6167652E786D6C504B01021400140006080800CC70623BD486FD9CA0000000F40000001300000000000000000000000000B20000005B
310
436F6E74656E745F54797065735D2E786D6C504B01021400140006080800CC70623B1EC5D7A3EB0000007C010000080000000000000000000000000083010000636F72652E786D6C504B01021400140006080800CC70623B55019EA25F0000007C000000070000000000000000000000000094020000636E782E786D6C504B
310
01021400140006080800CC70623B8C9102E971010000D40300000C00000000000000000000000000180300006662782F636F72652E786D6C504B01021400140006080800CC70623BFFEA85907E0000009D0000000B00000000000000000000000000B30400006662782F636E782E786D6C504B01021400140006080800CC70
310
623B4FEEA4082C0100001202000031000000000000000000000000005A0500006662782F39464131463745442D413632322D343644302D413938332D3331353338454246344243312F636F72652E786D6C504B01021400140006080800CC70623BAD7543B64E010000330300003000000000000000000000000000D5060000
310
6662782F39464131463745442D413632322D343644302D413938332D3331353338454246344243312F636E782E786D6C504B01021400140006080800CC70623B16AB87BA640500003C1000003400000000000000000000000000710800006662782F39464131463745442D413632322D343644302D413938332D3331353338
310
454246344243312F6F626A656374732E786D6C504B01021400140006080000CC70623B0000000000000000000000003500000000000000000000000000270E00006662782F39464131463745442D413632322D343644302D413938332D3331353338454246344243312F76657274696365732E62696E504B01021400140006
310
080800CC70623BF270F133060000000400000036000000000000000000000000007A0E00006662782F39464131463745442D413632322D343644302D413938332D3331353338454246344243312F747269616E676C65732E62696E504B01021400140006080000CC70623B0000000000000000000000003700000000000000
310
000000000000D40E00006662782F39464131463745442D413632322D343644302D413938332D3331353338454246344243312F617474726962757465732E62696E504B01021400140006080800CC70623B08DA0BD190000000410100003600000000000000000000000000290F00006662782F39464131463745442D413632
310
322D343644302D413938332D3331353338454246344243312F6469726563746F72792E786D6C504B01021400140006080800CC70623B0D6EF93BFE000000A00100003B000000000000000000000000000D1000006662782F39464131463745442D413632322D343644302D413938332D3331353338454246344243312F7265
310
736F75726365732F636F72652E786D6C504B0506000000000E000E0080040000641100000000
  0
XRECORD
  5
E
102
{ACAD_REACTORS
330
D
102
}
330
D
100
AcDbXrecord
280
     1
102
MATERIAL
148
0.0
149
0.0
149
0.0
 93
        0
 94
      127
282
     0
 72
     1
 77
     1
171
     1
175
     1
179
     1
273
     0
  0
XRECORD
  5
F
102
{ACAD_REACTORS
330
D
102
}
330
D
100
AcDbXrecord
280
     1
270
     1
271
     1
  0
XRECORD
  5
10
102
{ACAD_REACTORS
330
D
102
}
330
D
100
AcDbXrecord
280
     1
270
     1
271
     1
  0
XRECORD
  5
11
102
{ACAD_REACTORS
330
D
102
}
330
D
100
AcDbXrecord
280
     1
 70
     0
 90
1673772943
  1
ECE7A1D2-D628-4531-984C-D00F80459256
310
504B03040A0000080000CC70623B3DEE336E79000000790000001B0000006175746F6465736B2D64657369676E2D7061636B6167652E786D6C3C3F786D6C2076657273696F6E3D22312E302220656E636F64696E673D227574662D3822203F3E3C666F726D6174733E3C666F726D61743E687474703A2F2F736368656D612E
310
6175746F6465736B2E636F6D2F64657369676E2D7061636B6167652F323030393C2F666F726D61743E3C2F666F726D6174733E504B0304140006080800CC70623BD486FD9CA0000000F4000000130000005B436F6E74656E745F54797065735D2E786D6C7D8EC10E82300C865F65E91D8A1E8C310C0EEA1BF002731658846E
310
D98AC1B77784ABF1D8FE5FBFBF75BBCE937A534CCEB38643598122B6FEE978D0B0485F9C41B54DDD7D022595594E1A469170414C76A4D9A4D207E29CF43ECE46F218070CC6BECC4078ACAA135ACF422C856C0E68EA1BF5669944DDD7BCDE7B1F8E415D77AECB980613C2E4AC91FC167A2B244592486606FC29C8FD7F045B9A
310
EF7053A7E60B504B0304140006080800CC70623BD9DDAED0EC0000007C01000008000000636F72652E786D6C8D90416EC3201045AF82665B61836D9CD8C2444DD39CA01740405C94182C03558F5F9C3852BBEB6A467FFE9B197D7EF89E6EE8CB2CC17A37002D0820E394D7D68D03A478C17B4007C117EFE32F1B20272733C0
310
2A83E0E3E2D3BC49CABB685CCCAAF3DA6CA20CC14440EA969B0182FA34932C648AD911AEC52CD5558EA6A0CF2EC329598D1E47ACCEFBECC59A050463A7EA5833865FEBDD0E37353BE3EE8DBDE3F6786A48D375FBF6CC78B9C282473B3DEFABC5C86834888A900E538A49F5419B9EB47DD5BC907D4F082F57FB1F28CDFA9F50
310
B22ED6D5F6EE030B20687EE43E10BC5CB3C8E51E54AE6B6EE207504B0304140006080800CC70623B55019EA25F0000007C00000007000000636E782E786D6C4DCB3B0E80201045D1AD90E915ED2CF8AC45050C11660C8261F98AB1B07AC9C97D42D718D865D3E909258CFD00CCE24AC6E326A164D74DC0B4128928FF326038
310
472BA13128B1252AC747C6BAB984FC68F0B87FE8960A5C09FE86CFB69FBA01504B0304140006080800CC70623BA24EB22D72010000D40300000C0000006662782F636F72652E786D6CC5535B6E833010BC8AE5DF0A6C5E49888CA3A6694ED00B38E05014B091B1518EDFE511A5A9D228FD2A1F60CDEC7A67C6986DCE4D8D7A
310
69BA4AAB0C073EC548AA5C17952A33ECECD15B61B4E1CC686DBF9561A44423333CC098B3D268D7CE50AE9595CA02AA74216750749DB418E5352C32DCE59FB211BE70162ABA93DF8AFC244AE9073ED050C759670D0840D390E18DF9F1706664C23973AE2A66B62A605A75ACA4C13C4976E1364A12EF355A2EBD384AF65EFA96
310
BC7B8BED2EA6719AAE16FB8491A199335B351775B991C2CA02F390D2D40B028F861F41BCA68B7518BFD0D59A524686F29B26D7164F36B94AD9289CE54E6D1DE6010819891F6E21228B3AD1831EC219194284CF98F06DD01008846CC5A1BEF83801D4CBDC6A1303536877A57A513B0953A94FC707FDBE6064EA84A9E3E6E0FA
310
EE8CF0E9198F7784A316AA0413C2C2F2E0ECA0934D1AE6D05A69BCDE9E91D2A611F573361E38FC1375157F5752AE6B6DFE4B11990F88CCBF0719EE23FF02504B0304140006080800CC70623B408A7D3B7C0000009D0000000B0000006662782F636E782E786D6C4DCCD10A83201886E15B91FFDC552A92A0064DBC8F581632
310
D3703A76F9ABD1C18E3E78F878E5F0D9027ABBFCF2292AE86E2D20171F69F6715550CB827B40839639A5F2770314A7CD293819B45C73AAFB45B35BA61ACAA1C1C7E7855C58C15BC331339661262CC762340413D68D77DA5B42298546CBE6573AF60CEB2F504B0304140006080800CC70623B449FB9BD290100001202000031
310
0000006662782F36394639363044362D344446342D343946362D394244322D3234314243333846323333332F636F72652E786D6C8D515B6EC32010BC0AE22B55850D98B871848994463E412FE002495162B07854397EA176A4F62F3F2C9A9D991D587EB84F37F0AD7D30CEF6905418026DA553C65E7A98E219ED203808EE9D
310
8B7F6810D871D23D2C3014FCE25D9A57483A1BB58D19B54EE9151C43D0110279CB971E06F9A5A7B11A53CC8C70ADE6515EC78BAE4895DB992778883E0700CB907242D17643D7E2538BD869608875438BBAE38922CAC8F1BDD90DB4691A5E2F42C153326A951B95E398B3D1FE599322163C9AE9115F7A3D46ADA0A018778810
310
84E907617BDCEE297BC5BB3DC6BC2EF47FA234AB2745C9D8D8D035EE220B50105E2F0DC1954B9FB747187D9F9D8FA0CCDB042D5FA0C015C65B42DF78BD10F3F3B363CB56C7109DCFDFBBB97E662ED92EB62D13BC2E1BCAE5777DB9966D8A1F504B0304140006080800CC70623BAD7543B64E01000033030000300000006662
310
782F36394639363044362D344446342D343946362D394244322D3234314243333846323333332F636E782E786D6CD593CD6EC32010845F0571AD6CE3D48AD20813A9873E410FBD12D82434182C7EAAE6EDBB2424CD25871E7B41D6EC30B3FA84F9E67BB2E40B4234DE8DB46F1925E094D7C6ED479AD3AE5951B2113C789FEE
310
6C943839C1488B4C05DF079FE72A69D8C96C13AAD6B8631503449F83828872B949AC57D26200B826A308D316B4064D6E46FCDA41C05550DC9E483A00797BFD207EFB092A45DE9514C1BBD22178396BD39D891265658C238DEA00936C654E5E433CB65A26D9F6EDB5EBC14EBF49A45CB856E66048291F6939A9A81BB5C89177
310
38143CA680F4AA299D66A042CEB3354A2684DC9D8D178FE0D9B8B41CAAD720F880EE7EF93C0C18769E099ECC04D5A102C8049A8A05632F4DDF376CF1DE0F6BB65C2F8627B65A33C6BB62177CEBBDAD973006829F89F22E814B54F4BC2BE347F8AA8F681390B50FA73F804400B5F542E796F19FF974E7F78DB802FE05E20750
310
4B0304140006080800CC70623B8D05915C650500003B100000340000006662782F36394639363044362D344446342D343946362D394244322D3234314243333846323333332F6F626A656374732E786D6CAD575B6FA33814FE2B887D06429276DA1565D4266D158D3A339A6846FB502932E050B66023DB74D2FDF5FB190C01
310
9276B2973C046C8ECFF53B17071F77456EBD502133CEAE6CDF9DD81665314F32965ED995DA3A17B6F5310C04E7AA47665B8C14F4CAD6DB7618A48257A5D94AE89654B91AEDDEDDFC61C998326A5B714EA4BCB265FC440BE2924AF184CA6737218AB8E976E7FA6E4338649B0A523E8D98964450A6A029F619B8588D52FE7039
310
B1BD30F0F4F730D0FF866AF6369557DB33949F31A9088B0F848DD8CCFCF9F2767A76E99CCDE733677E3EF59D9BBB9BA5E37F984D16E78BC5E5F5ED25044B25C0C96822E8D60EEFE11B91C581D77CEA34368A1F5329E68CD1B8B61F16D63A1B8E092D294B10C78C4A48EB593D192E7DED9BDEE7995E1B91FDEDD3ACEA9FE831
310
6A756F9F7D4D79F4274C90A7A04248AA51D5F8C718DAE06FB2F75AC4796EBE65D22A88A22223B995679120E2D50E41AA49C260C046A35368846B0BECD0DFF3EBEB8AD4F835768F69B9ADF25C43D30E6B646F807FAA64AD59F61715C7A54127C4AACA98BA3006A9D792DAE165E0D59B61A01FB3A9F9D838D2DAE62445C86166
310
F37564E842E7DE6A69879FEEA2DD5AE7E371E1A5E025154AC307D06A03D73EB5978C58FFA4C8E9033066E0F3BD53BEC1F39F91BE7B55103791EDE6BBB991A2046172CB4581D8B893FA674DDA17A77B3B7C413D1B511FD2743BFF8A38F03A658705E3ADF8015C3A3417FF3D7E439FF591DA0B5F18BC20C1B8981957AE6392A3
310
F43C640C01D1A0B4728E2DD4F26DB4B3C3152A252A3B4E913CEC1C72F012782FF88EFF8637AA552DBEF76408E8A8DE9E50F9E1CB3A2DA0DB1B6039A893B56063DC5B3E3FFB5F72E67AB9FEB4AEC496C4F4C1149625DD662C53E89D7BF0F6151A046260D1337DFDC94502430F83B0EE07A130A224BCAD7DAE1D9FB6CD422FF6
310
920702629C4BB9AE79C12F243C6432A6794E18E5552BA56B431AAB5D91317302B2B071E86C3A42B1A02F999E24061403B5D0EB639195DA655DD3EBEAB4FB862DDF579F014AD0E73C22F99E28DA57FB98E75C6CA2D74D53086D600F4786E0FE3144B771A8A7B900F03594DB8A633CBC49B2EDB69228BB479CF863B5E807AAAB
310
23872F6DFEB4129B949CA33823F58830E86D65621E10047D9DB34D862E8EAC3C2ABC2F7B2C40D67CDFE01F5545B92105AF983AC54D93D69E56FB8E797F88913F898A9FEC705D3F9D1B54EC8426FB500D40A03BD0119B06E1B95DDC7EB8F6975367793EBD70E66733DFB9BC982F9CE564727731999F5D4ECFCE3B8D6A4DC2A0
310
6D50FD148437D110834A64C6CDDF57FBACB5C307A2A477DFE4939736CFEF2B175371E0E10CF0DD1D5C15654E0BCA14D1E87DD02FF93782A162C0A3D95F1524A52770F972BF1EE9809D13CE7DD599467F8ECE9ADD85CE85A34CD45355448C64F9E8A031DC2D596ACC6E5DD93D9B82DE2EF5CAF81363A8E47996A0DE24564A79
310
4115AACE09C55E14540231FDA13C319787134EBF34E3A022514E5B4D9E0826E25C02D5805B15ABE1BEF51B26383D445DD9E875EE33FE4C22DA16427D65A3BCA92CA6D28DD01DF5DC53330704308475351050232CCD31583787BA75774AFB06E5070DD0C8EF484E19968C5D83BA5B90B244D31E54D55A372320FE4786B7EA58
310
44E135AA5467CB7EA333A61683CC6A8C3257034C10CF46F40EF9F5BE59BE5BD30C3C72D235E95D10345C1D45445A5F0BB47E46A5EBE5570F9380B5FA629579952296A773720405982B9DE04011506178964401AA8BDF1FBF0A8EAB6861DD6580C0E38217056766716DAEB2D6FA0917D3E4116581EADB879C4E7CFFB11EFACD
310
3D641311495D92C8676CB409A72D18610D803CE8A626049E8EC1887CB5B44CC39883690DDA8399B4B9855B481E7D71D4A9D22F96E5BB73BF5793020C02137BF837504B0304140006080000CC70623B000000000000000000000000350000006662782F36394639363044362D344446342D343946362D394244322D32343142
310
43333846323333332F76657274696365732E62696E504B0304140006080800CC70623BF270F1330600000004000000360000006662782F36394639363044362D344446342D343946362D394244322D3234314243333846323333332F747269616E676C65732E62696E636660600000504B0304140006080000CC70623B0000
310
00000000000000000000370000006662782F36394639363044362D344446342D343946362D394244322D3234314243333846323333332F617474726962757465732E62696E504B0304140006080800CC70623B08DA0BD19000000041010000360000006662782F36394639363044362D344446342D343946362D394244322D
310
3234314243333846323333332F6469726563746F72792E786D6C858F410AC3201045AF22B36F53E9A60B35CBEEBAE80D244E44489C6234F4F835464A48035D0DF398FF9F8AF63D0E6CC63039F212F8F9020C7D47C6792B21C5FE7403D62A1188E2E60C98D7234A5830286103A55745067B9D86B8A3CF9C7F90C11DE607FB14
310
4396D7B6A82D282E9A152AD114D5EF2CB866EEE831B8EEA07A7BB5A8D7D61A2BAAEB7FD5F70921FF497D00504B0304140006080800CC70623BCA768048FE000000A00100003B0000006662782F36394639363044362D344446342D343946362D394244322D3234314243333846323333332F7265736F75726365732F636F72
310
652E786D6C8D50596E833010BD0A9ADFCA60D600328E9AA639412F609909B1126CE4A5EAF16B0295DABFFECC8CDEA2797AECF8353F924FB44E193D409E5248504B332A3D0D10FC95B4901C39B3C6F85F3248B49871801506CE266BC2B243D2688FDA47549B11775038871E12F988C7004EDE7016A9083E2ADC3D5D84BC8B09
310
D33C8D74D471E6BC8D0192EDC93A815B742658898E651BCB59086ADC356A8C3FD555A1055ED7E7E254D615792D0F075295F585746FF53B694EE78A565DD736979A65AB9933AFE69F8CD2A2F038022F28ED489E135A7CE4554F9BBEA85E68DB53CAB255FEC71496F19FA6A0B42F8B3DEE6673C0F318E4497096AD7DC5F52C33
310
EEB55BFE0D504B010214000A0000080000CC70623B3DEE336E79000000790000001B00000000000000000000000000000000006175746F6465736B2D64657369676E2D7061636B6167652E786D6C504B01021400140006080800CC70623BD486FD9CA0000000F40000001300000000000000000000000000B20000005B436F
310
6E74656E745F54797065735D2E786D6C504B01021400140006080800CC70623BD9DDAED0EC0000007C010000080000000000000000000000000083010000636F72652E786D6C504B01021400140006080800CC70623B55019EA25F0000007C000000070000000000000000000000000095020000636E782E786D6C504B0102
310
1400140006080800CC70623BA24EB22D72010000D40300000C00000000000000000000000000190300006662782F636F72652E786D6C504B01021400140006080800CC70623B408A7D3B7C0000009D0000000B00000000000000000000000000B50400006662782F636E782E786D6C504B01021400140006080800CC70623B
310
449FB9BD290100001202000031000000000000000000000000005A0500006662782F36394639363044362D344446342D343946362D394244322D3234314243333846323333332F636F72652E786D6C504B01021400140006080800CC70623BAD7543B64E010000330300003000000000000000000000000000D20600006662
310
782F36394639363044362D344446342D343946362D394244322D3234314243333846323333332F636E782E786D6C504B01021400140006080800CC70623B8D05915C650500003B10000034000000000000000000000000006E0800006662782F36394639363044362D344446342D343946362D394244322D32343142433338
310
46323333332F6F626A656374732E786D6C504B01021400140006080000CC70623B0000000000000000000000003500000000000000000000000000250E00006662782F36394639363044362D344446342D343946362D394244322D3234314243333846323333332F76657274696365732E62696E504B010214001400060808
310
00CC70623BF270F13306000000040000003600000000000000000000000000780E00006662782F36394639363044362D344446342D343946362D394244322D3234314243333846323333332F747269616E676C65732E62696E504B01021400140006080000CC70623B00000000000000000000000037000000000000000000
310
00000000D20E00006662782F36394639363044362D344446342D343946362D394244322D3234314243333846323333332F617474726962757465732E62696E504B01021400140006080800CC70623B08DA0BD190000000410100003600000000000000000000000000270F00006662782F36394639363044362D344446342D
310
343946362D394244322D3234314243333846323333332F6469726563746F72792E786D6C504B01021400140006080800CC70623BCA768048FE000000A00100003B000000000000000000000000000B1000006662782F36394639363044362D344446342D343946362D394244322D3234314243333846323333332F7265736F
310
75726365732F636F72652E786D6C504B0506000000000E000E0080040000621100000000
  0
XRECORD
  5
12
102
{ACAD_REACTORS
330
D
102
}
330
D
100
AcDbXrecord
280
     1
270
     1
271
     1
  0
XRECORD
  5
13
102
{ACAD_REACTORS
330
D
102
}
330
D
100
AcDbXrecord
280
     1
270
     1
271
     1
  0
CELLSTYLEMAP
  5
40C
102
{ACAD_REACTORS
330
44
102
}
330
44
100
AcDbCellStyleMap
 90
        3
300
CELLSTYLE
  1
TABLEFORMAT_BEGIN
 90
        5
170
     1
 91
        0
 92
    32768
 62
   257
 93
        1
300
CONTENTFORMAT
  1
CONTENTFORMAT_BEGIN
 90
        0
 91
        0
 92
      512
 93
        0
300

 40
0.0
140
1.0
 94
        5
 62
     0
340
23
144
6.0
309
CONTENTFORMAT_END
171
     1
301
MARGIN
  1
CELLMARGIN_BEGIN
 40
1.5
 40
1.5
 40
1.5
 40
1.5
 40
0.18
 40
0.18
309
CELLMARGIN_END
 94
        6
 95
        1
302
GRIDFORMAT
  1
GRIDFORMAT_BEGIN
 90
        0
 91
        1
 62
     0
 92
       -2
340
26
 93
        0
 40
1.125
309
GRIDFORMAT_END
 95
        2
302
GRIDFORMAT
  1
GRIDFORMAT_BEGIN
 90
        0
 91
        1
 62
     0
 92
       -2
340
26
 93
        0
 40
1.125
309
GRIDFORMAT_END
 95
        4
302
GRIDFORMAT
  1
GRIDFORMAT_BEGIN
 90
        0
 91
        1
 62
     0
 92
       -2
340
26
 93
        0
 40
1.125
309
GRIDFORMAT_END
 95
        8
302
GRIDFORMAT
  1
GRIDFORMAT_BEGIN
 90
        0
 91
        1
 62
     0
 92
       -2
340
26
 93
        0
 40
1.125
309
GRIDFORMAT_END
 95
       16
302
GRIDFORMAT
  1
GRIDFORMAT_BEGIN
 90
        0
 91
        1
 62
     0
 92
       -2
340
26
 93
        0
 40
1.125
309
GRIDFORMAT_END
 95
       32
302
GRIDFORMAT
  1
GRIDFORMAT_BEGIN
 90
        0
 91
        1
 62
     0
 92
       -2
340
26
 93
        0
 40
1.125
309
GRIDFORMAT_END
309
TABLEFORMAT_END
  1
CELLSTYLE_BEGIN
 90
        1
 91
        1
300
_TITLE
309
CELLSTYLE_END
300
CELLSTYLE
  1
TABLEFORMAT_BEGIN
 90
        5
170
     1
 91
        0
 92
        0
 62
   257
 93
        1
300
CONTENTFORMAT
  1
CONTENTFORMAT_BEGIN
 90
        0
 91
        0
 92
      512
 93
        0
300

 40
0.0
140
1.0
 94
        5
 62
     0
340
23
144
4.5
309
CONTENTFORMAT_END
171
     1
301
MARGIN
  1
CELLMARGIN_BEGIN
 40
1.5
 40
1.5
 40
1.5
 40
1.5
 40
0.18
 40
0.18
309
CELLMARGIN_END
 94
        6
 95
        1
302
GRIDFORMAT
  1
GRIDFORMAT_BEGIN
 90
        0
 91
        1
 62
     0
 92
       -2
340
26
 93
        0
 40
1.125
309
GRIDFORMAT_END
 95
        2
302
GRIDFORMAT
  1
GRIDFORMAT_BEGIN
 90
        0
 91
        1
 62
     0
 92
       -2
340
26
 93
        0
 40
1.125
309
GRIDFORMAT_END
 95
        4
302
GRIDFORMAT
  1
GRIDFORMAT_BEGIN
 90
        0
 91
        1
 62
     0
 92
       -2
340
26
 93
        0
 40
1.125
309
GRIDFORMAT_END
 95
        8
302
GRIDFORMAT
  1
GRIDFORMAT_BEGIN
 90
        0
 91
        1
 62
     0
 92
       -2
340
26
 93
        0
 40
1.125
309
GRIDFORMAT_END
 95
       16
302
GRIDFORMAT
  1
GRIDFORMAT_BEGIN
 90
        0
 91
        1
 62
     0
 92
       -2
340
26
 93
        0
 40
1.125
309
GRIDFORMAT_END
 95
       32
302
GRIDFORMAT
  1
GRIDFORMAT_BEGIN
 90
        0
 91
        1
 62
     0
 92
       -2
340
26
 93
        0
 40
1.125
309
GRIDFORMAT_END
309
TABLEFORMAT_END
  1
CELLSTYLE_BEGIN
 90
        2
 91
        1
300
_HEADER
309
CELLSTYLE_END
300
CELLSTYLE
  1
TABLEFORMAT_BEGIN
 90
        5
170
     1
 91
        0
 92
        0
 62
   257
 93
        1
300
CONTENTFORMAT
  1
CONTENTFORMAT_BEGIN
 90
        0
 91
        0
 92
      512
 93
        0
300

 40
0.0
140
1.0
 94
        2
 62
     0
340
23
144
4.5
309
CONTENTFORMAT_END
171
     1
301
MARGIN
  1
CELLMARGIN_BEGIN
 40
1.5
 40
1.5
 40
1.5
 40
1.5
 40
0.18
 40
0.18
309
CELLMARGIN_END
 94
        6
 95
        1
302
GRIDFORMAT
  1
GRIDFORMAT_BEGIN
 90
        0
 91
        1
 62
     0
 92
       -2
340
26
 93
        0
 40
1.125
309
GRIDFORMAT_END
 95
        2
302
GRIDFORMAT
  1
GRIDFORMAT_BEGIN
 90
        0
 91
        1
 62
     0
 92
       -2
340
26
 93
        0
 40
1.125
309
GRIDFORMAT_END
 95
        4
302
GRIDFORMAT
  1
GRIDFORMAT_BEGIN
 90
        0
 91
        1
 62
     0
 92
       -2
340
26
 93
        0
 40
1.125
309
GRIDFORMAT_END
 95
        8
302
GRIDFORMAT
  1
GRIDFORMAT_BEGIN
 90
        0
 91
        1
 62
     0
 92
       -2
340
26
 93
        0
 40
1.125
309
GRIDFORMAT_END
 95
       16
302
GRIDFORMAT
  1
GRIDFORMAT_BEGIN
 90
        0
 91
        1
 62
     0
 92
       -2
340
26
 93
        0
 40
1.125
309
GRIDFORMAT_END
 95
       32
302
GRIDFORMAT
  1
GRIDFORMAT_BEGIN
 90
        0
 91
        1
 62
     0
 92
       -2
340
26
 93
        0
 40
1.125
309
GRIDFORMAT_END
309
TABLEFORMAT_END
  1
CELLSTYLE_BEGIN
 90
        3
 91
        2
300
_DATA
309
CELLSTYLE_END
  0
XRECORD
  5
418
102
{ACAD_REACTORS
330
44
102
}
330
44
100
AcDbXrecord
280
     1
102
ACAD_ROUNDTRIP_PRE2007_TABLESTYLE
 90
      512
 91
        0
  1

 92
      512
 93
        0
  2

 94
      512
 95
        0
  3

  0
XRECORD
  5
417
102
{ACAD_REACTORS
330
416
102
}
330
416
100
AcDbXrecord
280
     1
102
RTVSPost2010Prop28
280
     1
102
RTVSPost2010PropOp28
 70
     1
102
RTVSPost2010Prop29
280
     1
102
RTVSPost2010PropOp29
 70
     1
102
RTVSPost2010Prop30
280
     0
102
RTVSPost2010PropOp30
 70
     1
102
RTVSPost2010Prop31
280
     0
102
RTVSPost2010PropOp31
 70
     1
102
RTVSPost2010Prop32
280
     0
102
RTVSPost2010PropOp32
 70
     1
102
RTVSPost2010Prop33
280
     0
102
RTVSPost2010PropOp33
 70
     1
102
RTVSPost2010Prop34
280
     0
102
RTVSPost2010PropOp34
 70
     1
102
RTVSPost2010Prop35
280
     0
102
RTVSPost2010PropOp35
 70
     1
102
RTVSPost2010Prop36
280
     0
102
RTVSPost2010PropOp36
 70
     1
102
RTVSPost2010Prop37
 90
       50
102
RTVSPost2010PropOp37
 70
     1
102
RTVSPost2010Prop38
140
0.0
102
RTVSPost2010PropOp38
 70
     1
102
RTVSPost2010Prop39
140
1.0
102
RTVSPost2010PropOp39
 70
     1
102
RTVSPost2010Prop40
 90
        0
102
RTVSPost2010PropOp40
 70
     1
102
RTVSPost2010Prop41ColorIndex
 90
       18
102
RTVSPost2010Prop41ColorRGB
 90
        0
102
RTVSPost2010PropOp41
 70
     1
102
RTVSPost2010Prop42
 90
       50
102
RTVSPost2010PropOp42
 70
     1
102
RTVSPost2010Prop43
 90
        3
102
RTVSPost2010PropOp43
 70
     1
102
RTVSPost2010Prop44ColorIndex
 90
        5
102
RTVSPost2010Prop44ColorRGB
 90
      255
102
RTVSPost2010PropOp44
 70
     1
102
RTVSPost2010Prop45
280
     0
102
RTVSPost2010PropOp45
 70
     1
102
RTVSPost2010Prop46
 90
       50
102
RTVSPost2010PropOp46
 70
     1
102
RTVSPost2010Prop47
 90
       50
102
RTVSPost2010PropOp47
 70
     1
102
RTVSPost2010Prop48
 90
       50
102
RTVSPost2010PropOp48
 70
     1
102
RTVSPost2010Prop49
280
     0
102
RTVSPost2010PropOp49
 70
     1
102
RTVSPost2010Prop50
 90
       50
102
RTVSPost2010PropOp50
 70
     1
102
RTVSPost2010Prop51ColorIndex
 90
      256
102
RTVSPost2010Prop51ColorRGB
 90
-16777216
102
RTVSPost2010PropOp51
 70
     0
102
RTVSPost2010Prop52
140
1.0
102
RTVSPost2010PropOp52
 70
     0
102
RTVSPost2010Prop53
 90
        2
102
RTVSPost2010PropOp53
 70
     1
102
RTVSPost2010Prop54
  1
strokes_ogs.tif
102
RTVSPost2010PropOp54
 70
     1
102
RTVSPost2010Prop55
280
     0
102
RTVSPost2010PropOp55
 70
     1
102
RTVSPost2010Prop56
140
1.0
102
RTVSPost2010PropOp56
 70
     1
102
RTVSPost2010Prop57
140
1.0
102
RTVSPost2010PropOp57
 70
     1
102
RTVSPropertyOp0
 70
     1
102
RTVSPropertyOp1
 70
     1
102
RTVSPropertyOp2
 70
     1
102
RTVSPropertyOp3
 70
     1
102
RTVSPropertyOp4
 70
     1
102
RTVSPropertyOp5
 70
     1
102
RTVSPropertyOp6
 70
     1
102
RTVSPropertyOp7
 70
     1
102
RTVSPropertyOp8
 70
     1
102
RTVSPropertyOp9
 70
     1
102
RTVSPropertyOp10
 70
     1
102
RTVSPropertyOp11
 70
     1
102
RTVSPropertyOp12
 70
     1
102
RTVSPropertyOp13
 70
     1
102
RTVSPropertyOp14
 70
     1
102
RTVSPropertyOp15
 70
     1
102
RTVSPropertyOp16
 70
     1
102
RTVSPropertyOp17
 70
     1
102
RTVSPropertyOp18
 70
     1
102
RTVSPropertyOp19
 70
     1
102
RTVSPropertyOp20
 70
     1
102
RTVSPropertyOp21
 70
     1
102
RTVSPropertyOp22
 70
     1
102
RTVSPropertyOp23
 70
     1
102
RTVSPropertyOp24
 70
     1
102
RTVSPropertyOp25
 70
     1
102
RTVSPropertyOp26
 70
     1
102
RTVSPropertyOp27
 70
     1
102
RTVSPropertyOp28
 70
     1
102
RTVSPropertyOp29
 70
     1
102
RTVSPropertyOp30
 70
     1
102
RTVSPropertyOp31
 70
     1
102
RTVSPropertyOp32
 70
     1
102
RTVSPropertyOp33
 70
     1
102
RTVSPropertyOp34
 70
     1
102
RTVSPropertyOp35
 70
     1
102
RTVSPropertyOp36
 70
     1
102
RTVSPropertyOp37
 70
     1
102
RTVSPropertyOp38
 70
     1
102
RTVSPropertyOp39
 70
     1
102
RTVSPropertyOp40
 70
     1
102
RTVSPropertyOp41
 70
     1
102
RTVSPropertyOp42
 70
     1
102
RTVSPropertyOp43
 70
     1
102
RTVSPropertyOp44
 70
     1
102
RTVSPropertyOp45
 70
     1
102
RTVSPropertyOp46
 70
     1
102
RTVSPropertyOp47
 70
     1
102
RTVSPropertyOp48
 70
     1
102
RTVSPropertyOp49
 70
     1
102
RTVSPropertyOp50
 70
     1
102
RTVSPropertyOp51
 70
     0
102
RTVSPropertyOp52
 70
     0
102
RTVSPropertyOp53
 70
     1
102
RTVSPropertyOp54
 70
     1
102
RTVSPropertyOp55
 70
     1
102
RTVSPropertyOp56
 70
     1
102
RTVSPropertyOp57
 70
     1
102
RTVSPropertyOp58
 70
     1
102
RTVSPropertyOp59
 70
     1
102
RTVSPropertyOp60
 70
     1
102
RTVSPropertyOp61
 70
     1
102
RTVSPropertyOp62
 70
     1
  0
XRECORD
  5
41A
102
{ACAD_REACTORS
330
419
102
}
330
419
100
AcDbXrecord
280
     1
102
RTVSPost2010Prop28
280
     0
102
RTVSPost2010PropOp28
 70
     1
102
RTVSPost2010Prop29
280
     1
102
RTVSPost2010PropOp29
 70
     1
102
RTVSPost2010Prop30
280
     1
102
RTVSPost2010PropOp30
 70
     1
102
RTVSPost2010Prop31
280
     0
102
RTVSPost2010PropOp31
 70
     1
102
RTVSPost2010Prop32
280
     0
102
RTVSPost2010PropOp32
 70
     1
102
RTVSPost2010Prop33
280
     0
102
RTVSPost2010PropOp33
 70
     1
102
RTVSPost2010Prop34
280
     0
102
RTVSPost2010PropOp34
 70
     1
102
RTVSPost2010Prop35
280
     0
102
RTVSPost2010PropOp35
 70
     1
102
RTVSPost2010Prop36
280
     0
102
RTVSPost2010PropOp36
 70
     1
102
RTVSPost2010Prop37
 90
       50
102
RTVSPost2010PropOp37
 70
     1
102
RTVSPost2010Prop38
140
0.0
102
RTVSPost2010PropOp38
 70
     1
102
RTVSPost2010Prop39
140
1.0
102
RTVSPost2010PropOp39
 70
     1
102
RTVSPost2010Prop40
 90
        0
102
RTVSPost2010PropOp40
 70
     1
102
RTVSPost2010Prop41ColorIndex
 90
       18
102
RTVSPost2010Prop41ColorRGB
 90
        0
102
RTVSPost2010PropOp41
 70
     1
102
RTVSPost2010Prop42
 90
       50
102
RTVSPost2010PropOp42
 70
     1
102
RTVSPost2010Prop43
 90
        3
102
RTVSPost2010PropOp43
 70
     1
102
RTVSPost2010Prop44ColorIndex
 90
        5
102
RTVSPost2010Prop44ColorRGB
 90
      255
102
RTVSPost2010PropOp44
 70
     1
102
RTVSPost2010Prop45
280
     0
102
RTVSPost2010PropOp45
 70
     1
102
RTVSPost2010Prop46
 90
       50
102
RTVSPost2010PropOp46
 70
     1
102
RTVSPost2010Prop47
 90
       50
102
RTVSPost2010PropOp47
 70
     1
102
RTVSPost2010Prop48
 90
       50
102
RTVSPost2010PropOp48
 70
     1
102
RTVSPost2010Prop49
280
     0
102
RTVSPost2010PropOp49
 70
     1
102
RTVSPost2010Prop50
 90
       50
102
RTVSPost2010PropOp50
 70
     1
102
RTVSPost2010Prop51ColorIndex
 90
      256
102
RTVSPost2010Prop51ColorRGB
 90
-16777216
102
RTVSPost2010PropOp51
 70
     0
102
RTVSPost2010Prop52
140
1.0
102
RTVSPost2010PropOp52
 70
     0
102
RTVSPost2010Prop53
 90
        2
102
RTVSPost2010PropOp53
 70
     1
102
RTVSPost2010Prop54
  1
strokes_ogs.tif
102
RTVSPost2010PropOp54
 70
     1
102
RTVSPost2010Prop55
280
     0
102
RTVSPost2010PropOp55
 70
     1
102
RTVSPost2010Prop56
140
1.0
102
RTVSPost2010PropOp56
 70
     1
102
RTVSPost2010Prop57
140
1.0
102
RTVSPost2010PropOp57
 70
     1
102
RTVSPropertyOp0
 70
     1
102
RTVSPropertyOp1
 70
     1
102
RTVSPropertyOp2
 70
     1
102
RTVSPropertyOp3
 70
     1
102
RTVSPropertyOp4
 70
     1
102
RTVSPropertyOp5
 70
     1
102
RTVSPropertyOp6
 70
     1
102
RTVSPropertyOp7
 70
     1
102
RTVSPropertyOp8
 70
     1
102
RTVSPropertyOp9
 70
     1
102
RTVSPropertyOp10
 70
     1
102
RTVSPropertyOp11
 70
     1
102
RTVSPropertyOp12
 70
     1
102
RTVSPropertyOp13
 70
     1
102
RTVSPropertyOp14
 70
     1
102
RTVSPropertyOp15
 70
     1
102
RTVSPropertyOp16
 70
     1
102
RTVSPropertyOp17
 70
     1
102
RTVSPropertyOp18
 70
     1
102
RTVSPropertyOp19
 70
     1
102
RTVSPropertyOp20
 70
     1
102
RTVSPropertyOp21
 70
     1
102
RTVSPropertyOp22
 70
     1
102
RTVSPropertyOp23
 70
     1
102
RTVSPropertyOp24
 70
     1
102
RTVSPropertyOp25
 70
     1
102
RTVSPropertyOp26
 70
     1
102
RTVSPropertyOp27
 70
     1
102
RTVSPropertyOp28
 70
     1
102
RTVSPropertyOp29
 70
     1
102
RTVSPropertyOp30
 70
     1
102
RTVSPropertyOp31
 70
     1
102
RTVSPropertyOp32
 70
     1
102
RTVSPropertyOp33
 70
     1
102
RTVSPropertyOp34
 70
     1
102
RTVSPropertyOp35
 70
     1
102
RTVSPropertyOp36
 70
     1
102
RTVSPropertyOp37
 70
     1
102
RTVSPropertyOp38
 70
     1
102
RTVSPropertyOp39
 70
     1
102
RTVSPropertyOp40
 70
     1
102
RTVSPropertyOp41
 70
     1
102
RTVSPropertyOp42
 70
     1
102
RTVSPropertyOp43
 70
     1
102
RTVSPropertyOp44
 70
     1
102
RTVSPropertyOp45
 70
     1
102
RTVSPropertyOp46
 70
     1
102
RTVSPropertyOp47
 70
     1
102
RTVSPropertyOp48
 70
     1
102
RTVSPropertyOp49
 70
     1
102
RTVSPropertyOp50
 70
     1
102
RTVSPropertyOp51
 70
     0
102
RTVSPropertyOp52
 70
     0
102
RTVSPropertyOp53
 70
     1
102
RTVSPropertyOp54
 70
     1
102
RTVSPropertyOp55
 70
     1
102
RTVSPropertyOp56
 70
     1
102
RTVSPropertyOp57
 70
     1
102
RTVSPropertyOp58
 70
     1
102
RTVSPropertyOp59
 70
     1
102
RTVSPropertyOp60
 70
     1
102
RTVSPropertyOp61
 70
     1
102
RTVSPropertyOp62
 70
     1
  0
XRECORD
  5
41C
102
{ACAD_REACTORS
330
41B
102
}
330
41B
100
AcDbXrecord
280
     1
102
RTVSPost2010Prop28
280
     0
102
RTVSPost2010PropOp28
 70
     1
102
RTVSPost2010Prop29
280
     1
102
RTVSPost2010PropOp29
 70
     1
102
RTVSPost2010Prop30
280
     1
102
RTVSPost2010PropOp30
 70
     1
102
RTVSPost2010Prop31
280
     0
102
RTVSPost2010PropOp31
 70
     1
102
RTVSPost2010Prop32
280
     0
102
RTVSPost2010PropOp32
 70
     1
102
RTVSPost2010Prop33
280
     0
102
RTVSPost2010PropOp33
 70
     1
102
RTVSPost2010Prop34
280
     0
102
RTVSPost2010PropOp34
 70
     1
102
RTVSPost2010Prop35
280
     0
102
RTVSPost2010PropOp35
 70
     1
102
RTVSPost2010Prop36
280
     0
102
RTVSPost2010PropOp36
 70
     1
102
RTVSPost2010Prop37
 90
       50
102
RTVSPost2010PropOp37
 70
     1
102
RTVSPost2010Prop38
140
0.0
102
RTVSPost2010PropOp38
 70
     1
102
RTVSPost2010Prop39
140
1.0
102
RTVSPost2010PropOp39
 70
     1
102
RTVSPost2010Prop40
 90
        0
102
RTVSPost2010PropOp40
 70
     1
102
RTVSPost2010Prop41ColorIndex
 90
       18
102
RTVSPost2010Prop41ColorRGB
 90
        0
102
RTVSPost2010PropOp41
 70
     1
102
RTVSPost2010Prop42
 90
       50
102
RTVSPost2010PropOp42
 70
     1
102
RTVSPost2010Prop43
 90
        3
102
RTVSPost2010PropOp43
 70
     1
102
RTVSPost2010Prop44ColorIndex
 90
        5
102
RTVSPost2010Prop44ColorRGB
 90
      255
102
RTVSPost2010PropOp44
 70
     1
102
RTVSPost2010Prop45
280
     0
102
RTVSPost2010PropOp45
 70
     1
102
RTVSPost2010Prop46
 90
       50
102
RTVSPost2010PropOp46
 70
     1
102
RTVSPost2010Prop47
 90
       50
102
RTVSPost2010PropOp47
 70
     1
102
RTVSPost2010Prop48
 90
       50
102
RTVSPost2010PropOp48
 70
     1
102
RTVSPost2010Prop49
280
     0
102
RTVSPost2010PropOp49
 70
     1
102
RTVSPost2010Prop50
 90
       50
102
RTVSPost2010PropOp50
 70
     1
102
RTVSPost2010Prop51ColorIndex
 90
      256
102
RTVSPost2010Prop51ColorRGB
 90
-16777216
102
RTVSPost2010PropOp51
 70
     0
102
RTVSPost2010Prop52
140
1.0
102
RTVSPost2010PropOp52
 70
     0
102
RTVSPost2010Prop53
 90
        2
102
RTVSPost2010PropOp53
 70
     1
102
RTVSPost2010Prop54
  1
strokes_ogs.tif
102
RTVSPost2010PropOp54
 70
     1
102
RTVSPost2010Prop55
280
     0
102
RTVSPost2010PropOp55
 70
     1
102
RTVSPost2010Prop56
140
1.0
102
RTVSPost2010PropOp56
 70
     1
102
RTVSPost2010Prop57
140
1.0
102
RTVSPost2010PropOp57
 70
     1
102
RTVSPropertyOp0
 70
     1
102
RTVSPropertyOp1
 70
     1
102
RTVSPropertyOp2
 70
     1
102
RTVSPropertyOp3
 70
     1
102
RTVSPropertyOp4
 70
     1
102
RTVSPropertyOp5
 70
     1
102
RTVSPropertyOp6
 70
     1
102
RTVSPropertyOp7
 70
     1
102
RTVSPropertyOp8
 70
     1
102
RTVSPropertyOp9
 70
     1
102
RTVSPropertyOp10
 70
     1
102
RTVSPropertyOp11
 70
     1
102
RTVSPropertyOp12
 70
     1
102
RTVSPropertyOp13
 70
     1
102
RTVSPropertyOp14
 70
     1
102
RTVSPropertyOp15
 70
     1
102
RTVSPropertyOp16
 70
     1
102
RTVSPropertyOp17
 70
     1
102
RTVSPropertyOp18
 70
     1
102
RTVSPropertyOp19
 70
     1
102
RTVSPropertyOp20
 70
     1
102
RTVSPropertyOp21
 70
     1
102
RTVSPropertyOp22
 70
     1
102
RTVSPropertyOp23
 70
     1
102
RTVSPropertyOp24
 70
     1
102
RTVSPropertyOp25
 70
     1
102
RTVSPropertyOp26
 70
     1
102
RTVSPropertyOp27
 70
     1
102
RTVSPropertyOp28
 70
     1
102
RTVSPropertyOp29
 70
     1
102
RTVSPropertyOp30
 70
     1
102
RTVSPropertyOp31
 70
     1
102
RTVSPropertyOp32
 70
     1
102
RTVSPropertyOp33
 70
     1
102
RTVSPropertyOp34
 70
     1
102
RTVSPropertyOp35
 70
     1
102
RTVSPropertyOp36
 70
     1
102
RTVSPropertyOp37
 70
     1
102
RTVSPropertyOp38
 70
     1
102
RTVSPropertyOp39
 70
     1
102
RTVSPropertyOp40
 70
     1
102
RTVSPropertyOp41
 70
     1
102
RTVSPropertyOp42
 70
     1
102
RTVSPropertyOp43
 70
     1
102
RTVSPropertyOp44
 70
     1
102
RTVSPropertyOp45
 70
     1
102
RTVSPropertyOp46
 70
     1
102
RTVSPropertyOp47
 70
     1
102
RTVSPropertyOp48
 70
     1
102
RTVSPropertyOp49
 70
     1
102
RTVSPropertyOp50
 70
     1
102
RTVSPropertyOp51
 70
     0
102
RTVSPropertyOp52
 70
     0
102
RTVSPropertyOp53
 70
     1
102
RTVSPropertyOp54
 70
     1
102
RTVSPropertyOp55
 70
     1
102
RTVSPropertyOp56
 70
     1
102
RTVSPropertyOp57
 70
     1
102
RTVSPropertyOp58
 70
     1
102
RTVSPropertyOp59
 70
     1
102
RTVSPropertyOp60
 70
     1
102
RTVSPropertyOp61
 70
     1
102
RTVSPropertyOp62
 70
     1
  0
ENDSEC
  0
EOF
