  0
SECTION
  2
HEADER
  9
$ACADVER
  1
AC1018
  9
$ACADMAINTVER
 70
   104
  9
$DWGCODEPAGE
  3
ANSI_932
  9
$INSBASE
 10
0.0
 20
0.0
 30
0.0
  9
$EXTMIN
 10
1.456706421246138
 20
2.286619956346086
 30
-0.0015258207003583
  9
$EXTMAX
 10
51.46306775104782
 20
24.04419716054937
 30
0.0000000349246037
  9
$LIMMIN
 10
-5.671128176342108
 20
-5.067661324202163
  9
$LIMMAX
 10
60.10425623856258
 20
32.21332673466804
  9
$ORTHOMODE
 70
     0
  9
$REGENMODE
 70
     1
  9
$FILLMODE
 70
     1
  9
$QTEXTMODE
 70
     0
  9
$MIRRTEXT
 70
     0
  9
$LTSCALE
 40
1.0
  9
$ATTMODE
 70
     1
  9
$TEXTSIZE
 40
2.5
  9
$TRACEWID
 40
1.0
  9
$TEXTSTYLE
  7
Standard
  9
$CLAYER
  8
0
  9
$CELTYPE
  6
ByLayer
  9
$CECOLOR
 62
   256
  9
$CELTSCALE
 40
1.0
  9
$DISPSILH
 70
     0
  9
$DIMSCALE
 40
1.0
  9
$DIMASZ
 40
2.5
  9
$DIMEXO
 40
0.625
  9
$DIMDLI
 40
3.75
  9
$DIMRND
 40
0.0
  9
$DIMDLE
 40
0.0
  9
$DIMEXE
 40
1.25
  9
$DIMTP
 40
0.0
  9
$DIMTM
 40
0.0
  9
$DIMTXT
 40
2.5
  9
$DIMCEN
 40
2.5
  9
$DIMTSZ
 40
0.0
  9
$DIMTOL
 70
     0
  9
$DIMLIM
 70
     0
  9
$DIMTIH
 70
     0
  9
$DIMTOH
 70
     0
  9
$DIMSE1
 70
     0
  9
$DIMSE2
 70
     0
  9
$DIMTAD
 70
     1
  9
$DIMZIN
 70
     8
  9
$DIMBLK
  1

  9
$DIMASO
 70
     1
  9
$DIMSHO
 70
     1
  9
$DIMPOST
  1

  9
$DIMAPOST
  1

  9
$DIMALT
 70
     0
  9
$DIMALTD
 70
     3
  9
$DIMALTF
 40
0.03937007874016
  9
$DIMLFAC
 40
1.0
  9
$DIMTOFL
 70
     1
  9
$DIMTVP
 40
0.0
  9
$DIMTIX
 70
     0
  9
$DIMSOXD
 70
     0
  9
$DIMSAH
 70
     0
  9
$DIMBLK1
  1

  9
$DIMBLK2
  1

  9
$DIMSTYLE
  2
ISO-25
  9
$DIMCLRD
 70
     0
  9
$DIMCLRE
 70
     0
  9
$DIMCLRT
 70
     0
  9
$DIMTFAC
 40
1.0
  9
$DIMGAP
 40
0.625
  9
$DIMJUST
 70
     0
  9
$DIMSD1
 70
     0
  9
$DIMSD2
 70
     0
  9
$DIMTOLJ
 70
     0
  9
$DIMTZIN
 70
     8
  9
$DIMALTZ
 70
     0
  9
$DIMALTTZ
 70
     0
  9
$DIMUPT
 70
     0
  9
$DIMDEC
 70
     2
  9
$DIMTDEC
 70
     2
  9
$DIMALTU
 70
     2
  9
$DIMALTTD
 70
     3
  9
$DIMTXSTY
  7
Standard
  9
$DIMAUNIT
 70
     0
  9
$DIMADEC
 70
     0
  9
$DIMALTRND
 40
0.0
  9
$DIMAZIN
 70
     0
  9
$DIMDSEP
 70
    44
  9
$DIMATFIT
 70
     3
  9
$DIMFRAC
 70
     0
  9
$DIMLDRBLK
  1

  9
$DIMLUNIT
 70
     2
  9
$DIMLWD
 70
    -2
  9
$DIMLWE
 70
    -2
  9
$DIMTMOVE
 70
     0
  9
$LUNITS
 70
     2
  9
$LUPREC
 70
     4
  9
$SKETCHINC
 40
1.0
  9
$FILLETRAD
 40
0.0
  9
$AUNITS
 70
     0
  9
$AUPREC
 70
     0
  9
$MENU
  1
.
  9
$ELEVATION
 40
0.0
  9
$PELEVATION
 40
0.0
  9
$THICKNESS
 40
0.0
  9
$LIMCHECK
 70
     0
  9
$CHAMFERA
 40
0.0
  9
$CHAMFERB
 40
0.0
  9
$CHAMFERC
 40
0.0
  9
$CHAMFERD
 40
0.0
  9
$SKPOLY
 70
     0
  9
$TDCREATE
 40
2458226.661261574
  9
$TDUCREATE
 40
2458226.327928241
  9
$TDUPDATE
 40
2458941.439699074
  9
$TDUUPDATE
 40
2458941.106365741
  9
$TDINDWG
 40
0.0866898148
  9
$TDUSRTIMER
 40
0.0866898148
  9
$USRTIMER
 70
     1
  9
$ANGBASE
 50
0.0
  9
$ANGDIR
 70
     0
  9
$PDMODE
 70
     0
  9
$PDSIZE
 40
0.0
  9
$PLINEWID
 40
0.0
  9
$SPLFRAME
 70
     0
  9
$SPLINETYPE
 70
     6
  9
$SPLINESEGS
 70
     8
  9
$HANDSEED
  5
3F3
  9
$SURFTAB1
 70
     6
  9
$SURFTAB2
 70
     6
  9
$SURFTYPE
 70
     6
  9
$SURFU
 70
     6
  9
$SURFV
 70
     6
  9
$UCSBASE
  2

  9
$UCSNAME
  2

  9
$UCSORG
 10
0.0
 20
0.0
 30
0.0
  9
$UCSXDIR
 10
1.0
 20
0.0
 30
0.0
  9
$UCSYDIR
 10
0.0
 20
1.0
 30
0.0
  9
$UCSORTHOREF
  2

  9
$UCSORTHOVIEW
 70
     0
  9
$UCSORGTOP
 10
0.0
 20
0.0
 30
0.0
  9
$UCSORGBOTTOM
 10
0.0
 20
0.0
 30
0.0
  9
$UCSORGLEFT
 10
0.0
 20
0.0
 30
0.0
  9
$UCSORGRIGHT
 10
0.0
 20
0.0
 30
0.0
  9
$UCSORGFRONT
 10
0.0
 20
0.0
 30
0.0
  9
$UCSORGBACK
 10
0.0
 20
0.0
 30
0.0
  9
$PUCSBASE
  2

  9
$PUCSNAME
  2

  9
$PUCSORG
 10
0.0
 20
0.0
 30
0.0
  9
$PUCSXDIR
 10
1.0
 20
0.0
 30
0.0
  9
$PUCSYDIR
 10
0.0
 20
1.0
 30
0.0
  9
$PUCSORTHOREF
  2

  9
$PUCSORTHOVIEW
 70
     0
  9
$PUCSORGTOP
 10
0.0
 20
0.0
 30
0.0
  9
$PUCSORGBOTTOM
 10
0.0
 20
0.0
 30
0.0
  9
$PUCSORGLEFT
 10
0.0
 20
0.0
 30
0.0
  9
$PUCSORGRIGHT
 10
0.0
 20
0.0
 30
0.0
  9
$PUCSORGFRONT
 10
0.0
 20
0.0
 30
0.0
  9
$PUCSORGBACK
 10
0.0
 20
0.0
 30
0.0
  9
$USERI1
 70
     0
  9
$USERI2
 70
     0
  9
$USERI3
 70
     0
  9
$USERI4
 70
     0
  9
$USERI5
 70
     0
  9
$USERR1
 40
0.0
  9
$USERR2
 40
0.0
  9
$USERR3
 40
0.0
  9
$USERR4
 40
0.0
  9
$USERR5
 40
0.0
  9
$WORLDVIEW
 70
     1
  9
$SHADEDGE
 70
     3
  9
$SHADEDIF
 70
    70
  9
$TILEMODE
 70
     1
  9
$MAXACTVP
 70
    64
  9
$PINSBASE
 10
0.0
 20
0.0
 30
0.0
  9
$PLIMCHECK
 70
     0
  9
$PEXTMIN
 10
0.0
 20
0.0
 30
0.0
  9
$PEXTMAX
 10
0.0
 20
0.0
 30
0.0
  9
$PLIMMIN
 10
0.0
 20
0.0
  9
$PLIMMAX
 10
12.0
 20
9.0
  9
$UNITMODE
 70
     0
  9
$VISRETAIN
 70
     1
  9
$PLINEGEN
 70
     0
  9
$PSLTSCALE
 70
     1
  9
$TREEDEPTH
 70
  3020
  9
$CMLSTYLE
  2
Standard
  9
$CMLJUST
 70
     0
  9
$CMLSCALE
 40
20.0
  9
$PROXYGRAPHICS
 70
     1
  9
$MEASUREMENT
 70
     1
  9
$CELWEIGHT
370
    -1
  9
$ENDCAPS
280
     0
  9
$JOINSTYLE
280
     0
  9
$LWDISPLAY
290
     0
  9
$INSUNITS
 70
     4
  9
$HYPERLINKBASE
  1

  9
$STYLESHEET
  1

  9
$XEDIT
290
     1
  9
$CEPSNTYPE
380
     0
  9
$PSTYLEMODE
290
     1
  9
$FINGERPRINTGUID
  2
{360B3CC4-EE50-3343-BAFD-6E3322A4DF67}
  9
$VERSIONGUID
  2
{AA1826E1-A9E8-044B-85F7-4380C049015C}
  9
$EXTNAMES
290
     1
  9
$PSVPSCALE
 40
0.0
  9
$OLESTARTUP
290
     0
  9
$SORTENTS
280
   127
  9
$INDEXCTL
280
     0
  9
$HIDETEXT
280
     1
  9
$XCLIPFRAME
290
     0
  9
$HALOGAP
280
     0
  9
$OBSCOLOR
 70
   257
  9
$OBSLTYPE
280
     0
  9
$INTERSECTIONDISPLAY
280
     0
  9
$INTERSECTIONCOLOR
 70
   257
  9
$DIMASSOC
280
     2
  9
$PROJECTNAME
  1

  0
ENDSEC
  0
SECTION
  2
CLASSES
  0
CLASS
  1
ACDBDICTIONARYWDFLT
  2
AcDbDictionaryWithDefault
  3
ObjectDBX Classes
 90
        0
 91
        1
280
     0
281
     0
  0
CLASS
  1
DICTIONARYVAR
  2
AcDbDictionaryVar
  3
ObjectDBX Classes
 90
        0
 91
       12
280
     0
281
     0
  0
CLASS
  1
TABLESTYLE
  2
AcDbTableStyle
  3
ObjectDBX Classes
 90
     4095
 91
        1
280
     0
281
     0
  0
CLASS
  1
MATERIAL
  2
AcDbMaterial
  3
ObjectDBX Classes
 90
     1153
 91
        3
280
     0
281
     0
  0
CLASS
  1
VISUALSTYLE
  2
AcDbVisualStyle
  3
ObjectDBX Classes
 90
     4095
 91
        3
280
     0
281
     0
  0
CLASS
  1
SCALE
  2
AcDbScale
  3
ObjectDBX Classes
 90
     1153
 91
       17
280
     0
281
     0
  0
CLASS
  1
MLEADERSTYLE
  2
AcDbMLeaderStyle
  3
ACDB_MLEADERSTYLE_CLASS
 90
     4095
 91
        0
280
     0
281
     0
  0
CLASS
  1
CELLSTYLEMAP
  2
AcDbCellStyleMap
  3
ObjectDBX Classes
 90
     1152
 91
        1
280
     0
281
     0
  0
CLASS
  1
EXACXREFPANELOBJECT
  2
ExAcXREFPanelObject
  3
EXAC_ESW
 90
     1025
 91
        0
280
     1
281
     0
  0
CLASS
  1
NPOCOLLECTION
  2
AcDbImpNonPersistentObjectsCollection
  3
ObjectDBX Classes
 90
     1153
 91
        0
280
     0
281
     0
  0
CLASS
  1
LAYER_INDEX
  2
AcDbLayerIndex
  3
ObjectDBX Classes
 90
        0
 91
        0
280
     0
281
     0
  0
CLASS
  1
SPATIAL_INDEX
  2
AcDbSpatialIndex
  3
ObjectDBX Classes
 90
        0
 91
        0
280
     0
281
     0
  0
CLASS
  1
IDBUFFER
  2
AcDbIdBuffer
  3
ObjectDBX Classes
 90
        0
 91
        0
280
     0
281
     0
  0
CLASS
  1
ACDBSECTIONVIEWSTYLE
  2
AcDbSectionViewStyle
  3
ObjectDBX Classes
 90
     1025
 91
        0
280
     0
281
     0
  0
CLASS
  1
ACDBDETAILVIEWSTYLE
  2
AcDbDetailViewStyle
  3
ObjectDBX Classes
 90
     1025
 91
        0
280
     0
281
     0
  0
CLASS
  1
SORTENTSTABLE
  2
AcDbSortentsTable
  3
ObjectDBX Classes
 90
        0
 91
        2
280
     0
281
     0
  0
CLASS
  1
DIMASSOC
  2
AcDbDimAssoc
  3
"AcDbDimAssoc|Product Desc:     AcDim ARX App For Dimension|Company:          Autodesk, Inc.|WEB Address:      www.autodesk.com"
 90
        0
 91
        0
280
     0
281
     0
  0
ENDSEC
  0
SECTION
  2
TABLES
  0
TABLE
  2
VPORT
  5
2A
330
0
100
AcDbSymbolTable
 70
     1
  0
VPORT
  5
2B
330
2A
100
AcDbSymbolTableRecord
100
AcDbViewportTableRecord
  2
*Active
 70
     0
 10
0.0
 20
0.0
 11
1.0
 21
1.0
 12
27.21656403111024
 22
13.57283270523294
 13
0.0
 23
0.0
 14
10.0
 24
10.0
 15
10.0
 25
10.0
 16
0.0
 26
0.0
 36
1.0
 17
0.0
 27
0.0
 37
0.0
 40
37.61735787594272
 41
2.396084337349397
 42
50.0
 43
0.0
 44
0.0
 50
0.0
 51
0.0
 71
     0
 72
  1000
 73
     1
 74
     3
 75
     0
 76
     1
 77
     0
 78
     0
281
     0
 65
     1
110
0.0
120
0.0
130
0.0
111
1.0
121
0.0
131
0.0
112
0.0
122
1.0
132
0.0
 79
     0
146
0.0
1001
ACAD_NAV_VCDISPLAY
1070
     3
  0
ENDTAB
  0
TABLE
  2
LTYPE
  5
25
330
0
100
AcDbSymbolTable
 70
     1
  0
LTYPE
  5
26
330
25
100
AcDbSymbolTableRecord
100
AcDbLinetypeTableRecord
  2
ByBlock
 70
     0
  3

 72
    65
 73
     0
 40
0.0
  0
LTYPE
  5
27
330
25
100
AcDbSymbolTableRecord
100
AcDbLinetypeTableRecord
  2
ByLayer
 70
     0
  3

 72
    65
 73
     0
 40
0.0
  0
LTYPE
  5
15
330
25
100
AcDbSymbolTableRecord
100
AcDbLinetypeTableRecord
  2
Continuous
 70
     0
  3
Solid line
 72
    65
 73
     0
 40
0.0
  0
ENDTAB
  0
TABLE
  2
LAYER
  5
1F
102
{ACAD_XDICTIONARY
360
20
102
}
330
0
100
AcDbSymbolTable
 70
     1
  0
LAYER
  5
6
102
{ACAD_XDICTIONARY
360
7
102
}
330
1F
100
AcDbSymbolTableRecord
100
AcDbLayerTableRecord
  2
0
 70
     0
 62
     7
  6
Continuous
370
    -3
390
8
  0
ENDTAB
  0
TABLE
  2
STYLE
  5
22
330
0
100
AcDbSymbolTable
 70
     1
  0
STYLE
  5
23
330
22
100
AcDbSymbolTableRecord
100
AcDbTextStyleTableRecord
  2
Standard
 70
     0
 40
0.0
 41
1.0
 50
0.0
 71
     0
 42
2.5
  3
arial.ttf
  4

1001
ACAD
1000
Arial
1071
       34
  0
ENDTAB
  0
TABLE
  2
VIEW
  5
28
330
0
100
AcDbSymbolTable
 70
     0
  0
ENDTAB
  0
TABLE
  2
UCS
  5
29
330
0
100
AcDbSymbolTable
 70
     0
  0
ENDTAB
  0
TABLE
  2
APPID
  5
2F
330
0
100
AcDbSymbolTable
 70
     6
  0
APPID
  5
14
330
2F
100
AcDbSymbolTableRecord
100
AcDbRegAppTableRecord
  2
ACAD
 70
     0
  0
APPID
  5
1A
330
2F
100
AcDbSymbolTableRecord
100
AcDbRegAppTableRecord
  2
ACAD_PSEXT
 70
     0
  0
APPID
  5
33
330
2F
100
AcDbSymbolTableRecord
100
AcDbRegAppTableRecord
  2
AcadAnnotative
 70
     0
  0
APPID
  5
34
330
2F
100
AcDbSymbolTableRecord
100
AcDbRegAppTableRecord
  2
ACAD_DSTYLE_DIMJAG
 70
     0
  0
APPID
  5
35
330
2F
100
AcDbSymbolTableRecord
100
AcDbRegAppTableRecord
  2
ACAD_DSTYLE_DIMTALN
 70
     0
  0
APPID
  5
2E
330
2F
100
AcDbSymbolTableRecord
100
AcDbRegAppTableRecord
  2
ACAD_NAV_VCDISPLAY
 70
     0
  0
ENDTAB
  0
TABLE
  2
DIMSTYLE
  5
30
330
0
100
AcDbSymbolTable
 70
     2
100
AcDbDimStyleTable
 71
     2
340
31
340
32
  0
DIMSTYLE
105
32
330
30
100
AcDbSymbolTableRecord
100
AcDbDimStyleTableRecord
  2
Annotative
 70
     0
 40
0.0
 41
2.5
 42
0.625
 43
3.75
 44
1.25
 73
     0
 74
     0
 77
     1
 78
     8
140
2.5
141
2.5
143
0.03937007874016
147
0.625
171
     3
172
     1
271
     2
272
     2
274
     3
278
    44
283
     0
284
     8
340
23
1001
AcadAnnotative
1000
AnnotativeData
1002
{
1070
     1
1070
     1
1002
}
1001
ACAD_DSTYLE_DIMJAG
1070
   388
1040
1.5
1001
ACAD_DSTYLE_DIMTALN
1070
   392
1070
     0
  0
DIMSTYLE
105
31
330
30
100
AcDbSymbolTableRecord
100
AcDbDimStyleTableRecord
  2
ISO-25
 70
     0
 41
2.5
 42
0.625
 43
3.75
 44
1.25
 73
     0
 74
     0
 77
     1
 78
     8
140
2.5
141
2.5
143
0.03937007874016
147
0.625
171
     3
172
     1
271
     2
272
     2
274
     3
278
    44
283
     0
284
     8
340
23
  0
ENDTAB
  0
TABLE
  2
BLOCK_RECORD
  5
1
330
0
100
AcDbSymbolTable
 70
     0
  0
BLOCK_RECORD
  5
2
102
{ACAD_XDICTIONARY
360
3
102
}
330
1
100
AcDbSymbolTableRecord
100
AcDbBlockTableRecord
  2
*Model_Space
340
17
  0
BLOCK_RECORD
  5
1B
330
1
100
AcDbSymbolTableRecord
100
AcDbBlockTableRecord
  2
*Paper_Space
340
1E
  0
ENDTAB
  0
ENDSEC
  0
SECTION
  2
BLOCKS
  0
BLOCK
  5
5
330
2
100
AcDbEntity
  8
0
100
AcDbBlockBegin
  2
*Model_Space
 70
     0
 10
0.0
 20
0.0
 30
0.0
  3
*Model_Space
  1

  0
ENDBLK
  5
16
330
2
100
AcDbEntity
  8
0
100
AcDbBlockEnd
  0
BLOCK
  5
1C
330
1B
100
AcDbEntity
 67
     1
  8
0
100
AcDbBlockBegin
  2
*Paper_Space
 70
     0
 10
0.0
 20
0.0
 30
0.0
  3
*Paper_Space
  1

  0
ENDBLK
  5
1D
330
1B
100
AcDbEntity
 67
     1
  8
0
100
AcDbBlockEnd
  0
ENDSEC
  0
SECTION
  2
ENTITIES
  0
LINE
  5
5C
330
2
100
AcDbEntity
  8
0
100
AcDbLine
 10
30.36825209391273
 20
16.27080427849318
 30
0.0
 11
29.45161994866653
 21
15.47697755478866
 31
0.0
  0
LINE
  5
5D
330
2
100
AcDbEntity
  8
0
100
AcDbLine
 10
29.4679001003123
 20
15.19132560609951
 30
0.0
 11
29.48269040560571
 21
15.18354663300953
 31
0.0
  0
LINE
  5
5E
330
2
100
AcDbEntity
  8
0
100
AcDbLine
 10
51.42155696007038
 20
15.47697755478866
 30
0.0
 11
50.50492481482418
 21
16.27080427849318
 31
0.0
  0
LINE
  5
5F
330
2
100
AcDbEntity
  8
0
100
AcDbLine
 10
51.39048650313111
 20
15.18354663300953
 30
0.0
 11
51.40527680842462
 21
15.19132560609951
 31
0.0
  0
LINE
  5
60
330
2
100
AcDbEntity
  8
0
100
AcDbLine
 10
37.59486744121821
 20
22.95965695683918
 30
0.0
 11
37.59486744121821
 21
18.81737067491313
 31
0.0
  0
SPLINE
  5
61
330
2
100
AcDbEntity
  8
0
100
AcDbSpline
210
0.0
220
0.0
230
1.0
 70
     8
 71
     3
 72
    12
 73
     8
 74
     0
 42
0.000000001
 43
0.0000000001
 40
0.0
 40
0.0
 40
0.0
 40
0.0
 40
0.1814292812455421
 40
0.4157921650615058
 40
0.6513173281689835
 40
0.8893818971947961
 40
1.0
 40
1.0
 40
1.0
 40
1.0
 10
39.57888068902154
 20
23.94341870301902
 30
0.0
 10
39.5527940598739
 20
23.96307527522637
 30
0.0
 10
39.49934491961403
 20
24.00052659104286
 30
0.0
 10
39.39692830782266
 20
24.03549138662686
 30
0.0
 10
39.27780063180906
 20
24.04992674437192
 30
0.0
 10
39.17449038233283
 20
24.040610005733
 30
0.0
 10
39.11283988214083
 20
24.02454247869511
 30
0.0
 10
39.09328152171981
 20
24.01944512370364
 30
0.0
  0
LINE
  5
62
330
2
100
AcDbEntity
  8
0
100
AcDbLine
 10
39.62678360717427
 20
23.90242888811093
 30
0.0
 11
39.59240990172745
 21
23.93219739026657
 31
0.0
  0
LINE
  5
63
330
2
100
AcDbEntity
  8
0
100
AcDbLine
 10
39.0932815217161
 20
24.01944512371165
 30
0.0
 11
38.37883747038393
 21
23.81320289103125
 31
0.0
  0
SPLINE
  5
64
330
2
100
AcDbEntity
  8
0
100
AcDbSpline
210
0.0
220
0.0
230
1.0
 70
     8
 71
     3
 72
    16
 73
    12
 74
     0
 42
0.000000001
 43
0.0000000001
 40
0.0
 40
0.0
 40
0.0
 40
0.0
 40
0.0698495378242813
 40
0.1990379081207496
 40
0.3285182403160729
 40
0.4581529125746114
 40
0.5879251972799279
 40
0.7178828956211269
 40
0.8480723407691126
 40
0.9707891010511616
 40
1.0
 40
1.0
 40
1.0
 40
1.0
 10
38.22007212564039
 20
23.76737128376094
 30
0.0
 10
38.19697872713469
 20
23.75994549543811
 30
0.0
 10
38.13117354254606
 20
23.73878553618915
 30
0.0
 10
38.02510052012419
 20
23.68458233809297
 30
0.0
 10
37.9083494346728
 20
23.59986196408895
 30
0.0
 10
37.80450390256556
 20
23.49598706944654
 30
0.0
 10
37.71770392047386
 20
23.37746641367147
 30
0.0
 10
37.65137259286673
 20
23.24869902080558
 30
0.0
 10
37.6093946566441
 20
23.11733129107164
 30
0.0
 10
37.59573231110623
 20
23.02033563331943
 30
0.0
 10
37.59500691249687
 20
22.96944216604122
 30
0.0
 10
37.59486744121451
 20
22.95965695683479
 30
0.0
  0
LINE
  5
65
330
2
100
AcDbEntity
  8
0
100
AcDbLine
 10
38.37883747038393
 20
23.81320289103125
 30
0.0
 11
38.22007212563932
 21
23.76737128376895
 31
0.0
  0
SPLINE
  5
66
330
2
100
AcDbEntity
  8
0
100
AcDbSpline
210
0.0
220
0.0
230
1.0
 70
     8
 71
     3
 72
    13
 73
     9
 74
     0
 42
0.000000001
 43
0.0000000001
 40
0.0
 40
0.0
 40
0.0
 40
0.0
 40
0.2785574303014062
 40
0.6383864624489386
 40
1.0
 40
1.0
 40
1.0
 40
1.030364617040012
 40
1.030364617040012
 40
1.030364617040012
 40
1.030364617040012
 10
43.51008637789364
 20
22.32632739218375
 30
0.0
 10
43.48789979661155
 20
22.34288964310435
 30
0.0
 10
43.43050097015686
 20
22.38322474541122
 30
0.0
 10
43.32840241371852
 20
22.41953853320532
 30
0.0
 10
43.24848676815665
 20
22.42552614164743
 30
0.0
 10
43.20843010874796
 20
22.42852735111469
 30
0.0
 10
43.20506655900063
 20
22.42877936207853
 30
0.0
 10
43.20170300925332
 20
22.42903137304236
 30
0.0
 10
43.19833945950599
 20
22.42928338400619
 30
0.0
  0
LINE
  5
67
330
2
100
AcDbEntity
  8
0
100
AcDbLine
 10
43.55798929604637
 20
22.28533757727561
 30
0.0
 11
43.52361559059964
 21
22.3151060794313
 31
0.0
  0
SPLINE
  5
68
330
2
100
AcDbEntity
  8
0
100
AcDbSpline
210
0.0
220
0.0
230
1.0
 70
     8
 71
     3
 72
    12
 73
     8
 74
     0
 42
0.000000001
 43
0.0000000001
 40
0.0
 40
0.0
 40
0.0
 40
0.0
 40
0.1814292812455341
 40
0.415792165061499
 40
0.6513173281689814
 40
0.8893818971947844
 40
1.0
 40
1.0
 40
1.0
 40
1.0
 10
42.75506928711212
 20
23.4843390529765
 30
0.0
 10
42.73231207985912
 20
23.50096526204358
 30
0.0
 10
42.67553351770557
 20
23.54144694100053
 30
0.0
 10
42.57311690591422
 20
23.57641173658453
 30
0.0
 10
42.45398922990062
 20
23.59084709432959
 30
0.0
 10
42.3506789804244
 20
23.58153035569072
 30
0.0
 10
42.28902848023238
 20
23.56546282865278
 30
0.0
 10
42.26947011981137
 20
23.56036547366131
 30
0.0
  0
LINE
  5
69
330
2
100
AcDbEntity
  8
0
100
AcDbLine
 10
42.80297220526475
 20
23.44334923806841
 30
0.0
 11
42.76859849981803
 21
23.47311774022405
 31
0.0
  0
LINE
  5
6A
330
2
100
AcDbEntity
  8
0
100
AcDbLine
 10
36.40500905890625
 20
21.24020810708309
 30
0.0
 11
36.40500905890625
 21
18.43679267440488
 31
0.0
  0
LINE
  5
6B
330
2
100
AcDbEntity
  8
0
100
AcDbLine
 10
42.26947011980668
 20
23.56036547366908
 30
0.0
 11
41.87270717205651
 21
23.44582987632037
 31
0.0
  0
SPLINE
  5
6C
330
2
100
AcDbEntity
  8
0
100
AcDbSpline
210
0.0
220
0.0
230
1.0
 70
     8
 71
     3
 72
    11
 73
     7
 74
     0
 42
0.000000001
 43
0.0000000001
 40
0.0
 40
0.0
 40
0.0
 40
0.0
 40
0.1104046517395713
 40
0.5209289446612724
 40
0.9078897400403908
 40
1.0
 40
1.0
 40
1.0
 40
1.0
 10
36.48321566042504
 20
21.56295091020109
 30
0.0
 10
36.47711033430683
 20
21.55151551166463
 30
0.0
 10
36.44830320488348
 20
21.4975591792318
 30
0.0
 10
36.42059976671639
 20
21.3975458799064
 30
0.0
 10
36.4058250190087
 20
21.30090226195232
 30
0.0
 10
36.40514064286445
 20
21.24999581237269
 30
0.0
 10
36.40500905890859
 20
21.24020810707903
 30
0.0
  0
LINE
  5
6D
330
2
100
AcDbEntity
  8
0
100
AcDbLine
 10
42.9954364412287
 20
22.86574391298733
 30
0.0
 11
42.9579723053894
 21
22.88849984378122
 31
0.0
  0
LINE
  5
6E
330
2
100
AcDbEntity
  8
0
100
AcDbLine
 10
43.04333935939971
 20
22.82475409809761
 30
0.0
 11
43.00896565395297
 21
22.85452260023489
 31
0.0
  0
LINE
  5
6F
330
2
100
AcDbEntity
  8
0
100
AcDbLine
 10
37.41888812824984
 20
22.22087294442613
 30
0.0
 11
37.41888812824984
 21
18.77220616286392
 31
0.0
  0
SPLINE
  5
70
330
2
100
AcDbEntity
  8
0
100
AcDbSpline
210
0.0
220
0.0
230
1.0
 70
     8
 71
     3
 72
    13
 73
     9
 74
     0
 42
0.000000001
 43
0.0000000001
 40
0.0
 40
0.0
 40
0.0
 40
0.0
 40
0.2867385838583181
 40
0.6571356937018562
 40
1.0
 40
1.0
 40
1.0
 40
1.049545685410055
 40
1.049545685410055
 40
1.049545685410055
 40
1.049545685410055
 10
40.5301353237249
 20
23.53003910216842
 30
0.0
 10
40.50691633736238
 20
23.54658877767221
 30
0.0
 10
40.45053709966875
 20
23.58689506013563
 30
0.0
 10
40.35143137065129
 20
23.62243042262532
 30
0.0
 10
40.27471438032065
 20
23.62830440656067
 30
0.0
 10
40.2378365721627
 20
23.63112802687941
 30
0.0
 10
40.23250753601625
 20
23.63153605478275
 30
0.0
 10
40.22717849986978
 20
23.63194408268609
 30
0.0
 10
40.22184946372332
 20
23.63235211058945
 30
0.0
  0
LINE
  5
71
330
2
100
AcDbEntity
  8
0
100
AcDbLine
 10
40.57803824187764
 20
23.48904928727865
 30
0.0
 11
40.5436645364309
 21
23.51881778941597
 31
0.0
  0
SPLINE
  5
72
330
2
100
AcDbEntity
  8
0
100
AcDbSpline
210
0.0
220
0.0
230
1.0
 70
     8
 71
     3
 72
    12
 73
     8
 74
     0
 42
0.000000001
 43
0.0000000001
 40
0.0
 40
0.0
 40
0.0
 40
0.0
 40
0.1535692531581339
 40
0.4205115435837768
 40
0.6879298583172734
 40
0.9399987505909608
 40
1.0
 40
1.0
 40
1.0
 40
1.0
 10
37.59486744121451
 20
22.70490666914083
 30
0.0
 10
37.57770845159689
 20
22.68262479338734
 30
0.0
 10
37.5307227883733
 20
22.62161136931747
 30
0.0
 10
37.47593382319152
 20
22.50955490976951
 30
0.0
 10
37.43327428750141
 20
22.37864124734235
 30
0.0
 10
37.41975948528456
 20
22.28154729931606
 30
0.0
 10
37.41902864566583
 20
22.23065745672459
 30
0.0
 10
37.41888812824876
 20
22.22087294443111
 30
0.0
  0
LINE
  5
73
330
2
100
AcDbEntity
  8
0
100
AcDbLine
 10
32.65516110873647
 20
10.73512825203038
 30
0.0
 11
32.66477221479117
 21
10.64011209164154
 31
0.0
  0
LINE
  5
74
330
2
100
AcDbEntity
  8
0
100
AcDbLine
 10
48.20840469396402
 20
10.64011209164154
 30
0.0
 11
48.21801580001872
 21
10.73512825203038
 31
0.0
  0
SPLINE
  5
75
330
2
100
AcDbEntity
  8
0
100
AcDbSpline
210
0.0
220
0.0
230
1.0
 70
     8
 71
     3
 72
     9
 73
     5
 74
     0
 42
0.000000001
 43
0.0000000001
 40
0.0
 40
0.0
 40
0.0
 40
0.0
 40
0.2500021910301879
 40
1.0
 40
1.0
 40
1.0
 40
1.0
 10
45.63327029010451
 20
14.80029031872239
 30
0.0
 10
45.6099054838812
 20
15.06651630976942
 30
0.0
 10
45.5164470780689
 20
16.13141094109248
 30
0.0
 10
45.4197658892374
 20
17.19522183592118
 30
0.0
 10
45.34725520944526
 20
17.99307767620098
 30
0.0
  0
SPLINE
  5
76
330
2
100
AcDbEntity
  8
0
100
AcDbSpline
210
0.0
220
0.0
230
1.0
 70
     8
 71
     3
 72
     9
 73
     5
 74
     0
 42
0.000000001
 43
0.0000000001
 40
0.0
 40
0.0
 40
0.0
 40
0.0
 40
0.2424905473061644
 40
1.0
 40
1.0
 40
1.0
 40
1.0
 10
35.5258927989719
 20
17.99308568254771
 30
0.0
 10
35.50231429963542
 20
17.73516760437869
 30
0.0
 10
35.40507958430991
 20
16.67154644044391
 30
0.0
 10
35.3111097713498
 20
15.60682379471083
 30
0.0
 10
35.23992674976467
 20
14.80028632607085
 30
0.0
  0
LINE
  5
77
330
2
100
AcDbEntity
  8
0
100
AcDbLine
 10
45.6372598580368
 20
14.67822701323713
 30
0.0
 11
45.63327029010451
 21
14.80029031872239
 31
0.0
  0
LINE
  5
78
330
2
100
AcDbEntity
  8
0
100
AcDbLine
 10
35.23992674976467
 20
14.80028632607085
 30
0.0
 11
35.23590344530293
 21
14.67821809810119
 31
0.0
  0
LINE
  5
79
330
2
100
AcDbEntity
  8
0
100
AcDbLine
 10
34.02135555640453
 20
16.00279249378848
 30
0.0
 11
33.94636424058193
 21
14.05791495599937
 31
0.0
  0
LINE
  5
7A
330
2
100
AcDbEntity
  8
0
100
AcDbLine
 10
33.90950399923266
 20
13.10195552744389
 30
0.0
 11
33.90780781053318
 21
13.05796537621192
 31
0.0
  0
LINE
  5
7B
330
2
100
AcDbEntity
  8
0
100
AcDbLine
 10
46.96536909822212
 20
13.05796537621192
 30
0.0
 11
46.96367290950416
 21
13.10195552744389
 31
0.0
  0
LINE
  5
7C
330
2
100
AcDbEntity
  8
0
100
AcDbLine
 10
46.92681266817316
 20
14.05791495599937
 30
0.0
 11
46.85182135235076
 21
16.00279249378848
 31
0.0
  0
LINE
  5
7D
330
2
100
AcDbEntity
  8
0
100
AcDbLine
 10
34.5737050179354
 20
13.98700512836833
 30
0.0
 11
34.46612167057118
 21
14.01806176564798
 31
0.0
  0
LINE
  5
7E
330
2
100
AcDbEntity
  8
0
100
AcDbLine
 10
46.40704856185707
 20
14.01805983837389
 30
0.0
 11
46.29947189080153
 21
13.98700512836833
 31
0.0
  0
LINE
  5
7F
330
2
100
AcDbEntity
  8
0
100
AcDbLine
 10
34.89424899306572
 20
16.88939651891822
 30
0.0
 11
34.40963744864527
 21
17.0292918217336
 31
0.0
  0
LINE
  5
80
330
2
100
AcDbEntity
  8
0
100
AcDbLine
 10
46.46353946010981
 20
17.0292918217336
 30
0.0
 11
45.97892791568948
 21
16.88939651891822
 31
0.0
  0
LWPOLYLINE
  5
81
330
2
100
AcDbEntity
  8
0
100
AcDbPolyline
 90
       17
 70
   128
 43
0.0
 10
31.15983183571618
 20
15.34576793264892
 10
31.18948981891075
 20
15.39302053604318
 10
31.18625362550949
 20
15.45163848192059
 10
31.15061593663749
 20
15.51269771936122
 10
31.08800226736532
 20
15.56690253297394
 10
31.00794498123312
 20
15.60600073126585
 10
30.92263207433362
 20
15.62403996797578
 10
30.8450516633877
 20
15.61827393280795
 10
30.78701466270293
 20
15.58958045239577
 10
30.75735667950836
 20
15.54232784898311
 10
30.76059287289125
 20
15.48370990310569
 10
30.79623056176325
 20
15.42265066566511
 10
30.85884423105378
 20
15.36844585205238
 10
30.93890151718597
 20
15.32934765376048
 10
31.02421442408549
 20
15.31130841706886
 10
31.10179483501303
 20
15.31707445221837
 10
31.15983183571618
 20
15.34576793264892
  0
LWPOLYLINE
  5
82
330
2
100
AcDbEntity
  8
0
100
AcDbPolyline
 90
        9
 70
   128
 43
0.0
 10
30.39162997725309
 20
15.36050360303658
 10
30.42128796044766
 20
15.40775620644925
 10
30.41805176706477
 20
15.46637415230834
 10
30.38241407819277
 20
15.52743338974893
 10
30.31980040890223
 20
15.58163820337997
 10
30.23974312277004
 20
15.62073640167187
 10
30.1544302158888
 20
15.63877563836349
 10
30.07684980494298
 20
15.63300960321397
 10
30.07164436859503
 20
15.63162886117871
  0
LWPOLYLINE
  5
83
330
2
100
AcDbEntity
  8
0
100
AcDbPolyline
 90
        9
 70
   128
 43
0.0
 10
29.98987604036162
 20
15.55977127815351
 10
29.98915482104526
 20
15.55706351937081
 10
29.99239101444642
 20
15.49844557351176
 10
30.02802870331842
 20
15.43738633607118
 10
30.09064237259068
 20
15.38318152244008
 10
30.17069965872288
 20
15.3440833241665
 10
30.25601256562238
 20
15.32604408745657
 10
30.33359297656831
 20
15.33181012260603
 10
30.39162997725309
 20
15.36050360303658
  0
LWPOLYLINE
  5
84
330
2
100
AcDbEntity
  8
0
100
AcDbPolyline
 90
       17
 70
   128
 43
0.0
 10
31.28639119248856
 20
14.77535355565515
 10
31.31604917568323
 20
14.82260615904945
 10
31.31281298230025
 20
14.88122410492691
 10
31.27717529342825
 20
14.9422833423675
 10
31.21456162413771
 20
14.99648815598022
 10
31.13450433800552
 20
15.03558635427208
 10
31.04919143112438
 20
15.05362559098206
 10
30.97161102017846
 20
15.04785955581422
 10
30.91357401947531
 20
15.019166075402
 10
30.88391603628074
 20
14.97191347198938
 10
30.887152229682
 20
14.91329552611197
 10
30.922789918554
 20
14.85223628867138
 10
30.98540358782617
 20
14.79803147505866
 10
31.06546087395845
 20
14.75893327676676
 10
31.15077378085787
 20
14.74089404007514
 10
31.22835419180378
 20
14.7466600752246
 10
31.28639119248856
 20
14.77535355565515
  0
LINE
  5
85
330
2
100
AcDbEntity
  8
0
100
AcDbLine
 10
31.43097021420647
 20
15.6212665691835
 30
0.0
 11
30.47349994614927
 21
16.24742666997752
 31
0.0
  0
ARC
  5
86
330
2
100
AcDbEntity
  8
0
100
AcDbCircle
 10
30.26078212510864
 20
13.77070932588864
 30
0.0
 40
2.189498178708764
100
AcDbArc
 50
35.02348436040274
 51
57.69304655110519
  0
LINE
  5
87
330
2
100
AcDbEntity
  8
0
100
AcDbLine
 10
32.05379913869141
 20
15.02728891491989
 30
0.0
 11
32.0663494597452
 21
15.00858749704345
 31
0.0
  0
ARC
  5
88
330
2
100
AcDbEntity
  8
0
100
AcDbCircle
 10
32.51460371313625
 20
15.3227323942921
 30
0.0
 40
0.5473745446770617
100
AcDbArc
 50
215.0234843604026
 51
237.6930465511051
  0
LINE
  5
89
330
2
100
AcDbEntity
  8
0
100
AcDbLine
 10
32.22205669086183
 20
14.86009308348213
 30
0.0
 11
32.78453200694139
 21
14.49224918026642
 31
0.0
  0
LINE
  5
8A
330
2
100
AcDbEntity
  8
0
100
AcDbLine
 10
32.18872111253136
 20
13.97626180985573
 30
0.0
 11
31.62624579645181
 21
14.34410571307142
 31
0.0
  0
ARC
  5
8B
330
2
100
AcDbEntity
  8
0
100
AcDbCircle
 10
31.22769775788416
 20
13.73123571679512
 30
0.0
 40
0.7310609901990443
100
AcDbArc
 50
56.96413736000759
 51
75.62988647089735
  0
LINE
  5
8C
330
2
100
AcDbEntity
  8
0
100
AcDbLine
 10
31.40913585455519
 20
14.43942381923862
 30
0.0
 11
31.38277783651018
 21
14.44616742075516
 31
0.0
  0
ARC
  5
8D
330
2
100
AcDbEntity
  8
0
100
AcDbCircle
 10
32.10853022324911
 20
17.27891983058409
 30
0.0
 40
2.924243960795275
100
AcDbArc
 50
236.9641373600075
 51
255.6298864708907
  0
LINE
  5
8E
330
2
100
AcDbEntity
  8
0
100
AcDbLine
 10
30.51433806896027
 20
14.82743984547893
 30
0.0
 11
29.733726361743
 21
15.33793914930987
 31
0.0
  0
ARC
  5
8F
330
2
100
AcDbEntity
  8
0
100
AcDbCircle
 10
29.26625561767703
 20
16.40703876890067
 30
0.0
 40
1.117994438760147
100
AcDbArc
 50
315.6185138917982
 51
349.0309109472034
  0
ARC
  5
90
330
2
100
AcDbEntity
  8
0
100
AcDbCircle
 10
29.24280747990919
 20
16.41797054876059
 30
0.0
 40
1.11799443876016
100
AcDbArc
 50
315.6185138917982
 51
349.0309109472034
  0
LWPOLYLINE
  5
91
330
2
100
AcDbEntity
  8
0
100
AcDbPolyline
 90
        9
 70
   128
 43
0.0
 10
29.4237439944803
 20
15.41141253423438
 10
29.41461155727004
 20
15.34289148196435
 10
29.41463648933445
 20
15.28463023424658
 10
29.42381783253621
 20
15.23886773816977
 10
29.44180275299835
 20
15.20736262079371
 10
29.4679001003123
 20
15.19132560609951
 10
29.50110696807182
 20
15.19137298758502
 10
29.54014723497375
 20
15.20750294441566
 10
29.58352060544446
 20
15.23909561138117
  0
LINE
  5
92
330
2
100
AcDbEntity
  8
0
100
AcDbLine
 10
29.42802130948848
 20
15.43427046050196
 30
0.0
 11
29.4237439944803
 21
15.41141253423438
 31
0.0
  0
LINE
  5
93
330
2
100
AcDbEntity
  8
0
100
AcDbLine
 10
30.34465345473458
 20
16.22809718422481
 30
0.0
 11
30.3403761397265
 21
16.20523925795727
 31
0.0
  0
LINE
  5
94
330
2
100
AcDbEntity
  8
0
100
AcDbLine
 10
29.58352060544446
 20
15.23909561138117
 30
0.0
 11
30.04183667806755
 21
15.63600897322424
 31
0.0
  0
LWPOLYLINE
  5
95
330
2
100
AcDbEntity
  8
0
100
AcDbPolyline
 90
        9
 70
   128
 43
0.0
 10
30.47349994614927
 20
16.24742666997752
 10
30.45671581830712
 20
16.25639973857142
 10
30.43943609842791
 20
16.26178527419931
 10
30.42247998326307
 20
16.26332795948164
 10
30.40665132803845
 20
16.26095465877788
 10
30.39270053745447
 20
16.25477788551229
 10
30.38128899036816
 20
16.24509046807154
 10
30.372957685253
 20
16.23235166739275
 10
30.36810159250241
 20
16.21716540436489
  0
LWPOLYLINE
  5
96
330
2
100
AcDbEntity
  8
0
100
AcDbPolyline
 90
        9
 70
   128
 43
0.0
 10
30.48167131448274
 20
16.26743682951023
 10
30.45985194827517
 20
16.27910181869329
 10
30.43738831244323
 20
16.28610301499853
 10
30.41534536271609
 20
16.28810850585274
 10
30.39476811094234
 20
16.28502321494337
 10
30.37663208317598
 20
16.27699340970174
 10
30.36179707197286
 20
16.26439976703615
 10
30.35096637531771
 20
16.24783932614638
 10
30.34465345473458
 20
16.22809718422481
  0
LINE
  5
97
330
2
100
AcDbEntity
  8
0
100
AcDbLine
 10
30.36810159250241
 20
16.21716540436489
 30
0.0
 11
30.36382427749433
 21
16.19430747809735
 31
0.0
  0
LINE
  5
98
330
2
100
AcDbEntity
  8
0
100
AcDbLine
 10
31.43914158252157
 20
15.64127672871621
 30
0.0
 11
30.48167131448274
 21
16.26743682951023
 31
0.0
  0
ARC
  5
99
330
2
100
AcDbEntity
  8
0
100
AcDbCircle
 10
29.49983784813331
 20
15.42246032091371
 30
0.0
 40
0.0727811419096299
100
AcDbArc
 50
131.491229823399
 51
170.6613651516956
  0
LINE
  5
9A
330
2
100
AcDbEntity
  8
0
100
AcDbLine
 10
29.60696874319402
 20
15.2281638315212
 30
0.0
 11
30.06528481581713
 21
15.6250771933827
 31
0.0
  0
ARC
  5
9B
330
2
100
AcDbEntity
  8
0
100
AcDbCircle
 10
30.26895349344211
 20
13.79071948542134
 30
0.0
 40
2.189498178708894
100
AcDbArc
 50
35.02348436040274
 51
57.69304655110519
  0
ARC
  5
9C
330
2
100
AcDbEntity
  8
0
100
AcDbCircle
 10
32.89027870404921
 20
14.66058398738573
 30
0.0
 40
0.177541955242031
100
AcDbArc
 50
236.6610925818052
 51
249.1503439898009
  0
LINE
  5
9D
330
2
100
AcDbEntity
  8
0
100
AcDbLine
 10
32.82708850294812
 20
14.49466791114758
 30
0.0
 11
33.73660118683637
 21
14.1514677698345
 31
0.0
  0
ARC
  5
9E
330
2
100
AcDbEntity
  8
0
100
AcDbCircle
 10
32.92014063873934
 20
12.06479163110871
 30
0.0
 40
2.240719780459722
100
AcDbArc
 50
40.83879218670141
 51
68.63092307740298
  0
ARC
  5
9F
330
2
100
AcDbEntity
  8
0
100
AcDbCircle
 10
32.93020853474756
 20
12.07291252956633
 30
0.0
 40
2.207196799083114
100
AcDbArc
 50
40.75484759111239
 51
68.62970744749548
  0
LINE
  5
A0
330
2
100
AcDbEntity
  8
0
100
AcDbLine
 10
32.82498509832816
 20
14.47155338185068
 30
0.0
 11
33.73449778221641
 21
14.1283532405376
 31
0.0
  0
ARC
  5
A1
330
2
100
AcDbEntity
  8
0
100
AcDbCircle
 10
32.89932651140005
 20
14.66674876567644
 30
0.0
 40
0.2088728885213685
100
AcDbArc
 50
236.6610925818052
 51
249.1503439898009
  0
LINE
  5
A2
330
2
100
AcDbEntity
  8
0
100
AcDbLine
 10
32.23022805919531
 20
14.88010324299651
 30
0.0
 11
32.79270337527496
 21
14.51225933979918
 31
0.0
  0
LINE
  5
A3
330
2
100
AcDbEntity
  8
0
100
AcDbLine
 10
31.16800320404966
 20
15.36577809216327
 30
0.0
 11
31.18904150754803
 21
15.3912976232634
 31
0.0
  0
ARC
  5
A4
330
2
100
AcDbEntity
  8
0
100
AcDbCircle
 10
32.52277508146982
 20
15.34274255382481
 30
0.0
 40
0.5473745446767595
100
AcDbArc
 50
215.0234843602996
 51
237.6930465511051
  0
LWPOLYLINE
  5
A5
330
2
100
AcDbEntity
  8
0
100
AcDbPolyline
 90
        5
 70
   128
 43
0.0
 10
29.60696874319402
 20
15.2281638315212
 10
29.56359537274159
 20
15.19657116457406
 10
29.52455510583967
 20
15.18044120774341
 10
29.49134823808014
 20
15.18039382625786
 10
29.48269040560571
 20
15.18354663300953
  0
LINE
  5
A6
330
2
100
AcDbEntity
  8
0
100
AcDbLine
 10
32.06197050702487
 20
15.0472990744526
 30
0.0
 11
32.07452082807868
 21
15.02859765657616
 31
0.0
  0
LINE
  5
A7
330
2
100
AcDbEntity
  8
0
100
AcDbLine
 10
30.39980134558656
 20
15.3805137625693
 30
0.0
 11
30.42083964908493
 21
15.40603329366942
 31
0.0
  0
LINE
  5
A8
330
2
100
AcDbEntity
  8
0
100
AcDbLine
 10
33.13868688780638
 20
13.61236587012691
 30
0.0
 11
32.22917420391813
 21
13.95556601143998
 31
0.0
  0
ARC
  5
A9
330
2
100
AcDbEntity
  8
0
100
AcDbCircle
 10
32.30351561699003
 20
14.15076139526574
 30
0.0
 40
0.2088728885211413
100
AcDbArc
 50
236.6610925818979
 51
249.1503439898009
  0
LINE
  5
AA
330
2
100
AcDbEntity
  8
0
100
AcDbLine
 10
31.29456256082214
 20
14.79536371516955
 30
0.0
 11
31.31560086432042
 21
14.82088324628799
 31
0.0
  0
ARC
  5
AB
330
2
100
AcDbEntity
  8
0
100
AcDbCircle
 10
32.34111521978582
 20
11.56973757722025
 30
0.0
 40
2.192818029067766
100
AcDbArc
 50
43.43807867210383
 51
68.67117243010004
  0
LWPOLYLINE
  5
AC
330
2
100
AcDbEntity
  8
0
100
AcDbPolyline
 90
       17
 70
   128
 43
0.0
 10
50.03416632387519
 20
15.06792857933673
 10
50.09220332456006
 20
15.0392350989245
 10
50.16978373550588
 20
15.03346906375672
 10
50.25509664240539
 20
15.05150830046666
 10
50.33515392853758
 20
15.0906064987585
 10
50.39776759780985
 20
15.14481131237128
 10
50.43340528668185
 20
15.20587054981187
 10
50.43664148008311
 20
15.26448849568928
 10
50.40698349688853
 20
15.31174109908358
 10
50.34894649618529
 20
15.34043457951413
 10
50.27136608523947
 20
15.34620061466359
 10
50.18605317835834
 20
15.32816137797198
 10
50.10599589222604
 20
15.28906317968007
 10
50.04338222293551
 20
15.23485836606735
 10
50.00774453406352
 20
15.17379912862676
 10
50.00450834068061
 20
15.11518118274935
 10
50.03416632387519
 20
15.06792857933673
  0
LWPOLYLINE
  5
AD
330
2
100
AcDbEntity
  8
0
100
AcDbPolyline
 90
       17
 70
   128
 43
0.0
 10
50.16072568064767
 20
15.63834295633046
 10
50.21876268135082
 20
15.60964947591823
 10
50.29634309227837
 20
15.6038834407504
 10
50.38165599917787
 20
15.62192267746033
 10
50.46171328531007
 20
15.66102087575223
 10
50.52432695460061
 20
15.715225689365
 10
50.55996464347261
 20
15.77628492680559
 10
50.5632008368555
 20
15.834902872683
 10
50.53354285366092
 20
15.8821554760773
 10
50.47550585297615
 20
15.91084895650785
 10
50.39792544203024
 20
15.91661499165731
 10
50.31261253513072
 20
15.8985757549657
 10
50.23255524899852
 20
15.85947755667379
 10
50.16994157972626
 20
15.80527274306107
 10
50.13430389085426
 20
15.74421350562053
 10
50.1310676974531
 20
15.68559555974307
 10
50.16072568064767
 20
15.63834295633046
  0
LWPOLYLINE
  5
AE
330
2
100
AcDbEntity
  8
0
100
AcDbPolyline
 90
       17
 70
   128
 43
0.0
 10
49.2659644654121
 20
15.05319290894902
 10
49.32400146611525
 20
15.02449942851847
 10
49.40158187704279
 20
15.01873339336897
 10
49.4868947839423
 20
15.03677263006063
 10
49.56695207007449
 20
15.07587082835248
 10
49.62956573936502
 20
15.13007564198357
 10
49.66520342823702
 20
15.19113487942416
 10
49.66843962161991
 20
15.24975282528326
 10
49.63878163842535
 20
15.29700542869587
 10
49.58074463774057
 20
15.32569890912637
 10
49.50316422679464
 20
15.33146494427588
 10
49.41785131989524
 20
15.31342570756595
 10
49.33779403376294
 20
15.27432750929237
 10
49.27518036449068
 20
15.22012269566132
 10
49.23954267561868
 20
15.15906345822074
 10
49.23630648221752
 20
15.10044551236164
 10
49.2659644654121
 20
15.05319290894902
  0
LINE
  5
AF
330
2
100
AcDbEntity
  8
0
100
AcDbLine
 10
50.35883883979493
 20
14.82743984547893
 30
0.0
 11
51.13945054701219
 21
15.33793914930987
 31
0.0
  0
ARC
  5
B0
330
2
100
AcDbEntity
  8
0
100
AcDbCircle
 10
48.76464668548771
 20
17.27891983058409
 30
0.0
 40
2.924243960795974
100
AcDbArc
 50
284.3701135291026
 51
303.0358626399924
  0
LINE
  5
B1
330
2
100
AcDbEntity
  8
0
100
AcDbLine
 10
49.49039907222674
 20
14.44616742075516
 30
0.0
 11
49.46404105418173
 21
14.43942381923862
 31
0.0
  0
ARC
  5
B2
330
2
100
AcDbEntity
  8
0
100
AcDbCircle
 10
49.64547915087103
 20
13.73123571679512
 30
0.0
 40
0.7310609901990844
100
AcDbArc
 50
104.3701135291093
 51
123.0358626399924
  0
LINE
  5
B3
330
2
100
AcDbEntity
  8
0
100
AcDbLine
 10
49.24693111228502
 20
14.34410571307142
 30
0.0
 11
48.68445579622385
 21
13.97626180985573
 31
0.0
  0
LINE
  5
B4
330
2
100
AcDbEntity
  8
0
100
AcDbLine
 10
48.08864490181382
 20
14.49224918026642
 30
0.0
 11
48.65112021787508
 21
14.86009308348213
 31
0.0
  0
ARC
  5
B5
330
2
100
AcDbEntity
  8
0
100
AcDbCircle
 10
48.35857319560059
 20
15.3227323942921
 30
0.0
 40
0.547374544677148
100
AcDbArc
 50
302.3069534488948
 51
324.976515639699
  0
LINE
  5
B6
330
2
100
AcDbEntity
  8
0
100
AcDbLine
 10
48.80682744901
 20
15.00858749704345
 30
0.0
 11
48.81937777006389
 21
15.02728891491989
 31
0.0
  0
ARC
  5
B7
330
2
100
AcDbEntity
  8
0
100
AcDbCircle
 10
50.61239478364656
 20
13.77070932588864
 30
0.0
 40
2.189498178709102
100
AcDbArc
 50
122.3069534488948
 51
144.9765156395972
  0
LINE
  5
B8
330
2
100
AcDbEntity
  8
0
100
AcDbLine
 10
49.44220669454872
 20
15.6212665691835
 30
0.0
 11
50.39967696258766
 21
16.24742666997752
 31
0.0
  0
ARC
  5
B9
330
2
100
AcDbEntity
  8
0
100
AcDbCircle
 10
51.60692129107816
 20
16.40703876890067
 30
0.0
 40
1.117994438760329
100
AcDbArc
 50
190.9690890527965
 51
224.3814861082018
  0
ARC
  5
BA
330
2
100
AcDbEntity
  8
0
100
AcDbCircle
 10
51.63036942884601
 20
16.41797054876059
 30
0.0
 40
1.117994438760162
100
AcDbArc
 50
190.9690890527965
 51
224.3814861082018
  0
LINE
  5
BB
330
2
100
AcDbEntity
  8
0
100
AcDbLine
 10
50.52852345400225
 20
16.22809718422481
 30
0.0
 11
50.5328007690287
 21
16.20523925795727
 31
0.0
  0
LINE
  5
BC
330
2
100
AcDbEntity
  8
0
100
AcDbLine
 10
51.44515559924845
 20
15.43427046050196
 30
0.0
 11
51.4494329142748
 21
15.41141253423438
 31
0.0
  0
LWPOLYLINE
  5
BD
330
2
100
AcDbEntity
  8
0
100
AcDbPolyline
 90
        9
 70
   128
 43
0.0
 10
51.28965630331075
 20
15.23909561138117
 10
51.33302967378136
 20
15.20750294441566
 10
51.3720699406651
 20
15.19137298758502
 10
51.40527680842462
 20
15.19132560609951
 10
51.43137415575674
 20
15.20736262079371
 10
51.44935907621899
 20
15.23886773816977
 10
51.45854041942073
 20
15.28463023424658
 10
51.45856535146679
 20
15.34289148196435
 10
51.4494329142748
 20
15.41141253423438
  0
LINE
  5
BE
330
2
100
AcDbEntity
  8
0
100
AcDbLine
 10
50.83134023068764
 20
15.63600897322424
 30
0.0
 11
51.28965630331075
 21
15.23909561138117
 31
0.0
  0
LWPOLYLINE
  5
BF
330
2
100
AcDbEntity
  8
0
100
AcDbPolyline
 90
        9
 70
   128
 43
0.0
 10
50.39150559425408
 20
16.26743682951023
 10
50.41332496046166
 20
16.27910181869329
 10
50.43578859631196
 20
16.28610301499853
 10
50.45783154603921
 20
16.28810850585274
 10
50.47840879781284
 20
16.28502321494337
 10
50.49654482557921
 20
16.27699340970174
 10
50.51137983678223
 20
16.26439976703615
 10
50.52221053341912
 20
16.24783932614638
 10
50.52852345400225
 20
16.22809718422481
  0
LWPOLYLINE
  5
C0
330
2
100
AcDbEntity
  8
0
100
AcDbPolyline
 90
        9
 70
   128
 43
0.0
 10
50.39967696258766
 20
16.24742666997752
 10
50.41646109044807
 20
16.25639973857142
 10
50.4337408103089
 20
16.26178527419931
 10
50.45069692549213
 20
16.26332795948164
 10
50.46652558069847
 20
16.26095465877788
 10
50.48047637128225
 20
16.25477788551229
 10
50.49188791836865
 20
16.24509046807154
 10
50.50021922348383
 20
16.23235166739275
 10
50.50507531623441
 20
16.21716540436489
  0
LINE
  5
C1
330
2
100
AcDbEntity
  8
0
100
AcDbLine
 10
50.50507531623441
 20
16.21716540436489
 30
0.0
 11
50.50935263126076
 21
16.19430747809735
 31
0.0
  0
LINE
  5
C2
330
2
100
AcDbEntity
  8
0
100
AcDbLine
 10
49.43403532621516
 20
15.64127672871621
 30
0.0
 11
50.39150559425408
 21
16.26743682951023
 31
0.0
  0
ARC
  5
C3
330
2
100
AcDbEntity
  8
0
100
AcDbCircle
 10
51.37333906062188
 20
15.42246032091371
 30
0.0
 40
0.0727811419098668
100
AcDbArc
 50
9.338634848399935
 51
48.50877017650526
  0
LINE
  5
C4
330
2
100
AcDbEntity
  8
0
100
AcDbLine
 10
50.8078920929198
 20
15.6250771933827
 30
0.0
 11
51.2662081655429
 21
15.2281638315212
 31
0.0
  0
ARC
  5
C5
330
2
100
AcDbEntity
  8
0
100
AcDbCircle
 10
50.60422341531299
 20
13.79071948542134
 30
0.0
 40
2.189498178708554
100
AcDbArc
 50
122.3069534488948
 51
144.9765156395972
  0
ARC
  5
C6
330
2
100
AcDbEntity
  8
0
100
AcDbCircle
 10
47.97385039735515
 20
14.66674876567644
 30
0.0
 40
0.2088728885209603
100
AcDbArc
 50
290.8496560101991
 51
303.3389074181947
  0
LINE
  5
C7
330
2
100
AcDbEntity
  8
0
100
AcDbLine
 10
47.13867912653878
 20
14.1283532405376
 30
0.0
 11
48.04819181042714
 21
14.47155338185068
 31
0.0
  0
ARC
  5
C8
330
2
100
AcDbEntity
  8
0
100
AcDbCircle
 10
47.94296837398936
 20
12.07291252956633
 30
0.0
 40
2.207196799082637
100
AcDbArc
 50
111.3702925525045
 51
139.2451524088876
  0
ARC
  5
C9
330
2
100
AcDbEntity
  8
0
100
AcDbCircle
 10
47.95303627001575
 20
12.06479163110871
 30
0.0
 40
2.240719780459765
100
AcDbArc
 50
111.3690769225969
 51
139.1612078132985
  0
LINE
  5
CA
330
2
100
AcDbEntity
  8
0
100
AcDbLine
 10
47.13657572191872
 20
14.1514677698345
 30
0.0
 11
48.04608840580709
 21
14.49466791114758
 31
0.0
  0
ARC
  5
CB
330
2
100
AcDbEntity
  8
0
100
AcDbCircle
 10
47.98289820468762
 20
14.66058398738573
 30
0.0
 40
0.1775419552406736
100
AcDbArc
 50
290.8496560101016
 51
303.3389074181947
  0
LINE
  5
CC
330
2
100
AcDbEntity
  8
0
100
AcDbLine
 10
48.08047353348033
 20
14.51225933979918
 30
0.0
 11
48.64294884955978
 21
14.88010324299651
 31
0.0
  0
ARC
  5
CD
330
2
100
AcDbEntity
  8
0
100
AcDbCircle
 10
48.35040182728538
 20
15.34274255382481
 30
0.0
 40
0.5473745446768175
100
AcDbArc
 50
302.3069534488948
 51
324.976515639699
  0
LWPOLYLINE
  5
CE
330
2
100
AcDbEntity
  8
0
100
AcDbPolyline
 90
        5
 70
   128
 43
0.0
 10
51.39048650313111
 20
15.18354663300953
 10
51.38182867065669
 20
15.18039382625786
 10
51.34862180289727
 20
15.18044120774341
 10
51.30958153601351
 20
15.19657116457406
 10
51.2662081655429
 20
15.2281638315212
  0
LINE
  5
CF
330
2
100
AcDbEntity
  8
0
100
AcDbLine
 10
48.79865608067643
 20
15.02859765657616
 30
0.0
 11
48.81120640173023
 21
15.0472990744526
 31
0.0
  0
LINE
  5
D0
330
2
100
AcDbEntity
  8
0
100
AcDbLine
 10
48.64400270483708
 20
13.95556601143998
 30
0.0
 11
47.7344900209488
 21
13.61236587012691
 31
0.0
  0
ARC
  5
D1
330
2
100
AcDbEntity
  8
0
100
AcDbCircle
 10
48.56966129176519
 20
14.15076139526574
 30
0.0
 40
0.2088728885193089
100
AcDbArc
 50
290.8496560101991
 51
303.3389074181947
  0
ARC
  5
D2
330
2
100
AcDbEntity
  8
0
100
AcDbCircle
 10
48.53206168896949
 20
11.56973757722025
 30
0.0
 40
2.192818029067951
100
AcDbArc
 50
111.3288275698999
 51
136.5619213278962
  0
LWPOLYLINE
  5
D3
330
2
100
AcDbEntity
  8
0
100
AcDbPolyline
 90
       17
 70
   128
 43
0.0
 10
40.75740970521382
 20
6.939153735188426
 10
40.66971472131601
 20
6.936144821644248
 10
40.59537050377144
 20
6.92757616079486
 10
40.54569528574393
 20
6.914752253607947
 10
40.52825166890225
 20
6.89962542367011
 10
40.54569528574393
 20
6.884498593732221
 10
40.59537050377144
 20
6.871674686545309
 10
40.66971472131601
 20
6.863106025695921
 10
40.75740970521382
 20
6.860097112151743
 10
40.84510468909317
 20
6.863106025695921
 10
40.91944890665609
 20
6.871674686545309
 10
40.96912412466533
 20
6.884498593732221
 10
40.98656774152536
 20
6.89962542367011
 10
40.96912412466533
 20
6.914752253607947
 10
40.91944890665609
 20
6.92757616079486
 10
40.84510468909317
 20
6.936144821644248
 10
40.75740970521382
 20
6.939153735188426
  0
LINE
  5
D4
330
2
100
AcDbEntity
  8
0
100
AcDbLine
 10
39.51995630913144
 20
6.972858897986618
 30
0.0
 11
39.51995630913144
 21
6.825312198008282
 31
0.0
  0
LINE
  5
D5
330
2
100
AcDbEntity
  8
0
100
AcDbLine
 10
41.35322059962373
 20
6.972858897986618
 30
0.0
 11
41.35322059962373
 21
6.825312198008282
 31
0.0
  0
ARC
  5
D6
330
2
100
AcDbEntity
  8
0
100
AcDbCircle
 10
40.90822151467093
 20
6.691376699246468
 30
0.0
 40
0.4452244940026788
100
AcDbArc
 50
268.2859860206984
 51
358.1767252638953
  0
LINE
  5
D7
330
2
100
AcDbEntity
  8
0
100
AcDbLine
 10
40.89490452700075
 20
6.246351410182217
 30
0.0
 11
39.97827238175455
 21
6.246351410182217
 31
0.0
  0
ARC
  5
D8
330
2
100
AcDbEntity
  8
0
100
AcDbCircle
 10
39.9649553940659
 20
6.691376699246468
 30
0.0
 40
0.4452244940026868
100
AcDbArc
 50
181.8232747361046
 51
271.7140139793016
  0
LINE
  5
D9
330
2
100
AcDbEntity
  8
0
100
AcDbLine
 10
39.51995630913144
 20
6.703773280611967
 30
0.0
 11
39.51995630913144
 21
6.677211090877909
 31
0.0
  0
LINE
  5
DA
330
2
100
AcDbEntity
  8
0
100
AcDbLine
 10
41.35322059962373
 20
6.703773280611967
 30
0.0
 11
41.35322059962373
 21
6.677211090877909
 31
0.0
  0
LINE
  5
DB
330
2
100
AcDbEntity
  8
0
100
AcDbLine
 10
39.51995630913144
 20
6.825312198008282
 30
0.0
 11
39.51995630913144
 21
6.703773280611967
 31
0.0
  0
LINE
  5
DC
330
2
100
AcDbEntity
  8
0
100
AcDbLine
 10
41.35322059962373
 20
6.825312198008282
 30
0.0
 11
41.35322059962373
 21
6.703773280611967
 31
0.0
  0
LWPOLYLINE
  5
DD
330
2
100
AcDbEntity
  8
0
100
AcDbPolyline
 90
        9
 70
   128
 43
0.0
 10
29.98987604036162
 20
15.55977127815351
 10
29.98915482104526
 20
15.55706351937081
 10
29.99239101444642
 20
15.49844557351176
 10
30.02802870331842
 20
15.43738633607118
 10
30.09064237259068
 20
15.38318152244008
 10
30.17069965872288
 20
15.3440833241665
 10
30.25601256562238
 20
15.32604408745657
 10
30.33359297656831
 20
15.33181012260603
 10
30.39162997725309
 20
15.36050360303658
  0
LINE
  5
DE
330
2
100
AcDbEntity
  8
0
100
AcDbLine
 10
39.78178370729891
 20
23.53142830001967
 30
0.0
 11
39.78178370729891
 21
19.13241511582727
 31
0.0
  0
LINE
  5
DF
330
2
100
AcDbEntity
  8
0
100
AcDbLine
 10
40.29492136797127
 20
19.14838270872606
 30
0.0
 11
40.29492136797127
 21
23.36202769379626
 31
0.0
  0
ARC
  5
E0
330
2
100
AcDbEntity
  8
0
100
AcDbCircle
 10
39.83369121211098
 20
23.38239000893473
 30
0.0
 40
0.4616794131844219
100
AcDbArc
 50
357.4721565201053
 51
107.1778750461018
  0
LINE
  5
E1
330
2
100
AcDbEntity
  8
0
100
AcDbLine
 10
39.57888068902154
 20
23.94341870301902
 30
0.0
 11
39.59240990172745
 21
23.93219739026657
 31
0.0
  0
ARC
  5
E2
330
2
100
AcDbEntity
  8
0
100
AcDbCircle
 10
39.3050872464007
 20
23.55014857908742
 30
0.0
 40
0.4770638999966506
100
AcDbArc
 50
357.7511011826024
 51
47.59820542870381
  0
LINE
  5
E3
330
2
100
AcDbEntity
  8
0
100
AcDbLine
 10
43.71298939615274
 20
21.9143369891843
 30
0.0
 11
43.71298939615274
 21
18.69938056154646
 31
0.0
  0
LINE
  5
E4
330
2
100
AcDbEntity
  8
0
100
AcDbLine
 10
44.42458373778332
 20
18.45423713927792
 30
0.0
 11
44.42458373778332
 21
21.80222589203878
 31
0.0
  0
ARC
  5
E5
330
2
100
AcDbEntity
  8
0
100
AcDbCircle
 10
43.95930505965494
 20
21.82038519338864
 30
0.0
 40
0.4656329117809591
100
AcDbArc
 50
357.7649448216937
 51
111.3846782332966
  0
LINE
  5
E6
330
2
100
AcDbEntity
  8
0
100
AcDbLine
 10
43.78952235880505
 20
22.25396084194954
 30
0.0
 11
43.62790730434046
 21
22.2073065943505
 31
0.0
  0
LINE
  5
E7
330
2
100
AcDbEntity
  8
0
100
AcDbLine
 10
43.51008637789364
 20
22.32632739218375
 30
0.0
 11
43.52361559059964
 21
22.3151060794313
 31
0.0
  0
ARC
  5
E8
330
2
100
AcDbEntity
  8
0
100
AcDbCircle
 10
43.23629293527291
 20
21.9330572682521
 30
0.0
 40
0.4770638999966099
100
AcDbArc
 50
357.7511011826024
 51
47.59820542870381
  0
LINE
  5
E9
330
2
100
AcDbEntity
  8
0
100
AcDbLine
 10
42.9579723053894
 20
23.0723486499771
 30
0.0
 11
42.9579723053894
 21
18.89108502737751
 31
0.0
  0
LINE
  5
EA
330
2
100
AcDbEntity
  8
0
100
AcDbLine
 10
42.75506928711212
 20
23.4843390529765
 30
0.0
 11
42.76859849981803
 21
23.47311774022405
 31
0.0
  0
ARC
  5
EB
330
2
100
AcDbEntity
  8
0
100
AcDbCircle
 10
42.48127584449128
 20
23.09106892904486
 30
0.0
 40
0.4770638999966003
100
AcDbArc
 50
357.7511011826024
 51
47.59820542870381
  0
LINE
  5
EC
330
2
100
AcDbEntity
  8
0
100
AcDbLine
 10
43.19833945950608
 20
22.45375350998794
 30
0.0
 11
43.19833945950608
 21
18.8367786227275
 31
0.0
  0
LINE
  5
ED
330
2
100
AcDbEntity
  8
0
100
AcDbLine
 10
42.9954364412287
 20
22.86574391298733
 30
0.0
 11
43.00896565395297
 21
22.85452260023489
 31
0.0
  0
ARC
  5
EE
330
2
100
AcDbEntity
  8
0
100
AcDbCircle
 10
42.72164299860788
 20
22.47247378905574
 30
0.0
 40
0.4770638999967677
100
AcDbArc
 50
357.7511011826024
 51
47.59820542870381
  0
LINE
  5
EF
330
2
100
AcDbEntity
  8
0
100
AcDbLine
 10
41.960620054007
 20
19.057353934321
 30
0.0
 11
41.960620054007
 21
23.154890325626
 31
0.0
  0
LINE
  5
F0
330
2
100
AcDbEntity
  8
0
100
AcDbLine
 10
40.73303834198401
 20
23.11804869916902
 30
0.0
 11
40.73303834198401
 21
19.14573881142993
 31
0.0
  0
ARC
  5
F1
330
2
100
AcDbEntity
  8
0
100
AcDbCircle
 10
41.49534137589689
 20
23.17304962699418
 30
0.0
 40
0.4656329117809376
100
AcDbArc
 50
357.7649448216937
 51
111.3846782332966
  0
LINE
  5
F2
330
2
100
AcDbEntity
  8
0
100
AcDbLine
 10
41.32555867504699
 20
23.60662527555509
 30
0.0
 11
40.64795625017171
 21
23.41101830435354
 31
0.0
  0
LINE
  5
F3
330
2
100
AcDbEntity
  8
0
100
AcDbLine
 10
36.48321566042915
 20
21.57369987507637
 30
0.0
 11
36.48321566042915
 21
18.46787496706335
 31
0.0
  0
ARC
  5
F4
330
2
100
AcDbEntity
  8
0
100
AcDbCircle
 10
37.38556529134452
 20
21.52907968293574
 30
0.0
 40
0.903452166958527
100
AcDbArc
 50
107.2086421098983
 51
177.1690928842982
  0
LINE
  5
F5
330
2
100
AcDbEntity
  8
0
100
AcDbLine
 10
37.4748308186621
 20
22.49501589332915
 30
0.0
 11
37.11827703938906
 21
22.39208768310387
 31
0.0
  0
LINE
  5
F6
330
2
100
AcDbEntity
  8
0
100
AcDbLine
 10
40.5301353237249
 20
23.53003910216842
 30
0.0
 11
40.5436645364309
 21
23.51881778941597
 31
0.0
  0
ARC
  5
F7
330
2
100
AcDbEntity
  8
0
100
AcDbCircle
 10
40.2563418810858
 20
23.13676897823677
 30
0.0
 40
0.4770638999965503
100
AcDbArc
 50
357.7511011826024
 51
47.59820542880071
  0
LWPOLYLINE
  5
F8
330
2
100
AcDbEntity
  8
0
100
AcDbPolyline
 90
       89
 70
   128
 43
0.0
 10
39.0247509797368
 20
7.639043573934099
 10
38.58797609498949
 20
7.697267204498542
 10
38.16062131505358
 20
7.770922069699949
 10
37.74486434198411
 20
7.859632841215313
 10
37.34282377799733
 20
7.96294746927095
 10
36.95654832963318
 20
8.080339486230975
 10
36.58800636804892
 20
8.211210689267659
 10
36.23907589860656
 20
8.354894188750222
 10
35.91153499099537
 20
8.510657806474934
 10
35.60705271857959
 20
8.677707806761553
 10
35.32718065326158
 20
8.855192941092335
 10
35.07334495892573
 20
9.042208785908899
 10
34.84683912406592
 20
9.237802351346998
 10
34.64881737050447
 20
9.44097693742516
 10
34.48028877171191
 20
9.65069721303014
 10
34.34211211079379
 20
9.865894491684843
 10
34.2349915043607
 20
10.08547217740672
 10
34.15947281442637
 20
10.30831135262555
 10
34.11594086697955
 20
10.53327648000187
 10
34.10461749079436
 20
10.75922118879599
 10
34.12556038722241
 20
10.98499411658296
 10
34.17866283606477
 20
11.20944477626635
 10
34.26365423942746
 20
11.43142941871119
 10
34.38010150057471
 20
11.64981686109399
 10
34.52741123095926
 20
11.86349425105286
 10
34.70483277398999
 20
12.07137273759668
 10
34.91146203011962
 20
12.27239301959007
 10
35.14624606403958
 20
12.46553074378133
 10
35.40798847011295
 20
12.64980172456432
 10
35.69535546905971
 20
12.82426695929463
 10
36.00688270450914
 20
12.98803741309105
 10
36.34098270508237
 20
13.14027854928986
 10
36.6959529737623
 20
13.28021458195794
 10
37.0699846634138
 20
13.40713242912592
 10
37.46117179429
 20
13.52038534655582
 10
37.86752096642796
 20
13.61939622332736
 10
38.28696151761955
 20
13.70366052272364
 10
38.71735607492905
 20
13.77274885318265
 10
39.15651144637282
 20
13.82630915640843
 10
39.60218979682874
 20
13.86406850136641
 10
40.05212005158138
 20
13.88583447510814
 10
40.5040094691696
 20
13.89149616320079
 10
40.95555532474356
 20
13.88102471497758
 10
41.40445664409208
 20
13.85447349054721
 10
41.848425929
 20
13.81197778888419
 10
42.28520081376571
 20
13.75375415830142
 10
42.71255559368333
 20
13.68009929309997
 10
43.12831256675271
 20
13.59138852160297
 10
43.53035313075777
 20
13.48807389352896
 10
43.91662857912193
 20
13.37068187656894
 10
44.28517054070627
 20
13.23981067353226
 10
44.63410101014864
 20
13.0961271740497
 10
44.96164191775974
 20
12.94036355632498
 10
45.26612419015733
 20
12.77331355603842
 10
45.54599625547525
 20
12.59582842170763
 10
45.79983194982946
 20
12.40881257689101
 10
46.02633778468937
 20
12.21321901145292
 10
46.2243595382507
 20
12.01004442537475
 10
46.3928881370249
 20
11.80032414976982
 10
46.53106479794304
 20
11.58512687111508
 10
46.63818540439448
 20
11.36554918539319
 10
46.71370409431046
 20
11.14271001017441
 10
46.75723604177554
 20
10.9177448827981
 10
46.76855941796094
 20
10.69180017400393
 10
46.7476165215145
 20
10.46602724621696
 10
46.69451407267206
 20
10.24157658653356
 10
46.60952266932773
 20
10.01959194408872
 10
46.49307540818047
 20
9.801204501705925
 10
46.34576567777767
 20
9.587527111747107
 10
46.1683441347652
 20
9.379648625203238
 10
45.96171487863556
 20
9.178628343209846
 10
45.72693084471562
 20
8.985490619036957
 10
45.46518843862387
 20
8.801219638235595
 10
45.17782143967711
 20
8.626754403523598
 10
44.86629420422761
 20
8.462983949708863
 10
44.53219420367283
 20
8.310742813510065
 10
44.17722393499288
 20
8.170806780841974
 10
43.80319224534139
 20
8.043888933673999
 10
43.41200511446519
 20
7.930636016244095
 10
43.00565594230887
 20
7.831625139472558
 10
42.58621539113565
 20
7.747360840076325
 10
42.15582083380778
 20
7.678272509617261
 10
41.71666546236401
 20
7.624712206391535
 10
41.27098711192645
 20
7.586952861433555
 10
40.82105685717382
 20
7.565186887691776
 10
40.36916743956722
 20
7.559525199617498
 10
39.91762158401164
 20
7.569996647822391
 10
39.46872026466311
 20
7.596547872252704
 10
39.0247509797368
 20
7.639043573934099
  0
LWPOLYLINE
  5
F9
330
2
100
AcDbEntity
  8
0
100
AcDbPolyline
 90
       98
 70
   128
 43
0.0
 10
33.69739540353965
 20
8.891208961705888
 10
33.45967303537573
 20
9.113402253202758
 10
33.25121427510899
 20
9.342823429597469
 10
33.07289347124873
 20
9.578510218768657
 10
32.92545856323192
 20
9.819474068421348
 10
32.80952794426727
 20
10.0647042924175
 10
32.72558786767043
 20
10.31317230996128
 10
32.67399040728347
 20
10.56383595987503
 10
32.65495198081742
 20
10.81564387166957
 10
32.66855244203853
 20
11.06753987546144
 10
32.71473474586649
 20
11.31846743187279
 10
32.7933051876717
 20
11.5673740635262
 10
32.90393421574032
 20
11.81321576950828
 10
33.0461578134644
 20
12.05496140426805
 10
33.21937944566354
 20
12.29159700259932
 10
33.42287256058725
 20
12.52213003257539
 10
33.65578363742327
 20
12.7455935585437
 10
33.91713576614999
 20
12.96105029682023
 10
34.20583274511979
 20
13.16759654695933
 10
34.52066367886818
 20
13.36436598221114
 10
34.86030805706199
 20
13.55053328317986
 10
35.22334129313965
 20
13.72531759953988
 10
35.60824069954214
 20
13.88798582507084
 10
36.01339187438469
 20
14.03785567275672
 10
36.43709547287502
 20
14.17429853632824
 10
36.877574334843
 20
14.29674212702851
 10
37.33298093886669
 20
14.40467287388749
 10
37.80140515138895
 20
14.49763807782602
 10
38.28088223848558
 20
14.57524781045928
 10
38.76940110660833
 20
14.63717654964344
 10
39.26491273785557
 20
14.68316454468929
 10
39.76533878424195
 20
14.71301890596308
 10
40.2685802850168
 20
14.72661441392396
 10
40.77252647043898
 20
14.72389404424453
 10
41.27506361508735
 20
14.70486920714347
 10
41.77408390352616
 20
14.66961969939044
 10
42.26749427122274
 20
14.61829336964405
 10
42.75322518364652
 20
14.55110549840482
 10
43.22923931653695
 20
14.4683378949313
 10
43.6935401011889
 20
14.37033771531572
 10
44.14418009878519
 20
14.25751600637766
 10
44.57926916852389
 20
14.13034598157035
 10
44.99698239568014
 20
13.9893610361605
 10
45.39556774577754
 20
13.83515251002252
 10
45.77335341337493
 20
13.66836720730547
 10
46.12875483408216
 20
13.48970468353156
 10
46.46028133082141
 20
13.29991431138347
 10
46.7665423662487
 20
13.09979213768297
 10
47.04625337515557
 20
12.89017754435623
 10
47.29824115235942
 20
12.67194972785172
 10
47.52144877357044
 20
12.44602401147395
 10
47.71494002842573
 20
12.21334800617984
 10
47.8779033473781
 20
11.97489763600661
 10
48.00965520562826
 20
11.73167304468605
 10
48.1096429900933
 20
11.4846944006774
 10
48.17744731727612
 20
11.23499761821863
 10
48.21278379222709
 20
10.9836300124167
 10
48.21550420152338
 20
10.73164590634285
 10
48.18559713481793
 20
10.48010220894271
 10
48.12318803272471
 20
10.23005398189144
 10
48.02853866072727
 20
9.982550014332096
 10
47.90204601116262
 20
9.738628423921277
 10
47.74424063819604
 20
9.499312302588249
 10
47.55578443236678
 20
9.265605425321268
 10
47.3374678445121
 20
9.038488039966456
 10
47.09020657027267
 20
8.818912755765808
 10
46.8150377093483
 20
8.607800547794296
 10
46.51311541558405
 20
8.406036893978786
 10
46.18570605601528
 20
8.214468061234638
 10
45.83418289925986
 20
8.033897555825834
 10
45.46002035560307
 20
7.865082753165342
 10
45.06478779277421
 20
7.708731721226655
 10
44.65014295351894
 20
7.565500250581846
 10
44.21782500239505
 20
7.435989103790545
 10
43.76964723108518
 20
7.320741495614674
 10
43.30748945297179
 20
7.22024081454588
 10
42.83329011835901
 20
7.134908595398695
 10
42.34903818403696
 20
7.065102751145364
 10
41.85676477093966
 20
7.011116071747432
 10
41.35853464481912
 20
6.973174996106981
 10
40.85643755597774
 20
6.951438662288941
 10
40.35257947410236
 20
6.945998240011526
 10
39.8490737550833
 20
6.956876548318586
 10
39.34803227688809
 20
6.984027959791889
 10
38.85155658159527
 20
7.027338591980349
 10
38.36172906082128
 20
7.086626785038816
 10
37.8806042214076
 20
7.161643863669377
 10
37.41020006812548
 20
7.252075180212038
 10
36.95248963949484
 20
7.357541434246662
 10
36.50939273209876
 20
7.477600263683129
 10
36.08276784835573
 20
7.611748100079681
 10
35.67440440129603
 20
7.759422280746877
 10
35.28601520912295
 20
7.920003408892014
 10
34.91922931108986
 20
8.092817951445969
 10
34.57558513474129
 20
8.277141064142297
 10
34.25652404313388
 20
8.472199631820702
 10
33.96338428940904
 20
8.677175511031714
 10
33.69739540353965
 20
8.891208961705888
  0
LWPOLYLINE
  5
FA
330
2
100
AcDbEntity
  8
0
100
AcDbPolyline
 90
       52
 70
   128
 43
0.0
 10
32.65516110873647
 20
10.73512825203038
 10
32.64532873046849
 20
10.91087710547313
 10
32.65894601084436
 20
11.16308461936655
 10
32.70518542655654
 20
11.41432248822617
 10
32.78385303340396
 20
11.66353693313031
 10
32.89461887213844
 20
11.90968266208916
 10
33.03701835230359
 20
12.15172725436984
 10
33.2104542010318
 20
12.38865549085009
 10
33.41419896805299
 20
12.61947361214088
 10
33.64739807705303
 20
12.8432134868433
 10
33.90907340988923
 20
13.05893667217345
 10
34.19812740930651
 20
13.26573835010949
 10
34.51334768237535
 20
13.4627511225603
 10
34.85341208569052
 20
13.64914864947843
 10
35.21689427099686
 20
13.82414911484804
 10
35.60226966767972
 20
13.9870185059362
 10
36.00792187739283
 20
14.13707369187535
 10
36.43214945381781
 20
14.27368528909223
 10
36.87317303903085
 20
14.39628030107976
 10
37.32914282688604
 20
14.50434452173368
 10
37.79814632161026
 20
14.59742469215074
 10
38.27821635956226
 20
14.67513040177937
 10
38.76733936016936
 20
14.73713572583592
 10
39.26346377157365
 20
14.78318059246162
 10
39.7645086756081
 20
14.81307187347828
 10
40.26837251578498
 20
14.82668419447094
 10
40.77294191206964
 20
14.82396046064159
 10
41.27610052506283
 20
14.80491209625156
 10
41.77573793266517
 20
14.76961899677356
 10
42.26975848199501
 20
14.71822919373429
 10
42.75609007913789
 20
14.65095823384268
 10
43.23269288037841
 20
14.56808827486059
 10
43.69756784795265
 20
14.46996690219435
 10
44.14876513468411
 20
14.35700567099086
 10
44.58439226234062
 20
14.22967837989969
 10
45.00262205935722
 20
14.08851908383272
 10
45.40170032463263
 20
13.93411985395361
 10
45.779953185225
 20
13.76712829426437
 10
46.13579411718634
 20
13.58824482542318
 10
46.46773059998174
 20
13.39821974684612
 10
46.77437037664691
 20
13.1978500897444
 10
47.05442729339473
 20
12.98797627411196
 10
47.30672669419749
 20
12.76947858366956
 10
47.53021034766624
 20
12.54327347363408
 10
47.72394088571306
 20
12.31030972689496
 10
47.88710573513387
 20
12.07156447432733
 10
48.01902052582956
 20
11.82803909651138
 10
48.11913196134949
 20
11.58075502350388
 10
48.18702013952926
 20
11.33074945064621
 10
48.22240031374451
 20
11.07907098820981
 10
48.22512408726419
 20
10.82677526310191
 10
48.21801580001872
 20
10.73512825203038
  0
SPLINE
  5
FB
330
2
100
AcDbEntity
  8
0
100
AcDbSpline
210
0.0
220
0.0
230
1.0
 70
     8
 71
     3
 72
     8
 73
     4
 74
     0
 42
0.000000001
 43
0.0000000001
 40
0.0
 40
0.0
 40
0.0
 40
0.0
 40
1.0
 40
1.0
 40
1.0
 40
1.0
 10
35.53971345209777
 20
18.01406134683967
 30
0.0
 10
35.53746915347674
 20
18.0127360367216
 30
0.0
 10
35.53525889678795
 20
18.01111144391763
 30
0.0
 10
35.53308120639786
 20
18.00919933922767
 30
0.0
  0
LWPOLYLINE
  5
FC
330
2
100
AcDbEntity
  8
0
100
AcDbPolyline
 90
       25
 70
   128
 43
0.0
 10
35.53971345210374
 20
18.0140613468427
 10
35.85224792480786
 20
18.18563106972467
 10
36.18876971240541
 20
18.34545563164122
 10
36.54751798274971
 20
18.49269875914911
 10
36.92661560487238
 20
18.62659001053731
 10
37.32407897084336
 20
18.74642880704712
 10
37.73782837503508
 20
18.85158809861228
 10
38.16569889597603
 20
18.9415176449255
 10
38.60545172420055
 20
19.01574689445163
 10
39.05478587673477
 20
19.07388744666659
 10
39.51135023683938
 20
19.11563508426754
 10
39.9727558560566
 20
19.14077136495966
 10
40.43658845437765
 20
19.1491647645329
 10
40.90042105268032
 20
19.14077136495966
 10
41.3618266719159
 20
19.11563508426754
 10
41.81839103200214
 20
19.07388744666659
 10
42.26772518453636
 20
19.01574689445163
 10
42.70747801277916
 20
18.9415176449255
 10
43.13534853370174
 20
18.85158809861228
 10
43.54909793791184
 20
18.74642880704712
 10
43.94656130388282
 20
18.62659001053731
 10
44.32565892598712
 20
18.49269875914911
 10
44.68440719634988
 20
18.34545563164122
 10
45.02092898392905
 20
18.18563106972467
 10
45.33346345665146
 20
18.0140613468427
  0
SPLINE
  5
FD
330
2
100
AcDbEntity
  8
0
100
AcDbSpline
210
0.0
220
0.0
230
1.0
 70
     8
 71
     3
 72
     8
 73
     4
 74
     0
 42
0.000000001
 43
0.0000000001
 40
0.0
 40
0.0
 40
0.0
 40
0.0
 40
1.0
 40
1.0
 40
1.0
 40
1.0
 10
45.34009570234807
 20
18.00919933922767
 30
0.0
 10
45.33792681399672
 20
18.01110371535364
 30
0.0
 10
45.33569075722965
 20
18.01274607445617
 30
0.0
 10
45.33346345664823
 20
18.01406134683967
 30
0.0
  0
ARC
  5
FE
330
2
100
AcDbEntity
  8
0
100
AcDbCircle
 10
42.94907437525907
 20
10.57576373026148
 30
0.0
 40
4.904747310308715
100
AcDbArc
 50
55.78013499250288
 51
56.76472523456438
  0
SPLINE
  5
FF
330
2
100
AcDbEntity
  8
0
100
AcDbSpline
210
0.0
220
0.0
230
1.0
 70
     8
 71
     3
 72
    12
 73
     8
 74
     0
 42
0.000000001
 43
0.0000000001
 40
0.0
 40
0.0
 40
0.0
 40
0.0
 40
0.2499999999999991
 40
0.2499999999999991
 40
0.4999999999999984
 40
0.4999999999999984
 40
1.0
 40
1.0
 40
1.0
 40
1.0
 10
45.76405154323206
 20
14.51618529639872
 30
0.0
 10
45.76363914885576
 20
14.52658827502964
 30
0.0
 10
45.76185275216489
 20
14.53773867943899
 30
0.0
 10
45.75576195186303
 20
14.56044957654174
 30
0.0
 10
45.75146859960992
 20
14.5718734207877
 30
0.0
 10
45.73585878696305
 20
14.60371296709776
 30
0.0
 10
45.72167336599573
 20
14.6216913737558
 30
0.0
 10
45.70735761549943
 20
14.63142887232353
 30
0.0
  0
LINE
  5
100
330
2
100
AcDbEntity
  8
0
100
AcDbLine
 10
45.79432029626961
 20
13.7523951968998
 30
0.0
 11
45.7640515432391
 21
14.51618529639647
 31
0.0
  0
LINE
  5
101
330
2
100
AcDbEntity
  8
0
100
AcDbLine
 10
35.10912536551618
 20
14.51618529639647
 30
0.0
 11
35.07875077397648
 21
13.74972450866429
 31
0.0
  0
SPLINE
  5
102
330
2
100
AcDbEntity
  8
0
100
AcDbSpline
210
0.0
220
0.0
230
1.0
 70
     8
 71
     3
 72
    12
 73
     8
 74
     0
 42
0.000000001
 43
0.0000000001
 40
0.0
 40
0.0
 40
0.0
 40
0.0
 40
0.2500000000000007
 40
0.2500000000000007
 40
0.5000000000000016
 40
0.5000000000000016
 40
1.0
 40
1.0
 40
1.0
 40
1.0
 10
35.16581929324657
 20
14.63142887232353
 30
0.0
 10
35.15866070803706
 20
14.62655964012774
 30
0.0
 10
35.15160528017798
 20
14.61977029825245
 30
0.0
 10
35.13829638191428
 20
14.60302471569823
 30
0.0
 10
35.13214853265773
 20
14.5931590466961
 30
0.0
 10
35.11652150675977
 20
14.56131263280999
 30
0.0
 10
35.10995022304026
 20
14.53699298853551
 30
0.0
 10
35.10912536551394
 20
14.51618529639872
 30
0.0
  0
ARC
  5
103
330
2
100
AcDbEntity
  8
0
100
AcDbCircle
 10
37.92410253334947
 20
10.57576373046313
 30
0.0
 40
4.904747310058568
100
AcDbArc
 50
123.2354647813188
 51
124.219865007497
  0
LINE
  5
104
330
2
100
AcDbEntity
  8
0
100
AcDbLine
 10
46.20933485094279
 20
14.01815758837424
 30
0.0
 11
46.21529403830268
 21
13.54273317021198
 31
0.0
  0
LINE
  5
105
330
2
100
AcDbEntity
  8
0
100
AcDbLine
 10
46.20933485094279
 20
14.01815758837424
 30
0.0
 11
46.28220289775498
 21
16.46713263913811
 31
0.0
  0
LINE
  5
106
330
2
100
AcDbEntity
  8
0
100
AcDbLine
 10
34.66384205779414
 20
14.01815758837424
 30
0.0
 11
34.65787329331007
 21
13.541969106542
 31
0.0
  0
LINE
  5
107
330
2
100
AcDbEntity
  8
0
100
AcDbLine
 10
34.59097401098185
 20
16.46713263913811
 30
0.0
 11
34.66384205779414
 21
14.01815758837424
 31
0.0
  0
SPLINE
  5
108
330
2
100
AcDbEntity
  8
0
100
AcDbSpline
210
0.0
220
0.0
230
1.0
 70
     8
 71
     3
 72
    10
 73
     6
 74
     0
 42
0.000000001
 43
0.0000000001
 40
0.0
 40
0.0
 40
0.0
 40
0.0
 40
0.4606811165303391
 40
0.918853867887876
 40
1.0
 40
1.0
 40
1.0
 40
1.0
 10
45.34009570234807
 20
18.00919933922767
 30
0.0
 10
45.34182830790104
 20
18.00715025010888
 30
0.0
 10
45.34528408513339
 20
18.003063228968
 30
0.0
 10
45.34726515725111
 20
17.99712075930442
 30
0.0
 10
45.34722308201711
 20
17.99367094076493
 30
0.0
 10
45.34725520944526
 20
17.99307767620098
 30
0.0
  0
SPLINE
  5
109
330
2
100
AcDbEntity
  8
0
100
AcDbSpline
210
0.0
220
0.0
230
1.0
 70
     8
 71
     3
 72
    10
 73
     6
 74
     0
 42
0.000000001
 43
0.0000000001
 40
0.0
 40
0.0
 40
0.0
 40
0.0
 40
0.0931642053585279
 40
0.5453960097135929
 40
1.0
 40
1.0
 40
1.0
 40
1.0
 10
35.5258927989719
 20
17.99308568254771
 30
0.0
 10
35.52594339817879
 20
17.99389459712212
 30
0.0
 10
35.52594977553625
 20
17.99723971206619
 30
0.0
 10
35.52794821522915
 20
18.00315924416447
 30
0.0
 10
35.53136722808373
 20
18.00718246609977
 30
0.0
 10
35.53308120639786
 20
18.00919933922767
 30
0.0
  0
LINE
  5
10A
330
2
100
AcDbEntity
  8
0
100
AcDbLine
 10
34.61536275203551
 20
13.53007219165144
 30
0.0
 11
34.61372325050771
 21
13.85404972694162
 31
0.0
  0
LINE
  5
10B
330
2
100
AcDbEntity
  8
0
100
AcDbLine
 10
34.47190596367641
 20
13.67340216978299
 30
0.0
 11
34.48079249378115
 21
13.9720330674417
 31
0.0
  0
LINE
  5
10C
330
2
100
AcDbEntity
  8
0
100
AcDbLine
 10
34.61372325050771
 20
13.85404972694162
 30
0.0
 11
34.60274402950779
 21
13.93682869144728
 31
0.0
  0
LINE
  5
10D
330
2
100
AcDbEntity
  8
0
100
AcDbLine
 10
46.25781415670132
 20
13.53007219165144
 30
0.0
 11
46.25945365824748
 21
13.85404972694162
 31
0.0
  0
LINE
  5
10E
330
2
100
AcDbEntity
  8
0
100
AcDbLine
 10
46.25945365824748
 20
13.85404972694162
 30
0.0
 11
46.27043287922902
 21
13.93682869144728
 31
0.0
  0
LINE
  5
10F
330
2
100
AcDbEntity
  8
0
100
AcDbLine
 10
46.39238441497403
 20
13.9720330674417
 30
0.0
 11
46.40104468848162
 21
13.68100549857512
 31
0.0
  0
SPLINE
  5
110
330
2
100
AcDbEntity
  8
0
100
AcDbSpline
210
0.0
220
0.0
230
1.0
 70
     8
 71
     3
 72
     8
 73
     4
 74
     0
 42
0.000000001
 43
0.0000000001
 40
0.0
 40
0.0
 40
0.0
 40
0.0
 40
1.0
 40
1.0
 40
1.0
 40
1.0
 10
34.40084903273212
 20
17.02865751385109
 30
0.0
 10
34.39974097153751
 20
17.02772396842336
 30
0.0
 10
34.39858514686022
 20
17.0264288720283
 30
0.0
 10
34.39742067855688
 20
17.02480678639389
 30
0.0
  0
SPLINE
  5
111
330
2
100
AcDbEntity
  8
0
100
AcDbSpline
210
0.0
220
0.0
230
1.0
 70
     8
 71
     3
 72
     8
 73
     4
 74
     0
 42
0.000000001
 43
0.0000000001
 40
0.0
 40
0.0
 40
0.0
 40
0.0
 40
1.0
 40
1.0
 40
1.0
 40
1.0
 10
34.40073172003734
 20
14.0759354995862
 30
0.0
 10
34.39864126288367
 20
15.06088754967613
 30
0.0
 10
34.39862441201712
 20
16.04514874704757
 30
0.0
 10
34.40084903273212
 20
17.02865751385109
 30
0.0
  0
LWPOLYLINE
  5
112
330
2
100
AcDbEntity
  8
0
100
AcDbPolyline
 90
        3
 70
   128
 43
0.0
 10
34.39695268528303
 20
13.95070556448499
 10
34.39836826782233
 20
13.99761718853097
 10
34.40073172002865
 20
14.07593549959167
  0
ARC
  5
113
330
2
100
AcDbEntity
  8
0
100
AcDbCircle
 10
36.62162526155437
 20
12.0990485704713
 30
0.0
 40
2.894443244418569
100
AcDbArc
 50
138.7392205194044
 51
140.228444254395
  0
SPLINE
  5
114
330
2
100
AcDbEntity
  8
0
100
AcDbSpline
210
0.0
220
0.0
230
1.0
 70
     8
 71
     3
 72
    12
 73
     8
 74
     0
 42
0.000000001
 43
0.0000000001
 40
0.0
 40
0.0
 40
0.0
 40
0.0
 40
0.2499999999999984
 40
0.2499999999999984
 40
0.4999999999999968
 40
0.4999999999999968
 40
1.0
 40
1.0
 40
1.0
 40
1.0
 10
34.48079249377803
 20
13.97203306744258
 30
0.0
 10
34.48109947184756
 20
13.98234475287396
 30
0.0
 10
34.48041122507937
 20
13.99135205318239
 30
0.0
 10
34.47717710810671
 20
14.00598733503726
 30
0.0
 10
34.47463262958765
 20
14.01148944412764
 30
0.0
 10
34.46490027150336
 20
14.0213820267976
 30
0.0
 10
34.45553466425017
 20
14.01896464473143
 30
0.0
 10
34.44582669724032
 20
14.00789699364544
 30
0.0
  0
ARC
  5
115
330
2
100
AcDbEntity
  8
0
100
AcDbCircle
 10
35.89382442001915
 20
15.89398664093368
 30
0.0
 40
1.875627457378075
100
AcDbArc
 50
142.921954976098
 51
176.6743833121954
  0
SPLINE
  5
116
330
2
100
AcDbEntity
  8
0
100
AcDbSpline
210
0.0
220
0.0
230
1.0
 70
     8
 71
     3
 72
    12
 73
     8
 74
     0
 42
0.000000001
 43
0.0000000001
 40
0.0
 40
0.0
 40
0.0
 40
0.0
 40
0.25
 40
0.25
 40
0.5
 40
0.5
 40
1.0
 40
1.0
 40
1.0
 40
1.0
 10
46.42735021150559
 20
14.00789699364544
 30
0.0
 10
46.42249574655326
 20
14.01343136806662
 30
0.0
 10
46.41777525584083
 20
14.01684027082735
 30
0.0
 10
46.40901836580456
 20
14.01920422149536
 30
0.0
 10
46.4050539838322
 20
14.01809600162641
 30
0.0
 10
46.39530949896779
 20
14.00822196059292
 30
0.0
 10
46.39177040763487
 20
13.99265815795563
 30
0.0
 10
46.39238441496789
 20
13.97203306744258
 30
0.0
  0
ARC
  5
117
330
2
100
AcDbEntity
  8
0
100
AcDbCircle
 10
44.25155164698079
 20
12.09904857028803
 30
0.0
 40
2.894443244689298
100
AcDbArc
 50
39.77155574570434
 51
41.26077948049757
  0
LWPOLYLINE
  5
118
330
2
100
AcDbEntity
  8
0
100
AcDbPolyline
 90
        3
 70
   128
 43
0.0
 10
46.47244518870827
 20
14.07593549959167
 10
46.47386088742137
 20
14.0290239148142
 10
46.47622422347208
 20
13.95070556448499
  0
SPLINE
  5
119
330
2
100
AcDbEntity
  8
0
100
AcDbSpline
210
0.0
220
0.0
230
1.0
 70
     8
 71
     3
 72
     8
 73
     4
 74
     0
 42
0.000000001
 43
0.0000000001
 40
0.0
 40
0.0
 40
0.0
 40
0.0
 40
1.0
 40
1.0
 40
1.0
 40
1.0
 10
46.47232787601379
 20
17.02865751385109
 30
0.0
 10
46.47455249665785
 20
16.04514877843554
 30
0.0
 10
46.47453564580128
 20
15.06088752095262
 30
0.0
 10
46.47244518870855
 20
14.07593549958615
 30
0.0
  0
SPLINE
  5
11A
330
2
100
AcDbEntity
  8
0
100
AcDbSpline
210
0.0
220
0.0
230
1.0
 70
     8
 71
     3
 72
     8
 73
     4
 74
     0
 42
0.000000001
 43
0.0000000001
 40
0.0
 40
0.0
 40
0.0
 40
0.0
 40
1.0
 40
1.0
 40
1.0
 40
1.0
 10
46.47575623018914
 20
17.02480678639385
 30
0.0
 10
46.47458287503936
 20
17.02644125126266
 30
0.0
 10
46.47344043407313
 20
17.0277201797991
 30
0.0
 10
46.47232787601379
 20
17.02865751385109
 30
0.0
  0
ARC
  5
11B
330
2
100
AcDbEntity
  8
0
100
AcDbCircle
 10
44.99868667910312
 20
15.90110093934271
 30
0.0
 40
1.855922759560084
100
AcDbArc
 50
3.140980006702714
 51
37.26268170499883
  0
ELLIPSE
  5
11C
330
2
100
AcDbEntity
  8
0
100
AcDbEllipse
 10
34.55700565876743
 20
13.89641971960068
 30
0.0
 11
0.0138266160657359
 21
0.091215595540661
 31
0.0
210
0.0
220
0.0
230
1.0
 40
0.4926395442000002
 41
5.244502075586932
 42
6.218569152574255
  0
ELLIPSE
  5
11D
330
2
100
AcDbEntity
  8
0
100
AcDbEllipse
 10
46.31617124998776
 20
13.89641971960068
 30
0.0
 11
-0.0138266160657255
 21
0.091215595540661
 31
0.0
210
0.0
220
0.0
230
1.0
 40
0.4926395442000002
 41
0.0646161546055782
 42
1.038683231592829
  0
LINE
  5
11E
330
2
100
AcDbEntity
  8
0
100
AcDbLine
 10
34.90866109410271
 20
16.75131125929618
 30
0.0
 11
34.90412062020223
 21
16.86836556721304
 31
0.0
  0
LINE
  5
11F
330
2
100
AcDbEntity
  8
0
100
AcDbLine
 10
34.59097401098185
 20
16.46713263913811
 30
0.0
 11
34.90866109410271
 21
16.75131125929618
 31
0.0
  0
SPLINE
  5
120
330
2
100
AcDbEntity
  8
0
100
AcDbSpline
210
0.0
220
0.0
230
1.0
 70
     8
 71
     3
 72
     8
 73
     4
 74
     0
 42
0.000000001
 43
0.0000000001
 40
0.0
 40
0.0
 40
0.0
 40
0.0
 40
1.0
 40
1.0
 40
1.0
 40
1.0
 10
46.47232787601379
 20
17.02865751385109
 30
0.0
 10
46.47054537137108
 20
17.03015928024022
 30
0.0
 10
46.46752692984626
 20
17.0303587148028
 30
0.0
 10
46.46353946010981
 20
17.0292918217336
 30
0.0
  0
SPLINE
  5
121
330
2
100
AcDbEntity
  8
0
100
AcDbSpline
210
0.0
220
0.0
230
1.0
 70
     8
 71
     3
 72
     8
 73
     4
 74
     0
 42
0.000000001
 43
0.0000000001
 40
0.0
 40
0.0
 40
0.0
 40
0.0
 40
1.0
 40
1.0
 40
1.0
 40
1.0
 10
34.40084903273212
 20
17.02865751385109
 30
0.0
 10
34.40263153737493
 20
17.03015928024022
 30
0.0
 10
34.40564997889965
 20
17.0303587148028
 30
0.0
 10
34.40963744864527
 20
17.0292918217336
 30
0.0
  0
LINE
  5
122
330
2
100
AcDbEntity
  8
0
100
AcDbLine
 10
46.28220289775498
 20
16.46713263913811
 30
0.0
 11
45.96451581465247
 21
16.75131125929618
 31
0.0
  0
LINE
  5
123
330
2
100
AcDbEntity
  8
0
100
AcDbLine
 10
45.96451581465247
 20
16.75131125929618
 30
0.0
 11
45.96905628855297
 21
16.86836556721304
 31
0.0
  0
LINE
  5
124
330
2
100
AcDbEntity
  8
0
100
AcDbLine
 10
34.90866109410271
 20
16.75131125929618
 30
0.0
 11
35.45589270975597
 21
17.22522774020332
 31
0.0
  0
LINE
  5
125
330
2
100
AcDbEntity
  8
0
100
AcDbLine
 10
45.41636826089122
 20
17.22602096588787
 30
0.0
 11
45.96451581465247
 21
16.75131125929618
 31
0.0
  0
ELLIPSE
  5
126
330
2
100
AcDbEntity
  8
0
100
AcDbEllipse
 10
45.99192752290766
 20
16.84544613300361
 30
0.0
 11
-0.0130644012011116
 21
0.0439313997577814
 31
0.0
210
0.0
220
0.0
230
1.0
 40
0.4286267730000001
 41
6.279748432448139
 42
7.183246669445607
  0
LINE
  5
127
330
2
100
AcDbEntity
  8
0
100
AcDbLine
 10
45.4010089014707
 20
17.39648804054015
 30
0.0
 11
45.98464279480888
 21
16.89104626241699
 31
0.0
  0
ELLIPSE
  5
128
330
2
100
AcDbEntity
  8
0
100
AcDbEllipse
 10
34.88124938584753
 20
16.84544613300361
 30
0.0
 11
0.0130644012011116
 21
0.0439313997577814
 31
0.0
210
0.0
220
0.0
230
1.0
 40
0.4286267730000001
 41
5.383123944913828
 42
6.286622181912587
  0
LINE
  5
129
330
2
100
AcDbEntity
  8
0
100
AcDbLine
 10
34.88853411394629
 20
16.89104626241699
 30
0.0
 11
35.47144847361798
 21
17.39586490612478
 31
0.0
  0
ELLIPSE
  5
12A
330
2
100
AcDbEntity
  8
0
100
AcDbEllipse
 10
30.25016871701759
 20
15.0247736027136
 30
0.0
 11
-0.0067260089211067
 21
0.3674368542922557
 31
0.0
210
0.0
220
0.0
230
0.9999999999999998
 40
0.584460762865635
 41
1.255334287596886
 42
6.733877229837813
  0
ELLIPSE
  5
12B
330
2
100
AcDbEntity
  8
0
100
AcDbEllipse
 10
30.2372648356417
 20
14.53267944370205
 30
0.0
 11
0.0147369879557334
 21
0.1668886163280815
 31
0.0
210
0.0
220
0.0
230
1.0
 40
0.6457159237112302
 41
0.0
 42
6.283185307179584
  0
LINE
  5
12C
330
2
100
AcDbEntity
  8
0
100
AcDbLine
 10
25.6286287992515
 20
11.2344905040593
 30
0.0
 11
25.75347064539008
 21
11.12637429384153
 31
0.0
  0
LINE
  5
12D
330
2
100
AcDbEntity
  8
0
100
AcDbLine
 10
25.66060998269575
 20
11.22344455432378
 30
0.0
 11
25.69862466387869
 21
11.23441844752357
 31
0.0
  0
ARC
  5
12E
330
2
100
AcDbEntity
  8
0
100
AcDbCircle
 10
25.68689968350073
 20
11.32719488092759
 30
0.0
 40
0.1070293354033389
100
AcDbArc
 50
174.8069247138021
 51
197.7982758284821
  0
ARC
  5
12F
330
2
100
AcDbEntity
  8
0
100
AcDbCircle
 10
25.68689968350073
 20
11.32719488092759
 30
0.0
 40
0.1070293354033389
100
AcDbArc
 50
238.8205845890726
 51
255.7808851649026
  0
LWPOLYLINE
  5
130
330
2
100
AcDbEntity
  8
0
100
AcDbPolyline
 90
        3
 70
   128
 43
0.0
 10
25.75347064539008
 20
11.12637429384153
 10
25.77091451182505
 20
11.11436215348773
 10
25.79805138589536
 20
11.10441680761421
  0
LINE
  5
131
330
2
100
AcDbEntity
  8
0
100
AcDbLine
 10
25.79805138589536
 20
11.10441680761421
 30
0.0
 11
25.83606606707811
 21
11.1153907008324
 31
0.0
  0
ELLIPSE
  5
132
330
2
100
AcDbEntity
  8
0
100
AcDbEllipse
 10
25.7693630974446
 20
11.36930950764319
 30
0.0
 11
0.0158924520545607
 21
0.2429352138016464
 31
0.0
210
0.0
220
0.0
230
0.9999999999999998
 40
0.6128168285279187
 41
1.901834973623699
 42
6.870853096261242
  0
ELLIPSE
  5
133
330
2
100
AcDbEntity
  8
0
100
AcDbEllipse
 10
25.81963159604697
 20
11.0799603477985
 30
0.0
 11
-0.0391215356731318
 21
0.0605558966738841
 31
0.0
210
0.0
220
0.0
230
1.0
 40
0.6994241437507363
 41
0.0
 42
6.283185307179584
  0
ARC
  5
134
330
2
100
AcDbEntity
  8
0
100
AcDbCircle
 10
25.35968268389988
 20
16.18987460848964
 30
0.0
 40
5.19225715614568
100
AcDbArc
 50
275.5546823295032
 51
339.4343720710991
  0
POLYLINE
  5
135
330
2
100
AcDbEntity
  8
0
100
AcDb2dPolyline
 66
     1
 10
0.0
 20
0.0
 30
0.0
 70
     2
  0
VERTEX
  5
136
330
135
100
AcDbEntity
  8
0
100
AcDbVertex
100
AcDb2dVertex
 10
25.42894660918639
 20
13.07639895087762
 30
0.0
 42
0.00841376215367
  0
VERTEX
  5
137
330
135
100
AcDbEntity
  8
0
100
AcDbVertex
100
AcDb2dVertex
 10
25.70394288186184
 20
13.29075523822721
 30
0.0
 42
0.0501186739966826
 70
     1
  0
VERTEX
  5
138
330
135
100
AcDbEntity
  8
0
100
AcDbVertex
100
AcDb2dVertex
 10
25.7304553907443
 20
13.31693527275144
 30
0.0
 42
0.0172839214496608
  0
VERTEX
  5
139
330
135
100
AcDbEntity
  8
0
100
AcDbVertex
100
AcDb2dVertex
 10
26.21114045785391
 20
13.94015520083562
 30
0.0
 42
0.0066833728106379
 70
     1
  0
VERTEX
  5
13A
330
135
100
AcDbEntity
  8
0
100
AcDbVertex
100
AcDb2dVertex
 10
27.37529895968306
 20
15.60915430439651
 30
0.0
 42
0.0058690167807455
  0
VERTEX
  5
13B
330
135
100
AcDbEntity
  8
0
100
AcDbVertex
100
AcDb2dVertex
 10
27.75145738279007
 20
16.17837113764017
 30
0.0
 42
-0.0055899550345994
 70
     1
  0
VERTEX
  5
13C
330
135
100
AcDbEntity
  8
0
100
AcDbVertex
100
AcDb2dVertex
 10
28.14605952138678
 20
16.77622282547157
 30
0.0
 42
-0.0583248844971142
  0
VERTEX
  5
13D
330
135
100
AcDbEntity
  8
0
100
AcDbVertex
100
AcDb2dVertex
 10
28.58377598969206
 20
17.28434907078709
 30
0.0
 42
-0.0473375732486717
 70
     1
  0
VERTEX
  5
13E
330
135
100
AcDbEntity
  8
0
100
AcDbVertex
100
AcDb2dVertex
 10
29.24154879637613
 20
17.78291875795948
 30
0.0
 42
-0.174617249837134
  0
VERTEX
  5
13F
330
135
100
AcDbEntity
  8
0
100
AcDbVertex
100
AcDb2dVertex
 10
30.08211089450549
 20
17.96052085863182
 30
0.0
 42
-0.1834518074477105
 70
     1
  0
VERTEX
  5
140
330
135
100
AcDbEntity
  8
0
100
AcDbVertex
100
AcDb2dVertex
 10
30.80180090345961
 20
17.56698767239988
 30
0.0
 42
-0.0396751802337727
  0
VERTEX
  5
141
330
135
100
AcDbEntity
  8
0
100
AcDbVertex
100
AcDb2dVertex
 10
31.07950239484875
 20
17.18469202003528
 30
0.0
 42
-0.059738168795049
 70
     1
  0
VERTEX
  5
142
330
135
100
AcDbEntity
  8
0
100
AcDbVertex
100
AcDb2dVertex
 10
31.21046666875323
 20
16.89881819190549
 30
0.0
 42
-0.0348577842408616
  0
VERTEX
  5
143
330
135
100
AcDbEntity
  8
0
100
AcDbVertex
100
AcDb2dVertex
 10
31.31350199954447
 20
16.47880397757332
 30
0.0
 42
-0.0505908605494362
 70
     1
  0
VERTEX
  5
144
330
135
100
AcDbEntity
  8
0
100
AcDbVertex
100
AcDb2dVertex
 10
31.33430594168132
 20
16.18115402694806
 30
0.0
 42
-0.0772983630562495
  0
VERTEX
  5
145
330
135
100
AcDbEntity
  8
0
100
AcDbVertex
100
AcDb2dVertex
 10
31.30628053288245
 20
16.0318969584629
 30
0.0
 42
-0.0454054468664174
 70
     1
  0
VERTEX
  5
146
330
135
100
AcDbEntity
  8
0
100
AcDbVertex
100
AcDb2dVertex
 10
31.19877306241111
 20
15.79787983265278
 30
0.0
  0
SEQEND
  5
147
330
135
100
AcDbEntity
  8
0
  0
POLYLINE
  5
148
330
2
100
AcDbEntity
  8
0
100
AcDb2dPolyline
 66
     1
 10
0.0
 20
0.0
 30
0.0
  0
VERTEX
  5
149
330
148
100
AcDbEntity
  8
0
100
AcDbVertex
100
AcDb2dVertex
 10
25.42894660918639
 20
12.88358146703607
 30
0.0
 42
0.0111710645771193
  0
VERTEX
  5
14A
330
148
100
AcDbEntity
  8
0
100
AcDbVertex
100
AcDb2dVertex
 10
25.80108102335736
 20
13.17037109222791
 30
0.0
 42
0.0501186739966924
  0
VERTEX
  5
14B
330
148
100
AcDbEntity
  8
0
100
AcDbVertex
100
AcDb2dVertex
 10
25.84960417450755
 20
13.218285749342
 30
0.0
 42
0.0172839214496618
  0
VERTEX
  5
14C
330
148
100
AcDbEntity
  8
0
100
AcDbVertex
100
AcDb2dVertex
 10
26.33681875460321
 20
13.84997135046649
 30
0.0
 42
0.0066833728106379
  0
VERTEX
  5
14D
330
148
100
AcDbEntity
  8
0
100
AcDbVertex
100
AcDb2dVertex
 10
27.50334295671728
 20
15.5223620468807
 30
0.0
 42
0.0058690167807453
  0
VERTEX
  5
14E
330
148
100
AcDbEntity
  8
0
100
AcDbVertex
100
AcDb2dVertex
 10
27.88150342840805
 20
16.09460845406172
 30
0.0
 42
-0.0055899550345992
  0
VERTEX
  5
14F
330
148
100
AcDbEntity
  8
0
100
AcDbVertex
100
AcDb2dVertex
 10
28.27420031704639
 20
16.68957354602328
 30
0.0
 42
-0.0583248844971176
  0
VERTEX
  5
150
330
148
100
AcDbEntity
  8
0
100
AcDbVertex
100
AcDb2dVertex
 10
28.68844302703602
 20
17.17045011365926
 30
0.0
 42
-0.0473375732486709
  0
VERTEX
  5
151
330
148
100
AcDbEntity
  8
0
100
AcDbVertex
100
AcDb2dVertex
 10
29.32292551610221
 20
17.65136652260101
 30
0.0
 42
-0.1746172498371493
  0
VERTEX
  5
152
330
148
100
AcDbEntity
  8
0
100
AcDbVertex
100
AcDb2dVertex
 10
30.0609050622448
 20
17.80729398820993
 30
0.0
 42
-0.1834518074477271
  0
VERTEX
  5
153
330
148
100
AcDbEntity
  8
0
100
AcDbVertex
100
AcDb2dVertex
 10
30.68424399315658
 20
17.46644646701026
 30
0.0
 42
-0.0396751802337699
  0
VERTEX
  5
154
330
148
100
AcDbEntity
  8
0
100
AcDbVertex
100
AcDb2dVertex
 10
30.94754041507171
 20
17.10398144430628
 30
0.0
 42
-0.0597381687950483
  0
VERTEX
  5
155
330
148
100
AcDbEntity
  8
0
100
AcDbVertex
100
AcDb2dVertex
 10
31.06316459584792
 20
16.85159255841087
 30
0.0
 42
-0.0348577842408601
  0
VERTEX
  5
156
330
148
100
AcDbEntity
  8
0
100
AcDbVertex
100
AcDb2dVertex
 10
31.16106753657876
 20
16.45250006832912
 30
0.0
 42
-0.0505908605494308
  0
VERTEX
  5
157
330
148
100
AcDbEntity
  8
0
100
AcDbVertex
100
AcDb2dVertex
 10
31.17969447988429
 20
16.18599727194983
 30
0.0
 42
-0.0772983630562457
  0
VERTEX
  5
158
330
148
100
AcDbEntity
  8
0
100
AcDbVertex
100
AcDb2dVertex
 10
31.16044293510622
 20
16.08346784381512
 30
0.0
 42
-0.0435860634477136
  0
VERTEX
  5
159
330
148
100
AcDbEntity
  8
0
100
AcDbVertex
100
AcDb2dVertex
 10
31.06919123307804
 20
15.8829187535562
 30
0.0
 42
-0.0454054468664149
  0
SEQEND
  5
15A
330
148
100
AcDbEntity
  8
0
  0
POLYLINE
  5
15B
330
2
100
AcDbEntity
  8
0
100
AcDb2dPolyline
 66
     1
 10
0.0
 20
0.0
 30
0.0
 70
     2
  0
VERTEX
  5
15C
330
15B
100
AcDbEntity
  8
0
100
AcDbVertex
100
AcDb2dVertex
 10
25.61714387673712
 20
11.30498289215838
 30
0.0
 42
-0.0522236093001447
  0
VERTEX
  5
15D
330
15B
100
AcDbEntity
  8
0
100
AcDbVertex
100
AcDb2dVertex
 10
25.59916420842427
 20
11.29695129979441
 30
0.0
 42
-0.0716608154131766
 70
     1
  0
VERTEX
  5
15E
330
15B
100
AcDbEntity
  8
0
100
AcDbVertex
100
AcDb2dVertex
 10
25.58499292284716
 20
11.29447958221278
 30
0.0
 42
-0.0981337861266901
  0
VERTEX
  5
15F
330
15B
100
AcDbEntity
  8
0
100
AcDbVertex
100
AcDb2dVertex
 10
25.55139185098527
 20
11.30011047646815
 30
0.0
 42
-0.081569919082386
 70
     1
  0
VERTEX
  5
160
330
15B
100
AcDbEntity
  8
0
100
AcDbVertex
100
AcDb2dVertex
 10
25.51601750916154
 20
11.3205744352277
 30
0.0
 42
-0.085903982657382
  0
VERTEX
  5
161
330
15B
100
AcDbEntity
  8
0
100
AcDbVertex
100
AcDb2dVertex
 10
25.47441651015795
 20
11.36876217752692
 30
0.0
 42
-0.0972633807585109
 70
     1
  0
VERTEX
  5
162
330
15B
100
AcDbEntity
  8
0
100
AcDbVertex
100
AcDb2dVertex
 10
25.45526286605096
 20
11.42174859044193
 30
0.0
 42
-0.0090938820223754
  0
VERTEX
  5
163
330
15B
100
AcDbEntity
  8
0
100
AcDbVertex
100
AcDb2dVertex
 10
25.44880459542096
 20
11.4693812910952
 30
0.0
 42
-0.0067669099887715
 70
     1
  0
VERTEX
  5
164
330
15B
100
AcDbEntity
  8
0
100
AcDbVertex
100
AcDb2dVertex
 10
25.44216028647959
 20
11.5336343818255
 30
0.0
 42
-0.0088501182275486
  0
VERTEX
  5
165
330
15B
100
AcDbEntity
  8
0
100
AcDbVertex
100
AcDb2dVertex
 10
25.43575005317286
 20
11.62274901465425
 30
0.0
 42
-0.0012355515575566
 70
     1
  0
VERTEX
  5
166
330
15B
100
AcDbEntity
  8
0
100
AcDbVertex
100
AcDb2dVertex
 10
25.40272070695327
 20
12.26181437663417
 30
0.0
 42
-0.0195778265971305
  0
VERTEX
  5
167
330
15B
100
AcDbEntity
  8
0
100
AcDbVertex
100
AcDb2dVertex
 10
25.39491009067264
 20
13.04159198126968
 30
0.0
 42
-0.0790087975948558
 70
     1
  0
VERTEX
  5
168
330
15B
100
AcDbEntity
  8
0
100
AcDbVertex
100
AcDb2dVertex
 10
25.43101134802599
 20
13.23257469691987
 30
0.0
 42
-0.2230685931993146
  0
VERTEX
  5
169
330
15B
100
AcDbEntity
  8
0
100
AcDbVertex
100
AcDb2dVertex
 10
25.57333692004374
 20
13.37545154307334
 30
0.0
 42
0.1514243915724875
 70
     1
  0
VERTEX
  5
16A
330
15B
100
AcDbEntity
  8
0
100
AcDbVertex
100
AcDb2dVertex
 10
25.80398181284412
 20
13.55040545163086
 30
0.0
 42
0.0084154427520946
  0
VERTEX
  5
16B
330
15B
100
AcDbEntity
  8
0
100
AcDbVertex
100
AcDb2dVertex
 10
26.25731473050585
 20
14.20674722535374
 30
0.0
 42
-0.0035690854634239
 70
     1
  0
VERTEX
  5
16C
330
15B
100
AcDbEntity
  8
0
100
AcDbVertex
100
AcDb2dVertex
 10
27.31110446994138
 20
15.7645132206762
 30
0.0
 42
-0.0022600936830834
  0
VERTEX
  5
16D
330
15B
100
AcDbEntity
  8
0
100
AcDbVertex
100
AcDb2dVertex
 10
27.91228743442843
 20
16.6312653663335
 30
0.0
 42
-0.0024018306525935
 70
     1
  0
VERTEX
  5
16E
330
15B
100
AcDbEntity
  8
0
100
AcDbVertex
100
AcDb2dVertex
 10
28.48557358242127
 20
17.44155929770844
 30
0.0
 42
-0.2068838122284174
  0
VERTEX
  5
16F
330
15B
100
AcDbEntity
  8
0
100
AcDbVertex
100
AcDb2dVertex
 10
29.62413479099813
 20
18.12751295569714
 30
0.0
 42
-0.2177678617245061
 70
     1
  0
VERTEX
  5
170
330
15B
100
AcDbEntity
  8
0
100
AcDbVertex
100
AcDb2dVertex
 10
30.83787734373645
 20
17.75920764337548
 30
0.0
 42
-0.0490479462761191
  0
VERTEX
  5
171
330
15B
100
AcDbEntity
  8
0
100
AcDbVertex
100
AcDb2dVertex
 10
31.23828161073857
 20
17.32881964698994
 30
0.0
 42
-0.077969508977539
 70
     1
  0
VERTEX
  5
172
330
15B
100
AcDbEntity
  8
0
100
AcDbVertex
100
AcDb2dVertex
 10
31.41481033837552
 20
17.00234305349861
 30
0.0
 42
-0.0451372916589528
  0
VERTEX
  5
173
330
15B
100
AcDbEntity
  8
0
100
AcDbVertex
100
AcDb2dVertex
 10
31.54262721041828
 20
16.50144621193728
 30
0.0
 42
-0.0672992237023312
 70
     1
  0
VERTEX
  5
174
330
15B
100
AcDbEntity
  8
0
100
AcDbVertex
100
AcDb2dVertex
 10
31.55139741923657
 20
16.1539802322093
 30
0.0
 42
-0.082833913616645
  0
VERTEX
  5
175
330
15B
100
AcDbEntity
  8
0
100
AcDbVertex
100
AcDb2dVertex
 10
31.49757769940435
 20
15.9628293039815
 30
0.0
 42
-0.0543039207141835
 70
     1
  0
VERTEX
  5
176
330
15B
100
AcDbEntity
  8
0
100
AcDbVertex
100
AcDb2dVertex
 10
31.34031594917013
 20
15.70531452665879
 30
0.0
  0
SEQEND
  5
177
330
15B
100
AcDbEntity
  8
0
  0
POLYLINE
  5
178
330
2
100
AcDbEntity
  8
0
100
AcDb2dPolyline
 66
     1
 10
0.0
 20
0.0
 30
0.0
  0
VERTEX
  5
179
330
178
100
AcDbEntity
  8
0
100
AcDbVertex
100
AcDb2dVertex
 10
25.67080496530113
 20
11.25851102626675
 30
0.0
 42
-0.0880119848073951
  0
VERTEX
  5
17A
330
178
100
AcDbEntity
  8
0
100
AcDbVertex
100
AcDb2dVertex
 10
25.62051355937665
 20
11.23160028172441
 30
0.0
 42
-0.0716608154131926
  0
VERTEX
  5
17B
330
178
100
AcDbEntity
  8
0
100
AcDbVertex
100
AcDb2dVertex
 10
25.58702784216098
 20
11.22575979283402
 30
0.0
 42
-0.098133786126553
  0
VERTEX
  5
17C
330
178
100
AcDbEntity
  8
0
100
AcDbVertex
100
AcDb2dVertex
 10
25.5270650235505
 20
11.23580840950421
 30
0.0
 42
-0.0815699190824735
  0
VERTEX
  5
17D
330
178
100
AcDbEntity
  8
0
100
AcDbVertex
100
AcDb2dVertex
 10
25.47240224961924
 20
11.26743067280976
 30
0.0
 42
-0.0859039826574027
  0
VERTEX
  5
17E
330
178
100
AcDbEntity
  8
0
100
AcDbVertex
100
AcDb2dVertex
 10
25.41547684026691
 20
11.33336916039048
 30
0.0
 42
-0.0972633807585175
  0
VERTEX
  5
17F
330
178
100
AcDbEntity
  8
0
100
AcDbVertex
100
AcDb2dVertex
 10
25.38731554846498
 20
11.41127422259764
 30
0.0
 42
-0.0090938820223737
  0
VERTEX
  5
180
330
178
100
AcDbEntity
  8
0
100
AcDbVertex
100
AcDb2dVertex
 10
25.38052130748653
 20
11.46138485828181
 30
0.0
 42
-0.0067669099887718
  0
VERTEX
  5
181
330
178
100
AcDbEntity
  8
0
100
AcDbVertex
100
AcDb2dVertex
 10
25.37368559554052
 20
11.52748889163546
 30
0.0
 42
-0.0088501182275505
  0
VERTEX
  5
182
330
178
100
AcDbEntity
  8
0
100
AcDbVertex
100
AcDb2dVertex
 10
25.36710075938535
 20
11.61903084153626
 30
0.0
 42
-0.0012355515575567
  0
VERTEX
  5
183
330
178
100
AcDbEntity
  8
0
100
AcDbVertex
100
AcDb2dVertex
 10
25.33405387566204
 20
12.25843552633864
 30
0.0
 42
-0.0195778265971307
  0
VERTEX
  5
184
330
178
100
AcDbEntity
  8
0
100
AcDbVertex
100
AcDb2dVertex
 10
25.32618935513965
 20
13.0435946936
 30
0.0
 42
-0.0790087975948656
  0
VERTEX
  5
185
330
178
100
AcDbEntity
  8
0
100
AcDbVertex
100
AcDb2dVertex
 10
25.36630121442999
 20
13.2557942782872
 30
0.0
 42
-0.2230685931993589
  0
VERTEX
  5
186
330
178
100
AcDbEntity
  8
0
100
AcDbVertex
100
AcDb2dVertex
 10
25.54986735378563
 20
13.44007143017107
 30
0.0
 42
0.1514243915725038
  0
VERTEX
  5
187
330
178
100
AcDbEntity
  8
0
100
AcDbVertex
100
AcDb2dVertex
 10
25.7480791223989
 20
13.59042344195831
 30
0.0
 42
0.0084154427520943
  0
VERTEX
  5
188
330
178
100
AcDbEntity
  8
0
100
AcDbVertex
100
AcDb2dVertex
 10
26.20009691739684
 20
14.24486116259322
 30
0.0
 42
-0.0035690854634239
  0
VERTEX
  5
189
330
178
100
AcDbEntity
  8
0
100
AcDbVertex
100
AcDb2dVertex
 10
27.25443659438163
 20
15.80344010378316
 30
0.0
 42
-0.0022600936830835
  0
VERTEX
  5
18A
330
178
100
AcDbEntity
  8
0
100
AcDbVertex
100
AcDb2dVertex
 10
27.85597378274955
 20
16.67070294972118
 30
0.0
 42
-0.0024018306525934
  0
VERTEX
  5
18B
330
178
100
AcDbEntity
  8
0
100
AcDbVertex
100
AcDb2dVertex
 10
28.42964141263502
 20
17.48153607511573
 30
0.0
 42
-0.2068838122284107
  0
VERTEX
  5
18C
330
178
100
AcDbEntity
  8
0
100
AcDbVertex
100
AcDb2dVertex
 10
29.61493450510468
 20
18.19564448355582
 30
0.0
 42
-0.2177678617245121
  0
VERTEX
  5
18D
330
178
100
AcDbEntity
  8
0
100
AcDbVertex
100
AcDb2dVertex
 10
30.88338832335682
 20
17.81073725702502
 30
0.0
 42
-0.0490479462761149
  0
VERTEX
  5
18E
330
178
100
AcDbEntity
  8
0
100
AcDbVertex
100
AcDb2dVertex
 10
31.29295791875323
 20
17.37049759908413
 30
0.0
 42
-0.0779695089775292
  0
VERTEX
  5
18F
330
178
100
AcDbEntity
  8
0
100
AcDbVertex
100
AcDb2dVertex
 10
31.47962331724578
 20
17.02527399588734
 30
0.0
 42
-0.0451372916589505
  0
VERTEX
  5
190
330
178
100
AcDbEntity
  8
0
100
AcDbVertex
100
AcDb2dVertex
 10
31.61050303691681
 20
16.51237427333958
 30
0.0
 42
-0.067299223702331
  0
VERTEX
  5
191
330
178
100
AcDbEntity
  8
0
100
AcDbVertex
100
AcDb2dVertex
 10
31.6197381237192
 20
16.1464903417098
 30
0.0
 42
-0.0828339136166399
  0
VERTEX
  5
192
330
178
100
AcDbEntity
  8
0
100
AcDbVertex
100
AcDb2dVertex
 10
31.55978686071176
 20
15.93356207660506
 30
0.0
 42
-0.0533449078694019
  0
VERTEX
  5
193
330
178
100
AcDbEntity
  8
0
100
AcDbVertex
100
AcDb2dVertex
 10
31.39817043314782
 20
15.66777510267633
 30
0.0
 42
-0.0543039207141832
  0
SEQEND
  5
194
330
178
100
AcDbEntity
  8
0
  0
POLYLINE
  5
195
330
2
100
AcDbEntity
  8
0
100
AcDb2dPolyline
 66
     1
 10
0.0
 20
0.0
 30
0.0
  0
VERTEX
  5
196
330
195
100
AcDbEntity
  8
0
100
AcDbVertex
100
AcDb2dVertex
 10
31.59782857342906
 20
15.53015075790346
 30
0.0
 42
-0.0126313408439932
  0
VERTEX
  5
197
330
195
100
AcDbEntity
  8
0
100
AcDbVertex
100
AcDb2dVertex
 10
32.3501192022918
 20
17.16290572780245
 30
0.0
 42
-0.0199910048208844
  0
VERTEX
  5
198
330
195
100
AcDbEntity
  8
0
100
AcDbVertex
100
AcDb2dVertex
 10
32.89182942009971
 20
18.16162107443718
 30
0.0
 42
-0.0063314807418255
  0
VERTEX
  5
199
330
195
100
AcDbEntity
  8
0
100
AcDbVertex
100
AcDb2dVertex
 10
33.99225682687224
 20
19.9579369818001
 30
0.0
 42
-0.0124454299934577
  0
VERTEX
  5
19A
330
195
100
AcDbEntity
  8
0
100
AcDbVertex
100
AcDb2dVertex
 10
34.58607051161231
 20
20.85023379526939
 30
0.0
 42
-0.0618612185897802
  0
VERTEX
  5
19B
330
195
100
AcDbEntity
  8
0
100
AcDbVertex
100
AcDb2dVertex
 10
35.56653014634695
 20
21.93346064834837
 30
0.0
 42
-0.0937738624238892
  0
VERTEX
  5
19C
330
195
100
AcDbEntity
  8
0
100
AcDbVertex
100
AcDb2dVertex
 10
36.40488666616541
 20
22.41859363215523
 30
0.0
 42
-0.0949537826242413
  0
VERTEX
  5
19D
330
195
100
AcDbEntity
  8
0
100
AcDbVertex
100
AcDb2dVertex
 10
36.62062299635377
 20
22.45081256286365
 30
0.0
 42
-0.0409648491948239
  0
VERTEX
  5
19E
330
195
100
AcDbEntity
  8
0
100
AcDbVertex
100
AcDb2dVertex
 10
37.11191000867143
 20
22.3900899060151
 30
0.0
  0
SEQEND
  5
19F
330
195
100
AcDbEntity
  8
0
  0
POLYLINE
  5
1A0
330
2
100
AcDbEntity
  8
0
100
AcDb2dPolyline
 66
     1
 10
0.0
 20
0.0
 30
0.0
  0
VERTEX
  5
1A1
330
1A0
100
AcDbEntity
  8
0
100
AcDbVertex
100
AcDb2dVertex
 10
31.72214735444167
 20
15.42765129001929
 30
0.0
 42
-0.0129488501704755
  0
VERTEX
  5
1A2
330
1A0
100
AcDbEntity
  8
0
100
AcDbVertex
100
AcDb2dVertex
 10
32.48893129101794
 20
17.09464618513873
 30
0.0
 42
-0.0199910048208844
  0
VERTEX
  5
1A3
330
1A0
100
AcDbEntity
  8
0
100
AcDbVertex
100
AcDb2dVertex
 10
33.02474629646038
 20
18.08249291813559
 30
0.0
 42
-0.0063314807418256
  0
VERTEX
  5
1A4
330
1A0
100
AcDbEntity
  8
0
100
AcDbVertex
100
AcDb2dVertex
 10
34.12312732744937
 20
19.87546836219314
 30
0.0
 42
-0.0124454299934575
  0
VERTEX
  5
1A5
330
1A0
100
AcDbEntity
  8
0
100
AcDbVertex
100
AcDb2dVertex
 10
34.71267537692364
 20
20.76135539957806
 30
0.0
 42
-0.0618612185897826
  0
VERTEX
  5
1A6
330
1A0
100
AcDbEntity
  8
0
100
AcDbVertex
100
AcDb2dVertex
 10
35.66754694295328
 20
21.81631216161227
 30
0.0
 42
-0.0937738624238907
  0
VERTEX
  5
1A7
330
1A0
100
AcDbEntity
  8
0
100
AcDbVertex
100
AcDb2dVertex
 10
36.45612102017134
 20
22.27263746712345
 30
0.0
 42
-0.094953782624239
  0
VERTEX
  5
1A8
330
1A0
100
AcDbEntity
  8
0
100
AcDbVertex
100
AcDb2dVertex
 10
36.61426844506038
 20
22.2962558392343
 30
0.0
 42
-0.0227086535702853
  0
VERTEX
  5
1A9
330
1A0
100
AcDbEntity
  8
0
100
AcDbVertex
100
AcDb2dVertex
 10
36.8739836605261
 20
22.27373400071763
 30
0.0
 42
-0.0412505636532654
  0
SEQEND
  5
1AA
330
1A0
100
AcDbEntity
  8
0
  0
ARC
  5
1AB
330
2
100
AcDbEntity
  8
0
100
AcDbCircle
 10
36.00781133326562
 20
13.97909929052554
 30
0.0
 40
4.453202355785792
100
AcDbArc
 50
85.39501420909605
 51
161.7292178272466
  0
ARC
  5
1AC
330
2
100
AcDbEntity
  8
0
100
AcDbCircle
 10
36.00781133326562
 20
13.97909929052554
 30
0.0
 40
4.384452444157675
100
AcDbArc
 50
87.22203975862354
 51
162.1709090994183
  0
ELLIPSE
  5
1AD
330
2
100
AcDbEntity
  8
0
100
AcDbEllipse
 10
31.32966689772591
 20
16.75849711225684
 30
0.0
 11
-0.2556808497370635
 21
-0.0634372379316373
 31
0.0
210
0.0
220
0.0
230
0.9999999999999998
 40
0.5660109677204618
 41
2.583794123332249
 42
6.794339374965185
  0
ELLIPSE
  5
1AE
330
2
100
AcDbEntity
  8
0
100
AcDbEllipse
 10
31.32966689772591
 20
16.75849711225684
 30
0.0
 11
-0.2556808497370635
 21
-0.0634372379316373
 31
0.0
210
0.0
220
0.0
230
0.9999999999999998
 40
0.5660109677204618
 41
7.559267606818733
 42
8.479226141818768
  0
ELLIPSE
  5
1AF
330
2
100
AcDbEntity
  8
0
100
AcDbEllipse
 10
29.60102672336536
 20
17.98458467543178
 30
0.0
 11
-0.0419138301539695
 21
0.2280827910907109
 31
0.0
210
0.0
220
0.0
230
0.9999999999999998
 40
0.561133438027766
 41
5.79298932616165
 42
9.944559693964292
  0
ELLIPSE
  5
1B0
330
2
100
AcDbEntity
  8
0
100
AcDbEllipse
 10
29.60102672336536
 20
17.98458467543178
 30
0.0
 11
-0.0419138301539695
 21
0.2280827910907109
 31
0.0
210
0.0
220
0.0
230
0.9999999999999998
 40
0.561133438027766
 41
10.78786918776028
 42
11.60379770470409
  0
ELLIPSE
  5
1B1
330
2
100
AcDbEntity
  8
0
100
AcDbEllipse
 10
27.84704522133993
 20
16.36162268027374
 30
0.0
 11
-0.1830855487928872
 21
0.1120943974453134
 31
0.0
210
0.0
220
0.0
230
1.0
 40
0.6931773132916839
 41
5.583791809800896
 42
10.02719966741963
  0
ELLIPSE
  5
1B2
330
2
100
AcDbEntity
  8
0
100
AcDbEllipse
 10
27.84704522133993
 20
16.36162268027374
 30
0.0
 11
-0.1830855487928872
 21
0.1120943974453134
 31
0.0
210
0.0
220
0.0
230
1.0
 40
0.6931773132916839
 41
10.88255966674286
 42
11.44409926742288
  0
ELLIPSE
  5
1B3
330
2
100
AcDbEntity
  8
0
100
AcDbEllipse
 10
26.44725070208249
 20
14.30643065788346
 30
0.0
 11
-0.1605637892911309
 21
0.1441358665467579
 31
0.0
210
0.0
220
0.0
230
1.0
 40
0.8279377963067846
 41
5.75258166754291
 42
10.14123187143013
  0
ELLIPSE
  5
1B4
330
2
100
AcDbEntity
  8
0
100
AcDbEllipse
 10
26.44725070208249
 20
14.30643065788346
 30
0.0
 11
-0.1605637892911309
 21
0.1441358665467579
 31
0.0
210
0.0
220
0.0
230
1.0
 40
0.8279377963067846
 41
10.99655524060161
 42
11.6109456381251
  0
SPLINE
  5
1B5
330
2
100
AcDbEntity
  8
0
100
AcDbSpline
210
0.0
220
0.0
230
1.0
 70
     8
 71
     3
 72
    12
 73
     8
 74
     0
 42
0.000000001
 43
0.0000000001
 40
0.0
 40
0.0
 40
0.0
 40
0.0
 40
0.0561527116454317
 40
0.2973809050237443
 40
0.5349953206127607
 40
0.7911384943783137
 40
1.0
 40
1.0
 40
1.0
 40
1.0
 10
3.116176053436895
 20
6.083085835361499
 30
0.0
 10
3.119878747466846
 20
6.082168694517792
 30
0.0
 10
3.139487960795369
 20
6.077311579587096
 30
0.0
 10
3.176262066445288
 20
6.09017986029
 30
0.0
 10
3.217645611401771
 20
6.12000598339296
 30
0.0
 10
3.249480410636415
 20
6.163312392154405
 30
0.0
 10
3.263268601070222
 20
6.199058500969522
 30
0.0
 10
3.269461704799033
 20
6.215114223499212
 30
0.0
  0
SPLINE
  5
1B6
330
2
100
AcDbEntity
  8
0
100
AcDbSpline
210
0.0
220
0.0
230
1.0
 70
     8
 71
     3
 72
    14
 73
    10
 74
     0
 42
0.000000001
 43
0.0000000001
 40
0.0
 40
0.0
 40
0.0
 40
0.0
 40
0.0895666099134426
 40
0.2574446574809165
 40
0.4265404418782642
 40
0.5984839071749279
 40
0.7563954180467296
 40
0.9018621575732323
 40
1.0
 40
1.0
 40
1.0
 40
1.0
 10
3.269461704799033
 20
6.215114223499212
 30
0.0
 10
3.272924716979106
 20
6.227009629412744
 30
0.0
 10
3.282878582436624
 20
6.261201039626515
 30
0.0
 10
3.288868488698075
 20
6.322966724491562
 30
0.0
 10
3.28190034191864
 20
6.394478915750578
 30
0.0
 10
3.260627617905782
 20
6.45661963375322
 30
0.0
 10
3.227629698538586
 20
6.502229215150011
 30
0.0
 10
3.189779179440546
 20
6.530047745751911
 30
0.0
 10
3.16261868050491
 20
6.532394756570193
 30
0.0
 10
3.151676879889335
 20
6.53334026660949
 30
0.0
  0
LINE
  5
1B7
330
2
100
AcDbEntity
  8
0
100
AcDbLine
 10
3.006688750465901
 20
6.088220494754227
 30
0.0
 11
3.118948631126118
 21
6.080973701281601
 31
0.0
  0
LINE
  5
1B8
330
2
100
AcDbEntity
  8
0
100
AcDbLine
 10
3.153165885188047
 20
6.535410930188122
 30
0.0
 11
3.041085684965835
 21
6.545056380311661
 31
0.0
  0
LINE
  5
1B9
330
2
100
AcDbEntity
  8
0
100
AcDbLine
 10
2.842739220911314
 20
6.626738176595088
 30
0.0
 11
2.633939496236821
 21
6.640216000763802
 31
0.0
  0
SPLINE
  5
1BA
330
2
100
AcDbEntity
  8
0
100
AcDbSpline
210
0.0
220
0.0
230
1.0
 70
     8
 71
     3
 72
    12
 73
     8
 74
     0
 42
0.000000001
 43
0.0000000001
 40
0.0
 40
0.0
 40
0.0
 40
0.0
 40
0.0561526623884076
 40
0.2973808932933741
 40
0.5349958086800302
 40
0.7911384618867823
 40
1.0
 40
1.0
 40
1.0
 40
1.0
 10
3.38757548709168
 20
6.907095399129776
 30
0.0
 10
3.391278181290419
 20
6.906178231480971
 30
0.0
 10
3.410887411940905
 20
6.901320970523038
 30
0.0
 10
3.447661560699898
 20
6.914189365604817
 30
0.0
 10
3.489044937601137
 20
6.944015609868728
 30
0.0
 10
3.520879889710831
 20
6.987321904696202
 30
0.0
 10
3.534668043652238
 20
7.023067984511506
 30
0.0
 10
3.540861138453732
 20
7.03912371336537
 30
0.0
  0
SPLINE
  5
1BB
330
2
100
AcDbEntity
  8
0
100
AcDbSpline
210
0.0
220
0.0
230
1.0
 70
     8
 71
     3
 72
    14
 73
    10
 74
     0
 42
0.000000001
 43
0.0000000001
 40
0.0
 40
0.0
 40
0.0
 40
0.0
 40
0.0895670159676381
 40
0.2574451310446296
 40
0.4265406876876749
 40
0.5984844361673513
 40
0.7563960547221375
 40
0.9018622010086328
 40
1.0
 40
1.0
 40
1.0
 40
1.0
 10
3.540861138453732
 20
7.03912371336537
 30
0.0
 10
3.544324148142529
 20
7.051019166724302
 30
0.0
 10
3.554277979622946
 20
7.085210621198228
 30
0.0
 10
3.560267980914111
 20
7.146976348653566
 30
0.0
 10
3.553299579798513
 20
7.218488390479144
 30
0.0
 10
3.532027674907769
 20
7.280629454383669
 30
0.0
 10
3.499027194137073
 20
7.326238220439933
 30
0.0
 10
3.461178837197249
 20
7.354057268770995
 30
0.0
 10
3.434018195447756
 20
7.356404359853057
 30
0.0
 10
3.423076313544108
 20
7.357349904279935
 30
0.0
  0
LINE
  5
1BC
330
2
100
AcDbEntity
  8
0
100
AcDbLine
 10
3.278087001679116
 20
6.912229643279408
 30
0.0
 11
3.390348064784225
 21
6.90498333895157
 31
0.0
  0
LINE
  5
1BD
330
2
100
AcDbEntity
  8
0
100
AcDbLine
 10
3.424565318846239
 20
7.35942042005362
 30
0.0
 11
3.312485118624089
 21
7.369065870177129
 31
0.0
  0
LINE
  5
1BE
330
2
100
AcDbEntity
  8
0
100
AcDbLine
 10
3.114138654569494
 20
7.45074766646055
 30
0.0
 11
2.905338929885792
 21
7.464225490629301
 31
0.0
  0
LINE
  5
1BF
330
2
100
AcDbEntity
  8
0
100
AcDbLine
 10
3.334839484245518
 20
7.737339653841534
 30
0.0
 11
3.245555913201943
 21
7.742798824294517
 31
0.0
  0
LINE
  5
1C0
330
2
100
AcDbEntity
  8
0
100
AcDbLine
 10
3.315583386744302
 20
4.351751937364725
 30
0.0
 11
3.354098821826885
 21
4.468691593165851
 31
0.0
  0
LINE
  5
1C1
330
2
100
AcDbEntity
  8
0
100
AcDbLine
 10
4.366409181669826
 20
3.719832895963262
 30
0.0
 11
4.396725616750065
 21
3.811877622723944
 31
0.0
  0
LINE
  5
1C2
330
2
100
AcDbEntity
  8
0
100
AcDbLine
 10
4.302343695857999
 20
3.221672313797369
 30
0.0
 11
4.581764490570911
 21
3.197625852856122
 31
0.0
  0
LINE
  5
1C3
330
2
100
AcDbEntity
  8
0
100
AcDbLine
 10
4.934367111658822
 20
2.900506358508182
 30
0.0
 11
5.024042704602383
 21
2.8924906152698
 31
0.0
  0
SPLINE
  5
1C4
330
2
100
AcDbEntity
  8
0
100
AcDbSpline
210
0.0
220
0.0
230
1.0
 70
     8
 71
     3
 72
     9
 73
     5
 74
     0
 42
0.000000001
 43
0.0000000001
 40
0.0
 40
0.0
 40
0.0
 40
0.0
 40
0.6184372295390216
 40
1.0
 40
1.0
 40
1.0
 40
1.0
 10
4.491396865074477
 20
7.175236898916674
 30
0.0
 10
4.477981324664837
 20
7.185246651201117
 30
0.0
 10
4.456288677830382
 20
7.201432210230056
 30
0.0
 10
4.429453603514962
 20
7.203387186880091
 30
0.0
 10
4.419214338213629
 20
7.204133133186855
 30
0.0
  0
LINE
  5
1C5
330
2
100
AcDbEntity
  8
0
100
AcDbLine
 10
4.419737129919177
 20
7.206169638846306
 30
0.0
 11
3.550922059795131
 21
7.283830856686828
 31
0.0
  0
LINE
  5
1C6
330
2
100
AcDbEntity
  8
0
100
AcDbLine
 10
5.195450026518328
 20
6.565508975496053
 30
0.0
 11
4.491396865070631
 21
7.175236898918194
 31
0.0
  0
SPLINE
  5
1C7
330
2
100
AcDbEntity
  8
0
100
AcDbSpline
210
0.0
220
0.0
230
1.0
 70
     8
 71
     3
 72
     9
 73
     5
 74
     0
 42
0.000000001
 43
0.0000000001
 40
0.0
 40
0.0
 40
0.0
 40
0.0
 40
0.4962257895678297
 40
1.0
 40
1.0
 40
1.0
 40
1.0
 10
4.070989311382939
 20
4.286772315015613
 30
0.0
 10
4.076897895745727
 20
4.291748712612889
 30
0.0
 10
4.088804943881934
 20
4.301777207104485
 30
0.0
 10
4.097336433258247
 20
4.313452086086629
 30
0.0
 10
4.101634377582541
 20
4.319333589027743
 30
0.0
  0
SPLINE
  5
1C8
330
2
100
AcDbEntity
  8
0
100
AcDbSpline
210
0.0
220
0.0
230
1.0
 70
     8
 71
     3
 72
    10
 73
     6
 74
     0
 42
0.000000001
 43
0.0000000001
 40
0.0
 40
0.0
 40
0.0
 40
0.0
 40
0.4246994035048667
 40
0.9248441483348596
 40
1.0
 40
1.0
 40
1.0
 40
1.0
 10
4.021298492254413
 20
4.261511490694172
 30
0.0
 10
4.028515323233916
 20
4.263546881449384
 30
0.0
 10
4.044231012603431
 20
4.267979238109157
 30
0.0
 10
4.061411394172617
 20
4.277912590814989
 30
0.0
 10
4.069882647705188
 20
4.285748633691989
 30
0.0
 10
4.070989311382939
 20
4.28677231501565
 30
0.0
  0
LINE
  5
1C9
330
2
100
AcDbEntity
  8
0
100
AcDbLine
 10
4.101634377582895
 20
4.319333589024189
 30
0.0
 11
4.124577334663209
 21
4.349908480096636
 31
0.0
  0
LINE
  5
1CA
330
2
100
AcDbEntity
  8
0
100
AcDbLine
 10
4.005440230927897
 20
4.258600455620539
 30
0.0
 11
4.021298492250138
 21
4.261511490696425
 31
0.0
  0
SPLINE
  5
1CB
330
2
100
AcDbEntity
  8
0
100
AcDbSpline
210
0.0
220
0.0
230
1.0
 70
     8
 71
     2
 72
     6
 73
     3
 74
     0
 42
0.000000001
 43
0.0000000001
 40
0.0
 40
0.0
 40
0.0
 40
1.0
 40
1.0
 40
1.0
 10
4.00310368243597
 20
4.258087296875561
 30
0.0
 10
4.004281426734044
 20
4.258347599773022
 30
0.0
 10
4.005440230929204
 20
4.258600455620612
 30
0.0
  0
SPLINE
  5
1CC
330
2
100
AcDbEntity
  8
0
100
AcDbSpline
210
0.0
220
0.0
230
1.0
 70
     8
 71
     3
 72
    12
 73
     8
 74
     0
 42
0.000000001
 43
0.0000000001
 40
0.0
 40
0.0
 40
0.0
 40
0.0
 40
0.067366168286369
 40
0.3069842954474938
 40
0.5348031355017388
 40
0.7837831707209901
 40
1.0
 40
1.0
 40
1.0
 40
1.0
 10
5.100516959792859
 20
3.332271851476617
 30
0.0
 10
5.104898814616511
 20
3.331473995033221
 30
0.0
 10
5.124866710223541
 20
3.32783820270039
 30
0.0
 10
5.160142958693586
 20
3.339632319043547
 30
0.0
 10
5.199089241038263
 20
3.365481169158341
 30
0.0
 10
5.227947592734342
 20
3.401823949561898
 30
0.0
 10
5.239575689775477
 20
3.431278246503937
 30
0.0
 10
5.244980262472831
 20
3.444968181194978
 30
0.0
  0
LINE
  5
1CD
330
2
100
AcDbEntity
  8
0
100
AcDbLine
 10
4.641157487724972
 20
3.35851526015171
 30
0.0
 11
5.100099672123596
 21
3.330454899329033
 31
0.0
  0
LINE
  5
1CE
330
2
100
AcDbEntity
  8
0
100
AcDbLine
 10
5.489717123220199
 20
3.870664292075322
 30
0.0
 11
5.614392722800388
 21
3.97233286255789
 31
0.0
  0
SPLINE
  5
1CF
330
2
100
AcDbEntity
  8
0
100
AcDbSpline
210
0.0
220
0.0
230
1.0
 70
     8
 71
     3
 72
    11
 73
     7
 74
     0
 42
0.000000001
 43
0.0000000001
 40
0.0
 40
0.0
 40
0.0
 40
0.0
 40
0.1430693510064041
 40
0.4273942590745158
 40
0.7122227007896443
 40
1.0
 40
1.0
 40
1.0
 40
1.0
 10
5.291838954543957
 20
3.587236839100987
 30
0.0
 10
5.297218822654508
 20
3.602235659282997
 30
0.0
 10
5.313290222495767
 20
3.647041968905387
 30
0.0
 10
5.352933405967691
 20
3.720390854191447
 30
0.0
 10
5.414030809764
 20
3.80282960076424
 30
0.0
 10
5.464401883545799
 20
3.847975229938601
 30
0.0
 10
5.489717123221506
 20
3.870664292074016
 30
0.0
  0
LINE
  5
1D0
330
2
100
AcDbEntity
  8
0
100
AcDbLine
 10
5.244980262471671
 20
3.444968181194868
 30
0.0
 11
5.291838954545043
 21
3.58723683910335
 31
0.0
  0
LINE
  5
1D1
330
2
100
AcDbEntity
  8
0
100
AcDbLine
 10
5.419131334837564
 20
7.230868834403423
 30
0.0
 11
4.88447471066766
 21
5.607570064075563
 31
0.0
  0
LINE
  5
1D2
330
2
100
AcDbEntity
  8
0
100
AcDbLine
 10
5.389335998445019
 20
7.79989193123076
 30
0.0
 11
5.060887922250187
 21
7.923463457061775
 31
0.0
  0
LINE
  5
1D3
330
2
100
AcDbEntity
  8
0
100
AcDbLine
 10
5.755204967524961
 20
7.671496769999468
 30
0.0
 11
5.664853792642175
 21
7.749743182708348
 31
0.0
  0
LINE
  5
1D4
330
2
100
AcDbEntity
  8
0
100
AcDbLine
 10
5.640850655859216
 20
7.759387714732467
 30
0.0
 11
5.523663131689867
 21
7.768210919989167
 31
0.0
  0
LINE
  5
1D5
330
2
100
AcDbEntity
  8
0
100
AcDbLine
 10
4.426594965005509
 20
7.975199828994494
 30
0.0
 11
4.414381600285903
 21
7.938119307046415
 31
0.0
  0
LINE
  5
1D6
330
2
100
AcDbEntity
  8
0
100
AcDbLine
 10
4.421673157184782
 20
7.920015655629434
 30
0.0
 11
4.224304757673724
 21
7.934876446653966
 31
0.0
  0
LINE
  5
1D7
330
2
100
AcDbEntity
  8
0
100
AcDbLine
 10
4.060328714079149
 20
8.019675612983796
 30
0.0
 11
3.56204968363388
 21
8.057193676020972
 31
0.0
  0
LINE
  5
1D8
330
2
100
AcDbEntity
  8
0
100
AcDbLine
 10
4.224335952967758
 20
7.934849978931785
 30
0.0
 11
4.175703403901161
 21
7.976201518629126
 31
0.0
  0
LINE
  5
1D9
330
2
100
AcDbEntity
  8
0
100
AcDbLine
 10
1.458540419420733
 20
4.257887819297243
 30
0.0
 11
1.458540419420733
 21
4.2221794972932
 31
0.0
  0
LINE
  5
1DA
330
2
100
AcDbEntity
  8
0
100
AcDbLine
 10
3.107984057561683
 20
7.783857145812852
 30
0.0
 11
2.871421363845131
 21
7.645315108899618
 31
0.0
  0
LINE
  5
1DB
330
2
100
AcDbEntity
  8
0
100
AcDbLine
 10
7.912765188582312
 20
7.576024485018457
 30
0.0
 11
8.099181880869082
 21
7.561988490341219
 31
0.0
  0
LINE
  5
1DC
330
2
100
AcDbEntity
  8
0
100
AcDbLine
 10
8.12410986178936
 20
8.372955926845168
 30
0.0
 11
7.979751198396709
 21
8.497974196601251
 31
0.0
  0
LINE
  5
1DD
330
2
100
AcDbEntity
  8
0
100
AcDbLine
 10
7.340008770213359
 20
6.292177587382351
 30
0.0
 11
7.402543218915194
 21
6.320774997828186
 31
0.0
  0
SPLINE
  5
1DE
330
2
100
AcDbEntity
  8
0
100
AcDbSpline
210
0.0
220
0.0
230
1.0
 70
     8
 71
     3
 72
    10
 73
     6
 74
     0
 42
0.000000001
 43
0.0000000001
 40
0.0
 40
0.0
 40
0.0
 40
0.0
 40
0.223414656091903
 40
0.6496074072459033
 40
1.0
 40
1.0
 40
1.0
 40
1.0
 10
7.433866792297238
 20
6.369739940487928
 30
0.0
 10
7.438398733601626
 20
6.379467261671011
 30
0.0
 10
7.451575947183179
 20
6.407750723480278
 30
0.0
 10
7.486487294701046
 20
6.440319811764842
 30
0.0
 10
7.510886455871159
 20
6.454247244063575
 30
0.0
 10
7.521895272108134
 20
6.460531252835849
 30
0.0
  0
LINE
  5
1DF
330
2
100
AcDbEntity
  8
0
100
AcDbLine
 10
7.424390127613268
 20
6.351494246633706
 30
0.0
 11
7.433866792296726
 21
6.369739940491738
 31
0.0
  0
LINE
  5
1E0
330
2
100
AcDbEntity
  8
0
100
AcDbLine
 10
6.493100222436074
 20
8.665456781873423
 30
0.0
 11
6.454863841862118
 21
8.549366689451096
 31
0.0
  0
LINE
  5
1E1
330
2
100
AcDbEntity
  8
0
100
AcDbLine
 10
7.555273058273831
 20
5.902675930626775
 30
0.0
 11
7.578179950995799
 21
5.882837979604155
 31
0.0
  0
SPLINE
  5
1E2
330
2
100
AcDbEntity
  8
0
100
AcDbSpline
210
0.0
220
0.0
230
1.0
 70
     8
 71
     3
 72
    12
 73
     8
 74
     0
 42
0.000000001
 43
0.0000000001
 40
0.0
 40
0.0
 40
0.0
 40
0.0
 40
0.0606925764686208
 40
0.3204610155387727
 40
0.5571976569296279
 40
0.7857352886232667
 40
1.0
 40
1.0
 40
1.0
 40
1.0
 10
11.34794958117483
 20
8.90568897201
 30
0.0
 10
11.34428855436153
 20
8.900896370275473
 30
0.0
 10
11.32495807872889
 20
8.87559110053279
 30
0.0
 10
11.30813058090919
 20
8.822274546489191
 30
0.0
 10
11.30155900902984
 20
8.753984797494648
 30
0.0
 10
11.31427231127959
 20
8.690706409608605
 30
0.0
 10
11.33751048154919
 20
8.65727527946948
 30
0.0
 10
11.34875504681331
 20
8.641098509941587
 30
0.0
  0
SPLINE
  5
1E3
330
2
100
AcDbEntity
  8
0
100
AcDbSpline
210
0.0
220
0.0
230
1.0
 70
     8
 71
     3
 72
    13
 73
     9
 74
     0
 42
0.000000001
 43
0.0000000001
 40
0.0
 40
0.0
 40
0.0
 40
0.0
 40
0.1303754809643037
 40
0.303283450701318
 40
0.4791018037484784
 40
0.6622248062783119
 40
0.8520685611530565
 40
1.0
 40
1.0
 40
1.0
 40
1.0
 10
11.66952878698057
 20
9.006002401195768
 30
0.0
 10
11.65614795233074
 20
9.014222771485977
 30
0.0
 10
11.6250210435297
 20
9.03334524949502
 30
0.0
 10
11.56593861154893
 20
9.040273908871954
 30
0.0
 10
11.50067026113997
 20
9.030659775892281
 30
0.0
 10
11.43707891680271
 20
9.001012330263138
 30
0.0
 10
11.38285142984038
 20
8.958568420835314
 30
0.0
 10
11.35857962067876
 20
8.921794440672801
 30
0.0
 10
11.34794958117483
 20
8.90568897201
 30
0.0
  0
LINE
  5
1E4
330
2
100
AcDbEntity
  8
0
100
AcDbLine
 10
11.72557125471105
 20
8.970314511313436
 30
0.0
 11
11.66952878698057
 21
9.006002401195768
 31
0.0
  0
LINE
  5
1E5
330
2
100
AcDbEntity
  8
0
100
AcDbLine
 10
11.35188735466551
 20
8.636907323979936
 30
0.0
 11
11.37357120677421
 21
8.612428447285914
 31
0.0
  0
SPLINE
  5
1E6
330
2
100
AcDbEntity
  8
0
100
AcDbSpline
210
0.0
220
0.0
230
1.0
 70
     8
 71
     3
 72
    12
 73
     8
 74
     0
 42
0.000000001
 43
0.0000000001
 40
0.0
 40
0.0
 40
0.0
 40
0.0
 40
0.0606937166279216
 40
0.3204616990037354
 40
0.5571981577917608
 40
0.7857356728127672
 40
1.0
 40
1.0
 40
1.0
 40
1.0
 10
22.37785386089209
 20
12.08974807452528
 30
0.0
 10
22.37419267232193
 20
12.08495543821746
 30
0.0
 10
22.35486166452167
 20
12.05965040733057
 30
0.0
 10
22.33803473215726
 20
12.00633346765859
 30
0.0
 10
22.33146289291941
 20
11.93804379961015
 30
0.0
 10
22.34417652186132
 20
11.87476553448703
 30
0.0
 10
22.36741454452507
 20
11.84133432455313
 30
0.0
 10
22.37865903092192
 20
11.82515752712199
 30
0.0
  0
SPLINE
  5
1E7
330
2
100
AcDbEntity
  8
0
100
AcDbSpline
210
0.0
220
0.0
230
1.0
 70
     8
 71
     3
 72
    13
 73
     9
 74
     0
 42
0.000000001
 43
0.0000000001
 40
0.0
 40
0.0
 40
0.0
 40
0.0
 40
0.1303755812226645
 40
0.3032836839253981
 40
0.4791021721763542
 40
0.6622244685674682
 40
0.8520687492924226
 40
1.0
 40
1.0
 40
1.0
 40
1.0
 10
22.69943277108918
 20
12.19006141837617
 30
0.0
 10
22.68605193631556
 20
12.19828178911982
 30
0.0
 10
22.6549250272264
 20
12.21740426818356
 30
0.0
 10
22.59584259796667
 20
12.22433291759909
 30
0.0
 10
22.53057434029501
 20
12.21471884093684
 30
0.0
 10
22.46698308534761
 20
12.18507130554912
 30
0.0
 10
22.41275558393663
 20
12.14262758020164
 30
0.0
 10
22.38848384534293
 20
12.10585353506059
 30
0.0
 10
22.37785386089209
 20
12.08974807452528
 30
0.0
  0
LINE
  5
1E8
330
2
100
AcDbEntity
  8
0
100
AcDbLine
 10
22.38179148658064
 20
11.82096638382474
 30
0.0
 11
22.40347519088485
 21
11.79648746445972
 31
0.0
  0
LINE
  5
1E9
330
2
100
AcDbEntity
  8
0
100
AcDbLine
 10
22.40347519088485
 20
11.79648746445972
 30
0.0
 11
22.45763080873973
 21
11.74564852237403
 31
0.0
  0
LINE
  5
1EA
330
2
100
AcDbEntity
  8
0
100
AcDbLine
 10
22.78754463356884
 20
12.12660027662397
 30
0.0
 11
22.73488994307889
 21
12.16920673315405
 31
0.0
  0
LINE
  5
1EB
330
2
100
AcDbEntity
  8
0
100
AcDbLine
 10
11.37357120677421
 20
8.612428447285914
 30
0.0
 11
11.42772697243347
 21
8.561589547862
 31
0.0
  0
LINE
  5
1EC
330
2
100
AcDbEntity
  8
0
100
AcDbLine
 10
11.75764094506712
 20
8.942541344773747
 30
0.0
 11
11.72557125471105
 21
8.970314511313436
 31
0.0
  0
LINE
  5
1ED
330
2
100
AcDbEntity
  8
0
100
AcDbLine
 10
25.54546856389412
 20
12.69010219693473
 30
0.0
 11
25.50579256946996
 21
12.67864872390548
 31
0.0
  0
LINE
  5
1EE
330
2
100
AcDbEntity
  8
0
100
AcDbLine
 10
28.09064048526529
 20
13.09297200441301
 30
0.0
 11
28.06197759878143
 21
13.11779479225374
 31
0.0
  0
LINE
  5
1EF
330
2
100
AcDbEntity
  8
0
100
AcDbLine
 10
28.06197759878143
 20
13.11779479225374
 30
0.0
 11
26.67231633314447
 21
14.32127675094712
 31
0.0
  0
LINE
  5
1F0
330
2
100
AcDbEntity
  8
0
100
AcDbLine
 10
26.55480853032928
 20
14.42304149332767
 30
0.0
 11
26.45789461808627
 21
14.50697140331001
 31
0.0
  0
LINE
  5
1F1
330
2
100
AcDbEntity
  8
0
100
AcDbLine
 10
26.40552682821685
 20
14.55232323967686
 30
0.0
 11
25.51538350882327
 21
15.32320996727848
 31
0.0
  0
LINE
  5
1F2
330
2
100
AcDbEntity
  8
0
100
AcDbLine
 10
25.4330092129023
 20
15.32114113544796
 30
0.0
 11
8.134311116303557
 21
10.3274371340965
 31
0.0
  0
LINE
  5
1F3
330
2
100
AcDbEntity
  8
0
100
AcDbLine
 10
25.52799361179033
 20
11.39214328523444
 30
0.0
 11
27.95612494495163
 21
9.289319866992512
 31
0.0
  0
LINE
  5
1F4
330
2
100
AcDbEntity
  8
0
100
AcDbLine
 10
28.70868551102918
 20
9.540283913669886
 30
0.0
 11
28.70868551102918
 21
9.579959829569187
 31
0.0
  0
LINE
  5
1F5
330
2
100
AcDbEntity
  8
0
100
AcDbLine
 10
10.69830978316614
 20
5.02822022088532
 30
0.0
 11
27.33189149673606
 21
9.82992166084875
 31
0.0
  0
LINE
  5
1F6
330
2
100
AcDbEntity
  8
0
100
AcDbLine
 10
5.062157746645029
 20
5.615751142387973
 30
0.0
 11
5.109436694166131
 21
5.574806372782109
 31
0.0
  0
LINE
  5
1F7
330
2
100
AcDbEntity
  8
0
100
AcDbLine
 10
5.578553668646203
 20
7.34979200591963
 30
0.0
 11
5.564982869256847
 21
7.30859141072945
 31
0.0
  0
LINE
  5
1F8
330
2
100
AcDbEntity
  8
0
100
AcDbLine
 10
8.943045787007536
 20
5.007412821337103
 30
0.0
 11
8.197382565186348
 21
5.063557676262513
 31
0.0
  0
LINE
  5
1F9
330
2
100
AcDbEntity
  8
0
100
AcDbLine
 10
8.992771550905185
 20
4.905144501180351
 30
0.0
 11
9.006341167849566
 21
4.946344902825567
 31
0.0
  0
ARC
  5
1FA
330
2
100
AcDbEntity
  8
0
100
AcDbCircle
 10
5.709232007358814
 20
7.792832861275883
 30
0.0
 40
0.0225073309909501
100
AcDbArc
 50
99.61106931520337
 51
162.1753033699015
  0
LINE
  5
1FB
330
2
100
AcDbEntity
  8
0
100
AcDbLine
 10
5.861819221735599
 20
7.832589328499803
 30
0.0
 11
5.821330303674393
 21
7.828040723415616
 31
0.0
  0
LINE
  5
1FC
330
2
100
AcDbEntity
  8
0
100
AcDbLine
 10
5.817354959284614
 20
7.82759402832632
 30
0.0
 11
5.705474200622968
 21
7.815024274855069
 31
0.0
  0
LINE
  5
1FD
330
2
100
AcDbEntity
  8
0
100
AcDbLine
 10
5.687805083672843
 20
7.799722483130754
 30
0.0
 11
5.669903027147519
 21
7.745370359665177
 31
0.0
  0
LINE
  5
1FE
330
2
100
AcDbEntity
  8
0
100
AcDbLine
 10
4.226594683316958
 20
3.255650995651581
 30
0.0
 11
3.503019132007995
 21
3.882285804640962
 31
0.0
  0
LINE
  5
1FF
330
2
100
AcDbEntity
  8
0
100
AcDbLine
 10
4.011171461899943
 20
3.861601842366692
 30
0.0
 11
3.503019132007995
 21
3.882285804640962
 31
0.0
  0
ELLIPSE
  5
200
330
2
100
AcDbEntity
  8
0
100
AcDbEllipse
 10
3.995535592194523
 20
3.873624771382536
 30
0.0
 11
0.026045966637943
 21
-0.0087891474750163
 31
0.0
210
0.0
220
0.0
230
0.9999999999999998
 40
0.3166888303999999
 41
5.458480189693617
 42
6.942010053889517
  0
LINE
  5
201
330
2
100
AcDbEntity
  8
0
100
AcDbLine
 10
3.76813962972504
 20
4.087966294821471
 30
0.0
 11
4.017834049156792
 21
3.871724584407814
 31
0.0
  0
ELLIPSE
  5
202
330
2
100
AcDbEntity
  8
0
100
AcDbEllipse
 10
3.745841164003167
 20
4.089866489382942
 30
0.0
 11
0.0260459666379326
 21
-0.0087891474750163
 31
0.0
210
0.0
220
0.0
230
1.0
 40
0.3166888303999999
 41
0.6588247467100106
 42
2.142354610904445
  0
LINE
  5
203
330
2
100
AcDbEntity
  8
0
100
AcDbLine
 10
3.168013509995526
 20
4.172409183708972
 30
0.0
 11
3.734093355455861
 21
4.10155852137975
 31
0.0
  0
LINE
  5
204
330
2
100
AcDbEntity
  8
0
100
AcDbLine
 10
3.168013509995526
 20
4.172409183708972
 30
0.0
 11
2.444437932022965
 21
4.799044015797672
 31
0.0
  0
LINE
  5
205
330
2
100
AcDbEntity
  8
0
100
AcDbLine
 10
2.484447625502238
 20
5.083601998192007
 30
0.0
 11
3.30307231790949
 21
4.374652218395007
 31
0.0
  0
ELLIPSE
  5
206
330
2
100
AcDbEntity
  8
0
100
AcDbEllipse
 10
3.228742263764941
 20
4.380985652443477
 30
0.0
 11
0.0868198887931242
 21
-0.0292971582500527
 31
0.0
210
0.0
220
0.0
230
1.0
 40
0.3166888303999999
 41
5.458480189693979
 42
6.942010053889137
  0
LINE
  5
207
330
2
100
AcDbEntity
  8
0
100
AcDbLine
 10
3.166185070756602
 20
4.345576627537021
 30
0.0
 11
3.280860153537997
 21
4.340908739363553
 31
0.0
  0
ELLIPSE
  5
208
330
2
100
AcDbEntity
  8
0
100
AcDbEllipse
 10
3.192243525600436
 20
4.325538030893898
 30
0.0
 11
0.0434099443965595
 21
-0.0146485791250341
 31
0.0
210
0.0
220
0.0
230
1.0
 40
0.3166888304
 41
2.316887536104295
 42
3.800417400299778
  0
LINE
  5
209
330
2
100
AcDbEntity
  8
0
100
AcDbLine
 10
3.158911596188614
 20
4.325385069778342
 30
0.0
 11
3.155078397348404
 21
4.328704717342004
 31
0.0
  0
ELLIPSE
  5
20A
330
2
100
AcDbEntity
  8
0
100
AcDbEllipse
 10
3.196076712400832
 20
4.322218393748307
 30
0.0
 11
0.0434099443965595
 21
-0.0146485791250341
 31
0.0
210
0.0
220
0.0
230
1.0
 40
0.3166888304
 41
3.800417400299803
 42
5.283947264494716
  0
LINE
  5
20B
330
2
100
AcDbEntity
  8
0
100
AcDbLine
 10
3.215657737282157
 20
4.302732041525427
 30
0.0
 11
3.663583237386419
 21
4.246669236503168
 31
0.0
  0
ELLIPSE
  5
20C
330
2
100
AcDbEntity
  8
0
100
AcDbEllipse
 10
3.741905892173943
 20
4.168723463291194
 30
0.0
 11
0.1736397775862482
 21
-0.0585943165001209
 31
0.0
210
0.0
220
0.0
230
0.9999999999999998
 40
0.3166888304
 41
0.6588247467096388
 42
2.14235461090486
  0
LINE
  5
20D
330
2
100
AcDbEntity
  8
0
100
AcDbLine
 10
3.890565415567494
 20
4.15605645931055
 30
0.0
 11
4.341387033334764
 21
3.765633485741172
 31
0.0
  0
ELLIPSE
  5
20E
330
2
100
AcDbEntity
  8
0
100
AcDbEllipse
 10
4.192727513917839
 20
3.778300486285792
 30
0.0
 11
0.1736397775862483
 21
-0.0585943165001157
 31
0.0
210
0.0
220
0.0
230
1.0
 40
0.3166888304
 41
5.458480189694113
 42
6.942010053889237
  0
LINE
  5
20F
330
2
100
AcDbEntity
  8
0
100
AcDbLine
 10
4.296962693917203
 20
3.698146536914305
 30
0.0
 11
3.894873955674585
 21
3.714513541739691
 31
0.0
  0
ELLIPSE
  5
210
330
2
100
AcDbEntity
  8
0
100
AcDbEllipse
 10
3.920932405662143
 20
3.69447494930227
 30
0.0
 11
0.0434099443965647
 21
-0.0146485791250341
 31
0.0
210
0.0
220
0.0
230
0.9999999999999998
 40
0.3166888304
 41
2.316887536104025
 42
3.800417400300071
  0
LINE
  5
211
330
2
100
AcDbEntity
  8
0
100
AcDbLine
 10
3.887600459766449
 20
3.694322002453093
 30
0.0
 11
3.883767282266313
 21
3.697641631553821
 31
0.0
  0
ELLIPSE
  5
212
330
2
100
AcDbEntity
  8
0
100
AcDbEllipse
 10
3.924765592462465
 20
3.691155312156672
 30
0.0
 11
0.0434099443965595
 21
-0.0146485791250341
 31
0.0
210
0.0
220
0.0
230
1.0
 40
0.3166888304
 41
3.800417400300069
 42
5.283947264494716
  0
LINE
  5
213
330
2
100
AcDbEntity
  8
0
100
AcDbLine
 10
4.07209423613797
 20
3.655679923488005
 30
0.0
 11
3.944346600869274
 21
3.671668974209362
 31
0.0
  0
ELLIPSE
  5
214
330
2
100
AcDbEntity
  8
0
100
AcDbEllipse
 10
4.111255296487678
 20
3.616706946935825
 30
0.0
 11
0.0868198887931242
 21
-0.0292971582500579
 31
0.0
210
0.0
220
0.0
230
1.0
 40
0.3166888304
 41
0.6588247467096168
 42
2.142354610904783
  0
LINE
  5
215
330
2
100
AcDbEntity
  8
0
100
AcDbLine
 10
4.185585335889373
 20
3.610373525651079
 30
0.0
 11
5.004210070967578
 21
2.901423708909807
 31
0.0
  0
LINE
  5
216
330
2
100
AcDbEntity
  8
0
100
AcDbLine
 10
4.581764490570911
 20
3.197625852856122
 30
0.0
 11
4.914534478033237
 21
2.909439452148225
 31
0.0
  0
ELLIPSE
  5
217
330
2
100
AcDbEntity
  8
0
100
AcDbEllipse
 10
3.328392435090159
 20
7.645935228491282
 30
0.0
 11
0.0068759265429192
 21
0.0913752766649241
 31
0.0
210
0.0
220
0.0
230
0.9999999999999998
 40
0.5778770211000002
 41
5.877920137287945
 42
7.448640311660927
  0
LINE
  5
218
330
2
100
AcDbEntity
  8
0
100
AcDbLine
 10
3.905395405553262
 20
7.252145424761748
 30
0.0
 11
3.355530479652682
 21
7.728342419242361
 31
0.0
  0
LINE
  5
219
330
2
100
AcDbEntity
  8
0
100
AcDbLine
 10
2.83696910995773
 20
5.185830247547442
 30
0.0
 11
3.13210946110545
 21
6.081920331969606
 31
0.0
  0
LINE
  5
21A
330
2
100
AcDbEntity
  8
0
100
AcDbLine
 10
3.255995476036498
 20
6.458058557022688
 30
0.0
 11
3.403508894763557
 21
6.905929969639544
 31
0.0
  0
ARC
  5
21B
330
2
100
AcDbEntity
  8
0
100
AcDbCircle
 10
3.137348076012052
 20
5.067184659953575
 30
0.0
 40
0.3229617604327099
100
AcDbArc
 50
158.4466572452005
 51
209.5566189156511
  0
ELLIPSE
  5
21C
330
2
100
AcDbEntity
  8
0
100
AcDbEllipse
 10
2.511591482223207
 20
5.166002929275448
 30
0.0
 11
0.0068838684510498
 21
0.0913696079286953
 31
0.0
210
0.0
220
0.0
230
0.9999999999999998
 40
0.5779408021
 41
1.165636268090271
 42
2.736356442463288
  0
LINE
  5
21D
330
2
100
AcDbEntity
  8
0
100
AcDbLine
 10
3.282579145653824
 20
7.685619014504904
 30
0.0
 11
2.465773576881677
 21
5.205674020450237
 31
0.0
  0
LWPOLYLINE
  5
21E
330
2
100
AcDbEntity
  8
0
100
AcDbPolyline
 90
        7
 70
   128
 43
0.0
 10
3.179935537462859
 20
7.239898960946486
 10
3.163637606918163
 20
7.163460195369395
 10
3.163118624324078
 20
7.084277153757168
 10
3.178444105603484
 20
7.011900992931352
 10
3.207763174969824
 20
6.955060799113214
 10
3.247540565071723
 20
6.920612568789719
 10
3.278087001679116
 20
6.912229643279408
  0
LWPOLYLINE
  5
21F
330
2
100
AcDbEntity
  8
0
100
AcDbPolyline
 90
        5
 70
   128
 43
0.0
 10
3.312485118624089
 20
7.369065870177129
 10
3.295962711394025
 20
7.368707432036888
 10
3.250344443723559
 20
7.34910874065811
 10
3.210049338796092
 20
7.304374048989178
 10
3.179935537462859
 20
7.239898960946486
  0
LWPOLYLINE
  5
220
330
2
100
AcDbEntity
  8
0
100
AcDbPolyline
 90
        7
 70
   128
 43
0.0
 10
2.908537286240497
 20
6.415889812421307
 10
2.892238173269118
 20
6.339450705503897
 10
2.891719190675033
 20
6.260267663891707
 10
2.907044671954524
 20
6.187891503065854
 10
2.936363741311558
 20
6.131051235340907
 10
2.976141131413604
 20
6.096603005017412
 10
3.006688750465901
 20
6.088220494754227
  0
LWPOLYLINE
  5
221
330
2
100
AcDbEntity
  8
0
100
AcDbPolyline
 90
        5
 70
   128
 43
0.0
 10
3.041085684965835
 20
6.545056380311661
 10
3.024563277744992
 20
6.54469779436692
 10
2.978946192501198
 20
6.525099444328429
 10
2.938649905137912
 20
6.480364559123675
 10
2.908537286240497
 20
6.415889812421307
  0
LINE
  5
222
330
2
100
AcDbEntity
  8
0
100
AcDbLine
 10
3.11721878787451
 20
6.611126550150364
 30
0.0
 11
3.195925167554742
 21
6.850091167844443
 31
0.0
  0
ELLIPSE
  5
223
330
2
100
AcDbEntity
  8
0
100
AcDbEllipse
 10
3.130964004136197
 20
6.599225219158482
 30
0.0
 11
0.0020651605353176
 21
0.0274108823786054
 31
0.0
210
0.0
220
0.0
230
0.9999999999999998
 40
0.5779408020999999
 41
1.165636268090297
 42
2.73635644246337
  0
LINE
  5
224
330
2
100
AcDbEntity
  8
0
100
AcDbLine
 10
3.122820149159438
 20
6.574504778432348
 30
0.0
 11
3.174637860056797
 21
6.529629324424039
 31
0.0
  0
LINE
  5
225
330
2
100
AcDbEntity
  8
0
100
AcDbLine
 10
3.204339560244205
 20
6.518092889557051
 30
0.0
 11
3.295693841851933
 21
6.795458594400269
 31
0.0
  0
LINE
  5
226
330
2
100
AcDbEntity
  8
0
100
AcDbLine
 10
3.217809832696718
 20
6.86290812487072
 30
0.0
 11
3.295693841851933
 21
6.795458594400269
 31
0.0
  0
ELLIPSE
  5
227
330
2
100
AcDbEntity
  8
0
100
AcDbEllipse
 10
3.209669162512025
 20
6.838186086764004
 30
0.0
 11
0.0020627779628711
 21
0.0274125829994757
 31
0.0
210
0.0
220
0.0
230
1.0
 40
0.5778770211000002
 41
5.877920137287437
 42
7.448640311660861
  0
LINE
  5
228
330
2
100
AcDbEntity
  8
0
100
AcDbLine
 10
3.056575416916401
 20
7.275977824876644
 30
0.0
 11
2.785175983258221
 21
6.451968187206677
 31
0.0
  0
LINE
  5
229
330
2
100
AcDbEntity
  8
0
100
AcDbLine
 10
3.193294392174419
 20
7.691077843617602
 30
0.0
 11
3.056575416916401
 21
7.275977824876644
 31
0.0
  0
LINE
  5
22A
330
2
100
AcDbEntity
  8
0
100
AcDbLine
 10
2.785175983258221
 20
6.451968187206677
 30
0.0
 11
2.637235425300188
 21
6.002796061068746
 31
0.0
  0
LWPOLYLINE
  5
22B
330
2
100
AcDbEntity
  8
0
100
AcDbPolyline
 90
       17
 70
   128
 43
0.0
 10
3.263230958833374
 20
6.226639134138233
 10
3.276937784414029
 20
6.295293442210678
 10
3.274699752812538
 20
6.365497171105553
 10
3.256858064562495
 20
6.426562404186279
 10
3.226127754766476
 20
6.469192405124168
 10
3.187188985508949
 20
6.486897596501242
 10
3.145968119343554
 20
6.4769820359597
 10
3.10874185441807
 20
6.44095539039641
 10
3.081176990377513
 20
6.384302495676962
 10
3.067470164796931
 20
6.315648187604554
 10
3.069708196398349
 20
6.245444606514119
 10
3.087549969990457
 20
6.184379225638095
 10
3.118280279777243
 20
6.141749224691029
 10
3.15721904904393
 20
6.12404403331396
 10
3.198439829867333
 20
6.133959741659971
 10
3.235666094792817
 20
6.169986239418786
 10
3.263230958833374
 20
6.226639134138233
  0
ARC
  5
22C
330
2
100
AcDbEntity
  8
0
100
AcDbCircle
 10
2.806671079682596
 20
5.091827441369527
 30
0.0
 40
0.4657628018115051
100
AcDbArc
 50
158.4462968151016
 51
218.9476879695058
  0
LWPOLYLINE
  5
22D
330
2
100
AcDbEntity
  8
0
100
AcDbPolyline
 90
       10
 70
   128
 43
0.0
 10
2.633939496236821
 20
6.640216000763802
 10
2.597035741857855
 20
6.635710527190921
 10
2.545356758745713
 20
6.60544492908154
 10
2.500294491246642
 20
6.549937319364691
 10
2.466260405674595
 20
6.47462167257135
 10
2.446585956808107
 20
6.386870215591974
 10
2.443196793126366
 20
6.29527278712338
 10
2.456425375053441
 20
6.208795588798253
 10
2.484976109841676
 20
6.135903262936142
 10
2.526054472926606
 20
6.083731462242059
  0
LWPOLYLINE
  5
22E
330
2
100
AcDbEntity
  8
0
100
AcDbPolyline
 90
        3
 70
   128
 43
0.0
 10
2.841515658377979
 20
4.929498610103593
 10
2.85219067767873
 20
4.912551496392115
 10
2.871819379432569
 20
4.890805992534605
  0
LINE
  5
22F
330
2
100
AcDbEntity
  8
0
100
AcDbLine
 10
2.637235425300188
 20
6.002796061068746
 30
0.0
 11
2.617682001171239
 21
6.004379695095866
 31
0.0
  0
LINE
  5
230
330
2
100
AcDbEntity
  8
0
100
AcDbLine
 10
2.373477375831008
 20
5.26293618602337
 30
0.0
 11
2.617682001171239
 21
6.004379695095866
 31
0.0
  0
LWPOLYLINE
  5
231
330
2
100
AcDbEntity
  8
0
100
AcDbPolyline
 90
       17
 70
   128
 43
0.0
 10
3.534630392491554
 20
7.050648771808202
 10
3.548337218072221
 20
7.11930293207614
 10
3.546099186470791
 20
7.189506660971014
 10
3.528257498211454
 20
7.250571894051777
 10
3.497527188424669
 20
7.293201894989666
 10
3.458588419167128
 20
7.310907086366741
 10
3.417367553001746
 20
7.300991525825198
 10
3.38014128807625
 20
7.264964880261915
 10
3.352576424035706
 20
7.208312133356114
 10
3.338869598455111
 20
7.139657825274491
 10
3.341107630056529
 20
7.069454096379617
 10
3.358949403648637
 20
7.008388789401223
 10
3.389679713435435
 20
6.965758788463336
 10
3.42861848269289
 20
6.948053597086266
 10
3.469839263525513
 20
6.957969231525469
 10
3.507065528451009
 20
6.993995877088753
 10
3.534630392491554
 20
7.050648771808202
  0
LINE
  5
232
330
2
100
AcDbEntity
  8
0
100
AcDbLine
 10
2.871819379432569
 20
4.890805992534605
 30
0.0
 11
3.354477008738346
 21
4.472812224227597
 31
0.0
  0
LINE
  5
233
330
2
100
AcDbEntity
  8
0
100
AcDbLine
 10
2.526054472926606
 20
6.083731462242059
 30
0.0
 11
2.617682001171239
 21
6.004379695095866
 31
0.0
  0
LWPOLYLINE
  5
234
330
2
100
AcDbEntity
  8
0
100
AcDbPolyline
 90
       10
 70
   128
 43
0.0
 10
2.905338929885792
 20
7.464225490629301
 10
2.868435175516046
 20
7.459720164860895
 10
2.816756192403905
 20
7.429454418947008
 10
2.771693924904822
 20
7.373946957034622
 10
2.73765983932364
 20
7.298631310241324
 10
2.717985390466214
 20
7.210879853261941
 10
2.714596226784486
 20
7.119282276988878
 10
2.727824808702474
 20
7.032805078663757
 10
2.756375543499868
 20
6.959912900606109
 10
2.797453906575578
 20
6.907740952107527
  0
LINE
  5
235
330
2
100
AcDbEntity
  8
0
100
AcDbLine
 10
3.295693841851933
 20
6.795458594400269
 30
0.0
 11
3.180991315734309
 21
6.804748332909346
 31
0.0
  0
LINE
  5
236
330
2
100
AcDbEntity
  8
0
100
AcDbLine
 10
2.90863485895838
 20
6.826805550934214
 30
0.0
 11
2.889081434820272
 21
6.828389184961364
 31
0.0
  0
LINE
  5
237
330
2
100
AcDbEntity
  8
0
100
AcDbLine
 10
2.797453906575578
 20
6.907740952107527
 30
0.0
 11
2.889081434820272
 21
6.828389184961364
 31
0.0
  0
ELLIPSE
  5
238
330
2
100
AcDbEntity
  8
0
100
AcDbEllipse
 10
3.239108399723797
 20
7.651394184975483
 30
0.0
 11
0.0068759265429192
 21
0.0913752766649241
 31
0.0
210
0.0
220
0.0
230
0.9999999999999998
 40
0.5778770211000002
 41
0.0081150858514489
 42
1.165455004481329
  0
ELLIPSE
  5
239
330
2
100
AcDbEntity
  8
0
100
AcDbEllipse
 10
3.782971564085138
 20
4.293405107938054
 30
0.0
 11
0.1625165273910194
 21
-0.0920467618258707
 31
0.0
210
0.0
220
0.0
230
1.0
 40
0.165794471
 41
0.6896272446617182
 42
2.173157108856921
  0
ARC
  5
23A
330
2
100
AcDbEntity
  8
0
100
AcDbCircle
 10
3.605974480498484
 20
7.217586037736539
 30
0.0
 40
0.0873709409300874
100
AcDbArc
 50
51.27721473400144
 51
145.8445444761049
  0
LINE
  5
23B
330
2
100
AcDbEntity
  8
0
100
AcDbLine
 10
3.70346674905204
 20
4.367760055752677
 30
0.0
 11
3.690999599240242
 21
4.37305777283353
 31
0.0
  0
LINE
  5
23C
330
2
100
AcDbEntity
  8
0
100
AcDbLine
 10
3.337185678763503
 20
4.417341070099324
 30
0.0
 11
3.690999599240242
 21
4.37305777283353
 31
0.0
  0
LINE
  5
23D
330
2
100
AcDbEntity
  8
0
100
AcDbLine
 10
4.368882179988004
 20
3.849113076367412
 30
0.0
 11
3.918060562220734
 21
4.239536049927607
 31
0.0
  0
LINE
  5
23E
330
2
100
AcDbEntity
  8
0
100
AcDbLine
 10
3.675729292353123
 20
7.272674557386352
 30
0.0
 11
3.660629631807573
 21
7.285751247006366
 31
0.0
  0
ELLIPSE
  5
23F
330
2
100
AcDbEntity
  8
0
100
AcDbEllipse
 10
4.233793185829034
 20
3.90298213094183
 30
0.0
 11
0.1625165273910194
 21
-0.0920467618258604
 31
0.0
210
0.0
220
0.0
230
1.0
 40
0.165794471
 41
0.0331063377241576
 42
0.689627244661631
  0
LINE
  5
240
330
2
100
AcDbEntity
  8
0
100
AcDbLine
 10
3.581529227578009
 20
4.120653498336919
 30
0.0
 11
3.503019132007995
 21
3.882285804640962
 31
0.0
  0
LINE
  5
241
330
2
100
AcDbEntity
  8
0
100
AcDbLine
 10
4.246617675276123
 20
3.700195743258574
 30
0.0
 11
4.65397613073571
 21
3.347412972388557
 31
0.0
  0
LINE
  5
242
330
2
100
AcDbEntity
  8
0
100
AcDbLine
 10
5.077160137197921
 20
2.944146920111482
 30
0.0
 11
5.234018334830182
 21
3.420390449839612
 31
0.0
  0
ELLIPSE
  5
243
330
2
100
AcDbEntity
  8
0
100
AcDbEllipse
 10
5.03134695358221
 20
2.98383067975471
 30
0.0
 11
0.006875926542914
 21
0.0913752766649241
 31
0.0
210
0.0
220
0.0
230
1.0
 40
0.5778770211
 41
2.736327483698102
 42
4.30704765807106
  0
ARC
  5
244
330
2
100
AcDbEntity
  8
0
100
AcDbCircle
 10
4.707887276802389
 20
3.408717027692085
 30
0.0
 40
0.0816369944829837
100
AcDbArc
 50
228.6714130374034
 51
314.9203592104971
  0
ARC
  5
245
330
2
100
AcDbEntity
  8
0
100
AcDbCircle
 10
4.314724678727905
 20
3.350696715228721
 30
0.0
 40
0.1296170702551695
100
AcDbArc
 50
227.1621517867994
 51
264.5187678972925
  0
ELLIPSE
  5
246
330
2
100
AcDbEntity
  8
0
100
AcDbEllipse
 10
4.941671803538977
 20
2.991846472966789
 30
0.0
 11
0.0068759265429192
 21
0.0913752766649241
 31
0.0
210
0.0
220
0.0
230
0.9999999999999998
 40
0.5778770211000002
 41
2.736327483698255
 42
3.133477567738518
  0
LINE
  5
247
330
2
100
AcDbEntity
  8
0
100
AcDbLine
 10
3.898820599927316
 20
5.742252393181431
 30
0.0
 11
3.598534428385685
 21
5.501240513398236
 31
0.0
  0
ELLIPSE
  5
248
330
2
100
AcDbEntity
  8
0
100
AcDbEllipse
 10
3.407169981193102
 20
5.048823741265848
 30
0.0
 11
0.0068838684510498
 21
0.0913696079286953
 31
0.0
210
0.0
220
0.0
230
0.9999999999999998
 40
0.5779408021
 41
1.16563626809024
 42
2.736356442463259
  0
ELLIPSE
  5
249
330
2
100
AcDbEntity
  8
0
100
AcDbEllipse
 10
3.714502825173182
 20
6.042368733271508
 30
0.0
 11
0.3017225015887364
 21
0.344755576011401
 31
0.0
210
0.0
220
0.0
230
1.0
 40
0.7540258493
 41
4.482373612415839
 42
5.224320880421761
  0
ELLIPSE
  5
24A
330
2
100
AcDbEntity
  8
0
100
AcDbEllipse
 10
3.783441029154957
 20
5.20061352844071
 30
0.0
 11
0.3026402094650069
 21
0.3439547736610012
 31
0.0
210
0.0
220
0.0
230
1.0
 40
0.7560319662000002
 41
1.342801356481428
 42
2.084748624487349
  0
LINE
  5
24B
330
2
100
AcDbEntity
  8
0
100
AcDbLine
 10
3.408210671221113
 20
5.23076341888881
 30
0.0
 11
3.361351979147752
 21
5.088494760989475
 31
0.0
  0
LINE
  5
24C
330
2
100
AcDbEntity
  8
0
100
AcDbLine
 10
4.394687518831783
 20
4.087700111227588
 30
0.0
 11
5.210587390510903
 21
3.381110095407375
 31
0.0
  0
LINE
  5
24D
330
2
100
AcDbEntity
  8
0
100
AcDbLine
 10
3.380025942435616
 20
4.966422812628868
 30
0.0
 11
4.100915563305431
 21
4.342114087622222
 31
0.0
  0
LINE
  5
24E
330
2
100
AcDbEntity
  8
0
100
AcDbLine
 10
4.433028494297918
 20
7.057635370471645
 30
0.0
 11
4.088934177353909
 21
6.012911545635994
 31
0.0
  0
ELLIPSE
  5
24F
330
2
100
AcDbEntity
  8
0
100
AcDbEllipse
 10
4.478841842495166
 20
7.017951533622992
 30
0.0
 11
0.0068759265429192
 21
0.0913752766649241
 31
0.0
210
0.0
220
0.0
230
0.9999999999999998
 40
0.5778770211000002
 41
5.877920137287912
 42
7.44864031166087
  0
LINE
  5
250
330
2
100
AcDbEntity
  8
0
100
AcDbLine
 10
4.807003251265641
 20
6.83966484378687
 30
0.0
 11
4.505979828287703
 21
7.100358775218278
 31
0.0
  0
LINE
  5
251
330
2
100
AcDbEntity
  8
0
100
AcDbLine
 10
4.400385845068813
 20
4.142734101181807
 30
0.0
 11
4.15252895164912
 21
4.357384467380793
 31
0.0
  0
LINE
  5
252
330
2
100
AcDbEntity
  8
0
100
AcDbLine
 10
4.24679116632482
 20
4.026772850641469
 30
0.0
 11
4.400385845068813
 21
4.142734101181807
 31
0.0
  0
LINE
  5
253
330
2
100
AcDbEntity
  8
0
100
AcDbLine
 10
3.998934272905139
 20
4.241423216849596
 30
0.0
 11
4.24679116632482
 21
4.026772850641469
 31
0.0
  0
ELLIPSE
  5
254
330
2
100
AcDbEntity
  8
0
100
AcDbEllipse
 10
4.34523631930574
 20
4.057319677096774
 30
0.0
 11
0.0540466830824512
 21
0.0862306537775837
 31
0.0
210
0.0
220
0.0
230
1.0
 40
0.2945542466
 41
5.171606599400139
 42
6.237537654344468
  0
ELLIPSE
  5
255
330
2
100
AcDbEntity
  8
0
100
AcDbEllipse
 10
4.33674247104642
 20
4.050906967821306
 30
0.0
 11
0.0926781371134403
 21
0.0198653110342199
 31
0.0
210
0.0
220
0.0
230
1.0
 40
0.2601647544
 41
3.335243632973681
 42
4.401174687917908
  0
ELLIPSE
  5
256
330
2
100
AcDbEntity
  8
0
100
AcDbEllipse
 10
4.343221150534396
 20
4.065281231965805
 30
0.0
 11
-0.0243003621759595
 21
0.0453626019681335
 31
0.0
210
0.0
220
0.0
230
1.0
 40
0.8730488701
 41
2.500405314970203
 42
4.062474995505384
  0
LINE
  5
257
330
2
100
AcDbEntity
  8
0
100
AcDbLine
 10
4.389455888733801
 20
4.054721903860884
 30
0.0
 11
4.391960671318927
 21
4.081270792585539
 31
0.0
  0
LINE
  5
258
330
2
100
AcDbEntity
  8
0
100
AcDbLine
 10
4.31328267006217
 20
4.021870482669468
 30
0.0
 11
4.339005880166596
 21
4.016238221488769
 31
0.0
  0
LINE
  5
259
330
2
100
AcDbEntity
  8
0
100
AcDbLine
 10
5.595883278130292
 20
6.68998718584563
 30
0.0
 11
5.479972783094713
 21
6.338066533891827
 31
0.0
  0
LWPOLYLINE
  5
25A
330
2
100
AcDbEntity
  8
0
100
AcDbPolyline
 90
        9
 70
   128
 43
0.0
 10
5.595883278130292
 20
6.68998718584563
 10
5.652406006390003
 20
6.672004796252615
 10
5.691500834316491
 20
6.629971800366663
 10
5.707215387243008
 20
6.570287159841585
 10
5.697157600400464
 20
6.502037451554516
 10
5.662858726315427
 20
6.435613047779618
 10
5.609540395225522
 20
6.381126543452131
 10
5.545318836707368
 20
6.346872527875333
 10
5.479972783094713
 20
6.338066533891827
  0
ARC
  5
25B
330
2
100
AcDbEntity
  8
0
100
AcDbCircle
 10
6.096683630986827
 20
7.128352769080905
 30
0.0
 40
0.0612754849504306
100
AcDbArc
 50
333.6487475794987
 51
82.9863686171968
  0
LINE
  5
25C
330
2
100
AcDbEntity
  8
0
100
AcDbLine
 10
6.151591964002024
 20
7.101154239326358
 30
0.0
 11
5.744419502589281
 21
5.864915047068262
 31
0.0
  0
ARC
  5
25D
330
2
100
AcDbEntity
  8
0
100
AcDbCircle
 10
5.634500667589945
 20
5.901498659391661
 30
0.0
 40
0.1158469290866666
100
AcDbArc
 50
287.7679507352946
 51
341.591326154098
  0
LINE
  5
25E
330
2
100
AcDbEntity
  8
0
100
AcDbLine
 10
5.669852825678242
 20
5.791177601124495
 30
0.0
 11
5.058053000085559
 21
5.614566204122426
 31
0.0
  0
ARC
  5
25F
330
2
100
AcDbEntity
  8
0
100
AcDbCircle
 10
5.01394341270263
 20
5.762564087192327
 30
0.0
 40
0.1544313086474251
100
AcDbArc
 50
266.2240578527004
 51
286.5962675312991
  0
LINE
  5
260
330
2
100
AcDbEntity
  8
0
100
AcDbLine
 10
5.003773349844748
 20
5.608468016786352
 30
0.0
 11
4.913325396765349
 21
5.615278429917489
 31
0.0
  0
LINE
  5
261
330
2
100
AcDbEntity
  8
0
100
AcDbLine
 10
6.10416570343388
 20
7.189169737494875
 30
0.0
 11
5.447982020926104
 21
7.238577172528007
 31
0.0
  0
LWPOLYLINE
  5
262
330
2
100
AcDbEntity
  8
0
100
AcDbPolyline
 90
        6
 70
   128
 43
0.0
 10
5.419131334837564
 20
7.230868834403423
 10
5.420466491887642
 20
7.233221536249352
 10
5.424387500534242
 20
7.236079935942854
 10
5.430448331014369
 20
7.237967004997422
 10
5.438415098998945
 20
7.238810250735774
 10
5.447982020926104
 20
7.238577172528007
  0
LWPOLYLINE
  5
263
330
2
100
AcDbEntity
  8
0
100
AcDbPolyline
 90
        9
 70
   128
 43
0.0
 10
4.913325396765349
 20
5.615278429917489
 10
4.903758474838202
 20
5.615511480398731
 10
4.895791706853614
 20
5.614668262377756
 10
4.889730876364352
 20
5.612781184087111
 10
4.885809867726887
 20
5.60992288600862
 10
4.884178037399658
 20
5.606202912427356
 10
4.884899263507987
 20
5.601764619559177
 10
4.88794509533436
 20
5.596778169548798
 10
4.893198886254371
 20
5.591435469556888
  0
LINE
  5
264
330
2
100
AcDbEntity
  8
0
100
AcDbLine
 10
7.449608810156107
 20
3.377519532969897
 30
0.0
 11
7.444806335407518
 21
3.381678598098324
 31
0.0
  0
LINE
  5
265
330
2
100
AcDbEntity
  8
0
100
AcDbLine
 10
5.016674213207316
 20
5.484502699659868
 30
0.0
 11
4.893198886254371
 21
5.591435469556888
 31
0.0
  0
LINE
  5
266
330
2
100
AcDbEntity
  8
0
100
AcDbLine
 10
4.48655856473738
 20
7.656988999092826
 30
0.0
 11
4.394930951159915
 21
7.736340840145791
 31
0.0
  0
LINE
  5
267
330
2
100
AcDbEntity
  8
0
100
AcDbLine
 10
4.747540751499287
 20
7.637338383453453
 30
0.0
 11
4.48655856473738
 21
7.656988999092826
 31
0.0
  0
LINE
  5
268
330
2
100
AcDbEntity
  8
0
100
AcDbLine
 10
4.655913137921896
 20
7.716690224497277
 30
0.0
 11
4.747540751499287
 21
7.637338383453453
 31
0.0
  0
LINE
  5
269
330
2
100
AcDbEntity
  8
0
100
AcDbLine
 10
4.394930951159915
 20
7.736340840145791
 30
0.0
 11
4.655913137921896
 21
7.716690224497277
 31
0.0
  0
LINE
  5
26A
330
2
100
AcDbEntity
  8
0
100
AcDbLine
 10
4.730778916039897
 20
2.364050131908076
 30
0.0
 11
4.911326004058268
 21
2.912217892468078
 31
0.0
  0
LINE
  5
26B
330
2
100
AcDbEntity
  8
0
100
AcDbLine
 10
3.57086839920232
 20
4.088288006439469
 30
0.0
 11
3.525381760899515
 21
4.12768059074551
 31
0.0
  0
LINE
  5
26C
330
2
100
AcDbEntity
  8
0
100
AcDbLine
 10
2.708374079292447
 20
7.412087554405259
 30
0.0
 11
1.856768284255593
 21
4.826483196533635
 31
0.0
  0
ARC
  5
26D
330
2
100
AcDbEntity
  8
0
100
AcDbCircle
 10
5.636626110561048
 20
7.716367213215111
 30
0.0
 40
0.042892600043051
100
AcDbArc
 50
333.6488063391012
 51
82.98770571809695
  0
ARC
  5
26E
330
2
100
AcDbEntity
  8
0
100
AcDbCircle
 10
5.640696148472977
 20
7.757674068399882
 30
0.0
 40
0.0017205976534815
100
AcDbArc
 50
47.32038030139881
 51
84.84797494359753
  0
ARC
  5
26F
330
2
100
AcDbEntity
  8
0
100
AcDbCircle
 10
4.885997934335018
 20
7.471212731803795
 30
0.0
 40
0.4846397844356699
100
AcDbArc
 50
68.87912926580011
 51
84.5949662208975
  0
ARC
  5
270
330
2
100
AcDbEntity
  8
0
100
AcDbCircle
 10
5.572662982113575
 20
8.274964147735026
 30
0.0
 40
0.5094666038259664
100
AcDbArc
 50
248.8786432781034
 51
264.5952845953962
  0
ARC
  5
271
330
2
100
AcDbEntity
  8
0
100
AcDbCircle
 10
4.653837715730498
 20
2.389656627400512
 30
0.0
 40
0.0810903256626304
100
AcDbArc
 50
287.7674011092018
 51
341.5922464559994
  0
LINE
  5
272
330
2
100
AcDbEntity
  8
0
100
AcDbLine
 10
1.807202892270975
 20
4.799121924062424
 30
0.0
 11
4.678582715172773
 21
2.312434053506337
 31
0.0
  0
ARC
  5
273
330
2
100
AcDbEntity
  8
0
100
AcDbCircle
 10
1.829290174645591
 20
4.8356274526817
 30
0.0
 40
0.028959694892069
100
AcDbArc
 50
287.7671483982978
 51
341.5934186932954
  0
LINE
  5
274
330
2
100
AcDbEntity
  8
0
100
AcDbLine
 10
2.820756517491597
 20
3.521866020951445
 30
0.0
 11
2.662052539795022
 21
3.476052128825337
 31
0.0
  0
LWPOLYLINE
  5
275
330
2
100
AcDbEntity
  8
0
100
AcDbPolyline
 90
        9
 70
   128
 43
0.0
 10
2.662052539795022
 20
3.476052128825337
 10
2.608295082513621
 20
3.452479954608879
 10
2.576669529086729
 20
3.420415355247083
 10
2.571992732117664
 20
3.384740500397575
 10
2.59497734743701
 20
3.35088674623177
 10
2.642121462008843
 20
3.324007238770237
 10
2.706250521659993
 20
3.308194923832442
 10
2.777600813579238
 20
3.305856890492997
 10
2.845307745618939
 20
3.317348465209814
  0
LINE
  5
276
330
2
100
AcDbEntity
  8
0
100
AcDbLine
 10
2.845307745618939
 20
3.317348465209814
 30
0.0
 11
3.004011723315599
 21
3.363162357326744
 31
0.0
  0
LWPOLYLINE
  5
277
330
2
100
AcDbEntity
  8
0
100
AcDbPolyline
 90
        9
 70
   128
 43
0.0
 10
3.004011723315599
 20
3.363162357326744
 10
3.057770363032819
 20
3.386734872892666
 10
3.089394734023806
 20
3.418799130904961
 10
3.094071530983811
 20
3.454473985763683
 10
3.071088098109356
 20
3.488328081260597
 10
3.023942801092546
 20
3.515207247381844
 10
2.959813741450543
 20
3.531019562319638
 10
2.888464631967201
 20
3.533357936999334
 10
2.820756517491597
 20
3.521866020951445
  0
LINE
  5
278
330
2
100
AcDbEntity
  8
0
100
AcDbLine
 10
4.636405280820698
 20
2.300258476970409
 30
0.0
 11
4.678582715172773
 21
2.312434053506337
 31
0.0
  0
ARC
  5
279
330
2
100
AcDbEntity
  8
0
100
AcDbCircle
 10
4.544510309309194
 20
2.635442501582369
 30
0.0
 40
0.3475528969024627
100
AcDbArc
 50
262.2008268918018
 51
285.3316431664972
  0
LINE
  5
27A
330
2
100
AcDbEntity
  8
0
100
AcDbLine
 10
3.580080200696309
 20
2.413995229516358
 30
0.0
 11
4.497346938427826
 21
2.291104538827207
 31
0.0
  0
ARC
  5
27B
330
2
100
AcDbEntity
  8
0
100
AcDbCircle
 10
3.599548023244023
 20
2.631100420505661
 30
0.0
 40
0.2179762832759192
100
AcDbArc
 50
233.144426982199
 51
264.8759916605935
  0
LINE
  5
27C
330
2
100
AcDbEntity
  8
0
100
AcDbLine
 10
3.468805854702923
 20
2.456686701339358
 30
0.0
 11
1.48309169118121
 21
4.176365611599353
 31
0.0
  0
ARC
  5
27D
330
2
100
AcDbEntity
  8
0
100
AcDbCircle
 10
1.517988393668604
 20
4.224551809442398
 30
0.0
 40
0.059495289789237
100
AcDbArc
 50
182.2852148176459
 51
234.0877427972317
  0
LINE
  5
27E
330
2
100
AcDbEntity
  8
0
100
AcDbLine
 10
1.838127206250334
 20
4.808049004565616
 30
0.0
 11
1.795949771889052
 21
4.795873428020509
 31
0.0
  0
ARC
  5
27F
330
2
100
AcDbEntity
  8
0
100
AcDbCircle
 10
1.823278060433886
 20
4.660597003222219
 30
0.0
 40
0.1380092260019011
100
AcDbArc
 50
101.4210714680922
 51
144.7560980463012
  0
LWPOLYLINE
  5
280
330
2
100
AcDbEntity
  8
0
100
AcDbPolyline
 90
        6
 70
   128
 43
0.0
 10
4.467809241717223
 20
7.986211426912626
 10
4.454142065854076
 20
7.98654434701406
 10
4.442760932163389
 20
7.98533978415052
 10
4.434103665174919
 20
7.982644115988305
 10
4.428501874229839
 20
7.978560706457763
 10
4.426594965005509
 20
7.975199828994494
  0
LINE
  5
281
330
2
100
AcDbEntity
  8
0
100
AcDbLine
 10
1.71056551475233
 20
4.74023636853669
 30
0.0
 11
1.464785065932186
 21
4.281602874732102
 31
0.0
  0
ARC
  5
282
330
2
100
AcDbEntity
  8
0
100
AcDbCircle
 10
4.042725257392827
 20
7.796247011437257
 30
0.0
 40
0.2237561442898356
100
AcDbArc
 50
53.53729464470067
 51
85.22747148609598
  0
LWPOLYLINE
  5
283
330
2
100
AcDbEntity
  8
0
100
AcDbPolyline
 90
        3
 70
   128
 43
0.0
 10
3.363631610247026
 20
8.01770907721888
 10
3.363223422673068
 20
8.017128419098602
 10
3.362876565473277
 20
8.016355386342908
  0
ARC
  5
284
330
2
100
AcDbEntity
  8
0
100
AcDbCircle
 10
3.515954307979038
 20
7.701784682040496
 30
0.0
 40
0.3580730861695734
100
AcDbArc
 50
82.44019616819752
 51
109.3018013701014
  0
ARC
  5
285
330
2
100
AcDbEntity
  8
0
100
AcDbCircle
 10
3.110471372098427
 20
7.304591177379288
 30
0.0
 40
0.4162183368817392
100
AcDbArc
 50
125.0532852855033
 51
165.0326126333989
  0
ARC
  5
286
330
2
100
AcDbEntity
  8
0
100
AcDbCircle
 10
1.508225001871513
 20
4.257484576626505
 30
0.0
 40
0.0496862187966204
100
AcDbArc
 50
150.9605160887984
 51
179.534994665199
  0
LINE
  5
287
330
2
100
AcDbEntity
  8
0
100
AcDbLine
 10
3.362876565473277
 20
8.016355386342908
 30
0.0
 11
3.269641756344829
 21
7.905906260410324
 31
0.0
  0
ARC
  5
288
330
2
100
AcDbEntity
  8
0
100
AcDbCircle
 10
3.241072543467827
 20
7.947885559527321
 30
0.0
 40
0.0507785533378226
100
AcDbArc
 50
257.7914719907968
 51
304.2374325905981
  0
ARC
  5
289
330
2
100
AcDbEntity
  8
0
100
AcDbCircle
 10
3.060172504977674
 20
7.852003120726562
 30
0.0
 40
0.0832455311559384
100
AcDbArc
 50
305.0536892742027
 51
345.0319929205975
  0
LINE
  5
28A
330
2
100
AcDbEntity
  8
0
100
AcDbLine
 10
3.230334388857445
 20
7.898255392141804
 30
0.0
 11
3.213008177877694
 21
7.89955996401861
 31
0.0
  0
ARC
  5
28B
330
2
100
AcDbEntity
  8
0
100
AcDbCircle
 10
3.21425390173687
 20
7.829172976481402
 30
0.0
 40
0.0703980102170179
100
AcDbArc
 50
91.01392702580204
 51
163.0906939452
  0
LINE
  5
28C
330
2
100
AcDbEntity
  8
0
100
AcDbLine
 10
3.146899454086804
 20
7.84964877254346
 30
0.0
 11
3.140593531536322
 21
7.830502494127655
 31
0.0
  0
ARC
  5
28D
330
2
100
AcDbEntity
  8
0
100
AcDbCircle
 10
8.260454054696818
 20
3.621860719734841
 30
0.0
 40
0.1045274414890606
100
AcDbArc
 50
286.6490829758923
 51
308.1274944216975
  0
LINE
  5
28E
330
2
100
AcDbEntity
  8
0
100
AcDbLine
 10
7.678602304690233
 20
3.34510393446521
 30
0.0
 11
8.290402130282917
 21
3.521715331458138
 31
0.0
  0
ARC
  5
28F
330
2
100
AcDbEntity
  8
0
100
AcDbCircle
 10
7.634492717307304
 20
3.493101817526006
 30
0.0
 40
0.1544313086476885
100
AcDbArc
 50
266.2240578527004
 51
286.5962675312991
  0
LINE
  5
290
330
2
100
AcDbEntity
  8
0
100
AcDbLine
 10
7.533874701370024
 20
3.345816160251125
 30
0.0
 11
7.624322654449434
 21
3.339005747129135
 31
0.0
  0
ARC
  5
291
330
2
100
AcDbEntity
  8
0
100
AcDbCircle
 10
7.547590767383232
 20
3.510111571528963
 30
0.0
 40
0.1648669543418061
100
AcDbArc
 50
233.5365937101954
 51
265.2277757242018
  0
ARC
  5
292
330
2
100
AcDbEntity
  8
0
100
AcDbCircle
 10
6.778307193709991
 20
8.455353121245181
 30
0.0
 40
0.0225083250427275
100
AcDbArc
 50
99.61260672580433
 51
162.1737659591987
  0
LINE
  5
293
330
2
100
AcDbEntity
  8
0
100
AcDbLine
 10
6.936008857765745
 20
8.495685347967171
 30
0.0
 11
6.77454862552131
 21
8.477545414082792
 31
0.0
  0
LINE
  5
294
330
2
100
AcDbEntity
  8
0
100
AcDbLine
 10
8.069415961691101
 20
8.410344828549892
 30
0.0
 11
6.936008857765745
 21
8.495685347967171
 31
0.0
  0
ARC
  5
295
330
2
100
AcDbEntity
  8
0
100
AcDbCircle
 10
8.067921156809054
 20
8.398182216879295
 30
0.0
 40
0.0122541243719646
100
AcDbArc
 50
333.6434646951036
 51
82.99339176569528
  0
LINE
  5
296
330
2
100
AcDbEntity
  8
0
100
AcDbLine
 10
8.008338496197694
 20
8.178499627663324
 30
0.0
 11
8.078901450295552
 21
8.392741930205495
 31
0.0
  0
LINE
  5
297
330
2
100
AcDbEntity
  8
0
100
AcDbLine
 10
7.009149518811176
 20
8.253733602004249
 30
0.0
 11
8.008338496197694
 21
8.178499627663324
 31
0.0
  0
LINE
  5
298
330
2
100
AcDbEntity
  8
0
100
AcDbLine
 10
5.801696009091089
 20
7.812648819952253
 30
0.0
 11
5.70127776932007
 21
7.507765226295163
 31
0.0
  0
ARC
  5
299
330
2
100
AcDbEntity
  8
0
100
AcDbCircle
 10
5.822420175292407
 20
7.806349097236633
 30
0.0
 40
0.0216605071732308
100
AcDbArc
 50
91.01248601779754
 51
163.0918007758038
  0
LINE
  5
29A
330
2
100
AcDbEntity
  8
0
100
AcDbLine
 10
5.822037427745544
 20
7.82800622251859
 30
0.0
 11
5.922701613876775
 21
7.820426558276826
 31
0.0
  0
LINE
  5
29B
330
2
100
AcDbEntity
  8
0
100
AcDbLine
 10
5.922701613876775
 20
7.820426558276826
 30
0.0
 11
6.613193629928774
 21
8.025991331898964
 31
0.0
  0
LINE
  5
29C
330
2
100
AcDbEntity
  8
0
100
AcDbLine
 10
6.756879508571258
 20
8.462243622358469
 30
0.0
 11
6.613193629928774
 21
8.025991331898964
 31
0.0
  0
LINE
  5
29D
330
2
100
AcDbEntity
  8
0
100
AcDbLine
 10
6.769994274992776
 20
7.348847789957881
 30
0.0
 11
7.016581505606189
 21
8.097525054665414
 31
0.0
  0
LINE
  5
29E
330
2
100
AcDbEntity
  8
0
100
AcDbLine
 10
8.015770482992707
 20
8.022291080324459
 30
0.0
 11
7.953734063210845
 21
7.833940113470585
 31
0.0
  0
LINE
  5
29F
330
2
100
AcDbEntity
  8
0
100
AcDbLine
 10
7.767318553359892
 20
7.847976301692819
 30
0.0
 11
7.582766560092522
 21
7.28764973639657
 31
0.0
  0
LINE
  5
2A0
330
2
100
AcDbEntity
  8
0
100
AcDbLine
 10
7.582766560092522
 20
7.28764973639657
 30
0.0
 11
6.769994274992776
 21
7.348847789957881
 31
0.0
  0
ARC
  5
2A1
330
2
100
AcDbEntity
  8
0
100
AcDbCircle
 10
8.102790128997746
 20
7.6118606257999
 30
0.0
 40
0.0498234171838027
100
AcDbArc
 50
226.9690139197049
 51
295.3354855813935
  0
LINE
  5
2A2
330
2
100
AcDbEntity
  8
0
100
AcDbLine
 10
7.981744782766165
 20
7.650824649437776
 30
0.0
 11
8.068790938862068
 21
7.575440466960014
 31
0.0
  0
ARC
  5
2A3
330
2
100
AcDbEntity
  8
0
100
AcDbCircle
 10
8.124735412347606
 20
7.766397669591505
 30
0.0
 40
0.1838571269597997
100
AcDbArc
 50
158.4468754029974
 51
218.9470807937982
  0
ARC
  5
2A4
330
2
100
AcDbEntity
  8
0
100
AcDbCircle
 10
7.949052975321284
 20
8.045210556768555
 30
0.0
 40
0.0705445123980739
100
AcDbArc
 50
341.0408574851015
 51
24.40699054409735
  0
ARC
  5
2A5
330
2
100
AcDbEntity
  8
0
100
AcDbCircle
 10
8.14175431832583
 20
8.132659844354204
 30
0.0
 40
0.1410711427901012
100
AcDbArc
 50
161.0380058708977
 51
204.4098498788006
  0
LINE
  5
2A6
330
2
100
AcDbEntity
  8
0
100
AcDbLine
 10
7.582766560092522
 20
7.28764973639657
 30
0.0
 11
7.646056773696872
 21
7.232838803601103
 31
0.0
  0
LINE
  5
2A7
330
2
100
AcDbEntity
  8
0
100
AcDbLine
 10
5.796812172755064
 20
7.372077971328016
 30
0.0
 11
5.710615098425039
 21
7.446726827428724
 31
0.0
  0
LINE
  5
2A8
330
2
100
AcDbEntity
  8
0
100
AcDbLine
 10
5.710615098425039
 20
7.446726827428724
 30
0.0
 11
6.747087414267039
 21
7.368685713272338
 31
0.0
  0
LINE
  5
2A9
330
2
100
AcDbEntity
  8
0
100
AcDbLine
 10
6.747087414267039
 20
7.368685713272338
 30
0.0
 11
6.769994274992776
 21
7.348847789957881
 31
0.0
  0
ARC
  5
2AA
330
2
100
AcDbEntity
  8
0
100
AcDbCircle
 10
7.61486692639739
 20
7.202356333677196
 30
0.0
 40
0.0436117822106585
100
AcDbArc
 50
6.36813634549947
 51
44.34285004420472
  0
ARC
  5
2AB
330
2
100
AcDbEntity
  8
0
100
AcDbCircle
 10
7.938315280049244
 20
7.78043324400045
 30
0.0
 40
0.1838530532278931
100
AcDbArc
 50
158.446168294299
 51
218.9478017275991
  0
LINE
  5
2AC
330
2
100
AcDbEntity
  8
0
100
AcDbLine
 10
7.882375429020264
 20
7.589476802977532
 30
0.0
 11
7.795329272915285
 21
7.664860985455302
 31
0.0
  0
ARC
  5
2AD
330
2
100
AcDbEntity
  8
0
100
AcDbCircle
 10
7.917404014011732
 20
7.627556419084289
 30
0.0
 40
0.051740302753701
100
AcDbArc
 50
227.3897431828998
 51
264.8561861738975
  0
ARC
  5
2AE
330
2
100
AcDbEntity
  8
0
100
AcDbCircle
 10
7.142565340939311
 20
8.20789381870427
 30
0.0
 40
0.1410711427901326
100
AcDbArc
 50
161.0380058708977
 51
204.4098498788006
  0
ARC
  5
2AF
330
2
100
AcDbEntity
  8
0
100
AcDbCircle
 10
5.765686932295171
 20
7.341637969018449
 30
0.0
 40
0.0435358970799454
100
AcDbArc
 50
6.491114374099543
 51
44.3623084815001
  0
ARC
  5
2B0
330
2
100
AcDbEntity
  8
0
100
AcDbCircle
 10
6.949869779819421
 20
8.120444806193868
 30
0.0
 40
0.0705391335901792
100
AcDbArc
 50
341.0391203479005
 51
24.40872768130068
  0
ELLIPSE
  5
2B1
330
2
100
AcDbEntity
  8
0
100
AcDbEllipse
 10
8.156296832585372
 20
8.961438977901746
 30
0.0
 11
0.2212585737854919
 21
0.7891737841656554
 31
0.0
210
0.0
220
0.0
230
1.0
 40
0.033449368
 41
2.272263534317461
 42
2.34174625460599
  0
SPLINE
  5
2B2
330
2
100
AcDbEntity
  8
0
100
AcDbSpline
210
0.0
220
0.0
230
1.0
 70
     8
 71
     3
 72
    11
 73
     7
 74
     0
 42
0.000000001
 43
0.0000000001
 40
0.0
 40
0.0
 40
0.0
 40
0.0
 40
0.2517137385180087
 40
0.5017633876615959
 40
0.7884835531649208
 40
1.0
 40
1.0
 40
1.0
 40
1.0
 10
7.975240211238737
 20
8.501110254221796
 30
0.0
 10
7.978256951844972
 20
8.498929611301184
 30
0.0
 10
7.984270489267381
 20
8.494582741775557
 30
0.0
 10
7.991209451151384
 20
8.48293488717114
 30
0.0
 10
7.995067101978241
 20
8.470120052310342
 30
0.0
 10
7.993858507125366
 20
8.461477059342071
 30
0.0
 10
7.993345422212268
 20
8.45780784853464
 30
0.0
  0
ARC
  5
2B3
330
2
100
AcDbEntity
  8
0
100
AcDbCircle
 10
5.758273852149592
 20
7.485250796559215
 30
0.0
 40
0.0612817509885402
100
AcDbArc
 50
158.4451304928023
 51
218.9496259357014
  0
LINE
  5
2B4
330
2
100
AcDbEntity
  8
0
100
AcDbLine
 10
7.766105407198583
 20
8.562172473756181
 30
0.0
 11
7.356610644666853
 21
8.593005450297196
 31
0.0
  0
LINE
  5
2B5
330
2
100
AcDbEntity
  8
0
100
AcDbLine
 10
7.766105407198583
 20
8.562172473756181
 30
0.0
 11
7.969597634370745
 21
8.503429530982362
 31
0.0
  0
ARC
  5
2B6
330
2
100
AcDbEntity
  8
0
100
AcDbCircle
 10
7.961980292099909
 20
8.476873710015979
 30
0.0
 40
0.0276267176947232
100
AcDbArc
 50
61.31673829750064
 51
73.99485028310414
  0
ELLIPSE
  5
2B7
330
2
100
AcDbEntity
  8
0
100
AcDbEllipse
 10
6.794647969750483
 20
8.480336970746764
 30
0.0
 11
0.0425194352117677
 21
-0.0173270946642831
 31
0.0
210
0.0
220
0.0
230
1.0
 40
0.2713924154000001
 41
1.896947681047104
 42
2.246013531439856
  0
LINE
  5
2B8
330
2
100
AcDbEntity
  8
0
100
AcDbLine
 10
6.828788278308753
 20
8.483639129735543
 30
0.0
 11
6.78547966382259
 21
8.496819878510233
 31
0.0
  0
LINE
  5
2B9
330
2
100
AcDbEntity
  8
0
100
AcDbLine
 10
6.461334622006527
 20
8.538570277876115
 30
0.0
 11
6.64037157680775
 21
8.383519726807548
 31
0.0
  0
ELLIPSE
  5
2BA
330
2
100
AcDbEntity
  8
0
100
AcDbEllipse
 10
6.497463725138162
 20
8.532258369991042
 30
0.0
 11
0.0425194352111479
 21
-0.0173270946640279
 31
0.0
210
0.0
220
0.0
230
1.0
 40
0.2713924153999999
 41
2.246013531444893
 42
3.816809858235645
  0
LINE
  5
2BB
330
2
100
AcDbEntity
  8
0
100
AcDbLine
 10
6.474556958449929
 20
8.552096403405167
 30
0.0
 11
6.77174055620801
 21
8.500174880775187
 31
0.0
  0
LINE
  5
2BC
330
2
100
AcDbEntity
  8
0
100
AcDbLine
 10
5.865386006305161
 20
7.843417286916309
 30
0.0
 11
5.85938396939751
 21
7.825194122617144
 31
0.0
  0
LINE
  5
2BD
330
2
100
AcDbEntity
  8
0
100
AcDbLine
 10
5.863478739650739
 20
7.843560943240078
 30
0.0
 11
5.865386006305161
 21
7.843417286916309
 31
0.0
  0
LWPOLYLINE
  5
2BE
330
2
100
AcDbEntity
  8
0
100
AcDbPolyline
 90
        9
 70
   128
 43
0.0
 10
5.859122651398922
 20
7.85336246202914
 10
5.858523157164123
 20
7.851624007643376
 10
5.85826656889977
 20
7.849893642032034
 10
5.858363528519019
 20
7.848248339405758
 10
5.858809306287768
 20
7.846761375582961
 10
5.859584983241891
 20
7.845499269826987
 10
5.860655086352092
 20
7.844518441685082
 10
5.861972318249248
 20
7.843862437851504
 10
5.863478739650739
 20
7.843560943240078
  0
LINE
  5
2BF
330
2
100
AcDbEntity
  8
0
100
AcDbLine
 10
6.063261670175005
 20
8.31293877901929
 30
0.0
 11
5.859122651398922
 21
7.85336246202914
 31
0.0
  0
ARC
  5
2C0
330
2
100
AcDbEntity
  8
0
100
AcDbCircle
 10
6.093021858119979
 20
8.300858735378454
 30
0.0
 40
0.0321184719560472
100
AcDbArc
 50
90.72684154310181
 51
157.9071328554996
  0
LINE
  5
2C1
330
2
100
AcDbEntity
  8
0
100
AcDbLine
 10
6.229554511734983
 20
8.322663848009989
 30
0.0
 11
6.092614421241824
 21
8.332974622976957
 31
0.0
  0
LINE
  5
2C2
330
2
100
AcDbEntity
  8
0
100
AcDbLine
 10
6.735597406318063
 20
8.397626263630417
 30
0.0
 11
6.229554511734983
 21
8.322663848009989
 31
0.0
  0
ARC
  5
2C3
330
2
100
AcDbEntity
  8
0
100
AcDbCircle
 10
7.262839118596739
 20
8.999187232923159
 30
0.0
 40
0.4168653735200149
100
AcDbArc
 50
248.3883789471954
 51
282.9996079636007
  0
SPLINE
  5
2C4
330
2
100
AcDbEntity
  8
0
100
AcDbSpline
210
0.0
220
0.0
230
1.0
 70
     8
 71
     3
 72
     9
 73
     5
 74
     0
 42
0.000000001
 43
0.0000000001
 40
0.0
 40
0.0
 40
0.0
 40
0.0
 40
0.3637854744933605
 40
1.0
 40
1.0
 40
1.0
 40
1.0
 10
7.138185856032058
 20
6.564675448075526
 30
0.0
 10
7.136763664335028
 20
6.572350650917934
 30
0.0
 10
7.13285424024647
 20
6.593448807333009
 30
0.0
 10
7.128108800015677
 20
6.613933969563325
 30
0.0
 10
7.12508968201102
 20
6.626966927331586
 30
0.0
  0
SPLINE
  5
2C5
330
2
100
AcDbEntity
  8
0
100
AcDbSpline
210
0.0
220
0.0
230
1.0
 70
     8
 71
     3
 72
     9
 73
     5
 74
     0
 42
0.000000001
 43
0.0000000001
 40
0.0
 40
0.0
 40
0.0
 40
0.0
 40
0.4931078804754943
 40
1.0
 40
1.0
 40
1.0
 40
1.0
 10
7.391711611588766
 20
6.545586254758465
 30
0.0
 10
7.384461586586039
 20
6.532933532482243
 30
0.0
 10
7.369758870832034
 20
6.507274396262319
 30
0.0
 10
7.361600321897563
 20
6.478535853593928
 30
0.0
 10
7.357464817735978
 20
6.463968512788669
 30
0.0
  0
SPLINE
  5
2C6
330
2
100
AcDbEntity
  8
0
100
AcDbSpline
210
0.0
220
0.0
230
1.0
 70
     8
 71
     3
 72
     9
 73
     5
 74
     0
 42
0.000000001
 43
0.0000000001
 40
0.0
 40
0.0
 40
0.0
 40
0.0
 40
0.3964137364449641
 40
1.0
 40
1.0
 40
1.0
 40
1.0
 10
7.357464817735978
 20
6.463968512788669
 30
0.0
 10
7.35166745895807
 20
6.457199063411273
 30
0.0
 10
7.337042943597285
 20
6.440122335853612
 30
0.0
 10
7.321071289634224
 20
6.42545032533132
 30
0.0
 10
7.311431018695828
 20
6.416594501321334
 30
0.0
  0
LINE
  5
2C7
330
2
100
AcDbEntity
  8
0
100
AcDbLine
 10
7.136992386693076
 20
6.42972870249989
 30
0.0
 11
7.145846901494083
 21
6.479902497160653
 31
0.0
  0
SPLINE
  5
2C8
330
2
100
AcDbEntity
  8
0
100
AcDbSpline
210
0.0
220
0.0
230
1.0
 70
     8
 71
     3
 72
     9
 73
     5
 74
     0
 42
0.000000001
 43
0.0000000001
 40
0.0
 40
0.0
 40
0.0
 40
0.0
 40
0.3822979274184181
 40
1.0
 40
1.0
 40
1.0
 40
1.0
 10
7.145846901498515
 20
6.479902497164243
 30
0.0
 10
7.146385192595639
 20
6.491078577307282
 30
0.0
 10
7.147793233441547
 20
6.520312531617459
 30
0.0
 10
7.141854329379826
 20
6.54773594734398
 30
0.0
 10
7.138185856032058
 20
6.564675448075526
 30
0.0
  0
LINE
  5
2C9
330
2
100
AcDbEntity
  8
0
100
AcDbLine
 10
7.12508968201102
 20
6.62696692733216
 30
0.0
 11
7.12803300555309
 21
6.65510658594057
 31
0.0
  0
ARC
  5
2CA
330
2
100
AcDbEntity
  8
0
100
AcDbCircle
 10
7.232397599932884
 20
6.348086715906583
 30
0.0
 40
0.3242732939311798
100
AcDbArc
 50
62.61379871470386
 51
108.7743259455002
  0
LINE
  5
2CB
330
2
100
AcDbEntity
  8
0
100
AcDbLine
 10
7.311026295774156
 20
6.342580445899226
 30
0.0
 11
7.308934569358695
 21
6.341072719308387
 31
0.0
  0
LWPOLYLINE
  5
2CC
330
2
100
AcDbEntity
  8
0
100
AcDbPolyline
 90
        9
 70
   128
 43
0.0
 10
7.169302075779457
 20
6.351586724252333
 10
7.16976936488628
 20
6.360499765503924
 10
7.177462308337301
 20
6.366889076224396
 10
7.191753291002912
 20
6.37023441648739
 10
7.211481942267002
 20
6.370264174914032
 10
7.235041031246916
 20
6.366975385528094
 10
7.260515316800953
 20
6.360635701387019
 10
7.285833576387823
 20
6.351761040599956
 10
7.308934569358695
 20
6.341072719308387
  0
LINE
  5
2CD
330
2
100
AcDbEntity
  8
0
100
AcDbLine
 10
7.169302075779457
 20
6.351586724252333
 30
0.0
 11
7.168280452474283
 21
6.35332869803584
 31
0.0
  0
LINE
  5
2CE
330
2
100
AcDbEntity
  8
0
100
AcDbLine
 10
7.168280452474283
 20
6.35332869803584
 30
0.0
 11
7.136992386693076
 21
6.42972870249989
 31
0.0
  0
LINE
  5
2CF
330
2
100
AcDbEntity
  8
0
100
AcDbLine
 10
7.311431018697868
 20
6.416594501324095
 30
0.0
 11
7.311026295774156
 21
6.342580445899226
 31
0.0
  0
LINE
  5
2D0
330
2
100
AcDbEntity
  8
0
100
AcDbLine
 10
7.109302129083531
 20
8.611626744108011
 30
0.0
 11
6.927234430451975
 21
8.625335496699491
 31
0.0
  0
LINE
  5
2D1
330
2
100
AcDbEntity
  8
0
100
AcDbLine
 10
7.309956192663881
 20
6.340995908744658
 30
0.0
 11
7.348897898567624
 21
6.307271402169559
 31
0.0
  0
LINE
  5
2D2
330
2
100
AcDbEntity
  8
0
100
AcDbLine
 10
7.309956192663881
 20
6.340995908744658
 30
0.0
 11
7.311026295774156
 21
6.342580445899226
 31
0.0
  0
LINE
  5
2D3
330
2
100
AcDbEntity
  8
0
100
AcDbLine
 10
7.404396405907196
 20
6.624983922276065
 30
0.0
 11
7.381558761109285
 21
6.636017466525018
 31
0.0
  0
LINE
  5
2D4
330
2
100
AcDbEntity
  8
0
100
AcDbLine
 10
7.404396405907196
 20
6.624983922276065
 30
0.0
 11
7.391711611585359
 21
6.545586254760859
 31
0.0
  0
LWPOLYLINE
  5
2D5
330
2
100
AcDbEntity
  8
0
100
AcDbPolyline
 90
        9
 70
   128
 43
0.0
 10
7.347876275262438
 20
6.307348212733288
 10
7.347408986155699
 20
6.298435171481655
 10
7.339716042704666
 20
6.292045860761183
 10
7.325425060038981
 20
6.288700520498188
 10
7.305697591210723
 20
6.28867102950503
 10
7.282137319794978
 20
6.29195955145752
 10
7.256663034240942
 20
6.298299235598559
 10
7.23134477465407
 20
6.307173896385665
 10
7.208243781683199
 20
6.317862217677228
  0
LINE
  5
2D6
330
2
100
AcDbEntity
  8
0
100
AcDbLine
 10
7.207222158378012
 20
6.317939028240957
 30
0.0
 11
7.208243781683199
 21
6.317862217677228
 31
0.0
  0
LINE
  5
2D7
330
2
100
AcDbEntity
  8
0
100
AcDbLine
 10
7.168280452474283
 20
6.351663534816056
 30
0.0
 11
7.207222158378012
 21
6.317939028240957
 31
0.0
  0
LINE
  5
2D8
330
2
100
AcDbEntity
  8
0
100
AcDbLine
 10
7.168280452474283
 20
6.351663534816056
 30
0.0
 11
7.169302075779457
 21
6.351586724252333
 31
0.0
  0
LINE
  5
2D9
330
2
100
AcDbEntity
  8
0
100
AcDbLine
 10
7.308934569358695
 20
6.341072719308387
 30
0.0
 11
7.309956192663881
 21
6.340995908744658
 31
0.0
  0
LINE
  5
2DA
330
2
100
AcDbEntity
  8
0
100
AcDbLine
 10
7.347876275262438
 20
6.307348212733288
 30
0.0
 11
7.348897898567624
 21
6.307271402169559
 31
0.0
  0
LINE
  5
2DB
330
2
100
AcDbEntity
  8
0
100
AcDbLine
 10
6.927234430451975
 20
8.625335496699491
 30
0.0
 11
6.834519947324777
 21
8.645714395412397
 31
0.0
  0
LWPOLYLINE
  5
2DC
330
2
100
AcDbEntity
  8
0
100
AcDbPolyline
 90
        3
 70
   128
 43
0.0
 10
7.412948856173157
 20
6.328677475134153
 10
7.404255434986803
 20
6.32160882777706
 10
7.402543218915194
 20
6.320774997828186
  0
LINE
  5
2DD
330
2
100
AcDbEntity
  8
0
100
AcDbLine
 10
7.536685022138454
 20
6.470985532112862
 30
0.0
 11
7.524018023398826
 21
6.461778562197157
 31
0.0
  0
ARC
  5
2DE
330
2
100
AcDbEntity
  8
0
100
AcDbCircle
 10
6.812055211945246
 20
8.545889906209319
 30
0.0
 40
0.102321029024882
100
AcDbArc
 50
77.3173082077964
 51
85.32930291050437
  0
LINE
  5
2DF
330
2
100
AcDbEntity
  8
0
100
AcDbLine
 10
6.820387089063222
 20
8.647871143722159
 30
0.0
 11
6.513707360787327
 21
8.670962728636943
 31
0.0
  0
LINE
  5
2E0
330
2
100
AcDbEntity
  8
0
100
AcDbLine
 10
7.168280452474283
 20
6.35332869803584
 30
0.0
 11
7.168280452474283
 21
6.351663534816056
 31
0.0
  0
SPLINE
  5
2E1
330
2
100
AcDbEntity
  8
0
100
AcDbSpline
210
0.0
220
0.0
230
1.0
 70
     8
 71
     3
 72
     9
 73
     5
 74
     0
 42
0.000000001
 43
0.0000000001
 40
0.0
 40
0.0
 40
0.0
 40
0.0
 40
0.690265050481048
 40
1.0
 40
1.0
 40
1.0
 40
1.0
 10
7.549470440722263
 20
6.490601686392585
 30
0.0
 10
7.545279453798602
 20
6.496340396562448
 30
0.0
 10
7.539207891982153
 20
6.50465417424229
 30
0.0
 10
7.533028267809266
 20
6.51273893978527
 30
0.0
 10
7.531114222228026
 20
6.51524307423263
 30
0.0
  0
LINE
  5
2E2
330
2
100
AcDbEntity
  8
0
100
AcDbLine
 10
7.536685022138454
 20
6.470985532112862
 30
0.0
 11
7.549470440725377
 21
6.49060168639251
 31
0.0
  0
LWPOLYLINE
  5
2E3
330
2
100
AcDbEntity
  8
0
100
AcDbPolyline
 90
        6
 70
   128
 43
0.0
 10
6.513707360787327
 20
8.670962728636943
 10
6.506873181637838
 20
8.671128796310814
 10
6.501182657463454
 20
8.670526625725534
 10
6.496854023964639
 20
8.669178717742177
 10
6.494053085825757
 20
8.667136976032663
 10
6.493100222436074
 20
8.665456781873423
  0
ARC
  5
2E4
330
2
100
AcDbEntity
  8
0
100
AcDbCircle
 10
7.573011961304414
 20
5.923059385018067
 30
0.0
 40
0.0269842751504117
100
AcDbArc
 50
206.3093621142016
 51
267.201958473101
  0
ARC
  5
2E5
330
2
100
AcDbEntity
  8
0
100
AcDbCircle
 10
7.811997428821932
 20
6.031587536505119
 30
0.0
 40
0.2894446686215515
100
AcDbArc
 50
168.1565985803998
 51
204.5995217088995
  0
LINE
  5
2E6
330
2
100
AcDbEntity
  8
0
100
AcDbLine
 10
7.59467650156809
 20
6.291265693990611
 30
0.0
 11
7.528714399646501
 21
6.090992431722792
 31
0.0
  0
LINE
  5
2E7
330
2
100
AcDbEntity
  8
0
100
AcDbLine
 10
7.968655665053564
 20
6.057866976289757
 30
0.0
 11
8.034617766975152
 21
6.258140238557534
 31
0.0
  0
ARC
  5
2E8
330
2
100
AcDbEntity
  8
0
100
AcDbCircle
 10
7.534328256067893
 20
6.267704732389983
 30
0.0
 40
0.4823610495082824
100
AcDbArc
 50
308.3912028773998
 51
334.2132946608986
  0
ARC
  5
2E9
330
2
100
AcDbEntity
  8
0
100
AcDbCircle
 10
7.804012120249315
 20
5.924997098900384
 30
0.0
 40
0.0462924489452736
100
AcDbArc
 50
268.1090752518036
 51
310.1931445754983
  0
LINE
  5
2EA
330
2
100
AcDbEntity
  8
0
100
AcDbLine
 10
7.571694706949331
 20
5.896107280341308
 30
0.0
 11
7.802484614237831
 21
5.87872985827522
 31
0.0
  0
ARC
  5
2EB
330
2
100
AcDbEntity
  8
0
100
AcDbCircle
 10
7.631988923869523
 20
6.192920561265633
 30
0.0
 40
0.2867084538090889
100
AcDbArc
 50
305.8579809468014
 51
16.63386199700172
  0
ARC
  5
2EC
330
2
100
AcDbEntity
  8
0
100
AcDbCircle
 10
7.901049047385157
 20
6.059798960496754
 30
0.0
 40
0.2875597791680013
100
AcDbArc
 50
126.1985519929036
 51
197.4443547745024
  0
ARC
  5
2ED
330
2
100
AcDbEntity
  8
0
100
AcDbCircle
 10
7.636545455263273
 20
5.978040769574739
 30
0.0
 40
0.0107896323274645
100
AcDbArc
 50
204.3362626065007
 51
267.2102901677973
  0
LINE
  5
2EE
330
2
100
AcDbEntity
  8
0
100
AcDbLine
 10
7.663047222332981
 20
5.965228729935991
 30
0.0
 11
7.636020319692629
 21
5.967263924102246
 31
0.0
  0
LINE
  5
2EF
330
2
100
AcDbEntity
  8
0
100
AcDbLine
 10
7.787011277933221
 20
5.955895034881936
 30
0.0
 11
7.663047222332981
 21
5.965228729935991
 31
0.0
  0
ARC
  5
2F0
330
2
100
AcDbEntity
  8
0
100
AcDbCircle
 10
7.787587727977759
 20
5.974561609128268
 30
0.0
 40
0.0186754729189848
100
AcDbArc
 50
268.2311879514997
 51
311.3935721910029
  0
ARC
  5
2F1
330
2
100
AcDbEntity
  8
0
100
AcDbCircle
 10
7.557235148789935
 20
6.247866781358227
 30
0.0
 40
0.4823610495083219
100
AcDbArc
 50
308.3912028773998
 51
334.2132946608986
  0
ARC
  5
2F2
330
2
100
AcDbEntity
  8
0
100
AcDbCircle
 10
7.826919012980493
 20
5.905159147868621
 30
0.0
 40
0.0462924489452736
100
AcDbArc
 50
268.1090752518036
 51
310.1931445754983
  0
LINE
  5
2F3
330
2
100
AcDbEntity
  8
0
100
AcDbLine
 10
7.991562557775606
 20
6.038029025267136
 30
0.0
 11
8.057524659706416
 21
6.238302287534949
 31
0.0
  0
LINE
  5
2F4
330
2
100
AcDbEntity
  8
0
100
AcDbLine
 10
7.594601599680521
 20
5.876269329318686
 30
0.0
 11
7.825391506959872
 21
5.8588919072526
 31
0.0
  0
ARC
  5
2F5
330
2
100
AcDbEntity
  8
0
100
AcDbCircle
 10
7.596293044068739
 20
5.904309360918506
 30
0.0
 40
0.0280910013336905
100
AcDbArc
 50
229.8492770627067
 51
266.5479592276035
  0
ARC
  5
2F6
330
2
100
AcDbEntity
  8
0
100
AcDbCircle
 10
7.929853240017552
 20
6.037179291873311
 30
0.0
 40
0.2940280266049405
100
AcDbArc
 50
124.0986910639975
 51
193.8826501116993
  0
LINE
  5
2F7
330
2
100
AcDbEntity
  8
0
100
AcDbLine
 10
7.777220312732653
 20
6.284741556676546
 30
0.0
 11
7.90669924227678
 21
6.274992095026403
 31
0.0
  0
ARC
  5
2F8
330
2
100
AcDbEntity
  8
0
100
AcDbCircle
 10
7.776577116366583
 20
6.266389649828893
 30
0.0
 40
0.0183631747363332
100
AcDbArc
 50
87.99272310400047
 51
129.0223704634997
  0
LINE
  5
2F9
330
2
100
AcDbEntity
  8
0
100
AcDbLine
 10
11.35188735466551
 20
8.636907323979936
 30
0.0
 11
11.34925584695166
 21
8.639965679851261
 31
0.0
  0
LINE
  5
2FA
330
2
100
AcDbEntity
  8
0
100
AcDbLine
 10
22.38179148658064
 20
11.82096638382474
 30
0.0
 11
22.37915997886685
 21
11.82402473969605
 31
0.0
  0
LWPOLYLINE
  5
2FB
330
2
100
AcDbEntity
  8
0
100
AcDbPolyline
 90
       12
 70
   128
 43
0.0
 10
22.45763080873973
 20
11.74564852237403
 10
22.46203995873546
 20
11.74198356226861
 10
22.51872778440608
 20
11.71422605418
 10
22.58667031610764
 20
11.71051459917076
 10
22.65850527399619
 20
11.7312515653078
 10
22.72644795351142
 20
11.77418970195219
 10
22.78313563136843
 20
11.83467589878528
 10
22.82242556096923
 20
11.90615565027564
 10
22.84006009171704
 20
11.98088303928238
 10
22.83412781842278
 20
12.05075999443677
 10
22.80527228101947
 20
12.10821455944898
 10
22.78754463356884
 20
12.12660027662397
  0
LWPOLYLINE
  5
2FC
330
2
100
AcDbEntity
  8
0
100
AcDbPolyline
 90
       12
 70
   128
 43
0.0
 10
11.42772697243347
 20
8.561589547862
 10
11.43213567901581
 20
8.557924459752864
 10
11.48882394809983
 20
8.530167079668007
 10
11.5567660363972
 20
8.526455496655007
 10
11.62860128988553
 20
8.547192548124817
 10
11.69654396940077
 20
8.590130684778381
 10
11.7532316472577
 20
8.650616881602338
 10
11.79252157685859
 20
8.72209663309265
 10
11.81015581199745
 20
8.796823936766596
 10
11.80422412992106
 20
8.866701062595771
 10
11.77536800129981
 20
8.924155456942376
 10
11.75764094506712
 20
8.942541344773747
  0
LWPOLYLINE
  5
2FD
330
2
100
AcDbEntity
  8
0
100
AcDbPolyline
 90
       19
 70
   128
 43
0.0
 10
22.34539339830041
 20
11.87336668984058
 10
22.34768333028418
 20
11.81724102952266
 10
22.36995448184641
 20
11.74782172141119
 10
22.41269239009658
 20
11.69365743131574
 10
22.47243488718279
 20
11.65913647971326
 10
22.54434182576105
 20
11.64705543556317
 10
22.62258794286102
 20
11.65839309373594
 10
22.70083376434277
 20
11.69223076699244
 10
22.77274085072556
 20
11.74582734416062
 10
22.83248334781177
 20
11.81484064253954
 10
22.87522125606189
 20
11.89367967547078
 10
22.8974924076241
 20
11.97595723892644
 10
22.8974924076241
 20
12.0550078548081
 10
22.87522125606189
 20
12.12442716291954
 10
22.83248334781177
 20
12.17859137910819
 10
22.77274085072556
 20
12.21311247851516
 10
22.70083376434277
 20
12.22519340610578
 10
22.62258794286102
 20
12.21385590716343
 10
22.62258794286102
 20
12.21385590716343
  0
LWPOLYLINE
  5
2FE
330
2
100
AcDbEntity
  8
0
100
AcDbPolyline
 90
       19
 70
   128
 43
0.0
 10
11.31548911858989
 20
8.689307587324794
 10
11.317779493978
 20
8.633182055010671
 10
11.34005064554022
 20
8.563762746899195
 10
11.38278855379947
 20
8.509598456803743
 10
11.44253105087661
 20
8.475077505201268
 10
11.51443784165039
 20
8.462996418380187
 10
11.59268366314136
 20
8.474333991220195
 10
11.67092948463233
 20
8.508171664476684
 10
11.74283686661484
 20
8.561768326977642
 10
11.80257936370112
 20
8.630781625356554
 10
11.84531727196038
 20
8.709620658287795
 10
11.86758842351345
 20
8.791898221743455
 10
11.86758842351345
 20
8.870948837634292
 10
11.84531727196038
 20
8.940368145736588
 10
11.80257936370112
 20
8.994532361934416
 10
11.74283686661484
 20
9.029053461341325
 10
11.67092948463233
 20
9.04113430359003
 10
11.59268366314136
 20
9.029796804647684
 10
11.59268366314136
 20
9.029796804647684
  0
ARC
  5
2FF
330
2
100
AcDbEntity
  8
0
100
AcDbCircle
 10
25.44239139196661
 20
11.46228868047242
 30
0.0
 40
0.5582634198579328
100
AcDbArc
 50
8.749285570098944
 51
43.73463283130223
  0
LINE
  5
300
330
2
100
AcDbEntity
  8
0
100
AcDbLine
 10
25.84576429392609
 20
11.84822695003571
 30
0.0
 11
25.57088145319369
 21
12.08628247317633
 31
0.0
  0
ARC
  5
301
330
2
100
AcDbEntity
  8
0
100
AcDbCircle
 10
25.69877064693573
 20
12.20383779790236
 30
0.0
 40
0.17370924053733
100
AcDbArc
 50
179.5143540286999
 51
222.5891186933038
  0
LINE
  5
302
330
2
100
AcDbEntity
  8
0
100
AcDbLine
 10
25.52506764640046
 20
12.64174521270619
 30
0.0
 11
25.52506764640046
 21
12.20531016084903
 31
0.0
  0
LWPOLYLINE
  5
303
330
2
100
AcDbEntity
  8
0
100
AcDbPolyline
 90
        9
 70
   128
 43
0.0
 10
25.57088145319369
 20
12.68142120713035
 10
25.56194365157189
 20
12.68763682125392
 10
25.55334932271959
 20
12.69056415927106
 10
25.54542871252257
 20
12.6900907421105
 10
25.53848621038312
 20
12.68623467578884
 10
25.532788743723
 20
12.67914406022018
 10
25.52855502576005
 20
12.66909174213425
 10
25.52594796072517
 20
12.65646363855891
 10
25.52506764640046
 20
12.64174521270619
  0
LINE
  5
304
330
2
100
AcDbEntity
  8
0
100
AcDbLine
 10
25.57088145319369
 20
12.68142120713035
 30
0.0
 11
25.66250906677115
 21
12.60206936608649
 31
0.0
  0
LWPOLYLINE
  5
305
330
2
100
AcDbEntity
  8
0
100
AcDbPolyline
 90
       11
 70
   128
 43
0.0
 10
25.66250906677115
 20
12.60206936608649
 10
25.71732885772881
 20
12.56612306530088
 10
25.76896275735945
 20
12.55532403991122
 10
25.81440996563113
 20
12.57029994084611
 10
25.85102919822929
 20
12.61018034861767
 10
25.87669228931299
 20
12.67264761792507
 10
25.88990792701847
 20
12.75407123181627
 10
25.88990792701847
 20
12.84971923568855
 10
25.87669228931299
 20
12.95403300553133
 10
25.85102919822929
 20
13.06095005246912
 10
25.8096948376275
 20
13.17755871299885
  0
LWPOLYLINE
  5
306
330
2
100
AcDbEntity
  8
0
100
AcDbPolyline
 90
        3
 70
   128
 43
0.0
 10
25.73172487260607
 20
13.31465935876881
 10
25.71732885772881
 20
13.33658311852844
 10
25.64877580995409
 20
13.41036922637992
  0
LINE
  5
307
330
2
100
AcDbEntity
  8
0
100
AcDbLine
 10
25.64688452142127
 20
13.40911888194459
 30
0.0
 11
25.64676114399573
 21
13.40922572992936
 31
0.0
  0
LINE
  5
308
330
2
100
AcDbEntity
  8
0
100
AcDbLine
 10
25.59098328010789
 20
13.45753077702916
 30
0.0
 11
25.57088145319369
 21
13.47493946980083
 31
0.0
  0
ARC
  5
309
330
2
100
AcDbEntity
  8
0
100
AcDbCircle
 10
25.6987710173586
 20
13.59249493800649
 30
0.0
 40
0.1737096103566956
100
AcDbArc
 50
179.514378016001
 51
222.5890708546995
  0
LINE
  5
30A
330
2
100
AcDbEntity
  8
0
100
AcDbLine
 10
25.52506764640046
 20
15.30003159218007
 30
0.0
 11
25.52506764640046
 21
13.59396723137111
 31
0.0
  0
LINE
  5
30B
330
2
100
AcDbEntity
  8
0
100
AcDbLine
 10
28.09064048526529
 20
13.09297200441301
 30
0.0
 11
28.0906404852653
 21
10.13975463550828
 31
0.0
  0
ARC
  5
30C
330
2
100
AcDbEntity
  8
0
100
AcDbCircle
 10
25.65909465251157
 20
12.19238432487314
 30
0.0
 40
0.1737092405373196
100
AcDbArc
 50
179.5143540286999
 51
222.5891186933038
  0
LINE
  5
30D
330
2
100
AcDbEntity
  8
0
100
AcDbLine
 10
25.4853916519763
 20
12.63029173966779
 30
0.0
 11
25.4853916519763
 21
12.19385668781062
 31
0.0
  0
LINE
  5
30E
330
2
100
AcDbEntity
  8
0
100
AcDbLine
 10
25.53120545876952
 20
12.07482900014711
 30
0.0
 11
25.80608829950193
 21
11.83677347700647
 31
0.0
  0
ARC
  5
30F
330
2
100
AcDbEntity
  8
0
100
AcDbCircle
 10
8.182247176584517
 20
7.40464672831411
 30
0.0
 40
0.0581807771846829
100
AcDbArc
 50
177.7639509145997
 51
291.3846800217992
  0
LINE
  5
310
330
2
100
AcDbEntity
  8
0
100
AcDbLine
 10
8.124110700227728
 20
7.406916739358473
 30
0.0
 11
8.124110700227728
 21
10.30325856807538
 31
0.0
  0
LINE
  5
311
330
2
100
AcDbEntity
  8
0
100
AcDbLine
 10
25.42280879682639
 20
13.59089820861792
 30
0.0
 11
25.42280879682639
 21
15.29696256942688
 31
0.0
  0
ARC
  5
312
330
2
100
AcDbEntity
  8
0
100
AcDbCircle
 10
25.31005826749201
 20
13.59647406106347
 30
0.0
 40
0.112888316467208
100
AcDbArc
 50
287.2087967792022
 51
357.1688579939015
  0
LINE
  5
313
330
2
100
AcDbEntity
  8
0
100
AcDbLine
 10
25.34345680796893
 20
13.48863942150649
 30
0.0
 11
24.78799406844832
 21
13.32829114041006
 31
0.0
  0
ARC
  5
314
330
2
100
AcDbEntity
  8
0
100
AcDbCircle
 10
24.82139243117688
 20
13.22045663878006
 30
0.0
 40
0.1128881321263796
100
AcDbArc
 50
107.2087313155017
 51
177.1689234576004
  0
LINE
  5
315
330
2
100
AcDbEntity
  8
0
100
AcDbLine
 10
24.70864207959085
 20
13.22603235329858
 30
0.0
 11
24.70864207959085
 21
12.19445856749661
 31
0.0
  0
ARC
  5
316
330
2
100
AcDbEntity
  8
0
100
AcDbCircle
 10
24.59589271558536
 20
12.20003350910886
 30
0.0
 40
0.1128871075871198
100
AcDbArc
 50
287.2085247059999
 51
357.1692905096015
  0
LINE
  5
317
330
2
100
AcDbEntity
  8
0
100
AcDbLine
 10
24.62929038635145
 20
12.09219986571795
 30
0.0
 11
8.203461506640149
 21
7.350471503032828
 31
0.0
  0
LINE
  5
318
330
2
100
AcDbEntity
  8
0
100
AcDbLine
 10
22.96290187216218
 20
12.99981193372033
 30
0.0
 11
22.32808743939303
 21
12.81655679189819
 31
0.0
  0
LINE
  5
319
330
2
100
AcDbEntity
  8
0
100
AcDbLine
 10
22.96290187216218
 20
13.23786745686098
 30
0.0
 11
22.96290187216218
 21
12.99981193372033
 31
0.0
  0
LINE
  5
31A
330
2
100
AcDbEntity
  8
0
100
AcDbLine
 10
22.96290187216218
 20
13.23786745686098
 30
0.0
 11
22.32808743939303
 21
13.05461231503888
 31
0.0
  0
LINE
  5
31B
330
2
100
AcDbEntity
  8
0
100
AcDbLine
 10
22.32808743939303
 20
13.05461231503888
 30
0.0
 11
22.32808743939303
 21
12.81655679189819
 31
0.0
  0
LINE
  5
31C
330
2
100
AcDbEntity
  8
0
100
AcDbLine
 10
11.93299788806067
 20
9.815752916537347
 30
0.0
 11
11.29818315968252
 21
9.632497689382446
 31
0.0
  0
LINE
  5
31D
330
2
100
AcDbEntity
  8
0
100
AcDbLine
 10
11.93299788806067
 20
10.05380843967799
 30
0.0
 11
11.93299788806067
 21
9.815752916537347
 31
0.0
  0
LINE
  5
31E
330
2
100
AcDbEntity
  8
0
100
AcDbLine
 10
11.93299788806067
 20
10.05380843967799
 30
0.0
 11
11.29818315968252
 21
9.870553212523127
 31
0.0
  0
LINE
  5
31F
330
2
100
AcDbEntity
  8
0
100
AcDbLine
 10
11.29818315968252
 20
9.870553212523127
 30
0.0
 11
11.29818315968252
 21
9.632497689382446
 31
0.0
  0
LWPOLYLINE
  5
320
330
2
100
AcDbEntity
  8
0
100
AcDbPolyline
 90
        7
 70
   128
 43
0.0
 10
25.50579256946996
 20
12.67864872390548
 10
25.50575271809848
 20
12.67863726907211
 10
25.49881021595896
 20
12.67478120275962
 10
25.49311274929892
 20
12.66769058719096
 10
25.48887903133589
 20
12.657638269105
 10
25.486271966301
 20
12.64501016552969
 10
25.4853916519763
 20
12.63029173966779
  0
ARC
  5
321
330
2
100
AcDbEntity
  8
0
100
AcDbCircle
 10
25.37280327468358
 20
11.43608939920491
 30
0.0
 40
0.5901556090836995
100
AcDbArc
 50
9.722545797199263
 51
42.76137260430011
  0
ARC
  5
322
330
2
100
AcDbEntity
  8
0
100
AcDbCircle
 10
25.4959988851429
 20
15.30116570794331
 30
0.0
 40
0.0290908765732722
100
AcDbArc
 50
357.7657421884998
 51
111.3844477884984
  0
LWPOLYLINE
  5
323
330
2
100
AcDbEntity
  8
0
100
AcDbPolyline
 90
        7
 70
   128
 43
0.0
 10
8.124110700227728
 20
10.30325856807538
 10
8.124550857385511
 20
10.31061759624845
 10
8.125854347231964
 20
10.31693186973826
 10
8.12797124887982
 20
10.32195788098131
 10
8.130819982209953
 20
10.32550318876564
 10
8.134291233279595
 20
10.32743129582414
 10
8.134311116303557
 20
10.3274371340965
  0
LWPOLYLINE
  5
324
330
2
100
AcDbEntity
  8
0
100
AcDbPolyline
 90
        9
 70
   128
 43
0.0
 10
25.44571565755212
 20
15.31680034492766
 10
25.44124675674123
 20
15.31990815199401
 10
25.43694963498138
 20
15.32137200576047
 10
25.43298932988748
 20
15.32113529717564
 10
25.42951807881776
 20
15.31920719011715
 10
25.42666934548771
 20
15.31566188233282
 10
25.42455244383071
 20
15.31063587108973
 10
25.42324895398418
 20
15.30432159759995
 10
25.42280879682639
 20
15.29696256942688
  0
LINE
  5
325
330
2
100
AcDbEntity
  8
0
100
AcDbLine
 10
25.44571565755212
 20
15.31680034492766
 30
0.0
 11
25.4853916519763
 21
15.32825381796601
 31
0.0
  0
ARC
  5
326
330
2
100
AcDbEntity
  8
0
100
AcDbCircle
 10
26.2785093720215
 20
11.28139064946965
 30
0.0
 40
0.2962346763199176
100
AcDbArc
 50
57.13646885050123
 51
107.6021069081028
  0
LINE
  5
327
330
2
100
AcDbEntity
  8
0
100
AcDbLine
 10
26.43925813327149
 20
11.53021753549966
 30
0.0
 11
28.68413423926872
 21
9.586097799354551
 31
0.0
  0
LWPOLYLINE
  5
328
330
2
100
AcDbEntity
  8
0
100
AcDbPolyline
 90
        9
 70
   128
 43
0.0
 10
28.61705787514961
 20
9.46093206618462
 10
28.64625937609963
 20
9.471394713703801
 10
28.67081649352674
 20
9.484504600213519
 10
28.68978702686409
 20
9.499758077227383
 10
28.70244145573561
 20
9.516569028900564
 10
28.7082931402571
 20
9.534291188096213
 10
28.70711773882053
 20
9.552243646113939
 10
28.69896042958628
 20
9.569736684607761
 10
28.68413423926872
 20
9.586097799354551
  0
LINE
  5
329
330
2
100
AcDbEntity
  8
0
100
AcDbLine
 10
28.61705787514961
 20
9.46093206618462
 30
0.0
 11
27.99811378102645
 21
9.282258296502163
 31
0.0
  0
LINE
  5
32A
330
2
100
AcDbEntity
  8
0
100
AcDbLine
 10
26.18892654198824
 20
11.56375548441741
 30
0.0
 11
25.56998244786508
 21
11.3850817147441
 31
0.0
  0
LWPOLYLINE
  5
32B
330
2
100
AcDbEntity
  8
0
100
AcDbPolyline
 90
        9
 70
   128
 43
0.0
 10
27.03363323589201
 20
10.51152146656058
 10
26.97987518739273
 20
10.48794912166936
 10
26.94825022519293
 20
10.45588469298232
 10
26.94357342822379
 20
10.42020983813277
 10
26.96655745231611
 20
10.38635591330143
 10
27.01370215811504
 20
10.35947657650547
 10
27.07783121775705
 20
10.34366426156768
 10
27.14918091846749
 20
10.34132605756266
 10
27.216888441716
 20
10.35281780294504
  0
LINE
  5
32C
330
2
100
AcDbEntity
  8
0
100
AcDbLine
 10
27.216888441716
 20
10.35281780294504
 30
0.0
 11
27.37559241942173
 21
10.39863169507112
 31
0.0
  0
LWPOLYLINE
  5
32D
330
2
100
AcDbEntity
  8
0
100
AcDbPolyline
 90
        9
 70
   128
 43
0.0
 10
27.37559241942173
 20
10.39863169507112
 10
27.42935105913895
 20
10.4222042106279
 10
27.46097543013001
 20
10.45426846864938
 10
27.46565222708994
 20
10.48994332349892
 10
27.44266820299762
 20
10.52379724833023
 10
27.39552349719875
 20
10.55067658512623
 10
27.33139443755675
 20
10.56648890006401
 10
27.26004532806419
 20
10.56882727474375
 10
27.1923372135978
 20
10.55733535868665
  0
LINE
  5
32E
330
2
100
AcDbEntity
  8
0
100
AcDbLine
 10
27.1923372135978
 20
10.55733535868665
 30
0.0
 11
27.03363323589201
 21
10.51152146656058
 31
0.0
  0
ARC
  5
32F
330
2
100
AcDbEntity
  8
0
100
AcDbCircle
 10
26.2785093720215
 20
11.32106656537813
 30
0.0
 40
0.2962346763199617
100
AcDbArc
 50
57.13646885050123
 51
107.6021069081028
  0
LINE
  5
330
330
2
100
AcDbEntity
  8
0
100
AcDbLine
 10
26.18892654198824
 20
11.60343140032588
 30
0.0
 11
25.56998244786508
 21
11.42475763065254
 31
0.0
  0
LINE
  5
331
330
2
100
AcDbEntity
  8
0
100
AcDbLine
 10
28.68413423926872
 20
9.625773715253849
 30
0.0
 11
26.43925813327149
 21
11.56989345139896
 31
0.0
  0
ARC
  5
332
330
2
100
AcDbEntity
  8
0
100
AcDbCircle
 10
25.5551321454243
 20
11.4230044720988
 30
0.0
 40
0.0407267357939531
100
AcDbArc
 50
177.7643096007013
 51
291.3849844368014
  0
ARC
  5
333
330
2
100
AcDbEntity
  8
0
100
AcDbCircle
 10
25.5657396429091
 20
11.43559264085734
 30
0.0
 40
0.0116361007250842
100
AcDbArc
 50
177.763632320301
 51
291.3844626884992
  0
ARC
  5
334
330
2
100
AcDbEntity
  8
0
100
AcDbCircle
 10
27.98342881307379
 20
9.323305731295928
 30
0.0
 40
0.0435951853634053
100
AcDbArc
 50
231.2219891423981
 51
289.6849767793981
  0
LINE
  5
335
330
2
100
AcDbEntity
  8
0
100
AcDbLine
 10
25.55411240482802
 20
11.4360467055819
 30
0.0
 11
25.55411240482802
 21
12.05499100293506
 31
0.0
  0
LWPOLYLINE
  5
336
330
2
100
AcDbEntity
  8
0
100
AcDbPolyline
 90
       13
 70
   128
 43
0.0
 10
25.91526877992357
 20
11.52443321364616
 10
25.91371551496605
 20
11.53368395207741
 10
25.89382677724864
 20
11.61057422339431
 10
25.86335549399168
 20
11.68124895449444
 10
25.8259769518865
 20
11.73718371726879
 10
25.78619956178453
 20
11.77163194759225
 10
25.74882101967941
 20
11.78043871885273
 10
25.71834973642231
 20
11.76254179853073
 10
25.69846108403774
 20
11.72009975752811
 10
25.6915538251988
 20
11.65823179769756
 10
25.69846108403774
 20
11.58440015155468
 10
25.71834973642231
 20
11.50750993565411
 10
25.73214914984039
 20
11.4715711728969
  0
LINE
  5
337
330
2
100
AcDbEntity
  8
0
100
AcDbLine
 10
25.51443641040386
 20
11.42459323255265
 30
0.0
 11
25.51443641040386
 21
12.0948579163986
 31
0.0
  0
LINE
  5
338
330
2
100
AcDbEntity
  8
0
100
AcDbLine
 10
8.179792084348601
 20
7.198160354115753
 30
0.0
 11
25.33922049245349
 21
12.15429058435791
 31
0.0
  0
LINE
  5
339
330
2
100
AcDbEntity
  8
0
100
AcDbLine
 10
25.40707713912768
 20
12.17388951096004
 30
0.0
 11
25.43810935347482
 21
12.18285249573898
 31
0.0
  0
ARC
  5
33A
330
2
100
AcDbEntity
  8
0
100
AcDbCircle
 10
25.4636871083125
 20
12.24603942455186
 30
0.0
 40
0.0347417479852243
100
AcDbArc
 50
179.5141860577003
 51
222.5891435567013
  0
LINE
  5
33B
330
2
100
AcDbEntity
  8
0
100
AcDbLine
 10
24.9299286168466
 20
13.34281355085969
 30
0.0
 11
24.9299286168466
 21
13.1444338743387
 31
0.0
  0
LINE
  5
33C
330
2
100
AcDbEntity
  8
0
100
AcDbLine
 10
24.9299286168466
 20
13.1444338743387
 30
0.0
 11
25.20766028221588
 21
13.22460810021973
 31
0.0
  0
LINE
  5
33D
330
2
100
AcDbEntity
  8
0
100
AcDbLine
 10
25.20766028221588
 20
13.22460810021973
 30
0.0
 11
25.20766028221588
 21
13.42298777674068
 31
0.0
  0
LINE
  5
33E
330
2
100
AcDbEntity
  8
0
100
AcDbLine
 10
25.20766028221588
 20
12.66914536069905
 30
0.0
 11
25.20766028221588
 21
12.82784904278672
 31
0.0
  0
LINE
  5
33F
330
2
100
AcDbEntity
  8
0
100
AcDbLine
 10
25.20766028221588
 20
12.82784904278672
 30
0.0
 11
24.9299286168466
 21
12.7476748169057
 31
0.0
  0
LINE
  5
340
330
2
100
AcDbEntity
  8
0
100
AcDbLine
 10
24.9299286168466
 20
12.7476748169057
 30
0.0
 11
24.9299286168466
 21
12.58897113480891
 31
0.0
  0
LINE
  5
341
330
2
100
AcDbEntity
  8
0
100
AcDbLine
 10
24.9299286168466
 20
12.58897113480891
 30
0.0
 11
25.20766028221588
 21
12.66914536069905
 31
0.0
  0
LINE
  5
342
330
2
100
AcDbEntity
  8
0
100
AcDbLine
 10
25.42894660918639
 20
12.24633399813678
 30
0.0
 11
25.42894660918639
 21
13.22672856398354
 31
0.0
  0
LINE
  5
343
330
2
100
AcDbEntity
  8
0
100
AcDbLine
 10
25.42756483250957
 20
13.35791724477045
 30
0.0
 11
25.42280879682233
 21
13.59089820861448
 31
0.0
  0
LINE
  5
344
330
2
100
AcDbEntity
  8
0
100
AcDbLine
 10
25.43810935347482
 20
12.18285249573898
 30
0.0
 11
25.4747604159797
 21
12.15111174454008
 31
0.0
  0
LINE
  5
345
330
2
100
AcDbEntity
  8
0
100
AcDbLine
 10
25.4747604159797
 20
12.15111174454008
 30
0.0
 11
25.48992986664649
 21
12.15549078775027
 31
0.0
  0
LINE
  5
346
330
2
100
AcDbEntity
  8
0
100
AcDbLine
 10
10.64386964695735
 20
5.066037797975894
 30
0.0
 11
10.68052070946222
 21
5.034297046776996
 31
0.0
  0
LINE
  5
347
330
2
100
AcDbEntity
  8
0
100
AcDbLine
 10
10.64386964695735
 20
5.066037797975894
 30
0.0
 11
10.52763989464971
 21
5.032485158588541
 31
0.0
  0
LINE
  5
348
330
2
100
AcDbEntity
  8
0
100
AcDbLine
 10
25.4747604159797
 20
12.19078766506658
 30
0.0
 11
25.43810935347482
 21
12.22252841626548
 31
0.0
  0
LINE
  5
349
330
2
100
AcDbEntity
  8
0
100
AcDbLine
 10
25.4747604159797
 20
12.19078766506658
 30
0.0
 11
25.4747604159797
 21
12.15111174454008
 31
0.0
  0
LINE
  5
34A
330
2
100
AcDbEntity
  8
0
100
AcDbLine
 10
25.4747604159797
 20
12.19078766506658
 30
0.0
 11
25.48539168349615
 21
12.19385664764107
 31
0.0
  0
ARC
  5
34B
330
2
100
AcDbEntity
  8
0
100
AcDbCircle
 10
28.64780684745323
 20
9.576820823177204
 30
0.0
 40
0.0609595360830166
100
AcDbArc
 50
2.951652952599148
 51
53.4213046659
  0
ARC
  5
34C
330
2
100
AcDbEntity
  8
0
100
AcDbCircle
 10
10.69502732378116
 20
5.047687220305668
 30
0.0
 40
0.0197417984513436
100
AcDbArc
 50
222.7082226247959
 51
279.570991519398
  0
LINE
  5
34D
330
2
100
AcDbEntity
  8
0
100
AcDbLine
 10
8.099508561488407
 20
7.174984497347795
 30
0.0
 11
8.181377953139254
 21
7.198618155002376
 31
0.0
  0
ARC
  5
34E
330
2
100
AcDbEntity
  8
0
100
AcDbCircle
 10
8.095096456777451
 20
7.189789361717474
 30
0.0
 40
0.0154483227847344
100
AcDbArc
 50
266.2273906944014
 51
286.5949634005968
  0
LINE
  5
34F
330
2
100
AcDbEntity
  8
0
100
AcDbLine
 10
10.50864172145331
 20
5.030350694981216
 30
0.0
 11
8.027114012450489
 21
7.179416731171855
 31
0.0
  0
ARC
  5
350
330
2
100
AcDbEntity
  8
0
100
AcDbCircle
 10
10.51220030847726
 20
5.084292400537938
 30
0.0
 40
0.0540589598515116
100
AcDbArc
 50
266.2256106960968
 51
286.5951008251011
  0
LINE
  5
351
330
2
100
AcDbEntity
  8
0
100
AcDbLine
 10
6.222661212360662
 20
7.315283324517077
 30
0.0
 11
8.094080005245459
 21
7.174374514877509
 31
0.0
  0
LINE
  5
352
330
2
100
AcDbEntity
  8
0
100
AcDbLine
 10
8.063885328510014
 20
5.214428988911654
 30
0.0
 11
10.50864172145331
 21
5.030350694981216
 31
0.0
  0
LINE
  5
353
330
2
100
AcDbEntity
  8
0
100
AcDbLine
 10
5.61667538510562
 20
7.225875368880194
 30
0.0
 11
5.617831805930915
 21
7.229385956585131
 31
0.0
  0
LINE
  5
354
330
2
100
AcDbEntity
  8
0
100
AcDbLine
 10
6.386401973819732
 20
7.153403104447635
 30
0.0
 11
5.955038087405318
 21
5.84371851022178
 31
0.0
  0
ARC
  5
355
330
2
100
AcDbEntity
  8
0
100
AcDbCircle
 10
5.845123672264866
 20
5.880297588170231
 30
0.0
 40
0.1158413035164866
100
AcDbArc
 50
287.7671609107015
 51
341.5927637648004
  0
LINE
  5
356
330
2
100
AcDbEntity
  8
0
100
AcDbLine
 10
5.880472592930109
 20
5.769981399836621
 30
0.0
 11
5.16942159029599
 21
5.564718655949447
 31
0.0
  0
LINE
  5
357
330
2
100
AcDbEntity
  8
0
100
AcDbLine
 10
6.180165850353859
 20
6.156194517706959
 30
0.0
 11
6.128599887016594
 21
5.99963274439967
 31
0.0
  0
ARC
  5
358
330
2
100
AcDbEntity
  8
0
100
AcDbCircle
 10
6.162803448378513
 20
5.986124495360115
 30
0.0
 40
0.0367743987308882
100
AcDbArc
 50
158.4491067602004
 51
218.9439832005041
  0
LINE
  5
359
330
2
100
AcDbEntity
  8
0
100
AcDbLine
 10
6.134201760307406
 20
5.963009568543663
 30
0.0
 11
6.381596282832455
 21
5.748759627283494
 31
0.0
  0
LWPOLYLINE
  5
35A
330
2
100
AcDbEntity
  8
0
100
AcDbPolyline
 90
        9
 70
   128
 43
0.0
 10
6.381596282832455
 20
5.748759627283494
 10
6.384434895628544
 20
5.746912797854065
 10
6.387476717089016
 20
5.746086687887702
 10
6.390604936951755
 20
5.746313128372349
 10
6.393699847158806
 20
5.74758357612478
 10
6.396643565716626
 20
5.749849565982076
 10
6.399320743878385
 20
5.753023284491032
 10
6.401630585678082
 20
5.756983330572033
 10
6.40348268508711
 20
5.76157725821241
  0
LINE
  5
35B
330
2
100
AcDbEntity
  8
0
100
AcDbLine
 10
6.40348268508711
 20
5.76157725821241
 30
0.0
 11
6.455048648424386
 21
5.918139031510559
 31
0.0
  0
ARC
  5
35C
330
2
100
AcDbEntity
  8
0
100
AcDbCircle
 10
6.341047837270894
 20
5.963167680550514
 30
0.0
 40
0.1225714655945625
100
AcDbArc
 50
338.4467067232989
 51
38.94685972650223
  0
LINE
  5
35D
330
2
100
AcDbEntity
  8
0
100
AcDbLine
 10
6.436375257973963
 20
6.040216022779256
 30
0.0
 11
6.253120073480912
 21
6.198919667922655
 31
0.0
  0
LWPOLYLINE
  5
35E
330
2
100
AcDbEntity
  8
0
100
AcDbPolyline
 90
        9
 70
   128
 43
0.0
 10
6.253120073480912
 20
6.198919667922655
 10
6.24366077562681
 20
6.205076870395952
 10
6.233520962374431
 20
6.20783037027907
 10
6.223092451523468
 20
6.207075165743434
 10
6.212775324335752
 20
6.202840087724517
 10
6.202965265561241
 20
6.195287495498126
 10
6.194039733314754
 20
6.184708003310776
 10
6.186341063166289
 20
6.171507892515807
 10
6.180165850353859
 20
6.156194517706959
  0
LINE
  5
35F
330
2
100
AcDbEntity
  8
0
100
AcDbLine
 10
8.043543909864707
 20
5.199071586345322
 30
0.0
 11
7.967552399514754
 21
4.968349036584463
 31
0.0
  0
LINE
  5
360
330
2
100
AcDbEntity
  8
0
100
AcDbLine
 10
8.004203462019628
 20
4.936608285385565
 30
0.0
 11
7.967552399514754
 21
4.968349036584463
 31
0.0
  0
LINE
  5
361
330
2
100
AcDbEntity
  8
0
100
AcDbLine
 10
8.004203462019628
 20
4.936608285385565
 30
0.0
 11
7.854244768993447
 21
4.481309878046815
 31
0.0
  0
LWPOLYLINE
  5
362
330
2
100
AcDbEntity
  8
0
100
AcDbPolyline
 90
        9
 70
   128
 43
0.0
 10
7.805733949934318
 20
4.441287971057594
 10
7.809790652677119
 20
4.451670204097996
 10
7.814730795656861
 20
4.46091167447094
 10
7.820421115180992
 20
4.468762157998489
 10
7.826705111952643
 20
4.47500839907753
 10
7.833414473311802
 20
4.479481719060038
 10
7.840365465004812
 20
4.482060521855357
 10
7.847372901241111
 20
4.48267565705864
 10
7.854244768993447
 20
4.481309878046815
  0
LINE
  5
363
330
2
100
AcDbEntity
  8
0
100
AcDbLine
 10
7.805733949934318
 20
4.441287971057594
 30
0.0
 11
7.740597187207685
 21
4.243525454764803
 31
0.0
  0
ARC
  5
364
330
2
100
AcDbEntity
  8
0
100
AcDbCircle
 10
7.843856565068046
 20
4.207089156951234
 30
0.0
 40
0.1094993283796789
100
AcDbArc
 50
160.5640055550011
 51
207.8755931541979
  0
LINE
  5
365
330
2
100
AcDbEntity
  8
0
100
AcDbLine
 10
7.747063004563211
 20
4.155892384023818
 30
0.0
 11
7.53352481488855
 21
3.507557924971697
 31
0.0
  0
LINE
  5
366
330
2
100
AcDbEntity
  8
0
100
AcDbLine
 10
7.53352481488855
 20
3.507557924971697
 30
0.0
 11
7.496873752392835
 21
3.539298676170589
 31
0.0
  0
LINE
  5
367
330
2
100
AcDbEntity
  8
0
100
AcDbLine
 10
7.496873752392835
 20
3.539298676170589
 30
0.0
 11
7.446395628675858
 21
3.386036625804061
 31
0.0
  0
LINE
  5
368
330
2
100
AcDbEntity
  8
0
100
AcDbLine
 10
5.059835643428348
 20
5.615080808929363
 30
0.0
 11
5.018264295523703
 21
5.488860044045991
 31
0.0
  0
LINE
  5
369
330
2
100
AcDbEntity
  8
0
100
AcDbLine
 10
6.205361074866202
 20
5.160050254317527
 30
0.0
 11
6.256927038203478
 21
5.316612064569051
 31
0.0
  0
ARC
  5
36A
330
2
100
AcDbEntity
  8
0
100
AcDbCircle
 10
6.222727202538851
 20
5.330120826851432
 30
0.0
 40
0.0367711220684077
100
AcDbArc
 50
338.4462305090001
 51
38.94700718389625
  0
LINE
  5
36B
330
2
100
AcDbEntity
  8
0
100
AcDbLine
 10
6.251325122248016
 20
5.353235203470296
 30
0.0
 11
6.003930599716666
 21
5.567485144741028
 31
0.0
  0
LWPOLYLINE
  5
36C
330
2
100
AcDbEntity
  8
0
100
AcDbPolyline
 90
        9
 70
   128
 43
0.0
 10
6.003930599716666
 20
5.567485144741028
 10
6.001093169356407
 20
5.569332389408368
 10
5.998051347895995
 20
5.570158499374731
 10
5.994923170704137
 20
5.569932021936664
 10
5.991827056730389
 20
5.568661251325211
 10
5.988884520608484
 20
5.566395602799092
 10
5.986206160001664
 20
5.56322154294985
 10
5.983897500637795
 20
5.559261764311473
 10
5.982044240142099
 20
5.554667550756317
  0
LINE
  5
36D
330
2
100
AcDbEntity
  8
0
100
AcDbLine
 10
5.982044240142099
 20
5.554667550756317
 30
0.0
 11
5.930478276795687
 21
5.398105740504785
 31
0.0
  0
ARC
  5
36E
330
2
100
AcDbEntity
  8
0
100
AcDbCircle
 10
6.044477889148708
 20
5.353078023528263
 30
0.0
 40
0.1225700082074626
100
AcDbArc
 50
158.4469060871004
 51
218.9477876243998
  0
LINE
  5
36F
330
2
100
AcDbEntity
  8
0
100
AcDbLine
 10
5.949152849681929
 20
5.276029053632127
 30
0.0
 11
6.132408034174991
 21
5.11732540848869
 31
0.0
  0
LWPOLYLINE
  5
370
330
2
100
AcDbEntity
  8
0
100
AcDbPolyline
 90
        9
 70
   128
 43
0.0
 10
6.132408034174991
 20
5.11732540848869
 10
6.141867310689067
 20
5.111168335338636
 10
6.152005920174677
 20
5.108414475643076
 10
6.162434473696678
 20
5.109169643225293
 10
6.172751600884383
 20
5.11340475819763
 10
6.182562820763784
 20
5.120957599385374
 10
6.191488374341284
 20
5.131537110044849
 10
6.199185819382893
 20
5.144736953406333
 10
6.205361074866202
 20
5.160050254317527
  0
ARC
  5
371
330
2
100
AcDbEntity
  8
0
100
AcDbCircle
 10
6.196700504565389
 20
7.081165922210079
 30
0.0
 40
0.2355388054925131
100
AcDbArc
 50
53.53777866929705
 51
85.22706836750108
  0
LINE
  5
372
330
2
100
AcDbEntity
  8
0
100
AcDbLine
 10
5.577445458277497
 20
7.28554170909233
 30
0.0
 11
5.614096435440381
 21
7.253801031791091
 31
0.0
  0
ARC
  5
373
330
2
100
AcDbEntity
  8
0
100
AcDbCircle
 10
5.148443328604829
 20
5.623363843803905
 30
0.0
 40
0.06228439228648
100
AcDbArc
 50
231.2247871519009
 51
289.6828904016961
  0
LINE
  5
374
330
2
100
AcDbEntity
  8
0
100
AcDbLine
 10
5.619767945357904
 20
7.360803751642233
 30
0.0
 11
6.21629899579283
 21
7.315887945114381
 31
0.0
  0
LINE
  5
375
330
2
100
AcDbEntity
  8
0
100
AcDbLine
 10
6.373330456660132
 20
7.238857067664836
 30
0.0
 11
6.336679479497176
 21
7.270597744956926
 31
0.0
  0
ARC
  5
376
330
2
100
AcDbEntity
  8
0
100
AcDbCircle
 10
6.306600111797184
 20
7.18492289223824
 30
0.0
 40
0.0858011317146092
100
AcDbArc
 50
338.4471897567049
 51
38.94655127820067
  0
ARC
  5
377
330
2
100
AcDbEntity
  8
0
100
AcDbCircle
 10
5.595032115483364
 20
7.238391014009611
 30
0.0
 40
0.0245136073141825
100
AcDbArc
 50
338.4477632986965
 51
38.94920519329676
  0
ARC
  5
378
330
2
100
AcDbEntity
  8
0
100
AcDbCircle
 10
4.941319945048284
 20
5.514469781341211
 30
0.0
 40
0.081094338361461
100
AcDbArc
 50
287.7679525381048
 51
341.5907760378009
  0
ARC
  5
379
330
2
100
AcDbEntity
  8
0
100
AcDbCircle
 10
7.369451278200513
 20
3.411646363099244
 30
0.0
 40
0.0810943383613921
100
AcDbArc
 50
287.7679525381048
 51
341.5907760379008
  0
LINE
  5
37A
330
2
100
AcDbEntity
  8
0
100
AcDbLine
 10
7.394198245382122
 20
3.334420206071177
 30
0.0
 11
4.966066912220808
 21
5.437243624313151
 31
0.0
  0
ARC
  5
37B
330
2
100
AcDbEntity
  8
0
100
AcDbCircle
 10
6.680913743139182
 20
3.436733536352426
 30
0.0
 40
0.2962305243908392
100
AcDbArc
 50
237.1360984817999
 51
287.6022525421922
  0
LINE
  5
37C
330
2
100
AcDbEntity
  8
0
100
AcDbLine
 10
6.520165626461812
 20
3.187911176890724
 30
0.0
 11
4.275289520464587
 21
5.132030913044976
 31
0.0
  0
LWPOLYLINE
  5
37D
330
2
100
AcDbEntity
  8
0
100
AcDbPolyline
 90
        9
 70
   128
 43
0.0
 10
4.342364702147879
 20
5.257196304874621
 10
4.313164383642826
 20
5.246733998686584
 10
4.288607266206564
 20
5.233624112176862
 10
4.269636141660487
 20
5.21837046449743
 10
4.256981712779746
 20
5.20155951282425
 10
4.251130619476203
 20
5.183837524294135
 10
4.252304838476872
 20
5.165884724936161
 10
4.260463330146952
 20
5.148392027782625
 10
4.275289520464587
 20
5.132030913044976
  0
LINE
  5
37E
330
2
100
AcDbEntity
  8
0
100
AcDbLine
 10
4.342364702147879
 20
5.257196304874621
 30
0.0
 11
4.966066912220808
 21
5.437243624313151
 31
0.0
  0
LINE
  5
37F
330
2
100
AcDbEntity
  8
0
100
AcDbLine
 10
7.394198245382122
 20
3.334420206071177
 30
0.0
 11
6.770496035309253
 21
3.154372886632691
 31
0.0
  0
LWPOLYLINE
  5
380
330
2
100
AcDbEntity
  8
0
100
AcDbPolyline
 90
        9
 70
   128
 43
0.0
 10
5.742534135581479
 20
4.365310568105046
 10
5.810242250057071
 20
4.37680248416215
 10
5.881592541976256
 20
4.374464450822704
 10
5.945720419182428
 20
4.358651794544592
 10
5.992865716199238
 20
4.33177262842334
 10
6.015849149073681
 20
4.297918532926463
 10
6.011173534549518
 20
4.262244019408064
 10
5.979547981122701
 20
4.230179420046267
 10
5.925789341405469
 20
4.206606904489523
  0
LINE
  5
381
330
2
100
AcDbEntity
  8
0
100
AcDbLine
 10
5.583831340311503
 20
4.319497017328402
 30
0.0
 11
5.742534135581479
 21
4.365310568105046
 31
0.0
  0
LWPOLYLINE
  5
382
330
2
100
AcDbEntity
  8
0
100
AcDbPolyline
 90
        9
 70
   128
 43
0.0
 10
5.767086546135505
 20
4.160793353703702
 10
5.699378431669121
 20
4.149301437655813
 10
5.628028139749875
 20
4.151639470995185
 10
5.563900262534556
 20
4.167452127273302
 10
5.516754965526881
 20
4.194331293394549
 10
5.493771532643364
 20
4.228185388891463
 10
5.498447147176685
 20
4.263859902409898
 10
5.530072700594283
 20
4.29592450176248
 10
5.583831340311503
 20
4.319497017328402
  0
LINE
  5
383
330
2
100
AcDbEntity
  8
0
100
AcDbLine
 10
5.925789341405469
 20
4.206606904489523
 30
0.0
 11
5.767086546135505
 21
4.160793353703702
 31
0.0
  0
LWPOLYLINE
  5
384
330
2
100
AcDbEntity
  8
0
100
AcDbPolyline
 90
        6
 70
   128
 43
0.0
 10
5.578553668646203
 20
7.34979200591963
 10
5.580460492537762
 20
7.353153105084993
 10
5.586062368815601
 20
7.357236440717912
 10
5.594720818239901
 20
7.359932302406765
 10
5.606101866597828
 20
7.36113693917715
 10
5.619767945357904
 20
7.360803751642233
  0
ARC
  5
385
330
2
100
AcDbEntity
  8
0
100
AcDbCircle
 10
8.064269193079766
 20
5.192770384100573
 30
0.0
 40
0.0216620062397596
100
AcDbArc
 50
91.01537091239956
 51
163.0889158813009
  0
LINE
  5
386
330
2
100
AcDbEntity
  8
0
100
AcDbLine
 10
6.253120073480912
 20
6.198919667922655
 30
0.0
 11
6.21583673502543
 21
6.20172695554266
 31
0.0
  0
LINE
  5
387
330
2
100
AcDbEntity
  8
0
100
AcDbLine
 10
6.21583673502543
 20
6.20172695554266
 30
0.0
 11
6.213774601511374
 21
6.203407805782966
 31
0.0
  0
ARC
  5
388
330
2
100
AcDbEntity
  8
0
100
AcDbCircle
 10
7.768916207408359
 20
4.231372756861414
 30
0.0
 40
0.0866450384131175
100
AcDbArc
 50
271.0145916048997
 51
343.0899246265995
  0
LINE
  5
389
330
2
100
AcDbEntity
  8
0
100
AcDbLine
 10
7.916950506914464
 20
4.403932524989789
 30
0.0
 11
7.851814926614452
 21
4.206170276130445
 31
0.0
  0
ARC
  5
38A
330
2
100
AcDbEntity
  8
0
100
AcDbCircle
 10
7.873024525992181
 20
4.42569177522277
 30
0.0
 40
0.049019962980995
100
AcDbArc
 50
333.6479453033988
 51
82.98683627680166
  0
LINE
  5
38B
330
2
100
AcDbEntity
  8
0
100
AcDbLine
 10
8.028279068719641
 20
4.927550123601143
 30
0.0
 11
8.125215039247972
 21
4.92025120747586
 31
0.0
  0
LINE
  5
38C
330
2
100
AcDbEntity
  8
0
100
AcDbLine
 10
8.160497698728114
 20
5.02737270008729
 30
0.0
 11
8.125215039247972
 21
4.92025120747586
 31
0.0
  0
ARC
  5
38D
330
2
100
AcDbEntity
  8
0
100
AcDbCircle
 10
8.043819298023263
 20
4.058127137227508
 30
0.0
 40
0.0183822596280728
100
AcDbArc
 50
153.6475781335
 51
262.9889434904018
  0
LINE
  5
38E
330
2
100
AcDbEntity
  8
0
100
AcDbLine
 10
8.183251283515058
 20
4.029214739694823
 30
0.0
 11
8.041575543325386
 21
4.039882328821948
 31
0.0
  0
ARC
  5
38F
330
2
100
AcDbEntity
  8
0
100
AcDbCircle
 10
8.181334361886438
 20
4.137503248864518
 30
0.0
 40
0.1083054744978793
100
AcDbArc
 50
271.0141431408977
 51
343.0903272024994
  0
LINE
  5
390
330
2
100
AcDbEntity
  8
0
100
AcDbLine
 10
8.393517677259724
 20
4.435605168056893
 30
0.0
 11
8.284957194333088
 21
4.106001115568083
 31
0.0
  0
ARC
  5
391
330
2
100
AcDbEntity
  8
0
100
AcDbCircle
 10
8.338608571723108
 20
4.462803230483213
 30
0.0
 40
0.0612759697642683
100
AcDbArc
 50
333.6494597713016
 51
82.98569660479776
  0
LINE
  5
392
330
2
100
AcDbEntity
  8
0
100
AcDbLine
 10
8.204414494057003
 20
4.534287877058865
 30
0.0
 11
8.346091416682432
 21
4.523620592327747
 31
0.0
  0
ARC
  5
393
330
2
100
AcDbEntity
  8
0
100
AcDbCircle
 10
8.204989742401359
 20
4.501801393877114
 30
0.0
 40
0.0324915758331581
100
AcDbArc
 50
91.01444831259879
 51
163.0903211841985
  0
LINE
  5
394
330
2
100
AcDbEntity
  8
0
100
AcDbLine
 10
8.027347310421651
 20
4.066286861088447
 30
0.0
 11
8.173902957302376
 21
4.511252017786331
 31
0.0
  0
LINE
  5
395
330
2
100
AcDbEntity
  8
0
100
AcDbLine
 10
8.497703980211738
 20
3.641705253714768
 30
0.0
 11
8.929067866616932
 21
4.951389847949799
 31
0.0
  0
ARC
  5
396
330
2
100
AcDbEntity
  8
0
100
AcDbCircle
 10
8.387789565062067
 20
3.678284331663213
 30
0.0
 40
0.1158413035164763
100
AcDbArc
 50
287.7671609107015
 51
341.5927637648004
  0
LINE
  5
397
330
2
100
AcDbEntity
  8
0
100
AcDbLine
 10
8.423138485727383
 20
3.567968143338786
 30
0.0
 11
8.324990586770203
 21
3.539635285396139
 31
0.0
  0
SPLINE
  5
398
330
2
100
AcDbEntity
  8
0
100
AcDbSpline
210
0.0
220
0.0
230
1.0
 70
     8
 71
     3
 72
    11
 73
     7
 74
     0
 42
0.000000001
 43
0.0000000001
 40
0.0
 40
0.0
 40
0.0
 40
0.0
 40
0.2500008980131977
 40
0.4999945491153201
 40
0.7499934820642217
 40
1.0
 40
1.0
 40
1.0
 40
1.0
 10
7.747063004559365
 20
4.155892384020662
 30
0.0
 10
7.748430735841898
 20
4.154661396861524
 30
0.0
 10
7.751166158759677
 20
4.152199458226539
 30
0.0
 10
7.757470638465568
 20
4.148793105921898
 30
0.0
 10
7.764346884801899
 20
4.14606369915556
 30
0.0
 10
7.768415897324962
 20
4.145182106059133
 30
0.0
 10
7.770450434449571
 20
4.144741302824097
 30
0.0
  0
ARC
  5
399
330
2
100
AcDbEntity
  8
0
100
AcDbCircle
 10
8.203425419577795
 20
5.020506305801187
 30
0.0
 40
0.0434734009250892
100
AcDbArc
 50
97.99005346269854
 51
170.9123793011008
  0
LWPOLYLINE
  5
39A
330
2
100
AcDbEntity
  8
0
100
AcDbPolyline
 90
        9
 70
   128
 43
0.0
 10
8.943657984712494
 20
4.959934732305062
 10
8.941766336028067
 20
4.961166204123522
 10
8.939738820758508
 20
4.961717033245578
 10
8.937653397735473
 20
4.961566023651263
 10
8.935589744348636
 20
4.960718932394254
 10
8.93362720841241
 20
4.959208321751436
 10
8.931842845557715
 20
4.957092598553565
 10
8.930302191187413
 20
4.954452266378134
 10
8.929067866616932
 20
4.951389847949799
  0
LINE
  5
39B
330
2
100
AcDbEntity
  8
0
100
AcDbLine
 10
8.943657984712494
 20
4.959934732305062
 30
0.0
 11
8.980308961875389
 21
4.928194055012972
 31
0.0
  0
LINE
  5
39C
330
2
100
AcDbEntity
  8
0
100
AcDbLine
 10
8.95722878410185
 20
5.001135475299711
 30
0.0
 11
8.993879761264818
 21
4.969394798007657
 31
0.0
  0
LWPOLYLINE
  5
39D
330
2
100
AcDbEntity
  8
0
100
AcDbPolyline
 90
        9
 70
   128
 43
0.0
 10
8.951557274193486
 20
4.894132755457746
 10
8.965223352953561
 20
4.893799567922837
 10
8.976604401311476
 20
4.895004204684038
 10
8.985262850735777
 20
4.89770006638207
 10
8.990864727013628
 20
4.901783402014951
 10
8.993194875285134
 20
4.907097309894075
 10
8.992165492661637
 20
4.913438142266391
 10
8.987814920803581
 20
4.920561709391819
 10
8.980308961875389
 20
4.928194055012972
  0
LINE
  5
39E
330
2
100
AcDbEntity
  8
0
100
AcDbLine
 10
8.911210248249137
 20
4.897170816100047
 30
0.0
 11
8.951557274193486
 21
4.894132755457746
 31
0.0
  0
LWPOLYLINE
  5
39F
330
2
100
AcDbEntity
  8
0
100
AcDbPolyline
 90
        5
 70
   128
 43
0.0
 10
8.993879761264818
 20
4.969394798007657
 10
9.001384537757108
 20
4.961762111046182
 10
9.005735109615237
 20
4.954638543920753
 10
9.00676567467449
 20
4.948298052888723
 10
9.006341167849566
 20
4.946344902825567
  0
ARC
  5
3A0
330
2
100
AcDbEntity
  8
0
100
AcDbCircle
 10
8.032200373369178
 20
4.974496774036753
 30
0.0
 40
0.0471101328561401
100
AcDbArc
 50
233.5382219833973
 51
265.2253486921031
  0
SPLINE
  5
3A1
330
2
100
AcDbEntity
  8
0
100
AcDbSpline
210
0.0
220
0.0
230
1.0
 70
     8
 71
     3
 72
    11
 73
     7
 74
     0
 42
0.000000001
 43
0.0000000001
 40
0.0
 40
0.0
 40
0.0
 40
0.0
 40
0.2499849550576336
 40
0.5000043246191953
 40
0.7500107420831888
 40
1.0
 40
1.0
 40
1.0
 40
1.0
 10
7.879009734937702
 20
4.474344977015213
 30
0.0
 10
7.87686048221226
 20
4.47443700540946
 30
0.0
 10
7.872561680881783
 20
4.474621074867076
 30
0.0
 10
7.865340847760992
 20
4.47630366394036
 30
0.0
 10
7.85869049867696
 20
4.47866269937619
 30
0.0
 10
7.855726644982422
 20
4.480427505348081
 30
0.0
 10
7.85424476899402
 20
4.481309878050515
 30
0.0
  0
LINE
  5
3A2
330
2
100
AcDbEntity
  8
0
100
AcDbLine
 10
3.217809832696718
 20
6.86290812487072
 30
0.0
 11
3.205568854048505
 21
6.864002260543948
 31
0.0
  0
LINE
  5
3A3
330
2
100
AcDbEntity
  8
0
100
AcDbLine
 10
5.183027133441349
 20
6.514018609389891
 30
0.0
 11
4.807003251265641
 21
6.83966484378687
 31
0.0
  0
ARC
  5
3A4
330
2
100
AcDbEntity
  8
0
100
AcDbCircle
 10
4.082074364284228
 20
4.330118835730417
 30
0.0
 40
0.0223355512264674
100
AcDbArc
 50
331.1040592006979
 51
32.48287448140534
  0
ELLIPSE
  5
3A5
330
2
100
AcDbEntity
  8
0
100
AcDbEllipse
 10
4.09737942959698
 20
4.271970040088768
 30
0.0
 11
0.0540466830824512
 21
0.0862306537775837
 31
0.0
210
0.0
220
0.0
230
1.0
 40
0.2945542466
 41
6.237537654344557
 42
6.941786914968744
  0
ELLIPSE
  5
3A6
330
2
100
AcDbEntity
  8
0
100
AcDbEllipse
 10
4.088885581337587
 20
4.265557330813305
 30
0.0
 11
0.0926781371134351
 21
0.0198653110342251
 31
0.0
210
0.0
220
0.0
230
0.9999999999999998
 40
0.2601647544
 41
2.693902237372129
 42
3.335243632973141
  0
LINE
  5
3A7
330
2
100
AcDbEntity
  8
0
100
AcDbLine
 10
5.675061748652366
 20
7.697328388078446
 30
0.0
 11
5.522126868297317
 21
7.232994443531993
 31
0.0
  0
LINE
  5
3A8
330
2
100
AcDbEntity
  8
0
100
AcDbLine
 10
3.173211195322702
 20
7.88636892120402
 30
0.0
 11
3.905567143142932
 21
7.252130065777189
 31
0.0
  0
LINE
  5
3A9
330
2
100
AcDbEntity
  8
0
100
AcDbLine
 10
7.626714561115042
 20
5.973594458073041
 30
0.0
 11
7.63350807927151
 21
5.967711098770376
 31
0.0
  0
LINE
  5
3AA
330
2
100
AcDbEntity
  8
0
100
AcDbLine
 10
8.043543909864707
 20
5.199071586345322
 30
0.0
 11
6.25334669556229
 21
6.749427851717275
 31
0.0
  0
LINE
  5
3AB
330
2
100
AcDbEntity
  8
0
100
AcDbLine
 10
22.69943277108918
 20
12.19006141837617
 30
0.0
 11
22.73488994307889
 21
12.16920673315405
 31
0.0
  0
LINE
  5
3AC
330
2
100
AcDbEntity
  8
0
100
AcDbLine
 10
3.363631610247026
 20
8.01770907721888
 30
0.0
 11
3.397595374330342
 21
8.039730680484867
 31
0.0
  0
LINE
  5
3AD
330
2
100
AcDbEntity
  8
0
100
AcDbLine
 10
4.414381600285903
 20
7.938119307046415
 30
0.0
 11
4.421673157184782
 21
7.920015655629434
 31
0.0
  0
ARC
  5
3AE
330
2
100
AcDbEntity
  8
0
100
AcDbCircle
 10
5.592529507821345
 20
7.30859141072945
 30
0.0
 40
0.0275466385645051
100
AcDbArc
 50
180.0
 51
236.7986991297108
  0
LINE
  5
3AF
330
2
100
AcDbEntity
  8
0
100
AcDbLine
 10
25.20766028221588
 20
13.42298777674068
 30
0.0
 11
24.9299286168466
 21
13.34281355085969
 31
0.0
  0
ARC
  5
3B0
330
2
100
AcDbEntity
  8
0
100
AcDbCircle
 10
8.943045787007536
 20
4.988251660042357
 30
0.0
 40
0.0191611612947595
100
AcDbArc
 50
42.25196494832518
 51
90.0
  0
ARC
  5
3B1
330
2
100
AcDbEntity
  8
0
100
AcDbCircle
 10
7.39591830272734
 20
6.351494246633706
 30
0.0
 40
0.028471824885882
100
AcDbArc
 50
306.7378456754334
 51
0.0
  0
ARC
  5
3B2
330
2
100
AcDbEntity
  8
0
100
AcDbCircle
 10
7.191339053589937
 20
6.250935493456768
 30
0.0
 40
0.4304714421174145
100
AcDbArc
 50
37.87897658188886
 51
60.3342341211291
  0
LINE
  5
3B3
330
2
100
AcDbEntity
  8
0
100
AcDbLine
 10
6.881870787658929
 20
6.688936718713053
 30
0.0
 11
6.944405236360763
 21
6.717534129158881
 31
0.0
  0
SPLINE
  5
3B4
330
2
100
AcDbEntity
  8
0
100
AcDbSpline
210
0.0
220
0.0
230
1.0
 70
     8
 71
     3
 72
    10
 73
     6
 74
     0
 42
0.000000001
 43
0.0000000001
 40
0.0
 40
0.0
 40
0.0
 40
0.0
 40
0.223414656091903
 40
0.6496074072459033
 40
1.0
 40
1.0
 40
1.0
 40
1.0
 10
6.975728809742808
 20
6.76649907181863
 30
0.0
 10
6.980260751047183
 20
6.776226393001714
 30
0.0
 10
6.993437964628748
 20
6.804509854810978
 30
0.0
 10
7.028349312146615
 20
6.837078943095507
 30
0.0
 10
7.052748473316729
 20
6.851006375394232
 30
0.0
 10
7.063757289553691
 20
6.857290384166551
 30
0.0
  0
LINE
  5
3B5
330
2
100
AcDbEntity
  8
0
100
AcDbLine
 10
6.966252145058826
 20
6.74825337796437
 30
0.0
 11
6.975728809742294
 21
6.766499071822403
 31
0.0
  0
SPLINE
  5
3B6
330
2
100
AcDbEntity
  8
0
100
AcDbSpline
210
0.0
220
0.0
230
1.0
 70
     8
 71
     3
 72
     9
 73
     5
 74
     0
 42
0.000000001
 43
0.0000000001
 40
0.0
 40
0.0
 40
0.0
 40
0.0
 40
0.3637854744933605
 40
1.0
 40
1.0
 40
1.0
 40
1.0
 10
6.680047873477628
 20
6.961434579406226
 30
0.0
 10
6.678625681780586
 20
6.969109782248599
 30
0.0
 10
6.67471625769204
 20
6.990207938663711
 30
0.0
 10
6.669970817461246
 20
7.010693100893989
 30
0.0
 10
6.666951699456578
 20
7.023726058662289
 30
0.0
  0
SPLINE
  5
3B7
330
2
100
AcDbEntity
  8
0
100
AcDbSpline
210
0.0
220
0.0
230
1.0
 70
     8
 71
     3
 72
     9
 73
     5
 74
     0
 42
0.000000001
 43
0.0000000001
 40
0.0
 40
0.0
 40
0.0
 40
0.0
 40
0.4931078804754943
 40
1.0
 40
1.0
 40
1.0
 40
1.0
 10
6.933573629034336
 20
6.942345386089129
 30
0.0
 10
6.926323604031596
 20
6.929692663812938
 30
0.0
 10
6.911620888277603
 20
6.90403352759302
 30
0.0
 10
6.903462339343134
 20
6.875294984924593
 30
0.0
 10
6.899326835181536
 20
6.860727644119371
 30
0.0
  0
SPLINE
  5
3B8
330
2
100
AcDbEntity
  8
0
100
AcDbSpline
210
0.0
220
0.0
230
1.0
 70
     8
 71
     3
 72
     9
 73
     5
 74
     0
 42
0.000000001
 43
0.0000000001
 40
0.0
 40
0.0
 40
0.0
 40
0.0
 40
0.3964137364449641
 40
1.0
 40
1.0
 40
1.0
 40
1.0
 10
6.899326835181536
 20
6.860727644119371
 30
0.0
 10
6.89352947640364
 20
6.853958194741975
 30
0.0
 10
6.878904961042854
 20
6.836881467184314
 30
0.0
 10
6.862933307079794
 20
6.822209456662015
 30
0.0
 10
6.853293036141398
 20
6.813353632652036
 30
0.0
  0
LINE
  5
3B9
330
2
100
AcDbEntity
  8
0
100
AcDbLine
 10
6.678854404138573
 20
6.826487833830549
 30
0.0
 11
6.687708918939652
 21
6.876661628491353
 31
0.0
  0
SPLINE
  5
3BA
330
2
100
AcDbEntity
  8
0
100
AcDbSpline
210
0.0
220
0.0
230
1.0
 70
     8
 71
     3
 72
     9
 73
     5
 74
     0
 42
0.000000001
 43
0.0000000001
 40
0.0
 40
0.0
 40
0.0
 40
0.0
 40
0.3822979274184181
 40
1.0
 40
1.0
 40
1.0
 40
1.0
 10
6.687708918944085
 20
6.876661628494908
 30
0.0
 10
6.688247210041208
 20
6.88783770863794
 30
0.0
 10
6.689655250887117
 20
6.917071662948155
 30
0.0
 10
6.683716346825383
 20
6.94449507867468
 30
0.0
 10
6.680047873477628
 20
6.961434579406226
 30
0.0
  0
LINE
  5
3BB
330
2
100
AcDbEntity
  8
0
100
AcDbLine
 10
6.666951699456578
 20
7.023726058662862
 30
0.0
 11
6.66989502299866
 21
7.051865717271271
 31
0.0
  0
ARC
  5
3BC
330
2
100
AcDbEntity
  8
0
100
AcDbCircle
 10
6.774259617378453
 20
6.744845847237279
 30
0.0
 40
0.3242732939311798
100
AcDbArc
 50
62.61379871470386
 51
108.7743259455002
  0
LINE
  5
3BD
330
2
100
AcDbEntity
  8
0
100
AcDbLine
 10
6.852888313219713
 20
6.739339577229891
 30
0.0
 11
6.850796586804264
 21
6.737831850639089
 31
0.0
  0
LWPOLYLINE
  5
3BE
330
2
100
AcDbEntity
  8
0
100
AcDbPolyline
 90
        9
 70
   128
 43
0.0
 10
6.711164093225026
 20
6.748345855582998
 10
6.711631382331837
 20
6.757258896834626
 10
6.719324325782798
 20
6.763648207555098
 10
6.733615308448483
 20
6.766993547818092
 10
6.753343959712571
 20
6.767023306244727
 10
6.776903048692486
 20
6.763734516858797
 10
6.802377334246523
 20
6.757394832717722
 10
6.827695593833393
 20
6.748520171930614
 10
6.850796586804264
 20
6.737831850639089
  0
LINE
  5
3BF
330
2
100
AcDbEntity
  8
0
100
AcDbLine
 10
6.711164093225026
 20
6.748345855582998
 30
0.0
 11
6.710142469919851
 21
6.750087829366504
 31
0.0
  0
LINE
  5
3C0
330
2
100
AcDbEntity
  8
0
100
AcDbLine
 10
6.710142469919851
 20
6.750087829366504
 30
0.0
 11
6.678854404138573
 21
6.826487833830549
 31
0.0
  0
LINE
  5
3C1
330
2
100
AcDbEntity
  8
0
100
AcDbLine
 10
6.853293036143425
 20
6.813353632654797
 30
0.0
 11
6.852888313219713
 21
6.739339577229891
 31
0.0
  0
LINE
  5
3C2
330
2
100
AcDbEntity
  8
0
100
AcDbLine
 10
6.851818210109451
 20
6.737755040075322
 30
0.0
 11
6.890759916013182
 21
6.704030533500224
 31
0.0
  0
LINE
  5
3C3
330
2
100
AcDbEntity
  8
0
100
AcDbLine
 10
6.851818210109451
 20
6.737755040075322
 30
0.0
 11
6.852888313219713
 21
6.739339577229891
 31
0.0
  0
LINE
  5
3C4
330
2
100
AcDbEntity
  8
0
100
AcDbLine
 10
6.946258423352754
 20
7.02174305360673
 30
0.0
 11
6.923420778554855
 21
7.032776597855718
 31
0.0
  0
LINE
  5
3C5
330
2
100
AcDbEntity
  8
0
100
AcDbLine
 10
6.946258423352754
 20
7.02174305360673
 30
0.0
 11
6.933573629030917
 21
6.942345386091524
 31
0.0
  0
LWPOLYLINE
  5
3C6
330
2
100
AcDbEntity
  8
0
100
AcDbPolyline
 90
        9
 70
   128
 43
0.0
 10
6.889738292708007
 20
6.704107344063983
 10
6.889271003601184
 20
6.695194302812355
 10
6.881578060150163
 20
6.688804992091883
 10
6.867287077484551
 20
6.685459651828889
 10
6.847559608656281
 20
6.685430160835732
 10
6.823999337240548
 20
6.688718682788222
 10
6.798525051686511
 20
6.695058366929259
 10
6.773206792099641
 20
6.703933027716367
 10
6.750105799128769
 20
6.714621349007893
  0
LINE
  5
3C7
330
2
100
AcDbEntity
  8
0
100
AcDbLine
 10
6.74908417582351
 20
6.714698159571621
 30
0.0
 11
6.750105799128769
 21
6.714621349007893
 31
0.0
  0
LINE
  5
3C8
330
2
100
AcDbEntity
  8
0
100
AcDbLine
 10
6.710142469919851
 20
6.748422666146757
 30
0.0
 11
6.74908417582351
 21
6.714698159571621
 31
0.0
  0
LINE
  5
3C9
330
2
100
AcDbEntity
  8
0
100
AcDbLine
 10
6.710142469919851
 20
6.748422666146757
 30
0.0
 11
6.711164093225026
 21
6.748345855582998
 31
0.0
  0
LINE
  5
3CA
330
2
100
AcDbEntity
  8
0
100
AcDbLine
 10
6.850796586804264
 20
6.737831850639089
 30
0.0
 11
6.851818210109451
 21
6.737755040075322
 31
0.0
  0
LINE
  5
3CB
330
2
100
AcDbEntity
  8
0
100
AcDbLine
 10
6.889738292708007
 20
6.704107344063983
 30
0.0
 11
6.890759916013182
 21
6.704030533500224
 31
0.0
  0
LWPOLYLINE
  5
3CC
330
2
100
AcDbEntity
  8
0
100
AcDbPolyline
 90
        3
 70
   128
 43
0.0
 10
6.954810873618726
 20
6.725436606464855
 10
6.946117452432373
 20
6.718367959107762
 10
6.944405236360763
 20
6.717534129158881
  0
LINE
  5
3CD
330
2
100
AcDbEntity
  8
0
100
AcDbLine
 10
7.07854703958395
 20
6.867744663443563
 30
0.0
 11
7.065880040844396
 21
6.858537693527852
 31
0.0
  0
LINE
  5
3CE
330
2
100
AcDbEntity
  8
0
100
AcDbLine
 10
6.710142469919851
 20
6.750087829366504
 30
0.0
 11
6.710142469919851
 21
6.748422666146757
 31
0.0
  0
SPLINE
  5
3CF
330
2
100
AcDbEntity
  8
0
100
AcDbSpline
210
0.0
220
0.0
230
1.0
 70
     8
 71
     3
 72
     9
 73
     5
 74
     0
 42
0.000000001
 43
0.0000000001
 40
0.0
 40
0.0
 40
0.0
 40
0.0
 40
0.690265050481048
 40
1.0
 40
1.0
 40
1.0
 40
1.0
 10
7.09133245816782
 20
6.88736081772328
 30
0.0
 10
7.087141471244173
 20
6.893099527893113
 30
0.0
 10
7.081069909427723
 20
6.90141330557299
 30
0.0
 10
7.074890285254836
 20
6.909498071115971
 30
0.0
 10
7.072976239673596
 20
6.912002205563331
 30
0.0
  0
LINE
  5
3D0
330
2
100
AcDbEntity
  8
0
100
AcDbLine
 10
7.07854703958395
 20
6.867744663443563
 30
0.0
 11
7.091332458170873
 21
6.887360817723205
 31
0.0
  0
ARC
  5
3D1
330
2
100
AcDbEntity
  8
0
100
AcDbCircle
 10
6.93778032017291
 20
6.74825337796437
 30
0.0
 40
0.028471824885882
100
AcDbArc
 50
306.7378456754334
 51
0.0
  0
ARC
  5
3D2
330
2
100
AcDbEntity
  8
0
100
AcDbCircle
 10
6.733201071035434
 20
6.647694624787428
 30
0.0
 40
0.4304714421174145
100
AcDbArc
 50
37.87897658188886
 51
60.3342341211291
  0
LINE
  5
3D3
330
2
100
AcDbEntity
  8
0
100
AcDbLine
 10
4.467809241717223
 20
7.986211426912626
 30
0.0
 11
4.931648956396428
 21
7.953697658866383
 31
0.0
  0
ENDSEC
  0
SECTION
  2
OBJECTS
  0
DICTIONARY
  5
A
330
0
100
AcDbDictionary
281
     1
  3
ACAD_COLOR
350
42
  3
ACAD_GROUP
350
37
  3
ACAD_LAYOUT
350
18
  3
ACAD_MATERIAL
350
C
  3
ACAD_MLEADERSTYLE
350
45
  3
ACAD_MLINESTYLE
350
38
  3
ACAD_PLOTSETTINGS
350
39
  3
ACAD_PLOTSTYLENAME
350
9
  3
ACAD_SCALELIST
350
43
  3
ACAD_TABLESTYLE
350
44
  3
ACAD_VISUALSTYLE
350
2D
  3
ACDB_RECOMPOSE_DATA
350
3E3
  3
AcDbVariableDictionary
350
3D5
  3
AcDsDecomposeData
350
3E9
  0
DICTIONARY
  5
20
330
1F
100
AcDbDictionary
280
     1
281
     1
  3
ACAD_LAYERSTATES
360
21
  0
DICTIONARY
  5
7
330
6
100
AcDbDictionary
280
     1
281
     1
  0
DICTIONARY
  5
3
330
2
100
AcDbDictionary
280
     1
281
     1
  3
ACAD_SORTENTS
360
3D4
  0
DICTIONARY
  5
42
102
{ACAD_REACTORS
330
A
102
}
330
A
100
AcDbDictionary
281
     1
  0
DICTIONARY
  5
37
102
{ACAD_REACTORS
330
A
102
}
330
A
100
AcDbDictionary
281
     1
  0
DICTIONARY
  5
18
102
{ACAD_REACTORS
330
A
102
}
330
A
100
AcDbDictionary
281
     1
  3
Model
350
17
  3
レイアウト1
350
1E
  0
DICTIONARY
  5
C
102
{ACAD_REACTORS
330
A
102
}
330
A
100
AcDbDictionary
281
     1
  3
ByBlock
350
3E
  3
ByLayer
350
3A
  3
Global
350
B
  0
DICTIONARY
  5
45
102
{ACAD_REACTORS
330
A
102
}
330
A
100
AcDbDictionary
281
     1
  0
DICTIONARY
  5
38
102
{ACAD_REACTORS
330
A
102
}
330
A
100
AcDbDictionary
281
     1
  3
Standard
350
46
  0
DICTIONARY
  5
39
102
{ACAD_REACTORS
330
A
102
}
330
A
100
AcDbDictionary
281
     1
  0
ACDBDICTIONARYWDFLT
  5
9
102
{ACAD_REACTORS
330
A
102
}
330
A
100
AcDbDictionary
281
     1
  3
Normal
350
8
100
AcDbDictionaryWithDefault
340
8
  0
DICTIONARY
  5
43
102
{ACAD_REACTORS
330
A
102
}
330
A
100
AcDbDictionary
281
     1
  3
A0
350
4B
  3
A1
350
4C
  3
A2
350
4D
  3
A3
350
4E
  3
A4
350
4F
  3
A5
350
50
  3
A6
350
51
  3
A7
350
52
  3
A8
350
53
  3
A9
350
54
  3
B0
350
55
  3
B1
350
56
  3
B2
350
57
  3
B3
350
58
  3
B4
350
59
  3
B5
350
5A
  3
B6
350
5B
  0
DICTIONARY
  5
44
102
{ACAD_REACTORS
330
A
102
}
330
A
100
AcDbDictionary
281
     1
  3
Standard
350
47
  0
DICTIONARY
  5
2D
102
{ACAD_REACTORS
330
A
102
}
330
A
100
AcDbDictionary
281
     1
  3
2dWireframe
350
2C
  3
Realistic
350
49
  3
Wireframe
350
4A
  0
XRECORD
  5
3E3
102
{ACAD_REACTORS
330
A
102
}
330
A
100
AcDbXrecord
280
     1
 90
        1
330
47
  0
DICTIONARY
  5
3D5
102
{ACAD_REACTORS
330
A
102
}
330
A
100
AcDbDictionary
281
     1
  3
CANNOSCALE
350
3DB
  3
CMLEADERSTYLE
350
3D7
  3
CTABLESTYLE
350
3D6
  3
CVIEWDETAILSTYLE
350
3D8
  3
CVIEWSECTIONSTYLE
350
3D9
  3
LAYEREVAL
350
3DD
  3
LAYERNOTIFY
350
3DE
  3
LIGHTINGUNITS
350
3DC
  3
MSLTSCALE
350
3DA
  3
PSOLHEIGHT
350
3E0
  3
PSOLWIDTH
350
3DF
  3
XCLIPFRAME
350
3E1
  0
DICTIONARY
  5
3E9
102
{ACAD_REACTORS
330
A
102
}
330
A
100
AcDbDictionary
281
     1
  3
AcDsRecords
350
3EB
  3
AcDsSchemas
350
3EA
1001
ACAD
1070
     2
  0
DICTIONARY
  5
21
102
{ACAD_REACTORS
330
20
102
}
330
20
100
AcDbDictionary
281
     1
  0
SORTENTSTABLE
  5
3D4
102
{ACAD_REACTORS
330
3
102
}
330
3
100
AcDbSortentsTable
330
2
  0
LAYOUT
  5
17
102
{ACAD_XDICTIONARY
360
19
102
}
102
{ACAD_REACTORS
330
18
102
}
330
18
100
AcDbPlotSettings
  1

  2
none_device
  4
ISO_A4_(210.00_x_297.00_MM)
  6

 40
7.5
 41
20.0
 42
7.5
 43
20.0
 44
210.0
 45
297.0
 46
11.54999923706054
 47
-13.65000009536743
 48
0.0
 49
0.0
140
0.0
141
0.0
142
1.0
143
8.704084754739808
 70
 11952
 72
     1
 73
     0
 74
     0
  7

 75
     0
147
0.1148885871608098
 76
     0
 77
     2
 78
   300
148
0.0
149
0.0
100
AcDbLayout
  1
Model
 70
     1
 71
     0
 10
0.0
 20
0.0
 11
12.0
 21
9.0
 12
0.0
 22
0.0
 32
0.0
 14
0.0
 24
0.0
 34
0.0
 15
0.0
 25
0.0
 35
0.0
146
0.0
 13
0.0
 23
0.0
 33
0.0
 16
1.0
 26
0.0
 36
0.0
 17
0.0
 27
1.0
 37
0.0
 76
     0
330
2
331
2B
1001
ACAD_PSEXT
1000
None
1000
None
1000
Not applicable
1000
The layout will not be plotted unless a new plotter configuration name is selected.
1070
     0
  0
LAYOUT
  5
1E
102
{ACAD_REACTORS
330
18
102
}
330
18
100
AcDbPlotSettings
  1

  2
C:\Documents and Settings\basas\Application Data\Autodesk\AutoCAD 2005\R16.1\enu\plotters\Default Windows System Printer.pc3
  4

  6

 40
0.0
 41
0.0
 42
0.0
 43
0.0
 44
0.0
 45
0.0
 46
0.0
 47
0.0
 48
0.0
 49
0.0
140
0.0
141
0.0
142
1.0
143
1.0
 70
   688
 72
     0
 73
     0
 74
     5
  7

 75
    16
147
1.0
 76
     0
 77
     2
 78
   300
148
0.0
149
0.0
100
AcDbLayout
  1
レイアウト1
 70
     1
 71
     1
 10
0.0
 20
0.0
 11
12.0
 21
9.0
 12
0.0
 22
0.0
 32
0.0
 14
0.0
 24
0.0
 34
0.0
 15
0.0
 25
0.0
 35
0.0
146
0.0
 13
0.0
 23
0.0
 33
0.0
 16
1.0
 26
0.0
 36
0.0
 17
0.0
 27
1.0
 37
0.0
 76
     0
330
1B
  0
MATERIAL
  5
3E
102
{ACAD_XDICTIONARY
360
3F
102
}
102
{ACAD_REACTORS
330
C
102
}
330
C
100
AcDbMaterial
  1
ByBlock
  0
MATERIAL
  5
3A
102
{ACAD_XDICTIONARY
360
3B
102
}
102
{ACAD_REACTORS
330
C
102
}
330
C
100
AcDbMaterial
  1
ByLayer
  0
MATERIAL
  5
B
102
{ACAD_XDICTIONARY
360
D
102
}
102
{ACAD_REACTORS
330
C
102
}
330
C
100
AcDbMaterial
  1
Global
 43
0.0007999999797903
 43
0.0
 43
0.0
 43
0.0
 43
0.0
 43
0.0007999999797903
 43
0.0
 43
0.0
 43
0.0
 43
0.0
 43
1.0
 43
0.0
 43
0.0
 43
0.0
 43
0.0
 43
1.0
 49
0.0007999999797903
 49
0.0
 49
0.0
 49
0.0
 49
0.0
 49
0.0007999999797903
 49
0.0
 49
0.0
 49
0.0
 49
0.0
 49
1.0
 49
0.0
 49
0.0
 49
0.0
 49
0.0
 49
1.0
142
0.0007999999797903
142
0.0
142
0.0
142
0.0
142
0.0
142
0.0007999999797903
142
0.0
142
0.0
142
0.0
142
0.0
142
1.0
142
0.0
142
0.0
142
0.0
142
0.0
142
1.0
144
0.0007999999797903
144
0.0
144
0.0
144
0.0
144
0.0
144
0.0007999999797903
144
0.0
144
0.0
144
0.0
144
0.0
144
1.0
144
0.0
144
0.0
144
0.0
144
0.0
144
1.0
1001
ACAD
1070
    -1
1070
     3
1070
     0
1000

1071
        0
1070
     0
  0
MLINESTYLE
  5
46
102
{ACAD_REACTORS
330
38
102
}
330
38
100
AcDbMlineStyle
  2
STANDARD
 70
     0
  3

 62
   256
 51
90.0
 52
90.0
 71
     2
 49
0.5
 62
   256
  6
BYLAYER
 49
-0.5
 62
   256
  6
BYLAYER
  0
ACDBPLACEHOLDER
  5
8
102
{ACAD_REACTORS
330
9
102
}
330
9
  0
SCALE
  5
4B
102
{ACAD_REACTORS
330
43
102
}
330
43
100
AcDbScale
 70
     0
300
1:1
140
1.0
141
1.0
290
     1
  0
SCALE
  5
4C
102
{ACAD_REACTORS
330
43
102
}
330
43
100
AcDbScale
 70
     0
300
1:2
140
1.0
141
2.0
290
     0
  0
SCALE
  5
4D
102
{ACAD_REACTORS
330
43
102
}
330
43
100
AcDbScale
 70
     0
300
1:4
140
1.0
141
4.0
290
     0
  0
SCALE
  5
4E
102
{ACAD_REACTORS
330
43
102
}
330
43
100
AcDbScale
 70
     0
300
1:5
140
1.0
141
5.0
290
     0
  0
SCALE
  5
4F
102
{ACAD_REACTORS
330
43
102
}
330
43
100
AcDbScale
 70
     0
300
1:8
140
1.0
141
8.0
290
     0
  0
SCALE
  5
50
102
{ACAD_REACTORS
330
43
102
}
330
43
100
AcDbScale
 70
     0
300
1:10
140
1.0
141
10.0
290
     0
  0
SCALE
  5
51
102
{ACAD_REACTORS
330
43
102
}
330
43
100
AcDbScale
 70
     0
300
1:16
140
1.0
141
16.0
290
     0
  0
SCALE
  5
52
102
{ACAD_REACTORS
330
43
102
}
330
43
100
AcDbScale
 70
     0
300
1:20
140
1.0
141
20.0
290
     0
  0
SCALE
  5
53
102
{ACAD_REACTORS
330
43
102
}
330
43
100
AcDbScale
 70
     0
300
1:30
140
1.0
141
30.0
290
     0
  0
SCALE
  5
54
102
{ACAD_REACTORS
330
43
102
}
330
43
100
AcDbScale
 70
     0
300
1:40
140
1.0
141
40.0
290
     0
  0
SCALE
  5
55
102
{ACAD_REACTORS
330
43
102
}
330
43
100
AcDbScale
 70
     0
300
1:50
140
1.0
141
50.0
290
     0
  0
SCALE
  5
56
102
{ACAD_REACTORS
330
43
102
}
330
43
100
AcDbScale
 70
     0
300
1:100
140
1.0
141
100.0
290
     0
  0
SCALE
  5
57
102
{ACAD_REACTORS
330
43
102
}
330
43
100
AcDbScale
 70
     0
300
2:1
140
2.0
141
1.0
290
     0
  0
SCALE
  5
58
102
{ACAD_REACTORS
330
43
102
}
330
43
100
AcDbScale
 70
     0
300
4:1
140
4.0
141
1.0
290
     0
  0
SCALE
  5
59
102
{ACAD_REACTORS
330
43
102
}
330
43
100
AcDbScale
 70
     0
300
8:1
140
8.0
141
1.0
290
     0
  0
SCALE
  5
5A
102
{ACAD_REACTORS
330
43
102
}
330
43
100
AcDbScale
 70
     0
300
10:1
140
10.0
141
1.0
290
     0
  0
SCALE
  5
5B
102
{ACAD_REACTORS
330
43
102
}
330
43
100
AcDbScale
 70
     0
300
100:1
140
100.0
141
1.0
290
     0
  0
TABLESTYLE
  5
47
102
{ACAD_XDICTIONARY
360
48
102
}
102
{ACAD_REACTORS
330
44
102
}
330
44
100
AcDbTableStyle
  3
Standard
 70
     0
 71
     0
 40
1.5
 41
1.5
280
     0
281
     0
  7
Standard
140
4.5
170
     2
 62
     0
 63
     7
283
     0
274
    -2
284
     1
 64
     0
275
    -2
285
     1
 65
     0
276
    -2
286
     1
 66
     0
277
    -2
287
     1
 67
     0
278
    -2
288
     1
 68
     0
279
    -2
289
     1
 69
     0
  7
Standard
140
6.0
170
     5
 62
     0
 63
     7
283
     0
274
    -2
284
     1
 64
     0
275
    -2
285
     1
 65
     0
276
    -2
286
     1
 66
     0
277
    -2
287
     1
 67
     0
278
    -2
288
     1
 68
     0
279
    -2
289
     1
 69
     0
  7
Standard
140
4.5
170
     5
 62
     0
 63
     7
283
     0
274
    -2
284
     1
 64
     0
275
    -2
285
     1
 65
     0
276
    -2
286
     1
 66
     0
277
    -2
287
     1
 67
     0
278
    -2
288
     1
 68
     0
279
    -2
289
     1
 69
     0
  0
VISUALSTYLE
  5
2C
102
{ACAD_XDICTIONARY
360
3EC
102
}
102
{ACAD_REACTORS
330
2D
102
}
330
2D
100
AcDbVisualStyle
  2

 70
     4
 71
     0
 72
     2
 73
     1
 90
        0
 40
-0.6
 41
-30.0
 62
     5
 63
     7
421
 16777215
 74
     1
 91
        4
 64
     7
 65
   257
 75
     1
175
     1
 42
1.0
 92
        0
 66
   257
 43
1.0
 76
     1
 77
     6
 78
     2
 67
     7
 79
     5
170
     0
171
     0
290
     0
174
     0
 93
        1
 44
0.0
173
     0
291
     0
 45
0.0
1001
ACAD
1000
AcDbSavedByObjectVersion
1070
     0
  0
VISUALSTYLE
  5
49
102
{ACAD_XDICTIONARY
360
3EF
102
}
102
{ACAD_REACTORS
330
2D
102
}
330
2D
100
AcDbVisualStyle
  2

 70
     8
 71
     2
 72
     3
 73
     0
 90
        2
 40
-0.6
 41
30.0
 62
     5
 63
     7
421
 16777215
 74
     0
 91
        0
 64
     7
 65
   257
 75
     1
175
     1
 42
1.0
 92
        8
 66
   257
 43
1.0
 76
     1
 77
     6
 78
     2
 67
     7
 79
     3
170
     0
171
     0
290
     0
174
     0
 93
       13
 44
0.0
173
     0
291
     0
 45
0.0
1001
ACAD
1000
AcDbSavedByObjectVersion
1070
     0
  0
VISUALSTYLE
  5
4A
102
{ACAD_XDICTIONARY
360
3F1
102
}
102
{ACAD_REACTORS
330
2D
102
}
330
2D
100
AcDbVisualStyle
  2

 70
     5
 71
     0
 72
     2
 73
     0
 90
        0
 40
-0.6
 41
-30.0
 62
     5
 63
     7
421
 16777215
 74
     1
 91
        4
 64
     7
 65
   257
 75
     1
175
     1
 42
1.0
 92
        0
 66
   257
 43
1.0
 76
     1
 77
     6
 78
     2
 67
     7
 79
     3
170
     0
171
     0
290
     0
174
     0
 93
        1
 44
0.0
173
     0
291
     0
 45
0.0
1001
ACAD
1000
AcDbSavedByObjectVersion
1070
     0
  0
DICTIONARYVAR
  5
3DB
102
{ACAD_REACTORS
330
3D5
102
}
330
3D5
100
DictionaryVariables
280
     0
  1
1:1
  0
DICTIONARYVAR
  5
3D7
102
{ACAD_REACTORS
330
3D5
102
}
330
3D5
100
DictionaryVariables
280
     0
  1
STANDARD
  0
DICTIONARYVAR
  5
3D6
102
{ACAD_REACTORS
330
3D5
102
}
330
3D5
100
DictionaryVariables
280
     0
  1
STANDARD
  0
DICTIONARYVAR
  5
3D8
102
{ACAD_REACTORS
330
3D5
102
}
330
3D5
100
DictionaryVariables
280
     0
  1

  0
DICTIONARYVAR
  5
3D9
102
{ACAD_REACTORS
330
3D5
102
}
330
3D5
100
DictionaryVariables
280
     0
  1

  0
DICTIONARYVAR
  5
3DD
102
{ACAD_REACTORS
330
3D5
102
}
330
3D5
100
DictionaryVariables
280
     0
  1
0
  0
DICTIONARYVAR
  5
3DE
102
{ACAD_REACTORS
330
3D5
102
}
330
3D5
100
DictionaryVariables
280
     0
  1
0
  0
DICTIONARYVAR
  5
3DC
102
{ACAD_REACTORS
330
3D5
102
}
330
3D5
100
DictionaryVariables
280
     0
  1
2
  0
DICTIONARYVAR
  5
3DA
102
{ACAD_REACTORS
330
3D5
102
}
330
3D5
100
DictionaryVariables
280
     0
  1
1
  0
DICTIONARYVAR
  5
3E0
102
{ACAD_REACTORS
330
3D5
102
}
330
3D5
100
DictionaryVariables
280
     0
  1
80.000000
  0
DICTIONARYVAR
  5
3DF
102
{ACAD_REACTORS
330
3D5
102
}
330
3D5
100
DictionaryVariables
280
     0
  1
5.000000
  0
DICTIONARYVAR
  5
3E1
102
{ACAD_REACTORS
330
3D5
102
}
330
3D5
100
DictionaryVariables
280
     0
  1
2
  0
DICTIONARY
  5
3EB
102
{ACAD_REACTORS
330
3E9
102
}
330
3E9
100
AcDbDictionary
281
     1
  0
DICTIONARY
  5
3EA
102
{ACAD_REACTORS
330
3E9
102
}
330
3E9
100
AcDbDictionary
281
     1
  3
2431785194048
350
3E4
  3
2431785194064
350
3E5
  3
2431785194080
350
3E6
  3
2431785194096
350
3E7
  3
2431785194112
350
3E8
  0
DICTIONARY
  5
19
330
17
100
AcDbDictionary
280
     1
281
     1
  0
DICTIONARY
  5
3F
330
3E
100
AcDbDictionary
280
     1
281
     1
  3
ACAD_XREC_ROUNDTRIP
360
40
  3
FBXASSET
360
41
  0
DICTIONARY
  5
3B
330
3A
100
AcDbDictionary
280
     1
281
     1
  3
ACAD_XREC_ROUNDTRIP
360
3C
  3
FBXASSET
360
3D
  0
DICTIONARY
  5
D
330
B
100
AcDbDictionary
280
     1
281
     1
  3
ACAD_XREC_ROUNDTRIP
360
E
  3
BUMPTILE
360
F
  3
DIFFUSETILE
360
10
  3
FBXASSET
360
11
  3
OPACITYTILE
360
12
  3
REFLECTIONTILE
360
13
  0
DICTIONARY
  5
48
330
47
100
AcDbDictionary
280
     1
281
     1
  3
ACAD_ROUNDTRIP_2008_TABLESTYLE_CELLSTYLEMAP
360
3E2
  3
ACAD_XREC_ROUNDTRIP
360
3EE
  0
DICTIONARY
  5
3EC
330
2C
100
AcDbDictionary
280
     1
281
     1
  3
ACAD_XREC_ROUNDTRIP
360
3ED
  0
DICTIONARY
  5
3EF
330
49
100
AcDbDictionary
280
     1
281
     1
  3
ACAD_XREC_ROUNDTRIP
360
3F0
  0
DICTIONARY
  5
3F1
330
4A
100
AcDbDictionary
280
     1
281
     1
  3
ACAD_XREC_ROUNDTRIP
360
3F2
  0
XRECORD
  5
3E4
102
{ACAD_REACTORS
330
3EA
102
}
330
3EA
100
AcDbXrecord
280
     1
  1
AcDb_Thumbnail_Schema
102
{ATTRRECORD
341
3E5
  2
AcDbDs::TreatedAsObjectData
280
     1
291
     1
102
ATTRRECORD}
102
{ATTRRECORD
341
3E6
  2
AcDbDs::Legacy
280
     1
291
     1
102
ATTRRECORD}
  2
AcDbDs::ID
280
    10
 91
        8
102
{ATTRRECORD
341
3E7
  2
AcDs:Indexable
280
     1
291
     1
102
ATTRRECORD}
102
{ATTRRECORD
341
3E8
  2
AcDbDs::HandleAttribute
280
     7
282
     1
102
ATTRRECORD}
  2
Thumbnail_Data
280
    15
 91
        0
  0
XRECORD
  5
3E5
102
{ACAD_REACTORS
330
3EA
102
}
330
3EA
100
AcDbXrecord
280
     1
  1
AcDbDs::TreatedAsObjectDataSchema
  2
AcDbDs::TreatedAsObjectData
280
     1
 91
        0
  0
XRECORD
  5
3E6
102
{ACAD_REACTORS
330
3EA
102
}
330
3EA
100
AcDbXrecord
280
     1
  1
AcDbDs::LegacySchema
  2
AcDbDs::Legacy
280
     1
 91
        0
  0
XRECORD
  5
3E7
102
{ACAD_REACTORS
330
3EA
102
}
330
3EA
100
AcDbXrecord
280
     1
  1
AcDbDs::IndexedPropertySchema
  2
AcDs:Indexable
280
     1
 91
        0
  0
XRECORD
  5
3E8
102
{ACAD_REACTORS
330
3EA
102
}
330
3EA
100
AcDbXrecord
280
     1
  1
AcDbDs::HandleAttributeSchema
  2
AcDbDs::HandleAttribute
280
     7
 91
        1
284
     1
  0
XRECORD
  5
40
102
{ACAD_REACTORS
330
3F
102
}
330
3F
100
AcDbXrecord
280
     1
102
MATERIAL
148
0.0
149
0.0
149
0.0
 93
        0
 94
      127
282
     0
 72
     1
 77
     1
171
     1
175
     1
179
     1
273
     0
  0
XRECORD
  5
41
102
{ACAD_REACTORS
330
3F
102
}
330
3F
100
AcDbXrecord
280
     1
 70
     1
 90
429727718
  1
D62C5603-E3A1-4AEA-B7FB-FE5D8D0755AF
310
504B03040A0000080000CC70623B3DEE336E79000000790000001B0000006175746F6465736B2D64657369676E2D7061636B6167652E786D6C3C3F786D6C2076657273696F6E3D22312E302220656E636F64696E673D227574662D3822203F3E3C666F726D6174733E3C666F726D61743E687474703A2F2F736368656D612E
310
6175746F6465736B2E636F6D2F64657369676E2D7061636B6167652F323030393C2F666F726D61743E3C2F666F726D6174733E504B0304140006080800CC70623BD486FD9CA0000000F4000000130000005B436F6E74656E745F54797065735D2E786D6C7D8EC10E82300C865F65E91D8A1E8C310C0EEA1BF002731658846E
310
D98AC1B77784ABF1D8FE5FBFBF75BBCE937A534CCEB38643598122B6FEE978D0B0485F9C41B54DDD7D022595594E1A469170414C76A4D9A4D207E29CF43ECE46F218070CC6BECC4078ACAA135ACF422C856C0E68EA1BF5669944DDD7BCDE7B1F8E415D77AECB980613C2E4AC91FC167A2B244592486606FC29C8FD7F045B9A
310
EF7053A7E60B504B0304140006080800CC70623B853B8169EB0000007C01000008000000636F72652E786D6C8D90416EC3201045AF62CDB6C206821CC7C244919D9CA01740401C94182C03558F5F9C3852BBEB6A467FFE9B197D7EFC9E1EC5975982F5AE035262288C535E5B377690E21535501C055FBC8FBF6C503839990E
310
5619041F179FE64D52DE45E362569DD7661365082642A11EB9E920A89B99642953CC8E702F67A9EE7234257977194EC9EAE275C4EABCCF5EAD5940D4AC6F0E35A568B8F43562CD7046CD199FD07E60174276A7BE677B5EADB0E0D14EEFFB6A31321A0D82627C4084204C3F096B71DD52F6819B16635EADF63F509AF53FA164
310
5DDCD1EDDD17164090FCC8732078B56691CB33A85CD7DCC40F504B0304140006080800CC70623B55019EA25F0000007C00000007000000636E782E786D6C4DCB3B0E80201045D1AD90E915ED2CF8AC45050C11660C8261F98AB1B07AC9C97D42D718D865D3E909258CFD00CCE24AC6E326A164D74DC0B4128928FF32603847
310
2BA13128B1252AC747C6BAB984FC68F0B87FE8960A5C09FE86CFB69FBA01504B0304140006080800CC70623BDBABAAF470010000D40300000C0000006662782F636F72652E786D6CC553D16E823014FD95A6AF4B694182CC941A83FA05FB810A9511A125A5257EFE2E82712ECEB8A7F100CD39F7F69E734AF9FADC366850B6
310
AF8DCE7018308C942E4C59EB2AC3DE1D498AD15A706B8CFB56869196ADCAF00863C12B6B7C374385D14E6907A836A59A41D9F7CA615434B0C8705F7CAA5606D23BA8E84F41278B93AC54100640439DE0BDB320004D43C63716C7C399D30917DCFBBA9CD9BA8469F5B156168B24CED3F7248AC8769F27244EB73B92EED8862C
310
B7F13E0C179B3C8F979C8ECD82BBBABDAA2BAC924E9558448CBD9330242CFA08E3154B5651FCC6D215639C8EE5774DBE2B5F6CF2B5768B68963BB5F5588420E442FC700B1139D4CB01F450C1E918227C2E09DF070D8140C84E1E9AAB8F1340832A9CB13130A5F1376A908D57309505ECF2A0DF179C4E9D30F5B239B87E3823
310
7A79C6F31DE1A8A5AEC08474B03C7837EAE4938639B44E5932B833D2C6B6B279CDC613877FA26EE21F4A2A4C63EC7F29A2F301D1F9F7A0E37D145F504B0304140006080800CC70623B9C113CC27E0000009D0000000B0000006662782F636E782E786D6C4DCCDF0A83201C86E15B91DFB94BFB330DD428C8FB886521330DA7
310
6397BF1A1DECE883878F57749FCDA1B7892F1BBC047A23808C7F84D9FA55424E0BE6803A256208E9EF06C84F9B91703228B1C690F78B66B34CD9A5439DF5CF0BFBF65E35BCA1B8D6A5C6F540381E886698B5741C695F9503EBA150A2F8958E3DC3EA0B504B0304140006080800CC70623B7DF2F77C2A010000120200003100
310
00006662782F41393633353835312D344632462D344230382D423046372D3739314545314133324237412F636F72652E786D6C8D51DB8EC22014FC15C2939B0D2DB4B45643319AE817EC0F6041255A68B86CFCFC856D4D76DF7CE190393373060EDB3DC707F856CE6B6B7A480A0C81328395DA5C7B18C3057510EC3873D686
310
3F34088C18550F330C39BB3A1BA7051AAC09CA84841A2BD5020AEF55806078A44B0FFD7053A328440C89E1EFC52486BBB8AA8214A99D789CF9E05200300FC927E4FB4D5B375D43103D5527440FB843077C5AA3F5861C8F645F5787F59E95B390B318B55CE45AA638FAA2957BD7248B390B7A7CC51F9C124149C82B8C378810
310
84AB2F42B7B8DD56F413775B8C5999E9FF4471926F8AA236A1AE96B8B3CC434E5839373893369E1FAF30EA395917409EB7F26AF8801C171837A4A6AC9C89E9F9C9B1A58BA30FD6A5EF5DDDCF894B9AD9B6A59C957943A9FCAE2FD5BC4DFE03504B0304140006080800CC70623BAD7543B64E01000033030000300000006662
310
782F41393633353835312D344632462D344230382D423046372D3739314545314133324237412F636E782E786D6CD593CD6EC32010845F0571AD6CE3D48AD20813A9873E410FBD12D82434182C7EAAE6EDBB2424CD25871E7B41D6EC30B3FA84F9E67BB2E40B4234DE8DB46F1925E094D7C6ED479AD3AE5951B2113C789FEE
310
6C943839C1488B4C05DF079FE72A69D8C96C13AAD6B8631503449F83828872B949AC57D26200B826A308D316B4064D6E46FCDA41C05550DC9E483A00797BFD207EFB092A45DE9514C1BBD22178396BD39D891265658C238DEA00936C654E5E433CB65A26D9F6EDB5EBC14EBF49A45CB856E66048291F6939A9A81BB5C89177
310
38143CA680F4AA299D66A042CEB3354A2684DC9D8D178FE0D9B8B41CAAD720F880EE7EF93C0C18769E099ECC04D5A102C8049A8A05632F4DDF376CF1DE0F6BB65C2F8627B65A33C6BB62177CEBBDAD973006829F89F22E814B54F4BC2BE347F8AA8F681390B50FA73F804400B5F542E796F19FF974E7F78DB802FE05E20750
310
4B0304140006080800CC70623BE75B7789680500003C100000340000006662782F41393633353835312D344632462D344230382D423046372D3739314545314133324237412F6F626A656374732E786D6CAD575B8F9B3818FD2B887D06C22499CB8AA1CA655245D5B455A356FB305264C061D8018C6C3393D95FBFC7600890
310
A4CD5EF210B0B1BFEBF98E3F7B1FF6596ABC522E1296DF9BAE3D320D9A872C4AF2F8DE2CE5CEBA358D0FBEC719939D65A691938CDE9B6ADAF4BD98B3B2D05311DD91329583D9D5FC0F438434A7A611A644887B5384CF34233629258BA878B12322891DEFF6B66BD70BFB62634E8AE781D082709A4B588AF91C528CDA28B73F
310
1C998EEF39EABBEFA97FBD6A7C7E9553F9D3D79FE442923C3C523610337627CB87ABE99D359D4CC6D6E4FACAB5E6ABF9D2726FC6A3C5F56271377BB88362213924694B38DD99FE47C48627A1E7D49F5A8BB5E1A74C0A599ED3B0F21F1E56366B89112D681E218F0915D0D6F17AD41FBA2A369DCF6335D62ABBD39779D5DDD1
310
11D4D8DE3CBB96B2E04FB8202E41051754A1AA8E8F76B4C6DFE810B580B1547F4B84911149794252234D024EF8BBE963A95AE27B3D310A9D5C215C7960FAEE415ED75694C6AFB17BCACA5D99A60A9AA65F217B0BFC53292ACB92BF283FAD0D3621576592CB5BED907C2FA8E9DF794E35E97BEA31BED21FEB401ABB94C44839
310
DCACBF0E1C5DA8DA5B2F4DFFD32AD86F543D9E565E7056502E157C00AD2671CD534549AB752FCA9CDA00677A313F04E51B22FF19E57B300579E3C97EB29F682D92935CEC18CF901B7B54FD8C51F362B56FC72FE0B3C1EAE335EDCCBF5AEC39ADB17DC238973F804BA5E6F6BFE7AF1FB32E523BE9F3BD571418E3631DCA4D48
310
5250CF639223210A9446CA30052EDF057BD35F8329C1ECD84552BF0DC8D18BE7BCE23BFE6BD960AB4A7DE79923A103BEBD80F911CBAA2C60DB19B01CF164A5583B772EE6D3FFA56666CBCDA74DC97724A48F9A58967497E489C4D979006FD7A05E227A1EBDD0F737C623387A9C844D3709995625106D157315F8B8392CD4E0
310
A0B9A720C4BE9829CEF37EA1E13111214D53925356365ADA634861B52519DD27A00AEB808EAF0628E6F435519D446F45CF2C9CF5214F0A15B2F6D06B79DA3EE3CBF7F56780D2F4E7EF73A0F5E5B02A38D07DC852C6B7C1FBB6664213E0C39E3EBA7FF4E1AD23EA2829407C85E586727488B751B2DB9502BC7B228A3FD68B6E
310
A65A22397E690AA8D158D7E404EC8CDA235CC3B7D1898680131CEC2CDF2638C65196279577750F15884AEE19F94199155B92B13297978469D4F8D358DF0AEF7631E28DC8F0D9F437D5D39A83B2231A1D52D543813A824EF8D44BCFF2FA6A31BD1E8DAD87F1CCB526B3879935BF59CDADD5C37479BB1CDD4CA7B3556B516589
310
EF352754B706114D9C885EC9131DE6EFEB43D99AFE2391C2F958179413D7CFEF6B1B6DB1E7600F00DE6E5C67454A339A4BA2E0FBA85ED26F045D454F463DBFCE484C2F90F2E5E3666003662ED8F755951A7D1BECD5B30B550B2785C8E7320B7292A4838DDA71BBC863ED7613CAF659337A3354231D4FF4A182A54904C2898C
310
98B28C4AD0CE056CCF332A80986E571EE9DBC305BB5FEB7E509220A58D25CF042D712A806AC0AD0C657FDEF80D2D9CEAA2EE4D1C76F60BFE74219A06527D6F82DF6412526107381E55E353090704D085B52408A8913C4ED159D79BDA71BB4BC506F4831350EB6F975CD22D69BF7AC49B91A2C0A9DDA3D5CA36AD20FC478E37
310
E61844E2352865EBCB61A275A65283CAAA9DD27703B4102F5AF51EF5F573B75CBB5AD38BC845F7A49F82A0966A49C2E3EA5EA0ECD326CD965F1DB402C6FA8B51A4658C5C5E2EC9E214602E55810345408596591009A82E7E7FFACA19EEA299B14A0081A705CB3296EBC14CDF658DCD336EA6D1136881AAEB87B81AB9EE53D5
310
F5EB8BC8362082DA24122F98680A4E7930C01A0079749CEA14382A0783E5EBA5A10F8C098456A03D6A4AEB6BB881E2513747552A5DB22C7EDAF83BD5528081A365F7FF06504B0304140006080000CC70623B000000000000000000000000350000006662782F41393633353835312D344632462D344230382D423046372D37
310
39314545314133324237412F76657274696365732E62696E504B0304140006080800CC70623BF270F1330600000004000000360000006662782F41393633353835312D344632462D344230382D423046372D3739314545314133324237412F747269616E676C65732E62696E636660600000504B0304140006080000CC7062
310
3B000000000000000000000000370000006662782F41393633353835312D344632462D344230382D423046372D3739314545314133324237412F617474726962757465732E62696E504B0304140006080800CC70623B08DA0BD19000000041010000360000006662782F41393633353835312D344632462D344230382D4230
310
46372D3739314545314133324237412F6469726563746F72792E786D6C858F410AC3201045AF22B36F53E9A60B35CBEEBAE80D244E44489C6234F4F835464A48035D0DF398FF9F8AF63D0E6CC63039F212F8F9020C7D47C6792B21C5FE7403D62A1188E2E60C98D7234A5830286103A55745067B9D86B8A3CF9C7F90C11DE6
310
07FB144396D7B6A82D282E9A152AD114D5EF2CB866EEE831B8EEA07A7BB5A8D7D61A2BAAEB7FD5F70921FF497D00504B0304140006080800CC70623BEDD1DC58FD000000A00100003B0000006662782F41393633353835312D344632462D344230382D423046372D3739314545314133324237412F7265736F75726365732F
310
636F72652E786D6C8D504B6E833010BD0A9A6D65B00922041947112427E8052C33A156828DFCA97AFC9A40A576D7CDCCE87D344F8F9FBFE667F689CE6B6B3A6039850C8DB2A336530731DC4903D95970676DF82583CCC8193B5861107C72362E3BA4AC096842428D1D7107A5F7182053CF7474E0D507CE32973124857FE48B
310
540F3961CEF244279DE03EB81420DB9EAC1384436FA353E879B1B182C7A8C75DA3C7F453DF353A1075D537A7BA6464B8F535A99AE14A9A2BBD90E350DD183B5CFABE3AF262350B1EF4FC9351399401471025A527C218A1E53BAB5A5AB765F5469B96525EACF23FA6B88CFF34456DC2A1DCE36E360F82A5202F42F062ED2BAD
310
579969AFDD8A6F504B010214000A0000080000CC70623B3DEE336E79000000790000001B00000000000000000000000000000000006175746F6465736B2D64657369676E2D7061636B6167652E786D6C504B01021400140006080800CC70623BD486FD9CA0000000F40000001300000000000000000000000000B20000005B
310
436F6E74656E745F54797065735D2E786D6C504B01021400140006080800CC70623B853B8169EB0000007C010000080000000000000000000000000083010000636F72652E786D6C504B01021400140006080800CC70623B55019EA25F0000007C000000070000000000000000000000000094020000636E782E786D6C504B
310
01021400140006080800CC70623BDBABAAF470010000D40300000C00000000000000000000000000180300006662782F636F72652E786D6C504B01021400140006080800CC70623B9C113CC27E0000009D0000000B00000000000000000000000000B20400006662782F636E782E786D6C504B01021400140006080800CC70
310
623B7DF2F77C2A010000120200003100000000000000000000000000590500006662782F41393633353835312D344632462D344230382D423046372D3739314545314133324237412F636F72652E786D6C504B01021400140006080800CC70623BAD7543B64E010000330300003000000000000000000000000000D2060000
310
6662782F41393633353835312D344632462D344230382D423046372D3739314545314133324237412F636E782E786D6C504B01021400140006080800CC70623BE75B7789680500003C10000034000000000000000000000000006E0800006662782F41393633353835312D344632462D344230382D423046372D3739314545
310
314133324237412F6F626A656374732E786D6C504B01021400140006080000CC70623B0000000000000000000000003500000000000000000000000000280E00006662782F41393633353835312D344632462D344230382D423046372D3739314545314133324237412F76657274696365732E62696E504B01021400140006
310
080800CC70623BF270F133060000000400000036000000000000000000000000007B0E00006662782F41393633353835312D344632462D344230382D423046372D3739314545314133324237412F747269616E676C65732E62696E504B01021400140006080000CC70623B0000000000000000000000003700000000000000
310
000000000000D50E00006662782F41393633353835312D344632462D344230382D423046372D3739314545314133324237412F617474726962757465732E62696E504B01021400140006080800CC70623B08DA0BD1900000004101000036000000000000000000000000002A0F00006662782F41393633353835312D344632
310
462D344230382D423046372D3739314545314133324237412F6469726563746F72792E786D6C504B01021400140006080800CC70623BEDD1DC58FD000000A00100003B000000000000000000000000000E1000006662782F41393633353835312D344632462D344230382D423046372D3739314545314133324237412F7265
310
736F75726365732F636F72652E786D6C504B0506000000000E000E0080040000641100000000
  0
XRECORD
  5
3C
102
{ACAD_REACTORS
330
3B
102
}
330
3B
100
AcDbXrecord
280
     1
102
MATERIAL
148
0.0
149
0.0
149
0.0
 93
        0
 94
      127
282
     0
 72
     1
 77
     1
171
     1
175
     1
179
     1
273
     0
  0
XRECORD
  5
3D
102
{ACAD_REACTORS
330
3B
102
}
330
3B
100
AcDbXrecord
280
     1
 70
     1
 90
429727718
  1
30362254-06B7-45E0-A893-8CFA70E3D6BC
310
504B03040A0000080000CC70623B3DEE336E79000000790000001B0000006175746F6465736B2D64657369676E2D7061636B6167652E786D6C3C3F786D6C2076657273696F6E3D22312E302220656E636F64696E673D227574662D3822203F3E3C666F726D6174733E3C666F726D61743E687474703A2F2F736368656D612E
310
6175746F6465736B2E636F6D2F64657369676E2D7061636B6167652F323030393C2F666F726D61743E3C2F666F726D6174733E504B0304140006080800CC70623BD486FD9CA0000000F4000000130000005B436F6E74656E745F54797065735D2E786D6C7D8EC10E82300C865F65E91D8A1E8C310C0EEA1BF002731658846E
310
D98AC1B77784ABF1D8FE5FBFBF75BBCE937A534CCEB38643598122B6FEE978D0B0485F9C41B54DDD7D022595594E1A469170414C76A4D9A4D207E29CF43ECE46F218070CC6BECC4078ACAA135ACF422C856C0E68EA1BF5669944DDD7BCDE7B1F8E415D77AECB980613C2E4AC91FC167A2B244592486606FC29C8FD7F045B9A
310
EF7053A7E60B504B0304140006080800CC70623B1EC5D7A3EB0000007C01000008000000636F72652E786D6C8D90416EC3201045AF82665B6103C6756C6122AB4D4ED00B204C5C94182C03558F5F9C3852BBEB6A467FFE9B197D71FC9E6FE8CBACC17AD7032D0820E3B41FAD9B7A48F1820F808E52ACDEC75F36404ECDA687
310
4D0629A6D5A76597B477D1B89855E747B38B2A041301E95B6E7A08FAD3CCAA50296647B8168BD2573599823EBB0CA76447F43862C7BCCF5EAC59410E4DDD9C7973C2755553CCCFA4C603E3040F1565ED3B1FDE4E432BCA0D9622DAF9795FAF464533826484B498524CD807E51D79ED187F21878E10516EF63F505AC67F42C9
310
BA58B1FDDD071640D2FCC87D2045B96591CB3DA85CB7DCE40F504B0304140006080800CC70623B55019EA25F0000007C00000007000000636E782E786D6C4DCB3B0E80201045D1AD90E915ED2CF8AC45050C11660C8261F98AB1B07AC9C97D42D718D865D3E909258CFD00CCE24AC6E326A164D74DC0B4128928FF32603847
310
2BA13128B1252AC747C6BAB984FC68F0B87FE8960A5C09FE86CFB69FBA01504B0304140006080800CC70623B8C9102E971010000D40300000C0000006662782F636F72652E786D6CC5535B6E833010BC8AE5DF0A6C08340F1947A84D4ED00B38C6A128602363A31CBFCB234A53A551FA553EC09AD9F5CE8C31DB9E9B1AF5CA
310
7695D1198E428A91D2D214952E33ECDD315861B4E5CC1AE3BE9561A445A3323CC098B3D21ADFCE9034DA29ED00D5A6503328BA4E398C640D8B0C77F253352214DE4145770A5B214FA2546114020D759C75CE8200340D19DE981F0F6746269C33EFAB6266AB02A655C74A59CCF365BADC27CB5D902ED22848F6340DF238A141
310
BE88E2F57B92BFEDF23523433367AE6A2EEAA455C2A902F398D2751045018D3FA264435F3771F242571B4A1919CA6F9A7C5B3CD9E42BED16F12C776AEB308F40C848FC700B1139D4891EF410CEC810227CC6846F8386402064270EF5C5C709A05E49676C024C61FC95EA45ED154CA5211D1FF4FB8291A913A68E9B83EBBB33
310
E2A7673CDE118E5AE8124C0807CB8377834E366998436B950D7A7746DAD846D4CFD978E0F04FD455FC5D49D2D4C6FE9722321F10997F0F32DC47FE05504B0304140006080800CC70623BFFEA85907E0000009D0000000B0000006662782F636E782E786D6C4DCCD10A83201886E15B91FFDC95D95A811AB6F23E625948A6C3
310
E9D8E5AF46073BFAE0E1E365ED67B3E8ADC3CB78C7815C7240DA3DFC64DCC221C519D7805AC182F7F1EF06C88D9BE6703008B6049F9E274D7A1E938DBB5AE3D6131B2589BA0D3D965551E0B2EA732C9B9A624AAEB41E3A557677029960D9AFB4EF11165F504B0304140006080800CC70623B4FEEA4082C0100001202000031
310
0000006662782F39464131463745442D413632322D343644302D413938332D3331353338454246344243312F636F72652E786D6C8D515B6EC32010BC0AE2AB55850DD871ED0813254D72825EC00192A2C460F1A872FC42ED48ED5F7E00CDCECCCEB26C731F6FE05B39AFADE921293004CA082BB5B9F43086336A21D870E6AC
310
0D7F68109861543DCC30E4ECE26C9C164858139409093556AA051CBC570102714B8F1E7AF1A5C6A11862480C7F2DA6415C878B2A4891CA89C7990F2E050073937C42DE1DB7E4F87ED8A36D4329AA9B3D46DBAEAD504556557BD81DEBDD0761E52CE42C462D17B996298E3E6BE59E35C962CE821E1FF18553435012728A7187
310
0841987E927A8D9B35ADDF70BBC6989599FE4F1427F9A4286A132ABAC49D651EF234CD5CE04CDA78BA3DC2A8FB645D00B9DF8B57E215725C60BCA2A463E54C4CE327C7A65E1C7DB02E7DEFCBF594B864C5CA6CDBD49C957943E9FA5D5FBAF336F90F504B0304140006080800CC70623BAD7543B64E01000033030000300000
310
006662782F39464131463745442D413632322D343644302D413938332D3331353338454246344243312F636E782E786D6CD593CD6EC32010845F0571AD6CE3D48AD20813A9873E410FBD12D82434182C7EAAE6EDBB2424CD25871E7B41D6EC30B3FA84F9E67BB2E40B4234DE8DB46F1925E094D7C6ED479AD3AE5951B2113C
310
789FEE6C943839C1488B4C05DF079FE72A69D8C96C13AAD6B8631503449F83828872B949AC57D26200B826A308D316B4064D6E46FCDA41C05550DC9E483A00797BFD207EFB092A45DE9514C1BBD22178396BD39D891265658C238DEA00936C654E5E433CB65A26D9F6EDB5EBC14EBF49A45CB856E66048291F6939A9A81BB5
310
C8917738143CA680F4AA299D66A042CEB3354A2684DC9D8D178FE0D9B8B41CAAD720F880EE7EF93C0C18769E099ECC04D5A102C8049A8A05632F4DDF376CF1DE0F6BB65C2F8627B65A33C6BB62177CEBBDAD973006829F89F22E814B54F4BC2BE347F8AA8F681390B50FA73F804400B5F542E796F19FF974E7F78DB802FE05
310
E207504B0304140006080800CC70623B16AB87BA640500003C100000340000006662782F39464131463745442D413632322D343644302D413938332D3331353338454246344243312F6F626A656374732E786D6CAD575B6FA33818FD2B887DE6924B3BED8A326A92B68A663B534DD4D13E548A0C38942D60649B369D5FBFC7
310
600890A493BDE42160637FD7F31D7FF63E6FB3D478A55C242CBF3247B66B1A340F5994E4F19559CA8D75611A9F7D8F33263BCB4C232719BD32D5B4E97B316765A1A722BA21652A07B3B7B33F0D11D29C9A46981221AE4C113ED38CD8A4942CA2E2C58E882476BCD9DA23BB5ED8171B73523C0F841684D35CC252CCE79062D4
310
468DFA43D7747CCF51DF7D4FFDEB5593E3AB9CCA9FBEFE241792E4E19EB28198C968BAB8199F5D5A67D3E9C49A9E8F47D6EC76B6B0469F26EEFC7C3EBFBCBEB98462213924694B38DD98FE1D62C393D073EA4FADC5DAF04326852CCF6958F90F0F2B9BB5C48816348F90C7840A68EB78EDF68723159BCEE7891A6B95DDE9D3
310
BCEAEEE8086A6C6F9E5D4B59F0175C10A7A0820BAA5055C7473B5AE3CFDD452D602CD5DF12616444529E90D448938013FE6EFA58AA96F85E4F8C42275708571E98FE6827AF6B2B4AE3D7D83D64E5A64C53054DD3AF90BD06FEA9149565C94FCA0F6B834DC85599E4F2423B24DF0B6AFA979E534DFA9E7A4CC6FA631D486393
310
921829879BF5D781A373557BCB85E97FB90DB62B558F8795179C15944B051F40AB495CF35451D26A4727654E6D8033BD98EF82F21D91FF8AF2DD9982BCF1643BDD4EB516C9492E368C67C88DED563FC36D5EACF66DFF057C3658BDBFA69DF9578B3DA735B64F18C7F20770A9D45CFCF7FCF563D6456A277DBEF78A02637CA2
310
43B90A490AEAB94F72244481D24819A6C0E59B606BFA4B3025981DBB48EAB701D97BF19C577CC77F2D1B6C55A9EF3C732474C0B727303F625995056C3B02963D9EAC146BE78EC5FCEC7FA999EBC5EACBAAE41B12D27B4D2C0BBA49F244E2ECDC81B76B502F113D8F5EE8FB1BE3111CDD4FC2AA9B844CAB1288B68AB90A7CDC
310
1C166AB0D3DC5310625FCC14E779BFD0709F8890A629C9292B1B2DED31A4B0DA928CEE135085754027E3018A397D4D5427D15BD1330B677DC8934285AC3DF45A9EB68FF8F2B8FC0A509AFEECFD0FF2DE25CC6047F7214B195F07EFEB9A094D800F7BFAE8FED187B78EA8A3A400F115961BCAD1215E47C966530AF0EE8128FE
310
58CEBB996A8964FFA529A046635D9353B0336A8F700DDF46271A024E70B0B37C9DE01847591E54DED53D54202AB947E4076556AC49C6CA5C9E1226B7F1A7B1BE15DEED62C41B91E1B3E9AFAAA735036547343A925075041DF0A9979E893B391F8FCFA6967B3EFB644DCF6E5CEBFAE272625DCC6FAF3FB93793C5F90CE1EF57
310
407342756B10D1C489E8953CD1617E5CEECAD6F4EF8914CE5D5D504E5C3F1F9736DA62CFC11E00BCDDB8CC8A9466349744C1F75EBDA4DF09BA8A9E8C7A7E9991989E20E5DBDD6A6003664ED8F7A04A8DBE0DF6EAD9B9AA858342E47399053949D2C146EDB85DE4B176BB0965FBAC19BD19AA918E27FA50C1D22402E144464C
310
59462568E704B6E71915404CB72B8FF4EDE184DDAF753F284990D2C6926782963815403548A70C657FDEF80D2D9CEAA2AE4C1C76F60BFE74219A06527D6582DF6412526107381E55E353090704D085B52408D0933C4ED159D79BDA71BB4BC506F4831350EB6F979CD22D69BF7AC49B91A2C0A9DDA3D5CA36AD20FC478E37E6
310
1844E2352865EBCB6EA275A652E3836BE04EFB400BF1A2556F515F1FBB35B2AB35BD889C744FFA1004B5544B121E57F70215746DD2F5E2C1412B602CBF19455AC6C8E5E9922C4E01E65215385004546899059180EAFCF7A707CE7017CD8CDB0410789AB32C63B91E5CEBBBACB17AC6CD347A022D5075FD106377347AAABA7E
310
7D11590744509B44E205134DC1290F06580320F78E537D3D73540E06CB970B431F185308AD40BBD794D6D77003C5A36E8EAA54BA64597CD8F83BD552A080A365F7FF06504B0304140006080000CC70623B000000000000000000000000350000006662782F39464131463745442D413632322D343644302D413938332D3331
310
353338454246344243312F76657274696365732E62696E504B0304140006080800CC70623BF270F1330600000004000000360000006662782F39464131463745442D413632322D343644302D413938332D3331353338454246344243312F747269616E676C65732E62696E636660600000504B0304140006080000CC70623B
310
000000000000000000000000370000006662782F39464131463745442D413632322D343644302D413938332D3331353338454246344243312F617474726962757465732E62696E504B0304140006080800CC70623B08DA0BD19000000041010000360000006662782F39464131463745442D413632322D343644302D413938
310
332D3331353338454246344243312F6469726563746F72792E786D6C858F410AC3201045AF22B36F53E9A60B35CBEEBAE80D244E44489C6234F4F835464A48035D0DF398FF9F8AF63D0E6CC63039F212F8F9020C7D47C6792B21C5FE7403D62A1188E2E60C98D7234A5830286103A55745067B9D86B8A3CF9C7F90C11DE607
310
FB144396D7B6A82D282E9A152AD114D5EF2CB866EEE831B8EEA07A7BB5A8D7D61A2BAAEB7FD5F70921FF497D00504B0304140006080800CC70623B0D6EF93BFE000000A00100003B0000006662782F39464131463745442D413632322D343644302D413938332D3331353338454246344243312F7265736F75726365732F63
310
6F72652E786D6C8D50596E833010BD0A9ADFCA60B334011947A8694ED00B586642AC041B79A97AFC9A40A5F6AF3F33A3B7689E1E3F7DCD8FEC139DD7D6F4C0720A191A65476DA61E62B892236427C19DB5E1970C322367EC618541F0C9D9B8EC90B226A009093576C41D94DE63804C3DD2D18357379C652E63480A7FCF17A9
310
EE72C29CE5894E3AC17D702940B63D59270887DE46A7D0F36263058F518FBB468FE9A7BE6A7420864373B8D4873369AA8691FA421B3294352543C5CAF65C0F6FEF43CB8BD52C78D0F34F46E550061C419494B6843142CB0F5677F4B52BEB177AEC28E5C52AFF638ACBF84F53D42654E51E77B379102C05791282176B5F693D
310
CB4C7BED567C03504B010214000A0000080000CC70623B3DEE336E79000000790000001B00000000000000000000000000000000006175746F6465736B2D64657369676E2D7061636B6167652E786D6C504B01021400140006080800CC70623BD486FD9CA0000000F40000001300000000000000000000000000B20000005B
310
436F6E74656E745F54797065735D2E786D6C504B01021400140006080800CC70623B1EC5D7A3EB0000007C010000080000000000000000000000000083010000636F72652E786D6C504B01021400140006080800CC70623B55019EA25F0000007C000000070000000000000000000000000094020000636E782E786D6C504B
310
01021400140006080800CC70623B8C9102E971010000D40300000C00000000000000000000000000180300006662782F636F72652E786D6C504B01021400140006080800CC70623BFFEA85907E0000009D0000000B00000000000000000000000000B30400006662782F636E782E786D6C504B01021400140006080800CC70
310
623B4FEEA4082C0100001202000031000000000000000000000000005A0500006662782F39464131463745442D413632322D343644302D413938332D3331353338454246344243312F636F72652E786D6C504B01021400140006080800CC70623BAD7543B64E010000330300003000000000000000000000000000D5060000
310
6662782F39464131463745442D413632322D343644302D413938332D3331353338454246344243312F636E782E786D6C504B01021400140006080800CC70623B16AB87BA640500003C1000003400000000000000000000000000710800006662782F39464131463745442D413632322D343644302D413938332D3331353338
310
454246344243312F6F626A656374732E786D6C504B01021400140006080000CC70623B0000000000000000000000003500000000000000000000000000270E00006662782F39464131463745442D413632322D343644302D413938332D3331353338454246344243312F76657274696365732E62696E504B01021400140006
310
080800CC70623BF270F133060000000400000036000000000000000000000000007A0E00006662782F39464131463745442D413632322D343644302D413938332D3331353338454246344243312F747269616E676C65732E62696E504B01021400140006080000CC70623B0000000000000000000000003700000000000000
310
000000000000D40E00006662782F39464131463745442D413632322D343644302D413938332D3331353338454246344243312F617474726962757465732E62696E504B01021400140006080800CC70623B08DA0BD190000000410100003600000000000000000000000000290F00006662782F39464131463745442D413632
310
322D343644302D413938332D3331353338454246344243312F6469726563746F72792E786D6C504B01021400140006080800CC70623B0D6EF93BFE000000A00100003B000000000000000000000000000D1000006662782F39464131463745442D413632322D343644302D413938332D3331353338454246344243312F7265
310
736F75726365732F636F72652E786D6C504B0506000000000E000E0080040000641100000000
  0
XRECORD
  5
E
102
{ACAD_REACTORS
330
D
102
}
330
D
100
AcDbXrecord
280
     1
102
MATERIAL
148
0.0
149
0.0
149
0.0
 93
        0
 94
      127
282
     0
 72
     1
 77
     1
171
     1
175
     1
179
     1
273
     0
  0
XRECORD
  5
F
102
{ACAD_REACTORS
330
D
102
}
330
D
100
AcDbXrecord
280
     1
270
     1
271
     1
  0
XRECORD
  5
10
102
{ACAD_REACTORS
330
D
102
}
330
D
100
AcDbXrecord
280
     1
270
     1
271
     1
  0
XRECORD
  5
11
102
{ACAD_REACTORS
330
D
102
}
330
D
100
AcDbXrecord
280
     1
 70
     0
 90
1673772943
  1
ECE7A1D2-D628-4531-984C-D00F80459256
310
504B03040A0000080000CC70623B3DEE336E79000000790000001B0000006175746F6465736B2D64657369676E2D7061636B6167652E786D6C3C3F786D6C2076657273696F6E3D22312E302220656E636F64696E673D227574662D3822203F3E3C666F726D6174733E3C666F726D61743E687474703A2F2F736368656D612E
310
6175746F6465736B2E636F6D2F64657369676E2D7061636B6167652F323030393C2F666F726D61743E3C2F666F726D6174733E504B0304140006080800CC70623BD486FD9CA0000000F4000000130000005B436F6E74656E745F54797065735D2E786D6C7D8EC10E82300C865F65E91D8A1E8C310C0EEA1BF002731658846E
310
D98AC1B77784ABF1D8FE5FBFBF75BBCE937A534CCEB38643598122B6FEE978D0B0485F9C41B54DDD7D022595594E1A469170414C76A4D9A4D207E29CF43ECE46F218070CC6BECC4078ACAA135ACF422C856C0E68EA1BF5669944DDD7BCDE7B1F8E415D77AECB980613C2E4AC91FC167A2B244592486606FC29C8FD7F045B9A
310
EF7053A7E60B504B0304140006080800CC70623BD9DDAED0EC0000007C01000008000000636F72652E786D6C8D90416EC3201045AF82665B61836D9CD8C2444DD39CA01740405C94182C03558F5F9C3852BBEB6A467FFE9B197D7EF89E6EE8CB2CC17A37002D0820E394D7D68D03A478C17B4007C117EFE32F1B20272733C0
310
2A83E0E3E2D3BC49CABB685CCCAAF3DA6CA20CC14440EA969B0182FA34932C648AD911AEC52CD5558EA6A0CF2EC329598D1E47ACCEFBECC59A050463A7EA5833865FEBDD0E37353BE3EE8DBDE3F6786A48D375FBF6CC78B9C282473B3DEFABC5C86834888A900E538A49F5419B9EB47DD5BC907D4F082F57FB1F28CDFA9F50
310
B22ED6D5F6EE030B20687EE43E10BC5CB3C8E51E54AE6B6EE207504B0304140006080800CC70623B55019EA25F0000007C00000007000000636E782E786D6C4DCB3B0E80201045D1AD90E915ED2CF8AC45050C11660C8261F98AB1B07AC9C97D42D718D865D3E909258CFD00CCE24AC6E326A164D74DC0B4128928FF326038
310
472BA13128B1252AC747C6BAB984FC68F0B87FE8960A5C09FE86CFB69FBA01504B0304140006080800CC70623BA24EB22D72010000D40300000C0000006662782F636F72652E786D6CC5535B6E833010BC8AE5DF0A6C5E49888CA3A6694ED00B38E05014B091B1518EDFE511A5A9D228FD2A1F60CDEC7A67C6986DCE4D8D7A
310
69BA4AAB0C073EC548AA5C17952A33ECECD15B61B4E1CC686DBF9561A44423333CC098B3D268D7CE50AE9595CA02AA74216750749DB418E5352C32DCE59FB211BE70162ABA93DF8AFC244AE9073ED050C759670D0840D390E18DF9F1706664C23973AE2A66B62A605A75ACA4C13C4976E1364A12EF355A2EBD384AF65EFA96
310
BC7B8BED2EA6719AAE16FB8491A199335B351775B991C2CA02F390D2D40B028F861F41BCA68B7518BFD0D59A524686F29B26D7164F36B94AD9289CE54E6D1DE6010819891F6E21228B3AD1831EC219194284CF98F06DD01008846CC5A1BEF83801D4CBDC6A1303536877A57A513B0953A94FC707FDBE6064EA84A9E3E6E0FA
310
EE8CF0E9198F7784A316AA0413C2C2F2E0ECA0934D1AE6D05A69BCDE9E91D2A611F573361E38FC1375157F5752AE6B6DFE4B11990F88CCBF0719EE23FF02504B0304140006080800CC70623B408A7D3B7C0000009D0000000B0000006662782F636E782E786D6C4DCCD10A83201886E15B91FFDC552A92A0064DBC8F581632
310
D3703A76F9ABD1C18E3E78F878E5F0D9027ABBFCF2292AE86E2D20171F69F6715550CB827B40839639A5F2770314A7CD293819B45C73AAFB45B35BA61ACAA1C1C7E7855C58C15BC331339661262CC762340413D68D77DA5B42298546CBE6573AF60CEB2F504B0304140006080800CC70623B449FB9BD290100001202000031
310
0000006662782F36394639363044362D344446342D343946362D394244322D3234314243333846323333332F636F72652E786D6C8D515B6EC32010BC0AE22B55850D98B871848994463E412FE002495162B07854397EA176A4F62F3F2C9A9D991D587EB84F37F0AD7D30CEF6905418026DA553C65E7A98E219ED203808EE9D
310
8B7F6810D871D23D2C3014FCE25D9A57483A1BB58D19B54EE9151C43D0110279CB971E06F9A5A7B11A53CC8C70ADE6515EC78BAE4895DB992778883E0700CB907242D17643D7E2538BD869608875438BBAE38922CAC8F1BDD90DB4691A5E2F42C153326A951B95E398B3D1FE599322163C9AE9115F7A3D46ADA0A018778810
310
84E907617BDCEE297BC5BB3DC6BC2EF47FA234AB2745C9D8D8D035EE220B50105E2F0DC1954B9FB747187D9F9D8FA0CCDB042D5FA0C015C65B42DF78BD10F3F3B363CB56C7109DCFDFBBB97E662ED92EB62D13BC2E1BCAE5777DB9966D8A1F504B0304140006080800CC70623BAD7543B64E01000033030000300000006662
310
782F36394639363044362D344446342D343946362D394244322D3234314243333846323333332F636E782E786D6CD593CD6EC32010845F0571AD6CE3D48AD20813A9873E410FBD12D82434182C7EAAE6EDBB2424CD25871E7B41D6EC30B3FA84F9E67BB2E40B4234DE8DB46F1925E094D7C6ED479AD3AE5951B2113C789FEE
310
6C943839C1488B4C05DF079FE72A69D8C96C13AAD6B8631503449F83828872B949AC57D26200B826A308D316B4064D6E46FCDA41C05550DC9E483A00797BFD207EFB092A45DE9514C1BBD22178396BD39D891265658C238DEA00936C654E5E433CB65A26D9F6EDB5EBC14EBF49A45CB856E66048291F6939A9A81BB5C89177
310
38143CA680F4AA299D66A042CEB3354A2684DC9D8D178FE0D9B8B41CAAD720F880EE7EF93C0C18769E099ECC04D5A102C8049A8A05632F4DDF376CF1DE0F6BB65C2F8627B65A33C6BB62177CEBBDAD973006829F89F22E814B54F4BC2BE347F8AA8F681390B50FA73F804400B5F542E796F19FF974E7F78DB802FE05E20750
310
4B0304140006080800CC70623B8D05915C650500003B100000340000006662782F36394639363044362D344446342D343946362D394244322D3234314243333846323333332F6F626A656374732E786D6CAD575B6FA33814FE2B887D06429276DA1565D4266D158D3A339A6846FB502932E050B66023DB74D2FDF5FB190C01
310
9276B2973C046C8ECFF53B17071F77456EBD502133CEAE6CDF9DD81665314F32965ED995DA3A17B6F5310C04E7AA47665B8C14F4CAD6DB7618A48257A5D94AE89654B91AEDDEDDFC61C998326A5B714EA4BCB265FC440BE2924AF184CA6737218AB8E976E7FA6E4338649B0A523E8D98964450A6A029F619B8588D52FE7039
310
B1BD30F0F4F730D0FF866AF6369557DB33949F31A9088B0F848DD8CCFCF9F2767A76E99CCDE733677E3EF59D9BBB9BA5E37F984D16E78BC5E5F5ED25044B25C0C96822E8D60EEFE11B91C581D77CEA34368A1F5329E68CD1B8B61F16D63A1B8E092D294B10C78C4A48EB593D192E7DED9BDEE7995E1B91FDEDD3ACEA9FE831
310
6A756F9F7D4D79F4274C90A7A04248AA51D5F8C718DAE06FB2F75AC4796EBE65D22A88A22223B995679120E2D50E41AA49C260C046A35368846B0BECD0DFF3EBEB8AD4F835768F69B9ADF25C43D30E6B646F807FAA64AD59F61715C7A54127C4AACA98BA3006A9D792DAE165E0D59B61A01FB3A9F9D838D2DAE62445C86166
310
F37564E842E7DE6A69879FEEA2DD5AE7E371E1A5E025154AC307D06A03D73EB5978C58FFA4C8E9033066E0F3BD53BEC1F39F91BE7B55103791EDE6BBB991A2046172CB4581D8B893FA674DDA17A77B3B7C413D1B511FD2743BFF8A38F03A658705E3ADF8015C3A3417FF3D7E439FF591DA0B5F18BC20C1B8981957AE6392A3
310
F43C640C01D1A0B4728E2DD4F26DB4B3C3152A252A3B4E913CEC1C72F012782FF88EFF8637AA552DBEF76408E8A8DE9E50F9E1CB3A2DA0DB1B6039A893B56063DC5B3E3FFB5F72E67AB9FEB4AEC496C4F4C1149625DD662C53E89D7BF0F6151A046260D1337DFDC94502430F83B0EE07A130A224BCAD7DAE1D9FB6CD422FF6
310
920702629C4BB9AE79C12F243C6432A6794E18E5552BA56B431AAB5D91317302B2B071E86C3A42B1A02F999E24061403B5D0EB639195DA655DD3EBEAB4FB862DDF579F014AD0E73C22F99E28DA57FB98E75C6CA2D74D53086D600F4786E0FE3144B771A8A7B900F03594DB8A633CBC49B2EDB69228BB479CF863B5E807AAAB
310
23872F6DFEB4129B949CA33823F58830E86D65621E10047D9DB34D862E8EAC3C2ABC2F7B2C40D67CDFE01F5545B92105AF983AC54D93D69E56FB8E797F88913F898A9FEC705D3F9D1B54EC8426FB500D40A03BD0119B06E1B95DDC7EB8F6975367793EBD70E66733DFB9BC982F9CE564727731999F5D4ECFCE3B8D6A4DC2A0
310
6D50FD148437D110834A64C6CDDF57FBACB5C307A2A477DFE4939736CFEF2B175371E0E10CF0DD1D5C15654E0BCA14D1E87DD02FF93782A162C0A3D95F1524A52770F972BF1EE9809D13CE7DD599467F8ECE9ADD85CE85A34CD45355448C64F9E8A031DC2D596ACC6E5DD93D9B82DE2EF5CAF81363A8E47996A0DE24564A79
310
4115AACE09C55E14540231FDA13C319787134EBF34E3A022514E5B4D9E0826E25C02D5805B15ABE1BEF51B26383D445DD9E875EE33FE4C22DA16427D65A3BCA92CA6D28DD01DF5DC53330704308475351050232CCD31583787BA75774AFB06E5070DD0C8EF484E19968C5D83BA5B90B244D31E54D55A372320FE4786B7EA58
310
44E135AA5467CB7EA333A61683CC6A8C3257034C10CF46F40EF9F5BE59BE5BD30C3C72D235E95D10345C1D45445A5F0BB47E46A5EBE5570F9380B5FA629579952296A773720405982B9DE04011506178964401AA8BDF1FBF0A8EAB6861DD6580C0E38217056766716DAEB2D6FA0917D3E4116581EADB879C4E7CFFB11EFACD
310
3D641311495D92C8676CB409A72D18610D803CE8A626049E8EC1887CB5B44CC39883690DDA8399B4B9855B481E7D71D4A9D22F96E5BB73BF5793020C02137BF837504B0304140006080000CC70623B000000000000000000000000350000006662782F36394639363044362D344446342D343946362D394244322D32343142
310
43333846323333332F76657274696365732E62696E504B0304140006080800CC70623BF270F1330600000004000000360000006662782F36394639363044362D344446342D343946362D394244322D3234314243333846323333332F747269616E676C65732E62696E636660600000504B0304140006080000CC70623B0000
310
00000000000000000000370000006662782F36394639363044362D344446342D343946362D394244322D3234314243333846323333332F617474726962757465732E62696E504B0304140006080800CC70623B08DA0BD19000000041010000360000006662782F36394639363044362D344446342D343946362D394244322D
310
3234314243333846323333332F6469726563746F72792E786D6C858F410AC3201045AF22B36F53E9A60B35CBEEBAE80D244E44489C6234F4F835464A48035D0DF398FF9F8AF63D0E6CC63039F212F8F9020C7D47C6792B21C5FE7403D62A1188E2E60C98D7234A5830286103A55745067B9D86B8A3CF9C7F90C11DE607FB14
310
4396D7B6A82D282E9A152AD114D5EF2CB866EEE831B8EEA07A7BB5A8D7D61A2BAAEB7FD5F70921FF497D00504B0304140006080800CC70623BCA768048FE000000A00100003B0000006662782F36394639363044362D344446342D343946362D394244322D3234314243333846323333332F7265736F75726365732F636F72
310
652E786D6C8D50596E833010BD0A9ADFCA60D600328E9AA639412F609909B1126CE4A5EAF16B0295DABFFECC8CDEA2797AECF8353F924FB44E193D409E5248504B332A3D0D10FC95B4901C39B3C6F85F3248B49871801506CE266BC2B243D2688FDA47549B11775038871E12F988C7004EDE7016A9083E2ADC3D5D84BC8B09
310
D33C8D74D471E6BC8D0192EDC93A815B742658898E651BCB59086ADC356A8C3FD555A1055ED7E7E254D615792D0F075295F585746FF53B694EE78A565DD736979A65AB9933AFE69F8CD2A2F038022F28ED489E135A7CE4554F9BBEA85E68DB53CAB255FEC71496F19FA6A0B42F8B3DEE6673C0F318E4497096AD7DC5F52C33
310
EEB55BFE0D504B010214000A0000080000CC70623B3DEE336E79000000790000001B00000000000000000000000000000000006175746F6465736B2D64657369676E2D7061636B6167652E786D6C504B01021400140006080800CC70623BD486FD9CA0000000F40000001300000000000000000000000000B20000005B436F
310
6E74656E745F54797065735D2E786D6C504B01021400140006080800CC70623BD9DDAED0EC0000007C010000080000000000000000000000000083010000636F72652E786D6C504B01021400140006080800CC70623B55019EA25F0000007C000000070000000000000000000000000095020000636E782E786D6C504B0102
310
1400140006080800CC70623BA24EB22D72010000D40300000C00000000000000000000000000190300006662782F636F72652E786D6C504B01021400140006080800CC70623B408A7D3B7C0000009D0000000B00000000000000000000000000B50400006662782F636E782E786D6C504B01021400140006080800CC70623B
310
449FB9BD290100001202000031000000000000000000000000005A0500006662782F36394639363044362D344446342D343946362D394244322D3234314243333846323333332F636F72652E786D6C504B01021400140006080800CC70623BAD7543B64E010000330300003000000000000000000000000000D20600006662
310
782F36394639363044362D344446342D343946362D394244322D3234314243333846323333332F636E782E786D6C504B01021400140006080800CC70623B8D05915C650500003B10000034000000000000000000000000006E0800006662782F36394639363044362D344446342D343946362D394244322D32343142433338
310
46323333332F6F626A656374732E786D6C504B01021400140006080000CC70623B0000000000000000000000003500000000000000000000000000250E00006662782F36394639363044362D344446342D343946362D394244322D3234314243333846323333332F76657274696365732E62696E504B010214001400060808
310
00CC70623BF270F13306000000040000003600000000000000000000000000780E00006662782F36394639363044362D344446342D343946362D394244322D3234314243333846323333332F747269616E676C65732E62696E504B01021400140006080000CC70623B00000000000000000000000037000000000000000000
310
00000000D20E00006662782F36394639363044362D344446342D343946362D394244322D3234314243333846323333332F617474726962757465732E62696E504B01021400140006080800CC70623B08DA0BD190000000410100003600000000000000000000000000270F00006662782F36394639363044362D344446342D
310
343946362D394244322D3234314243333846323333332F6469726563746F72792E786D6C504B01021400140006080800CC70623BCA768048FE000000A00100003B000000000000000000000000000B1000006662782F36394639363044362D344446342D343946362D394244322D3234314243333846323333332F7265736F
310
75726365732F636F72652E786D6C504B0506000000000E000E0080040000621100000000
  0
XRECORD
  5
12
102
{ACAD_REACTORS
330
D
102
}
330
D
100
AcDbXrecord
280
     1
270
     1
271
     1
  0
XRECORD
  5
13
102
{ACAD_REACTORS
330
D
102
}
330
D
100
AcDbXrecord
280
     1
270
     1
271
     1
  0
CELLSTYLEMAP
  5
3E2
102
{ACAD_REACTORS
330
48
102
}
330
48
100
AcDbCellStyleMap
 90
        3
300
CELLSTYLE
  1
TABLEFORMAT_BEGIN
 90
        5
170
     1
 91
        0
 92
    32768
 62
   257
 93
        1
300
CONTENTFORMAT
  1
CONTENTFORMAT_BEGIN
 90
        0
 91
        0
 92
      512
 93
        0
300

 40
0.0
140
1.0
 94
        5
 62
     0
340
23
144
6.0
309
CONTENTFORMAT_END
171
     1
301
MARGIN
  1
CELLMARGIN_BEGIN
 40
1.5
 40
1.5
 40
1.5
 40
1.5
 40
0.18
 40
0.18
309
CELLMARGIN_END
 94
        6
 95
        1
302
GRIDFORMAT
  1
GRIDFORMAT_BEGIN
 90
        0
 91
        1
 62
     0
 92
       -2
340
26
 93
        0
 40
1.125
309
GRIDFORMAT_END
 95
        2
302
GRIDFORMAT
  1
GRIDFORMAT_BEGIN
 90
        0
 91
        1
 62
     0
 92
       -2
340
26
 93
        0
 40
1.125
309
GRIDFORMAT_END
 95
        4
302
GRIDFORMAT
  1
GRIDFORMAT_BEGIN
 90
        0
 91
        1
 62
     0
 92
       -2
340
26
 93
        0
 40
1.125
309
GRIDFORMAT_END
 95
        8
302
GRIDFORMAT
  1
GRIDFORMAT_BEGIN
 90
        0
 91
        1
 62
     0
 92
       -2
340
26
 93
        0
 40
1.125
309
GRIDFORMAT_END
 95
       16
302
GRIDFORMAT
  1
GRIDFORMAT_BEGIN
 90
        0
 91
        1
 62
     0
 92
       -2
340
26
 93
        0
 40
1.125
309
GRIDFORMAT_END
 95
       32
302
GRIDFORMAT
  1
GRIDFORMAT_BEGIN
 90
        0
 91
        1
 62
     0
 92
       -2
340
26
 93
        0
 40
1.125
309
GRIDFORMAT_END
309
TABLEFORMAT_END
  1
CELLSTYLE_BEGIN
 90
        1
 91
        1
300
_TITLE
309
CELLSTYLE_END
300
CELLSTYLE
  1
TABLEFORMAT_BEGIN
 90
        5
170
     1
 91
        0
 92
        0
 62
   257
 93
        1
300
CONTENTFORMAT
  1
CONTENTFORMAT_BEGIN
 90
        0
 91
        0
 92
      512
 93
        0
300

 40
0.0
140
1.0
 94
        5
 62
     0
340
23
144
4.5
309
CONTENTFORMAT_END
171
     1
301
MARGIN
  1
CELLMARGIN_BEGIN
 40
1.5
 40
1.5
 40
1.5
 40
1.5
 40
0.18
 40
0.18
309
CELLMARGIN_END
 94
        6
 95
        1
302
GRIDFORMAT
  1
GRIDFORMAT_BEGIN
 90
        0
 91
        1
 62
     0
 92
       -2
340
26
 93
        0
 40
1.125
309
GRIDFORMAT_END
 95
        2
302
GRIDFORMAT
  1
GRIDFORMAT_BEGIN
 90
        0
 91
        1
 62
     0
 92
       -2
340
26
 93
        0
 40
1.125
309
GRIDFORMAT_END
 95
        4
302
GRIDFORMAT
  1
GRIDFORMAT_BEGIN
 90
        0
 91
        1
 62
     0
 92
       -2
340
26
 93
        0
 40
1.125
309
GRIDFORMAT_END
 95
        8
302
GRIDFORMAT
  1
GRIDFORMAT_BEGIN
 90
        0
 91
        1
 62
     0
 92
       -2
340
26
 93
        0
 40
1.125
309
GRIDFORMAT_END
 95
       16
302
GRIDFORMAT
  1
GRIDFORMAT_BEGIN
 90
        0
 91
        1
 62
     0
 92
       -2
340
26
 93
        0
 40
1.125
309
GRIDFORMAT_END
 95
       32
302
GRIDFORMAT
  1
GRIDFORMAT_BEGIN
 90
        0
 91
        1
 62
     0
 92
       -2
340
26
 93
        0
 40
1.125
309
GRIDFORMAT_END
309
TABLEFORMAT_END
  1
CELLSTYLE_BEGIN
 90
        2
 91
        1
300
_HEADER
309
CELLSTYLE_END
300
CELLSTYLE
  1
TABLEFORMAT_BEGIN
 90
        5
170
     1
 91
        0
 92
        0
 62
   257
 93
        1
300
CONTENTFORMAT
  1
CONTENTFORMAT_BEGIN
 90
        0
 91
        0
 92
      512
 93
        0
300

 40
0.0
140
1.0
 94
        2
 62
     0
340
23
144
4.5
309
CONTENTFORMAT_END
171
     1
301
MARGIN
  1
CELLMARGIN_BEGIN
 40
1.5
 40
1.5
 40
1.5
 40
1.5
 40
0.18
 40
0.18
309
CELLMARGIN_END
 94
        6
 95
        1
302
GRIDFORMAT
  1
GRIDFORMAT_BEGIN
 90
        0
 91
        1
 62
     0
 92
       -2
340
26
 93
        0
 40
1.125
309
GRIDFORMAT_END
 95
        2
302
GRIDFORMAT
  1
GRIDFORMAT_BEGIN
 90
        0
 91
        1
 62
     0
 92
       -2
340
26
 93
        0
 40
1.125
309
GRIDFORMAT_END
 95
        4
302
GRIDFORMAT
  1
GRIDFORMAT_BEGIN
 90
        0
 91
        1
 62
     0
 92
       -2
340
26
 93
        0
 40
1.125
309
GRIDFORMAT_END
 95
        8
302
GRIDFORMAT
  1
GRIDFORMAT_BEGIN
 90
        0
 91
        1
 62
     0
 92
       -2
340
26
 93
        0
 40
1.125
309
GRIDFORMAT_END
 95
       16
302
GRIDFORMAT
  1
GRIDFORMAT_BEGIN
 90
        0
 91
        1
 62
     0
 92
       -2
340
26
 93
        0
 40
1.125
309
GRIDFORMAT_END
 95
       32
302
GRIDFORMAT
  1
GRIDFORMAT_BEGIN
 90
        0
 91
        1
 62
     0
 92
       -2
340
26
 93
        0
 40
1.125
309
GRIDFORMAT_END
309
TABLEFORMAT_END
  1
CELLSTYLE_BEGIN
 90
        3
 91
        2
300
_DATA
309
CELLSTYLE_END
  0
XRECORD
  5
3EE
102
{ACAD_REACTORS
330
48
102
}
330
48
100
AcDbXrecord
280
     1
102
ACAD_ROUNDTRIP_PRE2007_TABLESTYLE
 90
      512
 91
        0
  1

 92
      512
 93
        0
  2

 94
      512
 95
        0
  3

  0
XRECORD
  5
3ED
102
{ACAD_REACTORS
330
3EC
102
}
330
3EC
100
AcDbXrecord
280
     1
102
RTVSPost2010Prop28
280
     1
102
RTVSPost2010PropOp28
 70
     1
102
RTVSPost2010Prop29
280
     1
102
RTVSPost2010PropOp29
 70
     1
102
RTVSPost2010Prop30
280
     0
102
RTVSPost2010PropOp30
 70
     1
102
RTVSPost2010Prop31
280
     0
102
RTVSPost2010PropOp31
 70
     1
102
RTVSPost2010Prop32
280
     0
102
RTVSPost2010PropOp32
 70
     1
102
RTVSPost2010Prop33
280
     0
102
RTVSPost2010PropOp33
 70
     1
102
RTVSPost2010Prop34
280
     0
102
RTVSPost2010PropOp34
 70
     1
102
RTVSPost2010Prop35
280
     0
102
RTVSPost2010PropOp35
 70
     1
102
RTVSPost2010Prop36
280
     0
102
RTVSPost2010PropOp36
 70
     1
102
RTVSPost2010Prop37
 90
       50
102
RTVSPost2010PropOp37
 70
     1
102
RTVSPost2010Prop38
140
0.0
102
RTVSPost2010PropOp38
 70
     1
102
RTVSPost2010Prop39
140
1.0
102
RTVSPost2010PropOp39
 70
     1
102
RTVSPost2010Prop40
 90
        0
102
RTVSPost2010PropOp40
 70
     1
102
RTVSPost2010Prop41ColorIndex
 90
       18
102
RTVSPost2010Prop41ColorRGB
 90
        0
102
RTVSPost2010PropOp41
 70
     1
102
RTVSPost2010Prop42
 90
       50
102
RTVSPost2010PropOp42
 70
     1
102
RTVSPost2010Prop43
 90
        3
102
RTVSPost2010PropOp43
 70
     1
102
RTVSPost2010Prop44ColorIndex
 90
        5
102
RTVSPost2010Prop44ColorRGB
 90
      255
102
RTVSPost2010PropOp44
 70
     1
102
RTVSPost2010Prop45
280
     0
102
RTVSPost2010PropOp45
 70
     1
102
RTVSPost2010Prop46
 90
       50
102
RTVSPost2010PropOp46
 70
     1
102
RTVSPost2010Prop47
 90
       50
102
RTVSPost2010PropOp47
 70
     1
102
RTVSPost2010Prop48
 90
       50
102
RTVSPost2010PropOp48
 70
     1
102
RTVSPost2010Prop49
280
     0
102
RTVSPost2010PropOp49
 70
     1
102
RTVSPost2010Prop50
 90
       50
102
RTVSPost2010PropOp50
 70
     1
102
RTVSPost2010Prop51ColorIndex
 90
      256
102
RTVSPost2010Prop51ColorRGB
 90
-16777216
102
RTVSPost2010PropOp51
 70
     0
102
RTVSPost2010Prop52
140
1.0
102
RTVSPost2010PropOp52
 70
     0
102
RTVSPost2010Prop53
 90
        2
102
RTVSPost2010PropOp53
 70
     1
102
RTVSPost2010Prop54
  1
strokes_ogs.tif
102
RTVSPost2010PropOp54
 70
     1
102
RTVSPost2010Prop55
280
     0
102
RTVSPost2010PropOp55
 70
     1
102
RTVSPost2010Prop56
140
1.0
102
RTVSPost2010PropOp56
 70
     1
102
RTVSPost2010Prop57
140
1.0
102
RTVSPost2010PropOp57
 70
     1
102
RTVSPropertyOp0
 70
     1
102
RTVSPropertyOp1
 70
     1
102
RTVSPropertyOp2
 70
     1
102
RTVSPropertyOp3
 70
     1
102
RTVSPropertyOp4
 70
     1
102
RTVSPropertyOp5
 70
     1
102
RTVSPropertyOp6
 70
     1
102
RTVSPropertyOp7
 70
     1
102
RTVSPropertyOp8
 70
     1
102
RTVSPropertyOp9
 70
     1
102
RTVSPropertyOp10
 70
     1
102
RTVSPropertyOp11
 70
     1
102
RTVSPropertyOp12
 70
     1
102
RTVSPropertyOp13
 70
     1
102
RTVSPropertyOp14
 70
     1
102
RTVSPropertyOp15
 70
     1
102
RTVSPropertyOp16
 70
     1
102
RTVSPropertyOp17
 70
     1
102
RTVSPropertyOp18
 70
     1
102
RTVSPropertyOp19
 70
     1
102
RTVSPropertyOp20
 70
     1
102
RTVSPropertyOp21
 70
     1
102
RTVSPropertyOp22
 70
     1
102
RTVSPropertyOp23
 70
     1
102
RTVSPropertyOp24
 70
     1
102
RTVSPropertyOp25
 70
     1
102
RTVSPropertyOp26
 70
     1
102
RTVSPropertyOp27
 70
     1
102
RTVSPropertyOp28
 70
     1
102
RTVSPropertyOp29
 70
     1
102
RTVSPropertyOp30
 70
     1
102
RTVSPropertyOp31
 70
     1
102
RTVSPropertyOp32
 70
     1
102
RTVSPropertyOp33
 70
     1
102
RTVSPropertyOp34
 70
     1
102
RTVSPropertyOp35
 70
     1
102
RTVSPropertyOp36
 70
     1
102
RTVSPropertyOp37
 70
     1
102
RTVSPropertyOp38
 70
     1
102
RTVSPropertyOp39
 70
     1
102
RTVSPropertyOp40
 70
     1
102
RTVSPropertyOp41
 70
     1
102
RTVSPropertyOp42
 70
     1
102
RTVSPropertyOp43
 70
     1
102
RTVSPropertyOp44
 70
     1
102
RTVSPropertyOp45
 70
     1
102
RTVSPropertyOp46
 70
     1
102
RTVSPropertyOp47
 70
     1
102
RTVSPropertyOp48
 70
     1
102
RTVSPropertyOp49
 70
     1
102
RTVSPropertyOp50
 70
     1
102
RTVSPropertyOp51
 70
     0
102
RTVSPropertyOp52
 70
     0
102
RTVSPropertyOp53
 70
     1
102
RTVSPropertyOp54
 70
     1
102
RTVSPropertyOp55
 70
     1
102
RTVSPropertyOp56
 70
     1
102
RTVSPropertyOp57
 70
     1
102
RTVSPropertyOp58
 70
     1
102
RTVSPropertyOp59
 70
     1
102
RTVSPropertyOp60
 70
     1
102
RTVSPropertyOp61
 70
     1
102
RTVSPropertyOp62
 70
     1
  0
XRECORD
  5
3F0
102
{ACAD_REACTORS
330
3EF
102
}
330
3EF
100
AcDbXrecord
280
     1
102
RTVSPost2010Prop28
280
     0
102
RTVSPost2010PropOp28
 70
     1
102
RTVSPost2010Prop29
280
     1
102
RTVSPost2010PropOp29
 70
     1
102
RTVSPost2010Prop30
280
     1
102
RTVSPost2010PropOp30
 70
     1
102
RTVSPost2010Prop31
280
     0
102
RTVSPost2010PropOp31
 70
     1
102
RTVSPost2010Prop32
280
     0
102
RTVSPost2010PropOp32
 70
     1
102
RTVSPost2010Prop33
280
     0
102
RTVSPost2010PropOp33
 70
     1
102
RTVSPost2010Prop34
280
     0
102
RTVSPost2010PropOp34
 70
     1
102
RTVSPost2010Prop35
280
     0
102
RTVSPost2010PropOp35
 70
     1
102
RTVSPost2010Prop36
280
     0
102
RTVSPost2010PropOp36
 70
     1
102
RTVSPost2010Prop37
 90
       50
102
RTVSPost2010PropOp37
 70
     1
102
RTVSPost2010Prop38
140
0.0
102
RTVSPost2010PropOp38
 70
     1
102
RTVSPost2010Prop39
140
1.0
102
RTVSPost2010PropOp39
 70
     1
102
RTVSPost2010Prop40
 90
        0
102
RTVSPost2010PropOp40
 70
     1
102
RTVSPost2010Prop41ColorIndex
 90
       18
102
RTVSPost2010Prop41ColorRGB
 90
        0
102
RTVSPost2010PropOp41
 70
     1
102
RTVSPost2010Prop42
 90
       50
102
RTVSPost2010PropOp42
 70
     1
102
RTVSPost2010Prop43
 90
        3
102
RTVSPost2010PropOp43
 70
     1
102
RTVSPost2010Prop44ColorIndex
 90
        5
102
RTVSPost2010Prop44ColorRGB
 90
      255
102
RTVSPost2010PropOp44
 70
     1
102
RTVSPost2010Prop45
280
     0
102
RTVSPost2010PropOp45
 70
     1
102
RTVSPost2010Prop46
 90
       50
102
RTVSPost2010PropOp46
 70
     1
102
RTVSPost2010Prop47
 90
       50
102
RTVSPost2010PropOp47
 70
     1
102
RTVSPost2010Prop48
 90
       50
102
RTVSPost2010PropOp48
 70
     1
102
RTVSPost2010Prop49
280
     0
102
RTVSPost2010PropOp49
 70
     1
102
RTVSPost2010Prop50
 90
       50
102
RTVSPost2010PropOp50
 70
     1
102
RTVSPost2010Prop51ColorIndex
 90
      256
102
RTVSPost2010Prop51ColorRGB
 90
-16777216
102
RTVSPost2010PropOp51
 70
     0
102
RTVSPost2010Prop52
140
1.0
102
RTVSPost2010PropOp52
 70
     0
102
RTVSPost2010Prop53
 90
        2
102
RTVSPost2010PropOp53
 70
     1
102
RTVSPost2010Prop54
  1
strokes_ogs.tif
102
RTVSPost2010PropOp54
 70
     1
102
RTVSPost2010Prop55
280
     0
102
RTVSPost2010PropOp55
 70
     1
102
RTVSPost2010Prop56
140
1.0
102
RTVSPost2010PropOp56
 70
     1
102
RTVSPost2010Prop57
140
1.0
102
RTVSPost2010PropOp57
 70
     1
102
RTVSPropertyOp0
 70
     1
102
RTVSPropertyOp1
 70
     1
102
RTVSPropertyOp2
 70
     1
102
RTVSPropertyOp3
 70
     1
102
RTVSPropertyOp4
 70
     1
102
RTVSPropertyOp5
 70
     1
102
RTVSPropertyOp6
 70
     1
102
RTVSPropertyOp7
 70
     1
102
RTVSPropertyOp8
 70
     1
102
RTVSPropertyOp9
 70
     1
102
RTVSPropertyOp10
 70
     1
102
RTVSPropertyOp11
 70
     1
102
RTVSPropertyOp12
 70
     1
102
RTVSPropertyOp13
 70
     1
102
RTVSPropertyOp14
 70
     1
102
RTVSPropertyOp15
 70
     1
102
RTVSPropertyOp16
 70
     1
102
RTVSPropertyOp17
 70
     1
102
RTVSPropertyOp18
 70
     1
102
RTVSPropertyOp19
 70
     1
102
RTVSPropertyOp20
 70
     1
102
RTVSPropertyOp21
 70
     1
102
RTVSPropertyOp22
 70
     1
102
RTVSPropertyOp23
 70
     1
102
RTVSPropertyOp24
 70
     1
102
RTVSPropertyOp25
 70
     1
102
RTVSPropertyOp26
 70
     1
102
RTVSPropertyOp27
 70
     1
102
RTVSPropertyOp28
 70
     1
102
RTVSPropertyOp29
 70
     1
102
RTVSPropertyOp30
 70
     1
102
RTVSPropertyOp31
 70
     1
102
RTVSPropertyOp32
 70
     1
102
RTVSPropertyOp33
 70
     1
102
RTVSPropertyOp34
 70
     1
102
RTVSPropertyOp35
 70
     1
102
RTVSPropertyOp36
 70
     1
102
RTVSPropertyOp37
 70
     1
102
RTVSPropertyOp38
 70
     1
102
RTVSPropertyOp39
 70
     1
102
RTVSPropertyOp40
 70
     1
102
RTVSPropertyOp41
 70
     1
102
RTVSPropertyOp42
 70
     1
102
RTVSPropertyOp43
 70
     1
102
RTVSPropertyOp44
 70
     1
102
RTVSPropertyOp45
 70
     1
102
RTVSPropertyOp46
 70
     1
102
RTVSPropertyOp47
 70
     1
102
RTVSPropertyOp48
 70
     1
102
RTVSPropertyOp49
 70
     1
102
RTVSPropertyOp50
 70
     1
102
RTVSPropertyOp51
 70
     0
102
RTVSPropertyOp52
 70
     0
102
RTVSPropertyOp53
 70
     1
102
RTVSPropertyOp54
 70
     1
102
RTVSPropertyOp55
 70
     1
102
RTVSPropertyOp56
 70
     1
102
RTVSPropertyOp57
 70
     1
102
RTVSPropertyOp58
 70
     1
102
RTVSPropertyOp59
 70
     1
102
RTVSPropertyOp60
 70
     1
102
RTVSPropertyOp61
 70
     1
102
RTVSPropertyOp62
 70
     1
  0
XRECORD
  5
3F2
102
{ACAD_REACTORS
330
3F1
102
}
330
3F1
100
AcDbXrecord
280
     1
102
RTVSPost2010Prop28
280
     0
102
RTVSPost2010PropOp28
 70
     1
102
RTVSPost2010Prop29
280
     1
102
RTVSPost2010PropOp29
 70
     1
102
RTVSPost2010Prop30
280
     1
102
RTVSPost2010PropOp30
 70
     1
102
RTVSPost2010Prop31
280
     0
102
RTVSPost2010PropOp31
 70
     1
102
RTVSPost2010Prop32
280
     0
102
RTVSPost2010PropOp32
 70
     1
102
RTVSPost2010Prop33
280
     0
102
RTVSPost2010PropOp33
 70
     1
102
RTVSPost2010Prop34
280
     0
102
RTVSPost2010PropOp34
 70
     1
102
RTVSPost2010Prop35
280
     0
102
RTVSPost2010PropOp35
 70
     1
102
RTVSPost2010Prop36
280
     0
102
RTVSPost2010PropOp36
 70
     1
102
RTVSPost2010Prop37
 90
       50
102
RTVSPost2010PropOp37
 70
     1
102
RTVSPost2010Prop38
140
0.0
102
RTVSPost2010PropOp38
 70
     1
102
RTVSPost2010Prop39
140
1.0
102
RTVSPost2010PropOp39
 70
     1
102
RTVSPost2010Prop40
 90
        0
102
RTVSPost2010PropOp40
 70
     1
102
RTVSPost2010Prop41ColorIndex
 90
       18
102
RTVSPost2010Prop41ColorRGB
 90
        0
102
RTVSPost2010PropOp41
 70
     1
102
RTVSPost2010Prop42
 90
       50
102
RTVSPost2010PropOp42
 70
     1
102
RTVSPost2010Prop43
 90
        3
102
RTVSPost2010PropOp43
 70
     1
102
RTVSPost2010Prop44ColorIndex
 90
        5
102
RTVSPost2010Prop44ColorRGB
 90
      255
102
RTVSPost2010PropOp44
 70
     1
102
RTVSPost2010Prop45
280
     0
102
RTVSPost2010PropOp45
 70
     1
102
RTVSPost2010Prop46
 90
       50
102
RTVSPost2010PropOp46
 70
     1
102
RTVSPost2010Prop47
 90
       50
102
RTVSPost2010PropOp47
 70
     1
102
RTVSPost2010Prop48
 90
       50
102
RTVSPost2010PropOp48
 70
     1
102
RTVSPost2010Prop49
280
     0
102
RTVSPost2010PropOp49
 70
     1
102
RTVSPost2010Prop50
 90
       50
102
RTVSPost2010PropOp50
 70
     1
102
RTVSPost2010Prop51ColorIndex
 90
      256
102
RTVSPost2010Prop51ColorRGB
 90
-16777216
102
RTVSPost2010PropOp51
 70
     0
102
RTVSPost2010Prop52
140
1.0
102
RTVSPost2010PropOp52
 70
     0
102
RTVSPost2010Prop53
 90
        2
102
RTVSPost2010PropOp53
 70
     1
102
RTVSPost2010Prop54
  1
strokes_ogs.tif
102
RTVSPost2010PropOp54
 70
     1
102
RTVSPost2010Prop55
280
     0
102
RTVSPost2010PropOp55
 70
     1
102
RTVSPost2010Prop56
140
1.0
102
RTVSPost2010PropOp56
 70
     1
102
RTVSPost2010Prop57
140
1.0
102
RTVSPost2010PropOp57
 70
     1
102
RTVSPropertyOp0
 70
     1
102
RTVSPropertyOp1
 70
     1
102
RTVSPropertyOp2
 70
     1
102
RTVSPropertyOp3
 70
     1
102
RTVSPropertyOp4
 70
     1
102
RTVSPropertyOp5
 70
     1
102
RTVSPropertyOp6
 70
     1
102
RTVSPropertyOp7
 70
     1
102
RTVSPropertyOp8
 70
     1
102
RTVSPropertyOp9
 70
     1
102
RTVSPropertyOp10
 70
     1
102
RTVSPropertyOp11
 70
     1
102
RTVSPropertyOp12
 70
     1
102
RTVSPropertyOp13
 70
     1
102
RTVSPropertyOp14
 70
     1
102
RTVSPropertyOp15
 70
     1
102
RTVSPropertyOp16
 70
     1
102
RTVSPropertyOp17
 70
     1
102
RTVSPropertyOp18
 70
     1
102
RTVSPropertyOp19
 70
     1
102
RTVSPropertyOp20
 70
     1
102
RTVSPropertyOp21
 70
     1
102
RTVSPropertyOp22
 70
     1
102
RTVSPropertyOp23
 70
     1
102
RTVSPropertyOp24
 70
     1
102
RTVSPropertyOp25
 70
     1
102
RTVSPropertyOp26
 70
     1
102
RTVSPropertyOp27
 70
     1
102
RTVSPropertyOp28
 70
     1
102
RTVSPropertyOp29
 70
     1
102
RTVSPropertyOp30
 70
     1
102
RTVSPropertyOp31
 70
     1
102
RTVSPropertyOp32
 70
     1
102
RTVSPropertyOp33
 70
     1
102
RTVSPropertyOp34
 70
     1
102
RTVSPropertyOp35
 70
     1
102
RTVSPropertyOp36
 70
     1
102
RTVSPropertyOp37
 70
     1
102
RTVSPropertyOp38
 70
     1
102
RTVSPropertyOp39
 70
     1
102
RTVSPropertyOp40
 70
     1
102
RTVSPropertyOp41
 70
     1
102
RTVSPropertyOp42
 70
     1
102
RTVSPropertyOp43
 70
     1
102
RTVSPropertyOp44
 70
     1
102
RTVSPropertyOp45
 70
     1
102
RTVSPropertyOp46
 70
     1
102
RTVSPropertyOp47
 70
     1
102
RTVSPropertyOp48
 70
     1
102
RTVSPropertyOp49
 70
     1
102
RTVSPropertyOp50
 70
     1
102
RTVSPropertyOp51
 70
     0
102
RTVSPropertyOp52
 70
     0
102
RTVSPropertyOp53
 70
     1
102
RTVSPropertyOp54
 70
     1
102
RTVSPropertyOp55
 70
     1
102
RTVSPropertyOp56
 70
     1
102
RTVSPropertyOp57
 70
     1
102
RTVSPropertyOp58
 70
     1
102
RTVSPropertyOp59
 70
     1
102
RTVSPropertyOp60
 70
     1
102
RTVSPropertyOp61
 70
     1
102
RTVSPropertyOp62
 70
     1
  0
ENDSEC
  0
EOF
