  0
SECTION
  2
HEADER
  9
$ACADVER
  1
AC1018
  9
$ACADMAINTVER
 70
   104
  9
$DWGCODEPAGE
  3
ANSI_932
  9
$INSBASE
 10
0.0
 20
0.0
 30
0.0
  9
$EXTMIN
 10
1.809513529535621
 20
1.750640572651505
 30
-0.0015258207003583
  9
$EXTMAX
 10
51.81777424736054
 20
29.08937021588577
 30
0.0000000349246037
  9
$LIMMIN
 10
-5.982513632312873
 20
-6.33140146261644
  9
$LIMMAX
 10
56.10281547484913
 20
34.22640796598356
  9
$ORTHOMODE
 70
     0
  9
$REGENMODE
 70
     1
  9
$FILLMODE
 70
     1
  9
$QTEXTMODE
 70
     0
  9
$MIRRTEXT
 70
     0
  9
$LTSCALE
 40
1.0
  9
$ATTMODE
 70
     1
  9
$TEXTSIZE
 40
2.5
  9
$TRACEWID
 40
1.0
  9
$TEXTSTYLE
  7
Standard
  9
$CLAYER
  8
0
  9
$CELTYPE
  6
ByLayer
  9
$CECOLOR
 62
   256
  9
$CELTSCALE
 40
1.0
  9
$DISPSILH
 70
     0
  9
$DIMSCALE
 40
1.0
  9
$DIMASZ
 40
2.5
  9
$DIMEXO
 40
0.625
  9
$DIMDLI
 40
3.75
  9
$DIMRND
 40
0.0
  9
$DIMDLE
 40
0.0
  9
$DIMEXE
 40
1.25
  9
$DIMTP
 40
0.0
  9
$DIMTM
 40
0.0
  9
$DIMTXT
 40
2.5
  9
$DIMCEN
 40
2.5
  9
$DIMTSZ
 40
0.0
  9
$DIMTOL
 70
     0
  9
$DIMLIM
 70
     0
  9
$DIMTIH
 70
     0
  9
$DIMTOH
 70
     0
  9
$DIMSE1
 70
     0
  9
$DIMSE2
 70
     0
  9
$DIMTAD
 70
     1
  9
$DIMZIN
 70
     8
  9
$DIMBLK
  1

  9
$DIMASO
 70
     1
  9
$DIMSHO
 70
     1
  9
$DIMPOST
  1

  9
$DIMAPOST
  1

  9
$DIMALT
 70
     0
  9
$DIMALTD
 70
     3
  9
$DIMALTF
 40
0.03937007874016
  9
$DIMLFAC
 40
1.0
  9
$DIMTOFL
 70
     1
  9
$DIMTVP
 40
0.0
  9
$DIMTIX
 70
     0
  9
$DIMSOXD
 70
     0
  9
$DIMSAH
 70
     0
  9
$DIMBLK1
  1

  9
$DIMBLK2
  1

  9
$DIMSTYLE
  2
ISO-25
  9
$DIMCLRD
 70
     0
  9
$DIMCLRE
 70
     0
  9
$DIMCLRT
 70
     0
  9
$DIMTFAC
 40
1.0
  9
$DIMGAP
 40
0.625
  9
$DIMJUST
 70
     0
  9
$DIMSD1
 70
     0
  9
$DIMSD2
 70
     0
  9
$DIMTOLJ
 70
     0
  9
$DIMTZIN
 70
     8
  9
$DIMALTZ
 70
     0
  9
$DIMALTTZ
 70
     0
  9
$DIMUPT
 70
     0
  9
$DIMDEC
 70
     2
  9
$DIMTDEC
 70
     2
  9
$DIMALTU
 70
     2
  9
$DIMALTTD
 70
     3
  9
$DIMTXSTY
  7
Standard
  9
$DIMAUNIT
 70
     0
  9
$DIMADEC
 70
     0
  9
$DIMALTRND
 40
0.0
  9
$DIMAZIN
 70
     0
  9
$DIMDSEP
 70
    44
  9
$DIMATFIT
 70
     3
  9
$DIMFRAC
 70
     0
  9
$DIMLDRBLK
  1

  9
$DIMLUNIT
 70
     2
  9
$DIMLWD
 70
    -2
  9
$DIMLWE
 70
    -2
  9
$DIMTMOVE
 70
     0
  9
$LUNITS
 70
     2
  9
$LUPREC
 70
     4
  9
$SKETCHINC
 40
1.0
  9
$FILLETRAD
 40
0.0
  9
$AUNITS
 70
     0
  9
$AUPREC
 70
     0
  9
$MENU
  1
.
  9
$ELEVATION
 40
0.0
  9
$PELEVATION
 40
0.0
  9
$THICKNESS
 40
0.0
  9
$LIMCHECK
 70
     0
  9
$CHAMFERA
 40
0.0
  9
$CHAMFERB
 40
0.0
  9
$CHAMFERC
 40
0.0
  9
$CHAMFERD
 40
0.0
  9
$SKPOLY
 70
     0
  9
$TDCREATE
 40
2458227.430127315
  9
$TDUCREATE
 40
2458227.096793982
  9
$TDUPDATE
 40
2458941.676412037
  9
$TDUUPDATE
 40
2458941.343078703
  9
$TDINDWG
 40
0.1064814815
  9
$TDUSRTIMER
 40
0.1064814815
  9
$USRTIMER
 70
     1
  9
$ANGBASE
 50
0.0
  9
$ANGDIR
 70
     0
  9
$PDMODE
 70
     0
  9
$PDSIZE
 40
0.0
  9
$PLINEWID
 40
0.0
  9
$SPLFRAME
 70
     0
  9
$SPLINETYPE
 70
     6
  9
$SPLINESEGS
 70
     8
  9
$HANDSEED
  5
3D3
  9
$SURFTAB1
 70
     6
  9
$SURFTAB2
 70
     6
  9
$SURFTYPE
 70
     6
  9
$SURFU
 70
     6
  9
$SURFV
 70
     6
  9
$UCSBASE
  2

  9
$UCSNAME
  2

  9
$UCSORG
 10
0.0
 20
0.0
 30
0.0
  9
$UCSXDIR
 10
1.0
 20
0.0
 30
0.0
  9
$UCSYDIR
 10
0.0
 20
1.0
 30
0.0
  9
$UCSORTHOREF
  2

  9
$UCSORTHOVIEW
 70
     0
  9
$UCSORGTOP
 10
0.0
 20
0.0
 30
0.0
  9
$UCSORGBOTTOM
 10
0.0
 20
0.0
 30
0.0
  9
$UCSORGLEFT
 10
0.0
 20
0.0
 30
0.0
  9
$UCSORGRIGHT
 10
0.0
 20
0.0
 30
0.0
  9
$UCSORGFRONT
 10
0.0
 20
0.0
 30
0.0
  9
$UCSORGBACK
 10
0.0
 20
0.0
 30
0.0
  9
$PUCSBASE
  2

  9
$PUCSNAME
  2

  9
$PUCSORG
 10
0.0
 20
0.0
 30
0.0
  9
$PUCSXDIR
 10
1.0
 20
0.0
 30
0.0
  9
$PUCSYDIR
 10
0.0
 20
1.0
 30
0.0
  9
$PUCSORTHOREF
  2

  9
$PUCSORTHOVIEW
 70
     0
  9
$PUCSORGTOP
 10
0.0
 20
0.0
 30
0.0
  9
$PUCSORGBOTTOM
 10
0.0
 20
0.0
 30
0.0
  9
$PUCSORGLEFT
 10
0.0
 20
0.0
 30
0.0
  9
$PUCSORGRIGHT
 10
0.0
 20
0.0
 30
0.0
  9
$PUCSORGFRONT
 10
0.0
 20
0.0
 30
0.0
  9
$PUCSORGBACK
 10
0.0
 20
0.0
 30
0.0
  9
$USERI1
 70
     0
  9
$USERI2
 70
     0
  9
$USERI3
 70
     0
  9
$USERI4
 70
     0
  9
$USERI5
 70
     0
  9
$USERR1
 40
0.0
  9
$USERR2
 40
0.0
  9
$USERR3
 40
0.0
  9
$USERR4
 40
0.0
  9
$USERR5
 40
0.0
  9
$WORLDVIEW
 70
     1
  9
$SHADEDGE
 70
     3
  9
$SHADEDIF
 70
    70
  9
$TILEMODE
 70
     1
  9
$MAXACTVP
 70
    64
  9
$PINSBASE
 10
0.0
 20
0.0
 30
0.0
  9
$PLIMCHECK
 70
     0
  9
$PEXTMIN
 10
0.0
 20
0.0
 30
0.0
  9
$PEXTMAX
 10
0.0
 20
0.0
 30
0.0
  9
$PLIMMIN
 10
0.0
 20
0.0
  9
$PLIMMAX
 10
12.0
 20
9.0
  9
$UNITMODE
 70
     0
  9
$VISRETAIN
 70
     1
  9
$PLINEGEN
 70
     0
  9
$PSLTSCALE
 70
     1
  9
$TREEDEPTH
 70
  3020
  9
$CMLSTYLE
  2
Standard
  9
$CMLJUST
 70
     0
  9
$CMLSCALE
 40
20.0
  9
$PROXYGRAPHICS
 70
     1
  9
$MEASUREMENT
 70
     1
  9
$CELWEIGHT
370
    -1
  9
$ENDCAPS
280
     0
  9
$JOINSTYLE
280
     0
  9
$LWDISPLAY
290
     0
  9
$INSUNITS
 70
     4
  9
$HYPERLINKBASE
  1

  9
$STYLESHEET
  1

  9
$XEDIT
290
     1
  9
$CEPSNTYPE
380
     0
  9
$PSTYLEMODE
290
     1
  9
$FINGERPRINTGUID
  2
{F22919C9-B78B-214F-9A01-5E6D4DA8677E}
  9
$VERSIONGUID
  2
{0DD098B6-60B3-9B49-AF54-DCD28C6423C6}
  9
$EXTNAMES
290
     1
  9
$PSVPSCALE
 40
0.0
  9
$OLESTARTUP
290
     0
  9
$SORTENTS
280
   127
  9
$INDEXCTL
280
     0
  9
$HIDETEXT
280
     1
  9
$XCLIPFRAME
290
     0
  9
$HALOGAP
280
     0
  9
$OBSCOLOR
 70
   257
  9
$OBSLTYPE
280
     0
  9
$INTERSECTIONDISPLAY
280
     0
  9
$INTERSECTIONCOLOR
 70
   257
  9
$DIMASSOC
280
     2
  9
$PROJECTNAME
  1

  0
ENDSEC
  0
SECTION
  2
CLASSES
  0
CLASS
  1
ACDBDICTIONARYWDFLT
  2
AcDbDictionaryWithDefault
  3
ObjectDBX Classes
 90
        0
 91
        1
280
     0
281
     0
  0
CLASS
  1
DICTIONARYVAR
  2
AcDbDictionaryVar
  3
ObjectDBX Classes
 90
        0
 91
       12
280
     0
281
     0
  0
CLASS
  1
TABLESTYLE
  2
AcDbTableStyle
  3
ObjectDBX Classes
 90
     4095
 91
        1
280
     0
281
     0
  0
CLASS
  1
MATERIAL
  2
AcDbMaterial
  3
ObjectDBX Classes
 90
     1153
 91
        3
280
     0
281
     0
  0
CLASS
  1
VISUALSTYLE
  2
AcDbVisualStyle
  3
ObjectDBX Classes
 90
     4095
 91
        3
280
     0
281
     0
  0
CLASS
  1
SCALE
  2
AcDbScale
  3
ObjectDBX Classes
 90
     1153
 91
       17
280
     0
281
     0
  0
CLASS
  1
MLEADERSTYLE
  2
AcDbMLeaderStyle
  3
ACDB_MLEADERSTYLE_CLASS
 90
     4095
 91
        0
280
     0
281
     0
  0
CLASS
  1
CELLSTYLEMAP
  2
AcDbCellStyleMap
  3
ObjectDBX Classes
 90
     1152
 91
        1
280
     0
281
     0
  0
CLASS
  1
EXACXREFPANELOBJECT
  2
ExAcXREFPanelObject
  3
EXAC_ESW
 90
     1025
 91
        0
280
     1
281
     0
  0
CLASS
  1
NPOCOLLECTION
  2
AcDbImpNonPersistentObjectsCollection
  3
ObjectDBX Classes
 90
     1153
 91
        0
280
     0
281
     0
  0
CLASS
  1
LAYER_INDEX
  2
AcDbLayerIndex
  3
ObjectDBX Classes
 90
        0
 91
        0
280
     0
281
     0
  0
CLASS
  1
SPATIAL_INDEX
  2
AcDbSpatialIndex
  3
ObjectDBX Classes
 90
        0
 91
        0
280
     0
281
     0
  0
CLASS
  1
IDBUFFER
  2
AcDbIdBuffer
  3
ObjectDBX Classes
 90
        0
 91
        0
280
     0
281
     0
  0
CLASS
  1
ACDBSECTIONVIEWSTYLE
  2
AcDbSectionViewStyle
  3
ObjectDBX Classes
 90
     1025
 91
        0
280
     0
281
     0
  0
CLASS
  1
ACDBDETAILVIEWSTYLE
  2
AcDbDetailViewStyle
  3
ObjectDBX Classes
 90
     1025
 91
        0
280
     0
281
     0
  0
CLASS
  1
SORTENTSTABLE
  2
AcDbSortentsTable
  3
ObjectDBX Classes
 90
        0
 91
        2
280
     0
281
     0
  0
CLASS
  1
DIMASSOC
  2
AcDbDimAssoc
  3
"AcDbDimAssoc|Product Desc:     AcDim ARX App For Dimension|Company:          Autodesk, Inc.|WEB Address:      www.autodesk.com"
 90
        0
 91
        0
280
     0
281
     0
  0
ENDSEC
  0
SECTION
  2
TABLES
  0
TABLE
  2
VPORT
  5
2A
330
0
100
AcDbSymbolTable
 70
     1
  0
VPORT
  5
2B
330
2A
100
AcDbSymbolTableRecord
100
AcDbViewportTableRecord
  2
*Active
 70
     0
 10
0.0
 20
0.0
 11
1.0
 21
1.0
 12
25.06015092126813
 22
13.94750325168355
 13
0.0
 23
0.0
 14
10.0
 24
10.0
 15
10.0
 25
10.0
 16
0.0
 26
0.0
 36
1.0
 17
0.0
 27
0.0
 37
0.0
 40
40.93803889199311
 41
2.350547730829421
 42
50.0
 43
0.0
 44
0.0
 50
0.0
 51
0.0
 71
     0
 72
  1000
 73
     1
 74
     3
 75
     0
 76
     1
 77
     0
 78
     2
281
     0
 65
     1
110
0.0
120
0.0
130
0.0
111
1.0
121
0.0
131
0.0
112
0.0
122
1.0
132
0.0
 79
     0
146
0.0
1001
ACAD_NAV_VCDISPLAY
1070
     3
  0
ENDTAB
  0
TABLE
  2
LTYPE
  5
25
330
0
100
AcDbSymbolTable
 70
     1
  0
LTYPE
  5
26
330
25
100
AcDbSymbolTableRecord
100
AcDbLinetypeTableRecord
  2
ByBlock
 70
     0
  3

 72
    65
 73
     0
 40
0.0
  0
LTYPE
  5
27
330
25
100
AcDbSymbolTableRecord
100
AcDbLinetypeTableRecord
  2
ByLayer
 70
     0
  3

 72
    65
 73
     0
 40
0.0
  0
LTYPE
  5
15
330
25
100
AcDbSymbolTableRecord
100
AcDbLinetypeTableRecord
  2
Continuous
 70
     0
  3
Solid line
 72
    65
 73
     0
 40
0.0
  0
ENDTAB
  0
TABLE
  2
LAYER
  5
1F
102
{ACAD_XDICTIONARY
360
20
102
}
330
0
100
AcDbSymbolTable
 70
     1
  0
LAYER
  5
6
102
{ACAD_XDICTIONARY
360
7
102
}
330
1F
100
AcDbSymbolTableRecord
100
AcDbLayerTableRecord
  2
0
 70
     0
 62
     7
  6
Continuous
370
    -3
390
8
  0
ENDTAB
  0
TABLE
  2
STYLE
  5
22
330
0
100
AcDbSymbolTable
 70
     1
  0
STYLE
  5
23
330
22
100
AcDbSymbolTableRecord
100
AcDbTextStyleTableRecord
  2
Standard
 70
     0
 40
0.0
 41
1.0
 50
0.0
 71
     0
 42
2.5
  3
arial.ttf
  4

1001
ACAD
1000
Arial
1071
       34
  0
ENDTAB
  0
TABLE
  2
VIEW
  5
28
330
0
100
AcDbSymbolTable
 70
     0
  0
ENDTAB
  0
TABLE
  2
UCS
  5
29
330
0
100
AcDbSymbolTable
 70
     0
  0
ENDTAB
  0
TABLE
  2
APPID
  5
2F
330
0
100
AcDbSymbolTable
 70
     6
  0
APPID
  5
14
330
2F
100
AcDbSymbolTableRecord
100
AcDbRegAppTableRecord
  2
ACAD
 70
     0
  0
APPID
  5
1A
330
2F
100
AcDbSymbolTableRecord
100
AcDbRegAppTableRecord
  2
ACAD_PSEXT
 70
     0
  0
APPID
  5
33
330
2F
100
AcDbSymbolTableRecord
100
AcDbRegAppTableRecord
  2
AcadAnnotative
 70
     0
  0
APPID
  5
34
330
2F
100
AcDbSymbolTableRecord
100
AcDbRegAppTableRecord
  2
ACAD_DSTYLE_DIMJAG
 70
     0
  0
APPID
  5
35
330
2F
100
AcDbSymbolTableRecord
100
AcDbRegAppTableRecord
  2
ACAD_DSTYLE_DIMTALN
 70
     0
  0
APPID
  5
2E
330
2F
100
AcDbSymbolTableRecord
100
AcDbRegAppTableRecord
  2
ACAD_NAV_VCDISPLAY
 70
     0
  0
ENDTAB
  0
TABLE
  2
DIMSTYLE
  5
30
330
0
100
AcDbSymbolTable
 70
     2
100
AcDbDimStyleTable
 71
     2
340
31
340
32
  0
DIMSTYLE
105
32
330
30
100
AcDbSymbolTableRecord
100
AcDbDimStyleTableRecord
  2
Annotative
 70
     0
 40
0.0
 41
2.5
 42
0.625
 43
3.75
 44
1.25
 73
     0
 74
     0
 77
     1
 78
     8
140
2.5
141
2.5
143
0.03937007874016
147
0.625
171
     3
172
     1
271
     2
272
     2
274
     3
278
    44
283
     0
284
     8
340
23
1001
AcadAnnotative
1000
AnnotativeData
1002
{
1070
     1
1070
     1
1002
}
1001
ACAD_DSTYLE_DIMJAG
1070
   388
1040
1.5
1001
ACAD_DSTYLE_DIMTALN
1070
   392
1070
     0
  0
DIMSTYLE
105
31
330
30
100
AcDbSymbolTableRecord
100
AcDbDimStyleTableRecord
  2
ISO-25
 70
     0
 41
2.5
 42
0.625
 43
3.75
 44
1.25
 73
     0
 74
     0
 77
     1
 78
     8
140
2.5
141
2.5
143
0.03937007874016
147
0.625
171
     3
172
     1
271
     2
272
     2
274
     3
278
    44
283
     0
284
     8
340
23
  0
ENDTAB
  0
TABLE
  2
BLOCK_RECORD
  5
1
330
0
100
AcDbSymbolTable
 70
     0
  0
BLOCK_RECORD
  5
2
102
{ACAD_XDICTIONARY
360
3
102
}
330
1
100
AcDbSymbolTableRecord
100
AcDbBlockTableRecord
  2
*Model_Space
340
17
  0
BLOCK_RECORD
  5
1B
330
1
100
AcDbSymbolTableRecord
100
AcDbBlockTableRecord
  2
*Paper_Space
340
1E
  0
ENDTAB
  0
ENDSEC
  0
SECTION
  2
BLOCKS
  0
BLOCK
  5
5
330
2
100
AcDbEntity
  8
0
100
AcDbBlockBegin
  2
*Model_Space
 70
     0
 10
0.0
 20
0.0
 30
0.0
  3
*Model_Space
  1

  0
ENDBLK
  5
16
330
2
100
AcDbEntity
  8
0
100
AcDbBlockEnd
  0
BLOCK
  5
1C
330
1B
100
AcDbEntity
 67
     1
  8
0
100
AcDbBlockBegin
  2
*Paper_Space
 70
     0
 10
0.0
 20
0.0
 30
0.0
  3
*Paper_Space
  1

  0
ENDBLK
  5
1D
330
1B
100
AcDbEntity
 67
     1
  8
0
100
AcDbBlockEnd
  0
ENDSEC
  0
SECTION
  2
ENTITIES
  0
LINE
  5
5C
330
2
100
AcDbEntity
  8
0
100
AcDbLine
 10
31.06684143520935
 20
21.83316019963974
 30
0.0
 11
30.16515497832668
 21
21.05227682171693
 31
0.0
  0
LINE
  5
5D
330
2
100
AcDbEntity
  8
0
100
AcDbLine
 10
30.1811696820779
 20
20.77128242847211
 30
0.0
 11
30.19571883145966
 21
20.76363029151286
 31
0.0
  0
LINE
  5
5E
330
2
100
AcDbEntity
  8
0
100
AcDbLine
 10
51.77687213715305
 20
21.05227682171693
 30
0.0
 11
50.87518568027037
 21
21.83316019963974
 31
0.0
  0
LINE
  5
5F
330
2
100
AcDbEntity
  8
0
100
AcDbLine
 10
51.74630828406515
 20
20.76363029151286
 30
0.0
 11
51.76085743340181
 21
20.77128242847211
 31
0.0
  0
LINE
  5
60
330
2
100
AcDbEntity
  8
0
100
AcDbLine
 10
37.19952258715304
 20
27.28782006013156
 30
0.0
 11
37.19952258715304
 21
22.0245576708718
 31
0.0
  0
SPLINE
  5
61
330
2
100
AcDbEntity
  8
0
100
AcDbSpline
210
0.0
220
0.0
230
1.0
 70
     8
 71
     3
 72
    12
 73
     8
 74
     0
 42
0.000000001
 43
0.0000000001
 40
0.0
 40
0.0
 40
0.0
 40
0.0
 40
0.1814292812455239
 40
0.4157921650614694
 40
0.6513173281689464
 40
0.8893818971947673
 40
1.0
 40
1.0
 40
1.0
 40
1.0
 10
41.68905747449943
 20
28.98816181594048
 30
0.0
 10
41.66612900642461
 20
29.00451693463758
 30
0.0
 10
41.61081853590768
 20
29.04433855976455
 30
0.0
 10
41.51007182710968
 20
29.07873325430947
 30
0.0
 10
41.39288652801401
 20
29.09293324352699
 30
0.0
 10
41.29126075229467
 20
29.08376841432422
 30
0.0
 10
41.23061546359145
 20
29.06796286833631
 30
0.0
 10
41.21137600226346
 20
29.06294862572482
 30
0.0
  0
LINE
  5
62
330
2
100
AcDbEntity
  8
0
100
AcDbLine
 10
41.7361793355251
 20
28.94784034000167
 30
0.0
 11
41.70236609339197
 21
28.97712346668053
 31
0.0
  0
LINE
  5
63
330
2
100
AcDbEntity
  8
0
100
AcDbLine
 10
41.21137600226233
 20
29.0629486257232
 30
0.0
 11
39.03271137790453
 21
28.43402232204751
 31
0.0
  0
LINE
  5
64
330
2
100
AcDbEntity
  8
0
100
AcDbLine
 10
39.03271137790453
 20
28.43402232204751
 30
0.0
 11
37.81453330837017
 21
28.08236460386325
 31
0.0
  0
SPLINE
  5
65
330
2
100
AcDbEntity
  8
0
100
AcDbSpline
210
0.0
220
0.0
230
1.0
 70
     8
 71
     3
 72
    16
 73
    12
 74
     0
 42
0.000000001
 43
0.0000000001
 40
0.0
 40
0.0
 40
0.0
 40
0.0
 40
0.0698495378242815
 40
0.1990379081207495
 40
0.328518240316073
 40
0.4581529125746127
 40
0.5879251972799282
 40
0.7178828956211313
 40
0.8480723407691172
 40
0.9707891010511659
 40
1.0
 40
1.0
 40
1.0
 40
1.0
 10
37.81453330836021
 20
28.08236460386489
 30
0.0
 10
37.7918164477483
 20
28.07505989303068
 30
0.0
 10
37.72708421678307
 20
28.05424494694578
 30
0.0
 10
37.62274071513466
 20
28.00092553206765
 30
0.0
 10
37.50789325628895
 20
27.91758652387591
 30
0.0
 10
37.40574092572265
 20
27.81540530953062
 30
0.0
 10
37.3203562174559
 20
27.69881713320768
 30
0.0
 10
37.25510642223486
 20
27.57214929285592
 30
0.0
 10
37.2138129363189
 20
27.44292351413241
 30
0.0
 10
37.20037335534335
 20
27.3475093707105
 30
0.0
 10
37.1996597843594
 20
27.29744572148492
 30
0.0
 10
37.19952258715638
 20
27.28782006012778
 30
0.0
  0
SPLINE
  5
66
330
2
100
AcDbEntity
  8
0
100
AcDbSpline
210
0.0
220
0.0
230
1.0
 70
     8
 71
     3
 72
    13
 73
     9
 74
     0
 42
0.000000001
 43
0.0000000001
 40
0.0
 40
0.0
 40
0.0
 40
0.0
 40
0.3055623022646952
 40
0.7002751173768175
 40
1.0
 40
1.0
 40
1.0
 40
1.050022039267848
 40
1.050022039267848
 40
1.050022039267848
 40
1.050022039267848
 10
44.93145814698763
 20
27.21709988972196
 30
0.0
 10
44.91152432592244
 20
27.23334983795194
 30
0.0
 10
44.85312731482706
 20
27.27293043770619
 30
0.0
 10
44.76182112815495
 20
27.30630760267251
 30
0.0
 10
44.69295572736891
 20
27.3118541900656
 30
0.0
 10
44.66323286780251
 20
27.31424814169109
 30
0.0
 10
44.65827232520299
 20
27.31464767589449
 30
0.0
 10
44.6533117826035
 20
27.31504721009789
 30
0.0
 10
44.648351240004
 20
27.31544674430129
 30
0.0
  0
LINE
  5
67
330
2
100
AcDbEntity
  8
0
100
AcDbLine
 10
44.97858000801328
 20
27.17677841382821
 30
0.0
 11
44.9447667658802
 21
27.206061540462
 31
0.0
  0
SPLINE
  5
68
330
2
100
AcDbEntity
  8
0
100
AcDbSpline
210
0.0
220
0.0
230
1.0
 70
     8
 71
     3
 72
    12
 73
     8
 74
     0
 42
0.000000001
 43
0.0000000001
 40
0.0
 40
0.0
 40
0.0
 40
0.0
 40
0.1814292812455502
 40
0.4157921650615168
 40
0.6513173281689923
 40
0.8893818971948034
 40
0.991269063127738
 40
0.991269063127738
 40
0.991269063127738
 40
0.991269063127738
 10
43.75926575304013
 20
28.23224828098557
 30
0.0
 10
43.73360446640623
 20
28.24860339970987
 30
0.0
 10
43.68102681445034
 20
28.28842502483686
 30
0.0
 10
43.58028010565226
 20
28.32281971938181
 30
0.0
 10
43.46309480655658
 20
28.33701970859936
 30
0.0
 10
43.36298781949318
 20
28.32799184699683
 30
0.0
 10
43.30386083743858
 20
28.31283438786114
 30
0.0
 10
43.28613991507845
 20
28.30822188142897
 30
0.0
  0
LINE
  5
69
330
2
100
AcDbEntity
  8
0
100
AcDbLine
 10
43.80638761406581
 20
28.19192680509182
 30
0.0
 11
43.77257437193269
 21
28.2212099317707
 31
0.0
  0
LINE
  5
6A
330
2
100
AcDbEntity
  8
0
100
AcDbLine
 10
36.18480785942109
 20
26.31813155534735
 30
0.0
 11
36.18480785942109
 21
21.55137940249019
 31
0.0
  0
SPLINE
  5
6B
330
2
100
AcDbEntity
  8
0
100
AcDbSpline
210
0.0
220
0.0
230
1.0
 70
     8
 71
     3
 72
    12
 73
     8
 74
     0
 42
0.000000001
 43
0.0000000001
 40
0.0
 40
0.0
 40
0.0
 40
0.0
 40
0.1814292812455576
 40
0.4157921650615154
 40
0.6513173281689944
 40
0.8893818971948077
 40
1.0
 40
1.0
 40
1.0
 40
1.0
 10
42.89986037377536
 20
28.66092491164014
 30
0.0
 10
42.87764056818807
 20
28.67728003037339
 30
0.0
 10
42.82162143520849
 20
28.71710165550036
 30
0.0
 10
42.72087472641041
 20
28.75149635004526
 30
0.0
 10
42.60368942731474
 20
28.76569633926286
 30
0.0
 10
42.50206365159548
 20
28.75653151006003
 30
0.0
 10
42.4414183628922
 20
28.74072596407211
 30
0.0
 10
42.42217890156424
 20
28.73571172146063
 30
0.0
  0
LINE
  5
6C
330
2
100
AcDbEntity
  8
0
100
AcDbLine
 10
42.94698223480104
 20
28.62060343574638
 30
0.0
 11
42.91316899266796
 21
28.64988656242524
 31
0.0
  0
LINE
  5
6D
330
2
100
AcDbEntity
  8
0
100
AcDbLine
 10
42.42217890158336
 20
28.73571172146795
 30
0.0
 11
42.07526013855289
 21
28.63556490083505
 31
0.0
  0
LINE
  5
6E
330
2
100
AcDbEntity
  8
0
100
AcDbLine
 10
37.19952258715304
 20
27.228060706976
 30
0.0
 11
36.79981858063817
 21
27.11267609907907
 31
0.0
  0
SPLINE
  5
6F
330
2
100
AcDbEntity
  8
0
100
AcDbSpline
210
0.0
220
0.0
230
1.0
 70
     8
 71
     3
 72
    16
 73
    12
 74
     0
 42
0.000000001
 43
0.0000000001
 40
0.0
 40
0.0
 40
0.0
 40
0.0
 40
0.069849537824281
 40
0.1990379081207497
 40
0.3285182403160725
 40
0.4581529125746114
 40
0.5879251972799257
 40
0.7178828956211265
 40
0.8480723407691126
 40
0.9707891010511616
 40
1.0
 40
1.0
 40
1.0
 40
1.0
 10
36.79981858062091
 20
27.11267609907177
 30
0.0
 10
36.77710172000906
 20
27.10537138823756
 30
0.0
 10
36.71236948904379
 20
27.08455644215267
 30
0.0
 10
36.60802598739536
 20
27.03123702727449
 30
0.0
 10
36.49317852854971
 20
26.94789801908276
 30
0.0
 10
36.39102619798341
 20
26.8457168047375
 30
0.0
 10
36.30564148971663
 20
26.72912862841455
 30
0.0
 10
36.24039169449556
 20
26.60246078806284
 30
0.0
 10
36.19909820857959
 20
26.47323500933936
 30
0.0
 10
36.18565862760406
 20
26.37782086591746
 30
0.0
 10
36.18494505662009
 20
26.32775721669179
 30
0.0
 10
36.18480785941711
 20
26.31813155533472
 30
0.0
  0
LINE
  5
70
330
2
100
AcDbEntity
  8
0
100
AcDbLine
 10
44.29096897190418
 20
27.65504779961135
 30
0.0
 11
44.21901554513181
 21
27.71736129510108
 31
0.0
  0
LINE
  5
71
330
2
100
AcDbEntity
  8
0
100
AcDbLine
 10
33.31646239545562
 20
16.38774337823918
 30
0.0
 11
33.32591679242214
 21
16.2942764564555
 31
0.0
  0
LINE
  5
72
330
2
100
AcDbEntity
  8
0
100
AcDbLine
 10
48.61611032305758
 20
16.2942764564555
 30
0.0
 11
48.6255647200241
 21
16.38774337823918
 31
0.0
  0
LINE
  5
73
330
2
100
AcDbEntity
  8
0
100
AcDbLine
 10
35.20372444365662
 20
19.5865983977533
 30
0.0
 11
35.13768077497282
 21
19.60566356269278
 31
0.0
  0
LINE
  5
74
330
2
100
AcDbEntity
  8
0
100
AcDbLine
 10
46.80435082319604
 20
19.605664856703
 30
0.0
 11
46.73830267186817
 21
19.5865983977533
 31
0.0
  0
LINE
  5
75
330
2
100
AcDbEntity
  8
0
100
AcDbLine
 10
35.2845727857781
 20
20.63669587782528
 30
0.0
 11
35.13071284436949
 21
20.68111141711924
 31
0.0
  0
LINE
  5
76
330
2
100
AcDbEntity
  8
0
100
AcDbLine
 10
46.81131427111023
 20
20.68111141711924
 30
0.0
 11
46.65745432970162
 21
20.63669587782528
 31
0.0
  0
LWPOLYLINE
  5
77
330
2
100
AcDbEntity
  8
0
100
AcDbPolyline
 90
       17
 70
   128
 43
0.0
 10
41.2866038176488
 20
12.65366223103682
 10
41.20033870058166
 20
12.65070237779597
 10
41.12720666560433
 20
12.6422734289823
 10
41.07834140210973
 20
12.62965861561934
 10
41.06118220342812
 20
12.61477842869105
 10
41.07834140210973
 20
12.59989824171767
 10
41.12720666560433
 20
12.58728342835475
 10
41.20033870058166
 20
12.57885447954108
 10
41.2866038176488
 20
12.57589462630021
 10
41.37286893471593
 20
12.57885447954108
 10
41.44600096969328
 20
12.58728342835475
 10
41.49486623323291
 20
12.59989824171767
 10
41.51202543186947
 20
12.61477842869105
 10
41.49486623323291
 20
12.62965861561934
 10
41.44600096969328
 20
12.6422734289823
 10
41.37286893471593
 20
12.65070237779597
 10
41.2866038176488
 20
12.65366223103682
  0
LINE
  5
78
330
2
100
AcDbEntity
  8
0
100
AcDbLine
 10
40.06932710085717
 20
12.68681783108308
 30
0.0
 11
40.06932710085717
 21
12.54167688022872
 31
0.0
  0
LINE
  5
79
330
2
100
AcDbEntity
  8
0
100
AcDbLine
 10
41.87270001462255
 20
12.68681783108308
 30
0.0
 11
41.87270001462255
 21
12.54167688022872
 31
0.0
  0
ARC
  5
7A
330
2
100
AcDbEntity
  8
0
100
AcDbCircle
 10
41.43495664035858
 20
12.40992519997276
 30
0.0
 40
0.4379651080279956
100
AcDbArc
 50
268.2859860206984
 51
358.1767252639003
  0
LINE
  5
7B
330
2
100
AcDbEntity
  8
0
100
AcDbLine
 10
41.4218567861812
 20
11.97215604883736
 30
0.0
 11
40.52017032929851
 21
11.97215604883736
 31
0.0
  0
ARC
  5
7C
330
2
100
AcDbEntity
  8
0
100
AcDbCircle
 10
40.50707047512111
 20
12.40992519997276
 30
0.0
 40
0.4379651080279477
100
AcDbArc
 50
181.8232747360996
 51
271.7140139793016
  0
LINE
  5
7D
330
2
100
AcDbEntity
  8
0
100
AcDbLine
 10
40.06932710085717
 20
12.42211965508942
 30
0.0
 11
40.06932710085717
 21
12.39599056185871
 31
0.0
  0
LINE
  5
7E
330
2
100
AcDbEntity
  8
0
100
AcDbLine
 10
41.87270001462255
 20
12.42211965508942
 30
0.0
 11
41.87270001462255
 21
12.39599056185871
 31
0.0
  0
LINE
  5
7F
330
2
100
AcDbEntity
  8
0
100
AcDbLine
 10
40.06932710085717
 20
12.54167688022872
 30
0.0
 11
40.06932710085717
 21
12.42211965508942
 31
0.0
  0
LINE
  5
80
330
2
100
AcDbEntity
  8
0
100
AcDbLine
 10
41.87270001462255
 20
12.54167688022872
 30
0.0
 11
41.87270001462255
 21
12.42211965508942
 31
0.0
  0
LWPOLYLINE
  5
81
330
2
100
AcDbEntity
  8
0
100
AcDbPolyline
 90
       17
 70
   128
 43
0.0
 10
31.84551446827399
 20
20.92320657263393
 10
31.87468887798559
 20
20.96968872228423
 10
31.87150545073115
 20
21.02735090246614
 10
31.83644883441522
 20
21.08741456898501
 10
31.77485608110486
 20
21.14073557304778
 10
31.69610412915798
 20
21.17919627516382
 10
31.61218224930236
 20
21.19694138208587
 10
31.53586678707057
 20
21.19126936211122
 10
31.47877607976012
 20
21.16304372893579
 10
31.44960167000343
 20
21.11656157928547
 10
31.45278509725791
 20
21.0588993991036
 10
31.48784171357381
 20
20.99883573262982
 10
31.54943446688419
 20
20.94551472856704
 10
31.62818641887616
 20
20.90705402645101
 10
31.71210829868666
 20
20.88930891952894
 10
31.78842376096356
 20
20.89498093945853
 10
31.84551446827399
 20
20.92320657263393
  0
LWPOLYLINE
  5
82
330
2
100
AcDbEntity
  8
0
100
AcDbPolyline
 90
        9
 70
   128
 43
0.0
 10
31.08983814213935
 20
20.9377019779412
 10
31.11901255189605
 20
20.9841841275915
 10
31.11582912464156
 20
21.0418463077283
 10
31.08077250832564
 20
21.10190997424719
 10
31.01917975501531
 20
21.15523097830993
 10
30.9404278030233
 20
21.19369168042601
 10
30.85650592321282
 20
21.21143678734806
 10
30.78019046093591
 20
21.20576476737338
 10
30.77648770267785
 20
21.20478261072016
  0
LWPOLYLINE
  5
83
330
2
100
AcDbEntity
  8
0
100
AcDbPolyline
 90
        9
 70
   128
 43
0.0
 10
30.69463480371225
 20
21.13372059334678
 10
30.69392534391386
 20
21.13105698454768
 10
30.69710877116833
 20
21.07339480436577
 10
30.73216538743915
 20
21.01333113789196
 10
30.79375814079464
 20
20.96001013382925
 10
30.87251009274153
 20
20.92154943171318
 10
30.95643197259708
 20
20.90380432479113
 10
31.03274743482893
 20
20.90947634472071
 10
31.08983814213935
 20
20.9377019779412
  0
LWPOLYLINE
  5
84
330
2
100
AcDbEntity
  8
0
100
AcDbPolyline
 90
       17
 70
   128
 43
0.0
 10
31.97001027454571
 20
20.36209280283481
 10
31.99918468430237
 20
20.40857495248511
 10
31.99600125704792
 20
20.46623713266699
 10
31.960944640732
 20
20.52630079918587
 10
31.89935188742162
 20
20.57962180320354
 10
31.82059993542966
 20
20.61808250531958
 10
31.73667805561915
 20
20.63582761224164
 10
31.66036259338731
 20
20.63015559231205
 10
31.6032718860318
 20
20.60192995913665
 10
31.57409747632023
 20
20.55544780948634
 10
31.57728090357464
 20
20.49778562930446
 10
31.61233751989059
 20
20.43772196278557
 10
31.67393027320095
 20
20.38440095876791
 10
31.75268222519293
 20
20.34594025665183
 10
31.83660410500344
 20
20.3281951497298
 10
31.91291956723526
 20
20.3338671696594
 10
31.97001027454571
 20
20.36209280283481
  0
LINE
  5
85
330
2
100
AcDbEntity
  8
0
100
AcDbLine
 10
32.11223193511056
 20
21.19421320356463
 30
0.0
 11
31.17037322107335
 21
21.81016376308041
 31
0.0
  0
ARC
  5
86
330
2
100
AcDbEntity
  8
0
100
AcDbCircle
 10
30.96112376440045
 20
19.37382929861549
 30
0.0
 40
2.153798407953138
100
AcDbArc
 50
35.02348436029839
 51
57.69304655110095
  0
LINE
  5
87
330
2
100
AcDbEntity
  8
0
100
AcDbLine
 10
32.72490563317854
 20
20.60992035574523
 30
0.0
 11
32.73725132122161
 21
20.5915238645305
 31
0.0
  0
ARC
  5
88
330
2
100
AcDbEntity
  8
0
100
AcDbCircle
 10
33.17819678841612
 20
20.90054662877911
 30
0.0
 40
0.5384496019888509
100
AcDbArc
 50
215.0234843603989
 51
237.6930465511009
  0
LINE
  5
89
330
2
100
AcDbEntity
  8
0
100
AcDbLine
 10
32.89041974571605
 20
20.44545065256439
 30
0.0
 11
33.44372390099996
 21
20.08360444466831
 31
0.0
  0
LINE
  5
8A
330
2
100
AcDbEntity
  8
0
100
AcDbLine
 10
32.85762770402619
 20
19.57603024903649
 30
0.0
 11
32.30432354874232
 21
19.93787645693257
 31
0.0
  0
ARC
  5
8B
330
2
100
AcDbEntity
  8
0
100
AcDbCircle
 10
31.9122738364716
 20
19.33499930675342
 30
0.0
 40
0.7191410397678498
100
AcDbArc
 50
56.96413735989811
 51
75.62988647090083
  0
LINE
  5
8C
330
2
100
AcDbEntity
  8
0
100
AcDbLine
 10
32.09075358476793
 20
20.03164040126827
 30
0.0
 11
32.06482533421556
 21
20.038274048344
 31
0.0
  0
ARC
  5
8D
330
2
100
AcDbEntity
  8
0
100
AcDbCircle
 10
32.77874432731078
 20
22.8248384263133
 30
0.0
 40
2.876564159074254
100
AcDbArc
 50
236.9641373599995
 51
255.6298864709007
  0
LINE
  5
8E
330
2
100
AcDbEntity
  8
0
100
AcDbLine
 10
31.21054547822786
 20
20.41332982564181
 30
0.0
 11
30.44266164596675
 21
20.91550543762682
 31
0.0
  0
ARC
  5
8F
330
2
100
AcDbEntity
  8
0
100
AcDbCircle
 10
29.9828130129857
 20
21.96717338648852
 30
0.0
 40
1.09976553792979
100
AcDbArc
 50
315.6185138917994
 51
349.0309109471987
  0
ARC
  5
90
330
2
100
AcDbEntity
  8
0
100
AcDbCircle
 10
29.9597471971538
 20
21.97792692365407
 30
0.0
 40
1.09976553792954
100
AcDbArc
 50
315.6185138917994
 51
349.0309109471987
  0
LWPOLYLINE
  5
91
330
2
100
AcDbEntity
  8
0
100
AcDbPolyline
 90
        9
 70
   128
 43
0.0
 10
30.13773354162909
 20
20.98778083895622
 10
30.12875000880182
 20
20.92037702250872
 10
30.12877453435787
 20
20.8630657245045
 10
30.13780617571925
 20
20.81804938597889
 10
30.1554978520381
 20
20.78705795957511
 10
30.1811696820779
 20
20.77128242847211
 10
30.21383511184089
 20
20.77132903741151
 10
30.25223882710239
 20
20.78719599523819
 10
30.29490499471807
 20
20.81827354374428
  0
LINE
  5
92
330
2
100
AcDbEntity
  8
0
100
AcDbLine
 10
30.14194111500116
 20
21.01026606667813
 30
0.0
 11
30.13773354162909
 21
20.98778083895622
 31
0.0
  0
LINE
  5
93
330
2
100
AcDbEntity
  8
0
100
AcDbLine
 10
31.04362757188385
 20
21.79114944460097
 30
0.0
 11
31.03941999851179
 21
21.76866421683398
 31
0.0
  0
LINE
  5
94
330
2
100
AcDbEntity
  8
0
100
AcDbLine
 10
30.29490499471807
 20
20.81827354374428
 30
0.0
 11
30.74574822315942
 21
21.20871523266063
 31
0.0
  0
LWPOLYLINE
  5
95
330
2
100
AcDbEntity
  8
0
100
AcDbPolyline
 90
        9
 70
   128
 43
0.0
 10
31.17037322107335
 20
21.81016376308041
 10
31.15386275847636
 20
21.81899052576979
 10
31.13686478444402
 20
21.82428825024101
 10
31.12018513873274
 20
21.82580578201073
 10
31.10461456979794
 20
21.82347117799617
 10
31.09089124686431
 20
21.81739511700892
 10
31.07966576506862
 20
21.80786565293165
 10
31.07147030187656
 20
21.79533455840608
 10
31.06669338776084
 20
21.78039590743538
  0
LWPOLYLINE
  5
96
330
2
100
AcDbEntity
  8
0
100
AcDbPolyline
 90
        9
 70
   128
 43
0.0
 10
31.17841135526223
 20
21.82984765692597
 10
31.15694775385007
 20
21.84132244844471
 10
31.13485038759454
 20
21.84820949024377
 10
31.11316684821942
 20
21.85018228156692
 10
31.0929251085546
 20
21.84714729629389
 10
31.07508478872743
 20
21.83924841707362
 10
31.06049166242905
 20
21.82686011375063
 10
31.04983756027034
 20
21.81056969087187
 10
31.04362757188385
 20
21.79114944460097
  0
LINE
  5
97
330
2
100
AcDbEntity
  8
0
100
AcDbLine
 10
31.06669338776084
 20
21.78039590743538
 30
0.0
 11
31.0624858143437
 21
21.75791067966841
 31
0.0
  0
LINE
  5
98
330
2
100
AcDbEntity
  8
0
100
AcDbLine
 10
32.12027006925439
 20
21.2138970974102
 30
0.0
 11
31.17841135526223
 21
21.82984765692597
 31
0.0
  0
ARC
  5
99
330
2
100
AcDbEntity
  8
0
100
AcDbCircle
 10
30.21258668487769
 20
20.99864849144081
 30
0.0
 40
0.0715944452928004
100
AcDbArc
 50
131.4912298235004
 51
170.6613651516
  0
LINE
  5
9A
330
2
100
AcDbEntity
  8
0
100
AcDbLine
 10
30.31797081054998
 20
20.80752000657872
 30
0.0
 11
30.76881403899133
 21
21.19796169554012
 31
0.0
  0
ARC
  5
9B
330
2
100
AcDbEntity
  8
0
100
AcDbCircle
 10
30.96916189854425
 20
19.39351319246105
 30
0.0
 40
2.153798407954715
100
AcDbArc
 50
35.02348436039883
 51
57.69304655110095
  0
ARC
  5
9C
330
2
100
AcDbEntity
  8
0
100
AcDbCircle
 10
33.5477463980689
 20
20.2491945525577
 30
0.0
 40
0.1746471334218652
100
AcDbArc
 50
236.6610925817995
 51
249.1503439898009
  0
LINE
  5
9D
330
2
100
AcDbEntity
  8
0
100
AcDbLine
 10
33.48558651328199
 20
20.08598373815721
 30
0.0
 11
34.38026959165183
 21
19.74837947561072
 31
0.0
  0
ARC
  5
9E
330
2
100
AcDbEntity
  8
0
100
AcDbCircle
 10
33.57712143387376
 20
17.69572659412082
 30
0.0
 40
2.204184841420336
100
AcDbArc
 50
40.83879218670166
 51
68.63092307739989
  0
ARC
  5
9F
330
2
100
AcDbEntity
  8
0
100
AcDbCircle
 10
33.58702517285093
 20
17.70371508136322
 30
0.0
 40
2.171208452299738
100
AcDbArc
 50
40.75484759110021
 51
68.62970744749929
  0
LINE
  5
A0
330
2
100
AcDbEntity
  8
0
100
AcDbLine
 10
33.48351740466809
 20
20.06324609129162
 30
0.0
 11
34.37820048303795
 21
19.72564182874513
 31
0.0
  0
ARC
  5
A1
330
2
100
AcDbEntity
  8
0
100
AcDbCircle
 10
33.55664668089065
 20
20.25525881412105
 30
0.0
 40
0.2054672157928763
100
AcDbArc
 50
236.6610925819004
 51
249.1503439898009
  0
LINE
  5
A2
330
2
100
AcDbEntity
  8
0
100
AcDbLine
 10
32.89845787985991
 20
20.46513454640995
 30
0.0
 11
33.45176203514375
 21
20.10328833851386
 31
0.0
  0
ARC
  5
A3
330
2
100
AcDbEntity
  8
0
100
AcDbCircle
 10
33.18623492255996
 20
20.92023052262467
 30
0.0
 40
0.5384496019877034
100
AcDbArc
 50
215.0234843602984
 51
237.6930465511009
  0
LWPOLYLINE
  5
A4
330
2
100
AcDbEntity
  8
0
100
AcDbPolyline
 90
        5
 70
   128
 43
0.0
 10
30.31797081054998
 20
20.80752000657872
 10
30.27530464297938
 20
20.77644245807264
 10
30.23690092767278
 20
20.76057550024597
 10
30.20423549795487
 20
20.76052889130655
 10
30.19571883145966
 20
20.76363029151286
  0
LINE
  5
A5
330
2
100
AcDbEntity
  8
0
100
AcDbLine
 10
32.73294376732235
 20
20.62960424959077
 30
0.0
 11
32.74528945536545
 21
20.61120775837605
 31
0.0
  0
LINE
  5
A6
330
2
100
AcDbEntity
  8
0
100
AcDbLine
 10
33.7921042860642
 20
19.21806763311333
 30
0.0
 11
32.89742120769434
 21
19.5556718956598
 31
0.0
  0
ARC
  5
A7
330
2
100
AcDbEntity
  8
0
100
AcDbCircle
 10
32.97055048391693
 20
19.74768461848923
 30
0.0
 40
0.2054672157932218
100
AcDbArc
 50
236.6610925819004
 51
249.1503439898009
  0
ARC
  5
A8
330
2
100
AcDbEntity
  8
0
100
AcDbCircle
 10
33.00753702515641
 20
17.20874439726613
 30
0.0
 40
2.157064128150489
100
AcDbArc
 50
43.43807867209881
 51
68.67117243009944
  0
LWPOLYLINE
  5
A9
330
2
100
AcDbEntity
  8
0
100
AcDbPolyline
 90
       17
 70
   128
 43
0.0
 10
50.41210290715973
 20
20.64989739038799
 10
50.46919361447017
 20
20.62167175721257
 10
50.54550907670201
 20
20.61599973723791
 10
50.62943095655756
 20
20.63374484415997
 10
50.7081829085045
 20
20.67220554627602
 10
50.76977566181485
 20
20.72552655033879
 10
50.80483227813073
 20
20.78559021685765
 10
50.80801570538522
 20
20.84325239703956
 10
50.77884129567364
 20
20.88973454664474
 10
50.72175058831811
 20
20.91796017986526
 10
50.64543512608628
 20
20.92363219979485
 10
50.56151324627578
 20
20.9058870928728
 10
50.48276129428383
 20
20.86742639075674
 10
50.42116854097344
 20
20.81410538669398
 10
50.38611192465753
 20
20.75404172022019
 10
50.38292849740305
 20
20.69637954003831
 10
50.41210290715973
 20
20.64989739038799
  0
LWPOLYLINE
  5
AA
330
2
100
AcDbEntity
  8
0
100
AcDbPolyline
 90
       17
 70
   128
 43
0.0
 10
50.53659871343143
 20
21.21101116018715
 10
50.59368942078693
 20
21.18278552701174
 10
50.67000488301878
 20
21.17711350708214
 10
50.75392676282923
 20
21.19485861395912
 10
50.83267871482124
 20
21.23331931607518
 10
50.89427146813163
 20
21.28664032013792
 10
50.92932808444753
 20
21.34670398665681
 10
50.932511511702
 20
21.40436616683868
 10
50.90333710194531
 20
21.45084831648899
 10
50.84624639463487
 20
21.47907394966441
 10
50.76993093240304
 20
21.48474596959398
 10
50.68600905254747
 20
21.46700086267195
 10
50.60725710060058
 20
21.42854016055588
 10
50.54566434729022
 20
21.37521915649313
 10
50.51060773097427
 20
21.31515549001933
 10
50.50742430371985
 20
21.25749330983745
 10
50.53659871343143
 20
21.21101116018715
  0
LWPOLYLINE
  5
AB
330
2
100
AcDbEntity
  8
0
100
AcDbPolyline
 90
       17
 70
   128
 43
0.0
 10
49.65642658102506
 20
20.63540198512583
 10
49.71351728833552
 20
20.60717635190532
 10
49.78983275061241
 20
20.60150433197572
 10
49.87375463042291
 20
20.61924943889779
 10
49.95250658241493
 20
20.65771014101384
 10
50.01409933572527
 20
20.71103114507659
 10
50.0491559520412
 20
20.77109481155042
 10
50.05233937929565
 20
20.82875699173226
 10
50.02316496953898
 20
20.8752391413826
 10
49.96607426222856
 20
20.90346477460309
 10
49.8897587999967
 20
20.90913679453267
 10
49.80583692014114
 20
20.89139168761061
 10
49.72708496819424
 20
20.85293098549454
 10
49.66549221483876
 20
20.7996099814318
 10
49.63043559856793
 20
20.73954631495801
 10
49.62725217131348
 20
20.68188413477614
 10
49.65642658102506
 20
20.63540198512583
  0
LINE
  5
AC
330
2
100
AcDbEntity
  8
0
100
AcDbLine
 10
50.73148163725183
 20
20.41332982564181
 30
0.0
 11
51.49936546955803
 21
20.91550543762682
 31
0.0
  0
ARC
  5
AD
330
2
100
AcDbEntity
  8
0
100
AcDbCircle
 10
49.16328278816894
 20
22.8248384263133
 30
0.0
 40
2.876564159072851
100
AcDbArc
 50
284.3701135290991
 51
303.0358626401019
  0
LINE
  5
AE
330
2
100
AcDbEntity
  8
0
100
AcDbLine
 10
49.87720178126415
 20
20.038274048344
 30
0.0
 11
49.85127353075687
 21
20.03164040126827
 31
0.0
  0
ARC
  5
AF
330
2
100
AcDbEntity
  8
0
100
AcDbCircle
 10
50.02975327900813
 20
19.33499930675342
 30
0.0
 40
0.7191410397693168
100
AcDbArc
 50
104.3701135292004
 51
123.0358626400005
  0
LINE
  5
B0
330
2
100
AcDbEntity
  8
0
100
AcDbLine
 10
49.63770356673741
 20
19.93787645693257
 30
0.0
 11
49.08439941145352
 21
19.57603024903649
 31
0.0
  0
LINE
  5
B1
330
2
100
AcDbEntity
  8
0
100
AcDbLine
 10
48.49830321447976
 20
20.08360444466831
 30
0.0
 11
49.05160736976365
 21
20.44545065256439
 31
0.0
  0
ARC
  5
B2
330
2
100
AcDbEntity
  8
0
100
AcDbCircle
 10
48.76383032710868
 20
20.90054662877911
 30
0.0
 40
0.5384496019878393
100
AcDbArc
 50
302.306953448899
 51
324.9765156397007
  0
LINE
  5
B3
330
2
100
AcDbEntity
  8
0
100
AcDbLine
 10
49.20477579430318
 20
20.5915238645305
 30
0.0
 11
49.21712148234628
 21
20.60992035574523
 31
0.0
  0
ARC
  5
B4
330
2
100
AcDbEntity
  8
0
100
AcDbCircle
 10
50.98090335112432
 20
19.37382929861549
 30
0.0
 40
2.153798407954736
100
AcDbArc
 50
122.3069534488991
 51
144.9765156396012
  0
LINE
  5
B5
330
2
100
AcDbEntity
  8
0
100
AcDbLine
 10
49.82979518036914
 20
21.19421320356463
 30
0.0
 11
50.77165389440639
 21
21.81016376308041
 31
0.0
  0
ARC
  5
B6
330
2
100
AcDbEntity
  8
0
100
AcDbCircle
 10
51.95921410249403
 20
21.96717338648852
 30
0.0
 40
1.09976553792934
100
AcDbArc
 50
190.9690890528013
 51
224.3814861082006
  0
ARC
  5
B7
330
2
100
AcDbEntity
  8
0
100
AcDbCircle
 10
51.98227991832592
 20
21.97792692365407
 30
0.0
 40
1.099765537929775
100
AcDbArc
 50
190.9690890528013
 51
224.3814861082006
  0
LINE
  5
B8
330
2
100
AcDbEntity
  8
0
100
AcDbLine
 10
50.89839954359586
 20
21.79114944460097
 30
0.0
 11
50.90260711701302
 21
21.76866421683398
 31
0.0
  0
LINE
  5
B9
330
2
100
AcDbEntity
  8
0
100
AcDbLine
 10
51.80008600047856
 20
21.01026606667813
 30
0.0
 11
51.80429357389572
 21
20.98778083895622
 31
0.0
  0
LWPOLYLINE
  5
BA
330
2
100
AcDbEntity
  8
0
100
AcDbPolyline
 90
        9
 70
   128
 43
0.0
 10
51.6471221208067
 20
20.81827354374428
 10
51.68978828837733
 20
20.78719599523819
 10
51.72819200368387
 20
20.77132903741151
 10
51.76085743340181
 20
20.77128242847211
 10
51.78652926344161
 20
20.78705795957511
 10
51.80422093976048
 20
20.81804938597889
 10
51.81325258116694
 20
20.8630657245045
 10
51.8132771066779
 20
20.92037702250872
 10
51.80429357389572
 20
20.98778083895622
  0
LINE
  5
BB
330
2
100
AcDbEntity
  8
0
100
AcDbLine
 10
51.19627889236535
 20
21.20871523266063
 30
0.0
 11
51.6471221208067
 21
20.81827354374428
 31
0.0
  0
LWPOLYLINE
  5
BC
330
2
100
AcDbEntity
  8
0
100
AcDbPolyline
 90
        9
 70
   128
 43
0.0
 10
50.76361576026254
 20
21.82984765692597
 10
50.78507936167472
 20
21.84132244844471
 10
50.80717672788518
 20
21.84820949024377
 10
50.82886026730536
 20
21.85018228156692
 10
50.84910200697017
 20
21.84714729629389
 10
50.86694232675235
 20
21.83924841707362
 10
50.88153545309578
 20
21.82686011375063
 10
50.89218955520935
 20
21.81056969087187
 10
50.89839954359586
 20
21.79114944460097
  0
LWPOLYLINE
  5
BD
330
2
100
AcDbEntity
  8
0
100
AcDbPolyline
 90
        9
 70
   128
 43
0.0
 10
50.77165389440639
 20
21.81016376308041
 10
50.78816435704847
 20
21.81899052576979
 10
50.80516233103568
 20
21.82428825024101
 10
50.82184197674703
 20
21.82580578201073
 10
50.83741254572689
 20
21.82347117799617
 10
50.85113586866047
 20
21.81739511700892
 10
50.86236135045622
 20
21.80786565293165
 10
50.87055681360317
 20
21.79533455840608
 10
50.87533372776398
 20
21.78039590743538
  0
LINE
  5
BE
330
2
100
AcDbEntity
  8
0
100
AcDbLine
 10
49.82175704622534
 20
21.2138970974102
 30
0.0
 11
49.82979518036914
 21
21.19421320356463
 31
0.0
  0
LINE
  5
BF
330
2
100
AcDbEntity
  8
0
100
AcDbLine
 10
50.87533372776398
 20
21.78039590743538
 30
0.0
 11
50.87954130113604
 21
21.75791067966841
 31
0.0
  0
LINE
  5
C0
330
2
100
AcDbEntity
  8
0
100
AcDbLine
 10
49.82175704622534
 20
21.2138970974102
 30
0.0
 11
50.76361576026254
 21
21.82984765692597
 31
0.0
  0
ARC
  5
C1
330
2
100
AcDbEntity
  8
0
100
AcDbCircle
 10
51.72944043064713
 20
20.99864849144081
 30
0.0
 40
0.0715944452922771
100
AcDbArc
 50
9.338634848198697
 51
48.50877017670007
  0
LINE
  5
C2
330
2
100
AcDbEntity
  8
0
100
AcDbLine
 10
51.17321307648839
 20
21.19796169554012
 30
0.0
 11
51.62405630492973
 21
20.80752000657872
 31
0.0
  0
ARC
  5
C3
330
2
100
AcDbEntity
  8
0
100
AcDbCircle
 10
50.97286521693543
 20
19.39351319246105
 30
0.0
 40
2.153798407955098
100
AcDbArc
 50
122.3069534488991
 51
144.9765156396012
  0
ARC
  5
C4
330
2
100
AcDbEntity
  8
0
100
AcDbCircle
 10
48.38538043458904
 20
20.25525881412105
 30
0.0
 40
0.2054672157920302
100
AcDbArc
 50
290.8496560101991
 51
303.3389074180996
  0
LINE
  5
C5
330
2
100
AcDbEntity
  8
0
100
AcDbLine
 10
47.56382663248687
 20
19.72564182874513
 30
0.0
 11
48.45850971081159
 21
20.06324609129162
 31
0.0
  0
ARC
  5
C6
330
2
100
AcDbEntity
  8
0
100
AcDbCircle
 10
48.35500194267388
 20
17.70371508136322
 30
0.0
 40
2.171208452299162
100
AcDbArc
 50
111.3702925525007
 51
139.3134715170318
  0
ARC
  5
C7
330
2
100
AcDbEntity
  8
0
100
AcDbCircle
 10
48.36490568160597
 20
17.69572659412082
 30
0.0
 40
2.204184841420347
100
AcDbArc
 50
111.3690769226
 51
139.4251938797643
  0
LINE
  5
C8
330
2
100
AcDbEntity
  8
0
100
AcDbLine
 10
47.56175752387297
 20
19.74837947561072
 30
0.0
 11
48.45644060219773
 21
20.08598373815721
 31
0.0
  0
ARC
  5
C9
330
2
100
AcDbEntity
  8
0
100
AcDbCircle
 10
48.39428071741079
 20
20.2491945525577
 30
0.0
 40
0.1746471334260022
100
AcDbArc
 50
290.8496560102999
 51
303.3389074180996
  0
LINE
  5
CA
330
2
100
AcDbEntity
  8
0
100
AcDbLine
 10
48.49026508033593
 20
20.10328833851386
 30
0.0
 11
49.04356923561985
 21
20.46513454640995
 31
0.0
  0
ARC
  5
CB
330
2
100
AcDbEntity
  8
0
100
AcDbCircle
 10
48.75579219296487
 20
20.92023052262467
 30
0.0
 40
0.5384496019896102
100
AcDbArc
 50
302.306953448899
 51
324.9765156396013
  0
LWPOLYLINE
  5
CC
330
2
100
AcDbEntity
  8
0
100
AcDbPolyline
 90
        5
 70
   128
 43
0.0
 10
51.74630828406515
 20
20.76363029151286
 10
51.7377916175699
 20
20.76052889130655
 10
51.70512618780692
 20
20.76057550024597
 10
51.66672247254544
 20
20.77644245807264
 10
51.62405630492973
 20
20.80752000657872
  0
LINE
  5
CD
330
2
100
AcDbEntity
  8
0
100
AcDbLine
 10
49.19673766015938
 20
20.61120775837605
 30
0.0
 11
49.20908334820247
 21
20.62960424959077
 31
0.0
  0
LINE
  5
CE
330
2
100
AcDbEntity
  8
0
100
AcDbLine
 10
49.04460590778535
 20
19.5556718956598
 30
0.0
 11
48.14992282946062
 21
19.21806763311333
 31
0.0
  0
ARC
  5
CF
330
2
100
AcDbEntity
  8
0
100
AcDbCircle
 10
48.9714766315628
 20
19.74768461848923
 30
0.0
 40
0.2054672157909811
100
AcDbArc
 50
290.8496560101991
 51
303.3389074182005
  0
ARC
  5
D0
330
2
100
AcDbEntity
  8
0
100
AcDbCircle
 10
48.93449009032331
 20
17.20874439726613
 30
0.0
 40
2.15706412814916
100
AcDbArc
 50
111.3288275699005
 51
136.5619213279012
  0
LINE
  5
D1
330
2
100
AcDbEntity
  8
0
100
AcDbLine
 10
41.88865215878133
 20
28.58288891699918
 30
0.0
 11
41.88865215878133
 21
22.6163791651367
 31
0.0
  0
LINE
  5
D2
330
2
100
AcDbEntity
  8
0
100
AcDbLine
 10
42.15915809584614
 20
22.59349102378085
 30
0.0
 11
42.15915809584614
 21
28.34862390361328
 31
0.0
  0
ARC
  5
D3
330
2
100
AcDbEntity
  8
0
100
AcDbCircle
 10
41.71501625471249
 20
28.37449824161107
 30
0.0
 40
0.4448948824191839
100
AcDbArc
 50
356.6658924962008
 51
73.03118074249995
  0
LINE
  5
D4
330
2
100
AcDbEntity
  8
0
100
AcDbLine
 10
41.68905747449943
 20
28.98816181594048
 30
0.0
 11
41.70236609339197
 21
28.97712346668053
 31
0.0
  0
ARC
  5
D5
330
2
100
AcDbEntity
  8
0
100
AcDbCircle
 10
41.41972823429343
 20
28.6013039619005
 30
0.0
 40
0.4692853724643033
100
AcDbArc
 50
357.7511011825993
 51
47.5982054287992
  0
LINE
  5
D6
330
2
100
AcDbEntity
  8
0
100
AcDbLine
 10
45.13105283126952
 20
26.81182699078064
 30
0.0
 11
45.13105283126952
 21
21.86745195397159
 31
0.0
  0
LINE
  5
D7
330
2
100
AcDbEntity
  8
0
100
AcDbLine
 10
45.40155876833434
 20
21.74173693213177
 30
0.0
 11
45.40155876833434
 21
26.57756197743986
 31
0.0
  0
ARC
  5
D8
330
2
100
AcDbEntity
  8
0
100
AcDbCircle
 10
44.95741692720075
 20
26.60343631539253
 30
0.0
 40
0.4448948824190283
100
AcDbArc
 50
356.6658924962008
 51
73.03118074249995
  0
LINE
  5
D9
330
2
100
AcDbEntity
  8
0
100
AcDbLine
 10
44.93145814698763
 20
27.21709988972196
 30
0.0
 11
44.9447667658802
 21
27.206061540462
 31
0.0
  0
ARC
  5
DA
330
2
100
AcDbEntity
  8
0
100
AcDbCircle
 10
44.66212890678161
 20
26.83024203568197
 30
0.0
 40
0.4692853724642835
100
AcDbArc
 50
357.7511011825993
 51
47.59820542870023
  0
LINE
  5
DB
330
2
100
AcDbEntity
  8
0
100
AcDbLine
 10
43.95886043732203
 20
27.82697538208931
 30
0.0
 11
43.95886043732203
 21
22.2739198833116
 31
0.0
  0
LINE
  5
DC
330
2
100
AcDbEntity
  8
0
100
AcDbLine
 10
44.22936637438683
 20
22.19687715355994
 30
0.0
 11
44.22936637438683
 21
27.59271036870342
 31
0.0
  0
ARC
  5
DD
330
2
100
AcDbEntity
  8
0
100
AcDbCircle
 10
43.78522453325323
 20
27.61858470670122
 30
0.0
 40
0.4448948824189114
100
AcDbArc
 50
356.6658924962008
 51
73.03118074370148
  0
LINE
  5
DE
330
2
100
AcDbEntity
  8
0
100
AcDbLine
 10
43.75926575304013
 20
28.23224828098557
 30
0.0
 11
43.77257437193269
 21
28.2212099317707
 31
0.0
  0
ARC
  5
DF
330
2
100
AcDbEntity
  8
0
100
AcDbCircle
 10
43.4899365128341
 20
27.84539042694561
 30
0.0
 40
0.4692853724643836
100
AcDbArc
 50
357.7511011825993
 51
47.59820542870023
  0
LINE
  5
E0
330
2
100
AcDbEntity
  8
0
100
AcDbLine
 10
43.09945505805728
 20
28.25565201274388
 30
0.0
 11
43.09945505805728
 21
22.4650602126368
 31
0.0
  0
LINE
  5
E1
330
2
100
AcDbEntity
  8
0
100
AcDbLine
 10
43.36996099512207
 20
22.41307975764161
 30
0.0
 11
43.36996099512207
 21
28.02138699935802
 31
0.0
  0
ARC
  5
E2
330
2
100
AcDbEntity
  8
0
100
AcDbCircle
 10
42.92581915403353
 20
28.04726133735577
 30
0.0
 40
0.4448948824193975
100
AcDbArc
 50
356.6658924962008
 51
73.03118074139987
  0
LINE
  5
E3
330
2
100
AcDbEntity
  8
0
100
AcDbLine
 10
42.89986037377536
 20
28.66092491164014
 30
0.0
 11
42.91316899266796
 21
28.64988656242524
 31
0.0
  0
ARC
  5
E4
330
2
100
AcDbEntity
  8
0
100
AcDbCircle
 10
42.63053113361443
 20
28.27406705764525
 30
0.0
 40
0.4692853724644983
100
AcDbArc
 50
357.7511011825993
 51
47.59820542870023
  0
LINE
  5
E5
330
2
100
AcDbEntity
  8
0
100
AcDbLine
 10
45.7143457830171
 20
21.57605462535947
 30
0.0
 11
45.7143457830171
 21
25.99109021678572
 31
0.0
  0
ARC
  5
E6
330
2
100
AcDbEntity
  8
0
100
AcDbCircle
 10
45.26783322474016
 20
26.01646281090369
 30
0.0
 40
0.4472328624543644
100
AcDbArc
 50
356.7477266561998
 51
72.60205757269545
  0
LINE
  5
E7
330
2
100
AcDbEntity
  8
0
100
AcDbLine
 10
44.4434417951604
 20
27.29009637656374
 30
0.0
 11
44.4434417951604
 21
22.12939754603767
 31
0.0
  0
LINE
  5
E8
330
2
100
AcDbEntity
  8
0
100
AcDbLine
 10
44.71394773222522
 20
22.03513542669716
 30
0.0
 11
44.71394773222522
 21
27.05583136322296
 31
0.0
  0
ARC
  5
E9
330
2
100
AcDbEntity
  8
0
100
AcDbCircle
 10
44.26980589109161
 20
27.08170570122074
 30
0.0
 40
0.4448948824200869
100
AcDbArc
 50
356.6658924962008
 51
73.03118073830077
  0
ARC
  5
EA
330
2
100
AcDbEntity
  8
0
100
AcDbCircle
 10
43.97451787071757
 20
27.30851142146508
 30
0.0
 40
0.4692853724644093
100
AcDbArc
 50
357.7511011825993
 51
47.59820542870023
  0
LWPOLYLINE
  5
EB
330
2
100
AcDbEntity
  8
0
100
AcDbPolyline
 90
       11
 70
   128
 43
0.0
 10
38.75485499396734
 20
18.02652104769458
 10
38.62553121544906
 20
18.15460917691316
 10
38.52570323821769
 20
18.28913174938932
 10
38.45662645706361
 20
18.42839706571634
 10
38.41916955261672
 20
18.57065378380557
 10
38.41380356709939
 20
18.71411294289378
 10
38.4405959809678
 20
18.85697046071051
 10
38.49920986406415
 20
18.99742982117156
 10
38.58890811277689
 20
19.13372466631355
 10
38.70856271955761
 20
19.26414100933988
 10
38.73783695939506
 20
19.29105101141772
  0
LWPOLYLINE
  5
EC
330
2
100
AcDbEntity
  8
0
100
AcDbPolyline
 90
       29
 70
   128
 43
0.0
 10
43.20780337164776
 20
19.28781128443887
 10
43.31649590007571
 20
19.177932661866
 10
43.4163238773071
 20
19.04341008938981
 10
43.48540065841611
 20
18.90414477306283
 10
43.52285756290805
 20
18.76188805497362
 10
43.52822354838032
 20
18.61842889593046
 10
43.50143113451192
 20
18.47557137806866
 10
43.44281725146065
 20
18.33511201760758
 10
43.35311900274793
 20
18.19881717246557
 10
43.23346439592211
 20
18.06840082943928
 10
43.08535815713719
 20
17.94550304965948
 10
42.91066280822526
 20
17.83166934404636
 10
42.71157524457946
 20
17.72833123750282
 10
42.49059910784156
 20
17.63678826665437
 10
42.25051330112985
 20
17.55819163750332
 10
41.99433704273778
 20
17.49352974822163
 10
41.72529189778545
 20
17.44361575962847
 10
41.44676126504127
 20
17.40907736907398
 10
41.16224782886285
 20
17.39034891680547
 10
40.87532951077655
 20
17.38766592409189
 10
40.58961447509799
 20
17.40106213100353
 10
40.30869575417589
 20
17.43036907252917
 10
40.03610606393693
 20
17.47521819690809
 10
39.77527337783924
 20
17.53504550029844
 10
39.5294778183248
 20
17.60909861971344
 10
39.30181040709853
 20
17.69644629414687
 10
39.09513419401145
 20
17.79599007599232
 10
38.91204825231451
 20
17.90647814433873
 10
38.75485499396734
 20
18.02652104769458
  0
LWPOLYLINE
  5
ED
330
2
100
AcDbEntity
  8
0
100
AcDbPolyline
 90
       11
 70
   128
 43
0.0
 10
43.53516688219435
 20
19.21939841998229
 10
43.58892280890372
 20
19.12860037897812
 10
43.64668626479525
 20
18.9850955418967
 10
43.67307990458198
 20
18.8393092722592
 10
43.66779428696463
 20
18.69295078076442
 10
43.63089138102124
 20
18.54773598692887
 10
43.56280383953801
 20
18.40536740137987
 10
43.46432992670739
 20
18.26751416571857
 10
43.33662415907355
 20
18.13579248299306
 10
43.18118377004645
 20
18.01174666952425
 10
43.10676123401814
 20
17.96145529877457
  0
LWPOLYLINE
  5
EE
330
2
100
AcDbEntity
  8
0
100
AcDbPolyline
 90
       11
 70
   128
 43
0.0
 10
38.83526588150667
 20
17.96145529877457
 10
38.70605427954627
 20
18.05215058277857
 10
38.55967192929257
 20
18.17892141679217
 10
38.44156035487626
 20
18.31286247273689
 10
38.35310430662111
 20
18.45240341423562
 10
38.29534085072959
 20
18.59590825131707
 10
38.26894721094284
 20
18.74169452095455
 10
38.27423282851506
 20
18.88805301244931
 10
38.31113573450357
 20
19.03326780628487
 10
38.3792232759868
 20
19.17563639183387
 10
38.40899494112188
 20
19.22257590368029
  0
LWPOLYLINE
  5
EF
330
2
100
AcDbEntity
  8
0
100
AcDbPolyline
 90
       89
 70
   128
 43
0.0
 10
39.13473060921788
 20
19.35955841494918
 10
39.56477280762833
 20
19.41746192871602
 10
40.00198088653
 20
19.45987848143294
 10
40.444126933823
 20
19.48659192799087
 10
40.88895787458464
 20
19.49746614281423
 10
41.33420695228798
 20
19.49244571339303
 10
41.77760527972096
 20
19.47155622269096
 10
42.21689340059056
 20
19.43490411876167
 10
42.64983280338244
 20
19.38267617233926
 10
43.07421732814569
 20
19.31513852506312
 10
43.48788440853902
 20
19.23263533325125
 10
43.88872609206248
 20
19.13558701434566
 10
44.27469978126189
 20
19.02448810427982
 10
44.64383864275247
 20
18.89990473762575
 10
44.99426162946366
 20
18.76247176264824
 10
45.32418306624246
 20
18.61288950636928
 10
45.63192174904197
 20
18.45192020560298
 10
45.91590951206983
 20
18.28038412303149
 10
46.17469921880415
 20
18.09915536721167
 10
46.40697213616556
 20
17.90915743833444
 10
46.61154465469639
 20
17.71135852232305
 10
46.78737431962571
 20
17.50676655707531
 10
46.93356514338046
 20
17.29642409636736
 10
47.04937217095923
 20
17.08140299716211
 10
47.13420527634794
 20
16.86279895773383
 10
47.18763216950889
 20
16.64172593406477
 10
47.20938059915566
 20
16.41931046368396
 10
47.19933974031322
 20
16.19668592485483
 10
47.15756075890904
 20
15.97498676113835
 10
47.08425655109556
 20
15.755342700681
 10
46.97980065820567
 20
15.53887299930762
 10
46.84472536360827
 20
15.32668073694853
 10
46.67971898007471
 20
15.11984719670675
 10
46.48562234221842
 20
14.9194263549676
 10
46.26342452204166
 20
14.72643951036788
 10
46.01425778873356
 20
14.5418700796226
 10
45.7393918388687
 20
14.366658586267
 10
45.44022732626566
 20
14.2016978678776
 10
45.11828872473315
 20
14.04782852647785
 10
44.77521655959012
 20
13.90583464494136
 10
44.41275904795051
 20
13.77643979157421
 10
44.03276319019602
 20
13.66030333289351
 10
43.63716535817324
 20
13.55801707367317
 10
43.22798142767774
 20
13.47010224116343
 10
42.80729650626184
 20
13.39700682930861
 10
42.37725430789644
 20
13.33910331549667
 10
41.94004622894971
 20
13.29668676282486
 10
41.4979001816567
 20
13.26997331626692
 10
41.05306924089506
 20
13.25909910144354
 10
40.60782016319175
 20
13.26411953081967
 10
40.16442183580382
 20
13.28500902152176
 10
39.72513371488918
 20
13.32166112545104
 10
39.29219431209728
 20
13.37388907187346
 10
38.86780978737912
 20
13.44142671919468
 10
38.4541427069407
 20
13.52392991096146
 10
38.05330102346236
 20
13.62097822991216
 10
37.66732733426294
 20
13.73207713997801
 10
37.29818847277235
 20
13.85666050663202
 10
36.94776548601605
 20
13.99409348156447
 10
36.61784404923726
 20
14.14367573788853
 10
36.31010536643774
 20
14.30464503865479
 10
36.0261176034099
 20
14.4761811212263
 10
35.76732789672067
 20
14.65740987700102
 10
35.53505497931417
 20
14.84740780587828
 10
35.33048246082839
 20
15.04520672188966
 10
35.15465279585402
 20
15.24979868713739
 10
35.00846197214434
 20
15.46014114784537
 10
34.89265494452052
 20
15.6751622470506
 10
34.80782183913176
 20
15.89376628652397
 10
34.75439494601591
 20
16.11483931014794
 10
34.73264651636912
 20
16.33725478052877
 10
34.7426873751665
 20
16.55987931940296
 10
34.78446635657069
 20
16.78157848311946
 10
34.85777056442921
 20
17.0012225435317
 10
34.96222645727406
 20
17.21769224495021
 10
35.09730175187145
 20
17.42988450730927
 10
35.26230813545007
 20
17.63671804750594
 10
35.45640477330636
 20
17.83713888924511
 10
35.67860259348314
 20
18.03012573384483
 10
35.92776932674616
 20
18.21469516459012
 10
36.20263527665608
 20
18.3899066579908
 10
36.50179978925911
 20
18.55486737638021
 10
36.82373839079164
 20
18.70873671777995
 10
37.16681055593466
 20
18.85073059927132
 10
37.52926806757431
 20
18.98012545263851
 10
37.90926392528367
 20
19.09626191131921
 10
38.30486175735152
 20
19.19854817058464
 10
38.71404568780197
 20
19.28646300304929
 10
39.13473060921788
 20
19.35955841494918
  0
LWPOLYLINE
  5
F0
330
2
100
AcDbEntity
  8
0
100
AcDbPolyline
 90
       98
 70
   128
 43
0.0
 10
34.34170305868649
 20
14.57388919441928
 10
34.10785675404678
 20
14.79245962402588
 10
33.90279691415613
 20
15.01814008781228
 10
33.72738363126125
 20
15.24998400358648
 10
33.58235264959122
 20
15.48701893735488
 10
33.46831227951604
 20
15.72825068219127
 10
33.38574084599925
 20
15.9726674284012
 10
33.33498468230045
 20
16.21924400712925
 10
33.31625667740365
 20
16.46694619059165
 10
33.32963538307711
 20
16.71473502972929
 10
33.37506468435193
 20
16.96157121196821
 10
33.45235403504263
 20
17.20641942064806
 10
33.56117925664147
 20
17.44825267731881
 10
33.70108389842208
 20
17.68605664914201
 10
33.87148115167479
 20
17.91883390376869
 10
34.07165631108539
 20
18.14560809235326
 10
34.30076977248174
 20
18.36542804523857
 10
34.55786055437029
 20
18.57737176110716
 10
34.84185032874505
 20
18.78055027435937
 10
35.15154794367639
 20
18.97411138367719
 10
35.48565441982609
 20
19.15724322657982
 10
35.84276839852727
 20
19.32917768441703
 10
36.22139201956263
 20
19.48919360432048
 10
36.61993720398049
 20
19.63661982391083
 10
37.03673231471743
 20
19.770837986408
 10
37.4700291682474
 20
19.89128513419688
 10
37.91801036696075
 20
19.99745607007385
 10
38.37879692206659
 20
20.08890547625493
 10
38.85045613460295
 20
20.16524978212906
 10
39.3310097019136
 20
20.22616877309227
 10
39.8184420153727
 20
20.27140693383501
 10
40.31070861437133
 20
20.30077451972601
 10
40.80574476180685
 20
20.31414835286619
 10
41.3014741040147
 20
20.31147233884509
 10
41.79581737984235
 20
20.29275770176562
 10
42.2867011418057
 20
20.25808293726598
 10
42.77206645281013
 20
20.20759348340427
 10
43.24987752205219
 20
20.14150111048715
 10
43.71813024385535
 20
20.06008303286373
 10
44.17486060359691
 20
19.96368074633592
 10
44.61815291537999
 20
19.85269859551413
 10
45.04614785727733
 20
19.7276020781056
 10
45.45705026970193
 20
19.58891589244769
 10
45.84913668511986
 20
19.43722173653624
 10
46.22076255691605
 20
19.27315586842276
 10
46.57036915697966
 20
19.09740643731268
 10
46.89649011374288
 20
18.9107105974473
 10
47.19775756253874
 20
18.7138514160406
 10
47.47290788307738
 20
18.5076545889766
 10
47.72078699924344
 20
18.29298497729623
 10
47.9403552198898
 20
18.07074298002847
 10
48.13069159957386
 20
17.84186075729617
 10
48.29099780138207
 20
17.60729832073896
 10
48.42060144543304
 20
17.36803950671666
 10
48.51895892894668
 20
17.12508784983142
 10
48.58565770647436
 20
16.8794623737201
 10
48.62041802014467
 20
16.63219331710557
 10
48.62309407316367
 20
16.38431781223885
 10
48.59367464120313
 20
16.13687553511869
 10
48.53228311960373
 20
15.89090434475548
 10
48.4391770057622
 20
15.64743592973876
 10
48.31474681904616
 20
15.40749148117929
 10
48.15951446288043
 20
15.17207740951806
 10
47.97413103572315
 20
14.94218112319089
 10
47.75937410012768
 20
14.7187668871374
 10
47.51614442129793
 20
14.50277177824149
 10
47.24546218902179
 20
14.29510175510545
 10
46.94846273867322
 20
14.09662785793732
 10
46.62639178913543
 20
13.90818255527823
 10
46.28060021793362
 20
13.73055625217638
 10
45.91253839503738
 20
13.5644939750918
 10
45.52375009972306
 20
13.41069224696658
 10
45.11586604511258
 20
13.26979616562564
 10
44.69059703874631
 20
13.14239669826631
 10
44.24972680664674
 20
13.02902820249704
 10
43.79510451171028
 20
12.93016618515047
 10
43.32863699785124
 20
12.84622530797851
 10
42.85228079199796
 20
12.77755764807375
 10
42.3680338975736
 20
12.72445122158323
 10
41.87792741431276
 20
12.68712877522318
 10
41.38401701917257
 20
12.66574685235735
 10
40.88837434400125
 20
12.66039513616348
 10
40.39307828643637
 20
12.67109607367501
 10
39.9002062901913
 20
12.6978047813296
 10
39.41182563178827
 20
12.74040923360185
 10
38.92998474940054
 20
12.79873073260163
 10
38.45670465113284
 20
12.87252465764602
 10
37.99397043822196
 20
12.9614814914686
 10
37.54372297872887
 20
13.065228118062
 10
37.10785076702309
 20
13.18332938814074
 10
36.68818200255737
 20
13.31528994388408
 10
36.28647692206124
 20
13.46055629682753
 10
35.90442041621696
 20
13.61851914947986
 10
35.54361496273662
 20
13.78851595065753
 10
35.20557390514651
 20
13.96983367475293
 10
34.89171510509475
 20
14.16171181222249
 10
34.60335499541336
 20
14.36334555943777
 10
34.34170305868649
 20
14.57388919441928
  0
LWPOLYLINE
  5
F1
330
2
100
AcDbEntity
  8
0
100
AcDbPolyline
 90
       52
 70
   128
 43
0.0
 10
33.31646239545562
 20
16.38774337823918
 10
33.30679033412853
 20
16.56062664638072
 10
33.32018558475659
 20
16.80872191644726
 10
33.36567106673319
 20
17.05586335151658
 10
33.44305599812696
 20
17.30101435453369
 10
33.55201579972065
 20
17.54314667706817
 10
33.69209345619689
 20
17.78124473194554
 10
33.86270143312378
 20
18.01430985321968
 10
34.06312414148916
 20
18.24136448473184
 10
34.29252093869376
 20
18.46145628048471
 10
34.54992965486629
 20
18.67366209897833
 10
34.83427062845165
 20
18.87709187527692
 10
35.14435123452523
 20
19.07089235417135
 10
35.47887088730418
 20
19.25425066919802
 10
35.83642649508025
 20
19.4263977517349
 10
36.21551834539179
 20
19.58661155719089
 10
36.61455639527881
 20
19.73422009309406
 10
37.03186694047151
 20
19.86860423807928
 10
37.46569963556038
 20
19.98920033820412
 10
37.91423483539212
 20
20.09550257157658
 10
38.37559122752984
 20
20.18706506970763
 10
38.84783372286615
 20
20.263503787609
 10
39.32898157228922
 20
20.32449811479126
 10
39.81701667450596
 20
20.3697922198136
 10
40.30989204066892
 20
20.39919612347105
 10
40.80554038027965
 20
20.41258649552454
 10
41.30188277185098
 20
20.40990717217892
 10
41.79683738298122
 20
20.39116939142299
 10
42.28832820201546
 20
20.35645174596152
 10
42.77429374558658
 20
20.30589985373911
 10
43.25269570538267
 20
20.23972574691209
 10
43.7215274973518
 20
20.15820698274093
 10
44.17882267790819
 20
20.06168547919721
 10
44.62266319228946
 20
19.95056608101169
 10
45.05118741904249
 20
19.82531486157338
 10
45.46259797867318
 20
19.68645716802805
 10
45.85516927228645
 20
19.5345754177821
 10
46.22725471946812
 20
19.37030665569867
 10
46.57729366452726
 20
19.19433988203994
 10
46.90381792255946
 20
19.0074131626522
 10
47.2054579372438
 20
18.81031053307058
 10
47.48094852557767
 20
18.60385871029382
 10
47.72913418430138
 20
18.38892362498853
 10
47.94897393650807
 20
18.16640678958602
 10
48.13954569788005
 20
17.93724151706046
 10
48.30005014420219
 20
17.70238900612161
 10
48.42981406405776
 20
17.46283430995519
 10
48.52829318250465
 20
17.21958220406425
 10
48.59507444382973
 20
16.97365297241797
 10
48.62987774427478
 20
16.72607812764172
 10
48.63255710666347
 20
16.47789608468071
 10
48.6255647200241
 20
16.38774337823918
  0
LINE
  5
F2
330
2
100
AcDbEntity
  8
0
100
AcDbLine
 10
35.7686818193763
 20
20.09610353437408
 30
0.0
 11
35.72212633232041
 21
19.36317564152924
 31
0.0
  0
SPLINE
  5
F3
330
2
100
AcDbEntity
  8
0
100
AcDbSpline
210
0.0
220
0.0
230
1.0
 70
     8
 71
     3
 72
    12
 73
     8
 74
     0
 42
0.000000001
 43
0.0000000001
 40
0.0
 40
0.0
 40
0.0
 40
0.0
 40
0.2499999999999977
 40
0.2499999999999977
 40
0.4999999999999953
 40
0.4999999999999953
 40
1.0
 40
1.0
 40
1.0
 40
1.0
 10
35.82631613718838
 20
20.20892974670079
 30
0.0
 10
35.8192571389222
 20
20.2041362765617
 30
0.0
 10
35.81225778742542
 20
20.19746577155912
 30
0.0
 10
35.79896911629413
 20
20.18104100922231
 30
0.0
 10
35.79278452616414
 20
20.1713763104316
 30
0.0
 10
35.77690766458722
 20
20.1402070705336
 30
0.0
 10
35.76997383319112
 20
20.11643818383862
 30
0.0
 10
35.76868181939275
 20
20.09610353439111
 30
0.0
  0
ARC
  5
F4
330
2
100
AcDbEntity
  8
0
100
AcDbCircle
 10
38.52198174864079
 20
16.23869343715862
 30
0.0
 40
4.798894606288507
100
AcDbArc
 50
123.1209904229009
 51
124.1752714889
  0
LWPOLYLINE
  5
F5
330
2
100
AcDbEntity
  8
0
100
AcDbPolyline
 90
        4
 70
   128
 43
0.0
 10
35.92288191528323
 20
20.61745868098332
 10
35.91991966098658
 20
20.57126765442109
 10
35.90807172834844
 20
20.38650319290765
 10
35.89982338895516
 20
20.25785690475919
  0
LWPOLYLINE
  5
F6
330
2
100
AcDbEntity
  8
0
100
AcDbPolyline
 90
        4
 70
   128
 43
0.0
 10
35.98863120236444
 20
21.42988955534792
 10
35.98484738235865
 20
21.38320646036225
 10
35.96971902836953
 20
21.19647169739757
 10
35.92288191528323
 20
20.61745868098332
  0
SPLINE
  5
F7
330
2
100
AcDbEntity
  8
0
100
AcDbSpline
210
0.0
220
0.0
230
1.0
 70
     8
 71
     3
 72
     8
 73
     4
 74
     0
 42
0.000000001
 43
0.0000000001
 40
0.0
 40
0.0
 40
0.0
 40
0.0
 40
1.0
 40
1.0
 40
1.0
 40
1.0
 10
35.99677237044102
 20
21.43667360368098
 30
0.0
 10
35.99401669982914
 20
21.4349096143857
 30
0.0
 10
35.99130347008227
 20
21.43264408564924
 30
0.0
 10
35.98863120234472
 20
21.42988955534226
 30
0.0
  0
LWPOLYLINE
  5
F8
330
2
100
AcDbEntity
  8
0
100
AcDbPolyline
 90
       26
 70
   128
 43
0.0
 10
35.99677237046142
 20
21.43667360367956
 10
36.29176824293561
 20
21.61199857377981
 10
36.61142691209292
 20
21.77616029323754
 10
36.95406355992709
 20
21.92829351851634
 10
37.31787225891142
 20
22.06759640424074
 10
37.70093549038122
 20
22.19333472976124
 10
38.10123425131181
 20
22.30484576883191
 10
38.51665869570681
 20
22.40154178260846
 10
38.94501925500666
 20
22.48291311752733
 10
39.38405817845826
 20
22.54853089147478
 10
39.83146143321204
 20
22.59804925422454
 10
40.28487090057811
 20
22.63120721046767
 10
40.74189680514285
 20
22.64782999529002
 10
41.20013031038193
 20
22.64782999529002
 10
41.65715621494666
 20
22.63120721046767
 10
42.11056568231276
 20
22.59804925422454
 10
42.55796893702146
 20
22.54853089147478
 10
42.99700786047305
 20
22.48291311752733
 10
43.42536841977291
 20
22.40154178260846
 10
43.84079286421299
 20
22.30484576883191
 10
44.2410916251436
 20
22.19333472976124
 10
44.62415485661334
 20
22.06759640424074
 10
44.9879635555526
 20
21.92829351851634
 10
45.33060020338678
 20
21.77616029323754
 10
45.65025887258918
 20
21.61199857377981
 10
45.9452547450634
 20
21.43667360367956
  0
SPLINE
  5
F9
330
2
100
AcDbEntity
  8
0
100
AcDbSpline
210
0.0
220
0.0
230
1.0
 70
     8
 71
     3
 72
     8
 73
     4
 74
     0
 42
0.000000001
 43
0.0000000001
 40
0.0
 40
0.0
 40
0.0
 40
0.0
 40
1.0
 40
1.0
 40
1.0
 40
1.0
 10
45.95339591315902
 20
21.42988955534226
 30
0.0
 10
45.95075333340456
 20
21.432613483757
 30
0.0
 10
45.94799334976165
 20
21.43492053880009
 30
0.0
 10
45.94525474506271
 20
21.43667360368098
 30
0.0
  0
LWPOLYLINE
  5
FA
330
2
100
AcDbEntity
  8
0
100
AcDbPolyline
 90
        4
 70
   128
 43
0.0
 10
46.01914520019647
 20
20.61745868098332
 10
46.01537261962223
 20
20.66414564199473
 10
46.00027551804062
 20
20.8508911550006
 10
45.95339591316034
 20
21.42988955534792
  0
LWPOLYLINE
  5
FB
330
2
100
AcDbEntity
  8
0
100
AcDbPolyline
 90
        4
 70
   128
 43
0.0
 10
46.04220372652456
 20
20.25785690475919
 10
46.03924220606548
 20
20.30404817166596
 10
46.02739504567671
 20
20.48881288614751
 10
46.01914520019647
 20
20.61745868098332
  0
ARC
  5
FC
330
2
100
AcDbEntity
  8
0
100
AcDbCircle
 10
43.42004536683893
 20
16.23869343711354
 30
0.0
 40
4.798894606366889
100
AcDbArc
 50
55.82472851109997
 51
56.87900957709906
  0
SPLINE
  5
FD
330
2
100
AcDbEntity
  8
0
100
AcDbSpline
210
0.0
220
0.0
230
1.0
 70
     8
 71
     3
 72
    12
 73
     8
 74
     0
 42
0.000000001
 43
0.0000000001
 40
0.0
 40
0.0
 40
0.0
 40
0.0
 40
0.2499999999999977
 40
0.2499999999999977
 40
0.4999999999999953
 40
0.4999999999999953
 40
1.0
 40
1.0
 40
1.0
 40
1.0
 10
46.173345296111
 20
20.09610353439111
 30
0.0
 10
46.17269932867709
 20
20.1062702379817
 30
0.0
 10
46.17070583083889
 20
20.11716712657762
 30
0.0
 10
46.16427336812785
 20
20.13937294959502
 30
0.0
 10
46.15984980860714
 20
20.15054376815217
 30
0.0
 10
46.14398845672337
 20
20.18170827067695
 30
0.0
 10
46.12982763824443
 20
20.19934371405387
 30
0.0
 10
46.11571097831531
 20
20.20892974670079
 30
0.0
  0
LINE
  5
FE
330
2
100
AcDbEntity
  8
0
100
AcDbLine
 10
46.21966701269495
 20
19.36685591483789
 30
0.0
 11
46.17334529610338
 21
20.09610353437408
 31
0.0
  0
ELLIPSE
  5
FF
330
2
100
AcDbEntity
  8
0
100
AcDbEllipse
 10
46.67052552873423
 20
20.59354395697267
 30
0.0
 11
-0.0131953559094599
 21
0.043115003842418
 31
0.0
210
0.0
220
0.0
230
0.9999999999999998
 40
0.4241965134
 41
6.276413276824133
 42
7.226106511356732
  0
LINE
  5
100
330
2
100
AcDbEntity
  8
0
100
AcDbLine
 10
46.64667958658378
 20
19.85305127741288
 30
0.0
 11
46.64797316080757
 21
20.61434098198279
 31
0.0
  0
LINE
  5
101
330
2
100
AcDbEntity
  8
0
100
AcDbLine
 10
46.64667958658378
 20
19.85305127741288
 30
0.0
 11
46.65549733931342
 21
19.14957029444501
 31
0.0
  0
LINE
  5
102
330
2
100
AcDbEntity
  8
0
100
AcDbLine
 10
45.96881081260083
 20
21.23950394646872
 30
0.0
 11
46.66301879295406
 21
20.63830220001291
 31
0.0
  0
ELLIPSE
  5
103
330
2
100
AcDbEntity
  8
0
100
AcDbEllipse
 10
35.27150158674549
 20
20.59354395697267
 30
0.0
 11
0.0131953559094599
 21
0.0431150038424436
 31
0.0
210
0.0
220
0.0
230
1.0
 40
0.4241965134000002
 41
5.340264103002066
 42
6.289957337533787
  0
LINE
  5
104
330
2
100
AcDbEntity
  8
0
100
AcDbLine
 10
35.29534752894102
 20
19.85305127741288
 30
0.0
 11
35.28652035516389
 21
19.14881868882039
 31
0.0
  0
LINE
  5
105
330
2
100
AcDbEntity
  8
0
100
AcDbLine
 10
35.29405395471725
 20
20.61434098198279
 30
0.0
 11
35.29534752894102
 21
19.85305127741288
 31
0.0
  0
LINE
  5
106
330
2
100
AcDbEntity
  8
0
100
AcDbLine
 10
35.27900832257078
 20
20.63830220001291
 30
0.0
 11
35.97320446395894
 21
21.23949369364944
 31
0.0
  0
LINE
  5
107
330
2
100
AcDbEntity
  8
0
100
AcDbLine
 10
35.24470294835517
 20
19.13711575317632
 30
0.0
 11
35.24309017888396
 21
19.45581083428997
 31
0.0
  0
LINE
  5
108
330
2
100
AcDbEntity
  8
0
100
AcDbLine
 10
35.13404401407702
 20
19.2531636546603
 30
0.0
 11
35.15059391598877
 21
19.5608237082818
 31
0.0
  0
LINE
  5
109
330
2
100
AcDbEntity
  8
0
100
AcDbLine
 10
35.24309017888396
 20
19.45581083428997
 30
0.0
 11
35.23228997412427
 21
19.53724008768586
 31
0.0
  0
LINE
  5
10A
330
2
100
AcDbEntity
  8
0
100
AcDbLine
 10
46.69732416716963
 20
19.13711575317632
 30
0.0
 11
46.69893693664087
 21
19.45581083428997
 31
0.0
  0
LINE
  5
10B
330
2
100
AcDbEntity
  8
0
100
AcDbLine
 10
46.69893693664087
 20
19.45581083428997
 30
0.0
 11
46.70973714140052
 21
19.53724008768586
 31
0.0
  0
LINE
  5
10C
330
2
100
AcDbEntity
  8
0
100
AcDbLine
 10
46.79143319953603
 20
19.5608237082818
 30
0.0
 11
46.80783879392133
 21
19.25584630825284
 31
0.0
  0
SPLINE
  5
10D
330
2
100
AcDbEntity
  8
0
100
AcDbSpline
210
0.0
220
0.0
230
1.0
 70
     8
 71
     3
 72
     8
 73
     4
 74
     0
 42
0.000000001
 43
0.0000000001
 40
0.0
 40
0.0
 40
0.0
 40
0.0
 40
1.0
 40
1.0
 40
1.0
 40
1.0
 10
35.12391956397986
 20
20.68102730957032
 30
0.0
 10
35.12239817480015
 20
20.68014513510747
 30
0.0
 10
35.12076331901899
 20
20.67864614756369
 30
0.0
 10
35.11909622392576
 20
20.67658376450318
 30
0.0
  0
LWPOLYLINE
  5
10E
330
2
100
AcDbEntity
  8
0
100
AcDbPolyline
 90
        4
 70
   128
 43
0.0
 10
35.08943280485444
 20
19.89567057856754
 10
35.09140899549047
 20
19.94080182030579
 10
35.09932046342588
 20
20.12132439201885
 10
35.12391956398578
 20
20.68102730956484
  0
LWPOLYLINE
  5
10F
330
2
100
AcDbEntity
  8
0
100
AcDbPolyline
 90
        4
 70
   128
 43
0.0
 10
35.07007232371438
 20
19.53927140341935
 10
35.07255883908427
 20
19.58505130383244
 10
35.08250594404045
 20
19.7681705220877
 10
35.08943280485444
 20
19.89567057856754
  0
ARC
  5
110
330
2
100
AcDbEntity
  8
0
100
AcDbCircle
 10
37.24096618402537
 20
17.73715706004884
 30
0.0
 40
2.821417420253239
100
AcDbArc
 50
138.8008210537007
 51
140.3030696584016
  0
SPLINE
  5
111
330
2
100
AcDbEntity
  8
0
100
AcDbSpline
210
0.0
220
0.0
230
1.0
 70
     8
 71
     3
 72
    12
 73
     8
 74
     0
 42
0.000000001
 43
0.0000000001
 40
0.0
 40
0.0
 40
0.0
 40
0.0
 40
0.2499999999999977
 40
0.2499999999999977
 40
0.4999999999999953
 40
0.4999999999999953
 40
1.0
 40
1.0
 40
1.0
 40
1.0
 10
35.1505939159772
 20
19.56082370826137
 30
0.0
 10
35.15113615873335
 20
19.5709005836461
 30
0.0
 10
35.15069520423619
 20
19.5796891746752
 30
0.0
 10
35.14795862230315
 20
19.59395437210238
 30
0.0
 10
35.14566200172517
 20
19.59930534397619
 30
0.0
 10
35.13660787426623
 20
19.60889240844271
 30
0.0
 10
35.12760818705327
 20
19.60647026552592
 30
0.0
 10
35.11806302143035
 20
19.59556455614488
 30
0.0
  0
ARC
  5
112
330
2
100
AcDbEntity
  8
0
100
AcDbCircle
 10
36.59212616795116
 20
19.41651513877546
 30
0.0
 40
1.938450452698996
100
AcDbArc
 50
139.4554486087002
 51
174.1405686757003
  0
SPLINE
  5
113
330
2
100
AcDbEntity
  8
0
100
AcDbSpline
210
0.0
220
0.0
230
1.0
 70
     8
 71
     3
 72
    12
 73
     8
 74
     0
 42
0.000000001
 43
0.0000000001
 40
0.0
 40
0.0
 40
0.0
 40
0.0
 40
0.2499999999999977
 40
0.2499999999999977
 40
0.4999999999999953
 40
0.4999999999999953
 40
1.0
 40
1.0
 40
1.0
 40
1.0
 10
46.82396409407343
 20
19.59556455614484
 30
0.0
 10
46.81919105938091
 20
19.60101792712632
 30
0.0
 10
46.81459931848501
 20
19.60438560259338
 30
0.0
 10
46.80617896469386
 20
19.60676140733088
 30
0.0
 10
46.80242081779335
 20
19.6057073713917
 30
0.0
 10
46.79335547191636
 20
19.59613871677524
 30
0.0
 10
46.79034864775768
 20
19.580978690321
 30
0.0
 10
46.79143319952649
 20
19.56082370826137
 30
0.0
  0
ARC
  5
114
330
2
100
AcDbEntity
  8
0
100
AcDbCircle
 10
44.70106093127401
 20
17.73715705986849
 30
0.0
 40
2.821417420517431
100
AcDbArc
 50
39.69693034159839
 51
41.19917894619972
  0
LWPOLYLINE
  5
115
330
2
100
AcDbEntity
  8
0
100
AcDbPolyline
 90
        4
 70
   128
 43
0.0
 10
46.85259431067036
 20
19.89567057856754
 10
46.85508153611833
 20
19.84989093905741
 10
46.86502938839221
 20
19.66677199541077
 10
46.87195479181042
 20
19.53927140341935
  0
LWPOLYLINE
  5
116
330
2
100
AcDbEntity
  8
0
100
AcDbPolyline
 90
        4
 70
   128
 43
0.0
 10
46.81810755153899
 20
20.68102730956484
 10
46.82009485897721
 20
20.63590004007105
 10
46.82803723839243
 20
20.45538851361131
 10
46.85259431067036
 20
19.89567057856754
  0
SPLINE
  5
117
330
2
100
AcDbEntity
  8
0
100
AcDbSpline
210
0.0
220
0.0
230
1.0
 70
     8
 71
     3
 72
     8
 73
     4
 74
     0
 42
0.000000001
 43
0.0000000001
 40
0.0
 40
0.0
 40
0.0
 40
0.0
 40
1.0
 40
1.0
 40
1.0
 40
1.0
 10
46.82293089157794
 20
20.6765837645031
 30
0.0
 10
46.82125340780039
 20
20.67865899952793
 30
0.0
 10
46.81964603270478
 20
20.68013522434487
 30
0.0
 10
46.81810755152382
 20
20.68102730957032
 30
0.0
  0
ARC
  5
118
330
2
100
AcDbEntity
  8
0
100
AcDbCircle
 10
45.37241496830815
 20
19.42616558663309
 30
0.0
 40
1.915082782337182
100
AcDbArc
 50
5.640979907201447
 51
40.76300280839961
  0
ELLIPSE
  5
119
330
2
100
AcDbEntity
  8
0
100
AcDbEllipse
 10
35.18729736753537
 20
19.49748998417062
 30
0.0
 11
0.0136011730721669
 21
0.0897283251324493
 31
0.0
210
0.0
220
0.0
230
1.0
 40
0.4926395442000003
 41
5.24450207558694
 42
6.218569152574621
  0
ELLIPSE
  5
11A
330
2
100
AcDbEntity
  8
0
100
AcDbEllipse
 10
46.75472974794433
 20
19.49748998417062
 30
0.0
 11
-0.0136011730721156
 21
0.0897283251324493
 31
0.0
210
0.0
220
0.0
230
1.0
 40
0.4926395442000002
 41
0.0646161546055553
 42
1.038683231592613
  0
SPLINE
  5
11B
330
2
100
AcDbEntity
  8
0
100
AcDbSpline
210
0.0
220
0.0
230
1.0
 70
     8
 71
     2
 72
     6
 73
     3
 74
     0
 42
0.000000001
 43
0.0000000001
 40
0.0
 40
0.0
 40
0.0
 40
1.0
 40
1.0
 40
1.0
 10
35.12391956397986
 20
20.68102730957032
 30
0.0
 10
35.12575030107631
 20
20.68208885880187
 30
0.0
 10
35.13071284436949
 20
20.68111141711924
 30
0.0
  0
SPLINE
  5
11C
330
2
100
AcDbEntity
  8
0
100
AcDbSpline
210
0.0
220
0.0
230
1.0
 70
     8
 71
     2
 72
     6
 73
     3
 74
     0
 42
0.000000001
 43
0.0000000001
 40
0.0
 40
0.0
 40
0.0
 40
1.0
 40
1.0
 40
1.0
 10
46.81810755152382
 20
20.68102730957032
 30
0.0
 10
46.81627681442739
 20
20.68208885880187
 30
0.0
 10
46.81131427111023
 20
20.68111141711924
 30
0.0
  0
LINE
  5
11D
330
2
100
AcDbEntity
  8
0
100
AcDbLine
 10
25.60378580658249
 20
10.55024275869302
 30
0.0
 11
25.72134139834172
 21
10.44843662986669
 31
0.0
  0
LINE
  5
11E
330
2
100
AcDbEntity
  8
0
100
AcDbLine
 10
25.62995933867939
 20
10.54396125867562
 30
0.0
 11
25.66736871917598
 21
10.55476041661847
 31
0.0
  0
ARC
  5
11F
330
2
100
AcDbEntity
  8
0
100
AcDbCircle
 10
25.65583043347626
 20
10.64605958815779
 30
0.0
 40
0.1053251272354621
100
AcDbArc
 50
174.8069247138071
 51
197.7982758284785
  0
ARC
  5
120
330
2
100
AcDbEntity
  8
0
100
AcDbCircle
 10
25.65583043347626
 20
10.64605958815779
 30
0.0
 40
0.1053251272354621
100
AcDbArc
 50
243.6760031272354
 51
255.7808851649024
  0
LWPOLYLINE
  5
121
330
2
100
AcDbEntity
  8
0
100
AcDbPolyline
 90
        3
 70
   128
 43
0.0
 10
25.72134139834172
 20
10.44843662986669
 10
25.73850750934133
 20
10.43661575658585
 10
25.76521228802136
 20
10.42682876860183
  0
LINE
  5
122
330
2
100
AcDbEntity
  8
0
100
AcDbLine
 10
25.76521228802136
 20
10.42682876860183
 30
0.0
 11
25.80262166851799
 21
10.43762792656274
 31
0.0
  0
ELLIPSE
  5
123
330
2
100
AcDbEntity
  8
0
100
AcDbEllipse
 10
25.73698079784301
 20
10.68750363151821
 30
0.0
 11
0.0156393995012873
 21
0.2390670016515341
 31
0.0
210
0.0
220
0.0
230
1.0
 40
0.6128168285279184
 41
1.901834973623699
 42
6.870853096261242
  0
ELLIPSE
  5
124
330
2
100
AcDbEntity
  8
0
100
AcDbEllipse
 10
25.92465199999918
 20
10.56521721739891
 30
0.0
 11
-0.0734966241507208
 21
-0.0474817641467972
 31
0.0
210
0.0
220
0.0
230
1.0
 40
0.8108083480216544
 41
-1.570796326794896
 42
4.712388980384688
  0
POLYLINE
  5
125
330
2
100
AcDbEntity
  8
0
100
AcDb2dPolyline
 66
     1
 10
0.0
 20
0.0
 30
0.0
 70
     2
  0
VERTEX
  5
126
330
125
100
AcDbEntity
  8
0
100
AcDbVertex
100
AcDb2dVertex
 10
25.59334772396637
 20
10.61886449172544
 30
0.0
 42
-0.0407001063012493
  0
VERTEX
  5
127
330
125
100
AcDbEntity
  8
0
100
AcDbVertex
100
AcDb2dVertex
 10
25.57212276648908
 20
10.61427741926113
 30
0.0
 42
-0.0533636094325774
 70
     1
  0
VERTEX
  5
128
330
125
100
AcDbEntity
  8
0
100
AcDbVertex
100
AcDb2dVertex
 10
25.55554631518728
 20
10.6138652090495
 30
0.0
 42
-0.0721016312397558
  0
VERTEX
  5
129
330
125
100
AcDbEntity
  8
0
100
AcDbVertex
100
AcDb2dVertex
 10
25.52438717171542
 20
10.62102032229734
 30
0.0
 42
-0.049181819659195
 70
     1
  0
VERTEX
  5
12A
330
125
100
AcDbEntity
  8
0
100
AcDbVertex
100
AcDb2dVertex
 10
25.48267275502553
 20
10.6421027082643
 30
0.0
 42
-0.1299918264744689
  0
VERTEX
  5
12B
330
125
100
AcDbEntity
  8
0
100
AcDbVertex
100
AcDb2dVertex
 10
25.46561653169911
 20
10.66055798964513
 30
0.0
 42
-0.0183988239051425
 70
     1
  0
VERTEX
  5
12C
330
125
100
AcDbEntity
  8
0
100
AcDbVertex
100
AcDb2dVertex
 10
25.38953757691235
 20
10.81777481552713
 30
0.0
 42
-0.1065909250173949
  0
VERTEX
  5
12D
330
125
100
AcDbEntity
  8
0
100
AcDbVertex
100
AcDb2dVertex
 10
25.25805539254565
 20
11.461369887727
 30
0.0
 42
-0.0341714829428452
 70
     1
  0
VERTEX
  5
12E
330
125
100
AcDbEntity
  8
0
100
AcDbVertex
100
AcDb2dVertex
 10
25.41848625292632
 20
13.48339047028212
 30
0.0
 42
-0.0351584512428674
  0
VERTEX
  5
12F
330
125
100
AcDbEntity
  8
0
100
AcDbVertex
100
AcDb2dVertex
 10
25.75695124272467
 20
15.0128998915722
 30
0.0
 42
-0.0163892026655929
 70
     1
  0
VERTEX
  5
130
330
125
100
AcDbEntity
  8
0
100
AcDbVertex
100
AcDb2dVertex
 10
26.81572292150354
 20
18.19884215245677
 30
0.0
 42
-0.0510981219346352
  0
VERTEX
  5
131
330
125
100
AcDbEntity
  8
0
100
AcDbVertex
100
AcDb2dVertex
 10
28.22958680209517
 20
21.08346823978637
 30
0.0
 42
-0.0960405987144896
 70
     1
  0
VERTEX
  5
132
330
125
100
AcDbEntity
  8
0
100
AcDbVertex
100
AcDb2dVertex
 10
29.40147820675417
 20
22.34310334776441
 30
0.0
 42
-0.1610809047953647
  0
VERTEX
  5
133
330
125
100
AcDbEntity
  8
0
100
AcDbVertex
100
AcDb2dVertex
 10
30.7209681705328
 20
22.76658202504271
 30
0.0
 42
-0.255790732332755
 70
     1
  0
VERTEX
  5
134
330
125
100
AcDbEntity
  8
0
100
AcDbVertex
100
AcDb2dVertex
 10
31.51203329339985
 20
22.32440008456386
 30
0.0
 42
-0.098011211948385
  0
VERTEX
  5
135
330
125
100
AcDbEntity
  8
0
100
AcDbVertex
100
AcDb2dVertex
 10
31.64989407649396
 20
21.96346226586669
 30
0.0
 42
-0.0855608966021421
 70
     1
  0
VERTEX
  5
136
330
125
100
AcDbEntity
  8
0
100
AcDbVertex
100
AcDb2dVertex
 10
31.6493407122583
 20
21.52187237716808
 30
0.0
  0
SEQEND
  5
137
330
125
100
AcDbEntity
  8
0
  0
POLYLINE
  5
138
330
2
100
AcDbEntity
  8
0
100
AcDb2dPolyline
 66
     1
 10
0.0
 20
0.0
 30
0.0
  0
VERTEX
  5
139
330
138
100
AcDbEntity
  8
0
100
AcDbVertex
100
AcDb2dVertex
 10
25.65124620363496
 20
10.56872293749161
 30
0.0
 42
-0.0917287563956366
  0
VERTEX
  5
13A
330
138
100
AcDbEntity
  8
0
100
AcDbVertex
100
AcDb2dVertex
 10
25.58116181359602
 20
10.54592987086033
 30
0.0
 42
-0.0533636094325817
  0
VERTEX
  5
13B
330
138
100
AcDbEntity
  8
0
100
AcDbVertex
100
AcDb2dVertex
 10
25.54991556620171
 20
10.54515286364591
 30
0.0
 42
-0.0721016312397559
  0
VERTEX
  5
13C
330
138
100
AcDbEntity
  8
0
100
AcDbVertex
100
AcDb2dVertex
 10
25.49947750366638
 20
10.55673501929045
 30
0.0
 42
-0.0491818196591948
  0
VERTEX
  5
13D
330
138
100
AcDbEntity
  8
0
100
AcDbVertex
100
AcDb2dVertex
 10
25.44568751563908
 20
10.58392037578676
 30
0.0
 42
-0.129991826474462
  0
VERTEX
  5
13E
330
138
100
AcDbEntity
  8
0
100
AcDbVertex
100
AcDb2dVertex
 10
25.40470481240064
 20
10.62826473652463
 30
0.0
 42
-0.0183988239051426
  0
VERTEX
  5
13F
330
138
100
AcDbEntity
  8
0
100
AcDbVertex
100
AcDb2dVertex
 10
25.3264164837905
 20
10.79004722370772
 30
0.0
 42
-0.1065909250173949
  0
VERTEX
  5
140
330
138
100
AcDbEntity
  8
0
100
AcDbVertex
100
AcDb2dVertex
 10
25.18911678775934
 20
11.46211856330265
 30
0.0
 42
-0.0341714829428451
  0
VERTEX
  5
141
330
138
100
AcDbEntity
  8
0
100
AcDbVertex
100
AcDb2dVertex
 10
25.35029211393029
 20
13.49352216074287
 30
0.0
 42
-0.0351584512428675
  0
VERTEX
  5
142
330
138
100
AcDbEntity
  8
0
100
AcDbVertex
100
AcDb2dVertex
 10
25.69084939210484
 20
15.03248654747962
 30
0.0
 42
-0.0163892026655928
  0
VERTEX
  5
143
330
138
100
AcDbEntity
  8
0
100
AcDbVertex
100
AcDb2dVertex
 10
26.75104604187235
 20
18.22271667834049
 30
0.0
 42
-0.0510981219346353
  0
VERTEX
  5
144
330
138
100
AcDbEntity
  8
0
100
AcDbVertex
100
AcDb2dVertex
 10
28.17109559107924
 20
21.11996303364646
 30
0.0
 42
-0.0960405987144895
  0
VERTEX
  5
145
330
138
100
AcDbEntity
  8
0
100
AcDbVertex
100
AcDb2dVertex
 10
29.360862415177
 20
22.39881195768747
 30
0.0
 42
-0.1610809047953648
  0
VERTEX
  5
146
330
138
100
AcDbEntity
  8
0
100
AcDbVertex
100
AcDb2dVertex
 10
30.72157910093809
 20
22.83552198811957
 30
0.0
 42
-0.2557907323327542
  0
VERTEX
  5
147
330
138
100
AcDbEntity
  8
0
100
AcDbVertex
100
AcDb2dVertex
 10
31.57043618017981
 20
22.36103605815222
 30
0.0
 42
-0.0980112119483848
  0
VERTEX
  5
148
330
138
100
AcDbEntity
  8
0
100
AcDbVertex
100
AcDb2dVertex
 10
31.71784929267077
 20
21.97508897388588
 30
0.0
 42
-0.0910097670417274
  0
VERTEX
  5
149
330
138
100
AcDbEntity
  8
0
100
AcDbVertex
100
AcDb2dVertex
 10
31.71188668004565
 20
21.48096897702776
 30
0.0
 42
-0.0855608966021423
  0
SEQEND
  5
14A
330
138
100
AcDbEntity
  8
0
  0
POLYLINE
  5
14B
330
2
100
AcDbEntity
  8
0
100
AcDb2dPolyline
 66
     1
 10
0.0
 20
0.0
 30
0.0
 70
     2
  0
VERTEX
  5
14C
330
14B
100
AcDbEntity
  8
0
100
AcDbVertex
100
AcDb2dVertex
 10
25.45753050112692
 20
12.39548834287645
 30
0.0
 42
-0.0040113403305492
  0
VERTEX
  5
14D
330
14B
100
AcDbEntity
  8
0
100
AcDbVertex
100
AcDb2dVertex
 10
25.8320937569262
 20
13.94096111783436
 30
0.0
 42
-0.0075768084471684
 70
     1
  0
VERTEX
  5
14E
330
14B
100
AcDbEntity
  8
0
100
AcDbVertex
100
AcDb2dVertex
 10
26.04931315986852
 20
14.75438913342894
 30
0.0
 42
-0.0018925756175435
  0
VERTEX
  5
14F
330
14B
100
AcDbEntity
  8
0
100
AcDbVertex
100
AcDb2dVertex
 10
26.68467598552754
 20
16.96483475167682
 30
0.0
 42
-0.0043139102797093
 70
     1
  0
VERTEX
  5
150
330
14B
100
AcDbEntity
  8
0
100
AcDbVertex
100
AcDb2dVertex
 10
26.97543903186303
 20
17.93106950414258
 30
0.0
 42
-0.0418767819269687
  0
VERTEX
  5
151
330
14B
100
AcDbEntity
  8
0
100
AcDbVertex
100
AcDb2dVertex
 10
27.61000552113188
 20
19.49867856536958
 30
0.0
 42
-0.0330546918914628
 70
     1
  0
VERTEX
  5
152
330
14B
100
AcDbEntity
  8
0
100
AcDbVertex
100
AcDb2dVertex
 10
28.70058247692472
 20
21.34124707088664
 30
0.0
 42
-0.0475351096181545
  0
VERTEX
  5
153
330
14B
100
AcDbEntity
  8
0
100
AcDbVertex
100
AcDb2dVertex
 10
29.12512656652405
 20
21.84990073138994
 30
0.0
 42
-0.0420582397227134
 70
     1
  0
VERTEX
  5
154
330
14B
100
AcDbEntity
  8
0
100
AcDbVertex
100
AcDb2dVertex
 10
29.6993957467237
 20
22.32990211279429
 30
0.0
 42
-0.1586308766120422
  0
VERTEX
  5
155
330
14B
100
AcDbEntity
  8
0
100
AcDbVertex
100
AcDb2dVertex
 10
30.6334140447108
 20
22.61628474659826
 30
0.0
 42
-0.2054227055945032
 70
     1
  0
VERTEX
  5
156
330
14B
100
AcDbEntity
  8
0
100
AcDbVertex
100
AcDb2dVertex
 10
31.33296862452579
 20
22.30192131057072
 30
0.0
 42
-0.1178316098490597
  0
VERTEX
  5
157
330
14B
100
AcDbEntity
  8
0
100
AcDbVertex
100
AcDb2dVertex
 10
31.49147774774248
 20
22.01765873547369
 30
0.0
 42
-0.0908404211066918
 70
     1
  0
VERTEX
  5
158
330
14B
100
AcDbEntity
  8
0
100
AcDbVertex
100
AcDb2dVertex
 10
31.53042634469624
 20
21.5996392121999
 30
0.0
  0
SEQEND
  5
159
330
14B
100
AcDbEntity
  8
0
  0
POLYLINE
  5
15A
330
2
100
AcDbEntity
  8
0
100
AcDb2dPolyline
 66
     1
 10
0.0
 20
0.0
 30
0.0
  0
VERTEX
  5
15B
330
15A
100
AcDbEntity
  8
0
100
AcDbVertex
100
AcDb2dVertex
 10
25.53836895555932
 20
11.98101123269857
 30
0.0
 42
-0.0049846506989399
  0
VERTEX
  5
15C
330
15A
100
AcDbEntity
  8
0
100
AcDbVertex
100
AcDb2dVertex
 10
25.99926992723196
 20
13.89902126222955
 30
0.0
 42
-0.0075768084471685
  0
VERTEX
  5
15D
330
15A
100
AcDbEntity
  8
0
100
AcDbVertex
100
AcDb2dVertex
 10
26.21514169883803
 20
14.70740276232529
 30
0.0
 42
-0.0018925756175435
  0
VERTEX
  5
15E
330
15A
100
AcDbEntity
  8
0
100
AcDbVertex
100
AcDb2dVertex
 10
26.85014407553838
 20
16.91659436823712
 30
0.0
 42
-0.0043139102797093
  0
VERTEX
  5
15F
330
15A
100
AcDbEntity
  8
0
100
AcDbVertex
100
AcDb2dVertex
 10
27.14005011586525
 20
17.87998120381984
 30
0.0
 42
-0.0418767819269687
  0
VERTEX
  5
160
330
15A
100
AcDbEntity
  8
0
100
AcDbVertex
100
AcDb2dVertex
 10
27.76380253830585
 20
19.42087560324962
 30
0.0
 42
-0.0330546918914628
  0
VERTEX
  5
161
330
15A
100
AcDbEntity
  8
0
100
AcDbVertex
100
AcDb2dVertex
 10
28.84278474848749
 20
21.24385437419619
 30
0.0
 42
-0.0475351096181543
  0
VERTEX
  5
162
330
15A
100
AcDbEntity
  8
0
100
AcDbVertex
100
AcDb2dVertex
 10
29.24637663848088
 20
21.72740483979879
 30
0.0
 42
-0.0420582397227135
  0
VERTEX
  5
163
330
15A
100
AcDbEntity
  8
0
100
AcDbVertex
100
AcDb2dVertex
 10
29.79843723465279
 20
22.18884323475025
 30
0.0
 42
-0.1586308766120425
  0
VERTEX
  5
164
330
15A
100
AcDbEntity
  8
0
100
AcDbVertex
100
AcDb2dVertex
 10
30.63046225064279
 20
22.44395334981279
 30
0.0
 42
-0.2054227055945034
  0
VERTEX
  5
165
330
15A
100
AcDbEntity
  8
0
100
AcDbVertex
100
AcDb2dVertex
 10
31.20606731394465
 20
22.18528992208955
 30
0.0
 42
-0.1178316098490587
  0
VERTEX
  5
166
330
15A
100
AcDbEntity
  8
0
100
AcDbVertex
100
AcDb2dVertex
 10
31.32555479256001
 20
21.97100687216936
 30
0.0
 42
-0.0668429697767973
  0
VERTEX
  5
167
330
15A
100
AcDbEntity
  8
0
100
AcDbVertex
100
AcDb2dVertex
 10
31.36258075982754
 20
21.70940576250757
 30
0.0
 42
-0.090840421106692
  0
SEQEND
  5
168
330
15A
100
AcDbEntity
  8
0
  0
POLYLINE
  5
169
330
2
100
AcDbEntity
  8
0
100
AcDb2dPolyline
 66
     1
 10
0.0
 20
0.0
 30
0.0
 70
     2
  0
VERTEX
  5
16A
330
169
100
AcDbEntity
  8
0
100
AcDbVertex
100
AcDb2dVertex
 10
31.75319617431027
 20
21.45395366599693
 30
0.0
 42
-0.0745402614561629
  0
VERTEX
  5
16B
330
169
100
AcDbEntity
  8
0
100
AcDbVertex
100
AcDb2dVertex
 10
32.00141500955627
 20
23.78841736400216
 30
0.0
 42
-0.0819365762137526
 70
     1
  0
VERTEX
  5
16C
330
169
100
AcDbEntity
  8
0
100
AcDbVertex
100
AcDb2dVertex
 10
32.86984253531481
 20
25.74227988947873
 30
0.0
 42
-0.0382246655931619
  0
VERTEX
  5
16D
330
169
100
AcDbEntity
  8
0
100
AcDbVertex
100
AcDb2dVertex
 10
33.95324796508786
 20
27.143538419734
 30
0.0
 42
-0.0691838780396303
 70
     1
  0
VERTEX
  5
16E
330
169
100
AcDbEntity
  8
0
100
AcDbVertex
100
AcDb2dVertex
 10
34.70544429563375
 20
27.77463127044287
 30
0.0
 42
-0.1505247027418366
  0
VERTEX
  5
16F
330
169
100
AcDbEntity
  8
0
100
AcDbVertex
100
AcDb2dVertex
 10
35.79208234335577
 20
28.06500345669229
 30
0.0
 42
-0.1067816705428751
 70
     1
  0
VERTEX
  5
170
330
169
100
AcDbEntity
  8
0
100
AcDbVertex
100
AcDb2dVertex
 10
37.31123749767082
 20
27.67638138949887
 30
0.0
  0
SEQEND
  5
171
330
169
100
AcDbEntity
  8
0
  0
POLYLINE
  5
172
330
2
100
AcDbEntity
  8
0
100
AcDb2dPolyline
 66
     1
 10
0.0
 20
0.0
 30
0.0
  0
VERTEX
  5
173
330
172
100
AcDbEntity
  8
0
100
AcDbVertex
100
AcDb2dVertex
 10
31.93171842287961
 20
21.33720486146952
 30
0.0
 42
-0.078575973028044
  0
VERTEX
  5
174
330
172
100
AcDbEntity
  8
0
100
AcDbVertex
100
AcDb2dVertex
 10
32.16820973931671
 20
23.74498533054307
 30
0.0
 42
-0.0819365762137527
  0
VERTEX
  5
175
330
172
100
AcDbEntity
  8
0
100
AcDbVertex
100
AcDb2dVertex
 10
33.0138468335091
 20
25.64757199377927
 30
0.0
 42
-0.0382246655931619
  0
VERTEX
  5
176
330
172
100
AcDbEntity
  8
0
100
AcDbVertex
100
AcDb2dVertex
 10
34.0811565146981
 20
27.02801255101683
 30
0.0
 42
-0.0691838780396306
  0
VERTEX
  5
177
330
172
100
AcDbEntity
  8
0
100
AcDbVertex
100
AcDb2dVertex
 10
34.7969869331652
 20
27.6285943952365
 30
0.0
 42
-0.1505247027418365
  0
VERTEX
  5
178
330
172
100
AcDbEntity
  8
0
100
AcDbVertex
100
AcDb2dVertex
 10
35.7855883519253
 20
27.8927691642835
 30
0.0
 42
-0.1067816705428748
  0
VERTEX
  5
179
330
172
100
AcDbEntity
  8
0
100
AcDbVertex
100
AcDb2dVertex
 10
37.23422613131488
 20
27.5221864711058
 30
0.0
 42
-0.1067816705428748
  0
SEQEND
  5
17A
330
172
100
AcDbEntity
  8
0
  0
POLYLINE
  5
17B
330
2
100
AcDbEntity
  8
0
100
AcDb2dPolyline
 66
     1
 10
0.0
 20
0.0
 30
0.0
 70
     2
  0
VERTEX
  5
17C
330
17B
100
AcDbEntity
  8
0
100
AcDbVertex
100
AcDb2dVertex
 10
32.02071160269071
 20
21.27900568776819
 30
0.0
 42
-0.0391643802708447
  0
VERTEX
  5
17D
330
17B
100
AcDbEntity
  8
0
100
AcDbVertex
100
AcDb2dVertex
 10
32.87034683248407
 20
21.57649078514213
 30
0.0
 42
-0.0516584848478834
 70
     1
  0
VERTEX
  5
17E
330
17B
100
AcDbEntity
  8
0
100
AcDbVertex
100
AcDb2dVertex
 10
33.54538463778573
 20
21.68216070118633
 30
0.0
 42
-0.0149213429273903
  0
VERTEX
  5
17F
330
17B
100
AcDbEntity
  8
0
100
AcDbVertex
100
AcDb2dVertex
 10
34.16700596332748
 20
21.69597130099942
 30
0.0
 42
-0.0191475261548332
 70
     1
  0
VERTEX
  5
180
330
17B
100
AcDbEntity
  8
0
100
AcDbVertex
100
AcDb2dVertex
 10
34.65110343840509
 20
21.67372715041864
 30
0.0
 42
-0.0880666380657274
  0
VERTEX
  5
181
330
17B
100
AcDbEntity
  8
0
100
AcDbVertex
100
AcDb2dVertex
 10
35.16025043921853
 20
21.53834422249629
 30
0.0
 42
-0.0581149075967138
 70
     1
  0
VERTEX
  5
182
330
17B
100
AcDbEntity
  8
0
100
AcDbVertex
100
AcDb2dVertex
 10
35.83722577508274
 20
21.12173269471225
 30
0.0
  0
SEQEND
  5
183
330
17B
100
AcDbEntity
  8
0
  0
POLYLINE
  5
184
330
2
100
AcDbEntity
  8
0
100
AcDb2dPolyline
 66
     1
 10
0.0
 20
0.0
 30
0.0
  0
VERTEX
  5
185
330
184
100
AcDbEntity
  8
0
100
AcDbVertex
100
AcDb2dVertex
 10
32.08971425930713
 20
21.23387978478558
 30
0.0
 42
-0.0371854104713422
  0
VERTEX
  5
186
330
184
100
AcDbEntity
  8
0
100
AcDbVertex
100
AcDb2dVertex
 10
32.88797098090311
 20
21.50983884490403
 30
0.0
 42
-0.0516584848478834
  0
VERTEX
  5
187
330
184
100
AcDbEntity
  8
0
100
AcDbVertex
100
AcDb2dVertex
 10
33.54897175076312
 20
21.61331141385894
 30
0.0
 42
-0.0149213429273904
  0
VERTEX
  5
188
330
184
100
AcDbEntity
  8
0
100
AcDbVertex
100
AcDb2dVertex
 10
34.16648013832059
 20
21.62703063627198
 30
0.0
 42
-0.0191475261548331
  0
VERTEX
  5
189
330
184
100
AcDbEntity
  8
0
100
AcDbVertex
100
AcDb2dVertex
 10
34.64530478582709
 20
21.60502877071956
 30
0.0
 42
-0.088066638065727
  0
VERTEX
  5
18A
330
184
100
AcDbEntity
  8
0
100
AcDbVertex
100
AcDb2dVertex
 10
35.13116178055544
 20
21.47583868928376
 30
0.0
 42
-0.0571290467665297
  0
VERTEX
  5
18B
330
184
100
AcDbEntity
  8
0
100
AcDbVertex
100
AcDb2dVertex
 10
35.78414205134555
 20
21.07576084142949
 30
0.0
 42
-0.0581149075967138
  0
SEQEND
  5
18C
330
184
100
AcDbEntity
  8
0
  0
ELLIPSE
  5
18D
330
2
100
AcDbEntity
  8
0
100
AcDbEllipse
 10
25.85852541009217
 20
14.55593985949513
 30
0.0
 11
-0.3301269259931323
 21
0.07420122092822
 31
0.0
210
0.0
220
0.0
230
1.0
 40
0.5809397374563459
 41
5.714265006057348
 42
9.85740178862858
  0
ELLIPSE
  5
18E
330
2
100
AcDbEntity
  8
0
100
AcDbEllipse
 10
25.85852541009217
 20
14.55593985949513
 30
0.0
 11
-0.3301269259931323
 21
0.07420122092822
 31
0.0
210
0.0
220
0.0
230
1.0
 40
0.5809397374563459
 41
10.57037100166608
 42
11.68104088359399
  0
ELLIPSE
  5
18F
330
2
100
AcDbEntity
  8
0
100
AcDbEllipse
 10
26.88262432426392
 20
17.86985172377262
 30
0.0
 11
-0.3031036495144665
 21
0.1052280775849368
 31
0.0
210
0.0
220
0.0
230
1.0
 40
0.6455762318861254
 41
5.57074265611684
 42
10.15760111439395
  0
ELLIPSE
  5
190
330
2
100
AcDbEntity
  8
0
100
AcDbEllipse
 10
26.88262432426392
 20
17.86985172377262
 30
0.0
 11
-0.3031036495144665
 21
0.1052280775849368
 31
0.0
210
0.0
220
0.0
230
1.0
 40
0.6455762318861254
 41
10.79334250496275
 42
11.56579345218613
  0
ELLIPSE
  5
191
330
2
100
AcDbEntity
  8
0
100
AcDbEllipse
 10
30.89280259321551
 20
22.60824587159854
 30
0.0
 11
-0.084127350966848
 21
-0.2376233744327588
 31
0.0
210
0.0
220
0.0
230
1.0
 40
0.6893643018305377
 41
2.571438519388913
 42
6.923706853574566
  0
ELLIPSE
  5
192
330
2
100
AcDbEntity
  8
0
100
AcDbEllipse
 10
30.89280259321551
 20
22.60824587159854
 30
0.0
 11
-0.084127350966848
 21
-0.2376233744327588
 31
0.0
210
0.0
220
0.0
230
1.0
 40
0.6893643018305377
 41
7.714972198776042
 42
8.451705391672668
  0
ELLIPSE
  5
193
330
2
100
AcDbEntity
  8
0
100
AcDbEllipse
 10
28.54996239324357
 20
21.23782145827899
 30
0.0
 11
0.2370438798399998
 21
-0.2316415282559848
 31
0.0
210
0.0
220
0.0
230
1.0
 40
0.5997093324209703
 41
2.503148074535856
 42
7.146244927074576
  0
ELLIPSE
  5
194
330
2
100
AcDbEntity
  8
0
100
AcDbEllipse
 10
28.54996239324357
 20
21.23782145827899
 30
0.0
 11
0.2370438798399998
 21
-0.2316415282559848
 31
0.0
210
0.0
220
0.0
230
1.0
 40
0.5997093324209703
 41
7.756559642359722
 42
8.506058199430404
  0
ELLIPSE
  5
195
330
2
100
AcDbEntity
  8
0
100
AcDbEllipse
 10
30.90859023654877
 20
20.74365453937381
 30
0.0
 11
0.0337754436523485
 21
0.2345458576898379
 31
0.0
210
0.0
220
0.0
230
1.0
 40
0.6734409848838056
 41
1.783251316079796
 42
6.966804327811713
  0
ELLIPSE
  5
196
330
2
100
AcDbEntity
  8
0
100
AcDbEllipse
 10
30.83552378715872
 20
20.40399074832907
 30
0.0
 11
0.0434227612208982
 21
0.1288255126908488
 31
0.0
210
0.0
220
0.0
230
1.0
 40
0.5668852251311926
 41
0.0
 42
6.283185307179584
  0
ARC
  5
197
330
2
100
AcDbEntity
  8
0
100
AcDbCircle
 10
19.16572133508125
 20
20.00071376461603
 30
0.0
 40
11.63071579553442
100
AcDbArc
 50
306.0237860935804
 51
1.350384722852233
  0
SPLINE
  5
198
330
2
100
AcDbEntity
  8
0
100
AcDbSpline
210
0.0
220
0.0
230
1.0
 70
     8
 71
     3
 72
    12
 73
     8
 74
     0
 42
0.000000001
 43
0.0000000001
 40
0.0
 40
0.0
 40
0.0
 40
0.0
 40
0.0561527116454317
 40
0.2973809050237443
 40
0.5349953206127607
 40
0.7911384943783137
 40
1.0
 40
1.0
 40
1.0
 40
1.0
 10
3.444494131163311
 20
5.48545092460457
 30
0.0
 10
3.448137868197319
 20
5.484548387146552
 30
0.0
 10
3.467434849323821
 20
5.479768610743661
 30
0.0
 10
3.503623410832223
 20
5.492431993292171
 30
0.0
 10
3.544348016791362
 20
5.521783203101154
 30
0.0
 10
3.575675919125089
 20
5.564400055624789
 30
0.0
 10
3.589244563930585
 20
5.599576988814046
 30
0.0
 10
3.595339056543153
 20
5.615377060414938
 30
0.0
  0
SPLINE
  5
199
330
2
100
AcDbEntity
  8
0
100
AcDbSpline
210
0.0
220
0.0
230
1.0
 70
     8
 71
     3
 72
    14
 73
    10
 74
     0
 42
0.000000001
 43
0.0000000001
 40
0.0
 40
0.0
 40
0.0
 40
0.0
 40
0.0895666099134426
 40
0.2574446574809165
 40
0.4265404418782642
 40
0.5984839071749279
 40
0.7563954180467296
 40
0.9018621575732323
 40
1.0
 40
1.0
 40
1.0
 40
1.0
 10
3.595339056543153
 20
5.615377060414938
 30
0.0
 10
3.598746928116594
 20
5.627083058996305
 30
0.0
 10
3.608542300865702
 20
5.660730048629696
 30
0.0
 10
3.614436831469253
 20
5.72151225519444
 30
0.0
 10
3.607579636606998
 20
5.791885777167035
 30
0.0
 10
3.58664563242702
 20
5.85303704531812
 30
0.0
 10
3.554173130008139
 20
5.897920397681952
 30
0.0
 10
3.516925294491923
 20
5.925295981342459
 30
0.0
 10
3.490197264837362
 20
5.927605621342056
 30
0.0
 10
3.479429687554617
 20
5.928536076280645
 30
0.0
  0
LINE
  5
19A
330
2
100
AcDbEntity
  8
0
100
AcDbLine
 10
3.336750164915057
 20
5.490503826204065
 30
0.0
 11
3.447222561847599
 21
5.483372421464566
 31
0.0
  0
LINE
  5
19B
330
2
100
AcDbEntity
  8
0
100
AcDbLine
 10
3.480894983824548
 20
5.930573769242958
 30
0.0
 11
3.37059940632696
 21
5.940065637472059
 31
0.0
  0
LINE
  5
19C
330
2
100
AcDbEntity
  8
0
100
AcDbLine
 10
3.175411159391966
 20
6.020446836597852
 30
0.0
 11
2.969936096279564
 21
6.033710057016371
 31
0.0
  0
SPLINE
  5
19D
330
2
100
AcDbEntity
  8
0
100
AcDbSpline
210
0.0
220
0.0
230
1.0
 70
     8
 71
     3
 72
    12
 73
     8
 74
     0
 42
0.000000001
 43
0.0000000001
 40
0.0
 40
0.0
 40
0.0
 40
0.0
 40
0.0561526623884076
 40
0.2973808932933741
 40
0.5349958086800302
 40
0.7911384618867823
 40
1.0
 40
1.0
 40
1.0
 40
1.0
 10
3.711572145015187
 20
6.296340006879267
 30
0.0
 10
3.715215882215323
 20
6.295437443042951
 30
0.0
 10
3.734512880387976
 20
6.290657522937977
 30
0.0
 10
3.770701484319031
 20
6.303321018044147
 30
0.0
 10
3.81142592489883
 20
6.332672347084868
 30
0.0
 10
3.842753977673411
 20
6.375289087488668
 30
0.0
 10
3.856322586567567
 20
6.410465992139869
 30
0.0
 10
3.862417070394969
 20
6.426266069964229
 30
0.0
  0
SPLINE
  5
19E
330
2
100
AcDbEntity
  8
0
100
AcDbSpline
210
0.0
220
0.0
230
1.0
 70
     8
 71
     3
 72
    14
 73
    10
 74
     0
 42
0.000000001
 43
0.0000000001
 40
0.0
 40
0.0
 40
0.0
 40
0.0
 40
0.0895670159676381
 40
0.2574451310446296
 40
0.4265406876876749
 40
0.5984844361673513
 40
0.7563960547221375
 40
0.9018622010086328
 40
1.0
 40
1.0
 40
1.0
 40
1.0
 10
3.862417070394969
 20
6.426266069964229
 30
0.0
 10
3.865824939516796
 20
6.437972115235544
 30
0.0
 10
3.875620278829815
 20
6.471619148424345
 30
0.0
 10
3.881514902949957
 20
6.532401396901226
 30
0.0
 10
3.874657457801247
 20
6.602774771819772
 30
0.0
 10
3.853724259700723
 20
6.663926380365041
 30
0.0
 10
3.82124923666289
 20
6.708808930370786
 30
0.0
 10
3.784003528877428
 20
6.736185023516799
 30
0.0
 10
3.757275358682987
 20
6.738494742502161
 30
0.0
 10
3.746507701406494
 20
6.739425231280778
 30
0.0
  0
LINE
  5
19F
330
2
100
AcDbEntity
  8
0
100
AcDbLine
 10
3.603827015153078
 20
6.301392499847464
 30
0.0
 11
3.71430057570277
 21
6.294261576464233
 31
0.0
  0
LINE
  5
1A0
330
2
100
AcDbEntity
  8
0
100
AcDbLine
 10
3.747972997679793
 20
6.741462778791607
 30
0.0
 11
3.637677420182278
 21
6.750954647020671
 31
0.0
  0
LINE
  5
1A1
330
2
100
AcDbEntity
  8
0
100
AcDbLine
 10
3.442489173247211
 20
6.831335846146464
 30
0.0
 11
3.237014110125746
 21
6.844599066565018
 31
0.0
  0
LINE
  5
1A2
330
2
100
AcDbEntity
  8
0
100
AcDbLine
 10
3.659675843283933
 20
7.113364506799238
 30
0.0
 11
3.57181391040218
 21
7.11873675235711
 31
0.0
  0
LINE
  5
1A3
330
2
100
AcDbEntity
  8
0
100
AcDbLine
 10
3.640726355416901
 20
3.7816845881589
 30
0.0
 11
3.678628519640219
 21
3.896762245438086
 31
0.0
  0
LINE
  5
1A4
330
2
100
AcDbEntity
  8
0
100
AcDbLine
 10
4.674820135325204
 20
3.159827422799552
 30
0.0
 11
4.704653850006417
 21
3.250406546262477
 31
0.0
  0
LINE
  5
1A5
330
2
100
AcDbEntity
  8
0
100
AcDbLine
 10
4.611774746922348
 20
2.669598916894097
 30
0.0
 11
4.88674639986901
 21
2.645935341248896
 31
0.0
  0
LINE
  5
1A6
330
2
100
AcDbEntity
  8
0
100
AcDbLine
 10
5.233734624755722
 20
2.353546800276241
 30
0.0
 11
5.321982337478742
 21
2.345658689550195
 31
0.0
  0
SPLINE
  5
1A7
330
2
100
AcDbEntity
  8
0
100
AcDbSpline
210
0.0
220
0.0
230
1.0
 70
     8
 71
     3
 72
     9
 73
     5
 74
     0
 42
0.000000001
 43
0.0000000001
 40
0.0
 40
0.0
 40
0.0
 40
0.0
 40
0.6184372295390216
 40
1.0
 40
1.0
 40
1.0
 40
1.0
 10
4.797817673640358
 20
6.560211962063387
 30
0.0
 10
4.78461574525345
 20
6.570062331768586
 30
0.0
 10
4.76326850456942
 20
6.585990172517252
 30
0.0
 10
4.736860717886836
 20
6.587914020602658
 30
0.0
 10
4.726784489638474
 20
6.588648089408064
 30
0.0
  0
LINE
  5
1A8
330
2
100
AcDbEntity
  8
0
100
AcDbLine
 10
4.727298957073042
 20
6.590652168338518
 30
0.0
 11
3.872317794406069
 21
6.667076807604893
 31
0.0
  0
LINE
  5
1A9
330
2
100
AcDbEntity
  8
0
100
AcDbLine
 10
5.490660386951812
 20
5.960192571513161
 30
0.0
 11
4.797817673636561
 21
6.560211962064894
 31
0.0
  0
SPLINE
  5
1AA
330
2
100
AcDbEntity
  8
0
100
AcDbSpline
210
0.0
220
0.0
230
1.0
 70
     8
 71
     3
 72
     9
 73
     5
 74
     0
 42
0.000000001
 43
0.0000000001
 40
0.0
 40
0.0
 40
0.0
 40
0.0
 40
0.4962257895678297
 40
1.0
 40
1.0
 40
1.0
 40
1.0
 10
4.384104155759205
 20
3.717739618767692
 30
0.0
 10
4.389918659330719
 20
3.722636778531514
 30
0.0
 10
4.401636114758796
 20
3.732505592016756
 30
0.0
 10
4.410031759536453
 20
3.743994575057449
 30
0.0
 10
4.414261268855321
 20
3.74978242841743
 30
0.0
  0
SPLINE
  5
1AB
330
2
100
AcDbEntity
  8
0
100
AcDbSpline
210
0.0
220
0.0
230
1.0
 70
     8
 71
     3
 72
    10
 73
     6
 74
     0
 42
0.000000001
 43
0.0000000001
 40
0.0
 40
0.0
 40
0.0
 40
0.0
 40
0.4246994035048667
 40
0.9248441483348596
 40
1.0
 40
1.0
 40
1.0
 40
1.0
 10
4.335204550108594
 20
3.692881015722067
 30
0.0
 10
4.342306469439643
 20
3.694883997500594
 30
0.0
 10
4.357771922136429
 20
3.699245778943667
 30
0.0
 10
4.374678745135019
 20
3.709020965560084
 30
0.0
 10
4.383015113187993
 20
3.71673223724501
 30
0.0
 10
4.384104155759205
 20
3.717739618767729
 30
0.0
  0
LINE
  5
1AC
330
2
100
AcDbEntity
  8
0
100
AcDbLine
 10
4.414261268855677
 20
3.749782428413933
 30
0.0
 11
4.436838911433569
 21
3.779870483762468
 31
0.0
  0
LINE
  5
1AD
330
2
100
AcDbEntity
  8
0
100
AcDbLine
 10
4.319598795589515
 20
3.690016332272843
 30
0.0
 11
4.33520455010437
 21
3.692881015724284
 31
0.0
  0
SPLINE
  5
1AE
330
2
100
AcDbEntity
  8
0
100
AcDbSpline
210
0.0
220
0.0
230
1.0
 70
     8
 71
     2
 72
     6
 73
     3
 74
     0
 42
0.000000001
 43
0.0000000001
 40
0.0
 40
0.0
 40
0.0
 40
1.0
 40
1.0
 40
1.0
 10
4.317299451327494
 20
3.689511344415818
 30
0.0
 10
4.318458442721529
 20
3.689767502580622
 30
0.0
 10
4.319598795590813
 20
3.690016332272911
 30
0.0
  0
SPLINE
  5
1AF
330
2
100
AcDbEntity
  8
0
100
AcDbSpline
210
0.0
220
0.0
230
1.0
 70
     8
 71
     3
 72
    12
 73
     8
 74
     0
 42
0.000000001
 43
0.0000000001
 40
0.0
 40
0.0
 40
0.0
 40
0.0
 40
0.067366168286369
 40
0.3069842954474938
 40
0.5348031355017388
 40
0.7837831707209901
 40
1.0
 40
1.0
 40
1.0
 40
1.0
 10
5.397238913780435
 20
2.778437408038061
 30
0.0
 10
5.401550997514465
 20
2.777652255647089
 30
0.0
 10
5.421200949718524
 20
2.774074355052551
 30
0.0
 10
5.455915504021951
 20
2.785680676869996
 30
0.0
 10
5.494241655242894
 20
2.811117942733251
 30
0.0
 10
5.522640503207434
 20
2.846882046870564
 30
0.0
 10
5.534083449203314
 20
2.875867351006054
 30
0.0
 10
5.539401966350867
 20
2.889339304568407
 30
0.0
  0
LINE
  5
1B0
330
2
100
AcDbEntity
  8
0
100
AcDbLine
 10
4.945193698387676
 20
2.804262950012342
 30
0.0
 11
5.396828270469898
 21
2.776649386728268
 31
0.0
  0
LINE
  5
1B1
330
2
100
AcDbEntity
  8
0
100
AcDbLine
 10
5.780241948234907
 20
3.308257171372131
 30
0.0
 11
5.902932371951949
 21
3.408306900695376
 31
0.0
  0
SPLINE
  5
1B2
330
2
100
AcDbEntity
  8
0
100
AcDbSpline
210
0.0
220
0.0
230
1.0
 70
     8
 71
     3
 72
    11
 73
     7
 74
     0
 42
0.000000001
 43
0.0000000001
 40
0.0
 40
0.0
 40
0.0
 40
0.0
 40
0.1430693510064041
 40
0.4273942590745158
 40
0.7122227007896443
 40
1.0
 40
1.0
 40
1.0
 40
1.0
 10
5.585514540137482
 20
3.029342657100246
 30
0.0
 10
5.59080874606269
 20
3.044102655123778
 30
0.0
 10
5.60662424534956
 20
3.088195525992488
 30
0.0
 10
5.645636201129525
 20
3.160376496809726
 30
0.0
 10
5.705760767484285
 20
3.241502593510091
 30
0.0
 10
5.755329796277273
 20
3.285929381037282
 30
0.0
 10
5.780241948236181
 20
3.308257171370845
 30
0.0
  0
LINE
  5
1B3
330
2
100
AcDbEntity
  8
0
100
AcDbLine
 10
5.539401966349728
 20
2.889339304568296
 30
0.0
 11
5.585514540138547
 21
3.029342657102567
 31
0.0
  0
LINE
  5
1B4
330
2
100
AcDbEntity
  8
0
100
AcDbLine
 10
5.710780078276147
 20
6.614958085282784
 30
0.0
 11
5.184636646975968
 21
5.017506662377986
 31
0.0
  0
LINE
  5
1B5
330
2
100
AcDbEntity
  8
0
100
AcDbLine
 10
5.681459164969117
 20
7.174920781188076
 30
0.0
 11
5.358240878687897
 21
7.296524711023733
 31
0.0
  0
LINE
  5
1B6
330
2
100
AcDbEntity
  8
0
100
AcDbLine
 10
6.041502501375665
 20
7.048570021394426
 30
0.0
 11
5.95258996382197
 21
7.125570537629492
 31
0.0
  0
LINE
  5
1B7
330
2
100
AcDbEntity
  8
0
100
AcDbLine
 10
5.928969022496207
 20
7.135061502377816
 30
0.0
 11
5.813647443589801
 21
7.143744218122778
 31
0.0
  0
LINE
  5
1B8
330
2
100
AcDbEntity
  8
0
100
AcDbLine
 10
4.734047596705476
 20
7.347437298694316
 30
0.0
 11
4.722028702090121
 21
7.310947199871623
 31
0.0
  0
LINE
  5
1B9
330
2
100
AcDbEntity
  8
0
100
AcDbLine
 10
4.729204157499935
 20
7.293131808001409
 30
0.0
 11
4.534978401651131
 21
7.307755974668414
 31
0.0
  0
LINE
  5
1BA
330
2
100
AcDbEntity
  8
0
100
AcDbLine
 10
4.373613304263944
 20
7.391204906800226
 30
0.0
 11
3.883268236099038
 21
7.42812557986355
 31
0.0
  0
LINE
  5
1BB
330
2
100
AcDbEntity
  8
0
100
AcDbLine
 10
4.535009100230932
 20
7.307729928384623
 30
0.0
 11
4.487150914094176
 21
7.348423038695723
 31
0.0
  0
LINE
  5
1BC
330
2
100
AcDbEntity
  8
0
100
AcDbLine
 10
1.813252581166945
 20
3.689315043065047
 30
0.0
 11
1.813252581166945
 21
3.654175295017688
 31
0.0
  0
LINE
  5
1BD
330
2
100
AcDbEntity
  8
0
100
AcDbLine
 10
3.436432574223509
 20
7.159141313322996
 30
0.0
 11
3.203636604318734
 21
7.022805243805444
 31
0.0
  0
LINE
  5
1BE
330
2
100
AcDbEntity
  8
0
100
AcDbLine
 10
8.164708474380079
 20
6.954617915793996
 30
0.0
 11
8.348156904077695
 21
6.94080541246504
 31
0.0
  0
LINE
  5
1BF
330
2
100
AcDbEntity
  8
0
100
AcDbLine
 10
8.372687963497636
 20
7.738860033741596
 30
0.0
 11
8.230627884071441
 21
7.861887671389967
 31
0.0
  0
LINE
  5
1C0
330
2
100
AcDbEntity
  8
0
100
AcDbLine
 10
7.601071901602701
 20
5.691213365190849
 30
0.0
 11
7.662610631185513
 21
5.719355426802137
 31
0.0
  0
SPLINE
  5
1C1
330
2
100
AcDbEntity
  8
0
100
AcDbSpline
210
0.0
220
0.0
230
1.0
 70
     8
 71
     3
 72
    10
 73
     6
 74
     0
 42
0.000000001
 43
0.0000000001
 40
0.0
 40
0.0
 40
0.0
 40
0.0
 40
0.223414656091903
 40
0.6496074072459033
 40
1.0
 40
1.0
 40
1.0
 40
1.0
 10
7.693435447777644
 20
5.767540713918725
 30
0.0
 10
7.697895228205971
 20
5.777113149596626
 30
0.0
 10
7.710862624578435
 20
5.804946261490599
 30
0.0
 10
7.745218088148876
 20
5.83699676098822
 30
0.0
 10
7.769228748072557
 20
5.850702430548068
 30
0.0
 10
7.780062273905075
 20
5.856886380747694
 30
0.0
  0
LINE
  5
1C2
330
2
100
AcDbEntity
  8
0
100
AcDbLine
 10
7.684109677463201
 20
5.749585541314599
 30
0.0
 11
7.693435447777154
 21
5.767540713922473
 31
0.0
  0
LINE
  5
1C3
330
2
100
AcDbEntity
  8
0
100
AcDbLine
 10
6.767648449650107
 20
8.026703476739699
 30
0.0
 11
6.730020896625919
 21
7.912461855471328
 31
0.0
  0
LINE
  5
1C4
330
2
100
AcDbEntity
  8
0
100
AcDbLine
 10
7.812908594606128
 20
5.307913638004893
 30
0.0
 11
7.835450747068701
 21
5.288391561312749
 31
0.0
  0
SPLINE
  5
1C5
330
2
100
AcDbEntity
  8
0
100
AcDbSpline
210
0.0
220
0.0
230
1.0
 70
     8
 71
     3
 72
    12
 73
     8
 74
     0
 42
0.000000001
 43
0.0000000001
 40
0.0
 40
0.0
 40
0.0
 40
0.0
 40
0.0606925764686208
 40
0.3204610155387727
 40
0.5571976569296279
 40
0.7857352886232667
 40
1.0
 40
1.0
 40
1.0
 40
1.0
 10
11.54519535467195
 20
8.263110514665132
 30
0.0
 10
11.54159262139876
 20
8.258394224232233
 30
0.0
 10
11.52256993970317
 20
8.233491883457784
 30
0.0
 10
11.50601038158155
 20
8.181024274488841
 30
0.0
 10
11.49954344706445
 20
8.113821884703806
 30
0.0
 10
11.51205431883983
 20
8.051551061479276
 30
0.0
 10
11.53492247400721
 20
8.018652246186469
 30
0.0
 10
11.54598799509884
 20
8.002733054985991
 30
0.0
  0
SPLINE
  5
1C6
330
2
100
AcDbEntity
  8
0
100
AcDbSpline
210
0.0
220
0.0
230
1.0
 70
     8
 71
     3
 72
    13
 73
     9
 74
     0
 42
0.000000001
 43
0.0000000001
 40
0.0
 40
0.0
 40
0.0
 40
0.0
 40
0.1303754809643037
 40
0.303283450701318
 40
0.4791018037484784
 40
0.6622248062783119
 40
0.8520685611530565
 40
1.0
 40
1.0
 40
1.0
 40
1.0
 10
11.86165414173013
 20
8.361826680240062
 30
0.0
 10
11.8484863664926
 20
8.369916159796709
 30
0.0
 10
11.81785508304453
 20
8.388734155758617
 30
0.0
 10
11.75971340465387
 20
8.395552491965624
 30
0.0
 10
11.69548430454164
 20
8.386091442225982
 30
0.0
 10
11.63290550798684
 20
8.356916064857708
 30
0.0
 10
11.57954147063774
 20
8.315147978323995
 30
0.0
 10
11.55565613493094
 20
8.278959540304906
 30
0.0
 10
11.54519535467195
 20
8.263110514665132
 30
0.0
  0
LINE
  5
1C7
330
2
100
AcDbEntity
  8
0
100
AcDbLine
 10
11.91680426039933
 20
8.326707038979263
 30
0.0
 11
11.86165414173013
 21
8.361826680240062
 31
0.0
  0
LINE
  5
1C8
330
2
100
AcDbEntity
  8
0
100
AcDbLine
 10
11.54907042806002
 20
7.998608604145235
 30
0.0
 11
11.57040901405433
 21
7.974519497986371
 31
0.0
  0
SPLINE
  5
1C9
330
2
100
AcDbEntity
  8
0
100
AcDbSpline
210
0.0
220
0.0
230
1.0
 70
     8
 71
     3
 72
    12
 73
     8
 74
     0
 42
0.000000001
 43
0.0000000001
 40
0.0
 40
0.0
 40
0.0
 40
0.0
 40
0.0606937166279216
 40
0.3204616990037354
 40
0.5571981577917608
 40
0.7857356728127672
 40
1.0
 40
1.0
 40
1.0
 40
1.0
 10
22.39947345073641
 20
11.39647070497606
 30
0.0
 10
22.39587055828196
 20
11.39175438052038
 30
0.0
 10
22.37684735289231
 20
11.36685227479848
 30
0.0
 10
22.36028835122238
 20
11.31438428634141
 30
0.0
 10
22.35382115360387
 20
11.2471819762136
 30
0.0
 10
22.36633234686956
 20
11.18491127379727
 30
0.0
 10
22.38920035678139
 20
11.15201237998023
 30
0.0
 10
22.40026580026155
 20
11.13609316132081
 30
0.0
  0
SPLINE
  5
1CA
330
2
100
AcDbEntity
  8
0
100
AcDbSpline
210
0.0
220
0.0
230
1.0
 70
     8
 71
     3
 72
    13
 73
     9
 74
     0
 42
0.000000001
 43
0.0000000001
 40
0.0
 40
0.0
 40
0.0
 40
0.0
 40
0.1303755812226645
 40
0.3032836839253981
 40
0.4791021721763542
 40
0.6622244685674682
 40
0.8520687492924226
 40
1.0
 40
1.0
 40
1.0
 40
1.0
 10
22.71593194689283
 20
11.49518678657489
 30
0.0
 10
22.70276417153348
 20
11.50327626657775
 30
0.0
 10
22.67213288780186
 20
11.52209426357757
 30
0.0
 10
22.61399121208891
 20
11.52891258998177
 30
0.0
 10
22.54976220323735
 20
11.51945159566283
 30
0.0
 10
22.4871834946491
 20
11.49027612996518
 30
0.0
 10
22.43381944308141
 20
11.44850822458076
 30
0.0
 10
22.4099341768189
 20
11.41231972261776
 30
0.0
 10
22.39947345073641
 20
11.39647070497606
 30
0.0
  0
LINE
  5
1CB
330
2
100
AcDbEntity
  8
0
100
AcDbLine
 10
22.40334837867575
 20
11.13196875246511
 30
0.0
 11
22.42468681921903
 21
11.1078796043147
 31
0.0
  0
LINE
  5
1CC
330
2
100
AcDbEntity
  8
0
100
AcDbLine
 10
22.42468681921903
 20
11.1078796043147
 30
0.0
 11
22.47798013181303
 21
11.05785015695834
 31
0.0
  0
LINE
  5
1CD
330
2
100
AcDbEntity
  8
0
100
AcDbLine
 10
22.80264082800933
 20
11.43273611942458
 30
0.0
 11
22.75082454391962
 21
11.474664164867
 31
0.0
  0
LINE
  5
1CE
330
2
100
AcDbEntity
  8
0
100
AcDbLine
 10
11.57040901405433
 20
7.974519497986371
 30
0.0
 11
11.62370247209927
 21
7.9244900926125
 31
0.0
  0
LINE
  5
1CF
330
2
100
AcDbEntity
  8
0
100
AcDbLine
 10
11.94836331374666
 20
8.299376097061266
 30
0.0
 11
11.91680426039933
 21
8.326707038979263
 31
0.0
  0
LINE
  5
1D0
330
2
100
AcDbEntity
  8
0
100
AcDbLine
 10
25.51665108126141
 20
11.98726555101419
 30
0.0
 11
25.47760683696912
 21
11.97599444853927
 31
0.0
  0
LINE
  5
1D1
330
2
100
AcDbEntity
  8
0
100
AcDbLine
 10
28.02129691827547
 20
12.38372057147329
 30
0.0
 11
27.99309042318342
 21
12.40814811277467
 31
0.0
  0
LINE
  5
1D2
330
2
100
AcDbEntity
  8
0
100
AcDbLine
 10
27.99309042318342
 20
12.40814811277467
 30
0.0
 11
26.04848234748252
 21
14.09222810673115
 31
0.0
  0
LINE
  5
1D3
330
2
100
AcDbEntity
  8
0
100
AcDbLine
 10
25.90313882898418
 20
14.21809928602578
 30
0.0
 11
25.6111077185698
 21
14.47100564633927
 31
0.0
  0
LINE
  5
1D4
330
2
100
AcDbEntity
  8
0
100
AcDbLine
 10
25.55295929339233
 20
14.52136365973287
 30
0.0
 11
25.48704506238825
 21
14.57844705825316
 31
0.0
  0
LINE
  5
1D5
330
2
100
AcDbEntity
  8
0
100
AcDbLine
 10
25.40598239010942
 20
14.57641116787252
 30
0.0
 11
8.382726786194353
 21
9.662220565169661
 31
0.0
  0
LINE
  5
1D6
330
2
100
AcDbEntity
  8
0
100
AcDbLine
 10
25.49945437809519
 20
10.7099736881313
 30
0.0
 11
27.88892323254078
 21
8.64063295863044
 31
0.0
  0
LINE
  5
1D7
330
2
100
AcDbEntity
  8
0
100
AcDbLine
 10
28.62950098019707
 20
8.887600972646584
 30
0.0
 11
28.62950098019707
 21
8.926645139664334
 31
0.0
  0
LINE
  5
1D8
330
2
100
AcDbEntity
  8
0
100
AcDbLine
 10
10.90589959552161
 20
4.447381650100055
 30
0.0
 11
27.27462928474502
 21
9.172626896287473
 31
0.0
  0
LINE
  5
1D9
330
2
100
AcDbEntity
  8
0
100
AcDbLine
 10
5.359490484012237
 20
5.025557475592378
 30
0.0
 11
5.406016621634927
 21
4.985264658482571
 31
0.0
  0
LINE
  5
1DA
330
2
100
AcDbEntity
  8
0
100
AcDbLine
 10
5.867663973367124
 20
6.731987675292608
 30
0.0
 11
5.85430925814726
 21
6.691443106040095
 31
0.0
  0
LINE
  5
1DB
330
2
100
AcDbEntity
  8
0
100
AcDbLine
 10
9.178584193397085
 20
4.426905561149079
 30
0.0
 11
8.444793965449436
 21
4.482156436729587
 31
0.0
  0
LINE
  5
1DC
330
2
100
AcDbEntity
  8
0
100
AcDbLine
 10
9.227518187400715
 20
4.326265631803543
 30
0.0
 11
9.240871739003354
 21
4.366810010592854
 31
0.0
  0
ARC
  5
1DD
330
2
100
AcDbEntity
  8
0
100
AcDbCircle
 10
5.996261556224366
 20
7.167974110895499
 30
0.0
 40
0.0221489528449657
100
AcDbArc
 50
99.61106931520337
 51
162.1753033699015
  0
LINE
  5
1DE
330
2
100
AcDbEntity
  8
0
100
AcDbLine
 10
6.146419165642162
 20
7.207097546640908
 30
0.0
 11
6.106574941676123
 21
7.202621367765656
 31
0.0
  0
LINE
  5
1DF
330
2
100
AcDbEntity
  8
0
100
AcDbLine
 10
6.102662895620224
 20
7.20218178528149
 30
0.0
 11
5.992563584029168
 21
7.189812176596237
 31
0.0
  0
LINE
  5
1E0
330
2
100
AcDbEntity
  8
0
100
AcDbLine
 10
5.975175807650982
 20
7.174754031164347
 30
0.0
 11
5.957558800731474
 21
7.12126734186534
 31
0.0
  0
LINE
  5
1E1
330
2
100
AcDbEntity
  8
0
100
AcDbLine
 10
4.537231865427488
 20
2.703036565384082
 30
0.0
 11
3.825177611986394
 21
3.319693637735329
 31
0.0
  0
LINE
  5
1E2
330
2
100
AcDbEntity
  8
0
100
AcDbLine
 10
4.32523876972037
 20
3.299339020599955
 30
0.0
 11
3.825177611986394
 21
3.319693637735329
 31
0.0
  0
ELLIPSE
  5
1E3
330
2
100
AcDbEntity
  8
0
100
AcDbEllipse
 10
4.309851865740746
 20
3.31117051176776
 30
0.0
 11
0.0256312437533045
 21
-0.0086492002561236
 31
0.0
210
0.0
220
0.0
230
0.9999999999999998
 40
0.3166888303999999
 41
5.458480189693617
 42
6.942010053889517
  0
LINE
  5
1E4
330
2
100
AcDbEntity
  8
0
100
AcDbLine
 10
4.086076667699842
 20
3.522099133081234
 30
0.0
 11
4.331795270401705
 21
3.309300580956482
 31
0.0
  0
ELLIPSE
  5
1E5
330
2
100
AcDbEntity
  8
0
100
AcDbEllipse
 10
4.06413325441874
 20
3.523969071358467
 30
0.0
 11
0.0256312437532943
 21
-0.0086492002561236
 31
0.0
210
0.0
220
0.0
230
1.0
 40
0.3166888303999999
 41
0.6588247467100106
 42
2.142354610904445
  0
LINE
  5
1E6
330
2
100
AcDbEntity
  8
0
100
AcDbLine
 10
3.495506193916609
 20
3.605197460680095
 30
0.0
 11
4.052572503050646
 21
3.535474934291
 31
0.0
  0
LINE
  5
1E7
330
2
100
AcDbEntity
  8
0
100
AcDbLine
 10
3.495506193916609
 20
3.605197460680095
 30
0.0
 11
2.783451914236493
 21
4.221854555762861
 31
0.0
  0
LINE
  5
1E8
330
2
100
AcDbEntity
  8
0
100
AcDbLine
 10
2.822824544184062
 20
4.501881598340447
 30
0.0
 11
3.628414496948474
 21
3.804220234205968
 31
0.0
  0
ELLIPSE
  5
1E9
330
2
100
AcDbEntity
  8
0
100
AcDbEllipse
 10
3.555267980159191
 20
3.810452822696475
 30
0.0
 11
0.085437479177663
 21
-0.0288306675204104
 31
0.0
210
0.0
220
0.0
230
1.0
 40
0.3166888303999999
 41
5.458480189693979
 42
6.942010053889137
  0
LINE
  5
1EA
330
2
100
AcDbEntity
  8
0
100
AcDbLine
 10
3.493706868421328
 20
3.775607606119946
 30
0.0
 11
3.606556010864703
 21
3.771014043467791
 31
0.0
  0
ELLIPSE
  5
1EB
330
2
100
AcDbEntity
  8
0
100
AcDbEllipse
 10
3.519350401534194
 20
3.755888078633274
 30
0.0
 11
0.0427187395888289
 21
-0.0144153337602129
 31
0.0
210
0.0
220
0.0
230
1.0
 40
0.3166888304
 41
2.316887536104295
 42
3.800417400299778
  0
LINE
  5
1EC
330
2
100
AcDbEntity
  8
0
100
AcDbLine
 10
3.486549207422338
 20
3.755737553076196
 30
0.0
 11
3.482777043570861
 21
3.75900434278925
 31
0.0
  0
ELLIPSE
  5
1ED
330
2
100
AcDbEntity
  8
0
100
AcDbEllipse
 10
3.52312255353756
 20
3.752621299172404
 30
0.0
 11
0.0427187395888289
 21
-0.0144153337602129
 31
0.0
210
0.0
220
0.0
230
1.0
 40
0.3166888304
 41
3.800417400299803
 42
5.283947264494716
  0
LINE
  5
1EE
330
2
100
AcDbEntity
  8
0
100
AcDbLine
 10
3.542391795053899
 20
3.733445222867381
 30
0.0
 11
3.983185098527142
 21
3.678275090731596
 31
0.0
  0
ELLIPSE
  5
1EF
330
2
100
AcDbEntity
  8
0
100
AcDbEllipse
 10
4.060260642858853
 20
3.601570426992009
 30
0.0
 11
0.1708749583553259
 21
-0.0576613350408362
 31
0.0
210
0.0
220
0.0
230
0.9999999999999998
 40
0.3166888304
 41
0.6588247467096388
 42
2.14235461090486
  0
LINE
  5
1F0
330
2
100
AcDbEntity
  8
0
100
AcDbLine
 10
4.206553100855002
 20
3.589105116290923
 30
0.0
 11
4.650196407892764
 21
3.204898742169691
 31
0.0
  0
ELLIPSE
  5
1F1
330
2
100
AcDbEntity
  8
0
100
AcDbEllipse
 10
4.503903953809919
 20
3.217364049489457
 30
0.0
 11
0.1708749583553259
 21
-0.0576613350408311
 31
0.0
210
0.0
220
0.0
230
1.0
 40
0.3166888304
 41
5.458480189694113
 42
6.942010053889237
  0
LINE
  5
1F2
330
2
100
AcDbEntity
  8
0
100
AcDbLine
 10
4.606479425220585
 20
3.138486369782321
 30
0.0
 11
4.210793037242883
 21
3.154592767215067
 31
0.0
  0
ELLIPSE
  5
1F3
330
2
100
AcDbEntity
  8
0
100
AcDbEllipse
 10
4.236436565576802
 20
3.134873243867124
 30
0.0
 11
0.042718739588834
 21
-0.0144153337602129
 31
0.0
210
0.0
220
0.0
230
0.9999999999999998
 40
0.3166888304
 41
2.316887536104025
 42
3.800417400300071
  0
LINE
  5
1F4
330
2
100
AcDbEntity
  8
0
100
AcDbLine
 10
4.203635355243521
 20
3.134722732349277
 30
0.0
 11
4.199863212392343
 21
3.137989503893373
 31
0.0
  0
ELLIPSE
  5
1F5
330
2
100
AcDbEntity
  8
0
100
AcDbEllipse
 10
4.240208717580095
 20
3.13160646440626
 30
0.0
 11
0.0427187395888289
 21
-0.0144153337602129
 31
0.0
210
0.0
220
0.0
230
1.0
 40
0.3166888304
 41
3.800417400300069
 42
5.283947264494716
  0
LINE
  5
1F6
330
2
100
AcDbEntity
  8
0
100
AcDbLine
 10
4.385191487096102
 20
3.096695940759764
 30
0.0
 11
4.259477942884231
 21
3.112430402149493
 31
0.0
  0
ELLIPSE
  5
1F7
330
2
100
AcDbEntity
  8
0
100
AcDbEllipse
 10
4.423728996469979
 20
3.058343520375961
 30
0.0
 11
0.085437479177663
 21
-0.0288306675204155
 31
0.0
210
0.0
220
0.0
230
1.0
 40
0.3166888304
 41
0.6588247467096168
 42
2.142354610904783
  0
LINE
  5
1F8
330
2
100
AcDbEntity
  8
0
100
AcDbLine
 10
4.496875498751149
 20
3.052110944445947
 30
0.0
 11
5.302465493507082
 21
2.354449543955446
 31
0.0
  0
LINE
  5
1F9
330
2
100
AcDbEntity
  8
0
100
AcDbLine
 10
4.88674639986901
 20
2.645935341248896
 30
0.0
 11
5.214217780793136
 21
2.362337654681523
 31
0.0
  0
ELLIPSE
  5
1FA
330
2
100
AcDbEntity
  8
0
100
AcDbEllipse
 10
3.653331448749174
 20
7.023415489400511
 30
0.0
 11
0.0067664430236441
 21
0.0899203328400361
 31
0.0
210
0.0
220
0.0
230
0.9999999999999998
 40
0.5778770211000002
 41
5.877920137287945
 42
7.448640311660927
  0
LINE
  5
1FB
330
2
100
AcDbEntity
  8
0
100
AcDbLine
 10
4.22114695691986
 20
6.635895894245463
 30
0.0
 11
3.680037381565538
 21
7.104510532733977
 31
0.0
  0
LINE
  5
1FC
330
2
100
AcDbEntity
  8
0
100
AcDbLine
 10
3.169732924355013
 20
4.602482094921199
 30
0.0
 11
3.460173835489514
 21
5.484303979208064
 31
0.0
  0
LINE
  5
1FD
330
2
100
AcDbEntity
  8
0
100
AcDbLine
 10
3.582087246900314
 20
5.854453057001414
 30
0.0
 11
3.727251849344686
 21
6.295193134207702
 31
0.0
  0
ARC
  5
1FE
330
2
100
AcDbEntity
  8
0
100
AcDbCircle
 10
3.465329037347336
 20
4.485725668939974
 30
0.0
 40
0.317819327641621
100
AcDbArc
 50
158.4466572452005
 51
209.5566189156511
  0
ELLIPSE
  5
1FF
330
2
100
AcDbEntity
  8
0
100
AcDbEllipse
 10
2.84953619661344
 20
4.582970481677271
 30
0.0
 11
0.0067742584749189
 21
0.0899147543655616
 31
0.0
210
0.0
220
0.0
230
1.0
 40
0.5779408021000002
 41
1.165636268090271
 42
2.736356442463288
  0
LINE
  5
200
330
2
100
AcDbEntity
  8
0
100
AcDbLine
 10
3.608247631933837
 20
7.062467401218877
 30
0.0
 11
2.804447837390713
 21
4.62200990079329
 31
0.0
  0
LWPOLYLINE
  5
201
330
2
100
AcDbEntity
  8
0
100
AcDbPolyline
 90
        7
 70
   128
 43
0.0
 10
3.507238390163993
 20
6.623844427562407
 10
3.491199967160827
 20
6.548622775782595
 10
3.490689248186269
 20
6.470700544332967
 10
3.50577070597087
 20
6.399476809547389
 10
3.534622935722778
 20
6.343541666767337
 10
3.573766961196831
 20
6.309641946301395
 10
3.603827015153078
 20
6.301392499847464
  0
LWPOLYLINE
  5
202
330
2
100
AcDbEntity
  8
0
100
AcDbPolyline
 90
        5
 70
   128
 43
0.0
 10
3.637677420182278
 20
6.750954647020671
 10
3.621418094775311
 20
6.750601916194028
 10
3.576526194446988
 20
6.731315289479114
 10
3.536872697580566
 20
6.687292896210545
 10
3.507238390163993
 20
6.623844427562407
  0
LWPOLYLINE
  5
203
330
2
100
AcDbEntity
  8
0
100
AcDbPolyline
 90
        7
 70
   128
 43
0.0
 10
3.240161539916971
 20
5.812955753919014
 10
3.224121953314583
 20
5.737733766233946
 10
3.223611234340026
 20
5.659811534784349
 10
3.238692692124688
 20
5.588587799998739
 10
3.26754492186746
 20
5.532652584488678
 10
3.30668894734166
 20
5.498752864022736
 10
3.336750164915057
 20
5.490503826204065
  0
LWPOLYLINE
  5
204
330
2
100
AcDbEntity
  8
0
100
AcDbPolyline
 90
        5
 70
   128
 43
0.0
 10
3.37059940632696
 20
5.940065637472059
 10
3.354340080929079
 20
5.939712761194361
 10
3.309449344199965
 20
5.92042647038466
 10
3.269794683725322
 20
5.876403886661897
 10
3.240161539916971
 20
5.812955753919014
  0
LINE
  5
205
330
2
100
AcDbEntity
  8
0
100
AcDbLine
 10
3.445520262422395
 20
6.005083789860034
 30
0.0
 11
3.522973421699082
 21
6.24024343855626
 31
0.0
  0
ELLIPSE
  5
206
330
2
100
AcDbEntity
  8
0
100
AcDbEllipse
 10
3.459046617321892
 20
5.993371960543733
 30
0.0
 11
0.0020322775424782
 21
0.0269744263096654
 31
0.0
210
0.0
220
0.0
230
1.0
 40
0.5779408021000002
 41
1.165636268090297
 42
2.73635644246337
  0
LINE
  5
207
330
2
100
AcDbEntity
  8
0
100
AcDbLine
 10
3.451032434746028
 20
5.969045136711534
 30
0.0
 11
3.502025066242911
 21
5.924884222424269
 31
0.0
  0
LINE
  5
208
330
2
100
AcDbEntity
  8
0
100
AcDbLine
 10
3.531253834288792
 20
5.913531479090516
 30
0.0
 11
3.621153506370242
 21
6.186480764807839
 31
0.0
  0
LINE
  5
209
330
2
100
AcDbEntity
  8
0
100
AcDbLine
 10
3.544509623235051
 20
6.252856314641171
 30
0.0
 11
3.621153506370242
 21
6.186480764807839
 31
0.0
  0
ELLIPSE
  5
20A
330
2
100
AcDbEntity
  8
0
100
AcDbEllipse
 10
3.536498574740673
 20
6.228527918863047
 30
0.0
 11
0.0020299329070886
 21
0.0269760998520093
 31
0.0
210
0.0
220
0.0
230
1.0
 40
0.5778770211000001
 41
5.877920137287437
 42
7.448640311660861
  0
LINE
  5
20B
330
2
100
AcDbEntity
  8
0
100
AcDbLine
 10
3.385842499463692
 20
6.659348817496974
 30
0.0
 11
3.118764485608448
 21
5.848459662497307
 31
0.0
  0
LINE
  5
20C
330
2
100
AcDbEntity
  8
0
100
AcDbLine
 10
3.52038453544385
 20
7.067839310871536
 30
0.0
 11
3.385842499463692
 21
6.659348817496974
 31
0.0
  0
LINE
  5
20D
330
2
100
AcDbEntity
  8
0
100
AcDbLine
 10
3.118764485608448
 20
5.848459662497307
 30
0.0
 11
2.973179545155598
 21
5.406439582679659
 31
0.0
  0
LWPOLYLINE
  5
20E
330
2
100
AcDbEntity
  8
0
100
AcDbPolyline
 90
       17
 70
   128
 43
0.0
 10
3.589207521060891
 20
5.626718463017883
 10
3.602696096563787
 20
5.694279607105191
 10
3.600493700534382
 20
5.763365501006095
 10
3.582936100662425
 20
5.823458408890894
 10
3.552695101280631
 20
5.865409623849868
 10
3.514376343517971
 20
5.882832900251658
 10
3.473811826059513
 20
5.873075222499715
 10
3.437178304885434
 20
5.837622219473082
 10
3.410052348722202
 20
5.781871393478814
 10
3.396563773219366
 20
5.714310249391543
 10
3.398766169248711
 20
5.645224500941627
 10
3.416323853103844
 20
5.58513144761484
 10
3.446564852476551
 20
5.54318023264683
 10
3.484883610248212
 20
5.525756956245045
 10
3.525448043723579
 20
5.535514779448007
 10
3.562081564897646
 20
5.570967637023615
 10
3.589207521060891
 20
5.626718463017883
  0
ARC
  5
20F
330
2
100
AcDbEntity
  8
0
100
AcDbCircle
 10
3.139917321424166
 20
4.509976070010193
 30
0.0
 40
0.4583465866481499
100
AcDbArc
 50
158.4462968151016
 51
218.9476879695054
  0
LWPOLYLINE
  5
210
330
2
100
AcDbEntity
  8
0
100
AcDbPolyline
 90
       10
 70
   128
 43
0.0
 10
2.969936096279564
 20
6.033710057016371
 10
2.933619950403786
 20
6.029276322881032
 10
2.882763837767109
 20
5.999492635707341
 10
2.838419084569775
 20
5.944868858652218
 10
2.804926914540401
 20
5.870752442539421
 10
2.785565736603744
 20
5.784398228283861
 10
2.782230537658985
 20
5.69425928090326
 10
2.795248484452682
 20
5.609159035625934
 10
2.82334461361026
 20
5.537427354560378
 10
2.863768897026266
 20
5.486086271342875
  0
LWPOLYLINE
  5
211
330
2
100
AcDbEntity
  8
0
100
AcDbPolyline
 90
        3
 70
   128
 43
0.0
 10
3.174207079314028
 20
4.350231956835104
 10
3.18471212316869
 20
4.333554687433209
 10
3.204028282411578
 20
4.312155431354209
  0
LINE
  5
212
330
2
100
AcDbEntity
  8
0
100
AcDbLine
 10
2.973179545155598
 20
5.406439582679659
 30
0.0
 11
2.953937464912309
 21
5.407998000930339
 31
0.0
  0
LINE
  5
213
330
2
100
AcDbEntity
  8
0
100
AcDbLine
 10
2.713621243794928
 20
4.678360296386179
 30
0.0
 11
2.953937464912309
 21
5.407998000930339
 31
0.0
  0
LWPOLYLINE
  5
214
330
2
100
AcDbEntity
  8
0
100
AcDbPolyline
 90
       17
 70
   128
 43
0.0
 10
3.856285534916136
 20
6.43760761801755
 10
3.869774110419033
 20
6.505168616653803
 10
3.8675717143897
 20
6.574254510554707
 10
3.850014114508582
 20
6.634347418439544
 10
3.819773115135876
 20
6.676298633398516
 10
3.781454357373216
 20
6.693721909800307
 10
3.740889839914758
 20
6.683964232048364
 10
3.70425631874068
 20
6.648511229021737
 10
3.677130362577446
 20
6.59276054848752
 10
3.663641787074611
 20
6.525199404391179
 10
3.665844183103943
 20
6.456113510490276
 10
3.683401866959089
 20
6.396020529884461
 10
3.713642866331795
 20
6.354069314925489
 10
3.751961624094382
 20
6.336646038523704
 10
3.792526057578812
 20
6.346403788996655
 10
3.82915957875289
 20
6.381856792023283
 10
3.856285534916136
 20
6.43760761801755
  0
LINE
  5
215
330
2
100
AcDbEntity
  8
0
100
AcDbLine
 10
3.204028282411578
 20
4.312155431354209
 30
0.0
 11
3.679000684783734
 21
3.900817264805545
 31
0.0
  0
LINE
  5
216
330
2
100
AcDbEntity
  8
0
100
AcDbLine
 10
2.863768897026266
 20
5.486086271342875
 30
0.0
 11
2.953937464912309
 21
5.407998000930339
 31
0.0
  0
LWPOLYLINE
  5
217
330
2
100
AcDbEntity
  8
0
100
AcDbPolyline
 90
       10
 70
   128
 43
0.0
 10
3.237014110125746
 20
6.844599066565018
 10
3.200697964259032
 20
6.840165477880699
 10
3.149841851622354
 20
6.810381645255953
 10
3.105497098425019
 20
6.755758013651854
 10
3.072004928386633
 20
6.681641597539089
 10
3.052643750458916
 20
6.595287383283528
 10
3.049308551514156
 20
6.505148290451915
 10
3.062326498298926
 20
6.420048045174583
 10
3.090422627465493
 20
6.348316509560044
 10
3.130846910872448
 20
6.296975280891487
  0
LINE
  5
218
330
2
100
AcDbEntity
  8
0
100
AcDbLine
 10
3.621153506370242
 20
6.186480764807839
 30
0.0
 11
3.508277357563471
 21
6.195622585322341
 31
0.0
  0
LINE
  5
219
330
2
100
AcDbEntity
  8
0
100
AcDbLine
 10
3.240257559010842
 20
6.217328592228277
 30
0.0
 11
3.221015478758565
 21
6.218887010478987
 31
0.0
  0
LINE
  5
21A
330
2
100
AcDbEntity
  8
0
100
AcDbLine
 10
3.130846910872448
 20
6.296975280891487
 30
0.0
 11
3.221015478758565
 21
6.218887010478987
 31
0.0
  0
ELLIPSE
  5
21B
330
2
100
AcDbEntity
  8
0
100
AcDbEllipse
 10
3.565469058937924
 20
7.028787524396576
 30
0.0
 11
0.0067664430236441
 21
0.0899203328400361
 31
0.0
210
0.0
220
0.0
230
0.9999999999999998
 40
0.5778770211000002
 41
0.0081150858514489
 42
1.165455004481329
  0
ELLIPSE
  5
21C
330
2
100
AcDbEntity
  8
0
100
AcDbEllipse
 10
4.100672437179282
 20
3.724266799521761
 30
0.0
 11
0.1599288206655242
 21
-0.0905811261243167
 31
0.0
210
0.0
220
0.0
230
0.9999999999999998
 40
0.165794471
 41
0.6896272446617182
 42
2.173157108856921
  0
ARC
  5
21D
330
2
100
AcDbEntity
  8
0
100
AcDbCircle
 10
3.926493630299271
 20
6.601886786995908
 30
0.0
 40
0.0859797570604392
100
AcDbArc
 50
51.27721473400144
 51
145.8445444761049
  0
LINE
  5
21E
330
2
100
AcDbEntity
  8
0
100
AcDbLine
 10
4.022433555819967
 20
3.797437813605936
 30
0.0
 11
4.010164917063837
 21
3.802651176570072
 31
0.0
  0
LINE
  5
21F
330
2
100
AcDbEntity
  8
0
100
AcDbLine
 10
3.661984679980966
 20
3.846229362866528
 30
0.0
 11
4.010164917063837
 21
3.802651176570072
 31
0.0
  0
LINE
  5
220
330
2
100
AcDbEntity
  8
0
100
AcDbLine
 10
4.677253756759792
 20
3.287049109845058
 30
0.0
 11
4.233610449722043
 21
3.671255483957252
 31
0.0
  0
LINE
  5
221
330
2
100
AcDbEntity
  8
0
100
AcDbLine
 10
3.9951377551446
 20
6.656098147041819
 30
0.0
 11
3.980278522411368
 21
6.668966620068602
 31
0.0
  0
ELLIPSE
  5
222
330
2
100
AcDbEntity
  8
0
100
AcDbEllipse
 10
4.544315748130347
 20
3.340060422028247
 30
0.0
 11
0.1599288206655243
 21
-0.0905811261243066
 31
0.0
210
0.0
220
0.0
230
0.9999999999999998
 40
0.165794471
 41
0.0331063377241576
 42
0.689627244661631
  0
LINE
  5
223
330
2
100
AcDbEntity
  8
0
100
AcDbLine
 10
3.902437612531691
 20
3.55426586709286
 30
0.0
 11
3.825177611986394
 21
3.319693637735329
 31
0.0
  0
LINE
  5
224
330
2
100
AcDbEntity
  8
0
100
AcDbLine
 10
4.556936036699362
 20
3.140502947168023
 30
0.0
 11
4.957808233611572
 21
2.793337440975474
 31
0.0
  0
LINE
  5
225
330
2
100
AcDbEntity
  8
0
100
AcDbLine
 10
5.374253995556593
 20
2.396492485016377
 30
0.0
 11
5.528614582518249
 21
2.865152917784246
 31
0.0
  0
ELLIPSE
  5
226
330
2
100
AcDbEntity
  8
0
100
AcDbEllipse
 10
5.329170282876942
 20
2.435544370884239
 30
0.0
 11
0.006766443023639
 21
0.0899203328400361
 31
0.0
210
0.0
220
0.0
230
0.9999999999999998
 40
0.5778770211000001
 41
2.736327483698102
 42
4.30704765807106
  0
ARC
  5
227
330
2
100
AcDbEntity
  8
0
100
AcDbCircle
 10
5.010860967075572
 20
2.853665368381395
 30
0.0
 40
0.080337110692306
100
AcDbArc
 50
228.6714130374034
 51
314.9203592104971
  0
ARC
  5
228
330
2
100
AcDbEntity
  8
0
100
AcDbCircle
 10
4.623958590749509
 20
2.796568897666225
 30
0.0
 40
0.1275532126905093
100
AcDbArc
 50
227.1621517867994
 51
264.5187678972925
  0
ELLIPSE
  5
229
330
2
100
AcDbEntity
  8
0
100
AcDbEllipse
 10
5.240923006002058
 20
2.443432530788262
 30
0.0
 11
0.0067664430236441
 21
0.0899203328400361
 31
0.0
210
0.0
220
0.0
230
0.9999999999999998
 40
0.5778770211000002
 41
2.736327483698255
 42
3.133477567738518
  0
LINE
  5
22A
330
2
100
AcDbEntity
  8
0
100
AcDbLine
 10
4.214676840146255
 20
5.150044481172028
 30
0.0
 11
3.919172044124659
 21
4.912870168387407
 31
0.0
  0
ELLIPSE
  5
22B
330
2
100
AcDbEntity
  8
0
100
AcDbEllipse
 10
3.730854641284877
 20
4.467657106196206
 30
0.0
 11
0.0067742584749189
 21
0.0899147543655616
 31
0.0
210
0.0
220
0.0
230
1.0
 40
0.5779408021000002
 41
1.16563626809024
 42
2.736356442463259
  0
ELLIPSE
  5
22C
330
2
100
AcDbEntity
  8
0
100
AcDbEllipse
 10
4.033293907484887
 20
5.445382149922335
 30
0.0
 11
0.2969182557736886
 21
0.3392661261873214
 31
0.0
210
0.0
220
0.0
230
1.0
 40
0.7540258493000001
 41
4.482373612415839
 42
5.224320880421761
  0
ELLIPSE
  5
22D
330
2
100
AcDbEntity
  8
0
100
AcDbEllipse
 10
4.101134427083726
 20
4.617029985629814
 30
0.0
 11
0.2978213512355692
 21
0.3384780747962315
 31
0.0
210
0.0
220
0.0
230
1.0
 40
0.7560319662000002
 41
1.342801356481428
 42
2.084748624487349
  0
LINE
  5
22E
330
2
100
AcDbEntity
  8
0
100
AcDbLine
 10
3.731878760686942
 20
4.646699807524036
 30
0.0
 11
3.685766186898111
 21
4.506696454998767
 31
0.0
  0
LINE
  5
22F
330
2
100
AcDbEntity
  8
0
100
AcDbLine
 10
4.702648204170233
 20
3.521837187856746
 30
0.0
 11
5.50555672279027
 21
2.826498013815273
 31
0.0
  0
LINE
  5
230
330
2
100
AcDbEntity
  8
0
100
AcDbLine
 10
3.704142809717505
 20
4.386568225266895
 30
0.0
 11
4.413553900063596
 21
3.772200199292033
 31
0.0
  0
LINE
  5
231
330
2
100
AcDbEntity
  8
0
100
AcDbLine
 10
4.74037868665041
 20
6.444482970959466
 30
0.0
 11
4.401763290481138
 21
5.416394001121101
 31
0.0
  0
ELLIPSE
  5
232
330
2
100
AcDbEntity
  8
0
100
AcDbEllipse
 10
4.785462561291023
 20
6.405431009115501
 30
0.0
 11
0.0067664430236441
 21
0.0899203328400361
 31
0.0
210
0.0
220
0.0
230
0.9999999999999998
 40
0.5778770211000002
 41
5.877920137287912
 42
7.44864031166087
  0
LINE
  5
233
330
2
100
AcDbEntity
  8
0
100
AcDbLine
 10
5.108398744675773
 20
6.229983130037646
 30
0.0
 11
4.812168436273182
 21
6.486526102483591
 31
0.0
  0
LINE
  5
234
330
2
100
AcDbEntity
  8
0
100
AcDbLine
 10
4.70825579749928
 20
3.575994886468655
 30
0.0
 11
4.464345462379583
 21
3.787227432922411
 31
0.0
  0
LINE
  5
235
330
2
100
AcDbEntity
  8
0
100
AcDbLine
 10
4.557106765297
 20
3.461880055567827
 30
0.0
 11
4.70825579749928
 21
3.575994886468655
 31
0.0
  0
LINE
  5
236
330
2
100
AcDbEntity
  8
0
100
AcDbLine
 10
4.313196430177315
 20
3.673112602030584
 30
0.0
 11
4.557106765297
 21
3.461880055567827
 31
0.0
  0
ELLIPSE
  5
237
330
2
100
AcDbEntity
  8
0
100
AcDbEllipse
 10
4.653984402723959
 20
3.491940493164536
 30
0.0
 11
0.0531861123605168
 21
0.0848576263919615
 31
0.0
210
0.0
220
0.0
230
1.0
 40
0.2945542466
 41
5.171606599400139
 42
6.237537654344468
  0
ELLIPSE
  5
238
330
2
100
AcDbEntity
  8
0
100
AcDbEllipse
 10
4.645625799713966
 20
3.485629891725035
 30
0.0
 11
0.0912024481938895
 21
0.0195490010576744
 31
0.0
210
0.0
220
0.0
230
1.0
 40
0.2601647544
 41
3.335243632973681
 42
4.401174687917908
  0
ELLIPSE
  5
239
330
2
100
AcDbEntity
  8
0
100
AcDbEllipse
 10
4.652001320940119
 20
3.49977527834798
 30
0.0
 11
-0.0239134340792041
 21
0.0446403055218375
 31
0.0
210
0.0
220
0.0
230
1.0
 40
0.8730488701
 41
2.500405314970203
 42
4.062474995505384
  0
LINE
  5
23A
330
2
100
AcDbEntity
  8
0
100
AcDbLine
 10
4.697499875903815
 20
3.489384083569514
 30
0.0
 11
4.699964775513063
 21
3.51551024151712
 31
0.0
  0
LINE
  5
23B
330
2
100
AcDbEntity
  8
0
100
AcDbLine
 10
4.622539542797877
 20
3.457055746675576
 30
0.0
 11
4.647853169182681
 21
3.451513166466844
 31
0.0
  0
LINE
  5
23C
330
2
100
AcDbEntity
  8
0
100
AcDbLine
 10
5.884717648164868
 20
6.082688748974947
 30
0.0
 11
5.770652764602625
 21
5.736371634412206
 31
0.0
  0
LWPOLYLINE
  5
23D
330
2
100
AcDbEntity
  8
0
100
AcDbPolyline
 90
        9
 70
   128
 43
0.0
 10
5.884717648164868
 20
6.082688748974947
 10
5.940340380304739
 20
6.064992688109461
 10
5.978812711856362
 20
6.023628972252392
 10
5.994277046205429
 20
5.964894674121258
 10
5.984379406783424
 20
5.897731687486331
 10
5.950626664396917
 20
5.832364941533352
 10
5.898157306677112
 20
5.778746011082566
 10
5.834958330671443
 20
5.745037412934427
 10
5.770652764602625
 20
5.736371634412206
  0
ARC
  5
23E
330
2
100
AcDbEntity
  8
0
100
AcDbCircle
 10
6.377543892405981
 20
6.514074355550773
 30
0.0
 40
0.0602998119708284
100
AcDbArc
 50
333.6487475794982
 51
82.98636861719677
  0
LINE
  5
23F
330
2
100
AcDbEntity
  8
0
100
AcDbLine
 10
6.431577934880344
 20
6.487308900631751
 30
0.0
 11
6.030888770482044
 21
5.27075401078574
 31
0.0
  0
ARC
  5
240
330
2
100
AcDbEntity
  8
0
100
AcDbCircle
 10
5.922720143373271
 20
5.306755112141349
 30
0.0
 40
0.1140023297567519
100
AcDbArc
 50
287.7679507352946
 51
341.591326154098
  0
LINE
  5
241
330
2
100
AcDbEntity
  8
0
100
AcDbLine
 10
5.957509398606613
 20
5.198190666257094
 30
0.0
 11
5.355451096222409
 21
5.024391404778455
 31
0.0
  0
ARC
  5
242
330
2
100
AcDbEntity
  8
0
100
AcDbCircle
 10
5.312043853873333
 20
5.170032757570933
 30
0.0
 40
0.1519723406739559
100
AcDbArc
 50
266.2240578527004
 51
286.596267531299
  0
LINE
  5
243
330
2
100
AcDbEntity
  8
0
100
AcDbLine
 10
5.302035726176614
 20
5.018390317230546
 30
0.0
 11
5.213027951399379
 21
5.025092289994749
 31
0.0
  0
LINE
  5
244
330
2
100
AcDbEntity
  8
0
100
AcDbLine
 10
6.384906829836415
 20
6.573922951819984
 30
0.0
 11
5.739171382690557
 21
6.622543685623538
 31
0.0
  0
LWPOLYLINE
  5
245
330
2
100
AcDbEntity
  8
0
100
AcDbPolyline
 90
        6
 70
   128
 43
0.0
 10
5.710780078276147
 20
6.614958085282784
 10
5.712093975981517
 20
6.617273325693331
 10
5.715952551467571
 20
6.620086211861345
 10
5.721916876982652
 20
6.621943233625573
 10
5.729756792274613
 20
6.622773052590023
 10
5.739171382690557
 20
6.622543685623538
  0
LWPOLYLINE
  5
246
330
2
100
AcDbEntity
  8
0
100
AcDbPolyline
 90
        9
 70
   128
 43
0.0
 10
5.213027951399379
 20
5.025092289994749
 10
5.203613360983435
 20
5.025321629676192
 10
5.195773445691462
 20
5.024491837987783
 10
5.189809120167391
 20
5.022634807134542
 10
5.185950544690338
 20
5.019822020963547
 10
5.18434469755619
 20
5.01616127951583
 10
5.185054439776197
 20
5.011793656384999
 10
5.188051773645907
 20
5.006886604269936
 10
5.193221909873583
 20
5.001628974645466
  0
LINE
  5
247
330
2
100
AcDbEntity
  8
0
100
AcDbLine
 10
7.708926809742377
 20
2.822964622932694
 30
0.0
 11
7.704200803500754
 21
2.827057464391582
 31
0.0
  0
LINE
  5
248
330
2
100
AcDbEntity
  8
0
100
AcDbLine
 10
5.314731172579911
 20
4.896398866331741
 30
0.0
 11
5.193221909873583
 21
5.001628974645466
 31
0.0
  0
LINE
  5
249
330
2
100
AcDbEntity
  8
0
100
AcDbLine
 10
4.793056412251381
 20
7.034293253801416
 30
0.0
 11
4.702887760391225
 21
7.112381596943925
 31
0.0
  0
LINE
  5
24A
330
2
100
AcDbEntity
  8
0
100
AcDbLine
 10
5.049883050216122
 20
7.014955529601862
 30
0.0
 11
4.793056412251381
 21
7.034293253801416
 31
0.0
  0
LINE
  5
24B
330
2
100
AcDbEntity
  8
0
100
AcDbLine
 10
4.95971439835605
 20
7.093043872735376
 30
0.0
 11
5.049883050216122
 21
7.014955529601862
 31
0.0
  0
LINE
  5
24C
330
2
100
AcDbEntity
  8
0
100
AcDbLine
 10
4.702887760391225
 20
7.112381596943925
 30
0.0
 11
4.95971439835605
 21
7.093043872735376
 31
0.0
  0
LINE
  5
24D
330
2
100
AcDbEntity
  8
0
100
AcDbLine
 10
5.033388108930795
 20
1.82563242112877
 30
0.0
 11
5.211060394481791
 21
2.365071854647379
 31
0.0
  0
LINE
  5
24E
330
2
100
AcDbEntity
  8
0
100
AcDbLine
 10
3.891946533643829
 20
3.522415722172123
 30
0.0
 11
3.847184166784344
 21
3.561181069008968
 31
0.0
  0
LINE
  5
24F
330
2
100
AcDbEntity
  8
0
100
AcDbLine
 10
3.043185477594331
 20
6.793291308602755
 30
0.0
 11
2.205139571380271
 21
4.24885682984279
 31
0.0
  0
ARC
  5
250
330
2
100
AcDbEntity
  8
0
100
AcDbCircle
 10
5.924811743490619
 20
7.09272600467452
 30
0.0
 40
0.0422096327695852
100
AcDbArc
 50
333.6488063391012
 51
82.98770571809695
  0
ARC
  5
251
330
2
100
AcDbEntity
  8
0
100
AcDbCircle
 10
5.92881697528929
 20
7.13337514197246
 30
0.0
 40
0.001693201042249
100
AcDbArc
 50
47.32038030139877
 51
84.84797494359753
  0
ARC
  5
252
330
2
100
AcDbEntity
  8
0
100
AcDbCircle
 10
5.186135616764712
 20
6.851475051787457
 30
0.0
 40
0.4769229961818248
100
AcDbArc
 50
68.8791292658001
 51
84.5949662208975
  0
ARC
  5
253
330
2
100
AcDbEntity
  8
0
100
AcDbCircle
 10
5.861867082643475
 20
7.64242855123585
 30
0.0
 40
0.5013545048394823
100
AcDbArc
 50
248.8786432781043
 51
264.5952845953962
  0
ARC
  5
254
330
2
100
AcDbEntity
  8
0
100
AcDbCircle
 10
4.957672022551065
 20
1.850831191316803
 30
0.0
 40
0.0797991463317744
100
AcDbArc
 50
287.7674011092009
 51
341.5922464559994
  0
LINE
  5
255
330
2
100
AcDbEntity
  8
0
100
AcDbLine
 10
2.156363395731047
 20
4.221931223515373
 30
0.0
 11
4.982023014057608
 21
1.774838211587805
 31
0.0
  0
ARC
  5
256
330
2
100
AcDbEntity
  8
0
100
AcDbCircle
 10
2.178098988280228
 20
4.257855484472576
 30
0.0
 40
0.0284985775002349
100
AcDbArc
 50
287.7671483982979
 51
341.5934186932954
  0
LINE
  5
257
330
2
100
AcDbEntity
  8
0
100
AcDbLine
 10
3.153778480615261
 20
2.965012720813565
 30
0.0
 11
2.997601503446196
 21
2.91992831090492
 31
0.0
  0
LWPOLYLINE
  5
258
330
2
100
AcDbEntity
  8
0
100
AcDbPolyline
 90
        9
 70
   128
 43
0.0
 10
2.997601503446196
 20
2.91992831090492
 10
2.944700011622512
 20
2.896731470045221
 10
2.913578023332124
 20
2.865177426629648
 10
2.908975693736707
 20
2.830070612848379
 10
2.93159433124075
 20
2.796755902856994
 10
2.977987782822787
 20
2.770304390525268
 10
3.041095732795906
 20
2.754743850802999
 10
3.111309933308146
 20
2.752443045336273
 10
3.17793878617514
 20
2.763751642815894
  0
LINE
  5
259
330
2
100
AcDbEntity
  8
0
100
AcDbLine
 10
3.17793878617514
 20
2.763751642815894
 30
0.0
 11
3.334115763344266
 21
2.808836052715506
 31
0.0
  0
LWPOLYLINE
  5
25A
330
2
100
AcDbEntity
  8
0
100
AcDbPolyline
 90
        9
 70
   128
 43
0.0
 10
3.334115763344266
 20
2.808836052715506
 10
3.387018418776172
 20
2.832033229489456
 10
3.418139243458265
 20
2.863586936990742
 10
3.422741573044755
 20
2.89869375078108
 10
3.400124099157861
 20
2.932008796668645
 10
3.353729483958601
 20
2.958459973095159
 10
3.290621533994495
 20
2.974020512817428
 10
3.220408497090538
 20
2.976321654189335
 10
3.153778480615261
 20
2.965012720813565
  0
LINE
  5
25B
330
2
100
AcDbEntity
  8
0
100
AcDbLine
 10
4.940517159589074
 20
1.762856503465107
 30
0.0
 11
4.982023014057608
 21
1.774838211587805
 31
0.0
  0
ARC
  5
25C
330
2
100
AcDbEntity
  8
0
100
AcDbCircle
 10
4.850085406862982
 20
2.092703483478031
 30
0.0
 40
0.342018906094156
100
AcDbArc
 50
262.2008268918018
 51
285.3316431664972
  0
LINE
  5
25D
330
2
100
AcDbEntity
  8
0
100
AcDbLine
 10
3.901011658113255
 20
1.874782256451666
 30
0.0
 11
4.803673005584435
 21
1.75384832100398
 31
0.0
  0
ARC
  5
25E
330
2
100
AcDbEntity
  8
0
100
AcDbCircle
 10
3.920169499786126
 20
2.088430540184326
 30
0.0
 40
0.2145055058523136
100
AcDbArc
 50
233.1444269821997
 51
264.8759916605935
  0
LINE
  5
25F
330
2
100
AcDbEntity
  8
0
100
AcDbLine
 10
3.791509103445501
 20
1.916793963511466
 30
0.0
 11
1.837412929665172
 21
3.609090891438893
 31
0.0
  0
ARC
  5
260
330
2
100
AcDbEntity
  8
0
100
AcDbCircle
 10
1.871753981393999
 20
3.656509833481945
 30
0.0
 40
0.0585479623758689
100
AcDbArc
 50
182.2852148176459
 51
234.0877427972317
  0
LINE
  5
261
330
2
100
AcDbEntity
  8
0
100
AcDbLine
 10
2.186795310220037
 20
4.230716160529365
 30
0.0
 11
2.145289455742427
 21
4.218734452397635
 31
0.0
  0
ARC
  5
262
330
2
100
AcDbEntity
  8
0
100
AcDbCircle
 10
2.172182603337589
 20
4.085611997536248
 30
0.0
 40
0.1358117424103016
100
AcDbArc
 50
101.4210714680931
 51
144.7560980463016
  0
LWPOLYLINE
  5
263
330
2
100
AcDbEntity
  8
0
100
AcDbPolyline
 90
        6
 70
   128
 43
0.0
 10
4.774605629632342
 20
7.35827356191604
 10
4.76115607251523
 20
7.358601181020709
 10
4.749956157539154
 20
7.357415798085966
 10
4.741436737872227
 20
7.354763052319058
 10
4.735924142729796
 20
7.350744661814427
 10
4.734047596705476
 20
7.347437298694316
  0
LINE
  5
264
330
2
100
AcDbEntity
  8
0
100
AcDbLine
 10
2.061264749046451
 20
4.163983286769188
 30
0.0
 11
1.819397795860379
 21
3.712652490084137
 31
0.0
  0
ARC
  5
265
330
2
100
AcDbEntity
  8
0
100
AcDbCircle
 10
4.356290142658928
 20
7.171333898466952
 30
0.0
 40
0.2201933357020263
100
AcDbArc
 50
53.5372946447006
 51
85.22747148609594
  0
LWPOLYLINE
  5
266
330
2
100
AcDbEntity
  8
0
100
AcDbPolyline
 90
        3
 70
   128
 43
0.0
 10
3.688009520047755
 20
7.389269683652591
 10
3.687607831934173
 20
7.388698271194573
 10
3.687266497647786
 20
7.387937547230436
  0
ARC
  5
267
330
2
100
AcDbEntity
  8
0
100
AcDbCircle
 10
3.837906824647786
 20
7.078375667201074
 30
0.0
 40
0.3523715852319462
100
AcDbArc
 50
82.44019616819752
 51
109.3018013701014
  0
ARC
  5
268
330
2
100
AcDbEntity
  8
0
100
AcDbCircle
 10
3.438880283923388
 20
6.687506567324007
 30
0.0
 40
0.4095910048379535
100
AcDbArc
 50
125.0532852855033
 51
165.0326126333989
  0
ARC
  5
269
330
2
100
AcDbEntity
  8
0
100
AcDbCircle
 10
1.862146049444723
 20
3.688918221118327
 30
0.0
 40
0.0488950785685556
100
AcDbArc
 50
150.9605160887984
 51
179.534994665199
  0
LINE
  5
26A
330
2
100
AcDbEntity
  8
0
100
AcDbLine
 10
3.687266497647786
 20
7.387937547230436
 30
0.0
 11
3.595516241176872
 21
7.279247072867564
 31
0.0
  0
ARC
  5
26B
330
2
100
AcDbEntity
  8
0
100
AcDbCircle
 10
3.567401928152158
 20
7.320557946954812
 30
0.0
 40
0.0499700201621965
100
AcDbArc
 50
257.7914719907968
 51
304.2374325905981
  0
ARC
  5
26C
330
2
100
AcDbEntity
  8
0
100
AcDbCircle
 10
3.389382312064312
 20
7.226202218303012
 30
0.0
 40
0.0819200350707228
100
AcDbArc
 50
305.0536892742027
 51
345.0319929205971
  0
LINE
  5
26D
330
2
100
AcDbEntity
  8
0
100
AcDbLine
 10
3.556834754274325
 20
7.271718027305894
 30
0.0
 11
3.539784423867469
 21
7.273001826837426
 31
0.0
  0
ARC
  5
26E
330
2
100
AcDbEntity
  8
0
100
AcDbCircle
 10
3.541010312402436
 20
7.203735592272006
 30
0.0
 40
0.0692770817340843
100
AcDbArc
 50
91.01392702580204
 51
163.0906939452005
  0
LINE
  5
26F
330
2
100
AcDbEntity
  8
0
100
AcDbLine
 10
3.474728331411435
 20
7.223885357769475
 30
0.0
 11
3.468522816360782
 21
7.205043940368242
 31
0.0
  0
ARC
  5
270
330
2
100
AcDbEntity
  8
0
100
AcDbCircle
 10
8.50686118468527
 20
3.063415231044148
 30
0.0
 40
0.1028630792996739
100
AcDbArc
 50
286.6490829758923
 51
308.1274944216974
  0
LINE
  5
271
330
2
100
AcDbEntity
  8
0
100
AcDbLine
 10
7.93427410277679
 20
2.791065169238676
 30
0.0
 11
8.536332405160983
 21
2.964864430708319
 31
0.0
  0
ARC
  5
272
330
2
100
AcDbEntity
  8
0
100
AcDbCircle
 10
7.890866860427704
 20
2.936706522022195
 30
0.0
 40
0.1519723406742151
100
AcDbArc
 50
266.2240578527004
 51
286.596267531299
  0
LINE
  5
273
330
2
100
AcDbEntity
  8
0
100
AcDbLine
 10
7.79185095795376
 20
2.791766054445975
 30
0.0
 11
7.880858732731009
 21
2.785064081690767
 31
0.0
  0
ARC
  5
274
330
2
100
AcDbEntity
  8
0
100
AcDbCircle
 10
7.805348626756293
 20
2.953445434311143
 30
0.0
 40
0.1622418224034666
100
AcDbArc
 50
233.5365937101961
 51
265.2277757242018
  0
ARC
  5
275
330
2
100
AcDbEntity
  8
0
100
AcDbCircle
 10
7.048314147432798
 20
7.819945239893189
 30
0.0
 40
0.0221499310687253
100
AcDbArc
 50
99.61260672580433
 51
162.1737659591987
  0
LINE
  5
276
330
2
100
AcDbEntity
  8
0
100
AcDbLine
 10
7.203504770530146
 20
7.859635267473841
 30
0.0
 11
7.044615425909181
 21
7.841784170852148
 31
0.0
  0
LINE
  5
277
330
2
100
AcDbEntity
  8
0
100
AcDbLine
 10
8.318864939582869
 20
7.775653602073436
 30
0.0
 11
7.203504770530146
 21
7.859635267473841
 31
0.0
  0
ARC
  5
278
330
2
100
AcDbEntity
  8
0
100
AcDbCircle
 10
8.317393936074815
 20
7.76368465238003
 30
0.0
 40
0.0120590052627796
100
AcDbArc
 50
333.6434646951031
 51
82.99339176569528
  0
LINE
  5
279
330
2
100
AcDbEntity
  8
0
100
AcDbLine
 10
8.258759994058795
 20
7.547500009635803
 30
0.0
 11
8.3281993933169
 21
7.758330989920023
 31
0.0
  0
LINE
  5
27A
330
2
100
AcDbEntity
  8
0
100
AcDbLine
 10
7.275480832605042
 20
7.621536053744564
 30
0.0
 11
8.258759994058795
 21
7.547500009635803
 31
0.0
  0
LINE
  5
27B
330
2
100
AcDbEntity
  8
0
100
AcDbLine
 10
6.087253278656866
 20
7.187474545419577
 30
0.0
 11
5.988433971367292
 21
6.887445530791864
 31
0.0
  0
ARC
  5
27C
330
2
100
AcDbEntity
  8
0
100
AcDbCircle
 10
6.107647459563021
 20
7.181275131485479
 30
0.0
 40
0.0213156127739372
100
AcDbArc
 50
91.01248601779753
 51
163.0918007758038
  0
LINE
  5
27D
330
2
100
AcDbEntity
  8
0
100
AcDbLine
 10
6.107270806401879
 20
7.202587416217081
 30
0.0
 11
6.206332143914257
 21
7.195128440919702
 31
0.0
  0
LINE
  5
27E
330
2
100
AcDbEntity
  8
0
100
AcDbLine
 10
6.206332143914257
 20
7.195128440919702
 30
0.0
 11
6.885829642285359
 21
7.397420062230711
 31
0.0
  0
LINE
  5
27F
330
2
100
AcDbEntity
  8
0
100
AcDbLine
 10
7.027227649531057
 20
7.826726025420263
 30
0.0
 11
6.885829642285359
 21
7.397420062230711
 31
0.0
  0
LINE
  5
280
330
2
100
AcDbEntity
  8
0
100
AcDbLine
 10
7.040133593072724
 20
6.73105849382633
 30
0.0
 11
7.282794481883727
 21
7.46781477287037
 31
0.0
  0
LINE
  5
281
330
2
100
AcDbEntity
  8
0
100
AcDbLine
 10
8.266073643337469
 20
7.393778728761573
 30
0.0
 11
8.205025012694786
 21
7.208426823427815
 31
0.0
  0
LINE
  5
282
330
2
100
AcDbEntity
  8
0
100
AcDbLine
 10
8.021577746605405
 20
7.222239517220002
 30
0.0
 11
7.839964324828873
 21
6.670834880325539
 31
0.0
  0
LINE
  5
283
330
2
100
AcDbEntity
  8
0
100
AcDbLine
 10
7.839964324828873
 20
6.670834880325539
 30
0.0
 11
7.040133593072724
 21
6.73105849382633
 31
0.0
  0
ARC
  5
284
330
2
100
AcDbEntity
  8
0
100
AcDbCircle
 10
8.351707699046992
 20
6.989883447394915
 30
0.0
 40
0.0490300923829136
100
AcDbArc
 50
226.969013919705
 51
295.3354855813935
  0
LINE
  5
285
330
2
100
AcDbEntity
  8
0
100
AcDbLine
 10
8.232589725135989
 20
7.028227057419248
 30
0.0
 11
8.318249868823347
 21
6.954043196897195
 31
0.0
  0
ARC
  5
286
330
2
100
AcDbEntity
  8
0
100
AcDbCircle
 10
8.373303553583481
 20
7.141959839620938
 30
0.0
 40
0.1809296196373022
100
AcDbArc
 50
158.4468754029974
 51
218.9470807937982
  0
ARC
  5
287
330
2
100
AcDbEntity
  8
0
100
AcDbCircle
 10
8.200418460502067
 20
7.41633326457906
 30
0.0
 40
0.0694212512005216
100
AcDbArc
 50
341.0408574851015
 51
24.40699054409735
  0
ARC
  5
288
330
2
100
AcDbEntity
  8
0
100
AcDbCircle
 10
8.390051472123269
 20
7.502390120802454
 30
0.0
 40
0.1388249051253441
100
AcDbArc
 50
161.0380058708977
 51
204.4098498788006
  0
LINE
  5
289
330
2
100
AcDbEntity
  8
0
100
AcDbLine
 10
7.839964324828873
 20
6.670834880325539
 30
0.0
 11
7.902246785473998
 21
6.616896687193557
 31
0.0
  0
LINE
  5
28A
330
2
100
AcDbEntity
  8
0
100
AcDbLine
 10
6.082447206326356
 20
6.753918787299328
 30
0.0
 11
5.997622624705492
 21
6.827379029847413
 31
0.0
  0
LINE
  5
28B
330
2
100
AcDbEntity
  8
0
100
AcDbLine
 10
5.997622624705492
 20
6.827379029847413
 30
0.0
 11
7.017591472096924
 21
6.750580543251495
 31
0.0
  0
LINE
  5
28C
330
2
100
AcDbEntity
  8
0
100
AcDbLine
 10
7.017591472096924
 20
6.750580543251495
 30
0.0
 11
7.040133593072724
 21
6.73105849382633
 31
0.0
  0
ARC
  5
28D
330
2
100
AcDbEntity
  8
0
100
AcDbCircle
 10
7.871553565680147
 20
6.5868995813966
 30
0.0
 40
0.0429173635939856
100
AcDbArc
 50
6.368136345499464
 51
44.34285004420478
  0
ARC
  5
28E
330
2
100
AcDbEntity
  8
0
100
AcDbCircle
 10
8.189851738648654
 20
7.155771929373419
 30
0.0
 40
0.1809256107703272
100
AcDbArc
 50
158.446168294299
 51
218.9478017275991
  0
LINE
  5
28F
330
2
100
AcDbEntity
  8
0
100
AcDbLine
 10
8.134802602742954
 20
6.967856036131363
 30
0.0
 11
8.049142459046668
 21
7.042039896653416
 31
0.0
  0
ARC
  5
290
330
2
100
AcDbEntity
  8
0
100
AcDbCircle
 10
8.16927343704641
 20
7.005329320806562
 30
0.0
 40
0.0509164559021573
100
AcDbArc
 50
227.3897431828997
 51
264.8561861738975
  0
ARC
  5
291
330
2
100
AcDbEntity
  8
0
100
AcDbCircle
 10
7.406772310669516
 20
7.576426164920216
 30
0.0
 40
0.138824905125375
100
AcDbArc
 50
161.0380058708977
 51
204.4098498788006
  0
ARC
  5
292
330
2
100
AcDbEntity
  8
0
100
AcDbCircle
 10
6.051817564654872
 20
6.723963472916366
 30
0.0
 40
0.0428426867616916
100
AcDbArc
 50
6.491114374099543
 51
44.3623084815001
  0
ARC
  5
293
330
2
100
AcDbEntity
  8
0
100
AcDbCircle
 10
7.217144988869581
 20
7.490369579392123
 30
0.0
 40
0.0694159580379307
100
AcDbArc
 50
341.0391203479009
 51
24.40872768130068
  0
ELLIPSE
  5
294
330
2
100
AcDbEntity
  8
0
100
AcDbEllipse
 10
8.404362429860166
 20
8.317972828286379
 30
0.0
 11
0.2177355333375465
 21
0.7766079833720138
 31
0.0
210
0.0
220
0.0
230
1.0
 40
0.033449368
 41
2.272263534317461
 42
2.34174625460599
  0
SPLINE
  5
295
330
2
100
AcDbEntity
  8
0
100
AcDbSpline
210
0.0
220
0.0
230
1.0
 70
     8
 71
     3
 72
    11
 73
     7
 74
     0
 42
0.000000001
 43
0.0000000001
 40
0.0
 40
0.0
 40
0.0
 40
0.0
 40
0.2517137385180087
 40
0.5017633876615959
 40
0.7884835531649208
 40
1.0
 40
1.0
 40
1.0
 40
1.0
 10
8.226188724142339
 20
7.864973794412927
 30
0.0
 10
8.229157430003555
 20
7.862827873279952
 30
0.0
 10
8.235075215495481
 20
7.858550217782506
 30
0.0
 10
8.241903690165518
 20
7.847087828817678
 30
0.0
 10
8.245699916661259
 20
7.83447704110759
 30
0.0
 10
8.24451056593746
 20
7.825971668179514
 30
0.0
 10
8.244005650736694
 20
7.82236088122371
 30
0.0
  0
ARC
  5
296
330
2
100
AcDbEntity
  8
0
100
AcDbCircle
 10
6.044522520980152
 20
6.865289592233296
 30
0.0
 40
0.0603059782365073
100
AcDbArc
 50
158.4451304928023
 51
218.9496259357014
  0
LINE
  5
297
330
2
100
AcDbEntity
  8
0
100
AcDbLine
 10
8.020383917042423
 20
7.925063736735268
 30
0.0
 11
7.617409428897973
 21
7.955405768127243
 31
0.0
  0
LINE
  5
298
330
2
100
AcDbEntity
  8
0
100
AcDbLine
 10
8.020383917042423
 20
7.925063736735268
 30
0.0
 11
8.220635992500204
 21
7.86725614195671
 31
0.0
  0
ARC
  5
299
330
2
100
AcDbEntity
  8
0
100
AcDbCircle
 10
8.213139939110833
 20
7.84112316214759
 30
0.0
 40
0.0271868249384007
100
AcDbArc
 50
61.31673829750072
 51
73.99485028310414
  0
ELLIPSE
  5
29A
330
2
100
AcDbEntity
  8
0
100
AcDbEllipse
 10
7.064394733714518
 20
7.844531278314127
 30
0.0
 11
0.0418424097410165
 21
-0.0170512000207299
 31
0.0
210
0.0
220
0.0
230
1.0
 40
0.2713924154000001
 41
1.896947681047104
 42
2.246013531439856
  0
LINE
  5
29B
330
2
100
AcDbEntity
  8
0
100
AcDbLine
 10
7.097991435370251
 20
7.847780857918141
 30
0.0
 11
7.055372412243045
 21
7.860751733193816
 31
0.0
  0
LINE
  5
29C
330
2
100
AcDbEntity
  8
0
100
AcDbLine
 10
6.736388644287607
 20
7.901837352238797
 30
0.0
 11
6.912574842064375
 21
7.749255629173346
 31
0.0
  0
ELLIPSE
  5
29D
330
2
100
AcDbEntity
  8
0
100
AcDbEllipse
 10
6.771942473478432
 20
7.895625947156404
 30
0.0
 11
0.0418424097404066
 21
-0.0170512000204787
 31
0.0
210
0.0
220
0.0
230
0.9999999999999998
 40
0.2713924153999998
 41
2.246013531444893
 42
3.816809858235645
  0
LINE
  5
29E
330
2
100
AcDbEntity
  8
0
100
AcDbLine
 10
6.749400445042796
 20
7.915148104928154
 30
0.0
 11
7.04185206872433
 21
7.864053314664806
 31
0.0
  0
LINE
  5
29F
330
2
100
AcDbEntity
  8
0
100
AcDbLine
 10
6.149929157265388
 20
7.217753094403136
 30
0.0
 11
6.144022689168629
 21
7.199820092622053
 31
0.0
  0
LINE
  5
2A0
330
2
100
AcDbEntity
  8
0
100
AcDbLine
 10
6.148052259502224
 20
7.217894463326103
 30
0.0
 11
6.149929157265388
 21
7.217753094403136
 31
0.0
  0
LWPOLYLINE
  5
2A1
330
2
100
AcDbEntity
  8
0
100
AcDbPolyline
 90
        9
 70
   128
 43
0.0
 10
6.143765532065878
 20
7.227539915181557
 10
6.143175583415686
 20
7.225829141734948
 10
6.142923080736897
 20
7.224126328267392
 10
6.143018496494339
 20
7.222507223349986
 10
6.14345717626421
 20
7.221043936050103
 10
6.144220502323906
 20
7.219801926462842
 10
6.145273566471619
 20
7.218836715782256
 10
6.146569824441417
 20
7.218191157320347
 10
6.148052259502224
 20
7.217894463326103
  0
LINE
  5
2A2
330
2
100
AcDbEntity
  8
0
100
AcDbLine
 10
6.344654100439758
 20
7.6797985227335
 30
0.0
 11
6.143765532065878
 21
7.227539915181557
 31
0.0
  0
ARC
  5
2A3
330
2
100
AcDbEntity
  8
0
100
AcDbCircle
 10
6.373940424958448
 20
7.667910826361438
 30
0.0
 40
0.0316070582110728
100
AcDbArc
 50
90.72684154310181
 51
157.9071328554996
  0
LINE
  5
2A4
330
2
100
AcDbEntity
  8
0
100
AcDbLine
 10
6.508299106044738
 20
7.689368742080062
 30
0.0
 11
6.373539475587539
 21
7.699515341364998
 31
0.0
  0
LINE
  5
2A5
330
2
100
AcDbEntity
  8
0
100
AcDbLine
 10
7.006284416437935
 20
7.76313755142442
 30
0.0
 11
6.508299106044738
 21
7.689368742080062
 31
0.0
  0
ARC
  5
2A6
330
2
100
AcDbEntity
  8
0
100
AcDbCircle
 10
7.525131001484142
 20
8.355120028049213
 30
0.0
 40
0.4102277388867794
100
AcDbArc
 50
248.3883789471948
 51
282.9996079636006
  0
SPLINE
  5
2A7
330
2
100
AcDbEntity
  8
0
100
AcDbSpline
210
0.0
220
0.0
230
1.0
 70
     8
 71
     3
 72
     9
 73
     5
 74
     0
 42
0.000000001
 43
0.0000000001
 40
0.0
 40
0.0
 40
0.0
 40
0.0
 40
0.3637854744933605
 40
1.0
 40
1.0
 40
1.0
 40
1.0
 10
7.402462559116353
 20
5.95937231612439
 30
0.0
 10
7.401063012593183
 20
5.966925308787115
 30
0.0
 10
7.397215837207383
 20
5.987687524961968
 30
0.0
 10
7.392545957338361
 20
6.007846507492738
 30
0.0
 10
7.389574911933392
 20
6.020671944998215
 30
0.0
  0
SPLINE
  5
2A8
330
2
100
AcDbEntity
  8
0
100
AcDbSpline
210
0.0
220
0.0
230
1.0
 70
     8
 71
     3
 72
     9
 73
     5
 74
     0
 42
0.000000001
 43
0.0000000001
 40
0.0
 40
0.0
 40
0.0
 40
0.0
 40
0.4931078804754943
 40
1.0
 40
1.0
 40
1.0
 40
1.0
 10
7.651951492613958
 20
5.940587074871308
 30
0.0
 10
7.644816907799138
 20
5.928135818470924
 30
0.0
 10
7.630348299412871
 20
5.902885245739485
 30
0.0
 10
7.622319656847222
 20
5.874604299115866
 30
0.0
 10
7.618250001200262
 20
5.860268910139631
 30
0.0
  0
SPLINE
  5
2A9
330
2
100
AcDbEntity
  8
0
100
AcDbSpline
210
0.0
220
0.0
230
1.0
 70
     8
 71
     3
 72
     9
 73
     5
 74
     0
 42
0.000000001
 43
0.0000000001
 40
0.0
 40
0.0
 40
0.0
 40
0.0
 40
0.3964137364449641
 40
1.0
 40
1.0
 40
1.0
 40
1.0
 10
7.618250001200262
 20
5.860268910139631
 30
0.0
 10
7.612544952198733
 20
5.853607248874391
 30
0.0
 10
7.598153299041955
 20
5.836802429432529
 30
0.0
 10
7.582435957406644
 20
5.822364037366865
 30
0.0
 10
7.572949185895915
 20
5.813649222248211
 30
0.0
  0
LINE
  5
2AA
330
2
100
AcDbEntity
  8
0
100
AcDbLine
 10
7.401288093066968
 20
5.826574291092538
 30
0.0
 11
7.410001619822827
 21
5.875949181986584
 31
0.0
  0
SPLINE
  5
2AB
330
2
100
AcDbEntity
  8
0
100
AcDbSpline
210
0.0
220
0.0
230
1.0
 70
     8
 71
     3
 72
     9
 73
     5
 74
     0
 42
0.000000001
 43
0.0000000001
 40
0.0
 40
0.0
 40
0.0
 40
0.0
 40
0.3822979274184181
 40
1.0
 40
1.0
 40
1.0
 40
1.0
 10
7.410001619827186
 20
5.875949181990117
 30
0.0
 10
7.410531339860712
 20
5.886947308430746
 30
0.0
 10
7.411916960852931
 20
5.915715778390529
 30
0.0
 10
7.406072620354855
 20
5.942702538483002
 30
0.0
 10
7.402462559116353
 20
5.95937231612439
 30
0.0
  0
LINE
  5
2AC
330
2
100
AcDbEntity
  8
0
100
AcDbLine
 10
7.389574911933392
 20
6.020671944998785
 30
0.0
 11
7.3924713697305
 21
6.048363543431381
 31
0.0
  0
ARC
  5
2AD
330
2
100
AcDbEntity
  8
0
100
AcDbCircle
 10
7.495174194891402
 20
5.746232267777934
 30
0.0
 40
0.3191099779467986
100
AcDbArc
 50
62.61379871470386
 51
108.7743259455002
  0
LINE
  5
2AE
330
2
100
AcDbEntity
  8
0
100
AcDbLine
 10
7.572550907267893
 20
5.740813672619156
 30
0.0
 11
7.570492486846609
 21
5.739329953151176
 31
0.0
  0
LWPOLYLINE
  5
2AF
330
2
100
AcDbEntity
  8
0
100
AcDbPolyline
 90
        9
 70
   128
 43
0.0
 10
7.433083323709711
 20
5.749676546437102
 10
7.433543172298419
 20
5.758447667742694
 10
7.44111362309085
 20
5.764735243196069
 10
7.455177054303383
 20
5.768027316510545
 10
7.474591571587496
 20
5.768056601101804
 10
7.497775535563329
 20
5.764820178220062
 10
7.522844200956058
 20
5.758581439155477
 10
7.547759324740909
 20
5.749848087192654
 10
7.570492486846609
 20
5.739329953151176
  0
LINE
  5
2B0
330
2
100
AcDbEntity
  8
0
100
AcDbLine
 10
7.433083323709711
 20
5.749676546437102
 30
0.0
 11
7.4320779674362
 21
5.75139078324304
 31
0.0
  0
LINE
  5
2B1
330
2
100
AcDbEntity
  8
0
100
AcDbLine
 10
7.4320779674362
 20
5.75139078324304
 30
0.0
 11
7.401288093066968
 21
5.826574291092538
 31
0.0
  0
LINE
  5
2B2
330
2
100
AcDbEntity
  8
0
100
AcDbLine
 10
7.572949185897923
 20
5.81364922225093
 30
0.0
 11
7.572550907267893
 21
5.740813672619156
 31
0.0
  0
LINE
  5
2B3
330
2
100
AcDbEntity
  8
0
100
AcDbLine
 10
7.374038739942636
 20
7.973730560111407
 30
0.0
 11
7.194870056050119
 21
7.987221031941861
 31
0.0
  0
LINE
  5
2B4
330
2
100
AcDbEntity
  8
0
100
AcDbLine
 10
7.571497843120119
 20
5.739254365621286
 30
0.0
 11
7.609819490769566
 21
5.706066845246168
 31
0.0
  0
LINE
  5
2B5
330
2
100
AcDbEntity
  8
0
100
AcDbLine
 10
7.571497843120119
 20
5.739254365621286
 30
0.0
 11
7.572550907267893
 21
5.740813672619156
 31
0.0
  0
LINE
  5
2B6
330
2
100
AcDbEntity
  8
0
100
AcDbLine
 10
7.664434310382091
 20
6.018720514796051
 30
0.0
 11
7.641960303227602
 21
6.029578374903098
 31
0.0
  0
LINE
  5
2B7
330
2
100
AcDbEntity
  8
0
100
AcDbLine
 10
7.664434310382091
 20
6.018720514796051
 30
0.0
 11
7.651951492610602
 21
5.940587074873665
 31
0.0
  0
LWPOLYLINE
  5
2B8
330
2
100
AcDbEntity
  8
0
100
AcDbPolyline
 90
        9
 70
   128
 43
0.0
 10
7.608814134496043
 20
5.706142432776058
 10
7.608354285907409
 20
5.69737131147043
 10
7.600783835114977
 20
5.691083736017061
 10
7.586720403902383
 20
5.687791662702578
 10
7.56730705022648
 20
5.687762641286528
 10
7.544121922642437
 20
5.690998800993098
 10
7.519053257249696
 20
5.697237540057646
 10
7.494138133464845
 20
5.705970892020506
 10
7.471404971359158
 20
5.716489026061984
  0
LINE
  5
2B9
330
2
100
AcDbEntity
  8
0
100
AcDbLine
 10
7.470399615085635
 20
5.716564613591881
 30
0.0
 11
7.471404971359158
 21
5.716489026061984
 31
0.0
  0
LINE
  5
2BA
330
2
100
AcDbEntity
  8
0
100
AcDbLine
 10
7.4320779674362
 20
5.749752133966993
 30
0.0
 11
7.470399615085635
 21
5.716564613591881
 31
0.0
  0
LINE
  5
2BB
330
2
100
AcDbEntity
  8
0
100
AcDbLine
 10
7.4320779674362
 20
5.749752133966993
 30
0.0
 11
7.433083323709711
 21
5.749676546437102
 31
0.0
  0
LINE
  5
2BC
330
2
100
AcDbEntity
  8
0
100
AcDbLine
 10
7.570492486846609
 20
5.739329953151176
 30
0.0
 11
7.571497843120119
 21
5.739254365621286
 31
0.0
  0
LINE
  5
2BD
330
2
100
AcDbEntity
  8
0
100
AcDbLine
 10
7.608814134496043
 20
5.706142432776058
 30
0.0
 11
7.609819490769566
 21
5.706066845246168
 31
0.0
  0
LINE
  5
2BE
330
2
100
AcDbEntity
  8
0
100
AcDbLine
 10
7.194870056050119
 20
7.987221031941861
 30
0.0
 11
7.103631840570222
 21
8.00727544296047
 31
0.0
  0
LWPOLYLINE
  5
2BF
330
2
100
AcDbEntity
  8
0
100
AcDbPolyline
 90
        3
 70
   128
 43
0.0
 10
7.672850582294824
 20
5.727132075098581
 10
7.66429558410355
 20
5.720175979902178
 10
7.662610631185513
 20
5.719355426802137
  0
LINE
  5
2C0
330
2
100
AcDbEntity
  8
0
100
AcDbLine
 10
7.794616530744414
 20
5.867174199362336
 30
0.0
 11
7.782151225200905
 21
5.858113829539277
 31
0.0
  0
ARC
  5
2C1
330
2
100
AcDbEntity
  8
0
100
AcDbCircle
 10
7.081524805098267
 20
7.909040432109081
 30
0.0
 40
0.1006917989446071
100
AcDbArc
 50
77.31730820779643
 51
85.32930291050435
  0
LINE
  5
2C2
330
2
100
AcDbEntity
  8
0
100
AcDbLine
 10
7.089724015989616
 20
8.009397849950023
 30
0.0
 11
6.787927466109003
 21
8.032121753801558
 31
0.0
  0
LINE
  5
2C3
330
2
100
AcDbEntity
  8
0
100
AcDbLine
 10
7.4320779674362
 20
5.75139078324304
 30
0.0
 11
7.4320779674362
 21
5.749752133966993
 31
0.0
  0
SPLINE
  5
2C4
330
2
100
AcDbEntity
  8
0
100
AcDbSpline
210
0.0
220
0.0
230
1.0
 70
     8
 71
     3
 72
     9
 73
     5
 74
     0
 42
0.000000001
 43
0.0000000001
 40
0.0
 40
0.0
 40
0.0
 40
0.0
 40
0.690265050481048
 40
1.0
 40
1.0
 40
1.0
 40
1.0
 10
7.807198370564961
 20
5.886478010921146
 30
0.0
 10
7.803074115592954
 20
5.892125345160577
 30
0.0
 10
7.797099229613717
 20
5.900306744806243
 30
0.0
 10
7.791018001925734
 20
5.908262778813392
 30
0.0
 10
7.789134433174774
 20
5.910727040604996
 30
0.0
  0
LINE
  5
2C5
330
2
100
AcDbEntity
  8
0
100
AcDbLine
 10
7.794616530744414
 20
5.867174199362336
 30
0.0
 11
7.807198370568023
 21
5.886478010921074
 31
0.0
  0
LWPOLYLINE
  5
2C6
330
2
100
AcDbEntity
  8
0
100
AcDbPolyline
 90
        6
 70
   128
 43
0.0
 10
6.787927466109003
 20
8.032121753801558
 10
6.78120210574633
 20
8.03228517722476
 10
6.775602190249806
 20
8.031692594838903
 10
6.771342480411861
 20
8.030366149229921
 10
6.768586140853655
 20
8.028356917621621
 10
6.767648449650107
 20
8.026703476739699
  0
ARC
  5
2C7
330
2
100
AcDbEntity
  8
0
100
AcDbCircle
 10
7.830365045879881
 20
5.327972532163055
 30
0.0
 40
0.0265546118330229
100
AcDbArc
 50
206.3093621142016
 51
267.201958473101
  0
ARC
  5
2C8
330
2
100
AcDbEntity
  8
0
100
AcDbCircle
 10
8.065545212413436
 20
5.43477261923711
 30
0.0
 40
0.2848359194212405
100
AcDbArc
 50
168.1565985803998
 51
204.5995217088995
  0
LINE
  5
2C9
330
2
100
AcDbEntity
  8
0
100
AcDbLine
 10
7.851684627526458
 20
5.690315991631035
 30
0.0
 11
7.786772822319364
 21
5.493231626369741
 31
0.0
  0
LINE
  5
2CA
330
2
100
AcDbEntity
  8
0
100
AcDbLine
 10
8.219709021905787
 20
5.460633618607315
 30
0.0
 11
8.284620827112881
 21
5.657717983868577
 31
0.0
  0
ARC
  5
2CB
330
2
100
AcDbEntity
  8
0
100
AcDbCircle
 10
7.79229729082281
 20
5.667130184851716
 30
0.0
 40
0.4746805449345767
100
AcDbArc
 50
308.3912028773998
 51
334.2132946608982
  0
ARC
  5
2CC
330
2
100
AcDbEntity
  8
0
100
AcDbCircle
 10
8.05768705175021
 20
5.329879392351132
 30
0.0
 40
0.0455553467969665
100
AcDbArc
 50
268.1090752518036
 51
310.1931445754983
  0
LINE
  5
2CD
330
2
100
AcDbEntity
  8
0
100
AcDbLine
 10
7.82906876580974
 20
5.301449578561932
 30
0.0
 11
8.05618386780395
 21
5.284348852489006
 31
0.0
  0
ARC
  5
2CE
330
2
100
AcDbEntity
  8
0
100
AcDbCircle
 10
7.888402934215874
 20
5.593536781864525
 30
0.0
 40
0.2821432726174368
100
AcDbArc
 50
305.8579809468014
 51
16.63386199700214
  0
ARC
  5
2CF
330
2
100
AcDbEntity
  8
0
100
AcDbCircle
 10
8.153178886131478
 20
5.462534840352148
 30
0.0
 40
0.2829810425528351
100
AcDbArc
 50
126.1985519929036
 51
197.4443547745024
  0
ARC
  5
2D0
330
2
100
AcDbEntity
  8
0
100
AcDbCircle
 10
7.892886913192207
 20
5.382078462998942
 30
0.0
 40
0.0106178319291443
100
AcDbArc
 50
204.3362626065007
 51
267.2102901677973
  0
LINE
  5
2D1
330
2
100
AcDbEntity
  8
0
100
AcDbLine
 10
7.918966699790233
 20
5.369470426003322
 30
0.0
 11
7.892370139213269
 21
5.371473214323134
 31
0.0
  0
LINE
  5
2D2
330
2
100
AcDbEntity
  8
0
100
AcDbLine
 10
8.040956909249747
 20
5.360285348852027
 30
0.0
 11
7.918966699790233
 21
5.369470426003322
 31
0.0
  0
ARC
  5
2D3
330
2
100
AcDbEntity
  8
0
100
AcDbCircle
 10
8.041524180636081
 20
5.378654700283584
 30
0.0
 40
0.0183781084130476
100
AcDbArc
 50
268.2311879514998
 51
311.3935721910029
  0
ARC
  5
2D4
330
2
100
AcDbEntity
  8
0
100
AcDbCircle
 10
7.814839443285444
 20
5.647608108150583
 30
0.0
 40
0.4746805449346157
100
AcDbArc
 50
308.3912028773998
 51
334.2132946608982
  0
ARC
  5
2D5
330
2
100
AcDbEntity
  8
0
100
AcDbCircle
 10
8.080229204221845
 20
5.310357315649993
 30
0.0
 40
0.0455553467969665
100
AcDbArc
 50
268.1090752518036
 51
310.1931445754983
  0
LINE
  5
2D6
330
2
100
AcDbEntity
  8
0
100
AcDbLine
 10
8.242251174368421
 20
5.441111541915176
 30
0.0
 11
8.307162979584589
 21
5.638195907176475
 31
0.0
  0
LINE
  5
2D7
330
2
100
AcDbEntity
  8
0
100
AcDbLine
 10
7.851610918281387
 20
5.281927501869787
 30
0.0
 11
8.078726020266584
 21
5.264826775796868
 31
0.0
  0
ARC
  5
2D8
330
2
100
AcDbEntity
  8
0
100
AcDbCircle
 10
7.853275430257934
 20
5.309521059627724
 30
0.0
 40
0.0276437159145147
100
AcDbArc
 50
229.849277062706
 51
266.5479592276034
  0
ARC
  5
2D9
330
2
100
AcDbEntity
  8
0
100
AcDbCircle
 10
8.181524437392475
 20
5.440275338596439
 30
0.0
 40
0.2893462978346781
100
AcDbArc
 50
124.0986910639975
 51
193.8826501116993
  0
LINE
  5
2DA
330
2
100
AcDbEntity
  8
0
100
AcDbLine
 10
8.031321842940844
 20
5.683895736391477
 30
0.0
 11
8.158739114497503
 21
5.674301512783187
 31
0.0
  0
ARC
  5
2DB
330
2
100
AcDbEntity
  8
0
100
AcDbCircle
 10
8.030688888016612
 20
5.665836041994682
 30
0.0
 40
0.0180707828699212
100
AcDbArc
 50
87.99272310400047
 51
129.0223704634997
  0
LINE
  5
2DC
330
2
100
AcDbEntity
  8
0
100
AcDbLine
 10
11.54907042806002
 20
7.998608604145235
 30
0.0
 11
11.546480821132
 21
8.001618262642915
 31
0.0
  0
LINE
  5
2DD
330
2
100
AcDbEntity
  8
0
100
AcDbLine
 10
22.40334837867575
 20
11.13196875246511
 30
0.0
 11
22.40075877174779
 21
11.13497841096279
 31
0.0
  0
LWPOLYLINE
  5
2DE
330
2
100
AcDbEntity
  8
0
100
AcDbPolyline
 90
       12
 70
   128
 43
0.0
 10
22.47798013181303
 20
11.05785015695834
 10
22.48231907610551
 20
11.05424355302177
 10
22.53810427685486
 20
11.02692802022956
 10
22.60496497799399
 20
11.02327566171495
 10
22.67565612727033
 20
11.04368243874692
 10
22.74251697386954
 20
11.08593688305085
 10
22.79830202915888
 20
11.14545997452563
 10
22.8369663558336
 20
11.21580157325923
 10
22.85432009671622
 20
11.28933909825512
 10
22.84848228140568
 20
11.35810342154546
 10
22.82008620292269
 20
11.41464315305317
 10
22.80264082800933
 20
11.43273611942458
  0
LWPOLYLINE
  5
2DF
330
2
100
AcDbEntity
  8
0
100
AcDbPolyline
 90
       12
 70
   128
 43
0.0
 10
11.62370247209927
 20
7.9244900926125
 10
11.6280409800387
 20
7.920883362710374
 10
11.68382661714111
 20
7.893567955883749
 10
11.75068688193625
 20
7.889915471403551
 10
11.82137832210563
 20
7.91032233240956
 10
11.88823916870484
 20
7.952576776722522
 10
11.9440242239941
 20
8.012099868188315
 10
11.98268855066889
 20
8.082441466921871
 10
12.00004200064948
 20
8.155978907943694
 10
11.99420476714303
 20
8.224743399191204
 10
11.96580810685588
 20
8.28128296275077
 10
11.94836331374666
 20
8.299376097061266
  0
LWPOLYLINE
  5
2E0
330
2
100
AcDbEntity
  8
0
100
AcDbPolyline
 90
       19
 70
   128
 43
0.0
 10
22.36752984731413
 20
11.18353470257592
 10
22.36978331733006
 20
11.12830271597236
 10
22.39169985136748
 20
11.05998875273481
 10
22.4337572554598
 20
11.00668690598595
 10
22.49254848891768
 20
10.9727156221623
 10
22.56331047275467
 20
10.96082694121181
 10
22.64031069808775
 20
10.97198407291891
 10
22.71731063250963
 20
11.00528295805295
 10
22.78807276179771
 20
11.05802613141397
 10
22.8468639952556
 20
11.12594054970217
 10
22.88892139934784
 20
11.20352425002802
 10
22.91083793338527
 20
11.28449173008644
 10
22.91083793338527
 20
11.3622836443846
 10
22.88892139934784
 20
11.43059760762212
 10
22.8468639952556
 20
11.48389938164096
 10
22.78807276179771
 20
11.51787081091567
 10
22.71731063250963
 20
11.52975937716263
 10
22.64031069808775
 20
11.51860240215058
 10
22.64031069808775
 20
11.51860240215058
  0
LWPOLYLINE
  5
2E1
330
2
100
AcDbEntity
  8
0
100
AcDbPolyline
 90
       19
 70
   128
 43
0.0
 10
11.51325175125632
 20
8.050174512264492
 10
11.51550565761638
 20
7.994942651626553
 10
11.5374221916538
 20
7.926628688388998
 10
11.57947959575504
 20
7.873326841640144
 10
11.63827082920399
 20
7.839355557816492
 10
11.70903266758998
 20
7.827466834874456
 10
11.78603260202094
 20
7.83862388260751
 10
11.86303253645189
 20
7.871922767741549
 10
11.93379495663294
 20
7.924666025076612
 10
11.99258619009091
 20
7.992580443364801
 10
12.03464359419214
 20
8.070164143690661
 10
12.05656012822057
 20
8.151131623749083
 10
12.05656012822057
 20
8.228923538056275
 10
12.03464359419214
 20
8.297237501284797
 10
11.99258619009091
 20
8.350539275312673
 10
11.93379495663294
 20
8.384510704587313
 10
11.86303253645189
 20
8.396399186851226
 10
11.78603260202094
 20
8.385242211839182
 10
11.78603260202094
 20
8.385242211839182
  0
ARC
  5
2E2
330
2
100
AcDbEntity
  8
0
100
AcDbCircle
 10
25.41521517927317
 20
10.77900217720636
 30
0.0
 40
0.5493743423631346
100
AcDbArc
 50
8.749285570098935
 51
43.73463283130218
  0
LINE
  5
2E3
330
2
100
AcDbEntity
  8
0
100
AcDbLine
 10
25.81216528357608
 20
11.15879525605085
 30
0.0
 11
25.54165932799563
 21
11.39306028546038
 31
0.0
  0
ARC
  5
2E4
330
2
100
AcDbEntity
  8
0
100
AcDbCircle
 10
25.66751217668356
 20
11.50874380853464
 30
0.0
 40
0.1709433152666185
100
AcDbArc
 50
179.5143540286999
 51
222.5891186933037
  0
LINE
  5
2E5
330
2
100
AcDbEntity
  8
0
100
AcDbLine
 10
25.49657500206113
 20
11.93967854197108
 30
0.0
 11
25.49657500206113
 21
11.51019272744419
 31
0.0
  0
LWPOLYLINE
  5
2E6
330
2
100
AcDbEntity
  8
0
100
AcDbPolyline
 90
        9
 70
   128
 43
0.0
 10
25.54165932799563
 20
11.97872278626336
 10
25.53286384057252
 20
11.98483943084378
 10
25.52440635689484
 20
11.98772015764914
 10
25.51661186443247
 20
11.98725427858203
 10
25.50977990587753
 20
11.98345961136183
 10
25.50417315843859
 20
11.97648189774776
 10
25.50000685282208
 20
11.96658964000484
 10
25.49744129937887
 20
11.95416261030842
 10
25.49657500206113
 20
11.93967854197108
  0
LINE
  5
2E7
330
2
100
AcDbEntity
  8
0
100
AcDbLine
 10
25.54165932799563
 20
11.97872278626336
 30
0.0
 11
25.63182797985578
 21
11.90063444312982
 31
0.0
  0
LWPOLYLINE
  5
2E8
330
2
100
AcDbEntity
  8
0
100
AcDbPolyline
 90
       11
 70
   128
 43
0.0
 10
25.63182797985578
 20
11.90063444312982
 10
25.68577489010383
 20
11.86526050557269
 10
25.7365866371111
 20
11.85463343014454
 10
25.78131020177317
 20
11.86937087385793
 10
25.81734635623154
 20
11.90861627667914
 10
25.84260082085453
 20
11.97008889654685
 10
25.855606029534
 20
12.05021602424884
 10
25.855606029534
 20
12.14434105081615
 10
25.84260082085453
 20
12.2469938607054
 10
25.81734635623154
 20
12.35220849641232
 10
25.78937936590368
 20
12.43110637299011
  0
ARC
  5
2E9
330
2
100
AcDbEntity
  8
0
100
AcDbCircle
 10
25.66751254120828
 20
12.8752897364529
 30
0.0
 40
0.1709436791974504
100
AcDbArc
 50
179.514378016001
 51
222.5890708546995
  0
LINE
  5
2EA
330
2
100
AcDbEntity
  8
0
100
AcDbLine
 10
25.49657500206113
 20
14.55563774615463
 30
0.0
 11
25.49657500206113
 21
14.28276921863192
 31
0.0
  0
LINE
  5
2EB
330
2
100
AcDbEntity
  8
0
100
AcDbLine
 10
25.49657500206113
 20
13.94275425629915
 30
0.0
 11
25.49657500206113
 21
12.87673858688834
 31
0.0
  0
LINE
  5
2EC
330
2
100
AcDbEntity
  8
0
100
AcDbLine
 10
28.02129691827547
 20
12.38372057147329
 30
0.0
 11
28.02129691827548
 21
9.477526484262099
 31
0.0
  0
ARC
  5
2ED
330
2
100
AcDbEntity
  8
0
100
AcDbCircle
 10
25.62846793239127
 20
11.49747270605975
 30
0.0
 40
0.1709433152666082
100
AcDbArc
 50
179.5143540286999
 51
222.5891186933037
  0
LINE
  5
2EE
330
2
100
AcDbEntity
  8
0
100
AcDbLine
 10
25.45753075776885
 20
11.92840743948716
 30
0.0
 11
25.45753075776885
 21
11.49892162496027
 31
0.0
  0
LINE
  5
2EF
330
2
100
AcDbEntity
  8
0
100
AcDbLine
 10
25.50261508370335
 20
11.3817891829855
 30
0.0
 11
25.77312103928379
 21
11.14752415357593
 31
0.0
  0
ARC
  5
2F0
330
2
100
AcDbEntity
  8
0
100
AcDbCircle
 10
8.429899573548102
 20
6.785968960773655
 30
0.0
 40
0.0572543804001079
100
AcDbArc
 50
177.7639509145997
 51
291.3846800217992
  0
LINE
  5
2F1
330
2
100
AcDbEntity
  8
0
100
AcDbLine
 10
8.372688788585772
 20
6.788202827045911
 30
0.0
 11
8.372688788585772
 21
9.638426987918059
 31
0.0
  0
LINE
  5
2F2
330
2
100
AcDbEntity
  8
0
100
AcDbLine
 10
25.39594439250075
 20
13.77597661594743
 30
0.0
 11
25.39594439250075
 21
14.55261759062096
 31
0.0
  0
LINE
  5
2F3
330
2
100
AcDbEntity
  8
0
100
AcDbLine
 10
25.25944046608668
 20
12.75622479888679
 30
0.0
 11
24.7712376474056
 21
12.6152927844919
 31
0.0
  0
ARC
  5
2F4
330
2
100
AcDbEntity
  8
0
100
AcDbCircle
 10
24.80410421703447
 20
12.50917530247578
 30
0.0
 40
0.1110906449204835
100
AcDbArc
 50
107.2087313155017
 51
177.1689234576004
  0
LINE
  5
2F5
330
2
100
AcDbEntity
  8
0
100
AcDbLine
 10
24.69314915881203
 20
12.51466223639954
 30
0.0
 11
24.69314915881203
 21
11.49951392107875
 31
0.0
  0
ARC
  5
2F6
330
2
100
AcDbEntity
  8
0
100
AcDbCircle
 10
24.58219507244519
 20
11.50500009440302
 30
0.0
 40
0.1110896366946853
100
AcDbArc
 50
287.208524705999
 51
357.1692905096015
  0
LINE
  5
2F7
330
2
100
AcDbEntity
  8
0
100
AcDbLine
 10
24.61506096112951
 20
11.39888345696047
 30
0.0
 11
8.450776113562051
 21
6.732656352956988
 31
0.0
  0
LINE
  5
2F8
330
2
100
AcDbEntity
  8
0
100
AcDbLine
 10
22.97520590070448
 20
12.29204386339824
 30
0.0
 11
22.35049944651137
 21
12.11170664365202
 31
0.0
  0
LINE
  5
2F9
330
2
100
AcDbEntity
  8
0
100
AcDbLine
 10
22.97520590070448
 20
12.52630889280781
 30
0.0
 11
22.97520590070448
 21
12.29204386339824
 31
0.0
  0
LINE
  5
2FA
330
2
100
AcDbEntity
  8
0
100
AcDbLine
 10
22.97520590070448
 20
12.52630889280781
 30
0.0
 11
22.35049944651137
 21
12.34597167306162
 31
0.0
  0
LINE
  5
2FB
330
2
100
AcDbEntity
  8
0
100
AcDbLine
 10
22.35049944651137
 20
12.34597167306162
 30
0.0
 11
22.35049944651137
 21
12.11170664365202
 31
0.0
  0
LINE
  5
2FC
330
2
100
AcDbEntity
  8
0
100
AcDbLine
 10
12.12092809554878
 20
9.158683757060885
 30
0.0
 11
11.49622135045356
 21
8.978346453340625
 31
0.0
  0
LINE
  5
2FD
330
2
100
AcDbEntity
  8
0
100
AcDbLine
 10
12.12092809554878
 20
9.392948786470451
 30
0.0
 11
12.12092809554878
 21
9.158683757060885
 31
0.0
  0
LINE
  5
2FE
330
2
100
AcDbEntity
  8
0
100
AcDbLine
 10
12.12092809554878
 20
9.392948786470451
 30
0.0
 11
11.49622135045356
 21
9.212611482750229
 31
0.0
  0
LINE
  5
2FF
330
2
100
AcDbEntity
  8
0
100
AcDbLine
 10
11.49622135045356
 20
9.212611482750229
 30
0.0
 11
11.49622135045356
 21
8.978346453340625
 31
0.0
  0
LWPOLYLINE
  5
300
330
2
100
AcDbEntity
  8
0
100
AcDbPolyline
 90
        7
 70
   128
 43
0.0
 10
25.47760683696912
 20
11.97599444853927
 10
25.47756762014027
 20
11.97598317609812
 10
25.47073566158524
 20
11.97218850888695
 10
25.46512891414638
 20
11.96521079527287
 10
25.4609626085298
 20
11.95531853752992
 10
25.45839705508659
 20
11.94289150783354
 10
25.45753075776885
 20
11.92840743948716
  0
ARC
  5
301
330
2
100
AcDbEntity
  8
0
100
AcDbCircle
 10
25.34673509476686
 20
10.75322006001087
 30
0.0
 40
0.5807587208826602
100
AcDbArc
 50
9.722545797199273
 51
42.76137260430006
  0
ARC
  5
302
330
2
100
AcDbEntity
  8
0
100
AcDbCircle
 10
25.46796909482967
 20
14.5567538036992
 30
0.0
 40
0.0286276704109963
100
AcDbArc
 50
357.7657421884998
 51
111.3844477884976
  0
LWPOLYLINE
  5
303
330
2
100
AcDbEntity
  8
0
100
AcDbPolyline
 90
        7
 70
   128
 43
0.0
 10
8.372688788585772
 20
9.638426987918059
 10
8.373121937240158
 20
9.645668840275202
 10
8.374404671970202
 20
9.651882573295456
 10
8.376487866765472
 20
9.656828556720382
 10
8.379291240485008
 20
9.660317413527423
 10
8.382707219762421
 20
9.66221481985853
 10
8.382726786194353
 20
9.662220565169661
  0
LWPOLYLINE
  5
304
330
2
100
AcDbEntity
  8
0
100
AcDbPolyline
 90
        9
 70
   128
 43
0.0
 10
25.41848651347657
 20
14.57213949458603
 10
25.41408876976501
 20
14.57519781688074
 10
25.40986006991313
 20
14.57663836209947
 10
25.40596282368646
 20
14.57640542256143
 10
25.40254684440899
 20
14.57450801623032
 10
25.39974347068953
 20
14.57101915942328
 10
25.39766027588525
 20
14.56607317599832
 10
25.39637754115513
 20
14.5598594429781
 10
25.39594439250075
 20
14.55261759062096
  0
LINE
  5
305
330
2
100
AcDbEntity
  8
0
100
AcDbLine
 10
25.41848651347657
 20
14.57213949458603
 30
0.0
 11
25.45753075776885
 21
14.58341059706992
 31
0.0
  0
ARC
  5
306
330
2
100
AcDbEntity
  8
0
100
AcDbCircle
 10
26.23801987879574
 20
10.60098453664122
 30
0.0
 40
0.2915178116628632
100
AcDbArc
 50
57.13646885050116
 51
107.6021069081028
  0
LINE
  5
307
330
2
100
AcDbEntity
  8
0
100
AcDbLine
 10
26.39620908098255
 20
10.84584941944115
 30
0.0
 11
28.60534063169885
 21
8.932685376216348
 31
0.0
  0
LWPOLYLINE
  5
308
330
2
100
AcDbEntity
  8
0
100
AcDbPolyline
 90
        9
 70
   128
 43
0.0
 10
28.53933230638993
 20
8.809512623174189
 10
28.56806883973563
 20
8.819808676785747
 10
28.59223494082155
 20
8.832709818117139
 10
28.61090341148569
 20
8.847720418140641
 10
28.62335634730772
 20
8.864263693575569
 10
28.62911485703872
 20
8.881703667621941
 10
28.62795817120142
 20
8.899370273504526
 10
28.61993074859658
 20
8.916584775076062
 10
28.60534063169885
 20
8.932685376216348
  0
LINE
  5
309
330
2
100
AcDbEntity
  8
0
100
AcDbLine
 10
28.53933230638993
 20
8.809512623174189
 30
0.0
 11
27.93024349173146
 21
8.633683827617751
 31
0.0
  0
LINE
  5
30A
330
2
100
AcDbEntity
  8
0
100
AcDbLine
 10
26.14986345194428
 20
10.87885335266605
 30
0.0
 11
25.54077463728581
 21
10.70302455711861
 31
0.0
  0
LWPOLYLINE
  5
30B
330
2
100
AcDbEntity
  8
0
100
AcDbPolyline
 90
        9
 70
   128
 43
0.0
 10
26.98112010954727
 20
9.843373772579429
 10
26.9282180359195
 20
9.820176763762578
 10
26.89709662944226
 20
9.78862288830415
 10
26.89249429984678
 20
9.753516074522849
 10
26.91511235553775
 20
9.72020119658339
 10
26.96150638893292
 20
9.693749852199776
 10
27.02461433889704
 20
9.678189312477501
 10
27.09482795761414
 20
9.675888339062669
 10
27.16145739227628
 20
9.687197104490396
  0
LINE
  5
30C
330
2
100
AcDbEntity
  8
0
100
AcDbLine
 10
27.16145739227628
 20
9.687197104490396
 30
0.0
 11
27.31763436945433
 21
9.732281514399009
 31
0.0
  0
LWPOLYLINE
  5
30D
330
2
100
AcDbEntity
  8
0
100
AcDbPolyline
 90
        9
 70
   128
 43
0.0
 10
27.31763436945433
 20
9.732281514399009
 10
27.37053702488625
 20
9.755478691163965
 10
27.40165784956841
 20
9.787032398674282
 10
27.40626017915481
 20
9.822139212455589
 10
27.38364212346385
 20
9.855454090395005
 10
27.33724809006875
 20
9.881905434778662
 10
27.27414014010463
 20
9.897465974500931
 10
27.20392710319161
 20
9.899767115872869
 10
27.1372970867254
 20
9.888458182488037
  0
LINE
  5
30E
330
2
100
AcDbEntity
  8
0
100
AcDbLine
 10
27.1372970867254
 20
9.888458182488037
 30
0.0
 11
26.98112010954727
 21
9.843373772579429
 31
0.0
  0
ARC
  5
30F
330
2
100
AcDbEntity
  8
0
100
AcDbCircle
 10
26.23801987879574
 20
10.640028703668
 30
0.0
 40
0.2915178116629066
100
AcDbArc
 50
57.13646885050116
 51
107.6021069081028
  0
LINE
  5
310
330
2
100
AcDbEntity
  8
0
100
AcDbLine
 10
26.14986345194428
 20
10.91789751969283
 30
0.0
 11
25.54077463728581
 21
10.74206872414536
 31
0.0
  0
LINE
  5
311
330
2
100
AcDbEntity
  8
0
100
AcDbLine
 10
28.60534063169885
 20
8.971729543234097
 30
0.0
 11
26.39620908098255
 21
10.88489358645889
 31
0.0
  0
ARC
  5
312
330
2
100
AcDbEntity
  8
0
100
AcDbCircle
 10
25.52616079219567
 20
10.74034348066127
 30
0.0
 40
0.0400782549913335
100
AcDbArc
 50
177.7643096007013
 51
291.3849844368014
  0
ARC
  5
313
330
2
100
AcDbEntity
  8
0
100
AcDbCircle
 10
25.536599389366
 20
10.75273121141217
 30
0.0
 40
0.0114508222393312
100
AcDbArc
 50
177.763632320301
 51
291.3844626884983
  0
ARC
  5
314
330
2
100
AcDbEntity
  8
0
100
AcDbCircle
 10
27.91579234855309
 20
8.674077675205424
 30
0.0
 40
0.0429010310138439
100
AcDbArc
 50
231.2219891423981
 51
289.6849767793981
  0
LINE
  5
315
330
2
100
AcDbEntity
  8
0
100
AcDbLine
 10
25.52515728865318
 20
10.75317804618688
 30
0.0
 11
25.52515728865318
 21
11.36226706083939
 31
0.0
  0
LWPOLYLINE
  5
316
330
2
100
AcDbEntity
  8
0
100
AcDbPolyline
 90
       13
 70
   128
 43
0.0
 10
25.88056306843518
 20
10.8401571997806
 10
25.87903453569562
 20
10.84926064120496
 10
25.85946248097149
 20
10.92492660952077
 10
25.82947638371921
 20
10.99447600598617
 10
25.7926930100338
 20
11.04952013465613
 10
25.75354898455968
 20
11.08341985512204
 10
25.71676561087434
 20
11.09208639854484
 10
25.6867795136219
 20
11.0744744460463
 10
25.66720754287189
 20
11.03270819818736
 10
25.66041026644791
 20
10.97182534515373
 10
25.66720754287189
 20
10.89916930035027
 10
25.6867795136219
 20
10.82350338656841
 10
25.70035920271112
 20
10.7881368670137
  0
LINE
  5
317
330
2
100
AcDbEntity
  8
0
100
AcDbLine
 10
25.48611304436091
 20
10.74190694371196
 30
0.0
 11
25.48611304436091
 21
11.40149918421879
 31
0.0
  0
LINE
  5
318
330
2
100
AcDbEntity
  8
0
100
AcDbLine
 10
8.427483573082067
 20
6.582770413283233
 30
0.0
 11
25.18914915272048
 21
11.42401544270494
 31
0.0
  0
LINE
  5
319
330
2
100
AcDbEntity
  8
0
100
AcDbLine
 10
25.25796361441829
 20
11.44389101348662
 30
0.0
 11
25.41100132252255
 21
11.48809264966374
 31
0.0
  0
ARC
  5
31A
330
2
100
AcDbEntity
  8
0
100
AcDbCircle
 10
25.43617180968549
 20
11.5502734700932
 30
0.0
 40
0.0341885645253014
100
AcDbArc
 50
179.5141860577003
 51
222.5891435567012
  0
LINE
  5
31B
330
2
100
AcDbEntity
  8
0
100
AcDbLine
 10
24.91091221036508
 20
12.62958395852642
 30
0.0
 11
24.91091221036508
 21
12.43436302795808
 31
0.0
  0
LINE
  5
31C
330
2
100
AcDbEntity
  8
0
100
AcDbLine
 10
24.91091221036508
 20
12.43436302795808
 30
0.0
 11
25.18422162951795
 21
12.51326066131738
 31
0.0
  0
LINE
  5
31D
330
2
100
AcDbEntity
  8
0
100
AcDbLine
 10
25.18422162951795
 20
12.51326066131738
 30
0.0
 11
25.18422162951795
 21
12.70848159188568
 31
0.0
  0
LINE
  5
31E
330
2
100
AcDbEntity
  8
0
100
AcDbLine
 10
25.18422162951795
 20
11.96664240481572
 30
0.0
 11
25.18422162951795
 21
12.12281909108277
 31
0.0
  0
LINE
  5
31F
330
2
100
AcDbEntity
  8
0
100
AcDbLine
 10
25.18422162951795
 20
12.12281909108277
 30
0.0
 11
24.91091221036508
 21
12.04392145772347
 31
0.0
  0
LINE
  5
320
330
2
100
AcDbEntity
  8
0
100
AcDbLine
 10
24.91091221036508
 20
12.04392145772347
 30
0.0
 11
24.91091221036508
 21
11.88774477144745
 31
0.0
  0
LINE
  5
321
330
2
100
AcDbEntity
  8
0
100
AcDbLine
 10
24.91091221036508
 20
11.88774477144745
 30
0.0
 11
25.18422162951795
 21
11.96664240481572
 31
0.0
  0
LINE
  5
322
330
2
100
AcDbEntity
  8
0
100
AcDbLine
 10
25.40198447413406
 20
11.55056335326256
 30
0.0
 11
25.3971424779168
 21
13.33455291730259
 31
0.0
  0
LINE
  5
323
330
2
100
AcDbEntity
  8
0
100
AcDbLine
 10
25.41100132252255
 20
11.48809264966374
 30
0.0
 11
25.44706880006862
 21
11.45685729786433
 31
0.0
  0
LINE
  5
324
330
2
100
AcDbEntity
  8
0
100
AcDbLine
 10
25.44706880006862
 20
11.45685729786433
 30
0.0
 11
25.46199671167386
 21
11.46116661475345
 31
0.0
  0
LINE
  5
325
330
2
100
AcDbEntity
  8
0
100
AcDbLine
 10
10.85232629488252
 20
4.484597068135483
 30
0.0
 11
10.88839377242859
 21
4.45336171633607
 31
0.0
  0
LINE
  5
326
330
2
100
AcDbEntity
  8
0
100
AcDbLine
 10
10.85232629488252
 20
4.484597068135483
 30
0.0
 11
10.73794723749542
 21
4.451578678353352
 31
0.0
  0
LINE
  5
327
330
2
100
AcDbEntity
  8
0
100
AcDbLine
 10
25.44706880006862
 20
11.49590146943559
 30
0.0
 11
25.41100132252255
 21
11.52713682123501
 31
0.0
  0
LINE
  5
328
330
2
100
AcDbEntity
  8
0
100
AcDbLine
 10
25.44706880006862
 20
11.49590146943559
 30
0.0
 11
25.44706880006862
 21
11.45685729786433
 31
0.0
  0
LINE
  5
329
330
2
100
AcDbEntity
  8
0
100
AcDbLine
 10
25.44706880006862
 20
11.49590146943559
 30
0.0
 11
25.45753078878683
 21
11.49892158543032
 31
0.0
  0
ARC
  5
32A
330
2
100
AcDbEntity
  8
0
100
AcDbCircle
 10
28.56959167112128
 20
8.923556114822421
 30
0.0
 40
0.059988893871806
100
AcDbArc
 50
2.95165295259915
 51
53.42130466590006
  0
ARC
  5
32B
330
2
100
AcDbEntity
  8
0
100
AcDbCircle
 10
10.90266940184994
 20
4.466538681751995
 30
0.0
 40
0.0194274551322607
100
AcDbArc
 50
222.7082226247958
 51
279.570991519398
  0
LINE
  5
32C
330
2
100
AcDbEntity
  8
0
100
AcDbLine
 10
8.348478383049846
 20
6.559963579416447
 30
0.0
 11
8.429044190512753
 21
6.583220924730113
 31
0.0
  0
ARC
  5
32D
330
2
100
AcDbEntity
  8
0
100
AcDbCircle
 10
8.344136531089286
 20
6.574532709933613
 30
0.0
 40
0.0152023433178492
100
AcDbArc
 50
266.2273906944015
 51
286.5949634005968
  0
LINE
  5
32E
330
2
100
AcDbEntity
  8
0
100
AcDbLine
 10
10.71925156707423
 20
4.449478201232952
 30
0.0
 11
8.277236552842698
 21
6.564325239979693
 31
0.0
  0
ARC
  5
32F
330
2
100
AcDbEntity
  8
0
100
AcDbCircle
 10
10.72275349167915
 20
4.502561007596491
 30
0.0
 40
0.0531981936499028
100
AcDbArc
 50
266.2256106960968
 51
286.5951008251002
  0
LINE
  5
330
330
2
100
AcDbEntity
  8
0
100
AcDbLine
 10
6.501515566812587
 20
6.698028466293794
 30
0.0
 11
8.343136264240207
 21
6.559363309532118
 31
0.0
  0
LINE
  5
331
330
2
100
AcDbEntity
  8
0
100
AcDbLine
 10
8.313422369178596
 20
4.630625466259012
 30
0.0
 11
10.71925156707423
 21
4.449478201232952
 31
0.0
  0
LINE
  5
332
330
2
100
AcDbEntity
  8
0
100
AcDbLine
 10
5.905178688042462
 20
6.610044129360982
 30
0.0
 11
5.906316695491619
 21
6.613498818927061
 31
0.0
  0
LINE
  5
333
330
2
100
AcDbEntity
  8
0
100
AcDbLine
 10
6.662649128398109
 20
6.538725821200409
 30
0.0
 11
6.238153732517733
 21
5.24989498066449
 31
0.0
  0
ARC
  5
334
330
2
100
AcDbEntity
  8
0
100
AcDbCircle
 10
6.129989454891622
 20
5.285891619844776
 30
0.0
 40
0.1139967937610049
100
AcDbArc
 50
287.7671609107023
 51
341.5927637648003
  0
LINE
  5
335
330
2
100
AcDbEntity
  8
0
100
AcDbLine
 10
6.164775524250523
 20
5.177331966351433
 30
0.0
 11
5.465046394482047
 21
4.975337565637586
 31
0.0
  0
LINE
  5
336
330
2
100
AcDbEntity
  8
0
100
AcDbLine
 10
6.4596968469654
 20
5.557395517167689
 30
0.0
 11
6.408951954520288
 21
5.40332663464663
 31
0.0
  0
ARC
  5
337
330
2
100
AcDbEntity
  8
0
100
AcDbCircle
 10
6.442610901822384
 20
5.39003347380426
 30
0.0
 40
0.0361888499227168
100
AcDbArc
 50
158.4491067602004
 51
218.9439832005041
  0
LINE
  5
338
330
2
100
AcDbEntity
  8
0
100
AcDbLine
 10
6.414464630697288
 20
5.367286599717843
 30
0.0
 11
6.657919957129076
 21
5.156448102344866
 31
0.0
  0
LWPOLYLINE
  5
339
330
2
100
AcDbEntity
  8
0
100
AcDbPolyline
 90
        9
 70
   128
 43
0.0
 10
6.657919957129076
 20
5.156448102344866
 10
6.66071337146109
 20
5.154630679481105
 10
6.663706758820887
 20
5.153817723440385
 10
6.666785168884545
 20
5.154040558374418
 10
6.669830799673147
 20
5.15529077713078
 10
6.672727646196273
 20
5.157520686244244
 10
6.675362196374002
 20
5.160643870491472
 10
6.677635259187246
 20
5.164540861829414
 10
6.679457868118142
 20
5.169061641602048
  0
LINE
  5
33A
330
2
100
AcDbEntity
  8
0
100
AcDbLine
 10
6.679457868118142
 20
5.169061641602048
 30
0.0
 11
6.730202760563265
 21
5.323130524114112
 31
0.0
  0
ARC
  5
33B
330
2
100
AcDbEntity
  8
0
100
AcDbCircle
 10
6.61801715350297
 20
5.367442194149954
 30
0.0
 40
0.1206197932879687
100
AcDbArc
 50
338.4467067232989
 51
38.94685972650222
  0
LINE
  5
33C
330
2
100
AcDbEntity
  8
0
100
AcDbLine
 10
6.711826701460201
 20
5.443263716457214
 30
0.0
 11
6.53148943972248
 21
5.59944036636825
 31
0.0
  0
LWPOLYLINE
  5
33D
330
2
100
AcDbEntity
  8
0
100
AcDbPolyline
 90
        9
 70
   128
 43
0.0
 10
6.53148943972248
 20
5.59944036636825
 10
6.522180759710578
 20
5.605499529371311
 10
6.512202399963086
 20
5.608209186020257
 10
6.5019399394708
 20
5.607466006402257
 10
6.491787089109825
 20
5.603298362385581
 10
6.482133233248799
 20
5.595866028043193
 10
6.473349819839046
 20
5.58545499024953
 10
6.46577373353383
 20
5.572465061249792
 10
6.4596968469654
 20
5.557395517167689
  0
LINE
  5
33E
330
2
100
AcDbEntity
  8
0
100
AcDbLine
 10
8.293404841442585
 20
4.615512595461508
 30
0.0
 11
8.218623323365852
 21
4.388463778479242
 31
0.0
  0
LINE
  5
33F
330
2
100
AcDbEntity
  8
0
100
AcDbLine
 10
8.254690800911941
 20
4.35722842667983
 30
0.0
 11
8.218623323365852
 21
4.388463778479242
 31
0.0
  0
LINE
  5
340
330
2
100
AcDbEntity
  8
0
100
AcDbLine
 10
8.254690800911941
 20
4.35722842667983
 30
0.0
 11
8.107119859609969
 21
3.909179612780537
 31
0.0
  0
LWPOLYLINE
  5
341
330
2
100
AcDbEntity
  8
0
100
AcDbPolyline
 90
        9
 70
   128
 43
0.0
 10
8.059381465206675
 20
3.869794963795448
 10
8.063373574168524
 20
3.880011883346228
 10
8.068235056587278
 20
3.88910620428507
 10
8.073834770692137
 20
3.896831686685973
 10
8.08001870908223
 20
3.902978470557129
 10
8.086621239094503
 20
3.90738056307502
 10
8.093461552026147
 20
3.90991830429067
 10
8.100357410749884
 20
3.910523644862429
 10
8.107119859609969
 20
3.909179612780537
  0
LINE
  5
342
330
2
100
AcDbEntity
  8
0
100
AcDbLine
 10
8.059381465206675
 20
3.869794963795448
 30
0.0
 11
7.995281857541689
 21
3.675181366579853
 31
0.0
  0
ARC
  5
343
330
2
100
AcDbEntity
  8
0
100
AcDbCircle
 10
8.096897064246975
 20
3.639325234084969
 30
0.0
 40
0.107755800179599
100
AcDbArc
 50
160.5640055550011
 51
207.8755931541978
  0
LINE
  5
344
330
2
100
AcDbEntity
  8
0
100
AcDbLine
 10
8.001644721435651
 20
3.588943653530622
 30
0.0
 11
7.791506642620123
 21
2.950932448777571
 31
0.0
  0
LINE
  5
345
330
2
100
AcDbEntity
  8
0
100
AcDbLine
 10
7.791506642620123
 20
2.950932448777571
 30
0.0
 11
7.755439165083047
 21
2.982167800576983
 31
0.0
  0
LINE
  5
346
330
2
100
AcDbEntity
  8
0
100
AcDbLine
 10
7.755439165083047
 20
2.982167800576983
 30
0.0
 11
7.705764790882077
 21
2.831346100400454
 31
0.0
  0
LINE
  5
347
330
2
100
AcDbEntity
  8
0
100
AcDbLine
 10
5.357205355017236
 20
5.024897815672181
 30
0.0
 11
5.316295936445488
 21
4.900686829901315
 31
0.0
  0
LINE
  5
348
330
2
100
AcDbEntity
  8
0
100
AcDbLine
 10
6.484490894729958
 20
4.577112589553257
 30
0.0
 11
6.53523578717508
 21
4.731181508430307
 31
0.0
  0
ARC
  5
349
330
2
100
AcDbEntity
  8
0
100
AcDbCircle
 10
6.501580506247012
 20
4.744475174343273
 30
0.0
 40
0.0361856254336471
100
AcDbArc
 50
338.4462305090001
 51
38.94700718389579
  0
LINE
  5
34A
330
2
100
AcDbEntity
  8
0
100
AcDbLine
 10
6.529723069012769
 20
4.767221506992749
 30
0.0
 11
6.286267742574773
 21
4.978060004376124
 31
0.0
  0
LWPOLYLINE
  5
34B
330
2
100
AcDbEntity
  8
0
100
AcDbPolyline
 90
        9
 70
   128
 43
0.0
 10
6.286267742574773
 20
4.978060004376124
 10
6.28347549185098
 20
4.979877835866069
 10
6.280482104491257
 20
4.980690791906794
 10
6.277403736419047
 20
4.980467920607738
 10
6.274356921030999
 20
4.979217384133149
 10
6.271461238116169
 20
4.976987810915945
 10
6.268825524321143
 20
4.973864290763499
 10
6.266553625116121
 20
4.96996756260976
 10
6.264729873586229
 20
4.965446501474889
  0
LINE
  5
34C
330
2
100
AcDbEntity
  8
0
100
AcDbLine
 10
6.264729873586229
 20
4.965446501474889
 30
0.0
 11
6.213984981132116
 21
4.811377582597838
 31
0.0
  0
ARC
  5
34D
330
2
100
AcDbEntity
  8
0
100
AcDbCircle
 10
6.326169408480101
 20
4.767066829784435
 30
0.0
 40
0.1206183591064495
100
AcDbArc
 50
158.4469060871004
 51
218.9477876244002
  0
LINE
  5
34E
330
2
100
AcDbEntity
  8
0
100
AcDbLine
 10
6.232362203843403
 20
4.691244689803964
 30
0.0
 11
6.412699465581099
 21
4.535068039892891
 31
0.0
  0
LWPOLYLINE
  5
34F
330
2
100
AcDbEntity
  8
0
100
AcDbPolyline
 90
        9
 70
   128
 43
0.0
 10
6.412699465581099
 20
4.535068039892891
 10
6.422008124592789
 20
4.529009004153895
 10
6.431985299740762
 20
4.526298993421704
 10
6.442247802224642
 20
4.527042136674681
 10
6.452400652585618
 20
4.53120981705638
 10
6.462055651063569
 20
4.538642396395981
 10
6.470839085464681
 20
4.549053452367639
 10
6.478413966170092
 20
4.562043118192169
 10
6.484490894729958
 20
4.577112589553257
  0
ARC
  5
350
330
2
100
AcDbEntity
  8
0
100
AcDbCircle
 10
6.475968224348455
 20
6.467638852084609
 30
0.0
 40
0.2317883847760921
100
AcDbArc
 50
53.53777866929661
 51
85.22706836750108
  0
LINE
  5
351
330
2
100
AcDbEntity
  8
0
100
AcDbLine
 10
5.866573408732496
 20
6.668760418570109
 30
0.0
 11
5.90264080229547
 21
6.637525139491705
 31
0.0
  0
ARC
  5
352
330
2
100
AcDbEntity
  8
0
100
AcDbCircle
 10
5.444402163979813
 20
5.033048962021931
 30
0.0
 40
0.0612926547481476
100
AcDbArc
 50
231.2247871519007
 51
289.6828904016961
  0
LINE
  5
353
330
2
100
AcDbEntity
  8
0
100
AcDbLine
 10
5.90822200629399
 20
6.74282408396535
 30
0.0
 11
6.495254654098987
 21
6.698623459680804
 31
0.0
  0
LINE
  5
354
330
2
100
AcDbEntity
  8
0
100
AcDbLine
 10
6.649785745472045
 20
6.622819124065784
 30
0.0
 11
6.613718351908998
 21
6.654054403135187
 31
0.0
  0
ARC
  5
355
330
2
100
AcDbEntity
  8
0
100
AcDbCircle
 10
6.584117929848229
 20
6.569743727932139
 30
0.0
 40
0.0844349434926644
100
AcDbArc
 50
338.4471897567049
 51
38.94655127820064
  0
ARC
  5
356
330
2
100
AcDbEntity
  8
0
100
AcDbCircle
 10
5.883880038350627
 20
6.622360491256902
 30
0.0
 40
0.024123283772747
100
AcDbArc
 50
338.4477632986965
 51
38.94920519329676
  0
ARC
  5
357
330
2
100
AcDbEntity
  8
0
100
AcDbCircle
 10
5.240576750058988
 20
4.925888790273774
 30
0.0
 40
0.0798030951374864
100
AcDbArc
 50
287.7679525381048
 51
341.5907760378009
  0
ARC
  5
358
330
2
100
AcDbEntity
  8
0
100
AcDbCircle
 10
7.63004560449565
 20
2.856548060772876
 30
0.0
 40
0.0798030951374186
100
AcDbArc
 50
287.7679525381048
 51
341.5907760379008
  0
LINE
  5
359
330
2
100
AcDbEntity
  8
0
100
AcDbLine
 10
7.654398532409743
 20
2.780551554963272
 30
0.0
 11
5.26492967796414
 21
4.849892284464162
 31
0.0
  0
ARC
  5
35A
330
2
100
AcDbEntity
  8
0
100
AcDbCircle
 10
6.952471466442838
 20
2.881235777749253
 30
0.0
 40
0.2915137258438289
100
AcDbArc
 50
237.1360984817999
 51
287.6022525421922
  0
LINE
  5
35B
330
2
100
AcDbEntity
  8
0
100
AcDbLine
 10
6.794282898565296
 20
2.636375349442309
 30
0.0
 11
4.585151347848997
 21
4.549539392676111
 31
0.0
  0
LWPOLYLINE
  5
35C
330
2
100
AcDbEntity
  8
0
100
AcDbPolyline
 90
        9
 70
   128
 43
0.0
 10
4.651158509549683
 20
4.672711809813044
 10
4.622423139821211
 20
4.66241609209771
 10
4.598257038726284
 20
4.649514950766318
 10
4.579587986267068
 20
4.634504182794705
 10
4.56713505043597
 20
4.617960907359782
 10
4.561377122509123
 20
4.60052110126148
 10
4.562532644738126
 20
4.582854159473719
 10
4.570561230951186
 20
4.565639993807401
 10
4.585151347848997
 20
4.549539392676111
  0
LINE
  5
35D
330
2
100
AcDbEntity
  8
0
100
AcDbLine
 10
4.651158509549683
 20
4.672711809813044
 30
0.0
 11
5.26492967796414
 21
4.849892284464162
 31
0.0
  0
LINE
  5
35E
330
2
100
AcDbEntity
  8
0
100
AcDbLine
 10
7.654398532409743
 20
2.780551554963272
 30
0.0
 11
7.040627363995358
 21
2.60337108031219
 31
0.0
  0
LWPOLYLINE
  5
35F
330
2
100
AcDbEntity
  8
0
100
AcDbPolyline
 90
        9
 70
   128
 43
0.0
 10
6.029033423663349
 20
3.795027328487842
 10
6.095663440138627
 20
3.806336261872676
 10
6.165877640650805
 20
3.804035456405956
 10
6.22898442700669
 20
3.788474580778433
 10
6.275379042205949
 20
3.762023404351918
 10
6.297996516092843
 20
3.72870835846439
 10
6.293395350114575
 20
3.693601880579307
 10
6.26227336182426
 20
3.662047837163734
 10
6.209370706392355
 20
3.638850660398816
  0
LINE
  5
360
330
2
100
AcDbEntity
  8
0
100
AcDbLine
 10
5.872857610093444
 20
3.749943254493449
 30
0.0
 11
6.029033423663349
 21
3.795027328487842
 31
0.0
  0
LWPOLYLINE
  5
361
330
2
100
AcDbEntity
  8
0
100
AcDbPolyline
 90
        9
 70
   128
 43
0.0
 10
6.053194892822437
 20
3.593766586395385
 10
5.986564876356235
 20
3.58245765301962
 10
5.916350675843995
 20
3.584758458486272
 10
5.853243889479097
 20
3.600319334113796
 10
5.806849274288838
 20
3.626770510540304
 10
5.784231800393017
 20
3.660085556427869
 10
5.788832966380286
 20
3.695192034312994
 10
5.819954954661526
 20
3.726746077719499
 10
5.872857610093444
 20
3.749943254493449
  0
LINE
  5
362
330
2
100
AcDbEntity
  8
0
100
AcDbLine
 10
6.209370706392355
 20
3.638850660398816
 30
0.0
 11
6.053194892822437
 21
3.593766586395385
 31
0.0
  0
LWPOLYLINE
  5
363
330
2
100
AcDbEntity
  8
0
100
AcDbPolyline
 90
        6
 70
   128
 43
0.0
 10
5.867663973367124
 20
6.731987675292608
 10
5.869540435417403
 20
6.735295256584715
 10
5.875053114533887
 20
6.739313574368375
 10
5.88357369780901
 20
6.741966510580438
 10
5.894773528811072
 20
6.743151966245235
 10
5.90822200629399
 20
6.74282408396535
  0
ARC
  5
364
330
2
100
AcDbEntity
  8
0
100
AcDbCircle
 10
8.313800121576578
 20
4.609311725556421
 30
0.0
 40
0.021317087971235
100
AcDbArc
 50
91.01537091239954
 51
163.0889158813005
  0
LINE
  5
365
330
2
100
AcDbEntity
  8
0
100
AcDbLine
 10
6.53148943972248
 20
5.59944036636825
 30
0.0
 11
6.494799753784801
 21
5.602202954306493
 31
0.0
  0
LINE
  5
366
330
2
100
AcDbEntity
  8
0
100
AcDbLine
 10
6.494799753784801
 20
5.602202954306493
 30
0.0
 11
6.492770455065154
 21
5.60385704082288
 31
0.0
  0
ARC
  5
367
330
2
100
AcDbEntity
  8
0
100
AcDbCircle
 10
8.023149961640426
 20
3.663222172799418
 30
0.0
 40
0.0852654128929822
100
AcDbArc
 50
271.0145916048997
 51
343.0899246265999
  0
LINE
  5
368
330
2
100
AcDbEntity
  8
0
100
AcDbLine
 10
8.168827151020034
 20
3.833034318395464
 30
0.0
 11
8.104728706954196
 21
3.638420984355047
 31
0.0
  0
ARC
  5
369
330
2
100
AcDbEntity
  8
0
100
AcDbCircle
 10
8.125600591615555
 20
3.854447101970103
 30
0.0
 40
0.0482394313641445
100
AcDbArc
 50
333.6479453033992
 51
82.98683627680162
  0
LINE
  5
36A
330
2
100
AcDbEntity
  8
0
100
AcDbLine
 10
8.278383058235867
 20
4.348314495556415
 30
0.0
 11
8.373775543514394
 21
4.341131798099165
 31
0.0
  0
LINE
  5
36B
330
2
100
AcDbEntity
  8
0
100
AcDbLine
 10
8.40849640674712
 20
4.446547624146548
 30
0.0
 11
8.373775543514394
 21
4.341131798099165
 31
0.0
  0
ARC
  5
36C
330
2
100
AcDbEntity
  8
0
100
AcDbCircle
 10
8.293675844669953
 20
3.492735096325924
 30
0.0
 40
0.0180895638780897
100
AcDbArc
 50
153.6475781335
 51
262.9889434904018
  0
LINE
  5
36D
330
2
100
AcDbEntity
  8
0
100
AcDbLine
 10
8.430887692355478
 20
3.464283063082009
 30
0.0
 11
8.291467816671486
 21
3.474780795071693
 31
0.0
  0
ARC
  5
36E
330
2
100
AcDbEntity
  8
0
100
AcDbCircle
 10
8.429001293351658
 20
3.570847323598532
 30
0.0
 40
0.1065809557103729
100
AcDbArc
 50
271.0141431408977
 51
343.0903272024994
  0
LINE
  5
36F
330
2
100
AcDbEntity
  8
0
100
AcDbLine
 10
8.637806071162989
 20
3.864202646530449
 30
0.0
 11
8.530974167454129
 21
3.539846790253236
 31
0.0
  0
ARC
  5
370
330
2
100
AcDbEntity
  8
0
100
AcDbCircle
 10
8.583771268467863
 20
3.890967641562383
 30
0.0
 40
0.0603002890651064
100
AcDbArc
 50
333.6494597713016
 51
82.98569660479776
  0
LINE
  5
371
330
2
100
AcDbEntity
  8
0
100
AcDbLine
 10
8.45171392681793
 20
3.961314057438161
 30
0.0
 11
8.591134966110059
 21
3.950816624997667
 31
0.0
  0
ARC
  5
372
330
2
100
AcDbEntity
  8
0
100
AcDbCircle
 10
8.452280015638429
 20
3.929344847744633
 30
0.0
 40
0.0319742212560257
100
AcDbArc
 50
91.01444831259879
 51
163.0903211841985
  0
LINE
  5
373
330
2
100
AcDbEntity
  8
0
100
AcDbLine
 10
8.27746613607333
 20
3.500764895110002
 30
0.0
 11
8.421688217013539
 21
3.938644991924546
 31
0.0
  0
LINE
  5
374
330
2
100
AcDbEntity
  8
0
100
AcDbLine
 10
8.740333443782308
 20
3.08294378587494
 30
0.0
 11
9.164828839653612
 21
4.371774626419897
 31
0.0
  0
ARC
  5
375
330
2
100
AcDbEntity
  8
0
100
AcDbCircle
 10
8.632169166147123
 20
3.118940425055226
 30
0.0
 40
0.1139967937609948
100
AcDbArc
 50
287.7671609107023
 51
341.5927637648003
  0
LINE
  5
376
330
2
100
AcDbEntity
  8
0
100
AcDbLine
 10
8.666955235506097
 20
3.01038077157092
 30
0.0
 11
8.570370119007428
 21
2.982499050064848
 31
0.0
  0
SPLINE
  5
377
330
2
100
AcDbEntity
  8
0
100
AcDbSpline
210
0.0
220
0.0
230
1.0
 70
     8
 71
     3
 72
    11
 73
     7
 74
     0
 42
0.000000001
 43
0.0000000001
 40
0.0
 40
0.0
 40
0.0
 40
0.0
 40
0.2500008980131977
 40
0.4999945491153201
 40
0.7499934820642217
 40
1.0
 40
1.0
 40
1.0
 40
1.0
 10
8.001644721431855
 20
3.588943653527512
 30
0.0
 10
8.002990674698988
 20
3.587732267044085
 30
0.0
 10
8.005682542217222
 20
3.585309529192347
 30
0.0
 10
8.011886637397331
 20
3.581957415314462
 30
0.0
 10
8.018653395122404
 20
3.579271468154112
 30
0.0
 10
8.022657617859209
 20
3.578403912426193
 30
0.0
 10
8.024659759599272
 20
3.577970127981894
 30
0.0
  0
ARC
  5
378
330
2
100
AcDbEntity
  8
0
100
AcDbCircle
 10
8.450740601104223
 20
4.439790561600168
 30
0.0
 40
0.0427811857162118
100
AcDbArc
 50
97.99005346269856
 51
170.9123793011008
  0
LWPOLYLINE
  5
379
330
2
100
AcDbEntity
  8
0
100
AcDbPolyline
 90
        9
 70
   128
 43
0.0
 10
9.179186643243518
 20
4.380183452891876
 10
9.177325114769642
 20
4.38139531631753
 10
9.175329883077521
 20
4.381937374736402
 10
9.173277665681455
 20
4.381788769627032
 10
9.171246871289532
 20
4.38095516637508
 10
9.169315584282408
 20
4.379468608777097
 10
9.167559633354997
 20
4.377386573667671
 10
9.166043510407671
 20
4.374788282787593
 10
9.164828839653612
 20
4.371774626419897
  0
LINE
  5
37A
330
2
100
AcDbEntity
  8
0
100
AcDbLine
 10
9.179186643243518
 20
4.380183452891876
 30
0.0
 11
9.215254036806491
 21
4.348948173822473
 31
0.0
  0
LINE
  5
37B
330
2
100
AcDbEntity
  8
0
100
AcDbLine
 10
9.19254135846338
 20
4.420728167595408
 30
0.0
 11
9.228608752026428
 21
4.389492888526041
 31
0.0
  0
LWPOLYLINE
  5
37C
330
2
100
AcDbEntity
  8
0
100
AcDbPolyline
 90
        9
 70
   128
 43
0.0
 10
9.186960154473849
 20
4.3154292231308
 10
9.200408631956779
 20
4.315101340850916
 10
9.211608462958828
 20
4.316286796506675
 10
9.220129046233964
 20
4.318939732727776
 10
9.225641725350437
 20
4.322958050511405
 10
9.227934771301029
 20
4.328187346472105
 10
9.226921779258711
 20
4.334427215484954
 10
9.222640480380089
 20
4.341437355977067
 10
9.215254036806491
 20
4.348948173822473
  0
LINE
  5
37D
330
2
100
AcDbEntity
  8
0
100
AcDbLine
 10
9.147255563314846
 20
4.3184189095549
 30
0.0
 11
9.186960154473849
 21
4.3154292231308
 31
0.0
  0
LWPOLYLINE
  5
37E
330
2
100
AcDbEntity
  8
0
100
AcDbPolyline
 90
        5
 70
   128
 43
0.0
 10
9.228608752026428
 20
4.389492888526041
 10
9.235994031991729
 20
4.38198173477538
 10
9.240275330870437
 20
4.37497159428326
 10
9.241289486520891
 20
4.368732061175636
 10
9.240871739003354
 20
4.366810010592854
  0
ARC
  5
37F
330
2
100
AcDbEntity
  8
0
100
AcDbCircle
 10
8.282241925011689
 20
4.394513627170262
 30
0.0
 40
0.0463600109480003
100
AcDbArc
 50
233.5382219833971
 51
265.2253486921031
  0
SPLINE
  5
380
330
2
100
AcDbEntity
  8
0
100
AcDbSpline
210
0.0
220
0.0
230
1.0
 70
     8
 71
     3
 72
    11
 73
     7
 74
     0
 42
0.000000001
 43
0.0000000001
 40
0.0
 40
0.0
 40
0.0
 40
0.0
 40
0.2499849550576336
 40
0.5000043246191953
 40
0.7500107420831888
 40
1.0
 40
1.0
 40
1.0
 40
1.0
 10
8.131490499697278
 20
3.902325611984942
 30
0.0
 10
8.129375468941875
 20
3.902416175035943
 30
0.0
 10
8.125145116262714
 20
3.902597313605355
 30
0.0
 10
8.118039258515388
 20
3.904253111267753
 30
0.0
 10
8.111494801141732
 20
3.906574584420162
 30
0.0
 10
8.108578140088235
 20
3.908311289863721
 30
0.0
 10
8.107119859610532
 20
3.90917961278418
 30
0.0
  0
LINE
  5
381
330
2
100
AcDbEntity
  8
0
100
AcDbLine
 10
3.544509623235051
 20
6.252856314641171
 30
0.0
 11
3.532463554380206
 21
6.253933028687898
 31
0.0
  0
LINE
  5
382
330
2
100
AcDbEntity
  8
0
100
AcDbLine
 10
5.478435300242464
 20
5.909522072584884
 30
0.0
 11
5.108398744675773
 21
6.229983130037646
 31
0.0
  0
ARC
  5
383
330
2
100
AcDbEntity
  8
0
100
AcDbCircle
 10
4.395012704360254
 20
3.760395944552908
 30
0.0
 40
0.0219799082832281
100
AcDbArc
 50
331.1040592006979
 51
32.48287448140534
  0
ELLIPSE
  5
384
330
2
100
AcDbEntity
  8
0
100
AcDbEllipse
 10
4.410074071256112
 20
3.703173036462366
 30
0.0
 11
0.0531861123605168
 21
0.0848576263919615
 31
0.0
210
0.0
220
0.0
230
1.0
 40
0.2945542466
 41
6.237537654344557
 42
6.941786914968744
  0
ELLIPSE
  5
385
330
2
100
AcDbEntity
  8
0
100
AcDbEllipse
 10
4.401715468246045
 20
3.696862435022865
 30
0.0
 11
0.0912024481938844
 21
0.0195490010576796
 31
0.0
210
0.0
220
0.0
230
1.0
 40
0.2601647544
 41
2.693902237372129
 42
3.335243632973141
  0
LINE
  5
386
330
2
100
AcDbEntity
  8
0
100
AcDbLine
 10
5.962635381308569
 20
7.073990329602918
 30
0.0
 11
5.81213564170388
 21
6.617049848911909
 31
0.0
  0
LINE
  5
387
330
2
100
AcDbEntity
  8
0
100
AcDbLine
 10
3.50062111790565
 20
7.260020821431066
 30
0.0
 11
4.221315959978326
 21
6.635880779817858
 31
0.0
  0
LINE
  5
388
330
2
100
AcDbEntity
  8
0
100
AcDbLine
 10
7.883212553713482
 20
5.377702948913118
 30
0.0
 11
7.88989790051712
 21
5.371913268749925
 31
0.0
  0
LINE
  5
389
330
2
100
AcDbEntity
  8
0
100
AcDbLine
 10
8.293404841442585
 20
4.615512595461508
 30
0.0
 11
6.531712453361727
 21
6.141182957195093
 31
0.0
  0
LINE
  5
38A
330
2
100
AcDbEntity
  8
0
100
AcDbLine
 10
22.71593194689283
 20
11.49518678657489
 30
0.0
 11
22.75082454391962
 21
11.474664164867
 31
0.0
  0
LINE
  5
38B
330
2
100
AcDbEntity
  8
0
100
AcDbLine
 10
3.688009520047755
 20
7.389269683652591
 30
0.0
 11
3.721432488298463
 21
7.41094064288383
 31
0.0
  0
LINE
  5
38C
330
2
100
AcDbEntity
  8
0
100
AcDbLine
 10
4.722028702090121
 20
7.310947199871623
 30
0.0
 11
4.729204157499935
 21
7.293131808001409
 31
0.0
  0
ARC
  5
38D
330
2
100
AcDbEntity
  8
0
100
AcDbCircle
 10
5.881417279033783
 20
6.691443106040095
 30
0.0
 40
0.0271080208865218
100
AcDbArc
 50
180.0
 51
236.7986991297108
  0
LINE
  5
38E
330
2
100
AcDbEntity
  8
0
100
AcDbLine
 10
25.18422162951795
 20
12.70848159188568
 30
0.0
 11
24.91091221036508
 21
12.62958395852642
 31
0.0
  0
ARC
  5
38F
330
2
100
AcDbEntity
  8
0
100
AcDbCircle
 10
9.178584193397085
 20
4.408049497844955
 30
0.0
 40
0.0188560633041321
100
AcDbArc
 50
42.25196494832518
 51
90.0
  0
ARC
  5
390
330
2
100
AcDbEntity
  8
0
100
AcDbCircle
 10
7.656091201746915
 20
5.749585541314599
 30
0.0
 40
0.0280184757162493
100
AcDbArc
 50
306.7378456754334
 51
0.0
  0
ARC
  5
391
330
2
100
AcDbEntity
  8
0
100
AcDbCircle
 10
7.454769412680735
 20
5.650627957976078
 30
0.0
 40
0.4236171617326222
100
AcDbArc
 50
37.87897658188887
 51
60.33423412112917
  0
LINE
  5
392
330
2
100
AcDbEntity
  8
0
100
AcDbLine
 10
7.150228726276129
 20
6.081655008146503
 30
0.0
 11
7.211767455858953
 21
6.109797069757785
 31
0.0
  0
SPLINE
  5
393
330
2
100
AcDbEntity
  8
0
100
AcDbSpline
210
0.0
220
0.0
230
1.0
 70
     8
 71
     3
 72
    10
 73
     6
 74
     0
 42
0.000000001
 43
0.0000000001
 40
0.0
 40
0.0
 40
0.0
 40
0.0
 40
0.223414656091903
 40
0.6496074072459033
 40
1.0
 40
1.0
 40
1.0
 40
1.0
 10
7.242592272451095
 20
6.157982356874374
 30
0.0
 10
7.247052052879398
 20
6.167554792552274
 30
0.0
 10
7.260019449251863
 20
6.195387904446247
 30
0.0
 10
7.294374912822303
 20
6.227438403943838
 30
0.0
 10
7.318385572745997
 20
6.241144073503686
 30
0.0
 10
7.329219098578514
 20
6.247328023703349
 30
0.0
  0
LINE
  5
394
330
2
100
AcDbEntity
  8
0
100
AcDbLine
 10
7.233266502136641
 20
6.14002718427021
 30
0.0
 11
7.242592272450593
 21
6.157982356878091
 31
0.0
  0
SPLINE
  5
395
330
2
100
AcDbEntity
  8
0
100
AcDbSpline
210
0.0
220
0.0
230
1.0
 70
     8
 71
     3
 72
     9
 73
     5
 74
     0
 42
0.000000001
 43
0.0000000001
 40
0.0
 40
0.0
 40
0.0
 40
0.0
 40
0.3637854744933605
 40
1.0
 40
1.0
 40
1.0
 40
1.0
 10
6.951619383789792
 20
6.349813959080044
 30
0.0
 10
6.950219837266635
 20
6.357366951742733
 30
0.0
 10
6.946372661880834
 20
6.378129167917617
 30
0.0
 10
6.941702782011788
 20
6.398288150448355
 30
0.0
 10
6.938731736606819
 20
6.41111358795387
 30
0.0
  0
SPLINE
  5
396
330
2
100
AcDbEntity
  8
0
100
AcDbSpline
210
0.0
220
0.0
230
1.0
 70
     8
 71
     3
 72
     9
 73
     5
 74
     0
 42
0.000000001
 43
0.0000000001
 40
0.0
 40
0.0
 40
0.0
 40
0.0
 40
0.4931078804754943
 40
1.0
 40
1.0
 40
1.0
 40
1.0
 10
7.201108317287397
 20
6.331028717826925
 30
0.0
 10
7.193973732472565
 20
6.318577461426579
 30
0.0
 10
7.179505124086298
 20
6.29332688869514
 30
0.0
 10
7.171476481520661
 20
6.265045942071484
 30
0.0
 10
7.167406825873702
 20
6.25071055309528
 30
0.0
  0
SPLINE
  5
397
330
2
100
AcDbEntity
  8
0
100
AcDbSpline
210
0.0
220
0.0
230
1.0
 70
     8
 71
     3
 72
     9
 73
     5
 74
     0
 42
0.000000001
 43
0.0000000001
 40
0.0
 40
0.0
 40
0.0
 40
0.0
 40
0.3964137364449641
 40
1.0
 40
1.0
 40
1.0
 40
1.0
 10
7.167406825873702
 20
6.25071055309528
 30
0.0
 10
7.161701776872172
 20
6.244048891830045
 30
0.0
 10
7.147310123715395
 20
6.227244072388184
 30
0.0
 10
7.131592782080072
 20
6.212805680322514
 30
0.0
 10
7.122106010569366
 20
6.204090865203866
 30
0.0
  0
LINE
  5
398
330
2
100
AcDbEntity
  8
0
100
AcDbLine
 10
6.950444917740334
 20
6.217015934048156
 30
0.0
 11
6.959158444496278
 21
6.266390824942233
 31
0.0
  0
SPLINE
  5
399
330
2
100
AcDbEntity
  8
0
100
AcDbSpline
210
0.0
220
0.0
230
1.0
 70
     8
 71
     3
 72
     9
 73
     5
 74
     0
 42
0.000000001
 43
0.0000000001
 40
0.0
 40
0.0
 40
0.0
 40
0.0
 40
0.3822979274184181
 40
1.0
 40
1.0
 40
1.0
 40
1.0
 10
6.959158444500626
 20
6.266390824945728
 30
0.0
 10
6.959688164534152
 20
6.277388951386364
 30
0.0
 10
6.96107378552637
 20
6.306157421346178
 30
0.0
 10
6.955229445028295
 20
6.333144181438657
 30
0.0
 10
6.951619383789792
 20
6.349813959080044
 30
0.0
  0
LINE
  5
39A
330
2
100
AcDbEntity
  8
0
100
AcDbLine
 10
6.938731736606819
 20
6.41111358795444
 30
0.0
 11
6.941628194403939
 21
6.438805186387036
 31
0.0
  0
ARC
  5
39B
330
2
100
AcDbEntity
  8
0
100
AcDbCircle
 10
7.044331019564829
 20
6.136673910733582
 30
0.0
 40
0.3191099779467986
100
AcDbArc
 50
62.61379871470386
 51
108.7743259455002
  0
LINE
  5
39C
330
2
100
AcDbEntity
  8
0
100
AcDbLine
 10
7.121707731941333
 20
6.131255315574774
 30
0.0
 11
7.119649311520048
 21
6.129771596106824
 31
0.0
  0
LWPOLYLINE
  5
39D
330
2
100
AcDbEntity
  8
0
100
AcDbPolyline
 90
        9
 70
   128
 43
0.0
 10
6.982240148383163
 20
6.14011818939272
 10
6.98269999697187
 20
6.148889310698349
 10
6.990270447764216
 20
6.155176886151718
 10
7.004333878976822
 20
6.158468959466193
 10
7.023748396260936
 20
6.158498244057458
 10
7.046932360236769
 20
6.155261821175711
 10
7.07200102562951
 20
6.149023082111132
 10
7.096916149414361
 20
6.140289730148273
 10
7.119649311520048
 20
6.129771596106824
  0
LINE
  5
39E
330
2
100
AcDbEntity
  8
0
100
AcDbLine
 10
6.982240148383163
 20
6.14011818939272
 30
0.0
 11
6.98123479210964
 21
6.141832426198658
 31
0.0
  0
LINE
  5
39F
330
2
100
AcDbEntity
  8
0
100
AcDbLine
 10
6.98123479210964
 20
6.141832426198658
 30
0.0
 11
6.950444917740334
 21
6.217015934048156
 31
0.0
  0
LINE
  5
3A0
330
2
100
AcDbEntity
  8
0
100
AcDbLine
 10
7.12210601057135
 20
6.204090865206579
 30
0.0
 11
7.121707731941333
 21
6.131255315574774
 31
0.0
  0
LINE
  5
3A1
330
2
100
AcDbEntity
  8
0
100
AcDbLine
 10
7.120654667793571
 20
6.129696008576898
 30
0.0
 11
7.158976315442993
 21
6.096508488201786
 31
0.0
  0
LINE
  5
3A2
330
2
100
AcDbEntity
  8
0
100
AcDbLine
 10
7.120654667793571
 20
6.129696008576898
 30
0.0
 11
7.121707731941333
 21
6.131255315574774
 31
0.0
  0
LINE
  5
3A3
330
2
100
AcDbEntity
  8
0
100
AcDbLine
 10
7.213591135055518
 20
6.409162157751662
 30
0.0
 11
7.191117127901041
 21
6.420020017858746
 31
0.0
  0
LINE
  5
3A4
330
2
100
AcDbEntity
  8
0
100
AcDbLine
 10
7.213591135055518
 20
6.409162157751662
 30
0.0
 11
7.201108317284041
 21
6.331028717829276
 31
0.0
  0
LWPOLYLINE
  5
3A5
330
2
100
AcDbEntity
  8
0
100
AcDbPolyline
 90
        9
 70
   128
 43
0.0
 10
7.157970959169483
 20
6.096584075731713
 10
7.157511110580775
 20
6.087812954426079
 10
7.149940659788343
 20
6.08152537897271
 10
7.13587722857581
 20
6.078233305658233
 10
7.116463874899932
 20
6.078204284242183
 10
7.093278747315864
 20
6.081440443948752
 10
7.068210081923136
 20
6.087679183013294
 10
7.043294958138284
 20
6.09641253497616
 10
7.020561796032585
 20
6.106930669017602
  0
LINE
  5
3A6
330
2
100
AcDbEntity
  8
0
100
AcDbLine
 10
7.019556439759013
 20
6.107006256547492
 30
0.0
 11
7.020561796032585
 21
6.106930669017602
 31
0.0
  0
LINE
  5
3A7
330
2
100
AcDbEntity
  8
0
100
AcDbLine
 10
6.98123479210964
 20
6.140193776922647
 30
0.0
 11
7.019556439759013
 21
6.107006256547492
 31
0.0
  0
LINE
  5
3A8
330
2
100
AcDbEntity
  8
0
100
AcDbLine
 10
6.98123479210964
 20
6.140193776922647
 30
0.0
 11
6.982240148383163
 21
6.14011818939272
 31
0.0
  0
LINE
  5
3A9
330
2
100
AcDbEntity
  8
0
100
AcDbLine
 10
7.119649311520048
 20
6.129771596106824
 30
0.0
 11
7.120654667793571
 21
6.129696008576898
 31
0.0
  0
LINE
  5
3AA
330
2
100
AcDbEntity
  8
0
100
AcDbLine
 10
7.157970959169483
 20
6.096584075731713
 30
0.0
 11
7.158976315442993
 21
6.096508488201786
 31
0.0
  0
LWPOLYLINE
  5
3AB
330
2
100
AcDbEntity
  8
0
100
AcDbPolyline
 90
        3
 70
   128
 43
0.0
 10
7.222007406968251
 20
6.117573718054236
 10
7.213452408776977
 20
6.110617622857833
 10
7.211767455858953
 20
6.109797069757785
  0
LINE
  5
3AC
330
2
100
AcDbEntity
  8
0
100
AcDbLine
 10
7.343773355417792
 20
6.25761584231799
 30
0.0
 11
7.331308049874345
 21
6.248555472494931
 31
0.0
  0
LINE
  5
3AD
330
2
100
AcDbEntity
  8
0
100
AcDbLine
 10
6.98123479210964
 20
6.141832426198658
 30
0.0
 11
6.98123479210964
 21
6.140193776922647
 31
0.0
  0
SPLINE
  5
3AE
330
2
100
AcDbEntity
  8
0
100
AcDbSpline
210
0.0
220
0.0
230
1.0
 70
     8
 71
     3
 72
     9
 73
     5
 74
     0
 42
0.000000001
 43
0.0000000001
 40
0.0
 40
0.0
 40
0.0
 40
0.0
 40
0.690265050481048
 40
1.0
 40
1.0
 40
1.0
 40
1.0
 10
7.356355195238388
 20
6.276919653876795
 30
0.0
 10
7.352230940266406
 20
6.282566988116188
 30
0.0
 10
7.346256054287157
 20
6.290748387761897
 30
0.0
 10
7.340174826599161
 20
6.298704421769047
 30
0.0
 10
7.338291257848213
 20
6.301168683560645
 30
0.0
  0
LINE
  5
3AF
330
2
100
AcDbEntity
  8
0
100
AcDbLine
 10
7.343773355417792
 20
6.25761584231799
 30
0.0
 11
7.356355195241401
 21
6.276919653876728
 31
0.0
  0
ARC
  5
3B0
330
2
100
AcDbEntity
  8
0
100
AcDbCircle
 10
7.205248026420354
 20
6.14002718427021
 30
0.0
 40
0.0280184757162493
100
AcDbArc
 50
306.7378456754334
 51
0.0
  0
ARC
  5
3B1
330
2
100
AcDbEntity
  8
0
100
AcDbCircle
 10
7.003926237354089
 20
6.041069600931697
 30
0.0
 40
0.4236171617326222
100
AcDbArc
 50
37.87897658188887
 51
60.33423412112917
  0
LINE
  5
3B2
330
2
100
AcDbEntity
  8
0
100
AcDbLine
 10
4.774605629632342
 20
7.35827356191604
 30
0.0
 11
5.231059749944657
 21
7.326277501807529
 31
0.0
  0
ARC
  5
3B3
330
2
100
AcDbEntity
  8
0
100
AcDbCircle
 10
25.31886485303653
 20
12.31114592790374
 30
0.0
 40
0.4855660770728638
100
AcDbArc
 50
14.30317866122107
 51
40.37538276354654
  0
ENDSEC
  0
SECTION
  2
OBJECTS
  0
DICTIONARY
  5
A
330
0
100
AcDbDictionary
281
     1
  3
ACAD_COLOR
350
42
  3
ACAD_GROUP
350
37
  3
ACAD_LAYOUT
350
18
  3
ACAD_MATERIAL
350
C
  3
ACAD_MLEADERSTYLE
350
45
  3
ACAD_MLINESTYLE
350
38
  3
ACAD_PLOTSETTINGS
350
39
  3
ACAD_PLOTSTYLENAME
350
9
  3
ACAD_SCALELIST
350
43
  3
ACAD_TABLESTYLE
350
44
  3
ACAD_VISUALSTYLE
350
2D
  3
ACDB_RECOMPOSE_DATA
350
3C3
  3
AcDbVariableDictionary
350
3B5
  3
AcDsDecomposeData
350
3C9
  0
DICTIONARY
  5
20
330
1F
100
AcDbDictionary
280
     1
281
     1
  3
ACAD_LAYERSTATES
360
21
  0
DICTIONARY
  5
7
330
6
100
AcDbDictionary
280
     1
281
     1
  0
DICTIONARY
  5
3
330
2
100
AcDbDictionary
280
     1
281
     1
  3
ACAD_SORTENTS
360
3B4
  0
DICTIONARY
  5
42
102
{ACAD_REACTORS
330
A
102
}
330
A
100
AcDbDictionary
281
     1
  0
DICTIONARY
  5
37
102
{ACAD_REACTORS
330
A
102
}
330
A
100
AcDbDictionary
281
     1
  0
DICTIONARY
  5
18
102
{ACAD_REACTORS
330
A
102
}
330
A
100
AcDbDictionary
281
     1
  3
Model
350
17
  3
レイアウト1
350
1E
  0
DICTIONARY
  5
C
102
{ACAD_REACTORS
330
A
102
}
330
A
100
AcDbDictionary
281
     1
  3
ByBlock
350
3E
  3
ByLayer
350
3A
  3
Global
350
B
  0
DICTIONARY
  5
45
102
{ACAD_REACTORS
330
A
102
}
330
A
100
AcDbDictionary
281
     1
  0
DICTIONARY
  5
38
102
{ACAD_REACTORS
330
A
102
}
330
A
100
AcDbDictionary
281
     1
  3
Standard
350
46
  0
DICTIONARY
  5
39
102
{ACAD_REACTORS
330
A
102
}
330
A
100
AcDbDictionary
281
     1
  0
ACDBDICTIONARYWDFLT
  5
9
102
{ACAD_REACTORS
330
A
102
}
330
A
100
AcDbDictionary
281
     1
  3
Normal
350
8
100
AcDbDictionaryWithDefault
340
8
  0
DICTIONARY
  5
43
102
{ACAD_REACTORS
330
A
102
}
330
A
100
AcDbDictionary
281
     1
  3
A0
350
4B
  3
A1
350
4C
  3
A2
350
4D
  3
A3
350
4E
  3
A4
350
4F
  3
A5
350
50
  3
A6
350
51
  3
A7
350
52
  3
A8
350
53
  3
A9
350
54
  3
B0
350
55
  3
B1
350
56
  3
B2
350
57
  3
B3
350
58
  3
B4
350
59
  3
B5
350
5A
  3
B6
350
5B
  0
DICTIONARY
  5
44
102
{ACAD_REACTORS
330
A
102
}
330
A
100
AcDbDictionary
281
     1
  3
Standard
350
47
  0
DICTIONARY
  5
2D
102
{ACAD_REACTORS
330
A
102
}
330
A
100
AcDbDictionary
281
     1
  3
2dWireframe
350
2C
  3
Realistic
350
49
  3
Wireframe
350
4A
  0
XRECORD
  5
3C3
102
{ACAD_REACTORS
330
A
102
}
330
A
100
AcDbXrecord
280
     1
 90
        1
330
47
  0
DICTIONARY
  5
3B5
102
{ACAD_REACTORS
330
A
102
}
330
A
100
AcDbDictionary
281
     1
  3
CANNOSCALE
350
3BB
  3
CMLEADERSTYLE
350
3B7
  3
CTABLESTYLE
350
3B6
  3
CVIEWDETAILSTYLE
350
3B8
  3
CVIEWSECTIONSTYLE
350
3B9
  3
LAYEREVAL
350
3BD
  3
LAYERNOTIFY
350
3BE
  3
LIGHTINGUNITS
350
3BC
  3
MSLTSCALE
350
3BA
  3
PSOLHEIGHT
350
3C0
  3
PSOLWIDTH
350
3BF
  3
XCLIPFRAME
350
3C1
  0
DICTIONARY
  5
3C9
102
{ACAD_REACTORS
330
A
102
}
330
A
100
AcDbDictionary
281
     1
  3
AcDsRecords
350
3CB
  3
AcDsSchemas
350
3CA
1001
ACAD
1070
     2
  0
DICTIONARY
  5
21
102
{ACAD_REACTORS
330
20
102
}
330
20
100
AcDbDictionary
281
     1
  0
SORTENTSTABLE
  5
3B4
102
{ACAD_REACTORS
330
3
102
}
330
3
100
AcDbSortentsTable
330
2
  0
LAYOUT
  5
17
102
{ACAD_XDICTIONARY
360
19
102
}
102
{ACAD_REACTORS
330
18
102
}
330
18
100
AcDbPlotSettings
  1

  2
none_device
  4
ISO_A4_(210.00_x_297.00_MM)
  6

 40
7.5
 41
20.0
 42
7.5
 43
20.0
 44
210.0
 45
297.0
 46
11.54999923706054
 47
-13.65000009536743
 48
0.0
 49
0.0
140
0.0
141
0.0
142
1.0
143
8.704084754739808
 70
 11952
 72
     1
 73
     0
 74
     0
  7

 75
     0
147
0.1148885871608098
 76
     0
 77
     2
 78
   300
148
0.0
149
0.0
100
AcDbLayout
  1
Model
 70
     1
 71
     0
 10
0.0
 20
0.0
 11
12.0
 21
9.0
 12
0.0
 22
0.0
 32
0.0
 14
0.0
 24
0.0
 34
0.0
 15
0.0
 25
0.0
 35
0.0
146
0.0
 13
0.0
 23
0.0
 33
0.0
 16
1.0
 26
0.0
 36
0.0
 17
0.0
 27
1.0
 37
0.0
 76
     0
330
2
331
2B
1001
ACAD_PSEXT
1000
None
1000
None
1000
Not applicable
1000
The layout will not be plotted unless a new plotter configuration name is selected.
1070
     0
  0
LAYOUT
  5
1E
102
{ACAD_REACTORS
330
18
102
}
330
18
100
AcDbPlotSettings
  1

  2
C:\Documents and Settings\basas\Application Data\Autodesk\AutoCAD 2005\R16.1\enu\plotters\Default Windows System Printer.pc3
  4

  6

 40
0.0
 41
0.0
 42
0.0
 43
0.0
 44
0.0
 45
0.0
 46
0.0
 47
0.0
 48
0.0
 49
0.0
140
0.0
141
0.0
142
1.0
143
1.0
 70
   688
 72
     0
 73
     0
 74
     5
  7

 75
    16
147
1.0
 76
     0
 77
     2
 78
   300
148
0.0
149
0.0
100
AcDbLayout
  1
レイアウト1
 70
     1
 71
     1
 10
0.0
 20
0.0
 11
12.0
 21
9.0
 12
0.0
 22
0.0
 32
0.0
 14
0.0
 24
0.0
 34
0.0
 15
0.0
 25
0.0
 35
0.0
146
0.0
 13
0.0
 23
0.0
 33
0.0
 16
1.0
 26
0.0
 36
0.0
 17
0.0
 27
1.0
 37
0.0
 76
     0
330
1B
  0
MATERIAL
  5
3E
102
{ACAD_XDICTIONARY
360
3F
102
}
102
{ACAD_REACTORS
330
C
102
}
330
C
100
AcDbMaterial
  1
ByBlock
  0
MATERIAL
  5
3A
102
{ACAD_XDICTIONARY
360
3B
102
}
102
{ACAD_REACTORS
330
C
102
}
330
C
100
AcDbMaterial
  1
ByLayer
  0
MATERIAL
  5
B
102
{ACAD_XDICTIONARY
360
D
102
}
102
{ACAD_REACTORS
330
C
102
}
330
C
100
AcDbMaterial
  1
Global
 43
0.0007999999797903
 43
0.0
 43
0.0
 43
0.0
 43
0.0
 43
0.0007999999797903
 43
0.0
 43
0.0
 43
0.0
 43
0.0
 43
1.0
 43
0.0
 43
0.0
 43
0.0
 43
0.0
 43
1.0
 49
0.0007999999797903
 49
0.0
 49
0.0
 49
0.0
 49
0.0
 49
0.0007999999797903
 49
0.0
 49
0.0
 49
0.0
 49
0.0
 49
1.0
 49
0.0
 49
0.0
 49
0.0
 49
0.0
 49
1.0
142
0.0007999999797903
142
0.0
142
0.0
142
0.0
142
0.0
142
0.0007999999797903
142
0.0
142
0.0
142
0.0
142
0.0
142
1.0
142
0.0
142
0.0
142
0.0
142
0.0
142
1.0
144
0.0007999999797903
144
0.0
144
0.0
144
0.0
144
0.0
144
0.0007999999797903
144
0.0
144
0.0
144
0.0
144
0.0
144
1.0
144
0.0
144
0.0
144
0.0
144
0.0
144
1.0
1001
ACAD
1070
    -1
1070
     3
1070
     0
1000

1071
        0
1070
     0
  0
MLINESTYLE
  5
46
102
{ACAD_REACTORS
330
38
102
}
330
38
100
AcDbMlineStyle
  2
STANDARD
 70
     0
  3

 62
   256
 51
90.0
 52
90.0
 71
     2
 49
0.5
 62
   256
  6
BYLAYER
 49
-0.5
 62
   256
  6
BYLAYER
  0
ACDBPLACEHOLDER
  5
8
102
{ACAD_REACTORS
330
9
102
}
330
9
  0
SCALE
  5
4B
102
{ACAD_REACTORS
330
43
102
}
330
43
100
AcDbScale
 70
     0
300
1:1
140
1.0
141
1.0
290
     1
  0
SCALE
  5
4C
102
{ACAD_REACTORS
330
43
102
}
330
43
100
AcDbScale
 70
     0
300
1:2
140
1.0
141
2.0
290
     0
  0
SCALE
  5
4D
102
{ACAD_REACTORS
330
43
102
}
330
43
100
AcDbScale
 70
     0
300
1:4
140
1.0
141
4.0
290
     0
  0
SCALE
  5
4E
102
{ACAD_REACTORS
330
43
102
}
330
43
100
AcDbScale
 70
     0
300
1:5
140
1.0
141
5.0
290
     0
  0
SCALE
  5
4F
102
{ACAD_REACTORS
330
43
102
}
330
43
100
AcDbScale
 70
     0
300
1:8
140
1.0
141
8.0
290
     0
  0
SCALE
  5
50
102
{ACAD_REACTORS
330
43
102
}
330
43
100
AcDbScale
 70
     0
300
1:10
140
1.0
141
10.0
290
     0
  0
SCALE
  5
51
102
{ACAD_REACTORS
330
43
102
}
330
43
100
AcDbScale
 70
     0
300
1:16
140
1.0
141
16.0
290
     0
  0
SCALE
  5
52
102
{ACAD_REACTORS
330
43
102
}
330
43
100
AcDbScale
 70
     0
300
1:20
140
1.0
141
20.0
290
     0
  0
SCALE
  5
53
102
{ACAD_REACTORS
330
43
102
}
330
43
100
AcDbScale
 70
     0
300
1:30
140
1.0
141
30.0
290
     0
  0
SCALE
  5
54
102
{ACAD_REACTORS
330
43
102
}
330
43
100
AcDbScale
 70
     0
300
1:40
140
1.0
141
40.0
290
     0
  0
SCALE
  5
55
102
{ACAD_REACTORS
330
43
102
}
330
43
100
AcDbScale
 70
     0
300
1:50
140
1.0
141
50.0
290
     0
  0
SCALE
  5
56
102
{ACAD_REACTORS
330
43
102
}
330
43
100
AcDbScale
 70
     0
300
1:100
140
1.0
141
100.0
290
     0
  0
SCALE
  5
57
102
{ACAD_REACTORS
330
43
102
}
330
43
100
AcDbScale
 70
     0
300
2:1
140
2.0
141
1.0
290
     0
  0
SCALE
  5
58
102
{ACAD_REACTORS
330
43
102
}
330
43
100
AcDbScale
 70
     0
300
4:1
140
4.0
141
1.0
290
     0
  0
SCALE
  5
59
102
{ACAD_REACTORS
330
43
102
}
330
43
100
AcDbScale
 70
     0
300
8:1
140
8.0
141
1.0
290
     0
  0
SCALE
  5
5A
102
{ACAD_REACTORS
330
43
102
}
330
43
100
AcDbScale
 70
     0
300
10:1
140
10.0
141
1.0
290
     0
  0
SCALE
  5
5B
102
{ACAD_REACTORS
330
43
102
}
330
43
100
AcDbScale
 70
     0
300
100:1
140
100.0
141
1.0
290
     0
  0
TABLESTYLE
  5
47
102
{ACAD_XDICTIONARY
360
48
102
}
102
{ACAD_REACTORS
330
44
102
}
330
44
100
AcDbTableStyle
  3
Standard
 70
     0
 71
     0
 40
1.5
 41
1.5
280
     0
281
     0
  7
Standard
140
4.5
170
     2
 62
     0
 63
     7
283
     0
274
    -2
284
     1
 64
     0
275
    -2
285
     1
 65
     0
276
    -2
286
     1
 66
     0
277
    -2
287
     1
 67
     0
278
    -2
288
     1
 68
     0
279
    -2
289
     1
 69
     0
  7
Standard
140
6.0
170
     5
 62
     0
 63
     7
283
     0
274
    -2
284
     1
 64
     0
275
    -2
285
     1
 65
     0
276
    -2
286
     1
 66
     0
277
    -2
287
     1
 67
     0
278
    -2
288
     1
 68
     0
279
    -2
289
     1
 69
     0
  7
Standard
140
4.5
170
     5
 62
     0
 63
     7
283
     0
274
    -2
284
     1
 64
     0
275
    -2
285
     1
 65
     0
276
    -2
286
     1
 66
     0
277
    -2
287
     1
 67
     0
278
    -2
288
     1
 68
     0
279
    -2
289
     1
 69
     0
  0
VISUALSTYLE
  5
2C
102
{ACAD_XDICTIONARY
360
3CC
102
}
102
{ACAD_REACTORS
330
2D
102
}
330
2D
100
AcDbVisualStyle
  2

 70
     4
 71
     0
 72
     2
 73
     1
 90
        0
 40
-0.6
 41
-30.0
 62
     5
 63
     7
421
 16777215
 74
     1
 91
        4
 64
     7
 65
   257
 75
     1
175
     1
 42
1.0
 92
        0
 66
   257
 43
1.0
 76
     1
 77
     6
 78
     2
 67
     7
 79
     5
170
     0
171
     0
290
     0
174
     0
 93
        1
 44
0.0
173
     0
291
     0
 45
0.0
1001
ACAD
1000
AcDbSavedByObjectVersion
1070
     0
  0
VISUALSTYLE
  5
49
102
{ACAD_XDICTIONARY
360
3CF
102
}
102
{ACAD_REACTORS
330
2D
102
}
330
2D
100
AcDbVisualStyle
  2

 70
     8
 71
     2
 72
     3
 73
     0
 90
        2
 40
-0.6
 41
30.0
 62
     5
 63
     7
421
 16777215
 74
     0
 91
        0
 64
     7
 65
   257
 75
     1
175
     1
 42
1.0
 92
        8
 66
   257
 43
1.0
 76
     1
 77
     6
 78
     2
 67
     7
 79
     3
170
     0
171
     0
290
     0
174
     0
 93
       13
 44
0.0
173
     0
291
     0
 45
0.0
1001
ACAD
1000
AcDbSavedByObjectVersion
1070
     0
  0
VISUALSTYLE
  5
4A
102
{ACAD_XDICTIONARY
360
3D1
102
}
102
{ACAD_REACTORS
330
2D
102
}
330
2D
100
AcDbVisualStyle
  2

 70
     5
 71
     0
 72
     2
 73
     0
 90
        0
 40
-0.6
 41
-30.0
 62
     5
 63
     7
421
 16777215
 74
     1
 91
        4
 64
     7
 65
   257
 75
     1
175
     1
 42
1.0
 92
        0
 66
   257
 43
1.0
 76
     1
 77
     6
 78
     2
 67
     7
 79
     3
170
     0
171
     0
290
     0
174
     0
 93
        1
 44
0.0
173
     0
291
     0
 45
0.0
1001
ACAD
1000
AcDbSavedByObjectVersion
1070
     0
  0
DICTIONARYVAR
  5
3BB
102
{ACAD_REACTORS
330
3B5
102
}
330
3B5
100
DictionaryVariables
280
     0
  1
1:1
  0
DICTIONARYVAR
  5
3B7
102
{ACAD_REACTORS
330
3B5
102
}
330
3B5
100
DictionaryVariables
280
     0
  1
STANDARD
  0
DICTIONARYVAR
  5
3B6
102
{ACAD_REACTORS
330
3B5
102
}
330
3B5
100
DictionaryVariables
280
     0
  1
STANDARD
  0
DICTIONARYVAR
  5
3B8
102
{ACAD_REACTORS
330
3B5
102
}
330
3B5
100
DictionaryVariables
280
     0
  1

  0
DICTIONARYVAR
  5
3B9
102
{ACAD_REACTORS
330
3B5
102
}
330
3B5
100
DictionaryVariables
280
     0
  1

  0
DICTIONARYVAR
  5
3BD
102
{ACAD_REACTORS
330
3B5
102
}
330
3B5
100
DictionaryVariables
280
     0
  1
0
  0
DICTIONARYVAR
  5
3BE
102
{ACAD_REACTORS
330
3B5
102
}
330
3B5
100
DictionaryVariables
280
     0
  1
0
  0
DICTIONARYVAR
  5
3BC
102
{ACAD_REACTORS
330
3B5
102
}
330
3B5
100
DictionaryVariables
280
     0
  1
2
  0
DICTIONARYVAR
  5
3BA
102
{ACAD_REACTORS
330
3B5
102
}
330
3B5
100
DictionaryVariables
280
     0
  1
1
  0
DICTIONARYVAR
  5
3C0
102
{ACAD_REACTORS
330
3B5
102
}
330
3B5
100
DictionaryVariables
280
     0
  1
80.000000
  0
DICTIONARYVAR
  5
3BF
102
{ACAD_REACTORS
330
3B5
102
}
330
3B5
100
DictionaryVariables
280
     0
  1
5.000000
  0
DICTIONARYVAR
  5
3C1
102
{ACAD_REACTORS
330
3B5
102
}
330
3B5
100
DictionaryVariables
280
     0
  1
2
  0
DICTIONARY
  5
3CB
102
{ACAD_REACTORS
330
3C9
102
}
330
3C9
100
AcDbDictionary
281
     1
  0
DICTIONARY
  5
3CA
102
{ACAD_REACTORS
330
3C9
102
}
330
3C9
100
AcDbDictionary
281
     1
  3
2176197197888
350
3C4
  3
2176197197904
350
3C5
  3
2176197197920
350
3C6
  3
2176197197936
350
3C7
  3
2176197197952
350
3C8
  0
DICTIONARY
  5
19
330
17
100
AcDbDictionary
280
     1
281
     1
  0
DICTIONARY
  5
3F
330
3E
100
AcDbDictionary
280
     1
281
     1
  3
ACAD_XREC_ROUNDTRIP
360
40
  3
FBXASSET
360
41
  0
DICTIONARY
  5
3B
330
3A
100
AcDbDictionary
280
     1
281
     1
  3
ACAD_XREC_ROUNDTRIP
360
3C
  3
FBXASSET
360
3D
  0
DICTIONARY
  5
D
330
B
100
AcDbDictionary
280
     1
281
     1
  3
ACAD_XREC_ROUNDTRIP
360
E
  3
BUMPTILE
360
F
  3
DIFFUSETILE
360
10
  3
FBXASSET
360
11
  3
OPACITYTILE
360
12
  3
REFLECTIONTILE
360
13
  0
DICTIONARY
  5
48
330
47
100
AcDbDictionary
280
     1
281
     1
  3
ACAD_ROUNDTRIP_2008_TABLESTYLE_CELLSTYLEMAP
360
3C2
  3
ACAD_XREC_ROUNDTRIP
360
3CE
  0
DICTIONARY
  5
3CC
330
2C
100
AcDbDictionary
280
     1
281
     1
  3
ACAD_XREC_ROUNDTRIP
360
3CD
  0
DICTIONARY
  5
3CF
330
49
100
AcDbDictionary
280
     1
281
     1
  3
ACAD_XREC_ROUNDTRIP
360
3D0
  0
DICTIONARY
  5
3D1
330
4A
100
AcDbDictionary
280
     1
281
     1
  3
ACAD_XREC_ROUNDTRIP
360
3D2
  0
XRECORD
  5
3C4
102
{ACAD_REACTORS
330
3CA
102
}
330
3CA
100
AcDbXrecord
280
     1
  1
AcDb_Thumbnail_Schema
102
{ATTRRECORD
341
3C5
  2
AcDbDs::TreatedAsObjectData
280
     1
291
     1
102
ATTRRECORD}
102
{ATTRRECORD
341
3C6
  2
AcDbDs::Legacy
280
     1
291
     1
102
ATTRRECORD}
  2
AcDbDs::ID
280
    10
 91
        8
102
{ATTRRECORD
341
3C7
  2
AcDs:Indexable
280
     1
291
     1
102
ATTRRECORD}
102
{ATTRRECORD
341
3C8
  2
AcDbDs::HandleAttribute
280
     7
282
     1
102
ATTRRECORD}
  2
Thumbnail_Data
280
    15
 91
        0
  0
XRECORD
  5
3C5
102
{ACAD_REACTORS
330
3CA
102
}
330
3CA
100
AcDbXrecord
280
     1
  1
AcDbDs::TreatedAsObjectDataSchema
  2
AcDbDs::TreatedAsObjectData
280
     1
 91
        0
  0
XRECORD
  5
3C6
102
{ACAD_REACTORS
330
3CA
102
}
330
3CA
100
AcDbXrecord
280
     1
  1
AcDbDs::LegacySchema
  2
AcDbDs::Legacy
280
     1
 91
        0
  0
XRECORD
  5
3C7
102
{ACAD_REACTORS
330
3CA
102
}
330
3CA
100
AcDbXrecord
280
     1
  1
AcDbDs::IndexedPropertySchema
  2
AcDs:Indexable
280
     1
 91
        0
  0
XRECORD
  5
3C8
102
{ACAD_REACTORS
330
3CA
102
}
330
3CA
100
AcDbXrecord
280
     1
  1
AcDbDs::HandleAttributeSchema
  2
AcDbDs::HandleAttribute
280
     7
 91
        1
284
     1
  0
XRECORD
  5
40
102
{ACAD_REACTORS
330
3F
102
}
330
3F
100
AcDbXrecord
280
     1
102
MATERIAL
148
0.0
149
0.0
149
0.0
 93
        0
 94
      127
282
     0
 72
     1
 77
     1
171
     1
175
     1
179
     1
273
     0
  0
XRECORD
  5
41
102
{ACAD_REACTORS
330
3F
102
}
330
3F
100
AcDbXrecord
280
     1
 70
     1
 90
429727718
  1
D62C5603-E3A1-4AEA-B7FB-FE5D8D0755AF
310
504B03040A0000080000CC70623B3DEE336E79000000790000001B0000006175746F6465736B2D64657369676E2D7061636B6167652E786D6C3C3F786D6C2076657273696F6E3D22312E302220656E636F64696E673D227574662D3822203F3E3C666F726D6174733E3C666F726D61743E687474703A2F2F736368656D612E
310
6175746F6465736B2E636F6D2F64657369676E2D7061636B6167652F323030393C2F666F726D61743E3C2F666F726D6174733E504B0304140006080800CC70623BD486FD9CA0000000F4000000130000005B436F6E74656E745F54797065735D2E786D6C7D8EC10E82300C865F65E91D8A1E8C310C0EEA1BF002731658846E
310
D98AC1B77784ABF1D8FE5FBFBF75BBCE937A534CCEB38643598122B6FEE978D0B0485F9C41B54DDD7D022595594E1A469170414C76A4D9A4D207E29CF43ECE46F218070CC6BECC4078ACAA135ACF422C856C0E68EA1BF5669944DDD7BCDE7B1F8E415D77AECB980613C2E4AC91FC167A2B244592486606FC29C8FD7F045B9A
310
EF7053A7E60B504B0304140006080800CC70623B853B8169EB0000007C01000008000000636F72652E786D6C8D90416EC3201045AF62CDB6C206821CC7C244919D9CA01740401C94182C03558F5F9C3852BBEB6A467FFE9B197D7EFC9E1EC5975982F5AE035262288C535E5B377690E21535501C055FBC8FBF6C503839990E
310
5619041F179FE64D52DE45E362569DD7661365082642A11EB9E920A89B99642953CC8E702F67A9EE7234257977194EC9EAE275C4EABCCF5EAD5940D4AC6F0E35A568B8F43562CD7046CD199FD07E60174276A7BE677B5EADB0E0D14EEFFB6A31321A0D82627C4084204C3F096B71DD52F6819B16635EADF63F509AF53FA164
310
5DDCD1EDDD17164090FCC8732078B56691CB33A85CD7DCC40F504B0304140006080800CC70623B55019EA25F0000007C00000007000000636E782E786D6C4DCB3B0E80201045D1AD90E915ED2CF8AC45050C11660C8261F98AB1B07AC9C97D42D718D865D3E909258CFD00CCE24AC6E326A164D74DC0B4128928FF32603847
310
2BA13128B1252AC747C6BAB984FC68F0B87FE8960A5C09FE86CFB69FBA01504B0304140006080800CC70623BDBABAAF470010000D40300000C0000006662782F636F72652E786D6CC553D16E823014FD95A6AF4B694182CC941A83FA05FB810A9511A125A5257EFE2E82712ECEB8A7F100CD39F7F69E734AF9FADC366850B6
310
AF8DCE7018308C942E4C59EB2AC3DE1D498AD15A706B8CFB56869196ADCAF00863C12B6B7C374385D14E6907A836A59A41D9F7CA615434B0C8705F7CAA5606D23BA8E84F41278B93AC54100640439DE0BDB320004D43C63716C7C399D30917DCFBBA9CD9BA8469F5B156168B24CED3F7248AC8769F27244EB73B92EED8862C
310
B7F13E0C179B3C8F979C8ECD82BBBABDAA2BAC924E9558448CBD9330242CFA08E3154B5651FCC6D215639C8EE5774DBE2B5F6CF2B5768B68963BB5F5588420E442FC700B1139D4CB01F450C1E918227C2E09DF070D8140C84E1E9AAB8F1340832A9CB13130A5F1376A908D57309505ECF2A0DF179C4E9D30F5B239B87E3823
310
7A79C6F31DE1A8A5AEC08474B03C7837EAE4938639B44E5932B833D2C6B6B279CDC613877FA26EE21F4A2A4C63EC7F29A2F301D1F9F7A0E37D145F504B0304140006080800CC70623B9C113CC27E0000009D0000000B0000006662782F636E782E786D6C4DCCDF0A83201C86E15B91DFB94BFB330DD428C8FB886521330DA7
310
6397BF1A1DECE883878F57749FCDA1B7892F1BBC047A23808C7F84D9FA55424E0BE6803A256208E9EF06C84F9B91703228B1C690F78B66B34CD9A5439DF5CF0BFBF65E35BCA1B8D6A5C6F540381E886698B5741C695F9503EBA150A2F8958E3DC3EA0B504B0304140006080800CC70623B7DF2F77C2A010000120200003100
310
00006662782F41393633353835312D344632462D344230382D423046372D3739314545314133324237412F636F72652E786D6C8D51DB8EC22014FC15C2939B0D2DB4B45643319AE817EC0F6041255A68B86CFCFC856D4D76DF7CE190393373060EDB3DC707F856CE6B6B7A480A0C81328395DA5C7B18C3057510EC3873D686
310
3F34088C18550F330C39BB3A1BA7051AAC09CA84841A2BD5020AEF55806078A44B0FFD7053A328440C89E1EFC52486BBB8AA8214A99D789CF9E05200300FC927E4FB4D5B375D43103D5527440FB843077C5AA3F5861C8F645F5787F59E95B390B318B55CE45AA638FAA2957BD7248B390B7A7CC51F9C124149C82B8C378810
310
84AB2F42B7B8DD56F413775B8C5999E9FF4471926F8AA236A1AE96B8B3CC434E5839373893369E1FAF30EA395917409EB7F26AF8801C171837A4A6AC9C89E9F9C9B1A58BA30FD6A5EF5DDDCF894B9AD9B6A59C957943A9FCAE2FD5BC4DFE03504B0304140006080800CC70623BAD7543B64E01000033030000300000006662
310
782F41393633353835312D344632462D344230382D423046372D3739314545314133324237412F636E782E786D6CD593CD6EC32010845F0571AD6CE3D48AD20813A9873E410FBD12D82434182C7EAAE6EDBB2424CD25871E7B41D6EC30B3FA84F9E67BB2E40B4234DE8DB46F1925E094D7C6ED479AD3AE5951B2113C789FEE
310
6C943839C1488B4C05DF079FE72A69D8C96C13AAD6B8631503449F83828872B949AC57D26200B826A308D316B4064D6E46FCDA41C05550DC9E483A00797BFD207EFB092A45DE9514C1BBD22178396BD39D891265658C238DEA00936C654E5E433CB65A26D9F6EDB5EBC14EBF49A45CB856E66048291F6939A9A81BB5C89177
310
38143CA680F4AA299D66A042CEB3354A2684DC9D8D178FE0D9B8B41CAAD720F880EE7EF93C0C18769E099ECC04D5A102C8049A8A05632F4DDF376CF1DE0F6BB65C2F8627B65A33C6BB62177CEBBDAD973006829F89F22E814B54F4BC2BE347F8AA8F681390B50FA73F804400B5F542E796F19FF974E7F78DB802FE05E20750
310
4B0304140006080800CC70623BE75B7789680500003C100000340000006662782F41393633353835312D344632462D344230382D423046372D3739314545314133324237412F6F626A656374732E786D6CAD575B8F9B3818FD2B887D06C22499CB8AA1CA655245D5B455A356FB305264C061D8018C6C3393D95FBFC7600890
310
A4CD5EF210B0B1BFEBF98E3F7B1FF6596ABC522E1296DF9BAE3D320D9A872C4AF2F8DE2CE5CEBA358D0FBEC719939D65A691938CDE9B6ADAF4BD98B3B2D05311DD91329583D9D5FC0F438434A7A611A644887B5384CF34233629258BA878B12322891DEFF6B66BD70BFB62634E8AE781D082709A4B588AF91C528CDA28B73F
310
1C998EEF39EABBEFA97FBD6A7C7E9553F9D3D79FE442923C3C523610337627CB87ABE99D359D4CC6D6E4FACAB5E6ABF9D2726FC6A3C5F56271377BB88362213924694B38DD99FE47C48627A1E7D49F5A8BB5E1A74C0A599ED3B0F21F1E56366B89112D681E218F0915D0D6F17AD41FBA2A369DCF6335D62ABBD39779D5DDD1
310
11D4D8DE3CBB96B2E04FB8202E41051754A1AA8E8F76B4C6DFE810B580B1547F4B84911149794252234D024EF8BBE963A95AE27B3D310A9D5C215C7960FAEE415ED75694C6AFB17BCACA5D99A60A9AA65F217B0BFC53292ACB92BF283FAD0D3621576592CB5BED907C2FA8E9DF794E35E97BEA31BED21FEB401ABB94C44839
310
DCACBF0E1C5DA8DA5B2F4DFFD32AD86F543D9E565E7056502E157C00AD2671CD534549AB752FCA9CDA00677A313F04E51B22FF19E57B300579E3C97EB29F682D92935CEC18CF901B7B54FD8C51F362B56FC72FE0B3C1EAE335EDCCBF5AEC39ADB17DC238973F804BA5E6F6BFE7AF1FB32E523BE9F3BD571418E3631DCA4D48
310
5250CF639223210A9446CA30052EDF057BD35F8329C1ECD84552BF0DC8D18BE7BCE23BFE6BD960AB4A7DE79923A103BEBD80F911CBAA2C60DB19B01CF164A5583B772EE6D3FFA56666CBCDA74DC97724A48F9A58967497E489C4D979006FD7A05E227A1EBDD0F737C623387A9C844D3709995625106D157315F8B8392CD4E0
310
A0B9A720C4BE9829CEF37EA1E13111214D53925356365ADA634861B52519DD27A00AEB808EAF0628E6F435519D446F45CF2C9CF5214F0A15B2F6D06B79DA3EE3CBF7F56780D2F4E7EF73A0F5E5B02A38D07DC852C6B7C1FBB6664213E0C39E3EBA7FF4E1AD23EA2829407C85E586727488B751B2DB9502BC7B228A3FD68B6E
310
A65A22397E690AA8D158D7E404EC8CDA235CC3B7D1898680131CEC2CDF2638C65196279577750F15884AEE19F94199155B92B13297978469D4F8D358DF0AEF7631E28DC8F0D9F437D5D39A83B2231A1D52D543813A824EF8D44BCFF2FA6A31BD1E8DAD87F1CCB526B3879935BF59CDADD5C37479BB1CDD4CA7B3556B516589
310
EF352754B706114D9C885EC9131DE6EFEB43D99AFE2391C2F958179413D7CFEF6B1B6DB1E7600F00DE6E5C67454A339A4BA2E0FBA85ED26F045D454F463DBFCE484C2F90F2E5E3666003662ED8F755951A7D1BECD5B30B550B2785C8E7320B7292A4838DDA71BBC863ED7613CAF659337A3354231D4FF4A182A54904C2898C
310
98B28C4AD0CE056CCF332A80986E571EE9DBC305BB5FEB7E509220A58D25CF042D712A806AC0AD0C657FDEF80D2D9CEAA2EE4D1C76F60BFE74219A06527D6F82DF6412526107381E55E353090704D085B52408A8913C4ED159D79BDA71BB4BC506F4831350EB6F975CD22D69BF7AC49B91A2C0A9DDA3D5CA36AD20FC478E37
310
E61844E2352865EBCB61A275A65283CAAA9DD27703B4102F5AF51EF5F573B75CBB5AD38BC845F7A49F82A0966A49C2E3EA5EA0ECD326CD965F1DB402C6FA8B51A4658C5C5E2EC9E214602E55810345408596591009A82E7E7FFACA19EEA299B14A0081A705CB3296EBC14CDF658DCD336EA6D1136881AAEB87B81AB9EE53D5
310
F5EB8BC8362082DA24122F98680A4E7930C01A0079749CEA14382A0783E5EBA5A10F8C098456A03D6A4AEB6BB881E2513747552A5DB22C7EDAF83BD5528081A365F7FF06504B0304140006080000CC70623B000000000000000000000000350000006662782F41393633353835312D344632462D344230382D423046372D37
310
39314545314133324237412F76657274696365732E62696E504B0304140006080800CC70623BF270F1330600000004000000360000006662782F41393633353835312D344632462D344230382D423046372D3739314545314133324237412F747269616E676C65732E62696E636660600000504B0304140006080000CC7062
310
3B000000000000000000000000370000006662782F41393633353835312D344632462D344230382D423046372D3739314545314133324237412F617474726962757465732E62696E504B0304140006080800CC70623B08DA0BD19000000041010000360000006662782F41393633353835312D344632462D344230382D4230
310
46372D3739314545314133324237412F6469726563746F72792E786D6C858F410AC3201045AF22B36F53E9A60B35CBEEBAE80D244E44489C6234F4F835464A48035D0DF398FF9F8AF63D0E6CC63039F212F8F9020C7D47C6792B21C5FE7403D62A1188E2E60C98D7234A5830286103A55745067B9D86B8A3CF9C7F90C11DE6
310
07FB144396D7B6A82D282E9A152AD114D5EF2CB866EEE831B8EEA07A7BB5A8D7D61A2BAAEB7FD5F70921FF497D00504B0304140006080800CC70623BEDD1DC58FD000000A00100003B0000006662782F41393633353835312D344632462D344230382D423046372D3739314545314133324237412F7265736F75726365732F
310
636F72652E786D6C8D504B6E833010BD0A9A6D65B00922041947112427E8052C33A156828DFCA97AFC9A40A576D7CDCCE87D344F8F9FBFE667F689CE6B6B3A6039850C8DB2A336530731DC4903D95970676DF82583CCC8193B5861107C72362E3BA4AC096842428D1D7107A5F7182053CF7474E0D507CE32973124857FE48B
310
540F3961CEF244279DE03EB81420DB9EAC1384436FA353E879B1B182C7A8C75DA3C7F453DF353A1075D537A7BA6464B8F535A99AE14A9A2BBD90E350DD183B5CFABE3AF262350B1EF4FC9351399401471025A527C218A1E53BAB5A5AB765F5469B96525EACF23FA6B88CFF34456DC2A1DCE36E360F82A5202F42F062ED2BAD
310
579969AFDD8A6F504B010214000A0000080000CC70623B3DEE336E79000000790000001B00000000000000000000000000000000006175746F6465736B2D64657369676E2D7061636B6167652E786D6C504B01021400140006080800CC70623BD486FD9CA0000000F40000001300000000000000000000000000B20000005B
310
436F6E74656E745F54797065735D2E786D6C504B01021400140006080800CC70623B853B8169EB0000007C010000080000000000000000000000000083010000636F72652E786D6C504B01021400140006080800CC70623B55019EA25F0000007C000000070000000000000000000000000094020000636E782E786D6C504B
310
01021400140006080800CC70623BDBABAAF470010000D40300000C00000000000000000000000000180300006662782F636F72652E786D6C504B01021400140006080800CC70623B9C113CC27E0000009D0000000B00000000000000000000000000B20400006662782F636E782E786D6C504B01021400140006080800CC70
310
623B7DF2F77C2A010000120200003100000000000000000000000000590500006662782F41393633353835312D344632462D344230382D423046372D3739314545314133324237412F636F72652E786D6C504B01021400140006080800CC70623BAD7543B64E010000330300003000000000000000000000000000D2060000
310
6662782F41393633353835312D344632462D344230382D423046372D3739314545314133324237412F636E782E786D6C504B01021400140006080800CC70623BE75B7789680500003C10000034000000000000000000000000006E0800006662782F41393633353835312D344632462D344230382D423046372D3739314545
310
314133324237412F6F626A656374732E786D6C504B01021400140006080000CC70623B0000000000000000000000003500000000000000000000000000280E00006662782F41393633353835312D344632462D344230382D423046372D3739314545314133324237412F76657274696365732E62696E504B01021400140006
310
080800CC70623BF270F133060000000400000036000000000000000000000000007B0E00006662782F41393633353835312D344632462D344230382D423046372D3739314545314133324237412F747269616E676C65732E62696E504B01021400140006080000CC70623B0000000000000000000000003700000000000000
310
000000000000D50E00006662782F41393633353835312D344632462D344230382D423046372D3739314545314133324237412F617474726962757465732E62696E504B01021400140006080800CC70623B08DA0BD1900000004101000036000000000000000000000000002A0F00006662782F41393633353835312D344632
310
462D344230382D423046372D3739314545314133324237412F6469726563746F72792E786D6C504B01021400140006080800CC70623BEDD1DC58FD000000A00100003B000000000000000000000000000E1000006662782F41393633353835312D344632462D344230382D423046372D3739314545314133324237412F7265
310
736F75726365732F636F72652E786D6C504B0506000000000E000E0080040000641100000000
  0
XRECORD
  5
3C
102
{ACAD_REACTORS
330
3B
102
}
330
3B
100
AcDbXrecord
280
     1
102
MATERIAL
148
0.0
149
0.0
149
0.0
 93
        0
 94
      127
282
     0
 72
     1
 77
     1
171
     1
175
     1
179
     1
273
     0
  0
XRECORD
  5
3D
102
{ACAD_REACTORS
330
3B
102
}
330
3B
100
AcDbXrecord
280
     1
 70
     1
 90
429727718
  1
30362254-06B7-45E0-A893-8CFA70E3D6BC
310
504B03040A0000080000CC70623B3DEE336E79000000790000001B0000006175746F6465736B2D64657369676E2D7061636B6167652E786D6C3C3F786D6C2076657273696F6E3D22312E302220656E636F64696E673D227574662D3822203F3E3C666F726D6174733E3C666F726D61743E687474703A2F2F736368656D612E
310
6175746F6465736B2E636F6D2F64657369676E2D7061636B6167652F323030393C2F666F726D61743E3C2F666F726D6174733E504B0304140006080800CC70623BD486FD9CA0000000F4000000130000005B436F6E74656E745F54797065735D2E786D6C7D8EC10E82300C865F65E91D8A1E8C310C0EEA1BF002731658846E
310
D98AC1B77784ABF1D8FE5FBFBF75BBCE937A534CCEB38643598122B6FEE978D0B0485F9C41B54DDD7D022595594E1A469170414C76A4D9A4D207E29CF43ECE46F218070CC6BECC4078ACAA135ACF422C856C0E68EA1BF5669944DDD7BCDE7B1F8E415D77AECB980613C2E4AC91FC167A2B244592486606FC29C8FD7F045B9A
310
EF7053A7E60B504B0304140006080800CC70623B1EC5D7A3EB0000007C01000008000000636F72652E786D6C8D90416EC3201045AF82665B6103C6756C6122AB4D4ED00B204C5C94182C03558F5F9C3852BBEB6A467FFE9B197D71FC9E6FE8CBACC17AD7032D0820E3B41FAD9B7A48F1820F808E52ACDEC75F36404ECDA687
310
4D0629A6D5A76597B477D1B89855E747B38B2A041301E95B6E7A08FAD3CCAA50296647B8168BD2573599823EBB0CA76447F43862C7BCCF5EAC59410E4DDD9C7973C2755553CCCFA4C603E3040F1565ED3B1FDE4E432BCA0D9622DAF9795FAF464533826484B498524CD807E51D79ED187F21878E10516EF63F505AC67F42C9
310
BA58B1FDDD071640D2FCC87D2045B96591CB3DA85CB7DCE40F504B0304140006080800CC70623B55019EA25F0000007C00000007000000636E782E786D6C4DCB3B0E80201045D1AD90E915ED2CF8AC45050C11660C8261F98AB1B07AC9C97D42D718D865D3E909258CFD00CCE24AC6E326A164D74DC0B4128928FF32603847
310
2BA13128B1252AC747C6BAB984FC68F0B87FE8960A5C09FE86CFB69FBA01504B0304140006080800CC70623B8C9102E971010000D40300000C0000006662782F636F72652E786D6CC5535B6E833010BC8AE5DF0A6C08340F1947A84D4ED00B38C6A128602363A31CBFCB234A53A551FA553EC09AD9F5CE8C31DB9E9B1AF5CA
310
7695D1198E428A91D2D214952E33ECDD315861B4E5CC1AE3BE9561A445A3323CC098B3D21ADFCE9034DA29ED00D5A6503328BA4E398C640D8B0C77F253352214DE4145770A5B214FA2546114020D759C75CE8200340D19DE981F0F6746269C33EFAB6266AB02A655C74A59CCF365BADC27CB5D902ED22848F6340DF238A141
310
BE88E2F57B92BFEDF23523433367AE6A2EEAA455C2A902F398D2751045018D3FA264435F3771F242571B4A1919CA6F9A7C5B3CD9E42BED16F12C776AEB308F40C848FC700B1139D4891EF410CEC810227CC6846F8386402064270EF5C5C709A05E49676C024C61FC95EA45ED154CA5211D1FF4FB8291A913A68E9B83EBBB33
310
E2A7673CDE118E5AE8124C0807CB8377834E366998436B950D7A7746DAD846D4CFD978E0F04FD455FC5D49D2D4C6FE9722321F10997F0F32DC47FE05504B0304140006080800CC70623BFFEA85907E0000009D0000000B0000006662782F636E782E786D6C4DCCD10A83201886E15B91FFDC95D95A811AB6F23E625948A6C3
310
E9D8E5AF46073BFAE0E1E365ED67B3E8ADC3CB78C7815C7240DA3DFC64DCC221C519D7805AC182F7F1EF06C88D9BE6703008B6049F9E274D7A1E938DBB5AE3D6131B2589BA0D3D965551E0B2EA732C9B9A624AAEB41E3A557677029960D9AFB4EF11165F504B0304140006080800CC70623B4FEEA4082C0100001202000031
310
0000006662782F39464131463745442D413632322D343644302D413938332D3331353338454246344243312F636F72652E786D6C8D515B6EC32010BC0AE2AB55850DD871ED0813254D72825EC00192A2C460F1A872FC42ED48ED5F7E00CDCECCCEB26C731F6FE05B39AFADE921293004CA082BB5B9F43086336A21D870E6AC
310
0D7F68109861543DCC30E4ECE26C9C164858139409093556AA051CBC570102714B8F1E7AF1A5C6A11862480C7F2DA6415C878B2A4891CA89C7990F2E050073937C42DE1DB7E4F87ED8A36D4329AA9B3D46DBAEAD504556557BD81DEBDD0761E52CE42C462D17B996298E3E6BE59E35C962CE821E1FF18553435012728A7187
310
0841987E927A8D9B35ADDF70BBC6989599FE4F1427F9A4286A132ABAC49D651EF234CD5CE04CDA78BA3DC2A8FB645D00B9DF8B57E215725C60BCA2A463E54C4CE327C7A65E1C7DB02E7DEFCBF594B864C5CA6CDBD49C957943E9FA5D5FBAF336F90F504B0304140006080800CC70623BAD7543B64E01000033030000300000
310
006662782F39464131463745442D413632322D343644302D413938332D3331353338454246344243312F636E782E786D6CD593CD6EC32010845F0571AD6CE3D48AD20813A9873E410FBD12D82434182C7EAAE6EDBB2424CD25871E7B41D6EC30B3FA84F9E67BB2E40B4234DE8DB46F1925E094D7C6ED479AD3AE5951B2113C
310
789FEE6C943839C1488B4C05DF079FE72A69D8C96C13AAD6B8631503449F83828872B949AC57D26200B826A308D316B4064D6E46FCDA41C05550DC9E483A00797BFD207EFB092A45DE9514C1BBD22178396BD39D891265658C238DEA00936C654E5E433CB65A26D9F6EDB5EBC14EBF49A45CB856E66048291F6939A9A81BB5
310
C8917738143CA680F4AA299D66A042CEB3354A2684DC9D8D178FE0D9B8B41CAAD720F880EE7EF93C0C18769E099ECC04D5A102C8049A8A05632F4DDF376CF1DE0F6BB65C2F8627B65A33C6BB62177CEBBDAD973006829F89F22E814B54F4BC2BE347F8AA8F681390B50FA73F804400B5F542E796F19FF974E7F78DB802FE05
310
E207504B0304140006080800CC70623B16AB87BA640500003C100000340000006662782F39464131463745442D413632322D343644302D413938332D3331353338454246344243312F6F626A656374732E786D6CAD575B6FA33818FD2B887DE6924B3BED8A326A92B68A663B534DD4D13E548A0C38942D60649B369D5FBFC7
310
600890A493BDE42160637FD7F31D7FF63E6FB3D478A55C242CBF3247B66B1A340F5994E4F19559CA8D75611A9F7D8F33263BCB4C232719BD32D5B4E97B316765A1A722BA21652A07B3B7B33F0D11D29C9A46981221AE4C113ED38CD8A4942CA2E2C58E882476BCD9DA23BB5ED8171B73523C0F841684D35CC252CCE79062D4
310
468DFA43D7747CCF51DF7D4FFDEB5593E3AB9CCA9FBEFE241792E4E19EB28198C968BAB8199F5D5A67D3E9C49A9E8F47D6EC76B6B0469F26EEFC7C3EBFBCBEB98462213924694B38DD98FE1D62C393D073EA4FADC5DAF04326852CCF6958F90F0F2B9BB5C48816348F90C7840A68EB78EDF68723159BCEE7891A6B95DDE9D3
310
BCEAEEE8086A6C6F9E5D4B59F0175C10A7A0820BAA5055C7473B5AE3CFDD452D602CD5DF12616444529E90D448938013FE6EFA58AA96F85E4F8C42275708571E98FE6827AF6B2B4AE3D7D83D64E5A64C53054DD3AF90BD06FEA9149565C94FCA0F6B834DC85599E4F2423B24DF0B6AFA979E534DFA9E7A4CC6FA631D486393
310
921829879BF5D781A373557BCB85E97FB90DB62B558F8795179C15944B051F40AB495CF35451D26A4727654E6D8033BD98EF82F21D91FF8AF2DD9982BCF1643BDD4EB516C9492E368C67C88DED563FC36D5EACF66DFF057C3658BDBFA69DF9578B3DA735B64F18C7F20770A9D45CFCF7FCF563D6456A277DBEF78A02637CA2
310
43B90A490AEAB94F72244481D24819A6C0E59B606BFA4B3025981DBB48EAB701D97BF19C577CC77F2D1B6C55A9EF3C732474C0B727303F625995056C3B02963D9EAC146BE78EC5FCEC7FA999EBC5EACBAAE41B12D27B4D2C0BBA49F244E2ECDC81B76B502F113D8F5EE8FB1BE3111CDD4FC2AA9B844CAB1288B68AB90A7CDC
310
1C166AB0D3DC5310625FCC14E779BFD0709F8890A629C9292B1B2DED31A4B0DA928CEE135085754027E3018A397D4D5427D15BD1330B677DC8934285AC3DF45A9EB68FF8F2B8FC0A509AFEECFD0FF2DE25CC6047F7214B195F07EFEB9A094D800F7BFAE8FED187B78EA8A3A400F115961BCAD1215E47C966530AF0EE8128FE
310
58CEBB996A8964FFA529A046635D9353B0336A8F700DDF46271A024E70B0B37C9DE01847591E54DED53D54202AB947E4076556AC49C6CA5C9E1226B7F1A7B1BE15DEED62C41B91E1B3E9AFAAA735036547343A925075041DF0A9979E893B391F8FCFA6967B3EFB644DCF6E5CEBFAE272625DCC6FAF3FB93793C5F90CE1EF57
310
407342756B10D1C489E8953CD1617E5CEECAD6F4EF8914CE5D5D504E5C3F1F9736DA62CFC11E00BCDDB8CC8A9466349744C1F75EBDA4DF09BA8A9E8C7A7E9991989E20E5DBDD6A6003664ED8F7A04A8DBE0DF6EAD9B9AA858342E47399053949D2C146EDB85DE4B176BB0965FBAC19BD19AA918E27FA50C1D22402E144464C
310
59462568E704B6E71915404CB72B8FF4EDE184DDAF753F284990D2C6926782963815403548A70C657FDEF80D2D9CEAA2AE4C1C76F60BFE74219A06527D6582DF6412526107381E55E353090704D085B52408D0933C4ED159D79BDA71BB4BC506F4831350EB6F979CD22D69BF7AC49B91A2C0A9DDA3D5CA36AD20FC478E37E6
310
1844E2352865EBCB6EA275A652E3836BE04EFB400BF1A2556F515F1FBB35B2AB35BD889C744FFA1004B5544B121E57F70215746DD2F5E2C1412B602CBF19455AC6C8E5E9922C4E01E65215385004546899059180EAFCF7A707CE7017CD8CDB0410789AB32C63B91E5CEBBBACB17AC6CD347A022D5075FD106377347AAABA7E
310
7D11590744509B44E205134DC1290F06580320F78E537D3D73540E06CB970B431F185308AD40BBD794D6D77003C5A36E8EAA54BA64597CD8F83BD552A080A365F7FF06504B0304140006080000CC70623B000000000000000000000000350000006662782F39464131463745442D413632322D343644302D413938332D3331
310
353338454246344243312F76657274696365732E62696E504B0304140006080800CC70623BF270F1330600000004000000360000006662782F39464131463745442D413632322D343644302D413938332D3331353338454246344243312F747269616E676C65732E62696E636660600000504B0304140006080000CC70623B
310
000000000000000000000000370000006662782F39464131463745442D413632322D343644302D413938332D3331353338454246344243312F617474726962757465732E62696E504B0304140006080800CC70623B08DA0BD19000000041010000360000006662782F39464131463745442D413632322D343644302D413938
310
332D3331353338454246344243312F6469726563746F72792E786D6C858F410AC3201045AF22B36F53E9A60B35CBEEBAE80D244E44489C6234F4F835464A48035D0DF398FF9F8AF63D0E6CC63039F212F8F9020C7D47C6792B21C5FE7403D62A1188E2E60C98D7234A5830286103A55745067B9D86B8A3CF9C7F90C11DE607
310
FB144396D7B6A82D282E9A152AD114D5EF2CB866EEE831B8EEA07A7BB5A8D7D61A2BAAEB7FD5F70921FF497D00504B0304140006080800CC70623B0D6EF93BFE000000A00100003B0000006662782F39464131463745442D413632322D343644302D413938332D3331353338454246344243312F7265736F75726365732F63
310
6F72652E786D6C8D50596E833010BD0A9ADFCA60B334011947A8694ED00B586642AC041B79A97AFC9A40A5F6AF3F33A3B7689E1E3F7DCD8FEC139DD7D6F4C0720A191A65476DA61E62B892236427C19DB5E1970C322367EC618541F0C9D9B8EC90B226A009093576C41D94DE63804C3DD2D18357379C652E63480A7FCF17A9
310
EE72C29CE5894E3AC17D702940B63D59270887DE46A7D0F36263058F518FBB468FE9A7BE6A7420864373B8D4873369AA8691FA421B3294352543C5CAF65C0F6FEF43CB8BD52C78D0F34F46E550061C419494B6843142CB0F5677F4B52BEB177AEC28E5C52AFF638ACBF84F53D42654E51E77B379102C05791282176B5F693D
310
CB4C7BED567C03504B010214000A0000080000CC70623B3DEE336E79000000790000001B00000000000000000000000000000000006175746F6465736B2D64657369676E2D7061636B6167652E786D6C504B01021400140006080800CC70623BD486FD9CA0000000F40000001300000000000000000000000000B20000005B
310
436F6E74656E745F54797065735D2E786D6C504B01021400140006080800CC70623B1EC5D7A3EB0000007C010000080000000000000000000000000083010000636F72652E786D6C504B01021400140006080800CC70623B55019EA25F0000007C000000070000000000000000000000000094020000636E782E786D6C504B
310
01021400140006080800CC70623B8C9102E971010000D40300000C00000000000000000000000000180300006662782F636F72652E786D6C504B01021400140006080800CC70623BFFEA85907E0000009D0000000B00000000000000000000000000B30400006662782F636E782E786D6C504B01021400140006080800CC70
310
623B4FEEA4082C0100001202000031000000000000000000000000005A0500006662782F39464131463745442D413632322D343644302D413938332D3331353338454246344243312F636F72652E786D6C504B01021400140006080800CC70623BAD7543B64E010000330300003000000000000000000000000000D5060000
310
6662782F39464131463745442D413632322D343644302D413938332D3331353338454246344243312F636E782E786D6C504B01021400140006080800CC70623B16AB87BA640500003C1000003400000000000000000000000000710800006662782F39464131463745442D413632322D343644302D413938332D3331353338
310
454246344243312F6F626A656374732E786D6C504B01021400140006080000CC70623B0000000000000000000000003500000000000000000000000000270E00006662782F39464131463745442D413632322D343644302D413938332D3331353338454246344243312F76657274696365732E62696E504B01021400140006
310
080800CC70623BF270F133060000000400000036000000000000000000000000007A0E00006662782F39464131463745442D413632322D343644302D413938332D3331353338454246344243312F747269616E676C65732E62696E504B01021400140006080000CC70623B0000000000000000000000003700000000000000
310
000000000000D40E00006662782F39464131463745442D413632322D343644302D413938332D3331353338454246344243312F617474726962757465732E62696E504B01021400140006080800CC70623B08DA0BD190000000410100003600000000000000000000000000290F00006662782F39464131463745442D413632
310
322D343644302D413938332D3331353338454246344243312F6469726563746F72792E786D6C504B01021400140006080800CC70623B0D6EF93BFE000000A00100003B000000000000000000000000000D1000006662782F39464131463745442D413632322D343644302D413938332D3331353338454246344243312F7265
310
736F75726365732F636F72652E786D6C504B0506000000000E000E0080040000641100000000
  0
XRECORD
  5
E
102
{ACAD_REACTORS
330
D
102
}
330
D
100
AcDbXrecord
280
     1
102
MATERIAL
148
0.0
149
0.0
149
0.0
 93
        0
 94
      127
282
     0
 72
     1
 77
     1
171
     1
175
     1
179
     1
273
     0
  0
XRECORD
  5
F
102
{ACAD_REACTORS
330
D
102
}
330
D
100
AcDbXrecord
280
     1
270
     1
271
     1
  0
XRECORD
  5
10
102
{ACAD_REACTORS
330
D
102
}
330
D
100
AcDbXrecord
280
     1
270
     1
271
     1
  0
XRECORD
  5
11
102
{ACAD_REACTORS
330
D
102
}
330
D
100
AcDbXrecord
280
     1
 70
     0
 90
1673772943
  1
ECE7A1D2-D628-4531-984C-D00F80459256
310
504B03040A0000080000CC70623B3DEE336E79000000790000001B0000006175746F6465736B2D64657369676E2D7061636B6167652E786D6C3C3F786D6C2076657273696F6E3D22312E302220656E636F64696E673D227574662D3822203F3E3C666F726D6174733E3C666F726D61743E687474703A2F2F736368656D612E
310
6175746F6465736B2E636F6D2F64657369676E2D7061636B6167652F323030393C2F666F726D61743E3C2F666F726D6174733E504B0304140006080800CC70623BD486FD9CA0000000F4000000130000005B436F6E74656E745F54797065735D2E786D6C7D8EC10E82300C865F65E91D8A1E8C310C0EEA1BF002731658846E
310
D98AC1B77784ABF1D8FE5FBFBF75BBCE937A534CCEB38643598122B6FEE978D0B0485F9C41B54DDD7D022595594E1A469170414C76A4D9A4D207E29CF43ECE46F218070CC6BECC4078ACAA135ACF422C856C0E68EA1BF5669944DDD7BCDE7B1F8E415D77AECB980613C2E4AC91FC167A2B244592486606FC29C8FD7F045B9A
310
EF7053A7E60B504B0304140006080800CC70623BD9DDAED0EC0000007C01000008000000636F72652E786D6C8D90416EC3201045AF82665B61836D9CD8C2444DD39CA01740405C94182C03558F5F9C3852BBEB6A467FFE9B197D7EF89E6EE8CB2CC17A37002D0820E394D7D68D03A478C17B4007C117EFE32F1B20272733C0
310
2A83E0E3E2D3BC49CABB685CCCAAF3DA6CA20CC14440EA969B0182FA34932C648AD911AEC52CD5558EA6A0CF2EC329598D1E47ACCEFBECC59A050463A7EA5833865FEBDD0E37353BE3EE8DBDE3F6786A48D375FBF6CC78B9C282473B3DEFABC5C86834888A900E538A49F5419B9EB47DD5BC907D4F082F57FB1F28CDFA9F50
310
B22ED6D5F6EE030B20687EE43E10BC5CB3C8E51E54AE6B6EE207504B0304140006080800CC70623B55019EA25F0000007C00000007000000636E782E786D6C4DCB3B0E80201045D1AD90E915ED2CF8AC45050C11660C8261F98AB1B07AC9C97D42D718D865D3E909258CFD00CCE24AC6E326A164D74DC0B4128928FF326038
310
472BA13128B1252AC747C6BAB984FC68F0B87FE8960A5C09FE86CFB69FBA01504B0304140006080800CC70623BA24EB22D72010000D40300000C0000006662782F636F72652E786D6CC5535B6E833010BC8AE5DF0A6C5E49888CA3A6694ED00B38E05014B091B1518EDFE511A5A9D228FD2A1F60CDEC7A67C6986DCE4D8D7A
310
69BA4AAB0C073EC548AA5C17952A33ECECD15B61B4E1CC686DBF9561A44423333CC098B3D268D7CE50AE9595CA02AA74216750749DB418E5352C32DCE59FB211BE70162ABA93DF8AFC244AE9073ED050C759670D0840D390E18DF9F1706664C23973AE2A66B62A605A75ACA4C13C4976E1364A12EF355A2EBD384AF65EFA96
310
BC7B8BED2EA6719AAE16FB8491A199335B351775B991C2CA02F390D2D40B028F861F41BCA68B7518BFD0D59A524686F29B26D7164F36B94AD9289CE54E6D1DE6010819891F6E21228B3AD1831EC219194284CF98F06DD01008846CC5A1BEF83801D4CBDC6A1303536877A57A513B0953A94FC707FDBE6064EA84A9E3E6E0FA
310
EE8CF0E9198F7784A316AA0413C2C2F2E0ECA0934D1AE6D05A69BCDE9E91D2A611F573361E38FC1375157F5752AE6B6DFE4B11990F88CCBF0719EE23FF02504B0304140006080800CC70623B408A7D3B7C0000009D0000000B0000006662782F636E782E786D6C4DCCD10A83201886E15B91FFDC552A92A0064DBC8F581632
310
D3703A76F9ABD1C18E3E78F878E5F0D9027ABBFCF2292AE86E2D20171F69F6715550CB827B40839639A5F2770314A7CD293819B45C73AAFB45B35BA61ACAA1C1C7E7855C58C15BC331339661262CC762340413D68D77DA5B42298546CBE6573AF60CEB2F504B0304140006080800CC70623B449FB9BD290100001202000031
310
0000006662782F36394639363044362D344446342D343946362D394244322D3234314243333846323333332F636F72652E786D6C8D515B6EC32010BC0AE22B55850D98B871848994463E412FE002495162B07854397EA176A4F62F3F2C9A9D991D587EB84F37F0AD7D30CEF6905418026DA553C65E7A98E219ED203808EE9D
310
8B7F6810D871D23D2C3014FCE25D9A57483A1BB58D19B54EE9151C43D0110279CB971E06F9A5A7B11A53CC8C70ADE6515EC78BAE4895DB992778883E0700CB907242D17643D7E2538BD869608875438BBAE38922CAC8F1BDD90DB4691A5E2F42C153326A951B95E398B3D1FE599322163C9AE9115F7A3D46ADA0A018778810
310
84E907617BDCEE297BC5BB3DC6BC2EF47FA234AB2745C9D8D8D035EE220B50105E2F0DC1954B9FB747187D9F9D8FA0CCDB042D5FA0C015C65B42DF78BD10F3F3B363CB56C7109DCFDFBBB97E662ED92EB62D13BC2E1BCAE5777DB9966D8A1F504B0304140006080800CC70623BAD7543B64E01000033030000300000006662
310
782F36394639363044362D344446342D343946362D394244322D3234314243333846323333332F636E782E786D6CD593CD6EC32010845F0571AD6CE3D48AD20813A9873E410FBD12D82434182C7EAAE6EDBB2424CD25871E7B41D6EC30B3FA84F9E67BB2E40B4234DE8DB46F1925E094D7C6ED479AD3AE5951B2113C789FEE
310
6C943839C1488B4C05DF079FE72A69D8C96C13AAD6B8631503449F83828872B949AC57D26200B826A308D316B4064D6E46FCDA41C05550DC9E483A00797BFD207EFB092A45DE9514C1BBD22178396BD39D891265658C238DEA00936C654E5E433CB65A26D9F6EDB5EBC14EBF49A45CB856E66048291F6939A9A81BB5C89177
310
38143CA680F4AA299D66A042CEB3354A2684DC9D8D178FE0D9B8B41CAAD720F880EE7EF93C0C18769E099ECC04D5A102C8049A8A05632F4DDF376CF1DE0F6BB65C2F8627B65A33C6BB62177CEBBDAD973006829F89F22E814B54F4BC2BE347F8AA8F681390B50FA73F804400B5F542E796F19FF974E7F78DB802FE05E20750
310
4B0304140006080800CC70623B8D05915C650500003B100000340000006662782F36394639363044362D344446342D343946362D394244322D3234314243333846323333332F6F626A656374732E786D6CAD575B6FA33814FE2B887D06429276DA1565D4266D158D3A339A6846FB502932E050B66023DB74D2FDF5FB190C01
310
9276B2973C046C8ECFF53B17071F77456EBD502133CEAE6CDF9DD81665314F32965ED995DA3A17B6F5310C04E7AA47665B8C14F4CAD6DB7618A48257A5D94AE89654B91AEDDEDDFC61C998326A5B714EA4BCB265FC440BE2924AF184CA6737218AB8E976E7FA6E4338649B0A523E8D98964450A6A029F619B8588D52FE7039
310
B1BD30F0F4F730D0FF866AF6369557DB33949F31A9088B0F848DD8CCFCF9F2767A76E99CCDE733677E3EF59D9BBB9BA5E37F984D16E78BC5E5F5ED25044B25C0C96822E8D60EEFE11B91C581D77CEA34368A1F5329E68CD1B8B61F16D63A1B8E092D294B10C78C4A48EB593D192E7DED9BDEE7995E1B91FDEDD3ACEA9FE831
310
6A756F9F7D4D79F4274C90A7A04248AA51D5F8C718DAE06FB2F75AC4796EBE65D22A88A22223B995679120E2D50E41AA49C260C046A35368846B0BECD0DFF3EBEB8AD4F835768F69B9ADF25C43D30E6B646F807FAA64AD59F61715C7A54127C4AACA98BA3006A9D792DAE165E0D59B61A01FB3A9F9D838D2DAE62445C86166
310
F37564E842E7DE6A69879FEEA2DD5AE7E371E1A5E025154AC307D06A03D73EB5978C58FFA4C8E9033066E0F3BD53BEC1F39F91BE7B55103791EDE6BBB991A2046172CB4581D8B893FA674DDA17A77B3B7C413D1B511FD2743BFF8A38F03A658705E3ADF8015C3A3417FF3D7E439FF591DA0B5F18BC20C1B8981957AE6392A3
310
F43C640C01D1A0B4728E2DD4F26DB4B3C3152A252A3B4E913CEC1C72F012782FF88EFF8637AA552DBEF76408E8A8DE9E50F9E1CB3A2DA0DB1B6039A893B56063DC5B3E3FFB5F72E67AB9FEB4AEC496C4F4C1149625DD662C53E89D7BF0F6151A046260D1337DFDC94502430F83B0EE07A130A224BCAD7DAE1D9FB6CD422FF6
310
920702629C4BB9AE79C12F243C6432A6794E18E5552BA56B431AAB5D91317302B2B071E86C3A42B1A02F999E24061403B5D0EB639195DA655DD3EBEAB4FB862DDF579F014AD0E73C22F99E28DA57FB98E75C6CA2D74D53086D600F4786E0FE3144B771A8A7B900F03594DB8A633CBC49B2EDB69228BB479CF863B5E807AAAB
310
23872F6DFEB4129B949CA33823F58830E86D65621E10047D9DB34D862E8EAC3C2ABC2F7B2C40D67CDFE01F5545B92105AF983AC54D93D69E56FB8E797F88913F898A9FEC705D3F9D1B54EC8426FB500D40A03BD0119B06E1B95DDC7EB8F6975367793EBD70E66733DFB9BC982F9CE564727731999F5D4ECFCE3B8D6A4DC2A0
310
6D50FD148437D110834A64C6CDDF57FBACB5C307A2A477DFE4939736CFEF2B175371E0E10CF0DD1D5C15654E0BCA14D1E87DD02FF93782A162C0A3D95F1524A52770F972BF1EE9809D13CE7DD599467F8ECE9ADD85CE85A34CD45355448C64F9E8A031DC2D596ACC6E5DD93D9B82DE2EF5CAF81363A8E47996A0DE24564A79
310
4115AACE09C55E14540231FDA13C319787134EBF34E3A022514E5B4D9E0826E25C02D5805B15ABE1BEF51B26383D445DD9E875EE33FE4C22DA16427D65A3BCA92CA6D28DD01DF5DC53330704308475351050232CCD31583787BA75774AFB06E5070DD0C8EF484E19968C5D83BA5B90B244D31E54D55A372320FE4786B7EA58
310
44E135AA5467CB7EA333A61683CC6A8C3257034C10CF46F40EF9F5BE59BE5BD30C3C72D235E95D10345C1D45445A5F0BB47E46A5EBE5570F9380B5FA629579952296A773720405982B9DE04011506178964401AA8BDF1FBF0A8EAB6861DD6580C0E38217056766716DAEB2D6FA0917D3E4116581EADB879C4E7CFFB11EFACD
310
3D641311495D92C8676CB409A72D18610D803CE8A626049E8EC1887CB5B44CC39883690DDA8399B4B9855B481E7D71D4A9D22F96E5BB73BF5793020C02137BF837504B0304140006080000CC70623B000000000000000000000000350000006662782F36394639363044362D344446342D343946362D394244322D32343142
310
43333846323333332F76657274696365732E62696E504B0304140006080800CC70623BF270F1330600000004000000360000006662782F36394639363044362D344446342D343946362D394244322D3234314243333846323333332F747269616E676C65732E62696E636660600000504B0304140006080000CC70623B0000
310
00000000000000000000370000006662782F36394639363044362D344446342D343946362D394244322D3234314243333846323333332F617474726962757465732E62696E504B0304140006080800CC70623B08DA0BD19000000041010000360000006662782F36394639363044362D344446342D343946362D394244322D
310
3234314243333846323333332F6469726563746F72792E786D6C858F410AC3201045AF22B36F53E9A60B35CBEEBAE80D244E44489C6234F4F835464A48035D0DF398FF9F8AF63D0E6CC63039F212F8F9020C7D47C6792B21C5FE7403D62A1188E2E60C98D7234A5830286103A55745067B9D86B8A3CF9C7F90C11DE607FB14
310
4396D7B6A82D282E9A152AD114D5EF2CB866EEE831B8EEA07A7BB5A8D7D61A2BAAEB7FD5F70921FF497D00504B0304140006080800CC70623BCA768048FE000000A00100003B0000006662782F36394639363044362D344446342D343946362D394244322D3234314243333846323333332F7265736F75726365732F636F72
310
652E786D6C8D50596E833010BD0A9ADFCA60D600328E9AA639412F609909B1126CE4A5EAF16B0295DABFFECC8CDEA2797AECF8353F924FB44E193D409E5248504B332A3D0D10FC95B4901C39B3C6F85F3248B49871801506CE266BC2B243D2688FDA47549B11775038871E12F988C7004EDE7016A9083E2ADC3D5D84BC8B09
310
D33C8D74D471E6BC8D0192EDC93A815B742658898E651BCB59086ADC356A8C3FD555A1055ED7E7E254D615792D0F075295F585746FF53B694EE78A565DD736979A65AB9933AFE69F8CD2A2F038022F28ED489E135A7CE4554F9BBEA85E68DB53CAB255FEC71496F19FA6A0B42F8B3DEE6673C0F318E4497096AD7DC5F52C33
310
EEB55BFE0D504B010214000A0000080000CC70623B3DEE336E79000000790000001B00000000000000000000000000000000006175746F6465736B2D64657369676E2D7061636B6167652E786D6C504B01021400140006080800CC70623BD486FD9CA0000000F40000001300000000000000000000000000B20000005B436F
310
6E74656E745F54797065735D2E786D6C504B01021400140006080800CC70623BD9DDAED0EC0000007C010000080000000000000000000000000083010000636F72652E786D6C504B01021400140006080800CC70623B55019EA25F0000007C000000070000000000000000000000000095020000636E782E786D6C504B0102
310
1400140006080800CC70623BA24EB22D72010000D40300000C00000000000000000000000000190300006662782F636F72652E786D6C504B01021400140006080800CC70623B408A7D3B7C0000009D0000000B00000000000000000000000000B50400006662782F636E782E786D6C504B01021400140006080800CC70623B
310
449FB9BD290100001202000031000000000000000000000000005A0500006662782F36394639363044362D344446342D343946362D394244322D3234314243333846323333332F636F72652E786D6C504B01021400140006080800CC70623BAD7543B64E010000330300003000000000000000000000000000D20600006662
310
782F36394639363044362D344446342D343946362D394244322D3234314243333846323333332F636E782E786D6C504B01021400140006080800CC70623B8D05915C650500003B10000034000000000000000000000000006E0800006662782F36394639363044362D344446342D343946362D394244322D32343142433338
310
46323333332F6F626A656374732E786D6C504B01021400140006080000CC70623B0000000000000000000000003500000000000000000000000000250E00006662782F36394639363044362D344446342D343946362D394244322D3234314243333846323333332F76657274696365732E62696E504B010214001400060808
310
00CC70623BF270F13306000000040000003600000000000000000000000000780E00006662782F36394639363044362D344446342D343946362D394244322D3234314243333846323333332F747269616E676C65732E62696E504B01021400140006080000CC70623B00000000000000000000000037000000000000000000
310
00000000D20E00006662782F36394639363044362D344446342D343946362D394244322D3234314243333846323333332F617474726962757465732E62696E504B01021400140006080800CC70623B08DA0BD190000000410100003600000000000000000000000000270F00006662782F36394639363044362D344446342D
310
343946362D394244322D3234314243333846323333332F6469726563746F72792E786D6C504B01021400140006080800CC70623BCA768048FE000000A00100003B000000000000000000000000000B1000006662782F36394639363044362D344446342D343946362D394244322D3234314243333846323333332F7265736F
310
75726365732F636F72652E786D6C504B0506000000000E000E0080040000621100000000
  0
XRECORD
  5
12
102
{ACAD_REACTORS
330
D
102
}
330
D
100
AcDbXrecord
280
     1
270
     1
271
     1
  0
XRECORD
  5
13
102
{ACAD_REACTORS
330
D
102
}
330
D
100
AcDbXrecord
280
     1
270
     1
271
     1
  0
CELLSTYLEMAP
  5
3C2
102
{ACAD_REACTORS
330
48
102
}
330
48
100
AcDbCellStyleMap
 90
        3
300
CELLSTYLE
  1
TABLEFORMAT_BEGIN
 90
        5
170
     1
 91
        0
 92
    32768
 62
   257
 93
        1
300
CONTENTFORMAT
  1
CONTENTFORMAT_BEGIN
 90
        0
 91
        0
 92
      512
 93
        0
300

 40
0.0
140
1.0
 94
        5
 62
     0
340
23
144
6.0
309
CONTENTFORMAT_END
171
     1
301
MARGIN
  1
CELLMARGIN_BEGIN
 40
1.5
 40
1.5
 40
1.5
 40
1.5
 40
0.18
 40
0.18
309
CELLMARGIN_END
 94
        6
 95
        1
302
GRIDFORMAT
  1
GRIDFORMAT_BEGIN
 90
        0
 91
        1
 62
     0
 92
       -2
340
26
 93
        0
 40
1.125
309
GRIDFORMAT_END
 95
        2
302
GRIDFORMAT
  1
GRIDFORMAT_BEGIN
 90
        0
 91
        1
 62
     0
 92
       -2
340
26
 93
        0
 40
1.125
309
GRIDFORMAT_END
 95
        4
302
GRIDFORMAT
  1
GRIDFORMAT_BEGIN
 90
        0
 91
        1
 62
     0
 92
       -2
340
26
 93
        0
 40
1.125
309
GRIDFORMAT_END
 95
        8
302
GRIDFORMAT
  1
GRIDFORMAT_BEGIN
 90
        0
 91
        1
 62
     0
 92
       -2
340
26
 93
        0
 40
1.125
309
GRIDFORMAT_END
 95
       16
302
GRIDFORMAT
  1
GRIDFORMAT_BEGIN
 90
        0
 91
        1
 62
     0
 92
       -2
340
26
 93
        0
 40
1.125
309
GRIDFORMAT_END
 95
       32
302
GRIDFORMAT
  1
GRIDFORMAT_BEGIN
 90
        0
 91
        1
 62
     0
 92
       -2
340
26
 93
        0
 40
1.125
309
GRIDFORMAT_END
309
TABLEFORMAT_END
  1
CELLSTYLE_BEGIN
 90
        1
 91
        1
300
_TITLE
309
CELLSTYLE_END
300
CELLSTYLE
  1
TABLEFORMAT_BEGIN
 90
        5
170
     1
 91
        0
 92
        0
 62
   257
 93
        1
300
CONTENTFORMAT
  1
CONTENTFORMAT_BEGIN
 90
        0
 91
        0
 92
      512
 93
        0
300

 40
0.0
140
1.0
 94
        5
 62
     0
340
23
144
4.5
309
CONTENTFORMAT_END
171
     1
301
MARGIN
  1
CELLMARGIN_BEGIN
 40
1.5
 40
1.5
 40
1.5
 40
1.5
 40
0.18
 40
0.18
309
CELLMARGIN_END
 94
        6
 95
        1
302
GRIDFORMAT
  1
GRIDFORMAT_BEGIN
 90
        0
 91
        1
 62
     0
 92
       -2
340
26
 93
        0
 40
1.125
309
GRIDFORMAT_END
 95
        2
302
GRIDFORMAT
  1
GRIDFORMAT_BEGIN
 90
        0
 91
        1
 62
     0
 92
       -2
340
26
 93
        0
 40
1.125
309
GRIDFORMAT_END
 95
        4
302
GRIDFORMAT
  1
GRIDFORMAT_BEGIN
 90
        0
 91
        1
 62
     0
 92
       -2
340
26
 93
        0
 40
1.125
309
GRIDFORMAT_END
 95
        8
302
GRIDFORMAT
  1
GRIDFORMAT_BEGIN
 90
        0
 91
        1
 62
     0
 92
       -2
340
26
 93
        0
 40
1.125
309
GRIDFORMAT_END
 95
       16
302
GRIDFORMAT
  1
GRIDFORMAT_BEGIN
 90
        0
 91
        1
 62
     0
 92
       -2
340
26
 93
        0
 40
1.125
309
GRIDFORMAT_END
 95
       32
302
GRIDFORMAT
  1
GRIDFORMAT_BEGIN
 90
        0
 91
        1
 62
     0
 92
       -2
340
26
 93
        0
 40
1.125
309
GRIDFORMAT_END
309
TABLEFORMAT_END
  1
CELLSTYLE_BEGIN
 90
        2
 91
        1
300
_HEADER
309
CELLSTYLE_END
300
CELLSTYLE
  1
TABLEFORMAT_BEGIN
 90
        5
170
     1
 91
        0
 92
        0
 62
   257
 93
        1
300
CONTENTFORMAT
  1
CONTENTFORMAT_BEGIN
 90
        0
 91
        0
 92
      512
 93
        0
300

 40
0.0
140
1.0
 94
        2
 62
     0
340
23
144
4.5
309
CONTENTFORMAT_END
171
     1
301
MARGIN
  1
CELLMARGIN_BEGIN
 40
1.5
 40
1.5
 40
1.5
 40
1.5
 40
0.18
 40
0.18
309
CELLMARGIN_END
 94
        6
 95
        1
302
GRIDFORMAT
  1
GRIDFORMAT_BEGIN
 90
        0
 91
        1
 62
     0
 92
       -2
340
26
 93
        0
 40
1.125
309
GRIDFORMAT_END
 95
        2
302
GRIDFORMAT
  1
GRIDFORMAT_BEGIN
 90
        0
 91
        1
 62
     0
 92
       -2
340
26
 93
        0
 40
1.125
309
GRIDFORMAT_END
 95
        4
302
GRIDFORMAT
  1
GRIDFORMAT_BEGIN
 90
        0
 91
        1
 62
     0
 92
       -2
340
26
 93
        0
 40
1.125
309
GRIDFORMAT_END
 95
        8
302
GRIDFORMAT
  1
GRIDFORMAT_BEGIN
 90
        0
 91
        1
 62
     0
 92
       -2
340
26
 93
        0
 40
1.125
309
GRIDFORMAT_END
 95
       16
302
GRIDFORMAT
  1
GRIDFORMAT_BEGIN
 90
        0
 91
        1
 62
     0
 92
       -2
340
26
 93
        0
 40
1.125
309
GRIDFORMAT_END
 95
       32
302
GRIDFORMAT
  1
GRIDFORMAT_BEGIN
 90
        0
 91
        1
 62
     0
 92
       -2
340
26
 93
        0
 40
1.125
309
GRIDFORMAT_END
309
TABLEFORMAT_END
  1
CELLSTYLE_BEGIN
 90
        3
 91
        2
300
_DATA
309
CELLSTYLE_END
  0
XRECORD
  5
3CE
102
{ACAD_REACTORS
330
48
102
}
330
48
100
AcDbXrecord
280
     1
102
ACAD_ROUNDTRIP_PRE2007_TABLESTYLE
 90
      512
 91
        0
  1

 92
      512
 93
        0
  2

 94
      512
 95
        0
  3

  0
XRECORD
  5
3CD
102
{ACAD_REACTORS
330
3CC
102
}
330
3CC
100
AcDbXrecord
280
     1
102
RTVSPost2010Prop28
280
     1
102
RTVSPost2010PropOp28
 70
     1
102
RTVSPost2010Prop29
280
     1
102
RTVSPost2010PropOp29
 70
     1
102
RTVSPost2010Prop30
280
     0
102
RTVSPost2010PropOp30
 70
     1
102
RTVSPost2010Prop31
280
     0
102
RTVSPost2010PropOp31
 70
     1
102
RTVSPost2010Prop32
280
     0
102
RTVSPost2010PropOp32
 70
     1
102
RTVSPost2010Prop33
280
     0
102
RTVSPost2010PropOp33
 70
     1
102
RTVSPost2010Prop34
280
     0
102
RTVSPost2010PropOp34
 70
     1
102
RTVSPost2010Prop35
280
     0
102
RTVSPost2010PropOp35
 70
     1
102
RTVSPost2010Prop36
280
     0
102
RTVSPost2010PropOp36
 70
     1
102
RTVSPost2010Prop37
 90
       50
102
RTVSPost2010PropOp37
 70
     1
102
RTVSPost2010Prop38
140
0.0
102
RTVSPost2010PropOp38
 70
     1
102
RTVSPost2010Prop39
140
1.0
102
RTVSPost2010PropOp39
 70
     1
102
RTVSPost2010Prop40
 90
        0
102
RTVSPost2010PropOp40
 70
     1
102
RTVSPost2010Prop41ColorIndex
 90
       18
102
RTVSPost2010Prop41ColorRGB
 90
        0
102
RTVSPost2010PropOp41
 70
     1
102
RTVSPost2010Prop42
 90
       50
102
RTVSPost2010PropOp42
 70
     1
102
RTVSPost2010Prop43
 90
        3
102
RTVSPost2010PropOp43
 70
     1
102
RTVSPost2010Prop44ColorIndex
 90
        5
102
RTVSPost2010Prop44ColorRGB
 90
      255
102
RTVSPost2010PropOp44
 70
     1
102
RTVSPost2010Prop45
280
     0
102
RTVSPost2010PropOp45
 70
     1
102
RTVSPost2010Prop46
 90
       50
102
RTVSPost2010PropOp46
 70
     1
102
RTVSPost2010Prop47
 90
       50
102
RTVSPost2010PropOp47
 70
     1
102
RTVSPost2010Prop48
 90
       50
102
RTVSPost2010PropOp48
 70
     1
102
RTVSPost2010Prop49
280
     0
102
RTVSPost2010PropOp49
 70
     1
102
RTVSPost2010Prop50
 90
       50
102
RTVSPost2010PropOp50
 70
     1
102
RTVSPost2010Prop51ColorIndex
 90
      256
102
RTVSPost2010Prop51ColorRGB
 90
-16777216
102
RTVSPost2010PropOp51
 70
     0
102
RTVSPost2010Prop52
140
1.0
102
RTVSPost2010PropOp52
 70
     0
102
RTVSPost2010Prop53
 90
        2
102
RTVSPost2010PropOp53
 70
     1
102
RTVSPost2010Prop54
  1
strokes_ogs.tif
102
RTVSPost2010PropOp54
 70
     1
102
RTVSPost2010Prop55
280
     0
102
RTVSPost2010PropOp55
 70
     1
102
RTVSPost2010Prop56
140
1.0
102
RTVSPost2010PropOp56
 70
     1
102
RTVSPost2010Prop57
140
1.0
102
RTVSPost2010PropOp57
 70
     1
102
RTVSPropertyOp0
 70
     1
102
RTVSPropertyOp1
 70
     1
102
RTVSPropertyOp2
 70
     1
102
RTVSPropertyOp3
 70
     1
102
RTVSPropertyOp4
 70
     1
102
RTVSPropertyOp5
 70
     1
102
RTVSPropertyOp6
 70
     1
102
RTVSPropertyOp7
 70
     1
102
RTVSPropertyOp8
 70
     1
102
RTVSPropertyOp9
 70
     1
102
RTVSPropertyOp10
 70
     1
102
RTVSPropertyOp11
 70
     1
102
RTVSPropertyOp12
 70
     1
102
RTVSPropertyOp13
 70
     1
102
RTVSPropertyOp14
 70
     1
102
RTVSPropertyOp15
 70
     1
102
RTVSPropertyOp16
 70
     1
102
RTVSPropertyOp17
 70
     1
102
RTVSPropertyOp18
 70
     1
102
RTVSPropertyOp19
 70
     1
102
RTVSPropertyOp20
 70
     1
102
RTVSPropertyOp21
 70
     1
102
RTVSPropertyOp22
 70
     1
102
RTVSPropertyOp23
 70
     1
102
RTVSPropertyOp24
 70
     1
102
RTVSPropertyOp25
 70
     1
102
RTVSPropertyOp26
 70
     1
102
RTVSPropertyOp27
 70
     1
102
RTVSPropertyOp28
 70
     1
102
RTVSPropertyOp29
 70
     1
102
RTVSPropertyOp30
 70
     1
102
RTVSPropertyOp31
 70
     1
102
RTVSPropertyOp32
 70
     1
102
RTVSPropertyOp33
 70
     1
102
RTVSPropertyOp34
 70
     1
102
RTVSPropertyOp35
 70
     1
102
RTVSPropertyOp36
 70
     1
102
RTVSPropertyOp37
 70
     1
102
RTVSPropertyOp38
 70
     1
102
RTVSPropertyOp39
 70
     1
102
RTVSPropertyOp40
 70
     1
102
RTVSPropertyOp41
 70
     1
102
RTVSPropertyOp42
 70
     1
102
RTVSPropertyOp43
 70
     1
102
RTVSPropertyOp44
 70
     1
102
RTVSPropertyOp45
 70
     1
102
RTVSPropertyOp46
 70
     1
102
RTVSPropertyOp47
 70
     1
102
RTVSPropertyOp48
 70
     1
102
RTVSPropertyOp49
 70
     1
102
RTVSPropertyOp50
 70
     1
102
RTVSPropertyOp51
 70
     0
102
RTVSPropertyOp52
 70
     0
102
RTVSPropertyOp53
 70
     1
102
RTVSPropertyOp54
 70
     1
102
RTVSPropertyOp55
 70
     1
102
RTVSPropertyOp56
 70
     1
102
RTVSPropertyOp57
 70
     1
102
RTVSPropertyOp58
 70
     1
102
RTVSPropertyOp59
 70
     1
102
RTVSPropertyOp60
 70
     1
102
RTVSPropertyOp61
 70
     1
102
RTVSPropertyOp62
 70
     1
  0
XRECORD
  5
3D0
102
{ACAD_REACTORS
330
3CF
102
}
330
3CF
100
AcDbXrecord
280
     1
102
RTVSPost2010Prop28
280
     0
102
RTVSPost2010PropOp28
 70
     1
102
RTVSPost2010Prop29
280
     1
102
RTVSPost2010PropOp29
 70
     1
102
RTVSPost2010Prop30
280
     1
102
RTVSPost2010PropOp30
 70
     1
102
RTVSPost2010Prop31
280
     0
102
RTVSPost2010PropOp31
 70
     1
102
RTVSPost2010Prop32
280
     0
102
RTVSPost2010PropOp32
 70
     1
102
RTVSPost2010Prop33
280
     0
102
RTVSPost2010PropOp33
 70
     1
102
RTVSPost2010Prop34
280
     0
102
RTVSPost2010PropOp34
 70
     1
102
RTVSPost2010Prop35
280
     0
102
RTVSPost2010PropOp35
 70
     1
102
RTVSPost2010Prop36
280
     0
102
RTVSPost2010PropOp36
 70
     1
102
RTVSPost2010Prop37
 90
       50
102
RTVSPost2010PropOp37
 70
     1
102
RTVSPost2010Prop38
140
0.0
102
RTVSPost2010PropOp38
 70
     1
102
RTVSPost2010Prop39
140
1.0
102
RTVSPost2010PropOp39
 70
     1
102
RTVSPost2010Prop40
 90
        0
102
RTVSPost2010PropOp40
 70
     1
102
RTVSPost2010Prop41ColorIndex
 90
       18
102
RTVSPost2010Prop41ColorRGB
 90
        0
102
RTVSPost2010PropOp41
 70
     1
102
RTVSPost2010Prop42
 90
       50
102
RTVSPost2010PropOp42
 70
     1
102
RTVSPost2010Prop43
 90
        3
102
RTVSPost2010PropOp43
 70
     1
102
RTVSPost2010Prop44ColorIndex
 90
        5
102
RTVSPost2010Prop44ColorRGB
 90
      255
102
RTVSPost2010PropOp44
 70
     1
102
RTVSPost2010Prop45
280
     0
102
RTVSPost2010PropOp45
 70
     1
102
RTVSPost2010Prop46
 90
       50
102
RTVSPost2010PropOp46
 70
     1
102
RTVSPost2010Prop47
 90
       50
102
RTVSPost2010PropOp47
 70
     1
102
RTVSPost2010Prop48
 90
       50
102
RTVSPost2010PropOp48
 70
     1
102
RTVSPost2010Prop49
280
     0
102
RTVSPost2010PropOp49
 70
     1
102
RTVSPost2010Prop50
 90
       50
102
RTVSPost2010PropOp50
 70
     1
102
RTVSPost2010Prop51ColorIndex
 90
      256
102
RTVSPost2010Prop51ColorRGB
 90
-16777216
102
RTVSPost2010PropOp51
 70
     0
102
RTVSPost2010Prop52
140
1.0
102
RTVSPost2010PropOp52
 70
     0
102
RTVSPost2010Prop53
 90
        2
102
RTVSPost2010PropOp53
 70
     1
102
RTVSPost2010Prop54
  1
strokes_ogs.tif
102
RTVSPost2010PropOp54
 70
     1
102
RTVSPost2010Prop55
280
     0
102
RTVSPost2010PropOp55
 70
     1
102
RTVSPost2010Prop56
140
1.0
102
RTVSPost2010PropOp56
 70
     1
102
RTVSPost2010Prop57
140
1.0
102
RTVSPost2010PropOp57
 70
     1
102
RTVSPropertyOp0
 70
     1
102
RTVSPropertyOp1
 70
     1
102
RTVSPropertyOp2
 70
     1
102
RTVSPropertyOp3
 70
     1
102
RTVSPropertyOp4
 70
     1
102
RTVSPropertyOp5
 70
     1
102
RTVSPropertyOp6
 70
     1
102
RTVSPropertyOp7
 70
     1
102
RTVSPropertyOp8
 70
     1
102
RTVSPropertyOp9
 70
     1
102
RTVSPropertyOp10
 70
     1
102
RTVSPropertyOp11
 70
     1
102
RTVSPropertyOp12
 70
     1
102
RTVSPropertyOp13
 70
     1
102
RTVSPropertyOp14
 70
     1
102
RTVSPropertyOp15
 70
     1
102
RTVSPropertyOp16
 70
     1
102
RTVSPropertyOp17
 70
     1
102
RTVSPropertyOp18
 70
     1
102
RTVSPropertyOp19
 70
     1
102
RTVSPropertyOp20
 70
     1
102
RTVSPropertyOp21
 70
     1
102
RTVSPropertyOp22
 70
     1
102
RTVSPropertyOp23
 70
     1
102
RTVSPropertyOp24
 70
     1
102
RTVSPropertyOp25
 70
     1
102
RTVSPropertyOp26
 70
     1
102
RTVSPropertyOp27
 70
     1
102
RTVSPropertyOp28
 70
     1
102
RTVSPropertyOp29
 70
     1
102
RTVSPropertyOp30
 70
     1
102
RTVSPropertyOp31
 70
     1
102
RTVSPropertyOp32
 70
     1
102
RTVSPropertyOp33
 70
     1
102
RTVSPropertyOp34
 70
     1
102
RTVSPropertyOp35
 70
     1
102
RTVSPropertyOp36
 70
     1
102
RTVSPropertyOp37
 70
     1
102
RTVSPropertyOp38
 70
     1
102
RTVSPropertyOp39
 70
     1
102
RTVSPropertyOp40
 70
     1
102
RTVSPropertyOp41
 70
     1
102
RTVSPropertyOp42
 70
     1
102
RTVSPropertyOp43
 70
     1
102
RTVSPropertyOp44
 70
     1
102
RTVSPropertyOp45
 70
     1
102
RTVSPropertyOp46
 70
     1
102
RTVSPropertyOp47
 70
     1
102
RTVSPropertyOp48
 70
     1
102
RTVSPropertyOp49
 70
     1
102
RTVSPropertyOp50
 70
     1
102
RTVSPropertyOp51
 70
     0
102
RTVSPropertyOp52
 70
     0
102
RTVSPropertyOp53
 70
     1
102
RTVSPropertyOp54
 70
     1
102
RTVSPropertyOp55
 70
     1
102
RTVSPropertyOp56
 70
     1
102
RTVSPropertyOp57
 70
     1
102
RTVSPropertyOp58
 70
     1
102
RTVSPropertyOp59
 70
     1
102
RTVSPropertyOp60
 70
     1
102
RTVSPropertyOp61
 70
     1
102
RTVSPropertyOp62
 70
     1
  0
XRECORD
  5
3D2
102
{ACAD_REACTORS
330
3D1
102
}
330
3D1
100
AcDbXrecord
280
     1
102
RTVSPost2010Prop28
280
     0
102
RTVSPost2010PropOp28
 70
     1
102
RTVSPost2010Prop29
280
     1
102
RTVSPost2010PropOp29
 70
     1
102
RTVSPost2010Prop30
280
     1
102
RTVSPost2010PropOp30
 70
     1
102
RTVSPost2010Prop31
280
     0
102
RTVSPost2010PropOp31
 70
     1
102
RTVSPost2010Prop32
280
     0
102
RTVSPost2010PropOp32
 70
     1
102
RTVSPost2010Prop33
280
     0
102
RTVSPost2010PropOp33
 70
     1
102
RTVSPost2010Prop34
280
     0
102
RTVSPost2010PropOp34
 70
     1
102
RTVSPost2010Prop35
280
     0
102
RTVSPost2010PropOp35
 70
     1
102
RTVSPost2010Prop36
280
     0
102
RTVSPost2010PropOp36
 70
     1
102
RTVSPost2010Prop37
 90
       50
102
RTVSPost2010PropOp37
 70
     1
102
RTVSPost2010Prop38
140
0.0
102
RTVSPost2010PropOp38
 70
     1
102
RTVSPost2010Prop39
140
1.0
102
RTVSPost2010PropOp39
 70
     1
102
RTVSPost2010Prop40
 90
        0
102
RTVSPost2010PropOp40
 70
     1
102
RTVSPost2010Prop41ColorIndex
 90
       18
102
RTVSPost2010Prop41ColorRGB
 90
        0
102
RTVSPost2010PropOp41
 70
     1
102
RTVSPost2010Prop42
 90
       50
102
RTVSPost2010PropOp42
 70
     1
102
RTVSPost2010Prop43
 90
        3
102
RTVSPost2010PropOp43
 70
     1
102
RTVSPost2010Prop44ColorIndex
 90
        5
102
RTVSPost2010Prop44ColorRGB
 90
      255
102
RTVSPost2010PropOp44
 70
     1
102
RTVSPost2010Prop45
280
     0
102
RTVSPost2010PropOp45
 70
     1
102
RTVSPost2010Prop46
 90
       50
102
RTVSPost2010PropOp46
 70
     1
102
RTVSPost2010Prop47
 90
       50
102
RTVSPost2010PropOp47
 70
     1
102
RTVSPost2010Prop48
 90
       50
102
RTVSPost2010PropOp48
 70
     1
102
RTVSPost2010Prop49
280
     0
102
RTVSPost2010PropOp49
 70
     1
102
RTVSPost2010Prop50
 90
       50
102
RTVSPost2010PropOp50
 70
     1
102
RTVSPost2010Prop51ColorIndex
 90
      256
102
RTVSPost2010Prop51ColorRGB
 90
-16777216
102
RTVSPost2010PropOp51
 70
     0
102
RTVSPost2010Prop52
140
1.0
102
RTVSPost2010PropOp52
 70
     0
102
RTVSPost2010Prop53
 90
        2
102
RTVSPost2010PropOp53
 70
     1
102
RTVSPost2010Prop54
  1
strokes_ogs.tif
102
RTVSPost2010PropOp54
 70
     1
102
RTVSPost2010Prop55
280
     0
102
RTVSPost2010PropOp55
 70
     1
102
RTVSPost2010Prop56
140
1.0
102
RTVSPost2010PropOp56
 70
     1
102
RTVSPost2010Prop57
140
1.0
102
RTVSPost2010PropOp57
 70
     1
102
RTVSPropertyOp0
 70
     1
102
RTVSPropertyOp1
 70
     1
102
RTVSPropertyOp2
 70
     1
102
RTVSPropertyOp3
 70
     1
102
RTVSPropertyOp4
 70
     1
102
RTVSPropertyOp5
 70
     1
102
RTVSPropertyOp6
 70
     1
102
RTVSPropertyOp7
 70
     1
102
RTVSPropertyOp8
 70
     1
102
RTVSPropertyOp9
 70
     1
102
RTVSPropertyOp10
 70
     1
102
RTVSPropertyOp11
 70
     1
102
RTVSPropertyOp12
 70
     1
102
RTVSPropertyOp13
 70
     1
102
RTVSPropertyOp14
 70
     1
102
RTVSPropertyOp15
 70
     1
102
RTVSPropertyOp16
 70
     1
102
RTVSPropertyOp17
 70
     1
102
RTVSPropertyOp18
 70
     1
102
RTVSPropertyOp19
 70
     1
102
RTVSPropertyOp20
 70
     1
102
RTVSPropertyOp21
 70
     1
102
RTVSPropertyOp22
 70
     1
102
RTVSPropertyOp23
 70
     1
102
RTVSPropertyOp24
 70
     1
102
RTVSPropertyOp25
 70
     1
102
RTVSPropertyOp26
 70
     1
102
RTVSPropertyOp27
 70
     1
102
RTVSPropertyOp28
 70
     1
102
RTVSPropertyOp29
 70
     1
102
RTVSPropertyOp30
 70
     1
102
RTVSPropertyOp31
 70
     1
102
RTVSPropertyOp32
 70
     1
102
RTVSPropertyOp33
 70
     1
102
RTVSPropertyOp34
 70
     1
102
RTVSPropertyOp35
 70
     1
102
RTVSPropertyOp36
 70
     1
102
RTVSPropertyOp37
 70
     1
102
RTVSPropertyOp38
 70
     1
102
RTVSPropertyOp39
 70
     1
102
RTVSPropertyOp40
 70
     1
102
RTVSPropertyOp41
 70
     1
102
RTVSPropertyOp42
 70
     1
102
RTVSPropertyOp43
 70
     1
102
RTVSPropertyOp44
 70
     1
102
RTVSPropertyOp45
 70
     1
102
RTVSPropertyOp46
 70
     1
102
RTVSPropertyOp47
 70
     1
102
RTVSPropertyOp48
 70
     1
102
RTVSPropertyOp49
 70
     1
102
RTVSPropertyOp50
 70
     1
102
RTVSPropertyOp51
 70
     0
102
RTVSPropertyOp52
 70
     0
102
RTVSPropertyOp53
 70
     1
102
RTVSPropertyOp54
 70
     1
102
RTVSPropertyOp55
 70
     1
102
RTVSPropertyOp56
 70
     1
102
RTVSPropertyOp57
 70
     1
102
RTVSPropertyOp58
 70
     1
102
RTVSPropertyOp59
 70
     1
102
RTVSPropertyOp60
 70
     1
102
RTVSPropertyOp61
 70
     1
102
RTVSPropertyOp62
 70
     1
  0
ENDSEC
  0
EOF
