  0
SECTION
  2
HEADER
  9
$ACADVER
  1
AC1018
  9
$ACADMAINTVER
 70
   104
  9
$DWGCODEPAGE
  3
ANSI_932
  9
$INSBASE
 10
0.0
 20
0.0
 30
0.0
  9
$EXTMIN
 10
3.467612184740545
 20
2.268924871986541
 30
-0.0000000000112498
  9
$EXTMAX
 10
53.47406871137893
 20
31.62218821700669
 30
0.0000000000002956
  9
$LIMMIN
 10
-2.542229510154243
 20
-6.343642372180539
  9
$LIMMAX
 10
62.22993107508068
 20
38.95872932339268
  9
$ORTHOMODE
 70
     0
  9
$REGENMODE
 70
     1
  9
$FILLMODE
 70
     1
  9
$QTEXTMODE
 70
     0
  9
$MIRRTEXT
 70
     0
  9
$LTSCALE
 40
1.0
  9
$ATTMODE
 70
     1
  9
$TEXTSIZE
 40
2.5
  9
$TRACEWID
 40
1.0
  9
$TEXTSTYLE
  7
Standard
  9
$CLAYER
  8
0
  9
$CELTYPE
  6
ByLayer
  9
$CECOLOR
 62
   256
  9
$CELTSCALE
 40
1.0
  9
$DISPSILH
 70
     0
  9
$DIMSCALE
 40
1.0
  9
$DIMASZ
 40
2.5
  9
$DIMEXO
 40
0.625
  9
$DIMDLI
 40
3.75
  9
$DIMRND
 40
0.0
  9
$DIMDLE
 40
0.0
  9
$DIMEXE
 40
1.25
  9
$DIMTP
 40
0.0
  9
$DIMTM
 40
0.0
  9
$DIMTXT
 40
2.5
  9
$DIMCEN
 40
2.5
  9
$DIMTSZ
 40
0.0
  9
$DIMTOL
 70
     0
  9
$DIMLIM
 70
     0
  9
$DIMTIH
 70
     0
  9
$DIMTOH
 70
     0
  9
$DIMSE1
 70
     0
  9
$DIMSE2
 70
     0
  9
$DIMTAD
 70
     1
  9
$DIMZIN
 70
     8
  9
$DIMBLK
  1

  9
$DIMASO
 70
     1
  9
$DIMSHO
 70
     1
  9
$DIMPOST
  1

  9
$DIMAPOST
  1

  9
$DIMALT
 70
     0
  9
$DIMALTD
 70
     3
  9
$DIMALTF
 40
0.03937007874016
  9
$DIMLFAC
 40
1.0
  9
$DIMTOFL
 70
     1
  9
$DIMTVP
 40
0.0
  9
$DIMTIX
 70
     0
  9
$DIMSOXD
 70
     0
  9
$DIMSAH
 70
     0
  9
$DIMBLK1
  1

  9
$DIMBLK2
  1

  9
$DIMSTYLE
  2
ISO-25
  9
$DIMCLRD
 70
     0
  9
$DIMCLRE
 70
     0
  9
$DIMCLRT
 70
     0
  9
$DIMTFAC
 40
1.0
  9
$DIMGAP
 40
0.625
  9
$DIMJUST
 70
     0
  9
$DIMSD1
 70
     0
  9
$DIMSD2
 70
     0
  9
$DIMTOLJ
 70
     0
  9
$DIMTZIN
 70
     8
  9
$DIMALTZ
 70
     0
  9
$DIMALTTZ
 70
     0
  9
$DIMUPT
 70
     0
  9
$DIMDEC
 70
     2
  9
$DIMTDEC
 70
     2
  9
$DIMALTU
 70
     2
  9
$DIMALTTD
 70
     3
  9
$DIMTXSTY
  7
Standard
  9
$DIMAUNIT
 70
     0
  9
$DIMADEC
 70
     0
  9
$DIMALTRND
 40
0.0
  9
$DIMAZIN
 70
     0
  9
$DIMDSEP
 70
    44
  9
$DIMATFIT
 70
     3
  9
$DIMFRAC
 70
     0
  9
$DIMLDRBLK
  1

  9
$DIMLUNIT
 70
     2
  9
$DIMLWD
 70
    -2
  9
$DIMLWE
 70
    -2
  9
$DIMTMOVE
 70
     0
  9
$LUNITS
 70
     2
  9
$LUPREC
 70
     4
  9
$SKETCHINC
 40
1.0
  9
$FILLETRAD
 40
0.0
  9
$AUNITS
 70
     0
  9
$AUPREC
 70
     0
  9
$MENU
  1
.
  9
$ELEVATION
 40
0.0
  9
$PELEVATION
 40
0.0
  9
$THICKNESS
 40
0.0
  9
$LIMCHECK
 70
     0
  9
$CHAMFERA
 40
0.0
  9
$CHAMFERB
 40
0.0
  9
$CHAMFERC
 40
0.0
  9
$CHAMFERD
 40
0.0
  9
$SKPOLY
 70
     0
  9
$TDCREATE
 40
2458227.461898148
  9
$TDUCREATE
 40
2458227.128564815
  9
$TDUPDATE
 40
2458941.680636574
  9
$TDUUPDATE
 40
2458941.347303241
  9
$TDINDWG
 40
0.0038194444
  9
$TDUSRTIMER
 40
0.0038194444
  9
$USRTIMER
 70
     1
  9
$ANGBASE
 50
0.0
  9
$ANGDIR
 70
     0
  9
$PDMODE
 70
     0
  9
$PDSIZE
 40
0.0
  9
$PLINEWID
 40
0.0
  9
$SPLFRAME
 70
     0
  9
$SPLINETYPE
 70
     6
  9
$SPLINESEGS
 70
     8
  9
$HANDSEED
  5
3DA
  9
$SURFTAB1
 70
     6
  9
$SURFTAB2
 70
     6
  9
$SURFTYPE
 70
     6
  9
$SURFU
 70
     6
  9
$SURFV
 70
     6
  9
$UCSBASE
  2

  9
$UCSNAME
  2

  9
$UCSORG
 10
0.0
 20
0.0
 30
0.0
  9
$UCSXDIR
 10
1.0
 20
0.0
 30
0.0
  9
$UCSYDIR
 10
0.0
 20
1.0
 30
0.0
  9
$UCSORTHOREF
  2

  9
$UCSORTHOVIEW
 70
     0
  9
$UCSORGTOP
 10
0.0
 20
0.0
 30
0.0
  9
$UCSORGBOTTOM
 10
0.0
 20
0.0
 30
0.0
  9
$UCSORGLEFT
 10
0.0
 20
0.0
 30
0.0
  9
$UCSORGRIGHT
 10
0.0
 20
0.0
 30
0.0
  9
$UCSORGFRONT
 10
0.0
 20
0.0
 30
0.0
  9
$UCSORGBACK
 10
0.0
 20
0.0
 30
0.0
  9
$PUCSBASE
  2

  9
$PUCSNAME
  2

  9
$PUCSORG
 10
0.0
 20
0.0
 30
0.0
  9
$PUCSXDIR
 10
1.0
 20
0.0
 30
0.0
  9
$PUCSYDIR
 10
0.0
 20
1.0
 30
0.0
  9
$PUCSORTHOREF
  2

  9
$PUCSORTHOVIEW
 70
     0
  9
$PUCSORGTOP
 10
0.0
 20
0.0
 30
0.0
  9
$PUCSORGBOTTOM
 10
0.0
 20
0.0
 30
0.0
  9
$PUCSORGLEFT
 10
0.0
 20
0.0
 30
0.0
  9
$PUCSORGRIGHT
 10
0.0
 20
0.0
 30
0.0
  9
$PUCSORGFRONT
 10
0.0
 20
0.0
 30
0.0
  9
$PUCSORGBACK
 10
0.0
 20
0.0
 30
0.0
  9
$USERI1
 70
     0
  9
$USERI2
 70
     0
  9
$USERI3
 70
     0
  9
$USERI4
 70
     0
  9
$USERI5
 70
     0
  9
$USERR1
 40
0.0
  9
$USERR2
 40
0.0
  9
$USERR3
 40
0.0
  9
$USERR4
 40
0.0
  9
$USERR5
 40
0.0
  9
$WORLDVIEW
 70
     1
  9
$SHADEDGE
 70
     3
  9
$SHADEDIF
 70
    70
  9
$TILEMODE
 70
     1
  9
$MAXACTVP
 70
    64
  9
$PINSBASE
 10
0.0
 20
0.0
 30
0.0
  9
$PLIMCHECK
 70
     0
  9
$PEXTMIN
 10
0.0
 20
0.0
 30
0.0
  9
$PEXTMAX
 10
0.0
 20
0.0
 30
0.0
  9
$PLIMMIN
 10
0.0
 20
0.0
  9
$PLIMMAX
 10
12.0
 20
9.0
  9
$UNITMODE
 70
     0
  9
$VISRETAIN
 70
     1
  9
$PLINEGEN
 70
     0
  9
$PSLTSCALE
 70
     1
  9
$TREEDEPTH
 70
  3020
  9
$CMLSTYLE
  2
Standard
  9
$CMLJUST
 70
     0
  9
$CMLSCALE
 40
20.0
  9
$PROXYGRAPHICS
 70
     1
  9
$MEASUREMENT
 70
     1
  9
$CELWEIGHT
370
    -1
  9
$ENDCAPS
280
     0
  9
$JOINSTYLE
280
     0
  9
$LWDISPLAY
290
     0
  9
$INSUNITS
 70
     4
  9
$HYPERLINKBASE
  1

  9
$STYLESHEET
  1

  9
$XEDIT
290
     1
  9
$CEPSNTYPE
380
     0
  9
$PSTYLEMODE
290
     1
  9
$FINGERPRINTGUID
  2
{C65D6A55-0980-3342-839A-0D23EDFBD046}
  9
$VERSIONGUID
  2
{16E058AD-87CA-4144-97F9-7EC35F5E8FDD}
  9
$EXTNAMES
290
     1
  9
$PSVPSCALE
 40
0.0
  9
$OLESTARTUP
290
     0
  9
$SORTENTS
280
   127
  9
$INDEXCTL
280
     0
  9
$HIDETEXT
280
     1
  9
$XCLIPFRAME
290
     0
  9
$HALOGAP
280
     0
  9
$OBSCOLOR
 70
   257
  9
$OBSLTYPE
280
     0
  9
$INTERSECTIONDISPLAY
280
     0
  9
$INTERSECTIONCOLOR
 70
   257
  9
$DIMASSOC
280
     2
  9
$PROJECTNAME
  1

  0
ENDSEC
  0
SECTION
  2
CLASSES
  0
CLASS
  1
ACDBDICTIONARYWDFLT
  2
AcDbDictionaryWithDefault
  3
ObjectDBX Classes
 90
        0
 91
        1
280
     0
281
     0
  0
CLASS
  1
DICTIONARYVAR
  2
AcDbDictionaryVar
  3
ObjectDBX Classes
 90
        0
 91
       12
280
     0
281
     0
  0
CLASS
  1
TABLESTYLE
  2
AcDbTableStyle
  3
ObjectDBX Classes
 90
     4095
 91
        1
280
     0
281
     0
  0
CLASS
  1
MATERIAL
  2
AcDbMaterial
  3
ObjectDBX Classes
 90
     1153
 91
        3
280
     0
281
     0
  0
CLASS
  1
VISUALSTYLE
  2
AcDbVisualStyle
  3
ObjectDBX Classes
 90
     4095
 91
        3
280
     0
281
     0
  0
CLASS
  1
SCALE
  2
AcDbScale
  3
ObjectDBX Classes
 90
     1153
 91
       17
280
     0
281
     0
  0
CLASS
  1
MLEADERSTYLE
  2
AcDbMLeaderStyle
  3
ACDB_MLEADERSTYLE_CLASS
 90
     4095
 91
        0
280
     0
281
     0
  0
CLASS
  1
CELLSTYLEMAP
  2
AcDbCellStyleMap
  3
ObjectDBX Classes
 90
     1152
 91
        1
280
     0
281
     0
  0
CLASS
  1
EXACXREFPANELOBJECT
  2
ExAcXREFPanelObject
  3
EXAC_ESW
 90
     1025
 91
        0
280
     1
281
     0
  0
CLASS
  1
NPOCOLLECTION
  2
AcDbImpNonPersistentObjectsCollection
  3
ObjectDBX Classes
 90
     1153
 91
        0
280
     0
281
     0
  0
CLASS
  1
LAYER_INDEX
  2
AcDbLayerIndex
  3
ObjectDBX Classes
 90
        0
 91
        0
280
     0
281
     0
  0
CLASS
  1
SPATIAL_INDEX
  2
AcDbSpatialIndex
  3
ObjectDBX Classes
 90
        0
 91
        0
280
     0
281
     0
  0
CLASS
  1
IDBUFFER
  2
AcDbIdBuffer
  3
ObjectDBX Classes
 90
        0
 91
        0
280
     0
281
     0
  0
CLASS
  1
ACDBSECTIONVIEWSTYLE
  2
AcDbSectionViewStyle
  3
ObjectDBX Classes
 90
     1025
 91
        0
280
     0
281
     0
  0
CLASS
  1
ACDBDETAILVIEWSTYLE
  2
AcDbDetailViewStyle
  3
ObjectDBX Classes
 90
     1025
 91
        0
280
     0
281
     0
  0
CLASS
  1
SORTENTSTABLE
  2
AcDbSortentsTable
  3
ObjectDBX Classes
 90
        0
 91
        2
280
     0
281
     0
  0
CLASS
  1
DIMASSOC
  2
AcDbDimAssoc
  3
"AcDbDimAssoc|Product Desc:     AcDim ARX App For Dimension|Company:          Autodesk, Inc.|WEB Address:      www.autodesk.com"
 90
        0
 91
        0
280
     0
281
     0
  0
ENDSEC
  0
SECTION
  2
TABLES
  0
TABLE
  2
VPORT
  5
2A
330
0
100
AcDbSymbolTable
 70
     1
  0
VPORT
  5
2B
330
2A
100
AcDbSymbolTableRecord
100
AcDbViewportTableRecord
  2
*Active
 70
     0
 10
0.0
 20
0.0
 11
1.0
 21
1.0
 12
29.84385078246322
 22
16.30754347560606
 13
0.0
 23
0.0
 14
10.0
 24
10.0
 15
10.0
 25
10.0
 16
0.0
 26
0.0
 36
1.0
 17
0.0
 27
0.0
 37
0.0
 40
45.72708143021921
 41
2.350547730829421
 42
50.0
 43
0.0
 44
0.0
 50
0.0
 51
0.0
 71
     0
 72
  1000
 73
     1
 74
     3
 75
     0
 76
     1
 77
     0
 78
     0
281
     0
 65
     1
110
0.0
120
0.0
130
0.0
111
1.0
121
0.0
131
0.0
112
0.0
122
1.0
132
0.0
 79
     0
146
0.0
1001
ACAD_NAV_VCDISPLAY
1070
     3
  0
ENDTAB
  0
TABLE
  2
LTYPE
  5
25
330
0
100
AcDbSymbolTable
 70
     1
  0
LTYPE
  5
26
330
25
100
AcDbSymbolTableRecord
100
AcDbLinetypeTableRecord
  2
ByBlock
 70
     0
  3

 72
    65
 73
     0
 40
0.0
  0
LTYPE
  5
27
330
25
100
AcDbSymbolTableRecord
100
AcDbLinetypeTableRecord
  2
ByLayer
 70
     0
  3

 72
    65
 73
     0
 40
0.0
  0
LTYPE
  5
15
330
25
100
AcDbSymbolTableRecord
100
AcDbLinetypeTableRecord
  2
Continuous
 70
     0
  3
Solid line
 72
    65
 73
     0
 40
0.0
  0
ENDTAB
  0
TABLE
  2
LAYER
  5
1F
102
{ACAD_XDICTIONARY
360
20
102
}
330
0
100
AcDbSymbolTable
 70
     1
  0
LAYER
  5
6
102
{ACAD_XDICTIONARY
360
7
102
}
330
1F
100
AcDbSymbolTableRecord
100
AcDbLayerTableRecord
  2
0
 70
     0
 62
     7
  6
Continuous
370
    -3
390
8
  0
ENDTAB
  0
TABLE
  2
STYLE
  5
22
330
0
100
AcDbSymbolTable
 70
     1
  0
STYLE
  5
23
330
22
100
AcDbSymbolTableRecord
100
AcDbTextStyleTableRecord
  2
Standard
 70
     0
 40
0.0
 41
1.0
 50
0.0
 71
     0
 42
2.5
  3
arial.ttf
  4

1001
ACAD
1000
Arial
1071
       34
  0
ENDTAB
  0
TABLE
  2
VIEW
  5
28
330
0
100
AcDbSymbolTable
 70
     0
  0
ENDTAB
  0
TABLE
  2
UCS
  5
29
330
0
100
AcDbSymbolTable
 70
     0
  0
ENDTAB
  0
TABLE
  2
APPID
  5
2F
330
0
100
AcDbSymbolTable
 70
     3
  0
APPID
  5
14
330
2F
100
AcDbSymbolTableRecord
100
AcDbRegAppTableRecord
  2
ACAD
 70
     0
  0
APPID
  5
1A
330
2F
100
AcDbSymbolTableRecord
100
AcDbRegAppTableRecord
  2
ACAD_PSEXT
 70
     0
  0
APPID
  5
2E
330
2F
100
AcDbSymbolTableRecord
100
AcDbRegAppTableRecord
  2
ACAD_NAV_VCDISPLAY
 70
     0
  0
ENDTAB
  0
TABLE
  2
DIMSTYLE
  5
30
330
0
100
AcDbSymbolTable
 70
     1
100
AcDbDimStyleTable
 71
     1
340
31
  0
DIMSTYLE
105
31
330
30
100
AcDbSymbolTableRecord
100
AcDbDimStyleTableRecord
  2
ISO-25
 70
     0
 41
2.5
 42
0.625
 43
3.75
 44
1.25
 73
     0
 74
     0
 77
     1
 78
     8
140
2.5
141
2.5
143
0.03937007874016
147
0.625
171
     3
172
     1
271
     2
272
     2
274
     3
278
    44
283
     0
284
     8
340
23
  0
ENDTAB
  0
TABLE
  2
BLOCK_RECORD
  5
1
330
0
100
AcDbSymbolTable
 70
     0
  0
BLOCK_RECORD
  5
2
102
{ACAD_XDICTIONARY
360
3
102
}
330
1
100
AcDbSymbolTableRecord
100
AcDbBlockTableRecord
  2
*Model_Space
340
17
  0
BLOCK_RECORD
  5
1B
330
1
100
AcDbSymbolTableRecord
100
AcDbBlockTableRecord
  2
*Paper_Space
340
1E
  0
ENDTAB
  0
ENDSEC
  0
SECTION
  2
BLOCKS
  0
BLOCK
  5
5
330
2
100
AcDbEntity
  8
0
100
AcDbBlockBegin
  2
*Model_Space
 70
     0
 10
0.0
 20
0.0
 30
0.0
  3
*Model_Space
  1

  0
ENDBLK
  5
16
330
2
100
AcDbEntity
  8
0
100
AcDbBlockEnd
  0
BLOCK
  5
1C
330
1B
100
AcDbEntity
 67
     1
  8
0
100
AcDbBlockBegin
  2
*Paper_Space
 70
     0
 10
0.0
 20
0.0
 30
0.0
  3
*Paper_Space
  1

  0
ENDBLK
  5
1D
330
1B
100
AcDbEntity
 67
     1
  8
0
100
AcDbBlockEnd
  0
ENDSEC
  0
SECTION
  2
ENTITIES
  0
LINE
  5
58
330
2
100
AcDbEntity
  8
0
100
AcDbLine
 10
32.72527326157379
 20
22.35215890812866
 30
0.0
 11
31.82358652948034
 21
21.57127529186631
 31
0.0
  0
LINE
  5
59
330
2
100
AcDbEntity
  8
0
100
AcDbLine
 10
31.83960123811959
 20
21.29028081281194
 30
0.0
 11
31.854150391942
 21
21.28262867356214
 31
0.0
  0
LINE
  5
5A
330
2
100
AcDbEntity
  8
0
100
AcDbLine
 10
53.4353102845876
 20
21.57127529186631
 30
0.0
 11
52.53362355249416
 21
22.35215890812866
 31
0.0
  0
LINE
  5
5B
330
2
100
AcDbEntity
  8
0
100
AcDbLine
 10
53.40474642217107
 20
21.28262867356214
 30
0.0
 11
53.41929557594837
 21
21.29028081281194
 31
0.0
  0
LINE
  5
5C
330
2
100
AcDbEntity
  8
0
100
AcDbLine
 10
38.85795628532102
 20
29.82150016338793
 30
0.0
 11
38.85795628532102
 21
24.55823616768674
 31
0.0
  0
SPLINE
  5
5D
330
2
100
AcDbEntity
  8
0
100
AcDbSpline
210
0.0
220
0.0
230
1.0
 70
     8
 71
     3
 72
    12
 73
     8
 74
     0
 42
0.000000001
 43
0.0000000001
 40
0.0
 40
0.0
 40
0.0
 40
0.0
 40
0.1814292812455239
 40
0.4157921650614694
 40
0.6513173281689464
 40
0.8893818971947673
 40
1.0
 40
1.0
 40
1.0
 40
1.0
 10
43.34749254295336
 20
31.52184243817139
 30
0.0
 10
43.3249149072216
 20
31.53960522452041
 30
0.0
 10
43.26925358048169
 20
31.57801919914162
 30
0.0
 10
43.16850684093402
 20
31.61241390418441
 30
0.0
 10
43.05132150607127
 20
31.62661389773603
 30
0.0
 10
42.94969569933393
 20
31.61744906573602
 30
0.0
 10
42.88905039212068
 20
31.60164351492392
 30
0.0
 10
42.86981092492046
 20
31.59662927078201
 30
0.0
  0
LINE
  5
5E
330
2
100
AcDbEntity
  8
0
100
AcDbLine
 10
43.39461441836143
 20
31.48152094992577
 30
0.0
 11
43.36080116590795
 21
31.51080408554238
 31
0.0
  0
LINE
  5
5F
330
2
100
AcDbEntity
  8
0
100
AcDbLine
 10
42.86981092491934
 20
31.59662927078039
 30
0.0
 11
40.69114563559433
 21
30.96770277514517
 31
0.0
  0
LINE
  5
60
330
2
100
AcDbEntity
  8
0
100
AcDbLine
 10
40.69114563559433
 20
30.96770277514517
 30
0.0
 11
39.4729671942503
 21
30.61604494962877
 31
0.0
  0
SPLINE
  5
61
330
2
100
AcDbEntity
  8
0
100
AcDbSpline
210
0.0
220
0.0
230
1.0
 70
     8
 71
     3
 72
    16
 73
    12
 74
     0
 42
0.000000001
 43
0.0000000001
 40
0.0
 40
0.0
 40
0.0
 40
0.0
 40
0.0698495378242815
 40
0.1990379081207495
 40
0.328518240316073
 40
0.4581529125746127
 40
0.5879251972799282
 40
0.7178828956211313
 40
0.8480723407691172
 40
0.9707891010511659
 40
1.0
 40
1.0
 40
1.0
 40
1.0
 10
39.47296719424036
 20
30.61604494963037
 30
0.0
 10
39.45025032669486
 20
30.60874023656666
 30
0.0
 10
39.38551807597222
 20
30.58792528412864
 30
0.0
 10
39.2811745424763
 20
30.53460585297644
 30
0.0
 10
39.16632704857711
 20
30.45126681934817
 30
0.0
 10
39.0641746868321
 20
30.34908557381537
 30
0.0
 10
38.97878995250439
 20
30.23249736190765
 30
0.0
 10
38.91354013736794
 20
30.10582948289462
 30
0.0
 10
38.87224663884851
 20
29.97660366472907
 30
0.0
 10
38.85880705377096
 20
29.88118949218506
 30
0.0
 10
38.85809348256921
 20
29.83112582767917
 30
0.0
 10
38.85795628532434
 20
29.82150016338415
 30
0.0
  0
SPLINE
  5
62
330
2
100
AcDbEntity
  8
0
100
AcDbSpline
210
0.0
220
0.0
230
1.0
 70
     8
 71
     3
 72
    12
 73
     8
 74
     0
 42
0.000000001
 43
0.0000000001
 40
0.0
 40
0.0
 40
0.0
 40
0.0
 40
0.1814292812455502
 40
0.4157921650615168
 40
0.6513173281689923
 40
0.8893818971948034
 40
0.991269063127738
 40
0.991269063127738
 40
0.991269063127738
 40
0.991269063127738
 10
45.41770145335846
 20
30.76592867249823
 30
0.0
 10
45.40054836488773
 20
30.78155930183868
 30
0.0
 10
45.33946249088876
 20
30.82210543349564
 30
0.0
 10
45.23871575134099
 20
30.85650013853844
 30
0.0
 10
45.12153041647827
 20
30.87070013209011
 30
0.0
 10
45.02142339886043
 20
30.86167226773215
 30
0.0
 10
44.96229639875926
 20
30.84651480397012
 30
0.0
 10
44.94457547099037
 20
30.84190229613014
 30
0.0
  0
LINE
  5
63
330
2
100
AcDbEntity
  8
0
100
AcDbLine
 10
45.46482332876659
 20
30.72560718429762
 30
0.0
 11
45.43101007631306
 21
30.75489031991424
 31
0.0
  0
SPLINE
  5
64
330
2
100
AcDbEntity
  8
0
100
AcDbSpline
210
0.0
220
0.0
230
1.0
 70
     8
 71
     3
 72
    13
 73
     9
 74
     0
 42
0.000000001
 43
0.0000000001
 40
0.0
 40
0.0
 40
0.0
 40
0.0
 40
0.3055623022646952
 40
0.7002751173768175
 40
1.0
 40
1.0
 40
1.0
 40
1.050022039267848
 40
1.050022039267848
 40
1.050022039267848
 40
1.050022039267848
 10
46.58989420507995
 20
29.75077997139325
 30
0.0
 10
46.58989420507995
 20
29.75077997139325
 30
0.0
 10
46.51156334901147
 20
29.80661053641797
 30
0.0
 10
46.42025713447103
 20
29.83998771157159
 30
0.0
 10
46.35139171266606
 20
29.8455343006576
 30
0.0
 10
46.32166884402771
 20
29.84792825301377
 30
0.0
 10
46.31670829991415
 20
29.8483277873391
 30
0.0
 10
46.31174775580061
 20
29.84872732166443
 30
0.0
 10
46.30678721168706
 20
29.84912685598981
 30
0.0
  0
LINE
  5
65
330
2
100
AcDbEntity
  8
0
100
AcDbLine
 10
46.63701608048808
 20
29.71045848319269
 30
0.0
 11
46.60320282803455
 21
29.7397416187642
 31
0.0
  0
LINE
  5
66
330
2
100
AcDbEntity
  8
0
100
AcDbLine
 10
45.9494048345078
 20
30.18872801495215
 30
0.0
 11
45.87745138577395
 21
30.25104152946106
 31
0.0
  0
LINE
  5
67
330
2
100
AcDbEntity
  8
0
100
AcDbLine
 10
37.84324124788001
 20
28.8518113626375
 30
0.0
 11
37.84324124788001
 21
24.08505775488271
 31
0.0
  0
SPLINE
  5
68
330
2
100
AcDbEntity
  8
0
100
AcDbSpline
210
0.0
220
0.0
230
1.0
 70
     8
 71
     3
 72
    12
 73
     8
 74
     0
 42
0.000000001
 43
0.0000000001
 40
0.0
 40
0.0
 40
0.0
 40
0.0
 40
0.1814292812455576
 40
0.4157921650615154
 40
0.6513173281689944
 40
0.8893818971948077
 40
1.0
 40
1.0
 40
1.0
 40
1.0
 10
44.55829581178785
 20
31.19460543399254
 30
0.0
 10
44.53791657007639
 20
31.21229125683219
 30
0.0
 10
44.48005684934112
 20
31.25078219499892
 30
0.0
 10
44.37931010979335
 20
31.28517690004162
 30
0.0
 10
44.26212477493058
 20
31.29937689359334
 30
0.0
 10
44.16049896819336
 20
31.29021206159324
 30
0.0
 10
44.09985366098005
 20
31.27440651078118
 30
0.0
 10
44.08061419377985
 20
31.26939226663928
 30
0.0
  0
LINE
  5
69
330
2
100
AcDbEntity
  8
0
100
AcDbLine
 10
44.60541768719603
 20
31.15428394579193
 30
0.0
 11
44.5716044347425
 21
31.18356708140856
 31
0.0
  0
LINE
  5
6A
330
2
100
AcDbEntity
  8
0
100
AcDbLine
 10
44.08061419379895
 20
31.26939226664661
 30
0.0
 11
43.73369532488274
 21
31.16924541544711
 31
0.0
  0
LINE
  5
6B
330
2
100
AcDbEntity
  8
0
100
AcDbLine
 10
38.85795628532102
 20
29.76174079199271
 30
0.0
 11
38.4582521568093
 21
29.64635614887837
 31
0.0
  0
SPLINE
  5
6C
330
2
100
AcDbEntity
  8
0
100
AcDbSpline
210
0.0
220
0.0
230
1.0
 70
     8
 71
     3
 72
    16
 73
    12
 74
     0
 42
0.000000001
 43
0.0000000001
 40
0.0
 40
0.0
 40
0.0
 40
0.0
 40
0.069849537824281
 40
0.1990379081207497
 40
0.3285182403160725
 40
0.4581529125746114
 40
0.5879251972799257
 40
0.7178828956211265
 40
0.8480723407691126
 40
0.9707891010511616
 40
1.0
 40
1.0
 40
1.0
 40
1.0
 10
38.45825215679206
 20
29.64635614887108
 30
0.0
 10
38.43553528924662
 20
29.63905143580732
 30
0.0
 10
38.37080303852392
 20
29.61823648336935
 30
0.0
 10
38.26645950502801
 20
29.56491705221715
 30
0.0
 10
38.15161201112887
 20
29.48157801858887
 30
0.0
 10
38.04945964938385
 20
29.37939677305607
 30
0.0
 10
37.96407491505614
 20
29.2628085611483
 30
0.0
 10
37.89882509991965
 20
29.13614068213531
 30
0.0
 10
37.85753160140017
 20
29.00691486396982
 30
0.0
 10
37.84409201632267
 20
28.91150069142586
 30
0.0
 10
37.84337844512092
 20
28.86143702691989
 30
0.0
 10
37.84324124787604
 20
28.85181136262485
 30
0.0
  0
LINE
  5
6D
330
2
100
AcDbEntity
  8
0
100
AcDbLine
 10
47.25412246272052
 20
28.86043832307768
 30
0.0
 11
47.22030921026703
 21
28.88972145869435
 31
0.0
  0
LINE
  5
6E
330
2
100
AcDbEntity
  8
0
100
AcDbLine
 10
34.97489490844443
 20
16.90674042468992
 30
0.0
 11
34.9843493082966
 21
16.81327347437848
 31
0.0
  0
LINE
  5
6F
330
2
100
AcDbEntity
  8
0
100
AcDbLine
 10
50.27454750577135
 20
16.81327347437848
 30
0.0
 11
50.28400190562353
 21
16.90674042468992
 31
0.0
  0
SPLINE
  5
70
330
2
100
AcDbEntity
  8
0
100
AcDbSpline
210
0.0
220
0.0
230
1.0
 70
     8
 71
     3
 72
     9
 73
     5
 74
     0
 42
0.000000001
 43
0.0000000001
 40
0.0
 40
0.0
 40
0.0
 40
0.0
 40
0.2500021910301879
 40
1.0
 40
1.0
 40
1.0
 40
1.0
 10
47.74139989870109
 20
20.90562123892997
 30
0.0
 10
47.71841604865968
 20
21.16750649476628
 30
0.0
 10
47.62648145421993
 20
22.21503833741592
 30
0.0
 10
47.53137662327501
 20
23.26150411357081
 30
0.0
 10
47.46004820844389
 20
24.04635115284881
 30
0.0
  0
SPLINE
  5
71
330
2
100
AcDbEntity
  8
0
100
AcDbSpline
210
0.0
220
0.0
230
1.0
 70
     8
 71
     3
 72
     9
 73
     5
 74
     0
 42
0.000000001
 43
0.0000000001
 40
0.0
 40
0.0
 40
0.0
 40
0.0
 40
0.2424905473061644
 40
1.0
 40
1.0
 40
1.0
 40
1.0
 10
37.79882017653053
 20
24.04635902865446
 30
0.0
 10
37.77562611757829
 20
23.79264622765994
 30
0.0
 10
37.67997678522331
 20
22.74636708889347
 30
0.0
 10
37.58753912197653
 20
21.69900442766028
 30
0.0
 10
37.51751671828225
 20
20.90561731137754
 30
0.0
  0
LINE
  5
72
330
2
100
AcDbEntity
  8
0
100
AcDbLine
 10
47.74532441794036
 20
20.785548139132
 30
0.0
 11
47.74139989870109
 21
20.90562123892997
 31
0.0
  0
LINE
  5
73
330
2
100
AcDbEntity
  8
0
100
AcDbLine
 10
37.51751671828225
 20
20.90561731137754
 30
0.0
 11
37.51352253076581
 21
20.78551546382204
 31
0.0
  0
LINE
  5
74
330
2
100
AcDbEntity
  8
0
100
AcDbLine
 10
36.31881396398097
 20
22.08851697545753
 30
0.0
 11
36.24504535917562
 21
20.17535008461955
 31
0.0
  0
LINE
  5
75
330
2
100
AcDbEntity
  8
0
100
AcDbLine
 10
49.01385145493749
 20
20.17535008461955
 30
0.0
 11
48.94008285008698
 21
22.08851697545753
 31
0.0
  0
LINE
  5
76
330
2
100
AcDbEntity
  8
0
100
AcDbLine
 10
36.86215753267145
 20
20.10559642050648
 30
0.0
 11
36.75632829960303
 21
20.13614668859794
 31
0.0
  0
LINE
  5
77
330
2
100
AcDbEntity
  8
0
100
AcDbLine
 10
48.50256194702961
 20
20.13614479275649
 30
0.0
 11
48.39673928144163
 21
20.10559642050648
 31
0.0
  0
LINE
  5
78
330
2
100
AcDbEntity
  8
0
100
AcDbLine
 10
37.17747513407781
 20
22.96066518693072
 30
0.0
 11
36.70076503606894
 21
23.09827953864754
 31
0.0
  0
LINE
  5
79
330
2
100
AcDbEntity
  8
0
100
AcDbLine
 10
48.55813177804414
 20
23.09827953864754
 30
0.0
 11
48.08142167999019
 21
22.96066518693072
 31
0.0
  0
LWPOLYLINE
  5
7A
330
2
100
AcDbEntity
  8
0
100
AcDbPolyline
 90
       17
 70
   128
 43
0.0
 10
33.50394653230336
 20
21.4422050033888
 10
33.53312095091946
 20
21.48868716722629
 10
33.52993752269336
 20
21.54634936500769
 10
33.49488089567755
 20
21.60641304981397
 10
33.43328812356798
 20
21.65973407015126
 10
33.35453614758461
 20
21.69819478400623
 10
33.27061424211454
 20
21.71593989634441
 10
33.1942987565899
 20
21.71026787468362
 10
33.13720803185441
 20
21.68204223289324
 10
33.10803361319314
 20
21.63556006905574
 10
33.11121704141924
 20
21.5778978712743
 10
33.14627366843505
 20
21.51783418642295
 10
33.20786644054462
 20
21.46451316608566
 10
33.28661841657311
 20
21.42605245223074
 10
33.37054032199807
 20
21.40830733993762
 10
33.44685580756777
 20
21.41397936159841
 10
33.50394653230336
 20
21.4422050033888
  0
LWPOLYLINE
  5
7B
330
2
100
AcDbEntity
  8
0
100
AcDbPolyline
 90
        9
 70
   128
 43
0.0
 10
32.74826997552282
 20
21.45670041307528
 10
32.77744439418403
 20
21.50318257691272
 10
32.77426096595794
 20
21.56084477469417
 10
32.73920433894212
 20
21.62090845954551
 10
32.6776115668326
 20
21.6742294798828
 10
32.59885959080406
 20
21.71269019373772
 10
32.51493768537912
 20
21.73043530607591
 10
32.43862219980941
 20
21.72476328437005
 10
32.43491944042116
 20
21.72378112741709
  0
LWPOLYLINE
  5
7C
330
2
100
AcDbEntity
  8
0
100
AcDbPolyline
 90
        9
 70
   128
 43
0.0
 10
32.35306651647264
 20
21.65271908830918
 10
32.35235705645771
 20
21.65005547874217
 10
32.35554048468382
 20
21.59239328096077
 10
32.39059711165449
 20
21.53232959615444
 10
32.4521898838092
 20
21.4790085758172
 10
32.53094185979261
 20
21.44054786196223
 10
32.61486376526263
 20
21.42280274962405
 10
32.69117925078727
 20
21.42847477128484
 10
32.74826997552282
 20
21.45670041307528
  0
LWPOLYLINE
  5
7D
330
2
100
AcDbEntity
  8
0
100
AcDbPolyline
 90
       17
 70
   128
 43
0.0
 10
33.62844237657336
 20
20.88109106232778
 10
33.65761679523458
 20
20.92757322616522
 10
33.65443336700852
 20
20.98523542394666
 10
33.61937673999267
 20
21.04529910875294
 10
33.55778396788308
 20
21.09862012909018
 10
33.47903199185461
 20
21.13708084294515
 10
33.3951100864297
 20
21.15482595528334
 10
33.31879460090496
 20
21.14915393362255
 10
33.2617038761244
 20
21.12092829183216
 10
33.23252945750826
 20
21.07444612799466
 10
33.2357128857343
 20
21.01678393021328
 10
33.27076951275016
 20
20.95672024536188
 10
33.33236228485974
 20
20.90339922502463
 10
33.41111426088823
 20
20.86493851116966
 10
33.49503616631319
 20
20.84719339883148
 10
33.57135165183782
 20
20.85286542053738
 10
33.62844237657336
 20
20.88109106232778
  0
LINE
  5
7E
330
2
100
AcDbEntity
  8
0
100
AcDbLine
 10
33.77066408054681
 20
21.71321171699051
 30
0.0
 11
32.82880507903752
 21
22.32916246450534
 31
0.0
  0
ARC
  5
7F
330
2
100
AcDbEntity
  8
0
100
AcDbCircle
 10
32.61955555849799
 20
19.89282725642774
 30
0.0
 40
2.153799065332137
100
AcDbArc
 50
35.02348436029917
 51
57.69304655109994
  0
LINE
  5
80
330
2
100
AcDbEntity
  8
0
100
AcDbLine
 10
34.38333796561374
 20
21.12891869087956
 30
0.0
 11
34.3956836574249
 21
21.1105221940048
 31
0.0
  0
ARC
  5
81
330
2
100
AcDbEntity
  8
0
100
AcDbCircle
 10
34.83662925920386
 20
21.41954505261775
 30
0.0
 40
0.5384497663332719
100
AcDbArc
 50
215.0234843603989
 51
237.6930465510988
  0
LINE
  5
82
330
2
100
AcDbEntity
  8
0
100
AcDbLine
 10
34.54885212866909
 20
20.96444893749958
 30
0.0
 11
35.10215645283125
 21
20.60260261916163
 31
0.0
  0
LINE
  5
83
330
2
100
AcDbEntity
  8
0
100
AcDbLine
 10
34.51606007697052
 20
20.09502826860917
 30
0.0
 11
33.96275575280838
 21
20.45687458690205
 31
0.0
  0
ARC
  5
84
330
2
100
AcDbEntity
  8
0
100
AcDbCircle
 10
33.57070592087707
 20
19.85399725275912
 30
0.0
 40
0.7191412592625416
100
AcDbArc
 50
56.96413735989817
 51
75.62988647090108
  0
LINE
  5
85
330
2
100
AcDbEntity
  8
0
100
AcDbLine
 10
33.74918572364863
 20
20.5506385598562
 30
0.0
 11
33.72325746518244
 21
20.55727220895661
 31
0.0
  0
ARC
  5
86
330
2
100
AcDbEntity
  8
0
100
AcDbCircle
 10
34.43717667617848
 20
23.34383743743498
 30
0.0
 40
2.876565037052391
100
AcDbArc
 50
236.9641373599995
 51
255.6298864709011
  0
LINE
  5
87
330
2
100
AcDbEntity
  8
0
100
AcDbLine
 10
32.86897734845337
 20
20.93232810077322
 30
0.0
 11
32.10109328182046
 21
21.43450386603118
 31
0.0
  0
ARC
  5
88
330
2
100
AcDbEntity
  8
0
100
AcDbCircle
 10
31.64124450848538
 20
22.48617213588059
 30
0.0
 40
1.099765873597823
100
AcDbArc
 50
315.6185138917982
 51
349.0309109471987
  0
ARC
  5
89
330
2
100
AcDbEntity
  8
0
100
AcDbCircle
 10
31.61817868561338
 20
22.49692567632834
 30
0.0
 40
1.099765873597512
100
AcDbArc
 50
315.6185138917982
 51
349.0309109471987
  0
LWPOLYLINE
  5
8A
330
2
100
AcDbEntity
  8
0
100
AcDbPolyline
 90
        9
 70
   128
 43
0.0
 10
31.79616508441329
 20
21.50677928937521
 10
31.78718154884404
 20
21.43937545239996
 10
31.78720607440761
 20
21.38206413690332
 10
31.79623771852562
 20
21.33704778463793
 10
31.81392940024427
 20
21.30605634877495
 10
31.83960123811959
 20
21.29028081281194
 10
31.87226667785262
 20
21.29032742176557
 10
31.91067040483563
 20
21.30619438448023
 10
31.95333658547378
 20
21.33727194242664
  0
LINE
  5
8B
330
2
100
AcDbEntity
  8
0
100
AcDbLine
 10
31.80037265906957
 20
21.52926452400507
 30
0.0
 11
31.79616508441329
 21
21.50677928937521
 31
0.0
  0
LINE
  5
8C
330
2
100
AcDbEntity
  8
0
100
AcDbLine
 10
32.70205939116301
 20
22.31014814022234
 30
0.0
 11
32.69785181650673
 21
22.28766290563756
 31
0.0
  0
LINE
  5
8D
330
2
100
AcDbEntity
  8
0
100
AcDbLine
 10
31.95333658547378
 20
21.33727194242664
 30
0.0
 11
32.40417995152052
 21
21.7277137505578
 31
0.0
  0
LWPOLYLINE
  5
8E
330
2
100
AcDbEntity
  8
0
100
AcDbPolyline
 90
        9
 70
   128
 43
0.0
 10
32.82880507903752
 20
22.32916246450534
 10
32.81229461140127
 20
22.33798922993389
 10
32.79529663218087
 20
22.34328695597696
 10
32.77861698137866
 20
22.34480448825494
 10
32.76304640769141
 20
22.34246988348276
 10
32.7493230805692
 20
22.33639382068606
 10
32.73809759534732
 20
22.32686435370021
 10
32.72990212965382
 20
22.31433325534993
 10
32.72512521408012
 20
22.29939459981967
  0
LWPOLYLINE
  5
8F
330
2
100
AcDbEntity
  8
0
100
AcDbPolyline
 90
        9
 70
   128
 43
0.0
 10
32.83684321567982
 20
22.34884636435875
 10
32.81537960771657
 20
22.36032115937977
 10
32.79328223471654
 20
22.3672082032809
 10
32.7715986887232
 20
22.36918099520618
 10
32.75135694288027
 20
22.36614600905193
 10
32.7335166176079
 20
22.3582471273757
 10
32.71892348685546
 20
22.34585882031665
 10
32.7082693814449
 20
22.32956839246577
 10
32.70205939116301
 20
22.31014814022234
  0
LINE
  5
90
330
2
100
AcDbEntity
  8
0
100
AcDbLine
 10
32.72512521408012
 20
22.29939459981967
 30
0.0
 11
32.72091763937873
 21
22.27690936518981
 31
0.0
  0
LINE
  5
91
330
2
100
AcDbEntity
  8
0
100
AcDbLine
 10
33.77870221714403
 20
21.73289561688898
 30
0.0
 11
32.83684321567982
 21
22.34884636435875
 31
0.0
  0
ARC
  5
92
330
2
100
AcDbEntity
  8
0
100
AcDbCircle
 10
31.87101825050838
 20
21.51764694522191
 30
0.0
 40
0.0715944671449104
100
AcDbArc
 50
131.4912298235009
 51
170.6613651516
  0
LINE
  5
93
330
2
100
AcDbEntity
  8
0
100
AcDbLine
 10
31.97640240834577
 20
21.3265184019789
 30
0.0
 11
32.42724577439252
 21
21.71696021011004
 31
0.0
  0
ARC
  5
94
330
2
100
AcDbEntity
  8
0
100
AcDbCircle
 10
32.62759369509517
 20
19.91251115632627
 30
0.0
 40
2.153799065332321
100
AcDbArc
 50
35.02348436039887
 51
57.69304655109994
  0
ARC
  5
95
330
2
100
AcDbEntity
  8
0
100
AcDbCircle
 10
35.20617898164973
 20
20.76819277754701
 30
0.0
 40
0.1746471867255072
100
AcDbArc
 50
236.6610925816971
 51
249.1503439898992
  0
LINE
  5
96
330
2
100
AcDbEntity
  8
0
100
AcDbLine
 10
35.14401907789049
 20
20.60498191337674
 30
0.0
 11
36.03870242933352
 21
20.26737754778744
 31
0.0
  0
ARC
  5
97
330
2
100
AcDbEntity
  8
0
100
AcDbCircle
 10
35.23555402642037
 20
18.21472403979133
 30
0.0
 40
2.204185514176565
100
AcDbArc
 50
40.8387921867016
 51
68.63092307740021
  0
ARC
  5
98
330
2
100
AcDbEntity
  8
0
100
AcDbCircle
 10
35.24545776842037
 20
18.22271252942688
 30
0.0
 40
2.171209114990836
100
AcDbArc
 50
40.75484759110117
 51
68.62970744749919
  0
LINE
  5
99
330
2
100
AcDbEntity
  8
0
100
AcDbLine
 10
35.14194996864508
 20
20.5822442595712
 30
0.0
 11
36.03663332008816
 21
20.24463989398195
 31
0.0
  0
ARC
  5
9A
330
2
100
AcDbEntity
  8
0
100
AcDbCircle
 10
35.21507926718799
 20
20.77425704100637
 30
0.0
 40
0.2054672785060946
100
AcDbArc
 50
236.6610925819001
 51
249.1503439898009
  0
LINE
  5
9B
330
2
100
AcDbEntity
  8
0
100
AcDbLine
 10
34.55689026526632
 20
20.98413283735304
 30
0.0
 11
35.11019458942847
 21
20.62228651901504
 31
0.0
  0
LINE
  5
9C
330
2
100
AcDbEntity
  8
0
100
AcDbLine
 10
33.51198466890054
 20
21.46188890324221
 30
0.0
 11
33.5326799491485
 21
21.48699234602437
 31
0.0
  0
ARC
  5
9D
330
2
100
AcDbEntity
  8
0
100
AcDbCircle
 10
34.84466739580104
 20
21.4392289524712
 30
0.0
 40
0.5384497663323013
100
AcDbArc
 50
215.0234843602992
 51
237.6930465510988
  0
LWPOLYLINE
  5
9E
330
2
100
AcDbEntity
  8
0
100
AcDbPolyline
 90
        5
 70
   128
 43
0.0
 10
31.97640240834577
 20
21.3265184019789
 10
31.93373622775274
 20
21.29544084403242
 10
31.89533250072461
 20
21.27957388131781
 10
31.86266706103664
 20
21.27952727236419
 10
31.854150391942
 20
21.28262867356214
  0
LINE
  5
9F
330
2
100
AcDbEntity
  8
0
100
AcDbLine
 10
34.39137610221093
 20
21.14860259073297
 30
0.0
 11
34.40372179402212
 21
21.13020609385825
 31
0.0
  0
LINE
  5
A0
330
2
100
AcDbEntity
  8
0
100
AcDbLine
 10
35.45053694422738
 20
19.73706554342944
 30
0.0
 11
34.5558535927843
 21
20.07466990901874
 31
0.0
  0
ARC
  5
A1
330
2
100
AcDbEntity
  8
0
100
AcDbCircle
 10
34.62898289132727
 20
20.26668269040879
 30
0.0
 40
0.2054672785064163
100
AcDbArc
 50
236.6610925819001
 51
249.1503439898009
  0
LINE
  5
A2
330
2
100
AcDbEntity
  8
0
100
AcDbLine
 10
33.63648051321566
 20
20.90077496218119
 30
0.0
 11
33.65717579346367
 21
20.92587840496334
 31
0.0
  0
ARC
  5
A3
330
2
100
AcDbEntity
  8
0
100
AcDbCircle
 10
34.6659694438557
 20
17.72774169430106
 30
0.0
 40
2.157064786524432
100
AcDbArc
 50
43.43807867209954
 51
68.67117243009912
  0
LWPOLYLINE
  5
A4
330
2
100
AcDbEntity
  8
0
100
AcDbPolyline
 90
       17
 70
   128
 43
0.0
 10
42.94503876326668
 20
13.17265813773441
 10
42.85877361986987
 20
13.16969828363523
 10
42.78564156257134
 20
13.16126933224891
 10
42.7367762841622
 20
13.14865451503571
 10
42.71961708024329
 20
13.13377432352065
 10
42.7367762841622
 20
13.11889413205066
 10
42.78564156257134
 20
13.10627931483745
 10
42.85877361986987
 20
13.09785036340602
 10
42.94503876326668
 20
13.09489050930683
 10
43.0313039066635
 20
13.09785036340602
 10
43.10443596396203
 20
13.10627931483745
 10
43.15330124241619
 20
13.11889413205066
 10
43.17046044629003
 20
13.13377432352065
 10
43.15330124241619
 20
13.14865451503571
 10
43.10443596396203
 20
13.16126933224891
 10
43.0313039066635
 20
13.16969828363523
 10
42.94503876326668
 20
13.17265813773441
  0
LINE
  5
A5
330
2
100
AcDbEntity
  8
0
100
AcDbLine
 10
41.72776167494053
 20
13.20581374794545
 30
0.0
 11
41.72776167494053
 21
13.0606727527915
 31
0.0
  0
LINE
  5
A6
330
2
100
AcDbEntity
  8
0
100
AcDbLine
 10
43.53113513912746
 20
13.20581374794545
 30
0.0
 11
43.53113513912746
 21
13.0606727527915
 31
0.0
  0
ARC
  5
A7
330
2
100
AcDbEntity
  8
0
100
AcDbCircle
 10
43.09339163125641
 20
12.92892103232259
 30
0.0
 40
0.4379652417027688
100
AcDbArc
 50
268.2859860206984
 51
358.1767252639003
  0
LINE
  5
A8
330
2
100
AcDbEntity
  8
0
100
AcDbLine
 10
43.08029177308071
 20
12.49115174757224
 30
0.0
 11
42.17860504098728
 21
12.49115174757224
 31
0.0
  0
ARC
  5
A9
330
2
100
AcDbEntity
  8
0
100
AcDbCircle
 10
42.16550518281152
 20
12.92892103232259
 30
0.0
 40
0.4379652417027467
100
AcDbArc
 50
181.8232747360996
 51
271.7140139793016
  0
LINE
  5
AA
330
2
100
AcDbEntity
  8
0
100
AcDbLine
 10
41.72776167494053
 20
12.94111549111613
 30
0.0
 11
41.72776167494053
 21
12.91498638995544
 31
0.0
  0
LINE
  5
AB
330
2
100
AcDbEntity
  8
0
100
AcDbLine
 10
43.53113513912746
 20
12.94111549111613
 30
0.0
 11
43.53113513912746
 21
12.91498638995544
 31
0.0
  0
LINE
  5
AC
330
2
100
AcDbEntity
  8
0
100
AcDbLine
 10
41.72776167494053
 20
13.0606727527915
 30
0.0
 11
41.72776167494053
 21
12.94111549111613
 31
0.0
  0
LINE
  5
AD
330
2
100
AcDbEntity
  8
0
100
AcDbLine
 10
43.53113513912746
 20
13.0606727527915
 30
0.0
 11
43.53113513912746
 21
12.94111549111613
 31
0.0
  0
LWPOLYLINE
  5
AE
330
2
100
AcDbEntity
  8
0
100
AcDbPolyline
 90
       17
 70
   128
 43
0.0
 10
52.07054063804243
 20
21.16889573772403
 10
52.12763136277793
 20
21.14067009588858
 10
52.20394684830261
 20
21.13499807422779
 10
52.28786875377262
 20
21.15274318656592
 10
52.36662072975609
 20
21.19120390042089
 10
52.42821350186563
 20
21.24452492075818
 10
52.46327012888142
 20
21.30458860556447
 10
52.46645355710752
 20
21.3622508033459
 10
52.43727913849138
 20
21.4087329671834
 10
52.38018841371076
 20
21.43695860901885
 10
52.30387292818613
 20
21.44263063067964
 10
52.21995102276117
 20
21.42488551834146
 10
52.14119904673269
 20
21.38642480448649
 10
52.07960627462313
 20
21.3331037841492
 10
52.04454964760726
 20
21.27304009934293
 10
52.04136621938122
 20
21.21537790156153
 10
52.07054063804243
 20
21.16889573772403
  0
LWPOLYLINE
  5
AF
330
2
100
AcDbEntity
  8
0
100
AcDbPolyline
 90
       17
 70
   128
 43
0.0
 10
52.19503648231246
 20
21.73000967878512
 10
52.25212720709308
 20
21.70178403699468
 10
52.32844269261773
 20
21.69611201528882
 10
52.41236459804262
 20
21.713857127627
 10
52.49111657407116
 20
21.75231784148197
 10
52.55270934618074
 20
21.80563886181921
 10
52.58776597319655
 20
21.86570254667061
 10
52.59094940142265
 20
21.923364744452
 10
52.56177498276143
 20
21.96984690824443
 10
52.50468425802587
 20
21.99807255007988
 10
52.42836877250124
 20
22.00374457174067
 10
52.34444686703117
 20
21.98599945940249
 10
52.26569489104782
 20
21.94753874554752
 10
52.20410211893823
 20
21.89421772521028
 10
52.16904549192237
 20
21.834154040404
 10
52.16586206369633
 20
21.77649184262256
 10
52.19503648231246
 20
21.73000967878512
  0
LWPOLYLINE
  5
B0
330
2
100
AcDbEntity
  8
0
100
AcDbPolyline
 90
       17
 70
   128
 43
0.0
 10
51.31486408126193
 20
21.15440032799249
 10
51.37195480599742
 20
21.12617468620211
 10
51.44827029156719
 20
21.12050266454132
 10
51.53219219699213
 20
21.1382477768795
 10
51.61094417302061
 20
21.17670849073447
 10
51.67253694513019
 20
21.23002951107171
 10
51.707593572146
 20
21.29009319587804
 10
51.7107770003721
 20
21.34775539365948
 10
51.68160258171089
 20
21.39423755749693
 10
51.62451185697539
 20
21.42246319928731
 10
51.54819637145065
 20
21.42813522099317
 10
51.46427446598067
 20
21.41039010865504
 10
51.38552248999727
 20
21.37192939480007
 10
51.32392971784257
 20
21.31860837446282
 10
51.28887309087184
 20
21.25854468961144
 10
51.28568966264577
 20
21.20088249182999
 10
51.31486408126193
 20
21.15440032799249
  0
LINE
  5
B1
330
2
100
AcDbEntity
  8
0
100
AcDbLine
 10
52.38991946561458
 20
20.93232810077322
 30
0.0
 11
53.15780353229261
 21
21.43450386603118
 31
0.0
  0
ARC
  5
B2
330
2
100
AcDbEntity
  8
0
100
AcDbCircle
 10
50.82172013788952
 20
23.34383743743498
 30
0.0
 40
2.876565037051824
100
AcDbArc
 50
284.3701135290988
 51
303.0358626401018
  0
LINE
  5
B3
330
2
100
AcDbEntity
  8
0
100
AcDbLine
 10
51.53563934888551
 20
20.55727220895661
 30
0.0
 11
51.50971109046444
 21
20.5506385598562
 31
0.0
  0
ARC
  5
B4
330
2
100
AcDbEntity
  8
0
100
AcDbCircle
 10
51.68819089319089
 20
19.85399725275912
 30
0.0
 40
0.7191412592636527
100
AcDbArc
 50
104.3701135290989
 51
123.0358626400005
  0
LINE
  5
B5
330
2
100
AcDbEntity
  8
0
100
AcDbLine
 10
51.29614106125963
 20
20.45687458690205
 30
0.0
 11
50.74283673709747
 21
20.09502826860917
 31
0.0
  0
LINE
  5
B6
330
2
100
AcDbEntity
  8
0
100
AcDbLine
 10
50.1567403612367
 20
20.60260261916163
 30
0.0
 11
50.71004468539886
 21
20.96444893749958
 31
0.0
  0
ARC
  5
B7
330
2
100
AcDbEntity
  8
0
100
AcDbCircle
 10
50.42226755490921
 20
21.41954505261775
 30
0.0
 40
0.5384497663325807
100
AcDbArc
 50
302.3069534489001
 51
324.9765156397008
  0
LINE
  5
B8
330
2
100
AcDbEntity
  8
0
100
AcDbLine
 10
50.86321315668817
 20
21.1105221940048
 30
0.0
 11
50.87555884849938
 21
21.12891869087956
 31
0.0
  0
ARC
  5
B9
330
2
100
AcDbEntity
  8
0
100
AcDbCircle
 10
52.63934125561502
 20
19.89282725642774
 30
0.0
 40
2.153799065331821
100
AcDbArc
 50
122.3069534489
 51
144.9765156397008
  0
LINE
  5
BA
330
2
100
AcDbEntity
  8
0
100
AcDbLine
 10
51.48823273352117
 20
21.71321171699051
 30
0.0
 11
52.43009173503043
 21
22.32916246450534
 31
0.0
  0
ARC
  5
BB
330
2
100
AcDbEntity
  8
0
100
AcDbCircle
 10
53.61765230558263
 20
22.48617213588059
 30
0.0
 40
1.099765873597344
100
AcDbArc
 50
190.9690890528013
 51
224.3814861082013
  0
ARC
  5
BC
330
2
100
AcDbEntity
  8
0
100
AcDbCircle
 10
53.64071812845457
 20
22.49692567632834
 30
0.0
 40
1.099765873597816
100
AcDbArc
 50
190.9690890528013
 51
224.3814861082013
  0
LINE
  5
BD
330
2
100
AcDbEntity
  8
0
100
AcDbLine
 10
52.55683742290494
 20
22.31014814022234
 30
0.0
 11
52.56104499760628
 21
22.28766290563756
 31
0.0
  0
LINE
  5
BE
330
2
100
AcDbEntity
  8
0
100
AcDbLine
 10
53.45852415499843
 20
21.52926452400507
 30
0.0
 11
53.46273172969979
 21
21.50677928937521
 31
0.0
  0
LWPOLYLINE
  5
BF
330
2
100
AcDbEntity
  8
0
100
AcDbPolyline
 90
        9
 70
   128
 43
0.0
 10
53.30556022863923
 20
21.33727194242664
 10
53.34822640923233
 20
21.30619438448023
 10
53.3866301362604
 20
21.29032742176557
 10
53.41929557594837
 20
21.29028081281194
 10
53.44496741382369
 20
21.30605634877495
 10
53.46265909554238
 20
21.33704778463793
 10
53.47169073970546
 20
21.38206413690332
 10
53.47171526522392
 20
21.43937545239996
 10
53.46273172969979
 20
21.50677928937521
  0
LINE
  5
C0
330
2
100
AcDbEntity
  8
0
100
AcDbLine
 10
52.85471686259255
 20
21.7277137505578
 30
0.0
 11
53.30556022863923
 21
21.33727194242664
 31
0.0
  0
LWPOLYLINE
  5
C1
330
2
100
AcDbEntity
  8
0
100
AcDbPolyline
 90
        9
 70
   128
 43
0.0
 10
52.42205359843321
 20
22.34884636435875
 10
52.44351720639645
 20
22.36032115937977
 10
52.46561457935142
 20
22.3672082032809
 10
52.48729812538981
 20
22.36918099520618
 10
52.5075398712328
 20
22.36614600905193
 10
52.5253801964601
 20
22.3582471273757
 10
52.53997332725765
 20
22.34585882031665
 10
52.55062743262306
 20
22.32956839246577
 10
52.55683742290494
 20
22.31014814022234
  0
LWPOLYLINE
  5
C2
330
2
100
AcDbEntity
  8
0
100
AcDbPolyline
 90
        9
 70
   128
 43
0.0
 10
52.43009173503043
 20
22.32916246450534
 10
52.44660220271179
 20
22.33798922993389
 10
52.46360018188709
 20
22.34328695597696
 10
52.4802798326894
 20
22.34480448825494
 10
52.49585040642161
 20
22.34246988348276
 10
52.50957373354382
 20
22.33639382068606
 10
52.5207992187658
 20
22.32686435370021
 10
52.52899468441418
 20
22.31433325534993
 10
52.53377160003295
 20
22.29939459981967
  0
LINE
  5
C3
330
2
100
AcDbEntity
  8
0
100
AcDbLine
 10
51.48019459692392
 20
21.73289561688898
 30
0.0
 11
51.48823273352117
 21
21.71321171699051
 31
0.0
  0
LINE
  5
C4
330
2
100
AcDbEntity
  8
0
100
AcDbLine
 10
52.53377160003295
 20
22.29939459981967
 30
0.0
 11
52.53797917468923
 21
22.27690936518981
 31
0.0
  0
LINE
  5
C5
330
2
100
AcDbEntity
  8
0
100
AcDbLine
 10
51.48019459692392
 20
21.73289561688898
 30
0.0
 11
52.42205359843321
 21
22.34884636435875
 31
0.0
  0
ARC
  5
C6
330
2
100
AcDbEntity
  8
0
100
AcDbCircle
 10
53.38787856360468
 20
21.51764694522191
 30
0.0
 40
0.0715944671441765
100
AcDbArc
 50
9.33863484819869
 51
48.50877017670015
  0
LINE
  5
C7
330
2
100
AcDbEntity
  8
0
100
AcDbLine
 10
52.83165103967548
 20
21.71696021011004
 30
0.0
 11
53.28249440572218
 21
21.3265184019789
 31
0.0
  0
ARC
  5
C8
330
2
100
AcDbEntity
  8
0
100
AcDbCircle
 10
52.63130311897274
 20
19.91251115632627
 30
0.0
 40
2.153799065332627
100
AcDbArc
 50
122.3069534489
 51
144.9765156396011
  0
ARC
  5
C9
330
2
100
AcDbEntity
  8
0
100
AcDbCircle
 10
50.04381754687996
 20
20.77425704096131
 30
0.0
 40
0.2054672785029501
100
AcDbArc
 50
290.8496560100994
 51
303.3389074182009
  0
LINE
  5
CA
330
2
100
AcDbEntity
  8
0
100
AcDbLine
 10
49.22226349402496
 20
20.24463989398195
 30
0.0
 11
50.11694684542288
 21
20.5822442595712
 31
0.0
  0
ARC
  5
CB
330
2
100
AcDbEntity
  8
0
100
AcDbCircle
 10
50.01343904569275
 20
18.22271252942688
 30
0.0
 40
2.17120911499071
100
AcDbArc
 50
111.3702925525008
 51
139.2451524088988
  0
ARC
  5
CC
330
2
100
AcDbEntity
  8
0
100
AcDbCircle
 10
50.02334278764757
 20
18.21472403979133
 30
0.0
 40
2.204185514176598
100
AcDbArc
 50
111.3690769225998
 51
139.425193879765
  0
LINE
  5
CD
330
2
100
AcDbEntity
  8
0
100
AcDbLine
 10
49.2201943847795
 20
20.26737754778744
 30
0.0
 11
50.11487773617746
 21
20.60498191337674
 31
0.0
  0
ARC
  5
CE
330
2
100
AcDbEntity
  8
0
100
AcDbCircle
 10
50.05271783241823
 20
20.76819277759208
 30
0.0
 40
0.1746471867293071
100
AcDbArc
 50
290.8496560101991
 51
303.3389074182009
  0
LINE
  5
CF
330
2
100
AcDbEntity
  8
0
100
AcDbLine
 10
50.14870222463947
 20
20.62228651901504
 30
0.0
 11
50.70200654880168
 21
20.98413283735304
 31
0.0
  0
ARC
  5
D0
330
2
100
AcDbEntity
  8
0
100
AcDbCircle
 10
50.41422941831203
 20
21.4392289524712
 30
0.0
 40
0.5384497663337938
100
AcDbArc
 50
302.3069534489001
 51
324.9765156396011
  0
LWPOLYLINE
  5
D1
330
2
100
AcDbEntity
  8
0
100
AcDbPolyline
 90
        5
 70
   128
 43
0.0
 10
53.40474642217107
 20
21.28262867356214
 10
53.39622975307637
 20
21.27952727236419
 10
53.36356431334335
 20
21.27957388131781
 10
53.32516058636032
 20
21.29544084403242
 10
53.28249440572218
 20
21.3265184019789
  0
LINE
  5
D2
330
2
100
AcDbEntity
  8
0
100
AcDbLine
 10
50.85517502009095
 20
21.13020609385825
 30
0.0
 11
50.86752071190215
 21
21.14860259073297
 31
0.0
  0
LINE
  5
D3
330
2
100
AcDbEntity
  8
0
100
AcDbLine
 10
50.70304322128365
 20
20.07466990901874
 30
0.0
 11
49.80835986988568
 21
19.73706554342944
 31
0.0
  0
ARC
  5
D4
330
2
100
AcDbEntity
  8
0
100
AcDbCircle
 10
50.62991392274068
 20
20.26668269040879
 30
0.0
 40
0.2054672785046365
100
AcDbArc
 50
290.8496560101991
 51
303.3389074180998
  0
ARC
  5
D5
330
2
100
AcDbEntity
  8
0
100
AcDbCircle
 10
50.59292737021225
 20
17.72774169430106
 30
0.0
 40
2.157064786523243
100
AcDbArc
 50
111.3288275699008
 51
136.5619213279004
  0
LINE
  5
D6
330
2
100
AcDbEntity
  8
0
100
AcDbLine
 10
43.54708728815509
 20
31.1165694155336
 30
0.0
 11
43.54708728815509
 21
25.15005784258612
 31
0.0
  0
LINE
  5
D7
330
2
100
AcDbEntity
  8
0
100
AcDbLine
 10
43.81759330778314
 20
25.12716969424439
 30
0.0
 11
43.81759330778314
 21
30.88230433064585
 31
0.0
  0
ARC
  5
D8
330
2
100
AcDbEntity
  8
0
100
AcDbCircle
 10
43.37345133108949
 20
30.90817867654096
 30
0.0
 40
0.4448950182090229
100
AcDbArc
 50
356.6658924962008
 51
73.03118074250048
  0
LINE
  5
D9
330
2
100
AcDbEntity
  8
0
100
AcDbLine
 10
43.34749254295336
 20
31.52184243817139
 30
0.0
 11
43.36080116590795
 21
31.51080408554238
 31
0.0
  0
ARC
  5
DA
330
2
100
AcDbEntity
  8
0
100
AcDbCircle
 10
43.07816322054326
 20
31.13498446605553
 30
0.0
 40
0.4692855156985542
100
AcDbArc
 50
357.7511011825993
 51
47.59820542879987
  0
LINE
  5
DB
330
2
100
AcDbEntity
  8
0
100
AcDbLine
 10
45.61729619856024
 20
30.36065564990546
 30
0.0
 11
45.61729619856024
 21
24.80759845623637
 31
0.0
  0
LINE
  5
DC
330
2
100
AcDbEntity
  8
0
100
AcDbLine
 10
45.88780221818825
 20
24.7305557029699
 30
0.0
 11
45.88780221818825
 21
30.12639056501771
 31
0.0
  0
ARC
  5
DD
330
2
100
AcDbEntity
  8
0
100
AcDbCircle
 10
45.4436602414947
 20
30.15226491091282
 30
0.0
 40
0.4448950182087506
100
AcDbArc
 50
356.6658924962008
 51
73.03118074370122
  0
LINE
  5
DE
330
2
100
AcDbEntity
  8
0
100
AcDbLine
 10
45.41770145335846
 20
30.76592867249823
 30
0.0
 11
45.43101007631306
 21
30.75489031991424
 31
0.0
  0
ARC
  5
DF
330
2
100
AcDbEntity
  8
0
100
AcDbCircle
 10
45.14837213094836
 20
30.37907070038237
 30
0.0
 40
0.4692855156986344
100
AcDbArc
 50
357.7511011825993
 51
47.59820542869912
  0
LINE
  5
E0
330
2
100
AcDbEntity
  8
0
100
AcDbLine
 10
46.78948895028169
 20
29.34550694875541
 30
0.0
 11
46.78948895028169
 21
24.40113040283507
 31
0.0
  0
LINE
  5
E1
330
2
100
AcDbEntity
  8
0
100
AcDbLine
 10
47.05999496990973
 20
24.27541534262482
 30
0.0
 11
47.05999496990973
 21
29.11124186391278
 31
0.0
  0
ARC
  5
E2
330
2
100
AcDbEntity
  8
0
100
AcDbCircle
 10
46.61585299321614
 20
29.13711620976278
 30
0.0
 40
0.4448950182088672
100
AcDbArc
 50
356.6658924962008
 51
73.03118074250048
  0
LINE
  5
E3
330
2
100
AcDbEntity
  8
0
100
AcDbLine
 10
46.58989420507995
 20
29.75077997139325
 30
0.0
 11
46.60320282803455
 21
29.7397416187642
 31
0.0
  0
ARC
  5
E4
330
2
100
AcDbEntity
  8
0
100
AcDbCircle
 10
46.32056488266985
 20
29.36392199927734
 30
0.0
 40
0.4692855156985344
100
AcDbArc
 50
357.7511011825993
 51
47.59820542869912
  0
LINE
  5
E5
330
2
100
AcDbEntity
  8
0
100
AcDbLine
 10
46.10187770430147
 20
29.82377648051486
 30
0.0
 11
46.10187770430147
 21
24.66307607485163
 31
0.0
  0
LINE
  5
E6
330
2
100
AcDbEntity
  8
0
100
AcDbLine
 10
46.37238372392946
 20
24.56881392674063
 30
0.0
 11
46.37238372392946
 21
29.5895113956722
 31
0.0
  0
ARC
  5
E7
330
2
100
AcDbEntity
  8
0
100
AcDbCircle
 10
45.92824174723586
 20
29.61538574156731
 30
0.0
 40
0.444895018209926
100
AcDbArc
 50
356.6658924962008
 51
73.03118073830056
  0
ARC
  5
E8
330
2
100
AcDbEntity
  8
0
100
AcDbCircle
 10
45.6329536367347
 20
29.8421915310368
 30
0.0
 40
0.4692855156986602
100
AcDbArc
 50
357.7511011825993
 51
47.59820542869912
  0
LINE
  5
E9
330
2
100
AcDbEntity
  8
0
100
AcDbLine
 10
44.75789055698963
 20
30.78933241139977
 30
0.0
 11
44.75789055698963
 21
24.99873884390099
 31
0.0
  0
LINE
  5
EA
330
2
100
AcDbEntity
  8
0
100
AcDbLine
 10
45.02839657661768
 20
24.94675837304042
 30
0.0
 11
45.02839657661768
 21
30.55506732651208
 31
0.0
  0
ARC
  5
EB
330
2
100
AcDbEntity
  8
0
100
AcDbCircle
 10
44.58425459996916
 20
30.58094167240709
 30
0.0
 40
0.4448950182092366
100
AcDbArc
 50
356.6658924962008
 51
73.03118074139982
  0
LINE
  5
EC
330
2
100
AcDbEntity
  8
0
100
AcDbLine
 10
44.55829581178785
 20
31.19460543399254
 30
0.0
 11
44.5716044347425
 21
31.18356708140856
 31
0.0
  0
ARC
  5
ED
330
2
100
AcDbEntity
  8
0
100
AcDbCircle
 10
44.28896648942287
 20
30.80774746192175
 30
0.0
 40
0.4692855156987492
100
AcDbArc
 50
357.7511011825993
 51
47.59820542869912
  0
LINE
  5
EE
330
2
100
AcDbEntity
  8
0
100
AcDbLine
 10
47.37278208006067
 20
24.10973298528331
 30
0.0
 11
47.37278208006067
 21
28.52476992425701
 31
0.0
  0
ARC
  5
EF
330
2
100
AcDbEntity
  8
0
100
AcDbCircle
 10
46.92626938550017
 20
28.55014252611918
 30
0.0
 40
0.4472329989577967
100
AcDbArc
 50
356.7477266561998
 51
72.60205757269652
  0
LWPOLYLINE
  5
F0
330
2
100
AcDbEntity
  8
0
100
AcDbPolyline
 90
       89
 70
   128
 43
0.0
 10
44.46240450578247
 20
13.92140514104369
 10
44.03314142794582
 20
13.86360653280231
 10
43.5967254522157
 20
13.82126682750226
 10
43.15538045443025
 20
13.79460177849057
 10
42.71135542740751
 20
13.7837472648182
 10
42.26691302104788
 20
13.78875859856413
 10
41.82431801188001
 20
13.80961024310356
 10
41.38582576268778
 20
13.84619594331127
 10
40.95367072938595
 20
13.89832926679921
 10
40.53005507501568
 20
13.96574455406886
 10
40.1171374478478
 20
14.04809827230369
 10
39.71702198148081
 20
14.14497076581359
 10
39.33174757256804
 20
14.25586839461036
 10
38.96327749117786
 20
14.38022604979821
 10
38.61348937644391
 20
14.51741003324551
 10
38.28416566840642
 20
14.66672128679548
 10
37.97698452514155
 20
14.82739895455991
 10
37.69351127138982
 20
14.99862425999188
 10
37.43519042187456
 20
15.1795246781707
 10
37.20333832042739
 20
15.36917838197361
 10
36.99913643216027
 20
15.56661893968418
 10
36.82362532317382
 20
15.77084023941812
 10
36.67769935782747
 20
15.98080161629525
 10
36.56210214134471
 20
16.1954331552136
 10
36.47742273065439
 20
16.41364114307864
 10
36.42409263267611
 20
16.63431364199389
 10
36.40238360533138
 20
16.85632615546019
 10
36.41240627282325
 20
17.0785473586851
 10
36.45410956194718
 20
17.29984486324648
 10
36.52728096231752
 20
17.5190909878426
 10
36.63154760924828
 20
17.73516850451605
 10
36.76637818383272
 20
17.94697633167864
 10
36.93108562030236
 20
18.15343514526258
 10
37.12483060736719
 20
18.35349287846867
 10
37.34662586496078
 20
18.546130082925
 10
37.59534117529141
 20
18.73036512362013
 10
37.86970914218607
 20
18.90525918096455
 10
38.16833164933099
 20
19.06992103500584
 10
38.48968698485986
 20
19.22351160663829
 10
38.83213759572389
 20
19.36524823349158
 10
39.19393843203628
 20
19.49440865827179
 10
39.57324583968738
 20
19.61033470899533
 10
39.9681269551084
 20
19.71243565308385
 10
40.37656955457628
 20
19.80019120759963
 10
40.79649230828547
 20
19.87315419029531
 10
41.22575538612217
 20
19.93095279853674
 10
41.66217136185225
 20
19.97329250383679
 10
42.10351635968275
 20
19.99995755284843
 10
42.54754138666043
 20
20.01081206652085
 10
42.99198379306518
 20
20.00580073277487
 10
43.43457880218799
 20
19.98494908823548
 10
43.87307105142523
 20
19.94836338802778
 10
44.30522608472712
 20
19.89623006453984
 10
44.72884173905225
 20
19.82881477727014
 10
45.14175936622009
 20
19.74646105903536
 10
45.54187483263226
 20
19.64958856552546
 10
45.92714924154509
 20
19.53869093672868
 10
46.29561932289009
 20
19.41433328154079
 10
46.64540743762408
 20
19.27714929809349
 10
46.97473114570665
 20
19.12783804454358
 10
47.28191228892645
 20
18.96716037677914
 10
47.56538554267817
 20
18.79593507134712
 10
47.8237063922385
 20
18.61503465316836
 10
48.05555849368568
 20
18.42538094936538
 10
48.25976038190773
 20
18.22794039165487
 10
48.43527149089418
 20
18.02371909192087
 10
48.58119745628554
 20
17.81375771504375
 10
48.69679467276836
 20
17.59912617612545
 10
48.78147408341356
 20
17.38091818826036
 10
48.83480418143691
 20
17.16024568934511
 10
48.8565132087817
 20
16.9382331758788
 10
48.84649054128981
 20
16.71601197265389
 10
48.80478725212078
 20
16.49471446809252
 10
48.73161585175049
 20
16.2754683434964
 10
48.62734920481965
 20
16.05939082682295
 10
48.49251863028038
 20
15.84758299966035
 10
48.32781119376564
 20
15.64112418607642
 10
48.13406620670081
 20
15.44106645287038
 10
47.91227094910717
 20
15.24842924841399
 10
47.66355563877655
 20
15.06419420771891
 10
47.389187671927
 20
14.88930015037449
 10
47.09056516478203
 20
14.72463829633321
 10
46.76920982920808
 20
14.57104772470074
 10
46.42675921838917
 20
14.42931109784742
 10
46.06495838207674
 20
14.30015067306725
 10
45.68565097438063
 20
14.18422462234367
 10
45.2907698590047
 20
14.08212367825521
 10
44.88232725953673
 20
13.99436812373941
 10
44.46240450578247
 20
13.92140514104369
  0
LWPOLYLINE
  5
F1
330
2
100
AcDbEntity
  8
0
100
AcDbPolyline
 90
       98
 70
   128
 43
0.0
 10
36.00013588459702
 20
15.09288568724944
 10
35.76628950858324
 20
15.31145618352254
 10
35.5612296061047
 20
15.5371367162357
 10
35.38581626967056
 20
15.76898070277279
 10
35.24078524373449
 20
16.00601570884341
 10
35.12674483885216
 20
16.24724752735306
 10
35.0441733801331
 20
16.49166434811829
 10
34.9934172009426
 20
16.73824100215099
 10
34.97468919032967
 20
16.98594326121649
 10
34.98806790008659
 20
17.23373217593865
 10
35.03349721522722
 20
17.4805684335614
 10
35.110786589508
 20
17.72541671697333
 10
35.21961184432225
 20
17.96725004741078
 10
35.35951652880424
 20
18.20505409186108
 10
35.52991383406521
 20
18.43783141749047
 10
35.73008905457283
 20
18.66460567533562
 10
35.95920258589869
 20
18.88442569526881
 10
36.21629344625597
 20
19.09636947582637
 10
36.50028330730945
 20
19.2995480510923
 10
36.809981016766
 20
19.49310921953349
 10
37.14408759489096
 20
19.6762411183312
 10
37.50120168258968
 20
19.84817562860084
 10
37.87982541918767
 20
20.00819159738904
 10
38.27837072524864
 20
20.15561786197655
 10
38.69516596319887
 20
20.28983606543944
 10
39.12846294897876
 20
20.41028324999093
 10
39.57644428442395
 20
20.51645421827318
 10
40.03723098017008
 20
20.60790365236623
 10
40.50889033666517
 20
20.68424798149696
 10
40.98944405064932
 20
20.74516699109878
 10
41.47687651288146
 20
20.79040516564903
 10
41.96914326212861
 20
20.81977276045842
 10
42.46417956065801
 20
20.83314659772564
 10
42.95990905417127
 20
20.83047058288777
 10
43.45425248088131
 20
20.81175594005116
 10
43.94513639267112
 20
20.77708116496816
 10
44.43050185181768
 20
20.7265916956962
 10
44.90831306689616
 20
20.66049930260653
 10
45.3765659316184
 20
20.5790812001779
 10
45.83329643076222
 20
20.48267888422639
 10
46.27658887784597
 20
20.37169669953091
 10
46.70458395037502
 20
20.24660014394071
 10
47.11548648821433
 20
20.10791391595327
 10
47.50757302330405
 20
19.95621971374209
 10
47.87919900852706
 20
19.79215379550769
 10
48.2288057152968
 20
19.61640431080085
 10
48.55492677159796
 20
19.42970841395255
 10
48.85619431234598
 20
19.23284917246095
 10
49.13134471686539
 20
19.02665228241693
 10
49.37922390868861
 20
18.81198260526064
 10
49.59879219635109
 20
18.58974054016069
 10
49.78912863412921
 20
18.36085824756945
 10
49.94943488486575
 20
18.1262957394196
 10
50.07903856847407
 20
17.88703685237126
 10
50.17739608200812
 20
17.64408512128775
 10
50.24409487989343
 20
17.39845957025222
 10
50.27885520417322
 20
17.15119043812167
 10
50.28153125800901
 20
16.90331485759894
 10
50.25211181706912
 20
16.65587250500015
 10
50.19072027673193
 20
16.40990123956212
 10
50.09761413447281
 20
16.1664327501894
 10
49.97318390977841
 20
15.92648822843969
 10
49.81795150623304
 20
15.69107408492591
 10
49.63256802249341
 20
15.46117772843026
 10
49.41781102135029
 20
15.23776342414173
 10
49.1745812682825
 20
15.02176824936536
 10
48.90389895338934
 20
14.8140981627996
 10
48.60689941239129
 20
14.61562420509879
 10
48.28482836455166
 20
14.42717884487777
 10
47.93903668780811
 20
14.24955248760628
 10
47.5709747525729
 20
14.08349015983656
 10
47.18218633859346
 20
13.92968838476833
 10
46.77430215948948
 20
13.78879226042336
 10
46.34903302332353
 20
13.66139275417945
 10
45.90816265666251
 20
13.54802422376305
 10
45.45354022296725
 20
13.44916217628707
 10
44.98707256673401
 20
13.36522127344981
 10
44.51071621548831
 20
13.29655359263152
 10
44.02646917326322
 20
13.24344714993197
 10
43.53636254041311
 20
13.20612469218043
 10
43.04245199452268
 20
13.18474276278851
 10
42.54680916807242
 20
13.17939104496114
 10
42.05151295933435
 20
13.19009198569377
 10
41.55864081265597
 20
13.21680070154539
 10
41.07026000519048
 20
13.25940516682131
 10
40.58841897573631
 20
13.31772668357672
 10
40.1151387330151
 20
13.39152063118942
 10
39.65240437886951
 20
13.48047749211816
 10
39.2021567819529
 20
13.58422415042196
 10
38.76628443721117
 20
13.70232545654727
 10
38.34661554465506
 20
13.83428605256734
 10
37.94491034155138
 20
13.97955244984865
 10
37.56285371909667
 20
14.13751535071401
 10
37.20204815549208
 20
14.30751220377778
 10
36.86400699472582
 20
14.48882998321461
 10
36.55014809887877
 20
14.68070817924878
 10
36.26178790118473
 20
14.88234198800627
 10
36.00013588459702
 20
15.09288568724944
  0
LWPOLYLINE
  5
F2
330
2
100
AcDbEntity
  8
0
100
AcDbPolyline
 90
       52
 70
   128
 43
0.0
 10
34.97489490844443
 20
16.90674042468992
 10
34.96522284416526
 20
17.07962374559853
 10
34.97861809888178
 20
17.32771909134306
 10
35.02410359474138
 20
17.57486060184434
 10
35.10148854975444
 20
17.82001167973099
 10
35.21044838460455
 20
18.06214407616857
 10
35.35052608383497
 20
18.30024220371775
 10
35.52113411283449
 20
18.53330739608238
 10
35.72155688237245
 20
18.76036209689564
 10
35.95095374959301
 20
18.98045395982446
 10
36.20836254433126
 20
19.19265984308708
 10
36.49270360470261
 20
19.39608968152118
 10
36.80278430541825
 20
19.58989021956696
 10
37.13730406029858
 20
19.77324859051274
 10
37.49485977720699
 20
19.94539572563706
 10
37.87395174322416
 20
20.10560957994809
 10
38.27298991490462
 20
20.25321816094909
 10
38.69030058746797
 20
20.38760234690563
 10
39.12413341497025
 20
20.50819848388365
 10
39.57266875170294
 20
20.61450074970144
 10
40.03402528465486
 20
20.70606327577899
 10
40.50626792412797
 20
20.78250201701083
 10
40.98741592040592
 20
20.84349636280965
 10
41.47545117157966
 20
20.88879048165656
 10
41.96832668817696
 20
20.91819439424351
 10
42.46397517906841
 20
20.93158477042905
 10
42.96031772213228
 20
20.92890544626563
 10
43.45527248433147
 20
20.91016765974556
 10
43.94676345337749
 20
20.87545000373271
 10
44.43272914527391
 20
20.82489809608094
 10
44.91113125108683
 20
20.75872396905643
 10
45.37996318615175
 20
20.67720518000429
 10
45.8372585062828
 20
20.58068364695539
 10
46.28109915613211
 20
20.46956421489936
 10
46.70962351367834
 20
20.34431295723216
 10
47.12103419887885
 20
20.20545522130499
 10
47.51360561231185
 20
20.05357342470201
 10
47.88569117306063
 20
19.88930461248082
 10
48.23573022495788
 20
19.71333778511393
 10
48.56225458265112
 20
19.52641100867278
 10
48.86389468940137
 20
19.32930831893195
 10
49.13938536181983
 20
19.12285643314243
 10
49.3875710962942
 20
18.90792128223508
 10
49.60741091559999
 20
18.6854043789165
 10
49.79798273513779
 20
18.45623903640053
 10
49.95848723044879
 20
18.22138645382558
 10
50.08825118991062
 20
17.98183168449776
 10
50.18673033841509
 20
17.73857950440703
 10
50.25351162012298
 20
17.49265019769874
 10
50.28831493119059
 20
17.24507527735827
 10
50.2909942943971
 20
16.99689315864761
 10
50.28400190562353
 20
16.90674042468992
  0
SPLINE
  5
F3
330
2
100
AcDbEntity
  8
0
100
AcDbSpline
210
0.0
220
0.0
230
1.0
 70
     8
 71
     3
 72
     8
 73
     4
 74
     0
 42
0.000000001
 43
0.0000000001
 40
0.0
 40
0.0
 40
0.0
 40
0.0
 40
1.0
 40
1.0
 40
1.0
 40
1.0
 10
37.81241548803807
 20
24.06699269100965
 30
0.0
 10
37.8102077820353
 20
24.06568898967694
 30
0.0
 10
37.8080335629212
 20
24.06409088537305
 30
0.0
 10
37.805891379122
 20
24.06220995697852
 30
0.0
  0
LWPOLYLINE
  5
F4
330
2
100
AcDbEntity
  8
0
100
AcDbPolyline
 90
       25
 70
   128
 43
0.0
 10
37.81241548802741
 20
24.06699269100011
 10
38.11985417957761
 20
24.23576502084062
 10
38.45088908002164
 20
24.39298369102766
 10
38.80378806704559
 20
24.53782606336055
 10
39.17670461574944
 20
24.66953425792314
 10
39.56768746035558
 20
24.78741911865685
 10
39.97469080414296
 20
24.89086381943153
 10
40.39558502413672
 20
24.97932709136247
 10
40.82816781392735
 20
25.05234605518877
 10
41.2701757074076
 20
25.1095386430687
 10
41.71929592211194
 20
25.1506055978896
 10
42.173178460619
 20
25.17533203904712
 10
42.62944840703396
 20
25.18358858675809
 10
43.08571835349408
 20
25.17533203904712
 10
43.53960089200113
 20
25.1506055978896
 10
43.98872110666039
 20
25.1095386430687
 10
44.4307290001406
 20
25.05234605518877
 10
44.86331178993127
 20
24.97932709136247
 10
45.28420600992503
 20
24.89086381943153
 10
45.6912093537575
 20
24.78741911865685
 10
46.08219219836358
 20
24.66953425792314
 10
46.45510874702241
 20
24.53782606336055
 10
46.80800773409141
 20
24.39298369102766
 10
47.13904263449039
 20
24.23576502084062
 10
47.44648132604054
 20
24.06699269100011
  0
SPLINE
  5
F5
330
2
100
AcDbEntity
  8
0
100
AcDbSpline
210
0.0
220
0.0
230
1.0
 70
     8
 71
     3
 72
     8
 73
     4
 74
     0
 42
0.000000001
 43
0.0000000001
 40
0.0
 40
0.0
 40
0.0
 40
0.0
 40
1.0
 40
1.0
 40
1.0
 40
1.0
 10
47.45300543497
 20
24.06220995697852
 30
0.0
 10
47.45087190969495
 20
24.06408328282096
 30
0.0
 10
47.44867231116507
 20
24.0656988637492
 30
0.0
 10
47.44648132605387
 20
24.06699269100965
 30
0.0
  0
ARC
  5
F6
330
2
100
AcDbEntity
  8
0
100
AcDbCircle
 10
45.10096899632023
 20
16.74997429430234
 30
0.0
 40
4.824776870791528
100
AcDbArc
 50
55.78013499239935
 51
56.76472523459747
  0
SPLINE
  5
F7
330
2
100
AcDbEntity
  8
0
100
AcDbSpline
210
0.0
220
0.0
230
1.0
 70
     8
 71
     3
 72
    12
 73
     8
 74
     0
 42
0.000000001
 43
0.0000000001
 40
0.0
 40
0.0
 40
0.0
 40
0.0
 40
0.2499999999999991
 40
0.2499999999999991
 40
0.4999999999999984
 40
0.4999999999999984
 40
1.0
 40
1.0
 40
1.0
 40
1.0
 10
47.87004880258599
 20
20.62614846407822
 30
0.0
 10
47.86964313217683
 20
20.63638182525191
 30
0.0
 10
47.86788586214999
 20
20.64735042565013
 30
0.0
 10
47.86189437052662
 20
20.66969102836385
 30
0.0
 10
47.85767102009867
 20
20.68092861024383
 30
0.0
 10
47.84231572078129
 20
20.71224902226797
 30
0.0
 10
47.82836158886306
 20
20.72993429637906
 30
0.0
 10
47.81427925239962
 20
20.73951302794315
 30
0.0
  0
LINE
  5
F8
330
2
100
AcDbEntity
  8
0
100
AcDbLine
 10
47.89982403263597
 20
19.87481173387413
 30
0.0
 11
47.87004880256737
 21
20.62614846407249
 31
0.0
  0
LINE
  5
F9
330
2
100
AcDbEntity
  8
0
100
AcDbLine
 10
37.38884801150058
 20
20.62614846407249
 30
0.0
 11
37.35928321184392
 21
19.88012165445444
 31
0.0
  0
SPLINE
  5
FA
330
2
100
AcDbEntity
  8
0
100
AcDbSpline
210
0.0
220
0.0
230
1.0
 70
     8
 71
     3
 72
    12
 73
     8
 74
     0
 42
0.000000001
 43
0.0000000001
 40
0.0
 40
0.0
 40
0.0
 40
0.0
 40
0.2500000000000007
 40
0.2500000000000007
 40
0.5000000000000016
 40
0.5000000000000016
 40
1.0
 40
1.0
 40
1.0
 40
1.0
 10
37.44461756169239
 20
20.73951302794319
 30
0.0
 10
37.43757569507511
 20
20.73472318712297
 30
0.0
 10
37.43063530385831
 20
20.72804454343765
 30
0.0
 10
37.41754340320293
 20
20.71157199260187
 30
0.0
 10
37.41149579279098
 20
20.70186718038392
 30
0.0
 10
37.39612356087932
 20
20.67054001275759
 30
0.0
 10
37.38965941997689
 20
20.64661689301399
 30
0.0
 10
37.38884801150602
 20
20.62614846407822
 30
0.0
  0
ARC
  5
FB
330
2
100
AcDbEntity
  8
0
100
AcDbCircle
 10
40.15792781833378
 20
16.74997429349082
 30
0.0
 40
4.824776871768862
100
AcDbArc
 50
123.2359827413535
 51
124.219865007498
  0
LINE
  5
FC
330
2
100
AcDbEntity
  8
0
100
AcDbLine
 10
48.30807189905832
 20
20.13624094899027
 30
0.0
 11
48.31393392359975
 21
19.66856818386218
 31
0.0
  0
LINE
  5
FD
330
2
100
AcDbEntity
  8
0
100
AcDbLine
 10
48.30807189905832
 20
20.13624094899027
 30
0.0
 11
48.37975185416514
 21
22.5452861935255
 31
0.0
  0
LINE
  5
FE
330
2
100
AcDbEntity
  8
0
100
AcDbLine
 10
36.95082491500964
 20
20.13624094899027
 30
0.0
 11
36.94495346949633
 21
19.66781657800698
 31
0.0
  0
LINE
  5
FF
330
2
100
AcDbEntity
  8
0
100
AcDbLine
 10
36.87914495994788
 20
22.5452861935255
 30
0.0
 11
36.95082491500964
 21
20.13624094899027
 31
0.0
  0
SPLINE
  5
100
330
2
100
AcDbEntity
  8
0
100
AcDbSpline
210
0.0
220
0.0
230
1.0
 70
     8
 71
     3
 72
    10
 73
     6
 74
     0
 42
0.000000001
 43
0.0000000001
 40
0.0
 40
0.0
 40
0.0
 40
0.0
 40
0.4606811165303391
 40
0.918853867887876
 40
1.0
 40
1.0
 40
1.0
 40
1.0
 10
47.45300543497
 20
24.06220995697852
 30
0.0
 10
47.45470979090724
 20
24.06019427764532
 30
0.0
 10
47.45810922272475
 20
24.05617389416261
 30
0.0
 10
47.46005799405377
 20
24.05032831469068
 30
0.0
 10
47.4599022865112
 20
24.04686818927084
 30
0.0
 10
47.45987885869286
 20
24.04634757743421
 30
0.0
  0
SPLINE
  5
101
330
2
100
AcDbEntity
  8
0
100
AcDbSpline
210
0.0
220
0.0
230
1.0
 70
     8
 71
     3
 72
    10
 73
     6
 74
     0
 42
0.000000001
 43
0.0000000001
 40
0.0
 40
0.0
 40
0.0
 40
0.0
 40
0.0931642053585279
 40
0.5453960097135929
 40
1.0
 40
1.0
 40
1.0
 40
1.0
 10
37.79904470868211
 20
24.04635331335998
 30
0.0
 10
37.7990201272394
 20
24.04695032720425
 30
0.0
 10
37.79887622410909
 20
24.05044532796322
 30
0.0
 10
37.80084207984012
 20
24.05626834385997
 30
0.0
 10
37.80420534671195
 20
24.06022596836417
 30
0.0
 10
37.805891379122
 20
24.06220995697852
 30
0.0
  0
LINE
  5
102
330
2
100
AcDbEntity
  8
0
100
AcDbLine
 10
36.90313604987737
 20
19.65611363873938
 30
0.0
 11
36.90152327991389
 21
19.97480881716954
 31
0.0
  0
LINE
  5
103
330
2
100
AcDbEntity
  8
0
100
AcDbLine
 10
36.7620182815561
 20
19.79710666442697
 30
0.0
 11
36.77075991941657
 21
20.0908684745582
 31
0.0
  0
LINE
  5
104
330
2
100
AcDbEntity
  8
0
100
AcDbLine
 10
36.90152327991389
 20
19.97480881716954
 30
0.0
 11
36.8907230718578
 21
20.05623809541906
 31
0.0
  0
LINE
  5
105
330
2
100
AcDbEntity
  8
0
100
AcDbLine
 10
48.3557607642357
 20
19.65611363873938
 30
0.0
 11
48.35737353419918
 21
19.97480881716954
 31
0.0
  0
LINE
  5
106
330
2
100
AcDbEntity
  8
0
100
AcDbLine
 10
48.35737353419918
 20
19.97480881716954
 30
0.0
 11
48.36817374225527
 21
20.05623809541906
 31
0.0
  0
LINE
  5
107
330
2
100
AcDbEntity
  8
0
100
AcDbLine
 10
48.48813689465142
 20
20.0908684745582
 30
0.0
 11
48.49665596501214
 21
19.80458602326571
 31
0.0
  0
SPLINE
  5
108
330
2
100
AcDbEntity
  8
0
100
AcDbSpline
210
0.0
220
0.0
230
1.0
 70
     8
 71
     3
 72
     8
 73
     4
 74
     0
 42
0.000000001
 43
0.0000000001
 40
0.0
 40
0.0
 40
0.0
 40
0.0
 40
1.0
 40
1.0
 40
1.0
 40
1.0
 10
36.69211991263089
 20
23.09765557298703
 30
0.0
 10
36.69102991804294
 20
23.09673724873839
 30
0.0
 10
36.68989293874141
 20
23.09546326850302
 30
0.0
 10
36.68874745674572
 20
23.09386763048998
 30
0.0
  0
SPLINE
  5
109
330
2
100
AcDbEntity
  8
0
100
AcDbSpline
210
0.0
220
0.0
230
1.0
 70
     8
 71
     3
 72
     8
 73
     4
 74
     0
 42
0.000000001
 43
0.0000000001
 40
0.0
 40
0.0
 40
0.0
 40
0.0
 40
1.0
 40
1.0
 40
1.0
 40
1.0
 10
36.69200451268456
 20
20.19307680861487
 30
0.0
 10
36.68994813980994
 20
21.16196950992399
 30
0.0
 10
36.68993156369167
 20
22.13018262266169
 30
0.0
 10
36.69211991263089
 20
23.09765557298703
 30
0.0
  0
LWPOLYLINE
  5
10A
330
2
100
AcDbEntity
  8
0
100
AcDbPolyline
 90
        3
 70
   128
 43
0.0
 10
36.68828709395488
 20
20.06988871016255
 10
36.68967959587094
 20
20.11603545420002
 10
36.69200451269543
 20
20.19307680863477
  0
ARC
  5
10B
330
2
100
AcDbEntity
  8
0
100
AcDbCircle
 10
38.87668704896381
 20
18.24842242988864
 30
0.0
 40
2.847250212615543
100
AcDbArc
 50
138.7392205193999
 51
140.2284442542999
  0
SPLINE
  5
10C
330
2
100
AcDbEntity
  8
0
100
AcDbSpline
210
0.0
220
0.0
230
1.0
 70
     8
 71
     3
 72
    12
 73
     8
 74
     0
 42
0.000000001
 43
0.0000000001
 40
0.0
 40
0.0
 40
0.0
 40
0.0
 40
0.2499999999999984
 40
0.2499999999999984
 40
0.4999999999999968
 40
0.4999999999999968
 40
1.0
 40
1.0
 40
1.0
 40
1.0
 10
36.77075991943901
 20
20.09086847457162
 30
0.0
 10
36.77106189232292
 20
20.10101203105407
 30
0.0
 10
36.77038486721253
 20
20.10987247002327
 30
0.0
 10
36.7672034815505
 20
20.12426912798189
 30
0.0
 10
36.76470048999303
 20
20.12968152682807
 30
0.0
 10
36.75512681509849
 20
20.13941281389437
 30
0.0
 10
36.74591391127222
 20
20.13703484652028
 30
0.0
 10
36.73636422976282
 20
20.12614765017725
 30
0.0
  0
ARC
  5
10D
330
2
100
AcDbEntity
  8
0
100
AcDbCircle
 10
38.16075278245254
 20
21.98148516951215
 30
0.0
 40
1.845045912298759
100
AcDbArc
 50
142.9219549761017
 51
176.6743833122004
  0
SPLINE
  5
10E
330
2
100
AcDbEntity
  8
0
100
AcDbSpline
210
0.0
220
0.0
230
1.0
 70
     8
 71
     3
 72
    12
 73
     8
 74
     0
 42
0.000000001
 43
0.0000000001
 40
0.0
 40
0.0
 40
0.0
 40
0.0
 40
0.25
 40
0.25
 40
0.5
 40
0.5
 40
1.0
 40
1.0
 40
1.0
 40
1.0
 10
48.52253258432914
 20
20.1261476501772
 30
0.0
 10
48.51775726997691
 20
20.13159178827762
 30
0.0
 10
48.51311374545456
 20
20.13494510989775
 30
0.0
 10
48.504499633893
 20
20.1372705170567
 30
0.0
 10
48.5005998899838
 20
20.13618036638143
 30
0.0
 10
48.49101428603255
 20
20.12646731863569
 30
0.0
 10
48.48753289852601
 20
20.11115727914849
 30
0.0
 10
48.48813689465305
 20
20.09086847457157
 30
0.0
  0
ARC
  5
10F
330
2
100
AcDbEntity
  8
0
100
AcDbCircle
 10
46.38220976523938
 20
18.2484224299337
 30
0.0
 40
2.847250212513246
100
AcDbArc
 50
39.77155574570004
 51
41.26077948059999
  0
LWPOLYLINE
  5
110
330
2
100
AcDbEntity
  8
0
100
AcDbPolyline
 90
        3
 70
   128
 43
0.0
 10
48.56689230141763
 20
20.19307680863477
 10
48.56828491757733
 20
20.14693010323457
 10
48.57060972011307
 20
20.06988871016255
  0
SPLINE
  5
111
330
2
100
AcDbEntity
  8
0
100
AcDbSpline
210
0.0
220
0.0
230
1.0
 70
     8
 71
     3
 72
     8
 73
     4
 74
     0
 42
0.000000001
 43
0.0000000001
 40
0.0
 40
0.0
 40
0.0
 40
0.0
 40
1.0
 40
1.0
 40
1.0
 40
1.0
 10
48.56677690146106
 20
23.09765557298698
 30
0.0
 10
48.56896525033054
 20
22.13018265353792
 30
0.0
 10
48.5689486742221
 20
21.16196948166882
 30
0.0
 10
48.56689230140744
 20
20.19307680861477
 30
0.0
  0
SPLINE
  5
112
330
2
100
AcDbEntity
  8
0
100
AcDbSpline
210
0.0
220
0.0
230
1.0
 70
     8
 71
     3
 72
     8
 73
     4
 74
     0
 42
0.000000001
 43
0.0000000001
 40
0.0
 40
0.0
 40
0.0
 40
0.0
 40
1.0
 40
1.0
 40
1.0
 40
1.0
 10
48.57014935734625
 20
23.09386763048998
 30
0.0
 10
48.56899513340152
 20
23.09547544589762
 30
0.0
 10
48.56787131959377
 20
23.09673352188654
 30
0.0
 10
48.56677690146106
 20
23.09765557298698
 30
0.0
  0
ARC
  5
113
330
2
100
AcDbEntity
  8
0
100
AcDbCircle
 10
47.11716298380554
 20
21.98848347141202
 30
0.0
 40
1.825662493689471
100
AcDbArc
 50
3.140980006699501
 51
37.26268170499875
  0
ELLIPSE
  5
114
330
2
100
AcDbEntity
  8
0
100
AcDbEllipse
 10
36.84573045153633
 20
20.01648797977141
 30
0.0
 11
0.0136011772234871
 21
0.089728352519106
 31
0.0
210
0.0
220
0.0
230
0.9999999999999998
 40
0.4926395442000002
 41
5.244502075587099
 42
6.218569152574726
  0
ELLIPSE
  5
115
330
2
100
AcDbEntity
  8
0
100
AcDbEllipse
 10
48.41316636253162
 20
20.01648797977141
 30
0.0
 11
-0.0136011772234358
 21
0.089728352519106
 31
0.0
210
0.0
220
0.0
230
1.0
 40
0.4926395442000001
 41
0.0646161546053534
 42
1.038683231592492
  0
LINE
  5
116
330
2
100
AcDbEntity
  8
0
100
AcDbLine
 10
37.1916522501061
 20
22.82483136620307
 30
0.0
 11
37.18718580727536
 21
22.93997713861612
 31
0.0
  0
LINE
  5
117
330
2
100
AcDbEntity
  8
0
100
AcDbLine
 10
36.87914495994788
 20
22.5452861935255
 30
0.0
 11
37.1916522501061
 21
22.82483136620307
 31
0.0
  0
SPLINE
  5
118
330
2
100
AcDbEntity
  8
0
100
AcDbSpline
210
0.0
220
0.0
230
1.0
 70
     8
 71
     3
 72
     8
 73
     4
 74
     0
 42
0.000000001
 43
0.0000000001
 40
0.0
 40
0.0
 40
0.0
 40
0.0
 40
1.0
 40
1.0
 40
1.0
 40
1.0
 10
48.56677690146106
 20
23.09765557298698
 30
0.0
 10
48.56502346002372
 20
23.09913285352403
 30
0.0
 10
48.56205423328578
 20
23.0993290363657
 30
0.0
 10
48.55813177804414
 20
23.09827953864754
 30
0.0
  0
SPLINE
  5
119
330
2
100
AcDbEntity
  8
0
100
AcDbSpline
210
0.0
220
0.0
230
1.0
 70
     8
 71
     3
 72
     8
 73
     4
 74
     0
 42
0.000000001
 43
0.0000000001
 40
0.0
 40
0.0
 40
0.0
 40
0.0
 40
1.0
 40
1.0
 40
1.0
 40
1.0
 10
36.69211991263089
 20
23.09765557298703
 30
0.0
 10
36.69387335406828
 20
23.09913285352403
 30
0.0
 10
36.69684258080613
 20
23.0993290363657
 30
0.0
 10
36.70076503606894
 20
23.09827953864754
 30
0.0
  0
LINE
  5
11A
330
2
100
AcDbEntity
  8
0
100
AcDbLine
 10
48.37975185416514
 20
22.5452861935255
 30
0.0
 11
48.06724456396183
 21
22.82483136620307
 31
0.0
  0
LINE
  5
11B
330
2
100
AcDbEntity
  8
0
100
AcDbLine
 10
48.06724456396183
 20
22.82483136620307
 30
0.0
 11
48.07171100679259
 21
22.93997713861612
 31
0.0
  0
LINE
  5
11C
330
2
100
AcDbEntity
  8
0
100
AcDbLine
 10
37.1916522501061
 20
22.82483136620307
 30
0.0
 11
37.72996141783011
 21
23.29102078057569
 31
0.0
  0
LINE
  5
11D
330
2
100
AcDbEntity
  8
0
100
AcDbLine
 10
47.5280343922179
 20
23.29180107290743
 30
0.0
 11
48.06724456396183
 21
22.82483136620307
 31
0.0
  0
ELLIPSE
  5
11E
330
2
100
AcDbEntity
  8
0
100
AcDbEllipse
 10
48.09420933251619
 20
22.91743139895805
 30
0.0
 11
-0.0128513900444041
 21
0.0432151114155569
 31
0.0
210
0.0
220
0.0
230
0.9999999999999998
 40
0.4286267729999997
 41
6.279748432445777
 42
7.183246669445687
  0
LINE
  5
11F
330
2
100
AcDbEntity
  8
0
100
AcDbLine
 10
47.51292546257091
 20
23.45948873289515
 30
0.0
 11
48.08704337973172
 21
22.96228803189091
 31
0.0
  0
ELLIPSE
  5
120
330
2
100
AcDbEntity
  8
0
100
AcDbEllipse
 10
37.16468748155177
 20
22.91743139895805
 30
0.0
 11
0.0128513900444041
 21
0.0432151114155569
 31
0.0
210
0.0
220
0.0
230
0.9999999999999998
 40
0.4286267729999997
 41
5.3831239449135
 42
6.286622181913805
  0
LINE
  5
121
330
2
100
AcDbEntity
  8
0
100
AcDbLine
 10
37.17185343438135
 20
22.96228803189091
 30
0.0
 11
37.74526354963896
 21
23.45887575850013
 31
0.0
  0
LINE
  5
122
330
2
100
AcDbEntity
  8
0
100
AcDbLine
 10
27.2622184102656
 20
11.06924365833264
 30
0.0
 11
27.37977397457675
 21
10.96743755327703
 31
0.0
  0
LINE
  5
123
330
2
100
AcDbEntity
  8
0
100
AcDbLine
 10
27.28839193625122
 20
11.06296215978191
 30
0.0
 11
27.32580130801308
 21
11.07376131520327
 31
0.0
  0
ARC
  5
124
330
2
100
AcDbEntity
  8
0
100
AcDbCircle
 10
27.31426302500744
 20
11.1650604654251
 30
0.0
 40
0.1053251026430799
100
AcDbArc
 50
174.8069247138071
 51
197.7982758284768
  0
ARC
  5
125
330
2
100
AcDbEntity
  8
0
100
AcDbCircle
 10
27.31426302500744
 20
11.1650604654251
 30
0.0
 40
0.1053251026430799
100
AcDbArc
 50
243.6760031272356
 51
255.7808851649024
  0
LWPOLYLINE
  5
126
330
2
100
AcDbEntity
  8
0
100
AcDbPolyline
 90
        3
 70
   128
 43
0.0
 10
27.37977397457675
 20
10.96743755327703
 10
27.39694008156823
 20
10.95561668275625
 10
27.42364485401297
 20
10.9458296970574
  0
LINE
  5
127
330
2
100
AcDbEntity
  8
0
100
AcDbLine
 10
27.42364485401297
 20
10.9458296970574
 30
0.0
 11
27.46105422577487
 21
10.9566288524968
 31
0.0
  0
ELLIPSE
  5
128
330
2
100
AcDbEntity
  8
0
100
AcDbEllipse
 10
27.39541337042638
 20
11.20650449910878
 30
0.0
 11
0.0156393958496412
 21
0.2390669458317385
 31
0.0
210
0.0
220
0.0
230
1.0
 40
0.6128168285279183
 41
1.9018349736237
 42
6.870853096261243
  0
ELLIPSE
  5
129
330
2
100
AcDbEntity
  8
0
100
AcDbEllipse
 10
27.58308452876316
 20
11.08421811354217
 30
0.0
 11
-0.0734966069899813
 21
-0.0474817530602718
 31
0.0
210
0.0
220
0.0
230
1.0
 40
0.8108083480216546
 41
-1.570796326794896
 42
4.712388980384688
  0
POLYLINE
  5
12A
330
2
100
AcDbEntity
  8
0
100
AcDb2dPolyline
 66
     1
 10
0.0
 20
0.0
 30
0.0
 70
     2
  0
VERTEX
  5
12B
330
12A
100
AcDbEntity
  8
0
100
AcDbVertex
100
AcDb2dVertex
 10
27.25178033008668
 20
11.13786537534256
 30
0.0
 42
-0.0407001063012493
  0
VERTEX
  5
12C
330
12A
100
AcDbEntity
  8
0
100
AcDbVertex
100
AcDb2dVertex
 10
27.23055537756521
 20
11.13327830394929
 30
0.0
 42
-0.0533636094325774
 70
     1
  0
VERTEX
  5
12D
330
12A
100
AcDbEntity
  8
0
100
AcDbVertex
100
AcDb2dVertex
 10
27.21397893013382
 20
11.13286609383389
 30
0.0
 42
-0.0721016312397558
  0
VERTEX
  5
12E
330
12A
100
AcDbEntity
  8
0
100
AcDbVertex
100
AcDb2dVertex
 10
27.18281979393733
 20
11.14002120541109
 30
0.0
 42
-0.049181819659195
 70
     1
  0
VERTEX
  5
12F
330
12A
100
AcDbEntity
  8
0
100
AcDbVertex
100
AcDb2dVertex
 10
27.14110538698731
 20
11.16110358645555
 30
0.0
 42
-0.1299918264744689
  0
VERTEX
  5
130
330
12A
100
AcDbEntity
  8
0
100
AcDbVertex
100
AcDb2dVertex
 10
27.12404916764339
 20
11.17955886352725
 30
0.0
 42
-0.0183988239051425
 70
     1
  0
VERTEX
  5
131
330
12A
100
AcDbEntity
  8
0
100
AcDbVertex
100
AcDb2dVertex
 10
27.04797023062029
 20
11.33677565270063
 30
0.0
 42
-0.1065909250173949
  0
VERTEX
  5
132
330
12A
100
AcDbEntity
  8
0
100
AcDbVertex
100
AcDb2dVertex
 10
26.9164880769534
 20
11.98037057462739
 30
0.0
 42
-0.0341714829428452
 70
     1
  0
VERTEX
  5
133
330
12A
100
AcDbEntity
  8
0
100
AcDbVertex
100
AcDb2dVertex
 10
27.07691889987506
 20
14.00239068506057
 30
0.0
 42
-0.0351584512428674
  0
VERTEX
  5
134
330
12A
100
AcDbEntity
  8
0
100
AcDbVertex
100
AcDb2dVertex
 10
27.41538381064515
 20
15.53189974922525
 30
0.0
 42
-0.0163892026655929
 70
     1
  0
VERTEX
  5
135
330
12A
100
AcDbEntity
  8
0
100
AcDbVertex
100
AcDb2dVertex
 10
28.47415524221124
 20
18.7178412662236
 30
0.0
 42
-0.0510981219346352
  0
VERTEX
  5
136
330
12A
100
AcDbEntity
  8
0
100
AcDbVertex
100
AcDb2dVertex
 10
29.88801879267953
 20
21.60246668002134
 30
0.0
 42
-0.0960405987144896
 70
     1
  0
VERTEX
  5
137
330
12A
100
AcDbEntity
  8
0
100
AcDbVertex
100
AcDb2dVertex
 10
31.0599099237134
 20
22.86210149388698
 30
0.0
 42
-0.1610809047953647
  0
VERTEX
  5
138
330
12A
100
AcDbEntity
  8
0
100
AcDbVertex
100
AcDb2dVertex
 10
32.3793995794041
 20
23.28558007228718
 30
0.0
 42
-0.255790732332755
 70
     1
  0
VERTEX
  5
139
330
12A
100
AcDbEntity
  8
0
100
AcDbVertex
100
AcDb2dVertex
 10
33.17046451756521
 20
22.84339823505346
 30
0.0
 42
-0.098011211948385
  0
VERTEX
  5
13A
330
12A
100
AcDbEntity
  8
0
100
AcDbVertex
100
AcDb2dVertex
 10
33.30832526847019
 20
22.48246050063171
 30
0.0
 42
-0.0855608966021421
 70
     1
  0
VERTEX
  5
13B
330
12A
100
AcDbEntity
  8
0
100
AcDbVertex
100
AcDb2dVertex
 10
33.30777190436375
 20
22.04087071503999
 30
0.0
  0
SEQEND
  5
13C
330
12A
100
AcDbEntity
  8
0
  0
POLYLINE
  5
13D
330
2
100
AcDbEntity
  8
0
100
AcDb2dPolyline
 66
     1
 10
0.0
 20
0.0
 30
0.0
  0
VERTEX
  5
13E
330
13D
100
AcDbEntity
  8
0
100
AcDbVertex
100
AcDb2dVertex
 10
27.3096787962365
 20
11.08772383281631
 30
0.0
 42
-0.0917287563956366
  0
VERTEX
  5
13F
330
13D
100
AcDbEntity
  8
0
100
AcDbVertex
100
AcDb2dVertex
 10
27.23959442256161
 20
11.06493077150698
 30
0.0
 42
-0.0533636094325817
  0
VERTEX
  5
140
330
13D
100
AcDbEntity
  8
0
100
AcDbVertex
100
AcDb2dVertex
 10
27.20834818246297
 20
11.06415376447398
 30
0.0
 42
-0.0721016312397559
  0
VERTEX
  5
141
330
13D
100
AcDbEntity
  8
0
100
AcDbVertex
100
AcDb2dVertex
 10
27.15791013170444
 20
11.07573591741419
 30
0.0
 42
-0.0491818196591948
  0
VERTEX
  5
142
330
13D
100
AcDbEntity
  8
0
100
AcDbVertex
100
AcDb2dVertex
 10
27.10412015623659
 20
11.102921267563
 30
0.0
 42
-0.129991826474462
  0
VERTEX
  5
143
330
13D
100
AcDbEntity
  8
0
100
AcDbVertex
100
AcDb2dVertex
 10
27.06313746256719
 20
11.14726561794688
 30
0.0
 42
-0.0183988239051426
  0
VERTEX
  5
144
330
13D
100
AcDbEntity
  8
0
100
AcDbVertex
100
AcDb2dVertex
 10
26.98484915223661
 20
11.30904806735535
 30
0.0
 42
-0.1065909250173949
  0
VERTEX
  5
145
330
13D
100
AcDbEntity
  8
0
100
AcDbVertex
100
AcDb2dVertex
 10
26.84754948826359
 20
11.98111925002824
 30
0.0
 42
-0.0341714829428451
  0
VERTEX
  5
146
330
13D
100
AcDbEntity
  8
0
100
AcDbVertex
100
AcDb2dVertex
 10
27.00872477680168
 20
14.01252237315564
 30
0.0
 42
-0.0351584512428675
  0
VERTEX
  5
147
330
13D
100
AcDbEntity
  8
0
100
AcDbVertex
100
AcDb2dVertex
 10
27.34928197545945
 20
15.55148640055939
 30
0.0
 42
-0.0163892026655928
  0
VERTEX
  5
148
330
13D
100
AcDbEntity
  8
0
100
AcDbVertex
100
AcDb2dVertex
 10
28.40947837768144
 20
18.74171578653287
 30
0.0
 42
-0.0510981219346353
  0
VERTEX
  5
149
330
13D
100
AcDbEntity
  8
0
100
AcDbVertex
100
AcDb2dVertex
 10
29.82952759532074
 20
21.63896146536026
 30
0.0
 42
-0.0960405987144895
  0
VERTEX
  5
14A
330
13D
100
AcDbEntity
  8
0
100
AcDbVertex
100
AcDb2dVertex
 10
31.01929414161963
 20
22.91781009080263
 30
0.0
 42
-0.1610809047953648
  0
VERTEX
  5
14B
330
13D
100
AcDbEntity
  8
0
100
AcDbVertex
100
AcDb2dVertex
 10
32.38001050966673
 20
23.35452001926723
 30
0.0
 42
-0.2557907323327542
  0
VERTEX
  5
14C
330
13D
100
AcDbEntity
  8
0
100
AcDbVertex
100
AcDb2dVertex
 10
33.22886739070867
 20
22.88003420008765
 30
0.0
 42
-0.0980112119483848
  0
VERTEX
  5
14D
330
13D
100
AcDbEntity
  8
0
100
AcDbVertex
100
AcDb2dVertex
 10
33.37628046878011
 20
22.49408720593615
 30
0.0
 42
-0.0910097670417274
  0
VERTEX
  5
14E
330
13D
100
AcDbEntity
  8
0
100
AcDbVertex
100
AcDb2dVertex
 10
33.37031785754721
 20
21.99996732445021
 30
0.0
 42
-0.0855608966021423
  0
SEQEND
  5
14F
330
13D
100
AcDbEntity
  8
0
  0
POLYLINE
  5
150
330
2
100
AcDbEntity
  8
0
100
AcDb2dPolyline
 66
     1
 10
0.0
 20
0.0
 30
0.0
 70
     2
  0
VERTEX
  5
151
330
150
100
AcDbEntity
  8
0
100
AcDbVertex
100
AcDb2dVertex
 10
27.06041712493574
 20
12.67566310247336
 30
0.0
 42
-0.0046298629942897
  0
VERTEX
  5
152
330
150
100
AcDbEntity
  8
0
100
AcDbVertex
100
AcDb2dVertex
 10
27.49052630730165
 20
14.45996122577458
 30
0.0
 42
-0.0075768084471684
 70
     1
  0
VERTEX
  5
153
330
150
100
AcDbEntity
  8
0
100
AcDbVertex
100
AcDb2dVertex
 10
27.70774565952537
 20
15.27338905144171
 30
0.0
 42
-0.0018925756175435
  0
VERTEX
  5
154
330
150
100
AcDbEntity
  8
0
100
AcDbVertex
100
AcDb2dVertex
 10
28.34310833683339
 20
17.48383415357223
 30
0.0
 42
-0.0043139102797093
 70
     1
  0
VERTEX
  5
155
330
150
100
AcDbEntity
  8
0
100
AcDbVertex
100
AcDb2dVertex
 10
28.63387131527857
 20
18.45006868043167
 30
0.0
 42
-0.0418767819269687
  0
VERTEX
  5
156
330
150
100
AcDbEntity
  8
0
100
AcDbVertex
100
AcDb2dVertex
 10
29.26843765638238
 20
20.01767737563737
 30
0.0
 42
-0.0330546918914628
 70
     1
  0
VERTEX
  5
157
330
150
100
AcDbEntity
  8
0
100
AcDbVertex
100
AcDb2dVertex
 10
30.35901435753623
 20
21.86024545093278
 30
0.0
 42
-0.0475351096181545
  0
VERTEX
  5
158
330
150
100
AcDbEntity
  8
0
100
AcDbVertex
100
AcDb2dVertex
 10
30.78355834800867
 20
22.36889899267044
 30
0.0
 42
-0.0420582397227134
 70
     1
  0
VERTEX
  5
159
330
150
100
AcDbEntity
  8
0
100
AcDbVertex
100
AcDb2dVertex
 10
31.35782739412212
 20
22.84890026199922
 30
0.0
 42
-0.1586308766120422
  0
VERTEX
  5
15A
330
150
100
AcDbEntity
  8
0
100
AcDbVertex
100
AcDb2dVertex
 10
32.29184547402514
 20
23.13528282893562
 30
0.0
 42
-0.2054227055945032
 70
     1
  0
VERTEX
  5
15B
330
150
100
AcDbEntity
  8
0
100
AcDbVertex
100
AcDb2dVertex
 10
32.99139989050099
 20
22.8209194663089
 30
0.0
 42
-0.1178316098490597
  0
VERTEX
  5
15C
330
150
100
AcDbEntity
  8
0
100
AcDbVertex
100
AcDb2dVertex
 10
33.14990897670737
 20
22.53665695758433
 30
0.0
 42
-0.0908404211066918
 70
     1
  0
VERTEX
  5
15D
330
150
100
AcDbEntity
  8
0
100
AcDbVertex
100
AcDb2dVertex
 10
33.18885756456703
 20
22.11863753191404
 30
0.0
  0
SEQEND
  5
15E
330
150
100
AcDbEntity
  8
0
  0
POLYLINE
  5
15F
330
2
100
AcDbEntity
  8
0
100
AcDb2dPolyline
 66
     1
 10
0.0
 20
0.0
 30
0.0
  0
VERTEX
  5
160
330
15F
100
AcDbEntity
  8
0
100
AcDbVertex
100
AcDb2dVertex
 10
27.19680157451663
 20
12.50001179826784
 30
0.0
 42
-0.0049846506989399
  0
VERTEX
  5
161
330
15F
100
AcDbEntity
  8
0
100
AcDbVertex
100
AcDb2dVertex
 10
27.65770243857341
 20
14.41802137996228
 30
0.0
 42
-0.0075768084471685
  0
VERTEX
  5
162
330
15F
100
AcDbEntity
  8
0
100
AcDbVertex
100
AcDb2dVertex
 10
27.87357415977555
 20
15.22640269130893
 30
0.0
 42
-0.0018925756175435
  0
VERTEX
  5
163
330
15F
100
AcDbEntity
  8
0
100
AcDbVertex
100
AcDb2dVertex
 10
28.50857638820908
 20
17.43559378139618
 30
0.0
 42
-0.0043139102797093
  0
VERTEX
  5
164
330
15F
100
AcDbEntity
  8
0
100
AcDbVertex
100
AcDb2dVertex
 10
28.79848236084574
 20
18.39898039203757
 30
0.0
 42
-0.0418767819269687
  0
VERTEX
  5
165
330
15F
100
AcDbEntity
  8
0
100
AcDbVertex
100
AcDb2dVertex
 10
29.42223463764627
 20
19.93987443168366
 30
0.0
 42
-0.0330546918914628
  0
VERTEX
  5
166
330
15F
100
AcDbEntity
  8
0
100
AcDbVertex
100
AcDb2dVertex
 10
30.50121659589616
 20
21.76285277698259
 30
0.0
 42
-0.0475351096181543
  0
VERTEX
  5
167
330
15F
100
AcDbEntity
  8
0
100
AcDbVertex
100
AcDb2dVertex
 10
30.90480839165482
 20
22.24640312968088
 30
0.0
 42
-0.0420582397227135
  0
VERTEX
  5
168
330
15F
100
AcDbEntity
  8
0
100
AcDbVertex
100
AcDb2dVertex
 10
31.45686885892599
 20
22.70784141689102
 30
0.0
 42
-0.1586308766120425
  0
VERTEX
  5
169
330
15F
100
AcDbEntity
  8
0
100
AcDbVertex
100
AcDb2dVertex
 10
32.28889368064634
 20
22.96295147238785
 30
0.0
 42
-0.2054227055945034
  0
VERTEX
  5
16A
330
15F
100
AcDbEntity
  8
0
100
AcDbVertex
100
AcDb2dVertex
 10
32.86449860955007
 20
22.70428810505999
 30
0.0
 42
-0.1178316098490587
  0
VERTEX
  5
16B
330
15F
100
AcDbEntity
  8
0
100
AcDbVertex
100
AcDb2dVertex
 10
32.98398606026628
 20
22.49000510517278
 30
0.0
 42
-0.0668429697767973
  0
VERTEX
  5
16C
330
15F
100
AcDbEntity
  8
0
100
AcDbVertex
100
AcDb2dVertex
 10
33.02101201888862
 20
22.2284040565923
 30
0.0
 42
-0.090840421106692
  0
SEQEND
  5
16D
330
15F
100
AcDbEntity
  8
0
  0
POLYLINE
  5
16E
330
2
100
AcDbEntity
  8
0
100
AcDb2dPolyline
 66
     1
 10
0.0
 20
0.0
 30
0.0
  0
VERTEX
  5
16F
330
16E
100
AcDbEntity
  8
0
100
AcDbVertex
100
AcDb2dVertex
 10
33.41162734216645
 20
21.97295201972722
 30
0.0
 42
-0.0745402614561629
  0
VERTEX
  5
170
330
16E
100
AcDbEntity
  8
0
100
AcDbVertex
100
AcDb2dVertex
 10
33.65984611945581
 20
24.30741517265809
 30
0.0
 42
-0.0819365762137526
  0
VERTEX
  5
171
330
16E
100
AcDbEntity
  8
0
100
AcDbVertex
100
AcDb2dVertex
 10
34.52827344244507
 20
26.26127724192699
 30
0.0
 42
-0.0382246655931619
  0
VERTEX
  5
172
330
16E
100
AcDbEntity
  8
0
100
AcDbVertex
100
AcDb2dVertex
 10
35.61167861925359
 20
27.66253544500214
 30
0.0
 42
-0.0691838780396303
  0
VERTEX
  5
173
330
16E
100
AcDbEntity
  8
0
100
AcDbVertex
100
AcDb2dVertex
 10
36.36387477416903
 20
28.29362814835705
 30
0.0
 42
-0.1505247027418366
  0
VERTEX
  5
174
330
16E
100
AcDbEntity
  8
0
100
AcDbVertex
100
AcDb2dVertex
 10
37.45051256817176
 20
28.58400026680742
 30
0.0
 42
-0.0265704236833233
  0
VERTEX
  5
175
330
16E
100
AcDbEntity
  8
0
100
AcDbVertex
100
AcDb2dVertex
 10
37.84324124788001
 20
28.54823627773387
 30
0.0
  0
SEQEND
  5
176
330
16E
100
AcDbEntity
  8
0
  0
POLYLINE
  5
177
330
2
100
AcDbEntity
  8
0
100
AcDb2dPolyline
 66
     1
 10
0.0
 20
0.0
 30
0.0
  0
VERTEX
  5
178
330
177
100
AcDbEntity
  8
0
100
AcDbVertex
100
AcDb2dVertex
 10
33.59014954905264
 20
21.85620324245949
 30
0.0
 42
-0.078575973028044
  0
VERTEX
  5
179
330
177
100
AcDbEntity
  8
0
100
AcDbVertex
100
AcDb2dVertex
 10
33.82664081027133
 20
24.26398314933998
 30
0.0
 42
-0.0819365762137527
  0
VERTEX
  5
17A
330
177
100
AcDbEntity
  8
0
100
AcDbVertex
100
AcDb2dVertex
 10
34.67227770701578
 20
26.16656936834089
 30
0.0
 42
-0.0382246655931619
  0
VERTEX
  5
17B
330
177
100
AcDbEntity
  8
0
100
AcDbVertex
100
AcDb2dVertex
 10
35.73958713899843
 20
27.54700960325913
 30
0.0
 42
-0.0691838780396306
  0
VERTEX
  5
17C
330
177
100
AcDbEntity
  8
0
100
AcDbVertex
100
AcDb2dVertex
 10
36.45541739032618
 20
28.14759130724887
 30
0.0
 42
-0.1505247027418365
  0
VERTEX
  5
17D
330
177
100
AcDbEntity
  8
0
100
AcDbVertex
100
AcDb2dVertex
 10
37.44401857825756
 20
28.41176601461365
 30
0.0
 42
-0.0283366032989949
  0
VERTEX
  5
17E
330
177
100
AcDbEntity
  8
0
100
AcDbVertex
100
AcDb2dVertex
 10
37.84324124788001
 20
28.37398936380272
 30
0.0
 42
-0.1067816705428748
  0
SEQEND
  5
17F
330
177
100
AcDbEntity
  8
0
  0
POLYLINE
  5
180
330
2
100
AcDbEntity
  8
0
100
AcDb2dPolyline
 66
     1
 10
0.0
 20
0.0
 30
0.0
  0
VERTEX
  5
181
330
180
100
AcDbEntity
  8
0
100
AcDbVertex
100
AcDb2dVertex
 10
33.67914270808468
 20
21.79800408234707
 30
0.0
 42
-0.0864966475812235
  0
VERTEX
  5
182
330
180
100
AcDbEntity
  8
0
100
AcDbVertex
100
AcDb2dVertex
 10
34.22720348852474
 20
22.88077577597961
 30
0.0
 42
-0.1260793531573543
  0
VERTEX
  5
183
330
180
100
AcDbEntity
  8
0
100
AcDbVertex
100
AcDb2dVertex
 10
34.88061310705399
 20
23.40789984244506
 30
0.0
 42
-0.0665074896870642
  0
VERTEX
  5
184
330
180
100
AcDbEntity
  8
0
100
AcDbVertex
100
AcDb2dVertex
 10
36.21540226638674
 20
23.8137531841
 30
0.0
 42
-0.0872984471678328
  0
VERTEX
  5
185
330
180
100
AcDbEntity
  8
0
100
AcDbVertex
100
AcDb2dVertex
 10
37.2815759947563
 20
23.80117262246486
 30
0.0
 42
-0.0298303408717098
  0
VERTEX
  5
186
330
180
100
AcDbEntity
  8
0
100
AcDbVertex
100
AcDb2dVertex
 10
37.52676242327434
 20
23.73971476304225
 30
0.0
 42
-0.0166425548949878
  0
VERTEX
  5
187
330
180
100
AcDbEntity
  8
0
100
AcDbVertex
100
AcDb2dVertex
 10
37.76320322560485
 20
23.65646975845375
 30
0.0
  0
SEQEND
  5
188
330
180
100
AcDbEntity
  8
0
  0
POLYLINE
  5
189
330
2
100
AcDbEntity
  8
0
100
AcDb2dPolyline
 66
     1
 10
0.0
 20
0.0
 30
0.0
  0
VERTEX
  5
18A
330
189
100
AcDbEntity
  8
0
100
AcDbVertex
100
AcDb2dVertex
 10
33.74508704166565
 20
21.77789352805426
 30
0.0
 42
-0.0864966475812234
  0
VERTEX
  5
18B
330
189
100
AcDbEntity
  8
0
100
AcDbVertex
100
AcDb2dVertex
 10
34.28245549874006
 20
22.83954102252375
 30
0.0
 42
-0.1260793531573541
  0
VERTEX
  5
18C
330
189
100
AcDbEntity
  8
0
100
AcDbVertex
100
AcDb2dVertex
 10
34.90922757944755
 20
23.3451758319304
 30
0.0
 42
-0.0665074896870643
  0
VERTEX
  5
18D
330
189
100
AcDbEntity
  8
0
100
AcDbVertex
100
AcDb2dVertex
 10
36.22654642317289
 20
23.74571718410789
 30
0.0
 42
-0.0872984471678326
  0
VERTEX
  5
18E
330
189
100
AcDbEntity
  8
0
100
AcDbVertex
100
AcDb2dVertex
 10
37.26882955154731
 20
23.73341852509118
 30
0.0
 42
-0.0298303408717098
  0
VERTEX
  5
18F
330
189
100
AcDbEntity
  8
0
100
AcDbVertex
100
AcDb2dVertex
 10
37.50604359683419
 20
23.67395900469106
 30
0.0
 42
-0.0179888392241807
  0
VERTEX
  5
190
330
189
100
AcDbEntity
  8
0
100
AcDbVertex
100
AcDb2dVertex
 10
37.75668274837447
 20
23.58495609885701
 30
0.0
 42
-0.0223727101742846
  0
SEQEND
  5
191
330
189
100
AcDbEntity
  8
0
  0
ELLIPSE
  5
192
330
2
100
AcDbEntity
  8
0
100
AcDbEllipse
 10
27.51695795429607
 20
15.07493982384385
 30
0.0
 11
-0.3301268489117391
 21
0.0742012036029641
 31
0.0
210
0.0
220
0.0
230
1.0
 40
0.5809397374563459
 41
5.714265006057348
 42
9.85740178862858
  0
ELLIPSE
  5
193
330
2
100
AcDbEntity
  8
0
100
AcDbEllipse
 10
27.51695795429607
 20
15.07493982384385
 30
0.0
 11
-0.3301268489117391
 21
0.0742012036029641
 31
0.0
210
0.0
220
0.0
230
1.0
 40
0.5809397374563459
 41
10.57037100166608
 42
11.68104088359399
  0
ELLIPSE
  5
194
330
2
100
AcDbEntity
  8
0
100
AcDbEllipse
 10
28.54105662935079
 20
18.38885091435548
 30
0.0
 11
-0.3031035787427428
 21
0.1052280530152148
 31
0.0
210
0.0
220
0.0
230
0.9999999999999998
 40
0.6455762318861252
 41
5.57074265611684
 42
10.15760111439395
  0
ELLIPSE
  5
195
330
2
100
AcDbEntity
  8
0
100
AcDbEllipse
 10
28.54105662935079
 20
18.38885091435548
 30
0.0
 11
-0.3031035787427428
 21
0.1052280530152148
 31
0.0
210
0.0
220
0.0
230
0.9999999999999998
 40
0.6455762318861252
 41
10.79334250496275
 42
11.56579345218613
  0
ELLIPSE
  5
196
330
2
100
AcDbEntity
  8
0
100
AcDbEllipse
 10
32.55123396196518
 20
23.12724395581295
 30
0.0
 11
-0.0841273313239383
 21
-0.2376233189500359
 31
0.0
210
0.0
220
0.0
230
1.0
 40
0.6893643018305377
 41
2.571438519388913
 42
6.923706853574566
  0
ELLIPSE
  5
197
330
2
100
AcDbEntity
  8
0
100
AcDbEllipse
 10
32.55123396196518
 20
23.12724395581295
 30
0.0
 11
-0.0841273313239383
 21
-0.2376233189500359
 31
0.0
210
0.0
220
0.0
230
1.0
 40
0.6893643018305377
 41
7.714972198776042
 42
8.451705391672668
  0
ELLIPSE
  5
198
330
2
100
AcDbEntity
  8
0
100
AcDbEllipse
 10
30.2083943090234
 20
21.75681986247402
 30
0.0
 11
0.2370438244925832
 21
-0.2316414741699642
 31
0.0
210
0.0
220
0.0
230
1.0
 40
0.5997093324209702
 41
2.503148074535856
 42
7.146244927074576
  0
ELLIPSE
  5
199
330
2
100
AcDbEntity
  8
0
100
AcDbEllipse
 10
30.2083943090234
 20
21.75681986247402
 30
0.0
 11
0.2370438244925832
 21
-0.2316414741699642
 31
0.0
210
0.0
220
0.0
230
1.0
 40
0.5997093324209702
 41
7.756559642359723
 42
8.506058199430404
  0
ELLIPSE
  5
19A
330
2
100
AcDbEntity
  8
0
100
AcDbEllipse
 10
32.56702160161216
 20
21.26265305895195
 30
0.0
 11
0.0337754357661144
 21
0.234545802925685
 31
0.0
210
0.0
220
0.0
230
1.0
 40
0.6734409848838055
 41
1.783251316079797
 42
6.966804327811713
  0
ELLIPSE
  5
19B
330
2
100
AcDbEntity
  8
0
100
AcDbEllipse
 10
32.4939551692824
 20
20.92298934721538
 30
0.0
 11
0.0434227510821101
 21
0.1288254826113575
 31
0.0
210
0.0
220
0.0
230
0.9999999999999998
 40
0.5668852251311926
 41
0.0
 42
6.283185307179585
  0
ARC
  5
19C
330
2
100
AcDbEntity
  8
0
100
AcDbCircle
 10
20.82415544198914
 20
20.51971245766358
 30
0.0
 40
11.63071307987658
100
AcDbArc
 50
306.0237860935812
 51
1.350384722851418
  0
SPLINE
  5
19D
330
2
100
AcDbEntity
  8
0
100
AcDbSpline
210
0.0
220
0.0
230
1.0
 70
     8
 71
     3
 72
    12
 73
     8
 74
     0
 42
0.000000001
 43
0.0000000001
 40
0.0
 40
0.0
 40
0.0
 40
0.0
 40
0.0561527116454317
 40
0.2973809050237443
 40
0.5349953206127607
 40
0.7911384943783137
 40
1.0
 40
1.0
 40
1.0
 40
1.0
 10
5.102931908822961
 20
6.00445300682325
 30
0.0
 10
5.106575645006199
 20
6.003550469575961
 30
0.0
 10
5.125872621627058
 20
5.998770694289104
 30
0.0
 10
5.16206117468578
 20
6.011434073880836
 30
0.0
 10
5.20278577113613
 20
6.040785276836603
 30
0.0
 10
5.234113666155094
 20
6.083402119409624
 30
0.0
 10
5.247682307792444
 20
6.118579044385413
 30
0.0
 10
5.253776798982014
 20
6.134379112297141
 30
0.0
  0
SPLINE
  5
19E
330
2
100
AcDbEntity
  8
0
100
AcDbSpline
210
0.0
220
0.0
230
1.0
 70
     8
 71
     3
 72
    14
 73
    10
 74
     0
 42
0.000000001
 43
0.0000000001
 40
0.0
 40
0.0
 40
0.0
 40
0.0
 40
0.0895666099134426
 40
0.2574446574809165
 40
0.4265404418782642
 40
0.5984839071749279
 40
0.7563954180467296
 40
0.9018621575732323
 40
1.0
 40
1.0
 40
1.0
 40
1.0
 10
5.253776798982014
 20
6.134379112297141
 30
0.0
 10
5.257184669759751
 20
6.146085108145275
 30
0.0
 10
5.266980040221729
 20
6.179732089922425
 30
0.0
 10
5.272874569448966
 20
6.240514282295116
 30
0.0
 10
5.266017376187792
 20
6.310887787836186
 30
0.0
 10
5.245083376895704
 20
6.372039041709054
 30
0.0
 10
5.212610882058833
 20
6.416922383593061
 30
0.0
 10
5.175363055239621
 20
6.444297960861646
 30
0.0
 10
5.148635031825793
 20
6.446607600321963
 30
0.0
 10
5.13786745705717
 20
6.447538055043296
 30
0.0
  0
LINE
  5
19F
330
2
100
AcDbEntity
  8
0
100
AcDbLine
 10
4.995187967731877
 20
6.009505907242942
 30
0.0
 11
5.105660338870199
 21
6.002374504168553
 31
0.0
  0
LINE
  5
1A0
330
2
100
AcDbEntity
  8
0
100
AcDbLine
 10
5.139332752984969
 20
6.44957574752983
 30
0.0
 11
5.029037201240315
 21
6.459067613542676
 31
0.0
  0
LINE
  5
1A1
330
2
100
AcDbEntity
  8
0
100
AcDbLine
 10
4.833848999879847
 20
6.539448793900248
 30
0.0
 11
4.628373984743864
 21
6.552712011221935
 31
0.0
  0
SPLINE
  5
1A2
330
2
100
AcDbEntity
  8
0
100
AcDbSpline
210
0.0
220
0.0
230
1.0
 70
     8
 71
     3
 72
    12
 73
     8
 74
     0
 42
0.000000001
 43
0.0000000001
 40
0.0
 40
0.0
 40
0.0
 40
0.0
 40
0.0561526623884076
 40
0.2973808932933741
 40
0.5349958086800302
 40
0.7911384618867823
 40
1.0
 40
1.0
 40
1.0
 40
1.0
 10
5.370009860314764
 20
6.815341899763319
 30
0.0
 10
5.373653596664117
 20
6.814439336137746
 30
0.0
 10
5.392950590331111
 20
6.80965941714884
 30
0.0
 10
5.429139185812482
 20
6.822322909298202
 30
0.0
 10
5.469863616883531
 20
6.851674231485676
 30
0.0
 10
5.501191662343326
 20
6.894290961938891
 30
0.0
 10
5.514760268069332
 20
6.929467858376629
 30
0.0
 10
5.520854750473745
 20
6.945267932511828
 30
0.0
  0
SPLINE
  5
1A3
330
2
100
AcDbEntity
  8
0
100
AcDbSpline
210
0.0
220
0.0
230
1.0
 70
     8
 71
     3
 72
    14
 73
    10
 74
     0
 42
0.000000001
 43
0.0000000001
 40
0.0
 40
0.0
 40
0.0
 40
0.0
 40
0.0895670159676381
 40
0.2574451310446296
 40
0.4265406876876749
 40
0.5984844361673513
 40
0.7563960547221375
 40
0.9018622010086328
 40
1.0
 40
1.0
 40
1.0
 40
1.0
 10
5.520854750473745
 20
6.945267932511828
 30
0.0
 10
5.524262618799868
 20
6.956973975049898
 30
0.0
 10
5.534057955825758
 20
6.990621000382446
 30
0.0
 10
5.539952578569565
 20
7.051403234667267
 30
0.0
 10
5.533095135022
 20
7.121776593154324
 30
0.0
 10
5.512161941809171
 20
7.182928187421293
 30
0.0
 10
5.479686926353937
 20
7.227810726947407
 30
0.0
 10
5.442441227264983
 20
7.255186813701371
 30
0.0
 10
5.415713063311319
 20
7.257496532147429
 30
0.0
 10
5.404945408548968
 20
7.258427020708788
 30
0.0
  0
LINE
  5
1A4
330
2
100
AcDbEntity
  8
0
100
AcDbLine
 10
5.262264755610078
 20
6.820394391551811
 30
0.0
 11
5.372738290365285
 21
6.813263469833581
 31
0.0
  0
LINE
  5
1A5
330
2
100
AcDbEntity
  8
0
100
AcDbLine
 10
5.406410704480123
 20
7.260464567743872
 30
0.0
 11
5.296115152735535
 21
7.269956433756682
 31
0.0
  0
LINE
  5
1A6
330
2
100
AcDbEntity
  8
0
100
AcDbLine
 10
5.100926951375006
 20
7.350337614114254
 30
0.0
 11
4.895451936229942
 21
7.363600831435979
 31
0.0
  0
LINE
  5
1A7
330
2
100
AcDbEntity
  8
0
100
AcDbLine
 10
5.318113570700793
 20
7.632366208916108
 30
0.0
 11
5.230251658333926
 21
7.637738453219617
 31
0.0
  0
LINE
  5
1A8
330
2
100
AcDbEntity
  8
0
100
AcDbLine
 10
5.299164087258268
 20
4.300687068190259
 30
0.0
 11
5.337066242631802
 21
4.415764698599943
 31
0.0
  0
LINE
  5
1A9
330
2
100
AcDbEntity
  8
0
100
AcDbLine
 10
6.333257625715847
 20
3.678830048028439
 30
0.0
 11
6.363091333431182
 21
3.769409150342028
 31
0.0
  0
LINE
  5
1AA
330
2
100
AcDbEntity
  8
0
100
AcDbLine
 10
6.270212252033481
 20
3.188601656586518
 30
0.0
 11
6.545183840776953
 21
3.164938086466526
 31
0.0
  0
LINE
  5
1AB
330
2
100
AcDbEntity
  8
0
100
AcDbLine
 10
6.892171984645337
 20
2.87254961376372
 30
0.0
 11
6.980419676763384
 21
2.864661504879474
 31
0.0
  0
SPLINE
  5
1AC
330
2
100
AcDbEntity
  8
0
100
AcDbSpline
210
0.0
220
0.0
230
1.0
 70
     8
 71
     3
 72
     9
 73
     5
 74
     0
 42
0.000000001
 43
0.0000000001
 40
0.0
 40
0.0
 40
0.0
 40
0.0
 40
0.6184372295390216
 40
1.0
 40
1.0
 40
1.0
 40
1.0
 10
6.456255135312285
 20
7.07921379333594
 30
0.0
 10
6.443053210007904
 20
7.08906416074117
 30
0.0
 10
6.421705974308238
 20
7.10499199777084
 30
0.0
 10
6.395298193791612
 20
7.106915845407048
 30
0.0
 10
6.385221967895951
 20
7.107649914041058
 30
0.0
  0
LINE
  5
1AD
330
2
100
AcDbEntity
  8
0
100
AcDbLine
 10
6.385736435210397
 20
7.109653992503575
 30
0.0
 11
5.530755472173111
 21
7.186078613925552
 31
0.0
  0
LINE
  5
1AE
330
2
100
AcDbEntity
  8
0
100
AcDbLine
 10
7.149097686851773
 20
6.479194542884337
 30
0.0
 11
6.4562551353085
 21
7.079213793337439
 31
0.0
  0
SPLINE
  5
1AF
330
2
100
AcDbEntity
  8
0
100
AcDbSpline
210
0.0
220
0.0
230
1.0
 70
     8
 71
     3
 72
     9
 73
     5
 74
     0
 42
0.000000001
 43
0.0000000001
 40
0.0
 40
0.0
 40
0.0
 40
0.0
 40
0.4962257895678297
 40
1.0
 40
1.0
 40
1.0
 40
1.0
 10
6.042541714029173
 20
4.236742113729571
 30
0.0
 10
6.048356216243046
 20
4.24163927234995
 30
0.0
 10
6.060073668935222
 20
4.251508083530926
 30
0.0
 10
6.068469311752579
 20
4.262997063889049
 30
0.0
 10
6.0726988200839
 20
4.268784915897629
 30
0.0
  0
SPLINE
  5
1B0
330
2
100
AcDbEntity
  8
0
100
AcDbSpline
210
0.0
220
0.0
230
1.0
 70
     8
 71
     3
 72
    10
 73
     6
 74
     0
 42
0.000000001
 43
0.0000000001
 40
0.0
 40
0.0
 40
0.0
 40
0.0
 40
0.4246994035048667
 40
0.9248441483348596
 40
1.0
 40
1.0
 40
1.0
 40
1.0
 10
5.993642119796133
 20
4.211883516488186
 30
0.0
 10
6.000744037468959
 20
4.213886497799038
 30
0.0
 10
6.016209486554719
 20
4.218248278223676
 30
0.0
 10
6.033116305605728
 20
4.228023462557678
 30
0.0
 10
6.041452671712235
 20
4.235734732442103
 30
0.0
 10
6.042541714029173
 20
4.236742113729605
 30
0.0
  0
LINE
  5
1B1
330
2
100
AcDbEntity
  8
0
100
AcDbLine
 10
6.072698820084255
 20
4.26878491589413
 30
0.0
 11
6.09527645739049
 21
4.298872964217403
 31
0.0
  0
LINE
  5
1B2
330
2
100
AcDbEntity
  8
0
100
AcDbLine
 10
5.97803636892085
 20
4.209018833707835
 30
0.0
 11
5.99364211979192
 21
4.2118835164904
 31
0.0
  0
SPLINE
  5
1B3
330
2
100
AcDbEntity
  8
0
100
AcDbSpline
210
0.0
220
0.0
230
1.0
 70
     8
 71
     2
 72
     6
 73
     3
 74
     0
 42
0.000000001
 43
0.0000000001
 40
0.0
 40
0.0
 40
0.0
 40
1.0
 40
1.0
 40
1.0
 10
5.975737025195691
 20
4.20851384596872
 30
0.0
 10
5.976896016319131
 20
4.208770004073714
 30
0.0
 10
5.978036368922136
 20
4.209018833707905
 30
0.0
  0
SPLINE
  5
1B4
330
2
100
AcDbEntity
  8
0
100
AcDbSpline
210
0.0
220
0.0
230
1.0
 70
     8
 71
     3
 72
    12
 73
     8
 74
     0
 42
0.000000001
 43
0.0000000001
 40
0.0
 40
0.0
 40
0.0
 40
0.0
 40
0.067366168286369
 40
0.3069842954474938
 40
0.5348031355017388
 40
0.7837831707209901
 40
1.0
 40
1.0
 40
1.0
 40
1.0
 10
7.055676235493399
 20
3.297440122317762
 30
0.0
 10
7.0599883182206
 20
3.296654970110118
 30
0.0
 10
7.079638265836589
 20
3.293077070350984
 30
0.0
 10
7.114352812034502
 20
3.304683389458467
 30
0.0
 10
7.15267895430667
 20
3.330120649382372
 30
0.0
 10
7.181077795640371
 20
3.365884745169117
 30
0.0
 10
7.192520738964423
 20
3.394870042536828
 30
0.0
 10
7.19783925487016
 20
3.408341992953608
 30
0.0
  0
LINE
  5
1B5
330
2
100
AcDbEntity
  8
0
100
AcDbLine
 10
6.603631125648762
 20
3.323265658262033
 30
0.0
 11
7.055265592278742
 21
3.295652101425454
 31
0.0
  0
LINE
  5
1B6
330
2
100
AcDbEntity
  8
0
100
AcDbLine
 10
7.438679180520432
 20
3.827259761944128
 30
0.0
 11
7.561369575590465
 21
3.927309467906751
 31
0.0
  0
SPLINE
  5
1B7
330
2
100
AcDbEntity
  8
0
100
AcDbSpline
210
0.0
220
0.0
230
1.0
 70
     8
 71
     3
 72
    11
 73
     7
 74
     0
 42
0.000000001
 43
0.0000000001
 40
0.0
 40
0.0
 40
0.0
 40
0.0
 40
0.1430693510064041
 40
0.4273942590745158
 40
0.7122227007896443
 40
1.0
 40
1.0
 40
1.0
 40
1.0
 10
7.243951817889943
 20
3.548345312796044
 30
0.0
 10
7.249246022579012
 20
3.56310530737326
 30
0.0
 10
7.265061518173105
 20
3.607198167946719
 30
0.0
 10
7.304073464844162
 20
3.67937912191041
 30
0.0
 10
7.36419801716044
 20
3.760505199668625
 30
0.0
 10
7.413767034379533
 20
3.804931976822603
 30
0.0
 10
7.438679180521718
 20
3.827259761942842
 30
0.0
  0
LINE
  5
1B8
330
2
100
AcDbEntity
  8
0
100
AcDbLine
 10
7.197839254869015
 20
3.408341992953501
 30
0.0
 11
7.243951817891014
 21
3.548345312798365
 31
0.0
  0
LINE
  5
1B9
330
2
100
AcDbEntity
  8
0
100
AcDbLine
 10
7.369217326780342
 20
7.133959903772653
 30
0.0
 11
6.84307401832947
 21
5.536508853857048
 31
0.0
  0
LINE
  5
1BA
330
2
100
AcDbEntity
  8
0
100
AcDbLine
 10
7.339896420319457
 20
7.693922468932163
 30
0.0
 11
7.016678209506531
 21
7.815526370374501
 31
0.0
  0
LINE
  5
1BB
330
2
100
AcDbEntity
  8
0
100
AcDbLine
 10
7.699939672659419
 20
7.56757173864017
 30
0.0
 11
7.611027155865933
 21
7.644572236896374
 31
0.0
  0
LINE
  5
1BC
330
2
100
AcDbEntity
  8
0
100
AcDbLine
 10
7.587406220055421
 20
7.654063199428657
 30
0.0
 11
7.472084668075471
 21
7.662745913146283
 31
0.0
  0
LINE
  5
1BD
330
2
100
AcDbEntity
  8
0
100
AcDbLine
 10
6.392485073267089
 20
7.86643894615749
 30
0.0
 11
6.38046618145804
 21
7.829948855854881
 31
0.0
  0
LINE
  5
1BE
330
2
100
AcDbEntity
  8
0
100
AcDbLine
 10
6.38764163519245
 20
7.812133468144386
 30
0.0
 11
6.193415924693445
 21
7.826757631396793
 31
0.0
  0
LINE
  5
1BF
330
2
100
AcDbEntity
  8
0
100
AcDbLine
 10
6.032050864983416
 20
7.910206544044095
 30
0.0
 11
5.541705911309265
 21
7.947127208486804
 31
0.0
  0
LINE
  5
1C0
330
2
100
AcDbEntity
  8
0
100
AcDbLine
 10
6.193446623266078
 20
7.826731585119082
 30
0.0
 11
6.145588448303738
 21
7.867424685928739
 31
0.0
  0
LINE
  5
1C1
330
2
100
AcDbEntity
  8
0
100
AcDbLine
 10
3.471690739705456
 20
4.208317544663784
 30
0.0
 11
3.471690739705456
 21
4.173177804821211
 31
0.0
  0
LINE
  5
1C2
330
2
100
AcDbEntity
  8
0
100
AcDbLine
 10
5.094870353765466
 20
7.678143004751431
 30
0.0
 11
4.862074438216263
 21
7.541806967067012
 31
0.0
  0
LINE
  5
1C3
330
2
100
AcDbEntity
  8
0
100
AcDbLine
 10
9.823145149916131
 20
7.47361965497663
 30
0.0
 11
10.00659353678034
 21
7.459807154872764
 31
0.0
  0
LINE
  5
1C4
330
2
100
AcDbEntity
  8
0
100
AcDbLine
 10
10.03112459047253
 20
8.257861589811412
 30
0.0
 11
9.88906454421596
 21
8.380889198734042
 31
0.0
  0
LINE
  5
1C5
330
2
100
AcDbEntity
  8
0
100
AcDbLine
 10
9.259508708742343
 20
6.210215399366023
 30
0.0
 11
9.321047423956468
 21
6.238357454406413
 31
0.0
  0
SPLINE
  5
1C6
330
2
100
AcDbEntity
  8
0
100
AcDbSpline
210
0.0
220
0.0
230
1.0
 70
     8
 71
     3
 72
    10
 73
     6
 74
     0
 42
0.000000001
 43
0.0000000001
 40
0.0
 40
0.0
 40
0.0
 40
0.0
 40
0.223414656091903
 40
0.6496074072459033
 40
1.0
 40
1.0
 40
1.0
 40
1.0
 10
9.351872233351318
 20
6.286542730272214
 30
0.0
 10
9.356332012738311
 20
6.29611516371504
 30
0.0
 10
9.369299406083023
 20
6.323948269110259
 30
0.0
 10
9.4036548616318
 20
6.355998761124403
 30
0.0
 10
9.427665515949234
 20
6.369704427484112
 30
0.0
 10
9.43849903925223
 20
6.375888376239847
 30
0.0
  0
LINE
  5
1C7
330
2
100
AcDbEntity
  8
0
100
AcDbLine
 10
9.342546465214343
 20
6.26858756186044
 30
0.0
 11
9.351872233350814
 21
6.286542730275963
 31
0.0
  0
LINE
  5
1C8
330
2
100
AcDbEntity
  8
0
100
AcDbLine
 10
8.426085451385922
 20
8.545704965600902
 30
0.0
 11
8.388457907147405
 21
8.431463371006829
 31
0.0
  0
LINE
  5
1C9
330
2
100
AcDbEntity
  8
0
100
AcDbLine
 10
9.471345352283989
 20
5.82691576167678
 30
0.0
 11
9.493887499483186
 21
5.807393689542853
 31
0.0
  0
SPLINE
  5
1CA
330
2
100
AcDbEntity
  8
0
100
AcDbSpline
210
0.0
220
0.0
230
1.0
 70
     8
 71
     3
 72
    12
 73
     8
 74
     0
 42
0.000000001
 43
0.0000000001
 40
0.0
 40
0.0
 40
0.0
 40
0.0
 40
0.0606925764686208
 40
0.3204610155387727
 40
0.5571976569296279
 40
0.7857352886232667
 40
1.0
 40
1.0
 40
1.0
 40
1.0
 10
13.20363124089757
 20
8.782111948327621
 30
0.0
 10
13.20002850846558
 20
8.77739565899593
 30
0.0
 10
13.1810058312116
 20
8.752493324035935
 30
0.0
 10
13.16444627695648
 20
8.700025727317662
 30
0.0
 10
13.15797934394934
 20
8.632823353223722
 30
0.0
 10
13.17049021280355
 20
8.570552544538816
 30
0.0
 10
13.19335836263144
 20
8.537653736927559
 30
0.0
 10
13.20442388113939
 20
8.52173454944406
 30
0.0
  0
SPLINE
  5
1CB
330
2
100
AcDbEntity
  8
0
100
AcDbSpline
210
0.0
220
0.0
230
1.0
 70
     8
 71
     3
 72
    13
 73
     9
 74
     0
 42
0.000000001
 43
0.0000000001
 40
0.0
 40
0.0
 40
0.0
 40
0.0
 40
0.1303754809643037
 40
0.303283450701318
 40
0.4791018037484784
 40
0.6622248062783119
 40
0.8520685611530565
 40
1.0
 40
1.0
 40
1.0
 40
1.0
 10
13.52008995406574
 20
8.880828090853297
 30
0.0
 10
13.50692218190276
 20
8.888917568521129
 30
0.0
 10
13.47629090560678
 20
8.907735560089225
 30
0.0
 10
13.41814924079163
 20
8.91455389470421
 30
0.0
 10
13.35392015567627
 20
8.905092847173634
 30
0.0
 10
13.291341373733
 20
8.875917476617525
 30
0.0
 10
13.23797734884388
 20
8.834149399836249
 30
0.0
 10
13.21409201871408
 20
8.797960970266803
 30
0.0
 10
13.20363124089757
 20
8.782111948327621
 30
0.0
  0
LINE
  5
1CC
330
2
100
AcDbEntity
  8
0
100
AcDbLine
 10
13.57524005985792
 20
8.845708457792589
 30
0.0
 11
13.52008995406574
 21
8.880828090853297
 31
0.0
  0
LINE
  5
1CD
330
2
100
AcDbEntity
  8
0
100
AcDbLine
 10
13.20750631338086
 20
8.517610099566319
 30
0.0
 11
13.2288448943928
 21
8.493520999032023
 31
0.0
  0
SPLINE
  5
1CE
330
2
100
AcDbEntity
  8
0
100
AcDbSpline
210
0.0
220
0.0
230
1.0
 70
     8
 71
     3
 72
    12
 73
     8
 74
     0
 42
0.000000001
 43
0.0000000001
 40
0.0
 40
0.0
 40
0.0
 40
0.0
 40
0.0606937166279216
 40
0.3204616990037354
 40
0.5571981577917608
 40
0.7857356728127672
 40
1.0
 40
1.0
 40
1.0
 40
1.0
 10
24.05790680259487
 20
11.91547140702977
 30
0.0
 10
24.05430391098167
 20
11.9107550836753
 30
0.0
 10
24.03528071003375
 20
11.8858529837678
 30
0.0
 10
24.01872171223018
 20
11.83338500756149
 30
0.0
 10
24.0122545161217
 20
11.76618271312476
 30
0.0
 10
24.02476570646615
 20
11.70391202524803
 30
0.0
 10
24.04763371103852
 20
11.67101313911256
 30
0.0
 10
24.05869915193501
 20
11.65509392417012
 30
0.0
  0
SPLINE
  5
1CF
330
2
100
AcDbEntity
  8
0
100
AcDbSpline
210
0.0
220
0.0
230
1.0
 70
     8
 71
     3
 72
    13
 73
     9
 74
     0
 42
0.000000001
 43
0.0000000001
 40
0.0
 40
0.0
 40
0.0
 40
0.0
 40
0.1303755812226645
 40
0.3032836839253981
 40
0.4791021721763542
 40
0.6622244685674682
 40
0.8520687492924226
 40
1.0
 40
1.0
 40
1.0
 40
1.0
 10
24.37436522486136
 20
12.01418746557936
 30
0.0
 10
24.36119745257654
 20
12.02227694369341
 30
0.0
 10
24.33056617599703
 20
12.04109493629941
 30
0.0
 10
24.27242451385959
 20
12.0479132611116
 30
0.0
 10
24.20819552000488
 20
12.03845226900171
 30
0.0
 10
24.14561682602813
 20
12.00927681011624
 30
0.0
 10
24.09225278692042
 20
11.96750891448422
 30
0.0
 10
24.06836752623488
 20
11.93132042097088
 30
0.0
 10
24.05790680259487
 20
11.91547140702977
 30
0.0
  0
LINE
  5
1D0
330
2
100
AcDbEntity
  8
0
100
AcDbLine
 10
24.06178172962946
 20
11.65096951627743
 30
0.0
 11
24.08312016519042
 21
11.62688037375159
 31
0.0
  0
LINE
  5
1D1
330
2
100
AcDbEntity
  8
0
100
AcDbLine
 10
24.08312016519042
 20
11.62688037375159
 30
0.0
 11
24.13641346534097
 21
11.57685093807661
 31
0.0
  0
LINE
  5
1D2
330
2
100
AcDbEntity
  8
0
100
AcDbLine
 10
24.46107408573217
 20
11.95173681301068
 30
0.0
 11
24.40925781374107
 21
11.9936648486633
 31
0.0
  0
LINE
  5
1D3
330
2
100
AcDbEntity
  8
0
100
AcDbLine
 10
13.2288448943928
 20
8.493520999032023
 30
0.0
 11
13.28213833999426
 21
8.443491605339524
 31
0.0
  0
LINE
  5
1D4
330
2
100
AcDbEntity
  8
0
100
AcDbLine
 10
13.60679910583653
 20
8.818377522256096
 30
0.0
 11
13.57524005985792
 21
8.845708457792589
 31
0.0
  0
LINE
  5
1D5
330
2
100
AcDbEntity
  8
0
100
AcDbLine
 10
27.17508370528955
 20
12.50626611512312
 30
0.0
 11
27.13603947011372
 21
12.49499501527989
 31
0.0
  0
LINE
  5
1D6
330
2
100
AcDbEntity
  8
0
100
AcDbLine
 10
29.67972895749348
 20
12.90272104301387
 30
0.0
 11
29.65152246898734
 21
12.92714857861165
 31
0.0
  0
LINE
  5
1D7
330
2
100
AcDbEntity
  8
0
100
AcDbLine
 10
29.65152246898734
 20
12.92714857861165
 30
0.0
 11
27.70691484733337
 21
14.61122817935198
 31
0.0
  0
LINE
  5
1D8
330
2
100
AcDbEntity
  8
0
100
AcDbLine
 10
27.56157136277129
 20
14.73709932925694
 30
0.0
 11
27.26954032054332
 21
14.99000563051928
 31
0.0
  0
LINE
  5
1D9
330
2
100
AcDbEntity
  8
0
100
AcDbLine
 10
27.21139190894292
 20
15.04036363215478
 30
0.0
 11
27.14547769332912
 21
15.09744701734669
 31
0.0
  0
LINE
  5
1DA
330
2
100
AcDbEntity
  8
0
100
AcDbLine
 10
27.06441503997762
 20
15.09541112744142
 30
0.0
 11
10.04116341082528
 21
10.18122167215372
 31
0.0
  0
LINE
  5
1DB
330
2
100
AcDbEntity
  8
0
100
AcDbLine
 10
27.15788700613861
 20
11.22897455047531
 30
0.0
 11
29.54735530266673
 21
9.15963430414515
 31
0.0
  0
LINE
  5
1DC
330
2
100
AcDbEntity
  8
0
100
AcDbLine
 10
30.28793287740541
 20
9.406602260496695
 30
0.0
 11
30.28793287740541
 21
9.445646418398014
 31
0.0
  0
LINE
  5
1DD
330
2
100
AcDbEntity
  8
0
100
AcDbLine
 10
12.5643356310165
 20
4.966383974697699
 30
0.0
 11
28.93306149830255
 21
9.691628117586835
 31
0.0
  0
LINE
  5
1DE
330
2
100
AcDbEntity
  8
0
100
AcDbLine
 10
7.017927814539095
 20
5.544559665191654
 30
0.0
 11
7.064453941298383
 21
5.504266857489819
 31
0.0
  0
LINE
  5
1DF
330
2
100
AcDbEntity
  8
0
100
AcDbLine
 10
7.526101185240464
 20
7.250989466457216
 30
0.0
 11
7.512746473138797
 21
7.210444906671463
 31
0.0
  0
LINE
  5
1E0
330
2
100
AcDbEntity
  8
0
100
AcDbLine
 10
10.83702063220313
 20
4.945907890527686
 30
0.0
 11
10.10323057558828
 21
5.00115875320766
 31
0.0
  0
LINE
  5
1E1
330
2
100
AcDbEntity
  8
0
100
AcDbLine
 10
10.88595461478115
 20
4.845267984680583
 30
0.0
 11
10.89930816326588
 21
4.885812354003185
 31
0.0
  0
ARC
  5
1E2
330
2
100
AcDbEntity
  8
0
100
AcDbCircle
 10
7.654698738071434
 20
7.686975800261567
 30
0.0
 40
0.0221489476734031
100
AcDbArc
 50
99.61106931520331
 51
162.1753033699017
  0
LINE
  5
1E3
330
2
100
AcDbEntity
  8
0
100
AcDbLine
 10
7.804856312428912
 20
7.726099226872035
 30
0.0
 11
7.765012097766099
 21
7.721623049041927
 31
0.0
  0
LINE
  5
1E4
330
2
100
AcDbEntity
  8
0
100
AcDbLine
 10
7.761100052623638
 20
7.7211834666604
 30
0.0
 11
7.651000766739683
 21
7.708813860863326
 31
0.0
  0
LINE
  5
1E5
330
2
100
AcDbEntity
  8
0
100
AcDbLine
 10
7.63361299442136
 20
7.693755718947368
 30
0.0
 11
7.615995991615256
 21
7.64026904213698
 31
0.0
  0
LINE
  5
1E6
330
2
100
AcDbEntity
  8
0
100
AcDbLine
 10
6.195669387943639
 20
3.222039297269141
 30
0.0
 11
5.483615300760217
 21
3.838696225637028
 31
0.0
  0
LINE
  5
1E7
330
2
100
AcDbEntity
  8
0
100
AcDbLine
 10
5.983676341734827
 20
3.81834161325426
 30
0.0
 11
5.483615300760217
 21
3.838696225637028
 31
0.0
  0
ELLIPSE
  5
1E8
330
2
100
AcDbEntity
  8
0
100
AcDbEllipse
 10
5.968289441347888
 20
3.830173101659526
 30
0.0
 11
0.0256312377686613
 21
-0.0086491982366205
 31
0.0
210
0.0
220
0.0
230
0.9999999999999998
 40
0.3166888303999999
 41
5.458480189693617
 42
6.942010053889517
  0
LINE
  5
1E9
330
2
100
AcDbEntity
  8
0
100
AcDbLine
 10
5.744514295556293
 20
4.041101673723243
 30
0.0
 11
5.990232840885284
 21
3.828303171284856
 31
0.0
  0
ELLIPSE
  5
1EA
330
2
100
AcDbEntity
  8
0
100
AcDbEllipse
 10
5.722570887398768
 20
4.042971611563864
 30
0.0
 11
0.025631237768651
 21
-0.0086491982366205
 31
0.0
210
0.0
220
0.0
230
1.0
 40
0.3166888303999999
 41
0.6588247467100106
 42
2.142354610904445
  0
LINE
  5
1EB
330
2
100
AcDbEntity
  8
0
100
AcDbLine
 10
5.153943959665456
 20
4.124199981919457
 30
0.0
 11
5.711010138729984
 21
4.054477471809891
 31
0.0
  0
LINE
  5
1EC
330
2
100
AcDbEntity
  8
0
100
AcDbLine
 10
5.153943959665456
 20
4.124199981919457
 30
0.0
 11
4.441889846243012
 21
4.740856933018858
 31
0.0
  0
LINE
  5
1ED
330
2
100
AcDbEntity
  8
0
100
AcDbLine
 10
4.481262466997459
 20
5.020883910212887
 30
0.0
 11
5.286852231664552
 21
4.323222708975473
 31
0.0
  0
ELLIPSE
  5
1EE
330
2
100
AcDbEntity
  8
0
100
AcDbEllipse
 10
5.21370573195426
 20
4.329455296010734
 30
0.0
 11
0.0854374592288521
 21
-0.0288306607887332
 31
0.0
210
0.0
220
0.0
230
1.0
 40
0.3166888304
 41
5.458480189693979
 42
6.942010053889137
  0
LINE
  5
1EF
330
2
100
AcDbEntity
  8
0
100
AcDbLine
 10
5.1521446345903
 20
4.294610087570219
 30
0.0
 11
5.26499375068451
 21
4.290016525990616
 31
0.0
  0
ELLIPSE
  5
1F0
330
2
100
AcDbEntity
  8
0
100
AcDbEllipse
 10
5.177788161715653
 20
4.274890564687858
 30
0.0
 11
0.0427187296144235
 21
-0.0144153303943743
 31
0.0
210
0.0
220
0.0
230
1.0
 40
0.3166888304000001
 41
2.316887536104295
 42
3.800417400299778
  0
LINE
  5
1F1
330
2
100
AcDbEntity
  8
0
100
AcDbLine
 10
5.144986975262553
 20
4.274740039165929
 30
0.0
 11
5.14121481229184
 21
4.278006828116222
 31
0.0
  0
ELLIPSE
  5
1F2
330
2
100
AcDbEntity
  8
0
100
AcDbEllipse
 10
5.181560312838259
 20
4.271623785989749
 30
0.0
 11
0.0427187296144235
 21
-0.0144153303943743
 31
0.0
210
0.0
220
0.0
230
1.0
 40
0.3166888304000001
 41
3.800417400299803
 42
5.283947264494716
  0
LINE
  5
1F3
330
2
100
AcDbEntity
  8
0
100
AcDbLine
 10
5.200829549855419
 20
4.252447714162154
 30
0.0
 11
5.641622750407769
 21
4.197277594908054
 31
0.0
  0
ELLIPSE
  5
1F4
330
2
100
AcDbEntity
  8
0
100
AcDbEllipse
 10
5.718698276743099
 20
4.12057294907825
 30
0.0
 11
0.1708749184577041
 21
-0.0576613215774817
 31
0.0
210
0.0
220
0.0
230
1.0
 40
0.3166888303999999
 41
0.6588247467096388
 42
2.14235461090486
  0
LINE
  5
1F5
330
2
100
AcDbEntity
  8
0
100
AcDbLine
 10
5.864990700581396
 20
4.108107641287693
 30
0.0
 11
6.308633904032799
 21
3.723901356874869
 31
0.0
  0
ELLIPSE
  5
1F6
330
2
100
AcDbEntity
  8
0
100
AcDbEllipse
 10
6.162341484107811
 20
3.73636666128411
 30
0.0
 11
0.1708749184577041
 21
-0.0576613215774766
 31
0.0
210
0.0
220
0.0
230
1.0
 40
0.3166888304
 41
5.458480189694113
 42
6.942010053889237
  0
LINE
  5
1F7
330
2
100
AcDbEntity
  8
0
100
AcDbLine
 10
6.264916931568112
 20
3.657488999994132
 30
0.0
 11
5.869230635979287
 21
3.673595393666198
 31
0.0
  0
ELLIPSE
  5
1F8
330
2
100
AcDbEntity
  8
0
100
AcDbEllipse
 10
5.894874158325694
 20
3.65387587492257
 30
0.0
 11
0.0427187296144286
 21
-0.0144153303943743
 31
0.0
210
0.0
220
0.0
230
1.0
 40
0.3166888303999999
 41
2.316887536104025
 42
3.800417400300071
  0
LINE
  5
1F9
330
2
100
AcDbEntity
  8
0
100
AcDbLine
 10
5.862072955651181
 20
3.653725363439864
 30
0.0
 11
5.85830081368076
 21
3.6569921342212
 31
0.0
  0
ELLIPSE
  5
1FA
330
2
100
AcDbEntity
  8
0
100
AcDbEllipse
 10
5.898646309448233
 20
3.650609096224461
 30
0.0
 11
0.0427187296144235
 21
-0.0144153303943743
 31
0.0
210
0.0
220
0.0
230
1.0
 40
0.3166888304000001
 41
3.800417400300069
 42
5.283947264494716
  0
LINE
  5
1FB
330
2
100
AcDbEntity
  8
0
100
AcDbLine
 10
6.043629045112194
 20
3.615698580729231
 30
0.0
 11
5.917915530253189
 21
3.631433038445121
 31
0.0
  0
ELLIPSE
  5
1FC
330
2
100
AcDbEntity
  8
0
100
AcDbEllipse
 10
6.082166545487935
 20
3.577346169300339
 30
0.0
 11
0.0854374592288521
 21
-0.0288306607887383
 31
0.0
210
0.0
220
0.0
230
1.0
 40
0.3166888304
 41
0.6588247467096168
 42
2.142354610904783
  0
LINE
  5
1FD
330
2
100
AcDbEntity
  8
0
100
AcDbLine
 10
6.155313030690116
 20
3.571113594825574
 30
0.0
 11
6.960902837348713
 21
2.873452357232144
 31
0.0
  0
LINE
  5
1FE
330
2
100
AcDbEntity
  8
0
100
AcDbLine
 10
6.545183840776953
 20
3.164938086466526
 30
0.0
 11
6.872655145239741
 21
2.881340466116427
 31
0.0
  0
ELLIPSE
  5
1FF
330
2
100
AcDbEntity
  8
0
100
AcDbEllipse
 10
5.311769177647375
 20
7.542417212519595
 30
0.0
 11
0.0067664414437463
 21
0.089920311844523
 31
0.0
210
0.0
220
0.0
230
1.0
 40
0.5778770211000001
 41
5.877920137287945
 42
7.448640311660927
  0
LINE
  5
200
330
2
100
AcDbEntity
  8
0
100
AcDbLine
 10
5.879584553238738
 20
7.154897707846556
 30
0.0
 11
5.338475104228166
 21
7.623512236918163
 31
0.0
  0
LINE
  5
201
330
2
100
AcDbEntity
  8
0
100
AcDbLine
 10
4.828170766168717
 20
5.121484383304414
 30
0.0
 11
5.118611609488119
 21
6.003306061694547
 31
0.0
  0
LINE
  5
202
330
2
100
AcDbEntity
  8
0
100
AcDbLine
 10
5.240524992433337
 20
6.373455053061727
 30
0.0
 11
5.3856895609832
 21
6.814195027359539
 31
0.0
  0
ARC
  5
203
330
2
100
AcDbEntity
  8
0
100
AcDbCircle
 10
5.123766810142253
 20
5.004727984584666
 30
0.0
 40
0.3178192534339345
100
AcDbArc
 50
158.4466572452008
 51
209.5566189156511
  0
ELLIPSE
  5
204
330
2
100
AcDbEntity
  8
0
100
AcDbEllipse
 10
4.507974113189923
 20
5.101972774616251
 30
0.0
 11
0.0067742568931962
 21
0.089914733371351
 31
0.0
210
0.0
220
0.0
230
1.0
 40
0.5779408021
 41
1.165636268090271
 42
2.736356442463288
  0
LINE
  5
205
330
2
100
AcDbEntity
  8
0
100
AcDbLine
 10
5.266685371358667
 20
7.581469115219727
 30
0.0
 11
4.462885764494884
 21
5.141012184616954
 31
0.0
  0
LWPOLYLINE
  5
206
330
2
100
AcDbEntity
  8
0
100
AcDbPolyline
 90
        7
 70
   128
 43
0.0
 10
5.165676153173488
 20
7.142846243977402
 10
5.149637733915136
 20
7.067624609761104
 10
5.149127015059827
 20
6.989702396505551
 10
5.164208469323055
 20
6.918478678350015
 10
5.19306069233825
 20
6.862543548630269
 10
5.232204708672558
 20
6.828643836079576
 10
5.262264755610078
 20
6.820394391551811
  0
LWPOLYLINE
  5
207
330
2
100
AcDbEntity
  8
0
100
AcDbPolyline
 90
        5
 70
   128
 43
0.0
 10
5.296115152735535
 20
7.269956433756682
 10
5.279855831124979
 20
7.269603703012396
 10
5.234963941278461
 20
7.250317080800716
 10
5.195310453670741
 20
7.206294697810948
 10
5.165676153173488
 20
7.142846243977402
  0
LWPOLYLINE
  5
208
330
2
100
AcDbEntity
  8
0
100
AcDbPolyline
 90
        7
 70
   128
 43
0.0
 10
4.89859936528628
 20
6.331957759668533
 10
4.882559782428984
 20
6.25673578954706
 10
4.882049063573669
 20
6.178813576291543
 10
4.89713051783697
 20
6.107589858135971
 10
4.925982740843024
 20
6.051654655686234
 10
4.965126757177478
 20
6.017754943135541
 10
4.995187967731877
 20
6.009505907242942
  0
LWPOLYLINE
  5
209
330
2
100
AcDbEntity
  8
0
100
AcDbPolyline
 90
        5
 70
   128
 43
0.0
 10
5.029037201240315
 20
6.459067613542676
 10
5.012777879638822
 20
6.458714737347368
 10
4.967887153391258
 20
6.439428451040828
 10
4.928232502175583
 20
6.395405877596906
 10
4.89859936528628
 20
6.331957759668533
  0
LINE
  5
20A
330
2
100
AcDbEntity
  8
0
100
AcDbLine
 10
5.103958039842454
 20
6.524085750749551
 30
0.0
 11
5.181411181034602
 21
6.759245344538312
 31
0.0
  0
ELLIPSE
  5
20B
330
2
100
AcDbEntity
  8
0
100
AcDbEllipse
 10
5.11748439158368
 20
6.512373924167844
 30
0.0
 11
0.0020322770679614
 21
0.0269744200114022
 31
0.0
210
0.0
220
0.0
230
1.0
 40
0.5779408020999999
 41
1.165636268090297
 42
2.73635644246337
  0
LINE
  5
20C
330
2
100
AcDbEntity
  8
0
100
AcDbLine
 10
5.109470210879067
 20
6.488047106015718
 30
0.0
 11
5.160462830469666
 21
6.443886202039593
 31
0.0
  0
LINE
  5
20D
330
2
100
AcDbEntity
  8
0
100
AcDbLine
 10
5.189691591690917
 20
6.432533461356599
 30
0.0
 11
5.279591242781677
 21
6.705482683342944
 31
0.0
  0
LINE
  5
20E
330
2
100
AcDbEntity
  8
0
100
AcDbLine
 10
5.202947377542073
 20
6.771858217678238
 30
0.0
 11
5.279591242781677
 21
6.705482683342944
 31
0.0
  0
ELLIPSE
  5
20F
330
2
100
AcDbEntity
  8
0
100
AcDbEllipse
 10
5.194936330918203
 20
6.747529827580558
 30
0.0
 11
0.0020299324331193
 21
0.0269760935533553
 31
0.0
210
0.0
220
0.0
230
1.0
 40
0.5778770211
 41
5.877920137287437
 42
7.448640311660861
  0
LINE
  5
210
330
2
100
AcDbEntity
  8
0
100
AcDbLine
 10
5.044280290817935
 20
7.178350625622046
 30
0.0
 11
4.777202339322782
 21
6.367461659957017
 31
0.0
  0
LINE
  5
211
330
2
100
AcDbEntity
  8
0
100
AcDbLine
 10
5.178822295383849
 20
7.586841023618095
 30
0.0
 11
5.044280290817935
 21
7.178350625622046
 31
0.0
  0
LINE
  5
212
330
2
100
AcDbEntity
  8
0
100
AcDbLine
 10
4.777202339322782
 20
6.367461659957017
 30
0.0
 11
4.631617432862572
 21
5.925441683346711
 31
0.0
  0
LWPOLYLINE
  5
213
330
2
100
AcDbEntity
  8
0
100
AcDbPolyline
 90
       17
 70
   128
 43
0.0
 10
5.247645264931399
 20
6.14572051225198
 10
5.261133837284846
 20
6.213281640564424
 10
5.258931441769678
 20
6.282367518334451
 10
5.241373845997242
 20
6.342460412188151
 10
5.21113285367643
 20
6.384411617351926
 10
5.172814104860837
 20
6.401834889685553
 10
5.132249596873782
 20
6.392077214211931
 10
5.095616084253271
 20
6.35662421946323
 10
5.068490134423676
 20
6.300873406486232
 10
5.055001562070296
 20
6.233312278173824
 10
5.057203957585391
 20
6.164226545854746
 10
5.07476163734099
 20
6.104133506559096
 10
5.105002629652727
 20
6.062182301386285
 10
5.143321378477328
 20
6.044759029052658
 10
5.183885802481293
 20
6.054516849977265
 10
5.220519315101798
 20
6.08996969927498
 10
5.247645264931399
 20
6.14572051225198
  0
ARC
  5
214
330
2
100
AcDbEntity
  8
0
100
AcDbCircle
 10
4.798355170199515
 20
5.028978379992657
 30
0.0
 40
0.458346479628731
100
AcDbArc
 50
158.4462968151016
 51
218.947687969506
  0
LWPOLYLINE
  5
215
330
2
100
AcDbEntity
  8
0
100
AcDbPolyline
 90
       10
 70
   128
 43
0.0
 10
4.628373984743864
 20
6.552712011221935
 10
4.592057847347538
 20
6.54827827812183
 10
4.541201746585276
 20
6.518494597902332
 10
4.496857003742005
 20
6.46387083360133
 10
4.463364841532712
 20
6.389754434793988
 10
4.444003668116712
 20
6.303400240701287
 10
4.440668469950677
 20
6.213261314367244
 10
4.453686413704811
 20
6.128161088959984
 10
4.481782536302219
 20
6.056429424643067
 10
4.522206810279564
 20
6.005088353413205
  0
LWPOLYLINE
  5
216
330
2
100
AcDbEntity
  8
0
100
AcDbPolyline
 90
        3
 70
   128
 43
0.0
 10
4.832644920083061
 20
4.869234304116242
 10
4.843149961484905
 20
4.852557038608326
 10
4.862466116217653
 20
4.831157787525846
  0
LINE
  5
217
330
2
100
AcDbEntity
  8
0
100
AcDbLine
 10
4.631617432862572
 20
5.925441683346711
 30
0.0
 11
4.612375357112132
 21
5.927000101233511
 31
0.0
  0
LINE
  5
218
330
2
100
AcDbEntity
  8
0
100
AcDbLine
 10
4.372059192106227
 20
5.197362567052575
 30
0.0
 11
4.612375357112132
 21
5.927000101233511
 31
0.0
  0
LWPOLYLINE
  5
219
330
2
100
AcDbEntity
  8
0
100
AcDbPolyline
 90
       17
 70
   128
 43
0.0
 10
5.514723216426553
 20
6.956609477917007
 10
5.528211788779999
 20
7.024170460778432
 10
5.526009393264905
 20
7.09325633854846
 10
5.508451797483326
 20
7.153349232402193
 10
5.478210805171584
 20
7.19530043756597
 10
5.439892056355989
 20
7.212723709899597
 10
5.399327548368935
 20
7.202966034425974
 10
5.362694035748424
 20
7.167513039677276
 10
5.335568085918835
 20
7.111762372160294
 10
5.32207951356545
 20
7.044201243838816
 10
5.32428190908055
 20
6.975115366068788
 10
5.341839588836143
 20
6.915022399494096
 10
5.372080581147885
 20
6.873071194330319
 10
5.410399329963412
 20
6.855647921996694
 10
5.450963753976446
 20
6.86540567019131
 10
5.487597266596957
 20
6.900858664940009
 10
5.514723216426553
 20
6.956609477917007
  0
LINE
  5
21A
330
2
100
AcDbEntity
  8
0
100
AcDbLine
 10
4.862466116217653
 20
4.831157787525846
 30
0.0
 11
5.337438407688421
 21
4.419819717020595
 31
0.0
  0
LINE
  5
21B
330
2
100
AcDbEntity
  8
0
100
AcDbLine
 10
4.522206810279564
 20
6.005088353413205
 30
0.0
 11
4.612375357112132
 21
5.927000101233511
 31
0.0
  0
LWPOLYLINE
  5
21C
330
2
100
AcDbEntity
  8
0
100
AcDbPolyline
 90
       10
 70
   128
 43
0.0
 10
4.895451936229942
 20
7.363600831435979
 10
4.859135798842691
 20
7.359167243786858
 10
4.808279698080428
 20
7.329383418116339
 10
4.763934955237158
 20
7.274759799266323
 10
4.730442793018864
 20
7.200643400459014
 10
4.711081619611792
 20
7.114289206366315
 10
4.707746421445756
 20
7.024150134581288
 10
4.720764365190969
 20
6.939049909174027
 10
4.748860487797372
 20
6.867318390308095
 10
4.789284761765649
 20
6.815977173627212
  0
LINE
  5
21D
330
2
100
AcDbEntity
  8
0
100
AcDbLine
 10
5.279591242781677
 20
6.705482683342944
 30
0.0
 11
5.166715120330377
 21
6.714624501722919
 31
0.0
  0
LINE
  5
21E
330
2
100
AcDbEntity
  8
0
100
AcDbLine
 10
4.898695384357731
 20
6.736330503560719
 30
0.0
 11
4.879453308598284
 21
6.737888921447553
 31
0.0
  0
LINE
  5
21F
330
2
100
AcDbEntity
  8
0
100
AcDbLine
 10
4.789284761765649
 20
6.815977173627212
 30
0.0
 11
4.879453308598284
 21
6.737888921447553
 31
0.0
  0
ELLIPSE
  5
220
330
2
100
AcDbEntity
  8
0
100
AcDbEllipse
 10
5.223906808351131
 20
7.54778924626134
 30
0.0
 11
0.0067664414437463
 21
0.089920311844523
 31
0.0
210
0.0
220
0.0
230
1.0
 40
0.5778770211000001
 41
0.0081150858514489
 42
1.165455004481329
  0
ELLIPSE
  5
221
330
2
100
AcDbEntity
  8
0
100
AcDbEllipse
 10
5.759110061627764
 20
4.243269292959608
 30
0.0
 11
0.1599287833237179
 21
-0.0905811049745149
 31
0.0
210
0.0
220
0.0
230
0.9999999999999998
 40
0.165794471
 41
0.6896272446617182
 42
2.173157108856921
  0
ARC
  5
222
330
2
100
AcDbEntity
  8
0
100
AcDbCircle
 10
5.584931295416787
 20
7.120888608537796
 30
0.0
 40
0.0859797369850118
100
AcDbArc
 50
51.27721473400123
 51
145.8445444761049
  0
LINE
  5
223
330
2
100
AcDbEntity
  8
0
100
AcDbLine
 10
5.680871198536459
 20
4.316440289959067
 30
0.0
 11
5.668602562644942
 21
4.321653651705935
 31
0.0
  0
LINE
  5
224
330
2
100
AcDbEntity
  8
0
100
AcDbLine
 10
5.320422406858723
 20
4.365231827827314
 30
0.0
 11
5.668602562644942
 21
4.321653651705935
 31
0.0
  0
LINE
  5
225
330
2
100
AcDbEntity
  8
0
100
AcDbLine
 10
6.335691246582214
 20
3.80605170536893
 30
0.0
 11
5.892048043130805
 21
4.190257989772719
 31
0.0
  0
LINE
  5
226
330
2
100
AcDbEntity
  8
0
100
AcDbLine
 10
5.653575404234388
 20
7.175099955925885
 30
0.0
 11
5.638716174970641
 21
7.187968425948008
 31
0.0
  0
ELLIPSE
  5
227
330
2
100
AcDbEntity
  8
0
100
AcDbEllipse
 10
6.202753268992477
 20
3.859063005174501
 30
0.0
 11
0.159928783323718
 21
-0.0905811049745048
 31
0.0
210
0.0
220
0.0
230
1.0
 40
0.165794471
 41
0.0331063377241576
 42
0.689627244661631
  0
LINE
  5
228
330
2
100
AcDbEntity
  8
0
100
AcDbLine
 10
5.560875283266057
 20
4.073268400224249
 30
0.0
 11
5.483615300760217
 21
3.838696225637028
 31
0.0
  0
LINE
  5
229
330
2
100
AcDbEntity
  8
0
100
AcDbLine
 10
6.215373554614783
 20
3.659505576908983
 30
0.0
 11
6.616245657927276
 21
3.312340151776163
 31
0.0
  0
LINE
  5
22A
330
2
100
AcDbEntity
  8
0
100
AcDbLine
 10
7.032691322636315
 20
2.915495288476461
 30
0.0
 11
7.187051873556291
 21
3.38415561181673
 31
0.0
  0
ELLIPSE
  5
22B
330
2
100
AcDbEntity
  8
0
100
AcDbEllipse
 10
6.987607620483261
 20
2.954547165226093
 30
0.0
 11
0.0067664414437411
 21
0.089920311844523
 31
0.0
210
0.0
220
0.0
230
1.0
 40
0.5778770211
 41
2.736327483698102
 42
4.30704765807106
  0
ARC
  5
22C
330
2
100
AcDbEntity
  8
0
100
AcDbCircle
 10
6.669298379003983
 20
3.372668065096108
 30
0.0
 40
0.080337091934381
100
AcDbArc
 50
228.6714130374034
 51
314.9203592104973
  0
ARC
  5
22D
330
2
100
AcDbEntity
  8
0
100
AcDbCircle
 10
6.282396093015822
 20
3.315571607712407
 30
0.0
 40
0.1275531829080889
100
AcDbArc
 50
227.1621517867998
 51
264.5187678972925
  0
ELLIPSE
  5
22E
330
2
100
AcDbEntity
  8
0
100
AcDbEllipse
 10
6.899360364213251
 20
2.962435323288307
 30
0.0
 11
0.0067664414437463
 21
0.089920311844523
 31
0.0
210
0.0
220
0.0
230
1.0
 40
0.5778770211000001
 41
2.736327483698255
 42
3.133477567738518
  0
LINE
  5
22F
330
2
100
AcDbEntity
  8
0
100
AcDbLine
 10
5.87311443797583
 20
5.669046641704812
 30
0.0
 11
5.577609710951706
 21
5.431872384298062
 31
0.0
  0
ELLIPSE
  5
230
330
2
100
AcDbEntity
  8
0
100
AcDbEllipse
 10
5.389292352082175
 20
4.986659426059729
 30
0.0
 11
0.0067742568931962
 21
0.089914733371351
 31
0.0
210
0.0
220
0.0
230
1.0
 40
0.5779408021
 41
1.16563626809024
 42
2.736356442463259
  0
ELLIPSE
  5
231
330
2
100
AcDbEntity
  8
0
100
AcDbEllipse
 10
5.6917315476656
 20
5.964384241496679
 30
0.0
 11
0.2969181864461971
 21
0.3392660469720186
 31
0.0
210
0.0
220
0.0
230
1.0
 40
0.7540258493
 41
4.482373612415839
 42
5.224320880421761
  0
ELLIPSE
  5
232
330
2
100
AcDbEntity
  8
0
100
AcDbEllipse
 10
5.759572051424333
 20
5.136032270616239
 30
0.0
 11
0.2978212816972135
 21
0.3384779957649309
 31
0.0
210
0.0
220
0.0
230
0.9999999999999998
 40
0.7560319662000003
 41
1.342801356481428
 42
2.084748624487349
  0
LINE
  5
233
330
2
100
AcDbEntity
  8
0
100
AcDbLine
 10
5.390316471245118
 20
5.165702085582847
 30
0.0
 11
5.344203908223126
 21
5.025698765746983
 31
0.0
  0
LINE
  5
234
330
2
100
AcDbEntity
  8
0
100
AcDbLine
 10
6.361085688063302
 20
4.040839728559916
 30
0.0
 11
7.163994019212096
 21
3.345500716873295
 31
0.0
  0
LINE
  5
235
330
2
100
AcDbEntity
  8
0
100
AcDbLine
 10
5.362580526751747
 20
4.905570564063872
 30
0.0
 11
6.071991451457337
 21
4.291202681537902
 31
0.0
  0
LINE
  5
236
330
2
100
AcDbEntity
  8
0
100
AcDbLine
 10
6.398816161733775
 20
6.963484829253595
 30
0.0
 11
6.060200844627871
 21
5.93539609946389
 31
0.0
  0
ELLIPSE
  5
237
330
2
100
AcDbEntity
  8
0
100
AcDbEllipse
 10
6.443900025847753
 20
6.924432876527882
 30
0.0
 11
0.0067664414437463
 21
0.089920311844523
 31
0.0
210
0.0
220
0.0
230
1.0
 40
0.5778770211000001
 41
5.877920137287912
 42
7.44864031166087
  0
LINE
  5
238
330
2
100
AcDbEntity
  8
0
100
AcDbLine
 10
6.766836133830084
 20
6.74898503841538
 30
0.0
 11
6.470605894594347
 21
7.005527950961065
 31
0.0
  0
LINE
  5
239
330
2
100
AcDbEntity
  8
0
100
AcDbLine
 10
6.366693280083024
 20
4.094997414526534
 30
0.0
 11
6.122783001913994
 21
4.306229911659567
 31
0.0
  0
LINE
  5
23A
330
2
100
AcDbEntity
  8
0
100
AcDbLine
 10
6.215544283172564
 20
3.980882610270398
 30
0.0
 11
6.366693280083024
 21
4.094997414526534
 31
0.0
  0
LINE
  5
23B
330
2
100
AcDbEntity
  8
0
100
AcDbLine
 10
5.97163400500354
 20
4.192115107412429
 30
0.0
 11
6.215544283172564
 21
3.980882610270398
 31
0.0
  0
ELLIPSE
  5
23C
330
2
100
AcDbEntity
  8
0
100
AcDbEllipse
 10
6.312421897979541
 20
4.01094304084829
 30
0.0
 11
0.0531860999420828
 21
0.0848576065785405
 31
0.0
210
0.0
220
0.0
230
1.0
 40
0.2945542466
 41
5.171606599400139
 42
6.237537654344468
  0
ELLIPSE
  5
23D
330
2
100
AcDbEntity
  8
0
100
AcDbEllipse
 10
6.304063296921194
 20
4.004632440882253
 30
0.0
 11
0.0912024268990151
 21
0.019548996493175
 31
0.0
210
0.0
220
0.0
230
0.9999999999999998
 40
0.2601647544000001
 41
3.335243632973681
 42
4.401174687917908
  0
ELLIPSE
  5
23E
330
2
100
AcDbEntity
  8
0
100
AcDbEllipse
 10
6.310438816658731
 20
4.018777824202387
 30
0.0
 11
-0.0239134284956525
 21
0.0446402950987653
 31
0.0
210
0.0
220
0.0
230
0.9999999999999998
 40
0.8730488701
 41
2.500405314970203
 42
4.062474995505384
  0
LINE
  5
23F
330
2
100
AcDbEntity
  8
0
100
AcDbLine
 10
6.355937360998968
 20
4.008386631850161
 30
0.0
 11
6.358402260032686
 21
4.034512783697569
 31
0.0
  0
LINE
  5
240
330
2
100
AcDbEntity
  8
0
100
AcDbLine
 10
6.280977045395525
 20
3.976058302504574
 30
0.0
 11
6.306290665869846
 21
3.970515723589977
 31
0.0
  0
LINE
  5
241
330
2
100
AcDbEntity
  8
0
100
AcDbLine
 10
7.543154856056338
 20
6.601690691744471
 30
0.0
 11
7.42908999912713
 21
6.255373658043366
 31
0.0
  0
LWPOLYLINE
  5
242
330
2
100
AcDbEntity
  8
0
100
AcDbPolyline
 90
        9
 70
   128
 43
0.0
 10
7.543154856056338
 20
6.601690691744471
 10
7.598777575208859
 20
6.58399463501084
 10
7.637249897777564
 20
6.542630928811791
 10
7.652714228515861
 20
6.483896644394537
 10
7.642816591404858
 20
6.41673367344151
 10
7.609063856899298
 20
6.351366942751023
 10
7.556594511430565
 20
6.297748024819727
 10
7.493395550181224
 20
6.264039434542211
 10
7.42908999912713
 20
6.255373658043366
  0
ARC
  5
243
330
2
100
AcDbEntity
  8
0
100
AcDbCircle
 10
8.035980985227377
 20
7.033076197596001
 30
0.0
 40
0.0602997978914155
100
AcDbArc
 50
333.6487475794984
 51
82.98636861719677
  0
LINE
  5
244
330
2
100
AcDbEntity
  8
0
100
AcDbLine
 10
8.090015015085317
 20
7.006310748926448
 30
0.0
 11
7.689325944243999
 21
5.789756143134035
 31
0.0
  0
ARC
  5
245
330
2
100
AcDbEntity
  8
0
100
AcDbCircle
 10
7.581157342391538
 20
5.825757236083744
 30
0.0
 40
0.1140023031383295
100
AcDbArc
 50
287.7679507352947
 51
341.5913261540983
  0
LINE
  5
246
330
2
100
AcDbEntity
  8
0
100
AcDbLine
 10
7.61594658950193
 20
5.717192815548217
 30
0.0
 11
7.013888427692423
 21
5.543393594649995
 31
0.0
  0
ARC
  5
247
330
2
100
AcDbEntity
  8
0
100
AcDbCircle
 10
6.9704811954785
 20
5.689034913436651
 30
0.0
 40
0.1519723051899094
100
AcDbArc
 50
266.2240578527004
 51
286.5962675312992
  0
LINE
  5
248
330
2
100
AcDbEntity
  8
0
100
AcDbLine
 10
6.960473070118599
 20
5.53739250850328
 30
0.0
 11
6.871465316123791
 21
5.544094479702637
 31
0.0
  0
LINE
  5
249
330
2
100
AcDbEntity
  8
0
100
AcDbLine
 10
8.043343920938632
 20
7.09292477989115
 30
0.0
 11
7.397608624565661
 21
7.141545502342243
 31
0.0
  0
LWPOLYLINE
  5
24A
330
2
100
AcDbEntity
  8
0
100
AcDbPolyline
 90
        6
 70
   128
 43
0.0
 10
7.369217326780342
 20
7.133959903772653
 10
7.370531224178923
 20
7.136275143642613
 10
7.374389798764045
 20
7.139088029153848
 10
7.380354122886508
 20
7.140945050484477
 10
7.388194036347933
 20
7.141774869255172
 10
7.397608624565661
 20
7.141545502342243
  0
LWPOLYLINE
  5
24B
330
2
100
AcDbEntity
  8
0
100
AcDbPolyline
 90
        9
 70
   128
 43
0.0
 10
6.871465316123791
 20
5.544094479702637
 10
6.862050727906057
 20
5.544323819330533
 10
6.854210814444638
 20
5.543494027835873
 10
6.848246490313179
 20
5.541636997416232
 10
6.844387915737053
 20
5.538824211901991
 10
6.842782068977867
 20
5.535163471309026
 10
6.843491811032157
 20
5.530795849197991
 10
6.846489144202018
 20
5.525888798228672
 10
6.851659279222518
 20
5.52063116983181
  0
LINE
  5
24C
330
2
100
AcDbEntity
  8
0
100
AcDbLine
 10
9.367363591698959
 20
3.341967326815729
 30
0.0
 11
9.362637586560811
 21
3.346060167318978
 31
0.0
  0
LINE
  5
24D
330
2
100
AcDbEntity
  8
0
100
AcDbLine
 10
6.973168513557633
 20
5.415401086088277
 30
0.0
 11
6.851659279222518
 21
5.52063116983181
 31
0.0
  0
LINE
  5
24E
330
2
100
AcDbEntity
  8
0
100
AcDbLine
 10
6.451493875035016
 20
7.553294974380643
 30
0.0
 11
6.361325244228359
 21
7.631383299290295
 31
0.0
  0
LINE
  5
24F
330
2
100
AcDbEntity
  8
0
100
AcDbLine
 10
6.708320453033271
 20
7.533957254696263
 30
0.0
 11
6.451493875035016
 21
7.553294974380643
 31
0.0
  0
LINE
  5
250
330
2
100
AcDbEntity
  8
0
100
AcDbLine
 10
6.618151822226689
 20
7.612045579596914
 30
0.0
 11
6.708320453033271
 21
7.533957254696263
 31
0.0
  0
LINE
  5
251
330
2
100
AcDbEntity
  8
0
100
AcDbLine
 10
6.361325244228359
 20
7.631383299290295
 30
0.0
 11
6.618151822226689
 21
7.612045579596914
 31
0.0
  0
LINE
  5
252
330
2
100
AcDbEntity
  8
0
100
AcDbLine
 10
6.691825515599353
 20
2.344635357879066
 30
0.0
 11
6.869497759665609
 21
2.884074665443872
 31
0.0
  0
LINE
  5
253
330
2
100
AcDbEntity
  8
0
100
AcDbLine
 10
5.550384206827765
 20
4.041418262740211
 30
0.0
 11
5.50562185041984
 21
4.080183600525725
 31
0.0
  0
LINE
  5
254
330
2
100
AcDbEntity
  8
0
100
AcDbLine
 10
4.701623348955621
 20
7.312293085453571
 30
0.0
 11
3.863577638417019
 21
4.767859200794025
 31
0.0
  0
ARC
  5
255
330
2
100
AcDbEntity
  8
0
100
AcDbCircle
 10
7.583248942020511
 20
7.61172771161028
 30
0.0
 40
0.0422096229140512
100
AcDbArc
 50
333.6488063391012
 51
82.98770571809695
  0
ARC
  5
256
330
2
100
AcDbEntity
  8
0
100
AcDbCircle
 10
7.587254172884012
 20
7.652376839417046
 30
0.0
 40
0.0016932006469032
100
AcDbArc
 50
47.32038030139933
 51
84.84797494359753
  0
ARC
  5
257
330
2
100
AcDbEntity
  8
0
100
AcDbCircle
 10
6.844572987768215
 20
7.370476815052944
 30
0.0
 40
0.476922884824997
100
AcDbArc
 50
68.87912926580016
 51
84.5949662208975
  0
ARC
  5
258
330
2
100
AcDbEntity
  8
0
100
AcDbCircle
 10
7.520304295870326
 20
8.16143012982147
 30
0.0
 40
0.5013543877781376
100
AcDbArc
 50
248.8786432781038
 51
264.5952845953962
  0
ARC
  5
259
330
2
100
AcDbEntity
  8
0
100
AcDbCircle
 10
6.616109446898572
 20
2.369834122183431
 30
0.0
 40
0.0797991276994587
100
AcDbArc
 50
287.7674011092013
 51
341.5922464559994
  0
LINE
  5
25A
330
2
100
AcDbEntity
  8
0
100
AcDbLine
 10
3.814801474156566
 20
4.740933600753472
 30
0.0
 11
6.640460432719404
 21
2.293841160198049
 31
0.0
  0
ARC
  5
25B
330
2
100
AcDbEntity
  8
0
100
AcDbCircle
 10
3.836537061630706
 20
4.776857853322711
 30
0.0
 40
0.0284985708460974
100
AcDbArc
 50
287.7671483982981
 51
341.5934186932954
  0
LINE
  5
25C
330
2
100
AcDbEntity
  8
0
100
AcDbLine
 10
4.812216326154172
 20
3.48401539152977
 30
0.0
 11
4.656039385450895
 21
3.438930992147891
 31
0.0
  0
LWPOLYLINE
  5
25D
330
2
100
AcDbEntity
  8
0
100
AcDbPolyline
 90
        9
 70
   128
 43
0.0
 10
4.656039385450895
 20
3.438930992147891
 10
4.603137905979185
 20
3.415734156704425
 10
4.572015924955481
 20
3.38418012065641
 10
4.567413596434662
 20
3.349073315072237
 10
4.590032228657476
 20
3.315758612859512
 10
4.636425669407097
 20
3.28930710670395
 10
4.699533604645125
 20
3.273746570614915
 10
4.769747788763039
 20
3.271445765685406
 10
4.836376626072844
 20
3.282754360524577
  0
LINE
  5
25E
330
2
100
AcDbEntity
  8
0
100
AcDbLine
 10
4.836376626072844
 20
3.282754360524577
 30
0.0
 11
4.992553566776193
 21
3.327838759897423
 31
0.0
  0
LWPOLYLINE
  5
25F
330
2
100
AcDbEntity
  8
0
100
AcDbPolyline
 90
        9
 70
   128
 43
0.0
 10
4.992553566776193
 20
3.327838759897423
 10
5.045456209855855
 20
3.351035931255063
 10
5.076577027271541
 20
3.382589631388869
 10
5.081179355783426
 20
3.417696436982112
 10
5.05856188717749
 20
3.451011475090941
 10
5.01216728281093
 20
3.477462645341364
 10
4.949059347581897
 20
3.4930231814304
 10
4.878846327071995
 20
3.495324322265012
 10
4.812216326154172
 20
3.48401539152977
  0
LINE
  5
260
330
2
100
AcDbEntity
  8
0
100
AcDbLine
 10
6.598954587942072
 20
2.281859454872961
 30
0.0
 11
6.640460432719404
 21
2.293841160198049
 31
0.0
  0
ARC
  5
261
330
2
100
AcDbEntity
  8
0
100
AcDbCircle
 10
6.508522856330907
 20
2.611706357869858
 30
0.0
 40
0.3420188262361061
100
AcDbArc
 50
262.2008268918018
 51
285.3316431664972
  0
LINE
  5
262
330
2
100
AcDbEntity
  8
0
100
AcDbLine
 10
5.559449329180568
 20
2.393785181725959
 30
0.0
 11
6.4621104658892
 21
2.272851274515155
 31
0.0
  0
ARC
  5
263
330
2
100
AcDbEntity
  8
0
100
AcDbCircle
 10
5.578607166380264
 20
2.607433415573841
 30
0.0
 40
0.2145054557673883
100
AcDbArc
 50
233.1444269821993
 51
264.8759916605935
  0
LINE
  5
264
330
2
100
AcDbEntity
  8
0
100
AcDbLine
 10
5.449946800080583
 20
2.43579687897644
 30
0.0
 11
3.495851082562485
 21
4.128093411769177
 31
0.0
  0
ARC
  5
265
330
2
100
AcDbEntity
  8
0
100
AcDbCircle
 10
3.53019212627302
 20
4.175512342740375
 30
0.0
 40
0.0585479487054957
100
AcDbArc
 50
182.2852148176459
 51
234.087742797232
  0
LINE
  5
266
330
2
100
AcDbEntity
  8
0
100
AcDbLine
 10
3.845233381539997
 20
4.749718535716266
 30
0.0
 11
3.803727536753603
 21
4.737736830382144
 31
0.0
  0
ARC
  5
267
330
2
100
AcDbEntity
  8
0
100
AcDbCircle
 10
3.830620678069486
 20
4.604614406603547
 30
0.0
 40
0.1358117106995958
100
AcDbArc
 50
101.4210714680927
 51
144.7560980463014
  0
LWPOLYLINE
  5
268
330
2
100
AcDbEntity
  8
0
100
AcDbPolyline
 90
        6
 70
   128
 43
0.0
 10
6.433043096724054
 20
7.877275206849057
 10
6.419593542747287
 20
7.877602825877232
 10
6.408393630386267
 20
7.87641744321926
 10
6.399874212708554
 20
7.873764698071747
 10
6.39436161885326
 20
7.869746308505366
 10
6.392485073267089
 20
7.86643894615749
  0
LINE
  5
269
330
2
100
AcDbEntity
  8
0
100
AcDbLine
 10
3.71970284967657
 20
4.682985677537563
 30
0.0
 11
3.477835952964043
 21
4.231654986233809
 31
0.0
  0
ARC
  5
26A
330
2
100
AcDbEntity
  8
0
100
AcDbCircle
 10
6.014727707423201
 20
7.690335587048542
 30
0.0
 40
0.2201932842890486
100
AcDbArc
 50
53.53729464470085
 51
85.22747148609594
  0
LWPOLYLINE
  5
26B
330
2
100
AcDbEntity
  8
0
100
AcDbPolyline
 90
        3
 70
   128
 43
0.0
 10
5.346447240848966
 20
7.908271321348319
 10
5.346045552829176
 20
7.907699909023717
 10
5.345704218622487
 20
7.906939185237204
  0
ARC
  5
26C
330
2
100
AcDbEntity
  8
0
100
AcDbCircle
 10
5.49634451044945
 20
7.597377377487493
 30
0.0
 40
0.3523715029566476
100
AcDbArc
 50
82.44019616819752
 51
109.3018013701016
  0
ARC
  5
26D
330
2
100
AcDbEntity
  8
0
100
AcDbCircle
 10
5.097318062893829
 20
7.206508368874517
 30
0.0
 40
0.4095909092024833
100
AcDbArc
 50
125.0532852855038
 51
165.0326126333986
  0
ARC
  5
26E
330
2
100
AcDbEntity
  8
0
100
AcDbCircle
 10
3.520584196567102
 20
4.207920722809718
 30
0.0
 40
0.0488950671520358
100
AcDbArc
 50
150.9605160887986
 51
179.534994665199
  0
LINE
  5
26F
330
2
100
AcDbEntity
  8
0
100
AcDbLine
 10
5.345704218622487
 20
7.906939185237204
 30
0.0
 11
5.253953983574357
 21
7.798248736252487
 31
0.0
  0
ARC
  5
270
330
2
100
AcDbEntity
  8
0
100
AcDbCircle
 10
5.225839677114058
 20
7.839559600694052
 30
0.0
 40
0.0499700084946884
100
AcDbArc
 50
257.7914719907968
 51
304.237432590598
  0
ARC
  5
271
330
2
100
AcDbEntity
  8
0
100
AcDbCircle
 10
5.047820102592043
 20
7.745203894073387
 30
0.0
 40
0.0819200159432005
100
AcDbArc
 50
305.0536892742026
 51
345.0319929205975
  0
LINE
  5
272
330
2
100
AcDbEntity
  8
0
100
AcDbLine
 10
5.215272505703563
 20
7.790719692448778
 30
0.0
 11
5.198222179277779
 21
7.792003491680553
 31
0.0
  0
ARC
  5
273
330
2
100
AcDbEntity
  8
0
100
AcDbCircle
 10
5.199448067526519
 20
7.722737273288117
 30
0.0
 40
0.0692770655585673
100
AcDbArc
 50
91.01392702580204
 51
163.0906939451999
  0
LINE
  5
274
330
2
100
AcDbEntity
  8
0
100
AcDbLine
 10
5.13316610201172
 20
7.742887034080814
 30
0.0
 11
5.126960588409983
 21
7.724045621078872
 31
0.0
  0
ARC
  5
275
330
2
100
AcDbEntity
  8
0
100
AcDbCircle
 10
10.16529778033203
 20
3.582417878784333
 30
0.0
 40
0.1028630552821568
100
AcDbArc
 50
286.6490829758924
 51
308.1274944216979
  0
LINE
  5
276
330
2
100
AcDbEntity
  8
0
100
AcDbLine
 10
9.592710832116999
 20
3.310067880569924
 30
0.0
 11
10.19476899392651
 21
3.483867101459145
 31
0.0
  0
ARC
  5
277
330
2
100
AcDbEntity
  8
0
100
AcDbCircle
 10
9.549303599903076
 20
3.455709199347615
 30
0.0
 40
0.1519723051901686
100
AcDbArc
 50
266.2240578527004
 51
286.5962675312992
  0
LINE
  5
278
330
2
100
AcDbEntity
  8
0
100
AcDbLine
 10
9.450287720548367
 20
3.310768765613568
 30
0.0
 11
9.539295474543175
 21
3.30406679442321
 31
0.0
  0
ARC
  5
279
330
2
100
AcDbEntity
  8
0
100
AcDbCircle
 10
9.463785386199338
 20
3.472448107728195
 30
0.0
 40
0.1622417845215971
100
AcDbArc
 50
233.5365937101958
 51
265.2277757242018
  0
ARC
  5
27A
330
2
100
AcDbEntity
  8
0
100
AcDbCircle
 10
8.70675108363595
 20
8.338946777030409
 30
0.0
 40
0.0221499258969343
100
AcDbArc
 50
99.61260672580433
 51
162.1737659591985
  0
LINE
  5
27B
330
2
100
AcDbEntity
  8
0
100
AcDbLine
 10
8.861941670497794
 20
8.378636795343833
 30
0.0
 11
8.703052362975942
 21
8.360785702890195
 31
0.0
  0
LINE
  5
27C
330
2
100
AcDbEntity
  8
0
100
AcDbLine
 10
9.977301579124898
 20
8.294655149552321
 30
0.0
 11
8.861941670497794
 21
8.378636795343833
 31
0.0
  0
ARC
  5
27D
330
2
100
AcDbEntity
  8
0
100
AcDbCircle
 10
9.9758305759603
 20
8.282686202653543
 30
0.0
 40
0.0120590024471205
100
AcDbArc
 50
333.6434646951035
 51
82.99339176569528
  0
LINE
  5
27E
330
2
100
AcDbEntity
  8
0
100
AcDbLine
 10
9.917196647634735
 20
8.066501610386302
 30
0.0
 11
9.986636030679424
 21
8.277332541443566
 31
0.0
  0
LINE
  5
27F
330
2
100
AcDbEntity
  8
0
100
AcDbLine
 10
8.933917715766998
 20
8.140537637208376
 30
0.0
 11
9.917196647634735
 21
8.066501610386302
 31
0.0
  0
LINE
  5
280
330
2
100
AcDbEntity
  8
0
100
AcDbLine
 10
7.745690439258275
 20
7.706476230232484
 30
0.0
 11
7.646871155042038
 21
7.406447285658595
 31
0.0
  0
ARC
  5
281
330
2
100
AcDbEntity
  8
0
100
AcDbCircle
 10
7.766084615402588
 20
7.700276817745889
 30
0.0
 40
0.0213156077969513
100
AcDbArc
 50
91.01248601779754
 51
163.0918007758038
  0
LINE
  5
282
330
2
100
AcDbEntity
  8
0
100
AcDbLine
 10
7.765707962329378
 20
7.721589097501281
 30
0.0
 11
7.864769276711907
 21
7.7141301239455
 31
0.0
  0
LINE
  5
283
330
2
100
AcDbEntity
  8
0
100
AcDbLine
 10
7.864769276711907
 20
7.7141301239455
 30
0.0
 11
8.544266616427034
 21
7.916421698023404
 31
0.0
  0
LINE
  5
284
330
2
100
AcDbEntity
  8
0
100
AcDbLine
 10
8.685664590657692
 20
8.345727560974236
 30
0.0
 11
8.544266616427034
 21
7.916421698023404
 31
0.0
  0
LINE
  5
285
330
2
100
AcDbEntity
  8
0
100
AcDbLine
 10
8.698570531185954
 20
7.250060285207894
 30
0.0
 11
8.941231363338019
 21
7.98681639222659
 31
0.0
  0
LINE
  5
286
330
2
100
AcDbEntity
  8
0
100
AcDbLine
 10
9.924510295205756
 20
7.912780365404477
 30
0.0
 11
9.86346167881733
 21
7.727428503348571
 31
0.0
  0
LINE
  5
287
330
2
100
AcDbEntity
  8
0
100
AcDbLine
 10
9.680014455561069
 20
7.741241193915627
 30
0.0
 11
9.49840107618948
 21
7.189836685768728
 31
0.0
  0
LINE
  5
288
330
2
100
AcDbEntity
  8
0
100
AcDbLine
 10
9.49840107618948
 20
7.189836685768728
 30
0.0
 11
8.698570531185954
 21
7.250060285207894
 31
0.0
  0
ARC
  5
289
330
2
100
AcDbEntity
  8
0
100
AcDbCircle
 10
10.01014433092056
 20
7.508885178343401
 30
0.0
 40
0.0490300809348694
100
AcDbArc
 50
226.9690139197046
 51
295.3354855813932
  0
LINE
  5
28A
330
2
100
AcDbEntity
  8
0
100
AcDbLine
 10
9.891026384822437
 20
7.547228779414876
 30
0.0
 11
9.976686508509001
 21
7.473044936214021
 31
0.0
  0
ARC
  5
28B
330
2
100
AcDbEntity
  8
0
100
AcDbCircle
 10
10.03174018041463
 20
7.660961535061082
 30
0.0
 40
0.1809295773920159
100
AcDbArc
 50
158.4468754029976
 51
218.947080793798
  0
ARC
  5
28C
330
2
100
AcDbEntity
  8
0
100
AcDbCircle
 10
9.858855127700183
 20
7.935334895955712
 30
0.0
 40
0.0694212349913424
100
AcDbArc
 50
341.0408574851017
 51
24.40699054409758
  0
ARC
  5
28D
330
2
100
AcDbEntity
  8
0
100
AcDbCircle
 10
10.04848809504395
 20
8.021391732085671
 30
0.0
 40
0.1388248727110944
100
AcDbArc
 50
161.0380058708976
 51
204.4098498788006
  0
LINE
  5
28E
330
2
100
AcDbEntity
  8
0
100
AcDbLine
 10
9.49840107618948
 20
7.189836685768728
 30
0.0
 11
9.56068352229227
 21
7.135898505230779
 31
0.0
  0
LINE
  5
28F
330
2
100
AcDbEntity
  8
0
100
AcDbLine
 10
7.740884368049934
 20
7.27292057334324
 30
0.0
 11
7.656059806234777
 21
7.346380798739078
 31
0.0
  0
LINE
  5
290
330
2
100
AcDbEntity
  8
0
100
AcDbLine
 10
7.656059806234777
 20
7.346380798739078
 30
0.0
 11
8.676028415473513
 21
7.269582330074852
 31
0.0
  0
LINE
  5
291
330
2
100
AcDbEntity
  8
0
100
AcDbLine
 10
8.676028415473513
 20
7.269582330074852
 30
0.0
 11
8.698570531185954
 21
7.250060285207894
 31
0.0
  0
ARC
  5
292
330
2
100
AcDbEntity
  8
0
100
AcDbCircle
 10
9.529990309664984
 20
7.105901406437855
 30
0.0
 40
0.0429173535732034
100
AcDbArc
 50
6.368136345499451
 51
44.34285004420456
  0
ARC
  5
293
330
2
100
AcDbEntity
  8
0
100
AcDbCircle
 10
9.848288408313996
 20
7.674773621588572
 30
0.0
 40
0.180925568525977
100
AcDbArc
 50
158.4461682942989
 51
218.947801727599
  0
LINE
  5
294
330
2
100
AcDbEntity
  8
0
100
AcDbLine
 10
9.793239285261741
 20
7.486857772223029
 30
0.0
 11
9.707579161566251
 21
7.561041615423881
 31
0.0
  0
ARC
  5
295
330
2
100
AcDbEntity
  8
0
100
AcDbCircle
 10
9.827710111516582
 20
7.524331048148587
 30
0.0
 40
0.0509164440136657
100
AcDbArc
 50
227.3897431828998
 51
264.8561861738975
  0
ARC
  5
296
330
2
100
AcDbEntity
  8
0
100
AcDbCircle
 10
9.065209163176216
 20
8.095427758916745
 30
0.0
 40
0.1388248727111254
100
AcDbArc
 50
161.0380058708976
 51
204.4098498788006
  0
ARC
  5
297
330
2
100
AcDbEntity
  8
0
100
AcDbCircle
 10
7.710254733530172
 20
7.24296526595455
 30
0.0
 40
0.0428426767583457
100
AcDbArc
 50
6.491114374099525
 51
44.36230848150032
  0
ARC
  5
298
330
2
100
AcDbEntity
  8
0
100
AcDbCircle
 10
8.875581885652383
 20
8.009371193482017
 30
0.0
 40
0.0694159418299874
100
AcDbArc
 50
341.0391203479006
 51
24.40872768130086
  0
ELLIPSE
  5
299
330
2
100
AcDbEntity
  8
0
100
AcDbEllipse
 10
10.06279904943937
 20
8.836974249139061
 30
0.0
 11
0.2177354824984415
 21
0.7766078020416897
 31
0.0
210
0.0
220
0.0
230
1.0
 40
0.033449368
 41
2.272263534317461
 42
2.34174625460599
  0
SPLINE
  5
29A
330
2
100
AcDbEntity
  8
0
100
AcDbSpline
210
0.0
220
0.0
230
1.0
 70
     8
 71
     3
 72
    11
 73
     7
 74
     0
 42
0.000000001
 43
0.0000000001
 40
0.0
 40
0.0
 40
0.0
 40
0.0
 40
0.2517137385180087
 40
0.5017633876615959
 40
0.7884835531649208
 40
1.0
 40
1.0
 40
1.0
 40
1.0
 10
9.884625385323358
 20
8.383975321036425
 30
0.0
 10
9.887594090491397
 20
8.3818294004045
 30
0.0
 10
9.893511874601585
 20
8.377551745905845
 30
0.0
 10
9.900340347677232
 20
8.366089359617374
 30
0.0
 10
9.904136573286606
 20
8.353478574851777
 30
0.0
 10
9.902947222840495
 20
8.344973203909624
 30
0.0
 10
9.902442307757636
 20
8.341362417796903
 30
0.0
  0
ARC
  5
29B
330
2
100
AcDbEntity
  8
0
100
AcDbCircle
 10
7.702959691558765
 20
7.384291352273217
 30
0.0
 40
0.0603059641556547
100
AcDbArc
 50
158.4451304928021
 51
218.9496259357016
  0
LINE
  5
29C
330
2
100
AcDbEntity
  8
0
100
AcDbLine
 10
9.678820626276836
 20
8.444065249328353
 30
0.0
 11
9.275846232222969
 21
8.474407273635764
 31
0.0
  0
LINE
  5
29D
330
2
100
AcDbEntity
  8
0
100
AcDbLine
 10
9.678820626276836
 20
8.444065249328353
 30
0.0
 11
9.879072654977738
 21
8.386257668047303
 31
0.0
  0
ARC
  5
29E
330
2
100
AcDbEntity
  8
0
100
AcDbCircle
 10
9.871576603338608
 20
8.360124694339971
 30
0.0
 40
0.0271868185905445
100
AcDbArc
 50
61.31673829750025
 51
73.99485028310414
  0
ELLIPSE
  5
29F
330
2
100
AcDbEntity
  8
0
100
AcDbEllipse
 10
8.722831666163004
 20
8.363532809710751
 30
0.0
 11
0.0418423999712255
 21
-0.0170511960394424
 31
0.0
210
0.0
220
0.0
230
0.9999999999999998
 40
0.2713924154000001
 41
1.896947681047104
 42
2.246013531439856
  0
LINE
  5
2A0
330
2
100
AcDbEntity
  8
0
100
AcDbLine
 10
8.756428359974238
 20
8.366782388556021
 30
0.0
 11
8.713809346798161
 21
8.379753260803122
 31
0.0
  0
LINE
  5
2A1
330
2
100
AcDbEntity
  8
0
100
AcDbLine
 10
8.394825653322293
 20
8.420838870255016
 30
0.0
 11
8.571011809961309
 21
8.268257182815894
 31
0.0
  0
ELLIPSE
  5
2A2
330
2
100
AcDbEntity
  8
0
100
AcDbEllipse
 10
8.430379474211648
 20
8.414627466622928
 30
0.0
 11
0.0418423999706156
 21
-0.0170511960391913
 31
0.0
210
0.0
220
0.0
230
1.0
 40
0.2713924153999999
 41
2.246013531444893
 42
3.816809858235645
  0
LINE
  5
2A3
330
2
100
AcDbEntity
  8
0
100
AcDbLine
 10
8.407837451039354
 20
8.434149619836441
 30
0.0
 11
8.700289006436301
 21
8.383054841503227
 31
0.0
  0
LINE
  5
2A4
330
2
100
AcDbEntity
  8
0
100
AcDbLine
 10
7.808366303232588
 20
7.736754772146301
 30
0.0
 11
7.80245983651493
 21
7.718821774552393
 31
0.0
  0
LINE
  5
2A5
330
2
100
AcDbEntity
  8
0
100
AcDbLine
 10
7.806489405907662
 20
7.736896141036258
 30
0.0
 11
7.808366303232588
 21
7.736754772146301
 31
0.0
  0
LWPOLYLINE
  5
2A6
330
2
100
AcDbEntity
  8
0
100
AcDbPolyline
 90
        9
 70
   128
 43
0.0
 10
7.802202679472225
 20
7.746541590639598
 10
7.80161273095978
 20
7.744830817592434
 10
7.801360228339941
 20
7.743128004522466
 10
7.801455644075105
 20
7.741508899983108
 10
7.801894323742555
 20
7.740045613024889
 10
7.802657649624027
 20
7.738803603727621
 10
7.803710713525848
 20
7.737838393272401
 10
7.805006971192988
 20
7.737192834961227
 10
7.806489405907662
 20
7.736896141036258
  0
LINE
  5
2A7
330
2
100
AcDbEntity
  8
0
100
AcDbLine
 10
8.003091200940598
 20
8.198800092593605
 30
0.0
 11
7.802202679472225
 21
7.746541590639598
 31
0.0
  0
ARC
  5
2A8
330
2
100
AcDbEntity
  8
0
100
AcDbCircle
 10
8.032377518621212
 20
8.186912398997201
 30
0.0
 40
0.0316070508311356
100
AcDbArc
 50
90.72684154310181
 51
157.9071328554999
  0
LINE
  5
2A9
330
2
100
AcDbEntity
  8
0
100
AcDbLine
 10
8.166736168336083
 20
8.208370309705612
 30
0.0
 11
8.031976569343934
 21
8.218516906621411
 31
0.0
  0
LINE
  5
2AA
330
2
100
AcDbEntity
  8
0
100
AcDbLine
 10
8.664721362454598
 20
8.282139101825675
 30
0.0
 11
8.166736168336083
 21
8.208370309705612
 31
0.0
  0
ARC
  5
2AB
330
2
100
AcDbEntity
  8
0
100
AcDbCircle
 10
9.183567826355238
 20
8.874121440228387
 30
0.0
 40
0.4102276431026381
100
AcDbArc
 50
248.3883789471951
 51
282.9996079636003
  0
SPLINE
  5
2AC
330
2
100
AcDbEntity
  8
0
100
AcDbSpline
210
0.0
220
0.0
230
1.0
 70
     8
 71
     3
 72
     9
 73
     5
 74
     0
 42
0.000000001
 43
0.0000000001
 40
0.0
 40
0.0
 40
0.0
 40
0.0
 40
0.3637854744933605
 40
1.0
 40
1.0
 40
1.0
 40
1.0
 10
9.06089941262933
 20
6.478374287687087
 30
0.0
 10
9.05949986643294
 20
6.485927278586262
 30
0.0
 10
9.055652691945418
 20
6.506689489913342
 30
0.0
 10
9.050982813166756
 20
6.526848467737187
 30
0.0
 10
9.048011768455495
 20
6.539673902248051
 30
0.0
  0
SPLINE
  5
2AD
330
2
100
AcDbEntity
  8
0
100
AcDbSpline
210
0.0
220
0.0
230
1.0
 70
     8
 71
     3
 72
     9
 73
     5
 74
     0
 42
0.000000001
 43
0.0000000001
 40
0.0
 40
0.0
 40
0.0
 40
0.0
 40
0.4931078804754943
 40
1.0
 40
1.0
 40
1.0
 40
1.0
 10
9.31038828787372
 20
6.459589050820172
 30
0.0
 10
9.303253704724745
 20
6.447137797327036
 30
0.0
 10
9.288785099716754
 20
6.421887230491358
 30
0.0
 10
9.28075645902572
 20
6.393606290471062
 30
0.0
 10
9.276686804328987
 20
6.379270904841994
 30
0.0
  0
SPLINE
  5
2AE
330
2
100
AcDbEntity
  8
0
100
AcDbSpline
210
0.0
220
0.0
230
1.0
 70
     8
 71
     3
 72
     9
 73
     5
 74
     0
 42
0.000000001
 43
0.0000000001
 40
0.0
 40
0.0
 40
0.0
 40
0.0
 40
0.3964137364449641
 40
1.0
 40
1.0
 40
1.0
 40
1.0
 10
9.276686804328987
 20
6.379270904841994
 30
0.0
 10
9.27098175665953
 20
6.372609245132191
 30
0.0
 10
9.256590106863068
 20
6.35580442961409
 30
0.0
 10
9.24087276889759
 20
6.341366040919646
 30
0.0
 10
9.23138599960194
 20
6.332651227835817
 30
0.0
  0
LINE
  5
2AF
330
2
100
AcDbEntity
  8
0
100
AcDbLine
 10
9.059724946854165
 20
6.345576293662266
 30
0.0
 11
9.068438471575507
 21
6.394951173027759
 31
0.0
  0
SPLINE
  5
2B0
330
2
100
AcDbEntity
  8
0
100
AcDbSpline
210
0.0
220
0.0
230
1.0
 70
     8
 71
     3
 72
     9
 73
     5
 74
     0
 42
0.000000001
 43
0.0000000001
 40
0.0
 40
0.0
 40
0.0
 40
0.0
 40
0.3822979274184181
 40
1.0
 40
1.0
 40
1.0
 40
1.0
 10
9.068438471579861
 20
6.394951173031293
 30
0.0
 10
9.068968191489702
 20
6.405949296903971
 30
0.0
 10
9.070353812158392
 20
6.434717760146596
 30
0.0
 10
9.064509473024912
 20
6.461704513937929
 30
0.0
 10
9.06089941262933
 20
6.478374287687087
 30
0.0
  0
LINE
  5
2B1
330
2
100
AcDbEntity
  8
0
100
AcDbLine
 10
9.048011768455495
 20
6.539673902248624
 30
0.0
 11
9.050908225576316
 21
6.567365494215505
 31
0.0
  0
ARC
  5
2B2
330
2
100
AcDbEntity
  8
0
100
AcDbCircle
 10
9.153611026757118
 20
6.265234289106733
 30
0.0
 40
0.3191099034377581
100
AcDbArc
 50
62.6137987147038
 51
108.7743259455001
  0
LINE
  5
2B3
330
2
100
AcDbEntity
  8
0
100
AcDbLine
 10
9.230987721066913
 20
6.259815695213142
 30
0.0
 11
9.228929301126242
 21
6.258331976091596
 31
0.0
  0
LWPOLYLINE
  5
2B4
330
2
100
AcDbEntity
  8
0
100
AcDbPolyline
 90
        9
 70
   128
 43
0.0
 10
9.091520170073042
 20
6.268678566961697
 10
9.091980018554378
 20
6.277449686219322
 10
9.099550467579184
 20
6.283737260204603
 10
9.113613895508038
 20
6.287029332750415
 10
9.133028408259052
 20
6.287058617334837
 10
9.156212366821662
 20
6.283822195208766
 10
9.181281026361105
 20
6.277583457600871
 10
9.206196144328519
 20
6.268850107677196
 10
9.228929301126242
 20
6.258331976091596
  0
LINE
  5
2B5
330
2
100
AcDbEntity
  8
0
100
AcDbLine
 10
9.091520170073042
 20
6.268678566961697
 30
0.0
 11
9.090514814034264
 21
6.270392803367379
 31
0.0
  0
LINE
  5
2B6
330
2
100
AcDbEntity
  8
0
100
AcDbLine
 10
9.090514814034264
 20
6.270392803367379
 30
0.0
 11
9.059724946854165
 21
6.345576293662266
 31
0.0
  0
LINE
  5
2B7
330
2
100
AcDbEntity
  8
0
100
AcDbLine
 10
9.231385999603942
 20
6.332651227838531
 30
0.0
 11
9.230987721066913
 21
6.259815695213142
 31
0.0
  0
LINE
  5
2B8
330
2
100
AcDbEntity
  8
0
100
AcDbLine
 10
9.03247560009229
 20
8.49273206134127
 30
0.0
 11
8.853306958033893
 21
8.506222530021831
 31
0.0
  0
LINE
  5
2B9
330
2
100
AcDbEntity
  8
0
100
AcDbLine
 10
9.229934657165019
 20
6.258256388579355
 30
0.0
 11
9.268256295866725
 21
6.225068875953199
 31
0.0
  0
LINE
  5
2BA
330
2
100
AcDbEntity
  8
0
100
AcDbLine
 10
9.229934657165019
 20
6.258256388579355
 30
0.0
 11
9.230987721066913
 21
6.259815695213142
 31
0.0
  0
LINE
  5
2BB
330
2
100
AcDbEntity
  8
0
100
AcDbLine
 10
9.322871102727226
 20
6.537722472501524
 30
0.0
 11
9.300397100820209
 21
6.548580330073368
 31
0.0
  0
LINE
  5
2BC
330
2
100
AcDbEntity
  8
0
100
AcDbLine
 10
9.322871102727226
 20
6.537722472501524
 30
0.0
 11
9.310388287870365
 21
6.459589050822528
 31
0.0
  0
LWPOLYLINE
  5
2BD
330
2
100
AcDbEntity
  8
0
100
AcDbPolyline
 90
        9
 70
   128
 43
0.0
 10
9.267250939827956
 20
6.225144463465441
 10
9.266791091346686
 20
6.216373344207781
 10
9.259220642321885
 20
6.210085770222497
 10
9.245157214392959
 20
6.206793697676688
 10
9.225743865249889
 20
6.206764676267412
 10
9.202558743079332
 20
6.210000835218371
 10
9.177490083539892
 20
6.216239572826231
 10
9.152574965572476
 20
6.224972922749942
 10
9.129841808774747
 20
6.235491054335541
  0
LINE
  5
2BE
330
2
100
AcDbEntity
  8
0
100
AcDbLine
 10
9.128836452735978
 20
6.235566641847784
 30
0.0
 11
9.129841808774747
 21
6.235491054335541
 31
0.0
  0
LINE
  5
2BF
330
2
100
AcDbEntity
  8
0
100
AcDbLine
 10
9.090514814034264
 20
6.268754154473938
 30
0.0
 11
9.128836452735978
 21
6.235566641847784
 31
0.0
  0
LINE
  5
2C0
330
2
100
AcDbEntity
  8
0
100
AcDbLine
 10
9.090514814034264
 20
6.268754154473938
 30
0.0
 11
9.091520170073042
 21
6.268678566961697
 31
0.0
  0
LINE
  5
2C1
330
2
100
AcDbEntity
  8
0
100
AcDbLine
 10
9.228929301126242
 20
6.258331976091596
 30
0.0
 11
9.229934657165019
 21
6.258256388579355
 31
0.0
  0
LINE
  5
2C2
330
2
100
AcDbEntity
  8
0
100
AcDbLine
 10
9.267250939827956
 20
6.225144463465441
 30
0.0
 11
9.268256295866725
 21
6.225068875953199
 31
0.0
  0
LINE
  5
2C3
330
2
100
AcDbEntity
  8
0
100
AcDbLine
 10
8.853306958033893
 20
8.506222530021831
 30
0.0
 11
8.762068763857223
 21
8.526276936357932
 31
0.0
  0
LWPOLYLINE
  5
2C4
330
2
100
AcDbEntity
  8
0
100
AcDbPolyline
 90
        3
 70
   128
 43
0.0
 10
9.33128737267485
 20
6.246134100887091
 10
9.322732376481084
 20
6.239178007314867
 10
9.321047423956468
 20
6.238357454406413
  0
LINE
  5
2C5
330
2
100
AcDbEntity
  8
0
100
AcDbLine
 10
9.453053292693297
 20
6.386176192452387
 30
0.0
 11
9.440587990060311
 21
6.377115824744834
 31
0.0
  0
ARC
  5
2C6
330
2
100
AcDbEntity
  8
0
100
AcDbCircle
 10
8.739961733547051
 20
8.42804194844345
 30
0.0
 40
0.1006917754340626
100
AcDbArc
 50
77.31730820779633
 51
85.32930291050435
  0
LINE
  5
2C7
330
2
100
AcDbEntity
  8
0
100
AcDbLine
 10
8.748160942523959
 20
8.528399342851923
 30
0.0
 11
8.446364463109874
 21
8.551123241397654
 31
0.0
  0
LINE
  5
2C8
330
2
100
AcDbEntity
  8
0
100
AcDbLine
 10
9.090514814034264
 20
6.270392803367379
 30
0.0
 11
9.090514814034264
 21
6.268754154473938
 31
0.0
  0
SPLINE
  5
2C9
330
2
100
AcDbEntity
  8
0
100
AcDbSpline
210
0.0
220
0.0
230
1.0
 70
     8
 71
     3
 72
     9
 73
     5
 74
     0
 42
0.000000001
 43
0.0000000001
 40
0.0
 40
0.0
 40
0.0
 40
0.0
 40
0.690265050481048
 40
1.0
 40
1.0
 40
1.0
 40
1.0
 10
9.465635129576098
 20
6.405479999503945
 30
0.0
 10
9.46151087556707
 20
6.411127332424777
 30
0.0
 10
9.455535990982911
 20
6.41930873016017
 30
0.0
 10
9.449454764714827
 20
6.42726476230966
 30
0.0
 10
9.447571196403668
 20
6.429729023525885
 30
0.0
  0
LINE
  5
2CA
330
2
100
AcDbEntity
  8
0
100
AcDbLine
 10
9.453053292693297
 20
6.386176192452387
 30
0.0
 11
9.465635129579165
 21
6.405479999503874
 31
0.0
  0
LWPOLYLINE
  5
2CB
330
2
100
AcDbEntity
  8
0
100
AcDbPolyline
 90
        6
 70
   128
 43
0.0
 10
8.446364463109874
 20
8.551123241397654
 10
8.439639104317514
 20
8.551286664782695
 10
8.434039190128508
 20
8.5506940825352
 10
8.429779481285155
 20
8.549367637235933
 10
8.427023142370536
 20
8.547358406096762
 10
8.426085451385922
 20
8.545704965600902
  0
ARC
  5
2CC
330
2
100
AcDbEntity
  8
0
100
AcDbCircle
 10
9.488801799481834
 20
5.846974651151391
 30
0.0
 40
0.0265546056327822
100
AcDbArc
 50
206.3093621142016
 51
267.201958473101
  0
ARC
  5
2CD
330
2
100
AcDbEntity
  8
0
100
AcDbCircle
 10
9.723981911103136
 20
5.953774713288672
 30
0.0
 40
0.2848358529148554
100
AcDbArc
 50
168.1565985803999
 51
204.5995217088997
  0
LINE
  5
2CE
330
2
100
AcDbEntity
  8
0
100
AcDbLine
 10
9.510121376150497
 20
6.209318026015735
 30
0.0
 11
9.445209586099672
 21
6.012233706771699
 31
0.0
  0
LINE
  5
2CF
330
2
100
AcDbEntity
  8
0
100
AcDbLine
 10
9.878145684599747
 20
5.979635706620592
 30
0.0
 11
9.943057474650577
 21
6.176720025864591
 31
0.0
  0
ARC
  5
2D0
330
2
100
AcDbEntity
  8
0
100
AcDbCircle
 10
9.450734053313198
 20
6.186132224650079
 30
0.0
 40
0.4746804341013392
100
AcDbArc
 50
308.3912028773997
 51
334.2132946608984
  0
ARC
  5
2D1
330
2
100
AcDbEntity
  8
0
100
AcDbCircle
 10
9.716123752274707
 20
5.84888151089423
 30
0.0
 40
0.0455553361602412
100
AcDbArc
 50
268.1090752518037
 51
310.1931445754983
  0
LINE
  5
2D2
330
2
100
AcDbEntity
  8
0
100
AcDbLine
 10
9.487505519714366
 20
5.820451703743112
 30
0.0
 11
9.714620568679427
 21
5.803350981663041
 31
0.0
  0
ARC
  5
2D3
330
2
100
AcDbEntity
  8
0
100
AcDbCircle
 10
9.546839674266543
 20
6.11253883884622
 30
0.0
 40
0.2821432067397583
100
AcDbArc
 50
305.8579809468014
 51
16.63386199700191
  0
ARC
  5
2D4
330
2
100
AcDbEntity
  8
0
100
AcDbCircle
 10
9.811615564359577
 20
5.981536927921505
 30
0.0
 40
0.2829809764795455
100
AcDbArc
 50
126.1985519929034
 51
197.4443547745024
  0
ARC
  5
2D5
330
2
100
AcDbEntity
  8
0
100
AcDbCircle
 10
9.551323652195918
 20
5.901080569354071
 30
0.0
 40
0.010617829449985
100
AcDbArc
 50
204.3362626065004
 51
267.2102901677973
  0
LINE
  5
2D6
330
2
100
AcDbEntity
  8
0
100
AcDbLine
 10
9.577403432704574
 20
5.888472535302307
 30
0.0
 11
9.550806878337642
 21
5.890475323154482
 31
0.0
  0
LINE
  5
2D7
330
2
100
AcDbEntity
  8
0
100
AcDbLine
 10
9.699393613680562
 20
5.879287460295638
 30
0.0
 11
9.577403432704574
 21
5.888472535302307
 31
0.0
  0
ARC
  5
2D8
330
2
100
AcDbEntity
  8
0
100
AcDbCircle
 10
9.699960884934455
 20
5.897656807438128
 30
0.0
 40
0.0183781041219401
100
AcDbArc
 50
268.2311879514998
 51
311.3935721910031
  0
ARC
  5
2D9
330
2
100
AcDbEntity
  8
0
100
AcDbCircle
 10
9.473276200512472
 20
6.166610152507153
 30
0.0
 40
0.4746804341013781
100
AcDbArc
 50
308.3912028773997
 51
334.2132946608984
  0
ARC
  5
2DA
330
2
100
AcDbEntity
  8
0
100
AcDbCircle
 10
9.738665899482978
 20
5.829359438751306
 30
0.0
 40
0.0455553361602412
100
AcDbArc
 50
268.1090752518037
 51
310.1931445754983
  0
LINE
  5
2DB
330
2
100
AcDbEntity
  8
0
100
AcDbLine
 10
9.900687831799022
 20
5.960113634486665
 30
0.0
 11
9.965599621858915
 21
6.1571979537307
 31
0.0
  0
LINE
  5
2DC
330
2
100
AcDbEntity
  8
0
100
AcDbLine
 10
9.510047666922636
 20
5.800929631609186
 30
0.0
 11
9.737162715878696
 21
5.783828909529114
 31
0.0
  0
ARC
  5
2DD
330
2
100
AcDbEntity
  8
0
100
AcDbCircle
 10
9.511712178510537
 20
5.828523182924297
 30
0.0
 40
0.027643709459979
100
AcDbArc
 50
229.8492770627066
 51
266.5479592276035
  0
ARC
  5
2DE
330
2
100
AcDbEntity
  8
0
100
AcDbCircle
 10
9.839961109002166
 20
5.95927743136317
 30
0.0
 40
0.2893462302751641
100
AcDbArc
 50
124.0986910639973
 51
193.8826501116995
  0
LINE
  5
2DF
330
2
100
AcDbEntity
  8
0
100
AcDbLine
 10
9.689758549621359
 20
6.20289777227524
 30
0.0
 11
9.817175791427336
 21
6.193303550907109
 31
0.0
  0
ARC
  5
2E0
330
2
100
AcDbEntity
  8
0
100
AcDbCircle
 10
9.689125594844909
 20
6.18483808209521
 30
0.0
 40
0.0180707786505712
100
AcDbArc
 50
87.99272310400047
 51
129.0223704634992
  0
LINE
  5
2E1
330
2
100
AcDbEntity
  8
0
100
AcDbLine
 10
13.20750631338086
 20
8.517610099566319
 30
0.0
 11
13.20491670705749
 21
8.520619757361272
 31
0.0
  0
LINE
  5
2E2
330
2
100
AcDbEntity
  8
0
100
AcDbLine
 10
24.06178172962946
 20
11.65096951627743
 30
0.0
 11
24.05919212330617
 21
11.65397917407238
 31
0.0
  0
LWPOLYLINE
  5
2E3
330
2
100
AcDbEntity
  8
0
100
AcDbPolyline
 90
       12
 70
   128
 43
0.0
 10
24.13641346534097
 20
11.57685093807661
 10
24.14075240862034
 20
11.57324433498216
 10
24.19653759634439
 20
11.54592880856785
 10
24.2633982818722
 20
11.54227645090603
 10
24.33408941464286
 20
11.56268322317322
 10
24.40095024563071
 20
11.60493765761115
 10
24.45673528789479
 20
11.66446073518788
 10
24.49539960554177
 20
11.73480231749741
 10
24.51275334237247
 20
11.80833982532301
 10
24.50691552842501
 20
11.87710413255755
 10
24.47851945657222
 20
11.93364385086379
 10
24.46107408573217
 20
11.95173681301068
  0
LWPOLYLINE
  5
2E4
330
2
100
AcDbEntity
  8
0
100
AcDbPolyline
 90
       12
 70
   128
 43
0.0
 10
13.28213833999426
 20
8.443491605339524
 10
13.28647684692068
 20
8.439884876279538
 10
13.34226247099768
 20
8.412569475830796
 10
13.40912272018161
 20
8.408916992203412
 10
13.47981414384524
 20
8.429323848444619
 10
13.54667497483311
 20
8.471578282891586
 10
13.6024600170971
 20
8.53110136045932
 10
13.64112433474416
 20
8.601442942768809
 10
13.65847778067288
 20
8.674980366620358
 10
13.65264054852937
 20
8.74374484181204
 10
13.62424389487256
 20
8.800284392170173
 10
13.60679910583653
 20
8.818377522256096
  0
LWPOLYLINE
  5
2E5
330
2
100
AcDbEntity
  8
0
100
AcDbPolyline
 90
       19
 70
   128
 43
0.0
 10
24.02596320663112
 20
11.70253545434809
 10
24.02821667612088
 20
11.64730348064066
 10
24.05013320504102
 20
11.57898953335374
 10
24.09219059931333
 20
11.52568769905035
 10
24.15098181904405
 20
11.49171642315865
 10
24.22174378635882
 20
11.47982774498406
 10
24.29874399371307
 20
11.49098487408607
 10
24.37574391015625
 20
11.52428375144515
 10
24.44650602292206
 20
11.57702691249116
 10
24.50529724265278
 20
11.644941314922
 10
24.54735463692502
 20
11.72252499713283
 10
24.56927116584516
 20
11.80349245828614
 10
24.56927116584516
 20
11.88128435442065
 10
24.54735463692502
 20
11.94959830170753
 10
24.50529724265278
 20
12.00290006328094
 10
24.44650602292206
 20
12.03687148462365
 10
24.37574391015625
 20
12.04876004809474
 10
24.29874399371307
 20
12.03760307568774
 10
24.29874399371307
 20
12.03760307568774
  0
LWPOLYLINE
  5
2E6
330
2
100
AcDbEntity
  8
0
100
AcDbPolyline
 90
       19
 70
   128
 43
0.0
 10
13.17168764494045
 20
8.569175995645441
 10
13.17394155077425
 20
8.513944147903599
 10
13.19585807969438
 20
8.445630200616683
 10
13.23791547397562
 20
8.392328366313289
 10
13.29670669369741
 20
8.358357090421595
 10
13.3674685155612
 20
8.346468370255461
 10
13.44446843201343
 20
8.357625415383454
 10
13.52146834846566
 20
8.390924292742527
 10
13.59223075212438
 20
8.443667537762561
 10
13.65102197185516
 20
8.511581940193403
 10
13.69307936613642
 20
8.589165622404227
 10
13.71499589504754
 20
8.670133083557544
 10
13.71499589504754
 20
8.747924979701089
 10
13.69307936613642
 20
8.816238926978972
 10
13.65102197185516
 20
8.869540688561405
 10
13.59223075212438
 20
8.903512109904051
 10
13.52146834846566
 20
8.915400589392122
 10
13.44446843201343
 20
8.904243616985125
 10
13.44446843201343
 20
8.904243616985125
  0
ARC
  5
2E7
330
2
100
AcDbEntity
  8
0
100
AcDbCircle
 10
27.0736478269856
 20
11.29800302343289
 30
0.0
 40
0.5493742140896302
100
AcDbArc
 50
8.749285570098969
 51
43.73463283130261
  0
LINE
  5
2E8
330
2
100
AcDbEntity
  8
0
100
AcDbLine
 10
27.47059783860456
 20
11.67779601359944
 30
0.0
 11
27.20009194618461
 21
11.91206098831039
 31
0.0
  0
ARC
  5
2E9
330
2
100
AcDbEntity
  8
0
100
AcDbCircle
 10
27.32594476548713
 20
12.02774448437368
 30
0.0
 40
0.1709432753530361
100
AcDbArc
 50
179.5143540286999
 51
222.5891186933036
  0
LINE
  5
2EA
330
2
100
AcDbEntity
  8
0
100
AcDbLine
 10
27.15500763077685
 20
12.4586791171911
 30
0.0
 11
27.15500763077685
 21
12.02919340294493
 31
0.0
  0
LWPOLYLINE
  5
2EB
330
2
100
AcDbEntity
  8
0
100
AcDbPolyline
 90
        9
 70
   128
 43
0.0
 10
27.20009194618461
 20
12.49772335236694
 10
27.19129646081516
 20
12.50383999551918
 10
27.18283897911222
 20
12.50672072165192
 10
27.17504448846978
 20
12.50625484269359
 10
27.16821253151004
 20
12.50246017635941
 10
27.16260578538022
 20
12.49548246437456
 10
27.1584394807365
 20
12.48559020894138
 10
27.15587392789233
 20
12.47316318214656
 10
27.15500763077685
 20
12.4586791171911
  0
LINE
  5
2EC
330
2
100
AcDbEntity
  8
0
100
AcDbLine
 10
27.20009194618461
 20
12.49772335236694
 30
0.0
 11
27.29026057699126
 21
12.41963502746625
 31
0.0
  0
LWPOLYLINE
  5
2ED
330
2
100
AcDbEntity
  8
0
100
AcDbPolyline
 90
       11
 70
   128
 43
0.0
 10
27.29026057699126
 20
12.41963502746625
 10
27.34420747464323
 20
12.38426109816859
 10
27.39501920978645
 20
12.37363402522176
 10
27.43974276400602
 20
12.3883714654941
 10
27.47577891005031
 20
12.42761685915189
 10
27.50103336877664
 20
12.48908946466636
 10
27.5140385744195
 20
12.56921657365945
 10
27.5140385744195
 20
12.66334157824949
 10
27.50103336877664
 20
12.76599436417032
 10
27.47577891005031
 20
12.87120897531066
 10
27.44781192625246
 20
12.95010683346658
  0
ARC
  5
2EE
330
2
100
AcDbEntity
  8
0
100
AcDbCircle
 10
27.32594513001176
 20
13.39429009321692
 30
0.0
 40
0.1709436392837829
100
AcDbArc
 50
179.514378016001
 51
222.5890708546997
  0
LINE
  5
2EF
330
2
100
AcDbEntity
  8
0
100
AcDbLine
 10
27.15500763077685
 20
15.07463771057391
 30
0.0
 11
27.15500763077685
 21
14.8017692467631
 31
0.0
  0
LINE
  5
2F0
330
2
100
AcDbEntity
  8
0
100
AcDbLine
 10
27.15500763077685
 20
14.46175436382037
 30
0.0
 11
27.15500763077685
 21
13.39573894331406
 31
0.0
  0
LINE
  5
2F1
330
2
100
AcDbEntity
  8
0
100
AcDbLine
 10
29.67972895749348
 20
12.90272104301387
 30
0.0
 11
29.67972895749348
 21
9.996527634370407
 31
0.0
  0
ARC
  5
2F2
330
2
100
AcDbEntity
  8
0
100
AcDbCircle
 10
27.28690053031129
 20
12.01647338453049
 30
0.0
 40
0.1709432753530258
100
AcDbArc
 50
179.5143540286999
 51
222.5891186933036
  0
LINE
  5
2F3
330
2
100
AcDbEntity
  8
0
100
AcDbLine
 10
27.11596339560101
 20
12.44740801733887
 30
0.0
 11
27.11596339560101
 21
12.0179223030927
 31
0.0
  0
LINE
  5
2F4
330
2
100
AcDbEntity
  8
0
100
AcDbLine
 10
27.16104771100877
 20
11.9007898884672
 30
0.0
 11
27.43155360342873
 21
11.66652491375621
 31
0.0
  0
ARC
  5
2F5
330
2
100
AcDbEntity
  8
0
100
AcDbCircle
 10
10.08833618716464
 20
7.304970739334168
 30
0.0
 40
0.0572543670317733
100
AcDbArc
 50
177.7639509145997
 51
291.3846800217994
  0
LINE
  5
2F6
330
2
100
AcDbEntity
  8
0
100
AcDbLine
 10
10.03112541556047
 20
7.307204605084837
 30
0.0
 11
10.03112541556047
 21
10.15742810045768
 31
0.0
  0
LINE
  5
2F7
330
2
100
AcDbEntity
  8
0
100
AcDbLine
 10
27.05437704471274
 20
13.39271878848556
 30
0.0
 11
27.05437704471273
 21
13.84486772967738
 31
0.0
  0
LINE
  5
2F8
330
2
100
AcDbEntity
  8
0
100
AcDbLine
 10
27.05437704471274
 20
14.29497676240964
 30
0.0
 11
27.05437704471274
 21
15.07161755574542
 31
0.0
  0
ARC
  5
2F9
330
2
100
AcDbEntity
  8
0
100
AcDbCircle
 10
26.94342183747915
 20
13.39820585685901
 30
0.0
 40
0.1110908003874876
100
AcDbArc
 50
294.3990238291402
 51
357.1688579939018
  0
LINE
  5
2FA
330
2
100
AcDbEntity
  8
0
100
AcDbLine
 10
26.91787315017104
 20
13.27522518345131
 30
0.0
 11
26.42967044548046
 21
13.13429320196264
 31
0.0
  0
ARC
  5
2FB
330
2
100
AcDbEntity
  8
0
100
AcDbCircle
 10
26.4625370074353
 20
13.02817574472391
 30
0.0
 40
0.1110906189819108
100
AcDbArc
 50
107.2087313155014
 51
177.1689234576004
  0
LINE
  5
2FC
330
2
100
AcDbEntity
  8
0
100
AcDbLine
 10
26.35158197511979
 20
13.03366267736653
 30
0.0
 11
26.35158197511979
 21
12.01851459907288
 31
0.0
  0
ARC
  5
2FD
330
2
100
AcDbEntity
  8
0
100
AcDbCircle
 10
26.24062791465963
 20
12.02400077111619
 30
0.0
 40
0.111089610756348
100
AcDbArc
 50
287.2085247059995
 51
357.1692905096015
  0
LINE
  5
2FE
330
2
100
AcDbEntity
  8
0
100
AcDbLine
 10
26.27349379567009
 20
11.91788415845082
 30
0.0
 11
10.10921272230412
 21
7.251658143965471
 31
0.0
  0
LINE
  5
2FF
330
2
100
AcDbEntity
  8
0
100
AcDbLine
 10
24.63363911813509
 20
12.81104435634443
 30
0.0
 11
24.00893280980477
 21
12.63070717870517
 31
0.0
  0
LINE
  5
300
330
2
100
AcDbEntity
  8
0
100
AcDbLine
 10
24.63363911813509
 20
13.04530933105542
 30
0.0
 11
24.63363911813509
 21
12.81104435634443
 31
0.0
  0
LINE
  5
301
330
2
100
AcDbEntity
  8
0
100
AcDbLine
 10
24.63363911813509
 20
13.04530933105542
 30
0.0
 11
24.00893280980477
 21
12.8649721534162
 31
0.0
  0
LINE
  5
302
330
2
100
AcDbEntity
  8
0
100
AcDbLine
 10
24.00893280980477
 20
12.8649721534162
 30
0.0
 11
24.00893280980477
 21
12.63070717870517
 31
0.0
  0
LINE
  5
303
330
2
100
AcDbEntity
  8
0
100
AcDbLine
 10
13.77936384734647
 20
9.677684981615831
 30
0.0
 11
13.15465724811412
 21
9.497347720002558
 31
0.0
  0
LINE
  5
304
330
2
100
AcDbEntity
  8
0
100
AcDbLine
 10
13.77936384734647
 20
9.91194995632682
 30
0.0
 11
13.77936384734647
 21
9.677684981615831
 31
0.0
  0
LINE
  5
305
330
2
100
AcDbEntity
  8
0
100
AcDbLine
 10
13.77936384734647
 20
9.91194995632682
 30
0.0
 11
13.15465724811412
 21
9.731612694713581
 31
0.0
  0
LINE
  5
306
330
2
100
AcDbEntity
  8
0
100
AcDbLine
 10
13.15465724811412
 20
9.731612694713581
 30
0.0
 11
13.15465724811412
 21
9.497347720002558
 31
0.0
  0
LWPOLYLINE
  5
307
330
2
100
AcDbEntity
  8
0
100
AcDbPolyline
 90
        7
 70
   128
 43
0.0
 10
27.13603947011372
 20
12.49499501527989
 10
27.13600025329403
 20
12.49498374284136
 10
27.1291682963342
 20
12.49118907651621
 10
27.12356155020446
 20
12.48421136453137
 10
27.11939524556067
 20
12.47431910909815
 10
27.11682969271647
 20
12.46189208230336
 10
27.11596339560101
 20
12.44740801733887
  0
ARC
  5
308
330
2
100
AcDbEntity
  8
0
100
AcDbCircle
 10
27.00516775846873
 20
11.27222091225728
 30
0.0
 40
0.5807585852812121
100
AcDbArc
 50
9.722545797199517
 51
42.76137260430049
  0
ARC
  5
309
330
2
100
AcDbEntity
  8
0
100
AcDbCircle
 10
27.12640173022458
 20
15.07575376785789
 30
0.0
 40
0.0286276637267169
100
AcDbArc
 50
357.7657421884998
 51
111.384447788498
  0
LWPOLYLINE
  5
30A
330
2
100
AcDbEntity
  8
0
100
AcDbPolyline
 90
        7
 70
   128
 43
0.0
 10
10.03112541556047
 20
10.15742810045768
 10
10.03155856411371
 20
10.16466995112392
 10
10.03284129854425
 20
10.17088368269333
 10
10.03492449285312
 20
10.17582966496342
 10
10.0377278659181
 20
10.17931852095584
 10
10.0411438443979
 20
10.18121592684393
 10
10.04116341082528
 20
10.18122167215372
  0
LWPOLYLINE
  5
30B
330
2
100
AcDbEntity
  8
0
100
AcDbPolyline
 90
        9
 70
   128
 43
0.0
 10
27.07691916042518
 20
15.09113945515232
 10
27.07252141774044
 20
15.09419777673295
 10
27.06829271887593
 20
15.09563832161532
 10
27.06439547355924
 20
15.09540538213166
 10
27.06097949507936
 20
15.09350797624358
 10
27.05817612201445
 20
15.09001912025116
 10
27.05609292769659
 20
15.08507313798103
 10
27.05481019326597
 20
15.07885940641166
 10
27.05437704471274
 20
15.07161755574542
  0
LINE
  5
30C
330
2
100
AcDbEntity
  8
0
100
AcDbLine
 10
27.07691916042518
 20
15.09113945515232
 30
0.0
 11
27.11596339560101
 21
15.10241055500452
 31
0.0
  0
ARC
  5
30D
330
2
100
AcDbEntity
  8
0
100
AcDbCircle
 10
27.89645233439138
 20
11.11998542443312
 30
0.0
 40
0.291517743596322
100
AcDbArc
 50
57.1364688505016
 51
107.6021069081028
  0
LINE
  5
30E
330
2
100
AcDbEntity
  8
0
100
AcDbLine
 10
28.05464149964255
 20
11.36485025005951
 30
0.0
 11
30.26377253454837
 21
9.451686653539693
 31
0.0
  0
LWPOLYLINE
  5
30F
330
2
100
AcDbEntity
  8
0
100
AcDbPolyline
 90
        9
 70
   128
 43
0.0
 10
30.19776422465176
 20
9.328513929257162
 10
30.22650075128776
 20
9.33880998046469
 10
30.25066684673114
 20
9.351711118783793
 10
30.26933531303637
 20
9.366721715302471
 10
30.28178824595076
 20
9.383264986874703
 10
30.28754675433721
 20
9.400704956849017
 10
30.28639006876997
 20
9.418371558606617
 10
30.27836264803946
 20
9.435586056158737
 10
30.26377253454837
 20
9.451686653539693
  0
LINE
  5
310
330
2
100
AcDbEntity
  8
0
100
AcDbLine
 10
30.19776422465176
 20
9.328513929257162
 30
0.0
 11
29.58867555220954
 21
9.152685174755017
 31
0.0
  0
LINE
  5
311
330
2
100
AcDbEntity
  8
0
100
AcDbLine
 10
27.80829592812357
 20
11.39785417557832
 30
0.0
 11
27.19920725568134
 21
11.22202542108517
 31
0.0
  0
LWPOLYLINE
  5
312
330
2
100
AcDbEntity
  8
0
100
AcDbPolyline
 90
        9
 70
   128
 43
0.0
 10
28.63955239163632
 20
10.36237483726599
 10
28.58665033036065
 20
10.33917783386542
 10
28.55552893114997
 20
10.30762396577451
 10
28.55092660262908
 20
10.2725171601903
 10
28.57354465303896
 20
10.23920229002954
 10
28.61993867560157
 20
10.21275095182205
 10
28.68304661083062
 20
10.19719041573301
 10
28.75326021315352
 20
10.19488944285543
 10
28.81988963225833
 20
10.20619820564268
  0
LINE
  5
313
330
2
100
AcDbEntity
  8
0
100
AcDbLine
 10
28.81988963225833
 20
10.20619820564268
 30
0.0
 11
28.97606657297061
 21
10.25128260502452
 31
0.0
  0
LWPOLYLINE
  5
314
330
2
100
AcDbEntity
  8
0
100
AcDbPolyline
 90
        9
 70
   128
 43
0.0
 10
28.97606657297061
 20
10.25128260502452
 10
29.02896921605027
 20
10.27447977637316
 10
29.06009003346602
 20
10.306033476516
 10
29.06469236197784
 20
10.34114028210021
 10
29.04207431156797
 20
10.37445515226093
 10
28.99568028900541
 20
10.40090649046846
 10
28.93257235377638
 20
10.4164670265575
 10
28.86235933325742
 20
10.41876816739214
 10
28.79572933234865
 20
10.40745923664783
  0
LINE
  5
315
330
2
100
AcDbEntity
  8
0
100
AcDbLine
 10
28.79572933234865
 20
10.40745923664783
 30
0.0
 11
28.63955239163632
 21
10.36237483726599
 31
0.0
  0
ARC
  5
316
330
2
100
AcDbEntity
  8
0
100
AcDbCircle
 10
27.89645233439138
 20
11.15902958234348
 30
0.0
 40
0.2915177435963654
100
AcDbArc
 50
57.1364688505016
 51
107.6021069081028
  0
LINE
  5
317
330
2
100
AcDbEntity
  8
0
100
AcDbLine
 10
27.80829592812357
 20
11.43689833348867
 30
0.0
 11
27.19920725568134
 21
11.26106957899549
 31
0.0
  0
LINE
  5
318
330
2
100
AcDbEntity
  8
0
100
AcDbLine
 10
30.26377253454837
 20
9.490730811441013
 30
0.0
 11
28.05464149964255
 21
11.40389440796083
 31
0.0
  0
ARC
  5
319
330
2
100
AcDbEntity
  8
0
100
AcDbCircle
 10
27.1845934140034
 20
11.25934433591423
 30
0.0
 40
0.0400782456334552
100
AcDbArc
 50
177.7643096007013
 51
291.3849844368012
  0
ARC
  5
31A
330
2
100
AcDbEntity
  8
0
100
AcDbCircle
 10
27.19503200873642
 20
11.27173206377271
 30
0.0
 40
0.0114508195656769
100
AcDbArc
 50
177.7636323203012
 51
291.3844626884988
  0
ARC
  5
31B
330
2
100
AcDbEntity
  8
0
100
AcDbCircle
 10
29.57422441240536
 20
9.193079012911125
 30
0.0
 40
0.0429010209968752
100
AcDbArc
 50
231.2219891423981
 51
289.6849767793978
  0
LINE
  5
31C
330
2
100
AcDbEntity
  8
0
100
AcDbLine
 10
27.18358991069523
 20
11.2721788984431
 30
0.0
 11
27.18358991069523
 21
11.88126777087932
 31
0.0
  0
LWPOLYLINE
  5
31D
330
2
100
AcDbEntity
  8
0
100
AcDbPolyline
 90
       13
 70
   128
 43
0.0
 10
27.53899560749348
 20
11.35915803172804
 10
27.5374670751108
 20
11.36826147102684
 10
27.51789502495657
 20
11.44392742167539
 10
27.48790893470573
 20
11.51347680190169
 10
27.45112556960889
 20
11.56852091771939
 10
27.4119815532745
 20
11.60242063027004
 10
27.37519818817772
 20
11.6110871716693
 10
27.34521209792675
 20
11.59347522328296
 10
27.3256401317466
 20
11.55170898517603
 10
27.31884285690971
 20
11.49082614635795
 10
27.3256401317466
 20
11.41817011851896
 10
27.34521209792675
 20
11.34250422240435
 10
27.35879178384525
 20
11.30713771110737
  0
LINE
  5
31E
330
2
100
AcDbEntity
  8
0
100
AcDbLine
 10
27.1445456755194
 20
11.26090779859987
 30
0.0
 11
27.1445456755194
 21
11.9204998850984
 31
0.0
  0
LINE
  5
31F
330
2
100
AcDbEntity
  8
0
100
AcDbLine
 10
10.08592018726272
 20
7.101772239288603
 30
0.0
 11
26.84758185321717
 21
11.94301613832724
 31
0.0
  0
LINE
  5
320
330
2
100
AcDbEntity
  8
0
100
AcDbLine
 10
26.91639629884747
 20
11.96289170446816
 30
0.0
 11
27.06943397121888
 21
12.00709333032462
 31
0.0
  0
ARC
  5
321
330
2
100
AcDbEntity
  8
0
100
AcDbCircle
 10
27.09460445250476
 20
12.06927413623548
 30
0.0
 40
0.0341885565426079
100
AcDbArc
 50
179.5141860577003
 51
222.5891435567013
  0
LINE
  5
322
330
2
100
AcDbEntity
  8
0
100
AcDbLine
 10
26.5693449758273
 20
13.14858437266032
 30
0.0
 11
26.5693449758273
 21
12.95336348767414
 31
0.0
  0
LINE
  5
323
330
2
100
AcDbEntity
  8
0
100
AcDbLine
 10
26.5693449758273
 20
12.95336348767414
 30
0.0
 11
26.84265433116511
 21
13.03226110261162
 31
0.0
  0
LINE
  5
324
330
2
100
AcDbEntity
  8
0
100
AcDbLine
 10
26.84265433116511
 20
13.03226110261162
 30
0.0
 11
26.84265433116511
 21
13.22748198759776
 31
0.0
  0
LINE
  5
325
330
2
100
AcDbEntity
  8
0
100
AcDbLine
 10
26.84265433116511
 20
12.48564297373994
 30
0.0
 11
26.84265433116511
 21
12.64181962354128
 31
0.0
  0
LINE
  5
326
330
2
100
AcDbEntity
  8
0
100
AcDbLine
 10
26.84265433116511
 20
12.64181962354128
 30
0.0
 11
26.5693449758273
 21
12.5629220086038
 31
0.0
  0
LINE
  5
327
330
2
100
AcDbEntity
  8
0
100
AcDbLine
 10
26.5693449758273
 20
12.5629220086038
 30
0.0
 11
26.5693449758273
 21
12.4067453587935
 31
0.0
  0
LINE
  5
328
330
2
100
AcDbEntity
  8
0
100
AcDbLine
 10
26.5693449758273
 20
12.4067453587935
 30
0.0
 11
26.84265433116511
 21
12.48564297373994
 31
0.0
  0
LINE
  5
329
330
2
100
AcDbEntity
  8
0
100
AcDbLine
 10
27.06041712493572
 20
12.06956401933716
 30
0.0
 11
27.05437704471274
 21
13.39271878856301
 31
0.0
  0
LINE
  5
32A
330
2
100
AcDbEntity
  8
0
100
AcDbLine
 10
27.06943397121888
 20
12.00709333032462
 30
0.0
 11
27.10550144034356
 21
11.97585798581836
 31
0.0
  0
LINE
  5
32B
330
2
100
AcDbEntity
  8
0
100
AcDbLine
 10
27.10550144034356
 20
11.97585798581836
 30
0.0
 11
27.12042934846327
 21
11.98016730170131
 31
0.0
  0
LINE
  5
32C
330
2
100
AcDbEntity
  8
0
100
AcDbLine
 10
12.51076234288624
 20
5.003599384043693
 30
0.0
 11
12.54682981201092
 21
4.972364039537426
 31
0.0
  0
LINE
  5
32D
330
2
100
AcDbEntity
  8
0
100
AcDbLine
 10
12.51076234288624
 20
5.003599384043693
 30
0.0
 11
12.39638331220554
 21
4.970581001971028
 31
0.0
  0
LINE
  5
32E
330
2
100
AcDbEntity
  8
0
100
AcDbLine
 10
27.10550144034356
 20
12.0149021482732
 30
0.0
 11
27.06943397121888
 21
12.04613749277947
 31
0.0
  0
LINE
  5
32F
330
2
100
AcDbEntity
  8
0
100
AcDbLine
 10
27.10550144034356
 20
12.0149021482732
 30
0.0
 11
27.10550144034356
 21
11.97585798581836
 31
0.0
  0
LINE
  5
330
330
2
100
AcDbEntity
  8
0
100
AcDbLine
 10
27.10550144034356
 20
12.0149021482732
 30
0.0
 11
27.11596342661899
 21
12.01792226356276
 31
0.0
  0
ARC
  5
331
330
2
100
AcDbEntity
  8
0
100
AcDbCircle
 10
30.22802358231784
 20
9.442557394277361
 30
0.0
 40
0.0599888798649895
100
AcDbArc
 50
2.951652952599357
 51
53.42130466589955
  0
ARC
  5
332
330
2
100
AcDbEntity
  8
0
100
AcDbCircle
 10
12.56110543809905
 20
4.985541001876656
 30
0.0
 40
0.0194274505961411
100
AcDbArc
 50
222.708222624796
 51
279.5709915193981
  0
LINE
  5
333
330
2
100
AcDbEntity
  8
0
100
AcDbLine
 10
10.00691501567742
 20
7.078965410746995
 30
0.0
 11
10.087480804329
 21
7.102222750630298
 31
0.0
  0
ARC
  5
334
330
2
100
AcDbEntity
  8
0
100
AcDbCircle
 10
10.00257316473065
 20
7.09353453786241
 30
0.0
 40
0.0152023397682516
100
AcDbArc
 50
266.2273906944014
 51
286.5949634005968
  0
LINE
  5
335
330
2
100
AcDbEntity
  8
0
100
AcDbLine
 10
12.3776876461496
 20
4.968480525341066
 30
0.0
 11
9.935673202104544
 21
7.083327070291833
 31
0.0
  0
ARC
  5
336
330
2
100
AcDbEntity
  8
0
100
AcDbCircle
 10
12.38118956993685
 20
5.021563319310297
 30
0.0
 40
0.0531981812286479
100
AcDbArc
 50
266.2256106960968
 51
286.5951008251006
  0
LINE
  5
337
330
2
100
AcDbEntity
  8
0
100
AcDbLine
 10
8.159952630687829
 20
7.217030265387545
 30
0.0
 11
10.00157289811512
 21
7.078365141002821
 31
0.0
  0
LINE
  5
338
330
2
100
AcDbEntity
  8
0
100
AcDbLine
 10
9.97185900999141
 20
5.149627748071027
 30
0.0
 11
12.3776876461496
 21
4.968480525341066
 31
0.0
  0
LINE
  5
339
330
2
100
AcDbEntity
  8
0
100
AcDbLine
 10
7.563615891156485
 20
7.129045948998212
 30
0.0
 11
7.564753898339929
 21
7.132500637757653
 31
0.0
  0
LINE
  5
33A
330
2
100
AcDbEntity
  8
0
100
AcDbLine
 10
8.321086154650235
 20
7.057727657489762
 30
0.0
 11
7.896590857885362
 21
5.768897117883163
 31
0.0
  0
ARC
  5
33B
330
2
100
AcDbEntity
  8
0
100
AcDbCircle
 10
7.788426605514534
 20
5.804893748658585
 30
0.0
 40
0.113996767143875
100
AcDbArc
 50
287.7671609107019
 51
341.5927637648004
  0
LINE
  5
33C
330
2
100
AcDbEntity
  8
0
100
AcDbLine
 10
7.823212666751237
 20
5.696334120512855
 30
0.0
 11
7.123483700362624
 21
5.494339766962713
 31
0.0
  0
LINE
  5
33D
330
2
100
AcDbEntity
  8
0
100
AcDbLine
 10
8.118133920604901
 20
6.076397582588016
 30
0.0
 11
8.067389040008212
 21
5.922328736040523
 31
0.0
  0
ARC
  5
33E
330
2
100
AcDbEntity
  8
0
100
AcDbCircle
 10
8.101047979451273
 20
5.909035578301976
 30
0.0
 40
0.0361888414729764
100
AcDbArc
 50
158.4491067602006
 51
218.9439832005041
  0
LINE
  5
33F
330
2
100
AcDbEntity
  8
0
100
AcDbLine
 10
8.072901714898067
 20
5.886288709526729
 30
0.0
 11
8.316356984485429
 21
5.675450261382463
 31
0.0
  0
LWPOLYLINE
  5
340
330
2
100
AcDbEntity
  8
0
100
AcDbPolyline
 90
        9
 70
   128
 43
0.0
 10
8.316356984485429
 20
5.675450261382463
 10
8.319150398165209
 20
5.673632838943056
 10
8.322143784826073
 20
5.672819883092151
 10
8.325222194170951
 20
5.673042717974153
 10
8.328267824248428
 20
5.674292936438604
 10
8.331164670095162
 20
5.676522845031405
 10
8.333799219657755
 20
5.6796460285494
 10
8.336072281940264
 20
5.683543018977433
 10
8.337894890445598
 20
5.688063797694513
  0
LINE
  5
341
330
2
100
AcDbEntity
  8
0
100
AcDbLine
 10
8.337894890445598
 20
5.688063797694513
 30
0.0
 11
8.388639771042281
 21
5.842132644233006
 31
0.0
  0
ARC
  5
342
330
2
100
AcDbEntity
  8
0
100
AcDbCircle
 10
8.276454190176234
 20
5.886444303922512
 30
0.0
 40
0.1206197651244336
100
AcDbArc
 50
338.4467067232989
 51
38.94685972650237
  0
LINE
  5
343
330
2
100
AcDbEntity
  8
0
100
AcDbLine
 10
8.370263716229846
 20
5.962265808526194
 30
0.0
 11
8.189926496599117
 21
6.118442421971516
 31
0.0
  0
LWPOLYLINE
  5
344
330
2
100
AcDbEntity
  8
0
100
AcDbPolyline
 90
        9
 70
   128
 43
0.0
 10
8.189926496599117
 20
6.118442421971516
 10
8.180617818760687
 20
6.12450158355982
 10
8.170639461343045
 20
6.127211239576091
 10
8.160377003246942
 20
6.126468060131611
 10
8.150224155256559
 20
6.122300417088041
 10
8.140570301649614
 20
6.114868084481031
 10
8.131786890290705
 20
6.104457049118242
 10
8.124210805754437
 20
6.091467123151524
 10
8.118133920604901
 20
6.076397582588016
  0
LINE
  5
345
330
2
100
AcDbEntity
  8
0
100
AcDbLine
 10
9.951841486929302
 20
5.134514880802229
 30
0.0
 11
9.877059986313318
 21
4.907466116833629
 31
0.0
  0
LINE
  5
346
330
2
100
AcDbEntity
  8
0
100
AcDbLine
 10
9.913127455437994
 20
4.876230772327363
 30
0.0
 11
9.877059986313318
 21
4.907466116833629
 31
0.0
  0
LINE
  5
347
330
2
100
AcDbEntity
  8
0
100
AcDbLine
 10
9.913127455437994
 20
4.876230772327363
 30
0.0
 11
9.765556548592385
 21
4.428182063043061
 31
0.0
  0
LWPOLYLINE
  5
348
330
2
100
AcDbEntity
  8
0
100
AcDbPolyline
 90
        9
 70
   128
 43
0.0
 10
9.717818165335543
 20
4.388797423253897
 10
9.721810273365285
 20
4.399014340419125
 10
9.726671754648926
 20
4.408108659234534
 10
9.732271467446306
 20
4.415834139831614
 10
9.7384554043925
 20
4.421980922267558
 10
9.745057932863158
 20
4.426383013757606
 10
9.751898244197649
 20
4.428920754380716
 10
9.75879410131127
 20
4.429526094811135
 10
9.765556548592385
 20
4.428182063043061
  0
LINE
  5
349
330
2
100
AcDbEntity
  8
0
100
AcDbLine
 10
9.717818165335543
 20
4.388797423253897
 30
0.0
 11
9.653718572637187
 21
4.194183871478666
 31
0.0
  0
ARC
  5
34A
330
2
100
AcDbEntity
  8
0
100
AcDbCircle
 10
9.755333755616319
 20
4.158327747355832
 30
0.0
 40
0.1077557750196797
100
AcDbArc
 50
160.5640055550009
 51
207.8755931541982
  0
LINE
  5
34B
330
2
100
AcDbEntity
  8
0
100
AcDbLine
 10
9.660081435045476
 20
4.107946178565089
 30
0.0
 11
9.449943405295137
 21
3.46993512278138
 31
0.0
  0
LINE
  5
34C
330
2
100
AcDbEntity
  8
0
100
AcDbLine
 10
9.449943405295137
 20
3.46993512278138
 30
0.0
 11
9.413875936179456
 21
3.501170467287646
 31
0.0
  0
LINE
  5
34D
330
2
100
AcDbEntity
  8
0
100
AcDbLine
 10
9.413875936179456
 20
3.501170467287646
 30
0.0
 11
9.364201573576963
 21
3.350348802326498
 31
0.0
  0
LINE
  5
34E
330
2
100
AcDbEntity
  8
0
100
AcDbLine
 10
7.015642686077648
 20
5.543900005425482
 30
0.0
 11
6.974733277057847
 21
5.419689048656655
 31
0.0
  0
LINE
  5
34F
330
2
100
AcDbEntity
  8
0
100
AcDbLine
 10
8.142927962580287
 20
5.096114883860001
 30
0.0
 11
8.193672843176976
 21
5.250183766763472
 31
0.0
  0
ARC
  5
350
330
2
100
AcDbEntity
  8
0
100
AcDbCircle
 10
8.160017570107079
 20
5.263477429572499
 30
0.0
 40
0.0361856169846596
100
AcDbArc
 50
338.4462305090001
 51
38.94700718389639
  0
LINE
  5
351
330
2
100
AcDbEntity
  8
0
100
AcDbLine
 10
8.188160126301831
 20
5.286223756910931
 30
0.0
 11
7.944704856708254
 21
5.497062205065588
 31
0.0
  0
LWPOLYLINE
  5
352
330
2
100
AcDbEntity
  8
0
100
AcDbPolyline
 90
        9
 70
   128
 43
0.0
 10
7.944704856708254
 20
5.497062205065588
 10
7.941912606636417
 20
5.498880036131091
 10
7.938919219975627
 20
5.499692991981996
 10
7.935840852622185
 20
5.499470120734981
 10
7.932794037945539
 20
5.49821958455238
 10
7.929898355706823
 20
5.495990011855755
 10
7.92726264252721
 20
5.492866492432621
 10
7.924990743852655
 20
5.488969765188735
 10
7.92316699274859
 20
5.484448705109483
  0
LINE
  5
353
330
2
100
AcDbEntity
  8
0
100
AcDbLine
 10
7.92316699274859
 20
5.484448705109483
 30
0.0
 11
7.872422112142905
 21
5.330379822206011
 31
0.0
  0
ARC
  5
354
330
2
100
AcDbEntity
  8
0
100
AcDbCircle
 10
7.984606513296935
 20
5.286069079738732
 30
0.0
 40
0.1206183309432493
100
AcDbArc
 50
158.4469060871004
 51
218.9477876243995
  0
LINE
  5
355
330
2
100
AcDbEntity
  8
0
100
AcDbLine
 10
7.890799330563291
 20
5.210246957461984
 30
0.0
 11
8.071136550194021
 21
5.054070344016625
 31
0.0
  0
LWPOLYLINE
  5
356
330
2
100
AcDbEntity
  8
0
100
AcDbPolyline
 90
        9
 70
   128
 43
0.0
 10
8.071136550194021
 20
5.054070344016625
 10
8.08044520703223
 20
5.048011309692354
 10
8.090422379850636
 20
5.045301299592918
 10
8.100684879938317
 20
5.046044442672384
 10
8.110837727928702
 20
5.050212122080968
 10
8.120492724152299
 20
5.057644699685135
 10
8.129276156502573
 20
5.068055753225913
 10
8.136851035439311
 20
5.081045416017485
 10
8.142927962580287
 20
5.096114883860001
  0
ARC
  5
357
330
2
100
AcDbEntity
  8
0
100
AcDbCircle
 10
8.134405294188736
 20
6.986640704972067
 30
0.0
 40
0.2317883306557845
100
AcDbArc
 50
53.53777866929725
 51
85.22706836750108
  0
LINE
  5
358
330
2
100
AcDbEntity
  8
0
100
AcDbLine
 10
7.525010620860474
 20
7.187762224497664
 30
0.0
 11
7.561078006002065
 21
7.156526952712392
 31
0.0
  0
ARC
  5
359
330
2
100
AcDbEntity
  8
0
100
AcDbCircle
 10
7.102839474680628
 20
5.552051149872019
 30
0.0
 40
0.0612926404369157
100
AcDbArc
 50
231.2247871519012
 51
289.6828904016965
  0
LINE
  5
35A
330
2
100
AcDbEntity
  8
0
100
AcDbLine
 10
7.566659208697435
 20
7.261825872599768
 30
0.0
 11
8.153691719436089
 21
7.217625258635628
 31
0.0
  0
LINE
  5
35B
330
2
100
AcDbEntity
  8
0
100
AcDbLine
 10
8.308222774727649
 20
7.141820940720174
 30
0.0
 11
8.272155389585986
 21
7.173056212496449
 31
0.0
  0
ARC
  5
35C
330
2
100
AcDbEntity
  8
0
100
AcDbCircle
 10
8.242554974436625
 20
7.088745556979116
 30
0.0
 40
0.0844349237779357
100
AcDbArc
 50
338.4471897567047
 51
38.94655127820096
  0
ARC
  5
35D
330
2
100
AcDbEntity
  8
0
100
AcDbCircle
 10
7.542317246437687
 20
7.141362308018377
 30
0.0
 40
0.0241232781401975
100
AcDbArc
 50
338.4477632986963
 51
38.94920519329687
  0
ARC
  5
35E
330
2
100
AcDbEntity
  8
0
100
AcDbCircle
 10
6.899014108351021
 20
5.444891003144703
 30
0.0
 40
0.0798030765042487
100
AcDbArc
 50
287.7679525381047
 51
341.5907760378011
  0
ARC
  5
35F
330
2
100
AcDbEntity
  8
0
100
AcDbCircle
 10
9.288482404870212
 20
3.37555075681451
 30
0.0
 40
0.079803076504181
100
AcDbArc
 50
287.7679525381047
 51
341.5907760379008
  0
LINE
  5
360
330
2
100
AcDbEntity
  8
0
100
AcDbLine
 10
9.31283532709814
 20
3.299554268749341
 30
0.0
 11
6.923367030570022
 21
5.368894515079534
 31
0.0
  0
ARC
  5
361
330
2
100
AcDbEntity
  8
0
100
AcDbCircle
 10
8.610908425024302
 20
3.400238468026551
 30
0.0
 40
0.2915136577782417
100
AcDbArc
 50
237.1360984818
 51
287.6022525421927
  0
LINE
  5
362
330
2
100
AcDbEntity
  8
0
100
AcDbLine
 10
8.452719894082235
 20
3.155378096892104
 30
0.0
 11
6.243588859176421
 21
5.068541693420922
 31
0.0
  0
LWPOLYLINE
  5
363
330
2
100
AcDbEntity
  8
0
100
AcDbPolyline
 90
        9
 70
   128
 43
0.0
 10
6.309596005465095
 20
5.191714081798314
 10
6.280860642446038
 20
5.181418366486928
 10
6.256694546993665
 20
5.168517228167823
 10
6.238025498893481
 20
5.153506463701076
 10
6.225572565970034
 20
5.136963192128843
 10
6.219814639387594
 20
5.119523390102564
 10
6.2209701613468
 20
5.101856452439861
 10
6.228998745685259
 20
5.08464229079288
 10
6.243588859176421
 20
5.068541693420922
  0
LINE
  5
364
330
2
100
AcDbEntity
  8
0
100
AcDbLine
 10
6.309596005465095
 20
5.191714081798314
 30
0.0
 11
6.923367030570022
 21
5.368894515079534
 31
0.0
  0
LINE
  5
365
330
2
100
AcDbEntity
  8
0
100
AcDbLine
 10
9.31283532709814
 20
3.299554268749341
 30
0.0
 11
8.699064301993281
 21
3.122373835468158
 31
0.0
  0
LWPOLYLINE
  5
366
330
2
100
AcDbEntity
  8
0
100
AcDbPolyline
 90
        9
 70
   128
 43
0.0
 10
7.687470597858515
 20
4.3140298054038
 10
7.754100598776345
 20
4.325338736148111
 10
7.824314782894186
 20
4.323037931218602
 10
7.887421554515267
 20
4.307477059224393
 10
7.933816158881834
 20
4.281025888973971
 10
7.956433627487769
 20
4.247710850865177
 10
7.951832462583835
 20
4.212604381177107
 10
7.920710481560199
 20
4.181050345129093
 10
7.867807838480537
 20
4.157853173780488
  0
LINE
  5
367
330
2
100
AcDbEntity
  8
0
100
AcDbLine
 10
7.531294820754122
 20
4.268945741936094
 30
0.0
 11
7.687470597858515
 21
4.3140298054038
 31
0.0
  0
LWPOLYLINE
  5
368
330
2
100
AcDbEntity
  8
0
100
AcDbPolyline
 90
        9
 70
   128
 43
0.0
 10
7.711632061376143
 20
4.112769110303747
 10
7.645002060467383
 20
4.101460179568506
 10
7.57478787634947
 20
4.103760984497943
 10
7.511681104719386
 20
4.119321856492153
 10
7.465286500361827
 20
4.145773026742576
 10
7.442669031746957
 20
4.179088064851405
 10
7.447270196659892
 20
4.21419453453951
 10
7.47839217767446
 20
4.245748570578455
 10
7.531294820754122
 20
4.268945741936094
  0
LINE
  5
369
330
2
100
AcDbEntity
  8
0
100
AcDbLine
 10
7.867807838480537
 20
4.157853173780488
 30
0.0
 11
7.711632061376143
 21
4.112769110303747
 31
0.0
  0
LWPOLYLINE
  5
36A
330
2
100
AcDbEntity
  8
0
100
AcDbPolyline
 90
        6
 70
   128
 43
0.0
 10
7.526101185240464
 20
7.250989466457216
 10
7.527977646852621
 20
7.254297046977033
 10
7.533490324681929
 20
7.258315363822458
 10
7.542010905967593
 20
7.26096829941509
 10
7.553210734354593
 20
7.26215375480309
 10
7.566659208697435
 20
7.261825872599768
  0
ARC
  5
36B
330
2
100
AcDbEntity
  8
0
100
AcDbCircle
 10
9.972236762301204
 20
5.128314012344985
 30
0.0
 40
0.0213170829939047
100
AcDbArc
 50
91.01537091239954
 51
163.0889158813009
  0
LINE
  5
36C
330
2
100
AcDbEntity
  8
0
100
AcDbLine
 10
8.189926496599117
 20
6.118442421971516
 30
0.0
 11
8.153236819228119
 21
6.121205009264723
 31
0.0
  0
LINE
  5
36D
330
2
100
AcDbEntity
  8
0
100
AcDbLine
 10
8.153236819228119
 20
6.121205009264723
 30
0.0
 11
8.15120752098228
 21
6.122859095394898
 31
0.0
  0
ARC
  5
36E
330
2
100
AcDbEntity
  8
0
100
AcDbCircle
 10
9.681586670228988
 20
4.182224680490581
 30
0.0
 40
0.0852653929843472
100
AcDbArc
 50
271.0145916048997
 51
343.0899246265996
  0
LINE
  5
36F
330
2
100
AcDbEntity
  8
0
100
AcDbLine
 10
9.82726382559441
 20
4.352036786437163
 30
0.0
 11
9.763165396494937
 21
4.157423497837042
 31
0.0
  0
ARC
  5
370
330
2
100
AcDbEntity
  8
0
100
AcDbCircle
 10
9.784037276282914
 20
4.373449565012127
 30
0.0
 40
0.0482394201007118
100
AcDbArc
 50
333.6479453033988
 51
82.98683627680162
  0
LINE
  5
371
330
2
100
AcDbEntity
  8
0
100
AcDbLine
 10
9.936819707230021
 20
4.867316843285262
 30
0.0
 11
10.03221217023533
 21
4.8601341475051
 31
0.0
  0
LINE
  5
372
330
2
100
AcDbEntity
  8
0
100
AcDbLine
 10
10.06693302536109
 20
4.965549948938926
 30
0.0
 11
10.03221217023533
 21
4.8601341475051
 31
0.0
  0
ARC
  5
373
330
2
100
AcDbEntity
  8
0
100
AcDbCircle
 10
9.952112490093391
 20
4.011737643824146
 30
0.0
 40
0.0180895596543545
100
AcDbArc
 50
153.6475781335
 51
262.9889434904018
  0
LINE
  5
374
330
2
100
AcDbEntity
  8
0
100
AcDbLine
 10
10.0893243057413
 20
3.983285617223499
 30
0.0
 11
9.949904462610472
 21
3.993783346762069
 31
0.0
  0
ARC
  5
375
330
2
100
AcDbEntity
  8
0
100
AcDbCircle
 10
10.08743790717793
 20
4.089849852858319
 30
0.0
 40
0.1065809308247682
100
AcDbArc
 50
271.0141431408977
 51
343.0903272024995
  0
LINE
  5
376
330
2
100
AcDbEntity
  8
0
100
AcDbLine
 10
10.29624263623541
 20
4.383205107294651
 30
0.0
 11
10.18941075747073
 21
4.058849326751339
 31
0.0
  0
ARC
  5
377
330
2
100
AcDbEntity
  8
0
100
AcDbCircle
 10
10.24220784615688
 20
4.409970096077222
 30
0.0
 40
0.0603002749855821
100
AcDbArc
 50
333.6494597713011
 51
82.98569660479783
  0
LINE
  5
378
330
2
100
AcDbEntity
  8
0
100
AcDbLine
 10
10.11015053534102
 20
4.480316495527804
 30
0.0
 11
10.24957154207973
 21
4.469819065538361
 31
0.0
  0
ARC
  5
379
330
2
100
AcDbEntity
  8
0
100
AcDbCircle
 10
10.11071662402935
 20
4.448347293298776
 30
0.0
 40
0.0319742137903596
100
AcDbArc
 50
91.01444831259879
 51
163.0903211841985
  0
LINE
  5
37A
330
2
100
AcDbEntity
  8
0
100
AcDbLine
 10
9.935902785281577
 20
4.019767440733343
 30
0.0
 11
10.08012483254734
 21
4.45764743530719
 31
0.0
  0
LINE
  5
37B
330
2
100
AcDbEntity
  8
0
100
AcDbLine
 10
10.39876998491559
 20
3.601946429055402
 30
0.0
 11
10.82326528167139
 21
4.890776968671035
 31
0.0
  0
ARC
  5
37C
330
2
100
AcDbEntity
  8
0
100
AcDbCircle
 10
10.2906057325357
 20
3.637943059830825
 30
0.0
 40
0.1139967671438649
100
AcDbArc
 50
287.7671609107019
 51
341.5927637648004
  0
LINE
  5
37D
330
2
100
AcDbEntity
  8
0
100
AcDbLine
 10
10.32539179377247
 20
3.529383431694129
 30
0.0
 11
10.22880669982547
 21
3.501501716698165
 31
0.0
  0
SPLINE
  5
37E
330
2
100
AcDbEntity
  8
0
100
AcDbSpline
210
0.0
220
0.0
230
1.0
 70
     8
 71
     3
 72
    11
 73
     7
 74
     0
 42
0.000000001
 43
0.0000000001
 40
0.0
 40
0.0
 40
0.0
 40
0.0
 40
0.2500008980131977
 40
0.4999945491153201
 40
0.7499934820642217
 40
1.0
 40
1.0
 40
1.0
 40
1.0
 10
9.660081435041693
 20
4.107946178561983
 30
0.0
 10
9.661427387994546
 20
4.106734792361404
 30
0.0
 10
9.664119254884266
 20
4.104312055075348
 30
0.0
 10
9.67032334861577
 20
4.10095994198015
 30
0.0
 10
9.677090104760871
 20
4.098273995446938
 30
0.0
 10
9.681094326562735
 20
4.097406439921588
 30
0.0
 10
9.683096467835316
 20
4.096972655578571
 30
0.0
  0
ARC
  5
37F
330
2
100
AcDbEntity
  8
0
100
AcDbCircle
 10
10.10917720985459
 20
4.958792887970254
 30
0.0
 40
0.0427811757272258
100
AcDbArc
 50
97.99005346269854
 51
170.9123793011011
  0
LWPOLYLINE
  5
380
330
2
100
AcDbEntity
  8
0
100
AcDbPolyline
 90
        9
 70
   128
 43
0.0
 10
10.83762308190889
 20
4.899185793179639
 10
10.83576155386966
 20
4.900397656322334
 10
10.83376632264342
 20
4.90093971461464
 10
10.83171410572652
 20
4.900791109539967
 10
10.82968331180877
 20
4.89995750648265
 10
10.82775202525257
 20
4.898470949231766
 10
10.82599607473516
 20
4.896388914608474
 10
10.82447995214184
 20
4.893790624335068
 10
10.82326528167139
 20
4.890776968671035
  0
LINE
  5
381
330
2
100
AcDbEntity
  8
0
100
AcDbLine
 10
10.83762308190889
 20
4.899185793179639
 30
0.0
 11
10.87369046705048
 21
4.867950521403364
 31
0.0
  0
LINE
  5
382
330
2
100
AcDbEntity
  8
0
100
AcDbLine
 10
10.85097779401056
 20
4.939730498416376
 30
0.0
 11
10.88704517915222
 21
4.908495226640137
 31
0.0
  0
LWPOLYLINE
  5
383
330
2
100
AcDbEntity
  8
0
100
AcDbPolyline
 90
        9
 70
   128
 43
0.0
 10
10.84539659132419
 20
4.834431578538033
 10
10.85884506566703
 20
4.83410369633471
 10
10.87004489405403
 20
4.835289151713676
 10
10.87856547533969
 20
4.837942087315343
 10
10.88407815316901
 20
4.84196040416073
 10
10.88637119858419
 20
4.847189698900444
 10
10.88535820677841
 20
4.853429566456343
 10
10.88107690889942
 20
4.860439705311658
 10
10.87369046705048
 20
4.867950521403364
  0
LINE
  5
384
330
2
100
AcDbEntity
  8
0
100
AcDbLine
 10
10.80569200943582
 20
4.83742126426407
 30
0.0
 11
10.84539659132419
 21
4.834431578538033
 31
0.0
  0
LWPOLYLINE
  5
385
330
2
100
AcDbEntity
  8
0
100
AcDbPolyline
 90
        5
 70
   128
 43
0.0
 10
10.88704517915222
 20
4.908495226640137
 10
10.89443045739314
 20
4.900984074643256
 10
10.8987117552722
 20
4.893973935787941
 10
10.89972591068586
 20
4.887734404137182
 10
10.89930816326588
 20
4.885812354003185
  0
ARC
  5
386
330
2
100
AcDbEntity
  8
0
100
AcDbCircle
 10
9.940678573104836
 20
4.91351596411207
 30
0.0
 40
0.0463600001233938
100
AcDbArc
 50
233.5382219833971
 51
265.2253486921032
  0
SPLINE
  5
387
330
2
100
AcDbEntity
  8
0
100
AcDbSpline
210
0.0
220
0.0
230
1.0
 70
     8
 71
     3
 72
    11
 73
     7
 74
     0
 42
0.000000001
 43
0.0000000001
 40
0.0
 40
0.0
 40
0.0
 40
0.0
 40
0.2499849550576336
 40
0.5000043246191953
 40
0.7500107420831888
 40
1.0
 40
1.0
 40
1.0
 40
1.0
 10
9.789927182989401
 20
4.421328063847804
 30
0.0
 10
9.787812152727838
 20
4.421418626877661
 30
0.0
 10
9.783581801036422
 20
4.421599765404781
 30
0.0
 10
9.776475944948231
 20
4.423255562680566
 30
0.0
 10
9.769931489102656
 20
4.425577035290931
 30
0.0
 10
9.767014828730157
 20
4.427313740328987
 30
0.0
 10
9.765556548592954
 20
4.428182063046704
 30
0.0
  0
LINE
  5
388
330
2
100
AcDbEntity
  8
0
100
AcDbLine
 10
5.202947377542073
 20
6.771858217678238
 30
0.0
 11
5.190901311499879
 21
6.772934931473562
 31
0.0
  0
LINE
  5
389
330
2
100
AcDbEntity
  8
0
100
AcDbLine
 10
7.136872602996875
 20
6.42852405578712
 30
0.0
 11
6.766836133830084
 21
6.74898503841538
 31
0.0
  0
ARC
  5
38A
330
2
100
AcDbEntity
  8
0
100
AcDbCircle
 10
6.053450260083183
 20
4.27939842955495
 30
0.0
 40
0.0219799031511358
100
AcDbArc
 50
331.1040592006979
 51
32.4828744814052
  0
ELLIPSE
  5
38B
330
2
100
AcDbEntity
  8
0
100
AcDbEllipse
 10
6.068511623462359
 20
4.222175534825399
 30
0.0
 11
0.0531860999420828
 21
0.0848576065785405
 31
0.0
210
0.0
220
0.0
230
1.0
 40
0.2945542466
 41
6.237537654344557
 42
6.941786914968744
  0
ELLIPSE
  5
38C
330
2
100
AcDbEntity
  8
0
100
AcDbEllipse
 10
6.060153022403945
 20
4.215864934859363
 30
0.0
 11
0.0912024268990099
 21
0.0195489964931801
 31
0.0
210
0.0
220
0.0
230
1.0
 40
0.2601647544
 41
2.693902237372129
 42
3.335243632973141
  0
LINE
  5
38D
330
2
100
AcDbEntity
  8
0
100
AcDbLine
 10
7.621072571007019
 20
7.592992040913271
 30
0.0
 11
7.470572866542541
 21
7.136051666913372
 31
0.0
  0
LINE
  5
38E
330
2
100
AcDbEntity
  8
0
100
AcDbLine
 10
5.159058882460207
 20
7.779022489305134
 30
0.0
 11
5.879753556257738
 21
7.154882593422479
 31
0.0
  0
LINE
  5
38F
330
2
100
AcDbEntity
  8
0
100
AcDbLine
 10
9.54164929497606
 20
5.896705056289889
 30
0.0
 11
9.548334640218742
 21
5.890915377478528
 31
0.0
  0
LINE
  5
390
330
2
100
AcDbEntity
  8
0
100
AcDbLine
 10
9.951841486929302
 20
5.134514880802229
 30
0.0
 11
8.190149510186291
 21
6.660184886306795
 31
0.0
  0
LINE
  5
391
330
2
100
AcDbEntity
  8
0
100
AcDbLine
 10
24.37436522486136
 20
12.01418746557936
 30
0.0
 11
24.40925781374107
 21
11.9936648486633
 31
0.0
  0
LINE
  5
392
330
2
100
AcDbEntity
  8
0
100
AcDbLine
 10
5.346447240848966
 20
7.908271321348319
 30
0.0
 11
5.37987020129574
 21
7.929942275519605
 31
0.0
  0
LINE
  5
393
330
2
100
AcDbEntity
  8
0
100
AcDbLine
 10
6.38046618145804
 20
7.829948855854881
 30
0.0
 11
6.38764163519245
 21
7.812133468144386
 31
0.0
  0
ARC
  5
394
330
2
100
AcDbEntity
  8
0
100
AcDbCircle
 10
7.539854487695862
 20
7.210444906671463
 30
0.0
 40
0.0271080145570656
100
AcDbArc
 50
180.0
 51
236.7986991297114
  0
LINE
  5
395
330
2
100
AcDbEntity
  8
0
100
AcDbLine
 10
26.84265433116511
 20
13.22748198759776
 30
0.0
 11
26.5693449758273
 21
13.14858437266032
 31
0.0
  0
ARC
  5
396
330
2
100
AcDbEntity
  8
0
100
AcDbCircle
 10
10.83702063220313
 20
4.927051831626267
 30
0.0
 40
0.0188560589014268
100
AcDbArc
 50
42.25196494832528
 51
90.0
  0
ARC
  5
397
330
2
100
AcDbEntity
  8
0
100
AcDbCircle
 10
9.314527996040096
 20
6.26858756186044
 30
0.0
 40
0.0280184691742108
100
AcDbArc
 50
306.7378456754338
 51
0.0
  0
ARC
  5
398
330
2
100
AcDbEntity
  8
0
100
AcDbCircle
 10
9.113206253980564
 20
6.169630001627544
 30
0.0
 40
0.4236170628221823
100
AcDbArc
 50
37.87897658188879
 51
60.33423412112881
  0
LINE
  5
399
330
2
100
AcDbEntity
  8
0
100
AcDbLine
 10
8.808665638683226
 20
6.60065695115739
 30
0.0
 11
8.870204353897356
 21
6.628799006197784
 31
0.0
  0
SPLINE
  5
39A
330
2
100
AcDbEntity
  8
0
100
AcDbSpline
210
0.0
220
0.0
230
1.0
 70
     8
 71
     3
 72
    10
 73
     6
 74
     0
 42
0.000000001
 43
0.0000000001
 40
0.0
 40
0.0
 40
0.0
 40
0.0
 40
0.223414656091903
 40
0.6496074072459033
 40
1.0
 40
1.0
 40
1.0
 40
1.0
 10
8.901029163292202
 20
6.676984282063581
 30
0.0
 10
8.905488942679195
 20
6.68655671550641
 30
0.0
 10
8.918456336023908
 20
6.714389820901626
 30
0.0
 10
8.952811791572685
 20
6.746440312915738
 30
0.0
 10
8.976822445890118
 20
6.760145979275445
 30
0.0
 10
8.987655969193113
 20
6.766329928031217
 30
0.0
  0
LINE
  5
39B
330
2
100
AcDbEntity
  8
0
100
AcDbLine
 10
8.891703395155229
 20
6.659029113651774
 30
0.0
 11
8.901029163291706
 21
6.676984282067294
 31
0.0
  0
SPLINE
  5
39C
330
2
100
AcDbEntity
  8
0
100
AcDbSpline
210
0.0
220
0.0
230
1.0
 70
     8
 71
     3
 72
     9
 73
     5
 74
     0
 42
0.000000001
 43
0.0000000001
 40
0.0
 40
0.0
 40
0.0
 40
0.0
 40
0.3637854744933605
 40
1.0
 40
1.0
 40
1.0
 40
1.0
 10
8.610056342570215
 20
6.868815839478455
 30
0.0
 10
8.608656796373825
 20
6.876368830377595
 30
0.0
 10
8.604809621886309
 20
6.897131041704709
 30
0.0
 10
8.600139743107639
 20
6.917290019528521
 30
0.0
 10
8.597168698396387
 20
6.930115454039422
 30
0.0
  0
SPLINE
  5
39D
330
2
100
AcDbEntity
  8
0
100
AcDbSpline
210
0.0
220
0.0
230
1.0
 70
     8
 71
     3
 72
     9
 73
     5
 74
     0
 42
0.000000001
 43
0.0000000001
 40
0.0
 40
0.0
 40
0.0
 40
0.0
 40
0.4931078804754943
 40
1.0
 40
1.0
 40
1.0
 40
1.0
 10
8.859545217814606
 20
6.850030602611504
 30
0.0
 10
8.852410634665636
 20
6.837579349118406
 30
0.0
 10
8.837942029657646
 20
6.812328782282727
 30
0.0
 10
8.829913388966613
 20
6.784047842262395
 30
0.0
 10
8.825843734269877
 20
6.769712456633361
 30
0.0
  0
SPLINE
  5
39E
330
2
100
AcDbEntity
  8
0
100
AcDbSpline
210
0.0
220
0.0
230
1.0
 70
     8
 71
     3
 72
     9
 73
     5
 74
     0
 42
0.000000001
 43
0.0000000001
 40
0.0
 40
0.0
 40
0.0
 40
0.0
 40
0.3964137364449641
 40
1.0
 40
1.0
 40
1.0
 40
1.0
 10
8.825843734269877
 20
6.769712456633361
 30
0.0
 10
8.82013868660042
 20
6.763050796923559
 30
0.0
 10
8.805747036803953
 20
6.746245981405458
 30
0.0
 10
8.790029698838473
 20
6.731807592711013
 30
0.0
 10
8.780542929542825
 20
6.723092779627187
 30
0.0
  0
LINE
  5
39F
330
2
100
AcDbEntity
  8
0
100
AcDbLine
 10
8.608881876794983
 20
6.736017845453599
 30
0.0
 11
8.617595401516393
 21
6.785392724819128
 31
0.0
  0
SPLINE
  5
3A0
330
2
100
AcDbEntity
  8
0
100
AcDbSpline
210
0.0
220
0.0
230
1.0
 70
     8
 71
     3
 72
     9
 73
     5
 74
     0
 42
0.000000001
 43
0.0000000001
 40
0.0
 40
0.0
 40
0.0
 40
0.0
 40
0.3822979274184181
 40
1.0
 40
1.0
 40
1.0
 40
1.0
 10
8.617595401520752
 20
6.785392724822627
 30
0.0
 10
8.618125121430587
 20
6.796390848695303
 30
0.0
 10
8.619510742099276
 20
6.825159311937967
 30
0.0
 10
8.613666402965804
 20
6.852146065729298
 30
0.0
 10
8.610056342570215
 20
6.868815839478455
 30
0.0
  0
LINE
  5
3A1
330
2
100
AcDbEntity
  8
0
100
AcDbLine
 10
8.597168698396387
 20
6.930115454039992
 30
0.0
 11
8.600065155517206
 21
6.957807046006874
 31
0.0
  0
ARC
  5
3A2
330
2
100
AcDbEntity
  8
0
100
AcDbCircle
 10
8.702767956698002
 20
6.655675840898103
 30
0.0
 40
0.3191099034377581
100
AcDbArc
 50
62.6137987147038
 51
108.7743259455001
  0
LINE
  5
3A3
330
2
100
AcDbEntity
  8
0
100
AcDbLine
 10
8.780144651007798
 20
6.650257247004477
 30
0.0
 11
8.778086231067135
 21
6.648773527882966
 31
0.0
  0
LWPOLYLINE
  5
3A4
330
2
100
AcDbEntity
  8
0
100
AcDbPolyline
 90
        9
 70
   128
 43
0.0
 10
8.640677100013926
 20
6.65912011875303
 10
8.641136948495269
 20
6.667891238010689
 10
8.648707397519995
 20
6.674178811995974
 10
8.662770825448923
 20
6.677470884541784
 10
8.682185338199936
 20
6.677500169126204
 10
8.705369296762548
 20
6.674263747000135
 10
8.73043795630199
 20
6.668025009392239
 10
8.755353074269404
 20
6.659291659468528
 10
8.778086231067135
 20
6.648773527882966
  0
LINE
  5
3A5
330
2
100
AcDbEntity
  8
0
100
AcDbLine
 10
8.640677100013926
 20
6.65912011875303
 30
0.0
 11
8.639671743975156
 21
6.660834355158712
 31
0.0
  0
LINE
  5
3A6
330
2
100
AcDbEntity
  8
0
100
AcDbLine
 10
8.639671743975156
 20
6.660834355158712
 30
0.0
 11
8.608881876794983
 21
6.736017845453599
 31
0.0
  0
LINE
  5
3A7
330
2
100
AcDbEntity
  8
0
100
AcDbLine
 10
8.780542929544827
 20
6.723092779629899
 30
0.0
 11
8.780144651007798
 21
6.650257247004477
 31
0.0
  0
LINE
  5
3A8
330
2
100
AcDbEntity
  8
0
100
AcDbLine
 10
8.779091587105902
 20
6.648697940370688
 30
0.0
 11
8.817413225807616
 21
6.615510427744531
 31
0.0
  0
LINE
  5
3A9
330
2
100
AcDbEntity
  8
0
100
AcDbLine
 10
8.779091587105902
 20
6.648697940370688
 30
0.0
 11
8.780144651007798
 21
6.650257247004477
 31
0.0
  0
LINE
  5
3AA
330
2
100
AcDbEntity
  8
0
100
AcDbLine
 10
8.872028032668117
 20
6.928164024292857
 30
0.0
 11
8.849554030761094
 21
6.939021881864738
 31
0.0
  0
LINE
  5
3AB
330
2
100
AcDbEntity
  8
0
100
AcDbLine
 10
8.872028032668117
 20
6.928164024292857
 30
0.0
 11
8.859545217811248
 21
6.850030602613862
 31
0.0
  0
LWPOLYLINE
  5
3AC
330
2
100
AcDbEntity
  8
0
100
AcDbPolyline
 90
        9
 70
   128
 43
0.0
 10
8.816407869768841
 20
6.615586015256809
 10
8.815948021287503
 20
6.606814895999148
 10
8.808377572262697
 20
6.600527322013866
 10
8.794314144333842
 20
6.597235249468057
 10
8.774900795190779
 20
6.597206228058783
 10
8.751715673020218
 20
6.60044238700974
 10
8.726647013480777
 20
6.6066811246176
 10
8.701731895513361
 20
6.615414474541311
 10
8.678998738715632
 20
6.625932606126873
  0
LINE
  5
3AD
330
2
100
AcDbEntity
  8
0
100
AcDbLine
 10
8.677993382676788
 20
6.626008193639116
 30
0.0
 11
8.678998738715632
 21
6.625932606126873
 31
0.0
  0
LINE
  5
3AE
330
2
100
AcDbEntity
  8
0
100
AcDbLine
 10
8.639671743975156
 20
6.659195706265306
 30
0.0
 11
8.677993382676788
 21
6.626008193639116
 31
0.0
  0
LINE
  5
3AF
330
2
100
AcDbEntity
  8
0
100
AcDbLine
 10
8.639671743975156
 20
6.659195706265306
 30
0.0
 11
8.640677100013926
 21
6.65912011875303
 31
0.0
  0
LINE
  5
3B0
330
2
100
AcDbEntity
  8
0
100
AcDbLine
 10
8.778086231067135
 20
6.648773527882966
 30
0.0
 11
8.779091587105902
 21
6.648697940370688
 31
0.0
  0
LINE
  5
3B1
330
2
100
AcDbEntity
  8
0
100
AcDbLine
 10
8.816407869768841
 20
6.615586015256809
 30
0.0
 11
8.817413225807616
 21
6.615510427744531
 31
0.0
  0
LWPOLYLINE
  5
3B2
330
2
100
AcDbEntity
  8
0
100
AcDbPolyline
 90
        3
 70
   128
 43
0.0
 10
8.880444302615734
 20
6.63657565267846
 10
8.871889306421968
 20
6.629619559106237
 10
8.870204353897356
 20
6.628799006197784
  0
LINE
  5
3B3
330
2
100
AcDbEntity
  8
0
100
AcDbLine
 10
9.002210222634115
 20
6.776617744243755
 30
0.0
 11
8.989744920001196
 21
6.767557376536204
 31
0.0
  0
LINE
  5
3B4
330
2
100
AcDbEntity
  8
0
100
AcDbLine
 10
8.639671743975156
 20
6.660834355158712
 30
0.0
 11
8.639671743975156
 21
6.659195706265306
 31
0.0
  0
SPLINE
  5
3B5
330
2
100
AcDbEntity
  8
0
100
AcDbSpline
210
0.0
220
0.0
230
1.0
 70
     8
 71
     3
 72
     9
 73
     5
 74
     0
 42
0.000000001
 43
0.0000000001
 40
0.0
 40
0.0
 40
0.0
 40
0.0
 40
0.690265050481048
 40
1.0
 40
1.0
 40
1.0
 40
1.0
 10
9.014792059516981
 20
6.795921551295314
 30
0.0
 10
9.01066780550796
 20
6.801568884216112
 30
0.0
 10
9.004692920923794
 20
6.809750281951537
 30
0.0
 10
8.998611694655712
 20
6.817706314101029
 30
0.0
 10
8.996728126344553
 20
6.820170575317254
 30
0.0
  0
LINE
  5
3B6
330
2
100
AcDbEntity
  8
0
100
AcDbLine
 10
9.002210222634115
 20
6.776617744243755
 30
0.0
 11
9.014792059519983
 21
6.795921551295242
 31
0.0
  0
ARC
  5
3B7
330
2
100
AcDbEntity
  8
0
100
AcDbCircle
 10
8.863684925980981
 20
6.659029113651774
 30
0.0
 40
0.0280184691742108
100
AcDbArc
 50
306.7378456754338
 51
0.0
  0
ARC
  5
3B8
330
2
100
AcDbEntity
  8
0
100
AcDbCircle
 10
8.662363183921375
 20
6.560071553418877
 30
0.0
 40
0.4236170628221823
100
AcDbArc
 50
37.87897658188879
 51
60.33423412112881
  0
LINE
  5
3B9
330
2
100
AcDbEntity
  8
0
100
AcDbLine
 10
6.433043096724054
 20
7.877275206849057
 30
0.0
 11
6.889497110458822
 21
7.845279154211313
 31
0.0
  0
ARC
  5
3BA
330
2
100
AcDbEntity
  8
0
100
AcDbCircle
 10
26.77300462464705
 20
12.70323525891662
 30
0.0
 40
0.7185474713759237
100
AcDbArc
 50
20.09454633571678
 51
37.1801609945024
  0
ENDSEC
  0
SECTION
  2
OBJECTS
  0
DICTIONARY
  5
A
330
0
100
AcDbDictionary
281
     1
  3
ACAD_COLOR
350
3E
  3
ACAD_GROUP
350
33
  3
ACAD_LAYOUT
350
18
  3
ACAD_MATERIAL
350
C
  3
ACAD_MLEADERSTYLE
350
41
  3
ACAD_MLINESTYLE
350
34
  3
ACAD_PLOTSETTINGS
350
35
  3
ACAD_PLOTSTYLENAME
350
9
  3
ACAD_SCALELIST
350
3F
  3
ACAD_TABLESTYLE
350
40
  3
ACAD_VISUALSTYLE
350
2D
  3
ACDB_RECOMPOSE_DATA
350
3CA
  3
AcDbVariableDictionary
350
3BC
  3
AcDsDecomposeData
350
3D0
  0
DICTIONARY
  5
20
330
1F
100
AcDbDictionary
280
     1
281
     1
  3
ACAD_LAYERSTATES
360
21
  0
DICTIONARY
  5
7
330
6
100
AcDbDictionary
280
     1
281
     1
  0
DICTIONARY
  5
3
330
2
100
AcDbDictionary
280
     1
281
     1
  3
ACAD_SORTENTS
360
3BB
  0
DICTIONARY
  5
3E
102
{ACAD_REACTORS
330
A
102
}
330
A
100
AcDbDictionary
281
     1
  0
DICTIONARY
  5
33
102
{ACAD_REACTORS
330
A
102
}
330
A
100
AcDbDictionary
281
     1
  0
DICTIONARY
  5
18
102
{ACAD_REACTORS
330
A
102
}
330
A
100
AcDbDictionary
281
     1
  3
Model
350
17
  3
レイアウト1
350
1E
  0
DICTIONARY
  5
C
102
{ACAD_REACTORS
330
A
102
}
330
A
100
AcDbDictionary
281
     1
  3
ByBlock
350
3A
  3
ByLayer
350
36
  3
Global
350
B
  0
DICTIONARY
  5
41
102
{ACAD_REACTORS
330
A
102
}
330
A
100
AcDbDictionary
281
     1
  0
DICTIONARY
  5
34
102
{ACAD_REACTORS
330
A
102
}
330
A
100
AcDbDictionary
281
     1
  3
Standard
350
42
  0
DICTIONARY
  5
35
102
{ACAD_REACTORS
330
A
102
}
330
A
100
AcDbDictionary
281
     1
  0
ACDBDICTIONARYWDFLT
  5
9
102
{ACAD_REACTORS
330
A
102
}
330
A
100
AcDbDictionary
281
     1
  3
Normal
350
8
100
AcDbDictionaryWithDefault
340
8
  0
DICTIONARY
  5
3F
102
{ACAD_REACTORS
330
A
102
}
330
A
100
AcDbDictionary
281
     1
  3
A0
350
47
  3
A1
350
48
  3
A2
350
49
  3
A3
350
4A
  3
A4
350
4B
  3
A5
350
4C
  3
A6
350
4D
  3
A7
350
4E
  3
A8
350
4F
  3
A9
350
50
  3
B0
350
51
  3
B1
350
52
  3
B2
350
53
  3
B3
350
54
  3
B4
350
55
  3
B5
350
56
  3
B6
350
57
  0
DICTIONARY
  5
40
102
{ACAD_REACTORS
330
A
102
}
330
A
100
AcDbDictionary
281
     1
  3
Standard
350
43
  0
DICTIONARY
  5
2D
102
{ACAD_REACTORS
330
A
102
}
330
A
100
AcDbDictionary
281
     1
  3
2dWireframe
350
2C
  3
Realistic
350
45
  3
Wireframe
350
46
  0
XRECORD
  5
3CA
102
{ACAD_REACTORS
330
A
102
}
330
A
100
AcDbXrecord
280
     1
 90
        1
330
43
  0
DICTIONARY
  5
3BC
102
{ACAD_REACTORS
330
A
102
}
330
A
100
AcDbDictionary
281
     1
  3
CANNOSCALE
350
3C2
  3
CMLEADERSTYLE
350
3BE
  3
CTABLESTYLE
350
3BD
  3
CVIEWDETAILSTYLE
350
3BF
  3
CVIEWSECTIONSTYLE
350
3C0
  3
LAYEREVAL
350
3C4
  3
LAYERNOTIFY
350
3C5
  3
LIGHTINGUNITS
350
3C3
  3
MSLTSCALE
350
3C1
  3
PSOLHEIGHT
350
3C7
  3
PSOLWIDTH
350
3C6
  3
XCLIPFRAME
350
3C8
  0
DICTIONARY
  5
3D0
102
{ACAD_REACTORS
330
A
102
}
330
A
100
AcDbDictionary
281
     1
  3
AcDsRecords
350
3D2
  3
AcDsSchemas
350
3D1
1001
ACAD
1070
     2
  0
DICTIONARY
  5
21
102
{ACAD_REACTORS
330
20
102
}
330
20
100
AcDbDictionary
281
     1
  0
SORTENTSTABLE
  5
3BB
102
{ACAD_REACTORS
330
3
102
}
330
3
100
AcDbSortentsTable
330
2
  0
LAYOUT
  5
17
102
{ACAD_XDICTIONARY
360
19
102
}
102
{ACAD_REACTORS
330
18
102
}
330
18
100
AcDbPlotSettings
  1

  2
none_device
  4
ISO_A4_(210.00_x_297.00_MM)
  6

 40
7.5
 41
20.0
 42
7.5
 43
20.0
 44
210.0
 45
297.0
 46
11.54999923706054
 47
-13.65000009536743
 48
0.0
 49
0.0
140
0.0
141
0.0
142
1.0
143
8.704084754739808
 70
 11952
 72
     1
 73
     0
 74
     0
  7

 75
     0
147
0.1148885871608098
 76
     0
 77
     2
 78
   300
148
0.0
149
0.0
100
AcDbLayout
  1
Model
 70
     1
 71
     0
 10
0.0
 20
0.0
 11
12.0
 21
9.0
 12
0.0
 22
0.0
 32
0.0
 14
0.0
 24
0.0
 34
0.0
 15
0.0
 25
0.0
 35
0.0
146
0.0
 13
0.0
 23
0.0
 33
0.0
 16
1.0
 26
0.0
 36
0.0
 17
0.0
 27
1.0
 37
0.0
 76
     0
330
2
331
2B
1001
ACAD_PSEXT
1000
None
1000
None
1000
Not applicable
1000
The layout will not be plotted unless a new plotter configuration name is selected.
1070
     0
  0
LAYOUT
  5
1E
102
{ACAD_REACTORS
330
18
102
}
330
18
100
AcDbPlotSettings
  1

  2
C:\Documents and Settings\basas\Application Data\Autodesk\AutoCAD 2005\R16.1\enu\plotters\Default Windows System Printer.pc3
  4

  6

 40
0.0
 41
0.0
 42
0.0
 43
0.0
 44
0.0
 45
0.0
 46
0.0
 47
0.0
 48
0.0
 49
0.0
140
0.0
141
0.0
142
1.0
143
1.0
 70
   688
 72
     0
 73
     0
 74
     5
  7

 75
    16
147
1.0
 76
     0
 77
     2
 78
   300
148
0.0
149
0.0
100
AcDbLayout
  1
レイアウト1
 70
     1
 71
     1
 10
0.0
 20
0.0
 11
12.0
 21
9.0
 12
0.0
 22
0.0
 32
0.0
 14
0.0
 24
0.0
 34
0.0
 15
0.0
 25
0.0
 35
0.0
146
0.0
 13
0.0
 23
0.0
 33
0.0
 16
1.0
 26
0.0
 36
0.0
 17
0.0
 27
1.0
 37
0.0
 76
     0
330
1B
  0
MATERIAL
  5
3A
102
{ACAD_XDICTIONARY
360
3B
102
}
102
{ACAD_REACTORS
330
C
102
}
330
C
100
AcDbMaterial
  1
ByBlock
  0
MATERIAL
  5
36
102
{ACAD_XDICTIONARY
360
37
102
}
102
{ACAD_REACTORS
330
C
102
}
330
C
100
AcDbMaterial
  1
ByLayer
  0
MATERIAL
  5
B
102
{ACAD_XDICTIONARY
360
D
102
}
102
{ACAD_REACTORS
330
C
102
}
330
C
100
AcDbMaterial
  1
Global
 43
0.0007999999797903
 43
0.0
 43
0.0
 43
0.0
 43
0.0
 43
0.0007999999797903
 43
0.0
 43
0.0
 43
0.0
 43
0.0
 43
1.0
 43
0.0
 43
0.0
 43
0.0
 43
0.0
 43
1.0
 49
0.0007999999797903
 49
0.0
 49
0.0
 49
0.0
 49
0.0
 49
0.0007999999797903
 49
0.0
 49
0.0
 49
0.0
 49
0.0
 49
1.0
 49
0.0
 49
0.0
 49
0.0
 49
0.0
 49
1.0
142
0.0007999999797903
142
0.0
142
0.0
142
0.0
142
0.0
142
0.0007999999797903
142
0.0
142
0.0
142
0.0
142
0.0
142
1.0
142
0.0
142
0.0
142
0.0
142
0.0
142
1.0
144
0.0007999999797903
144
0.0
144
0.0
144
0.0
144
0.0
144
0.0007999999797903
144
0.0
144
0.0
144
0.0
144
0.0
144
1.0
144
0.0
144
0.0
144
0.0
144
0.0
144
1.0
1001
ACAD
1070
    -1
1070
     3
1070
     0
1000

1071
        0
1070
     0
  0
MLINESTYLE
  5
42
102
{ACAD_REACTORS
330
34
102
}
330
34
100
AcDbMlineStyle
  2
STANDARD
 70
     0
  3

 62
   256
 51
90.0
 52
90.0
 71
     2
 49
0.5
 62
   256
  6
BYLAYER
 49
-0.5
 62
   256
  6
BYLAYER
  0
ACDBPLACEHOLDER
  5
8
102
{ACAD_REACTORS
330
9
102
}
330
9
  0
SCALE
  5
47
102
{ACAD_REACTORS
330
3F
102
}
330
3F
100
AcDbScale
 70
     0
300
1:1
140
1.0
141
1.0
290
     1
  0
SCALE
  5
48
102
{ACAD_REACTORS
330
3F
102
}
330
3F
100
AcDbScale
 70
     0
300
1:2
140
1.0
141
2.0
290
     0
  0
SCALE
  5
49
102
{ACAD_REACTORS
330
3F
102
}
330
3F
100
AcDbScale
 70
     0
300
1:4
140
1.0
141
4.0
290
     0
  0
SCALE
  5
4A
102
{ACAD_REACTORS
330
3F
102
}
330
3F
100
AcDbScale
 70
     0
300
1:5
140
1.0
141
5.0
290
     0
  0
SCALE
  5
4B
102
{ACAD_REACTORS
330
3F
102
}
330
3F
100
AcDbScale
 70
     0
300
1:8
140
1.0
141
8.0
290
     0
  0
SCALE
  5
4C
102
{ACAD_REACTORS
330
3F
102
}
330
3F
100
AcDbScale
 70
     0
300
1:10
140
1.0
141
10.0
290
     0
  0
SCALE
  5
4D
102
{ACAD_REACTORS
330
3F
102
}
330
3F
100
AcDbScale
 70
     0
300
1:16
140
1.0
141
16.0
290
     0
  0
SCALE
  5
4E
102
{ACAD_REACTORS
330
3F
102
}
330
3F
100
AcDbScale
 70
     0
300
1:20
140
1.0
141
20.0
290
     0
  0
SCALE
  5
4F
102
{ACAD_REACTORS
330
3F
102
}
330
3F
100
AcDbScale
 70
     0
300
1:30
140
1.0
141
30.0
290
     0
  0
SCALE
  5
50
102
{ACAD_REACTORS
330
3F
102
}
330
3F
100
AcDbScale
 70
     0
300
1:40
140
1.0
141
40.0
290
     0
  0
SCALE
  5
51
102
{ACAD_REACTORS
330
3F
102
}
330
3F
100
AcDbScale
 70
     0
300
1:50
140
1.0
141
50.0
290
     0
  0
SCALE
  5
52
102
{ACAD_REACTORS
330
3F
102
}
330
3F
100
AcDbScale
 70
     0
300
1:100
140
1.0
141
100.0
290
     0
  0
SCALE
  5
53
102
{ACAD_REACTORS
330
3F
102
}
330
3F
100
AcDbScale
 70
     0
300
2:1
140
2.0
141
1.0
290
     0
  0
SCALE
  5
54
102
{ACAD_REACTORS
330
3F
102
}
330
3F
100
AcDbScale
 70
     0
300
4:1
140
4.0
141
1.0
290
     0
  0
SCALE
  5
55
102
{ACAD_REACTORS
330
3F
102
}
330
3F
100
AcDbScale
 70
     0
300
8:1
140
8.0
141
1.0
290
     0
  0
SCALE
  5
56
102
{ACAD_REACTORS
330
3F
102
}
330
3F
100
AcDbScale
 70
     0
300
10:1
140
10.0
141
1.0
290
     0
  0
SCALE
  5
57
102
{ACAD_REACTORS
330
3F
102
}
330
3F
100
AcDbScale
 70
     0
300
100:1
140
100.0
141
1.0
290
     0
  0
TABLESTYLE
  5
43
102
{ACAD_XDICTIONARY
360
44
102
}
102
{ACAD_REACTORS
330
40
102
}
330
40
100
AcDbTableStyle
  3
Standard
 70
     0
 71
     0
 40
1.5
 41
1.5
280
     0
281
     0
  7
Standard
140
4.5
170
     2
 62
     0
 63
     7
283
     0
274
    -2
284
     1
 64
     0
275
    -2
285
     1
 65
     0
276
    -2
286
     1
 66
     0
277
    -2
287
     1
 67
     0
278
    -2
288
     1
 68
     0
279
    -2
289
     1
 69
     0
  7
Standard
140
6.0
170
     5
 62
     0
 63
     7
283
     0
274
    -2
284
     1
 64
     0
275
    -2
285
     1
 65
     0
276
    -2
286
     1
 66
     0
277
    -2
287
     1
 67
     0
278
    -2
288
     1
 68
     0
279
    -2
289
     1
 69
     0
  7
Standard
140
4.5
170
     5
 62
     0
 63
     7
283
     0
274
    -2
284
     1
 64
     0
275
    -2
285
     1
 65
     0
276
    -2
286
     1
 66
     0
277
    -2
287
     1
 67
     0
278
    -2
288
     1
 68
     0
279
    -2
289
     1
 69
     0
  0
VISUALSTYLE
  5
2C
102
{ACAD_XDICTIONARY
360
3D3
102
}
102
{ACAD_REACTORS
330
2D
102
}
330
2D
100
AcDbVisualStyle
  2

 70
     4
 71
     0
 72
     2
 73
     1
 90
        0
 40
-0.6
 41
-30.0
 62
     5
 63
     7
421
 16777215
 74
     1
 91
        4
 64
     7
 65
   257
 75
     1
175
     1
 42
1.0
 92
        0
 66
   257
 43
1.0
 76
     1
 77
     6
 78
     2
 67
     7
 79
     5
170
     0
171
     0
290
     0
174
     0
 93
        1
 44
0.0
173
     0
291
     0
 45
0.0
1001
ACAD
1000
AcDbSavedByObjectVersion
1070
     0
  0
VISUALSTYLE
  5
45
102
{ACAD_XDICTIONARY
360
3D6
102
}
102
{ACAD_REACTORS
330
2D
102
}
330
2D
100
AcDbVisualStyle
  2

 70
     8
 71
     2
 72
     3
 73
     0
 90
        2
 40
-0.6
 41
30.0
 62
     5
 63
     7
421
 16777215
 74
     0
 91
        0
 64
     7
 65
   257
 75
     1
175
     1
 42
1.0
 92
        8
 66
   257
 43
1.0
 76
     1
 77
     6
 78
     2
 67
     7
 79
     3
170
     0
171
     0
290
     0
174
     0
 93
       13
 44
0.0
173
     0
291
     0
 45
0.0
1001
ACAD
1000
AcDbSavedByObjectVersion
1070
     0
  0
VISUALSTYLE
  5
46
102
{ACAD_XDICTIONARY
360
3D8
102
}
102
{ACAD_REACTORS
330
2D
102
}
330
2D
100
AcDbVisualStyle
  2

 70
     5
 71
     0
 72
     2
 73
     0
 90
        0
 40
-0.6
 41
-30.0
 62
     5
 63
     7
421
 16777215
 74
     1
 91
        4
 64
     7
 65
   257
 75
     1
175
     1
 42
1.0
 92
        0
 66
   257
 43
1.0
 76
     1
 77
     6
 78
     2
 67
     7
 79
     3
170
     0
171
     0
290
     0
174
     0
 93
        1
 44
0.0
173
     0
291
     0
 45
0.0
1001
ACAD
1000
AcDbSavedByObjectVersion
1070
     0
  0
DICTIONARYVAR
  5
3C2
102
{ACAD_REACTORS
330
3BC
102
}
330
3BC
100
DictionaryVariables
280
     0
  1
1:1
  0
DICTIONARYVAR
  5
3BE
102
{ACAD_REACTORS
330
3BC
102
}
330
3BC
100
DictionaryVariables
280
     0
  1
STANDARD
  0
DICTIONARYVAR
  5
3BD
102
{ACAD_REACTORS
330
3BC
102
}
330
3BC
100
DictionaryVariables
280
     0
  1
STANDARD
  0
DICTIONARYVAR
  5
3BF
102
{ACAD_REACTORS
330
3BC
102
}
330
3BC
100
DictionaryVariables
280
     0
  1

  0
DICTIONARYVAR
  5
3C0
102
{ACAD_REACTORS
330
3BC
102
}
330
3BC
100
DictionaryVariables
280
     0
  1

  0
DICTIONARYVAR
  5
3C4
102
{ACAD_REACTORS
330
3BC
102
}
330
3BC
100
DictionaryVariables
280
     0
  1
0
  0
DICTIONARYVAR
  5
3C5
102
{ACAD_REACTORS
330
3BC
102
}
330
3BC
100
DictionaryVariables
280
     0
  1
0
  0
DICTIONARYVAR
  5
3C3
102
{ACAD_REACTORS
330
3BC
102
}
330
3BC
100
DictionaryVariables
280
     0
  1
2
  0
DICTIONARYVAR
  5
3C1
102
{ACAD_REACTORS
330
3BC
102
}
330
3BC
100
DictionaryVariables
280
     0
  1
1
  0
DICTIONARYVAR
  5
3C7
102
{ACAD_REACTORS
330
3BC
102
}
330
3BC
100
DictionaryVariables
280
     0
  1
80.000000
  0
DICTIONARYVAR
  5
3C6
102
{ACAD_REACTORS
330
3BC
102
}
330
3BC
100
DictionaryVariables
280
     0
  1
5.000000
  0
DICTIONARYVAR
  5
3C8
102
{ACAD_REACTORS
330
3BC
102
}
330
3BC
100
DictionaryVariables
280
     0
  1
2
  0
DICTIONARY
  5
3D2
102
{ACAD_REACTORS
330
3D0
102
}
330
3D0
100
AcDbDictionary
281
     1
  0
DICTIONARY
  5
3D1
102
{ACAD_REACTORS
330
3D0
102
}
330
3D0
100
AcDbDictionary
281
     1
  3
2253949630640
350
3CB
  3
2253949630656
350
3CC
  3
2253949630672
350
3CD
  3
2253949630688
350
3CE
  3
2253949630704
350
3CF
  0
DICTIONARY
  5
19
330
17
100
AcDbDictionary
280
     1
281
     1
  0
DICTIONARY
  5
3B
330
3A
100
AcDbDictionary
280
     1
281
     1
  3
ACAD_XREC_ROUNDTRIP
360
3C
  3
FBXASSET
360
3D
  0
DICTIONARY
  5
37
330
36
100
AcDbDictionary
280
     1
281
     1
  3
ACAD_XREC_ROUNDTRIP
360
38
  3
FBXASSET
360
39
  0
DICTIONARY
  5
D
330
B
100
AcDbDictionary
280
     1
281
     1
  3
ACAD_XREC_ROUNDTRIP
360
E
  3
BUMPTILE
360
F
  3
DIFFUSETILE
360
10
  3
FBXASSET
360
11
  3
OPACITYTILE
360
12
  3
REFLECTIONTILE
360
13
  0
DICTIONARY
  5
44
330
43
100
AcDbDictionary
280
     1
281
     1
  3
ACAD_ROUNDTRIP_2008_TABLESTYLE_CELLSTYLEMAP
360
3C9
  3
ACAD_XREC_ROUNDTRIP
360
3D5
  0
DICTIONARY
  5
3D3
330
2C
100
AcDbDictionary
280
     1
281
     1
  3
ACAD_XREC_ROUNDTRIP
360
3D4
  0
DICTIONARY
  5
3D6
330
45
100
AcDbDictionary
280
     1
281
     1
  3
ACAD_XREC_ROUNDTRIP
360
3D7
  0
DICTIONARY
  5
3D8
330
46
100
AcDbDictionary
280
     1
281
     1
  3
ACAD_XREC_ROUNDTRIP
360
3D9
  0
XRECORD
  5
3CB
102
{ACAD_REACTORS
330
3D1
102
}
330
3D1
100
AcDbXrecord
280
     1
  1
AcDb_Thumbnail_Schema
102
{ATTRRECORD
341
3CC
  2
AcDbDs::TreatedAsObjectData
280
     1
291
     1
102
ATTRRECORD}
102
{ATTRRECORD
341
3CD
  2
AcDbDs::Legacy
280
     1
291
     1
102
ATTRRECORD}
  2
AcDbDs::ID
280
    10
 91
        8
102
{ATTRRECORD
341
3CE
  2
AcDs:Indexable
280
     1
291
     1
102
ATTRRECORD}
102
{ATTRRECORD
341
3CF
  2
AcDbDs::HandleAttribute
280
     7
282
     1
102
ATTRRECORD}
  2
Thumbnail_Data
280
    15
 91
        0
  0
XRECORD
  5
3CC
102
{ACAD_REACTORS
330
3D1
102
}
330
3D1
100
AcDbXrecord
280
     1
  1
AcDbDs::TreatedAsObjectDataSchema
  2
AcDbDs::TreatedAsObjectData
280
     1
 91
        0
  0
XRECORD
  5
3CD
102
{ACAD_REACTORS
330
3D1
102
}
330
3D1
100
AcDbXrecord
280
     1
  1
AcDbDs::LegacySchema
  2
AcDbDs::Legacy
280
     1
 91
        0
  0
XRECORD
  5
3CE
102
{ACAD_REACTORS
330
3D1
102
}
330
3D1
100
AcDbXrecord
280
     1
  1
AcDbDs::IndexedPropertySchema
  2
AcDs:Indexable
280
     1
 91
        0
  0
XRECORD
  5
3CF
102
{ACAD_REACTORS
330
3D1
102
}
330
3D1
100
AcDbXrecord
280
     1
  1
AcDbDs::HandleAttributeSchema
  2
AcDbDs::HandleAttribute
280
     7
 91
        1
284
     1
  0
XRECORD
  5
3C
102
{ACAD_REACTORS
330
3B
102
}
330
3B
100
AcDbXrecord
280
     1
102
MATERIAL
148
0.0
149
0.0
149
0.0
 93
        0
 94
      127
282
     0
 72
     1
 77
     1
171
     1
175
     1
179
     1
273
     0
  0
XRECORD
  5
3D
102
{ACAD_REACTORS
330
3B
102
}
330
3B
100
AcDbXrecord
280
     1
 70
     1
 90
429727718
  1
D62C5603-E3A1-4AEA-B7FB-FE5D8D0755AF
310
504B03040A0000080000CC70623B3DEE336E79000000790000001B0000006175746F6465736B2D64657369676E2D7061636B6167652E786D6C3C3F786D6C2076657273696F6E3D22312E302220656E636F64696E673D227574662D3822203F3E3C666F726D6174733E3C666F726D61743E687474703A2F2F736368656D612E
310
6175746F6465736B2E636F6D2F64657369676E2D7061636B6167652F323030393C2F666F726D61743E3C2F666F726D6174733E504B0304140006080800CC70623BD486FD9CA0000000F4000000130000005B436F6E74656E745F54797065735D2E786D6C7D8EC10E82300C865F65E91D8A1E8C310C0EEA1BF002731658846E
310
D98AC1B77784ABF1D8FE5FBFBF75BBCE937A534CCEB38643598122B6FEE978D0B0485F9C41B54DDD7D022595594E1A469170414C76A4D9A4D207E29CF43ECE46F218070CC6BECC4078ACAA135ACF422C856C0E68EA1BF5669944DDD7BCDE7B1F8E415D77AECB980613C2E4AC91FC167A2B244592486606FC29C8FD7F045B9A
310
EF7053A7E60B504B0304140006080800CC70623B853B8169EB0000007C01000008000000636F72652E786D6C8D90416EC3201045AF62CDB6C206821CC7C244919D9CA01740401C94182C03558F5F9C3852BBEB6A467FFE9B197D7EFC9E1EC5975982F5AE035262288C535E5B377690E21535501C055FBC8FBF6C503839990E
310
5619041F179FE64D52DE45E362569DD7661365082642A11EB9E920A89B99642953CC8E702F67A9EE7234257977194EC9EAE275C4EABCCF5EAD5940D4AC6F0E35A568B8F43562CD7046CD199FD07E60174276A7BE677B5EADB0E0D14EEFFB6A31321A0D82627C4084204C3F096B71DD52F6819B16635EADF63F509AF53FA164
310
5DDCD1EDDD17164090FCC8732078B56691CB33A85CD7DCC40F504B0304140006080800CC70623B55019EA25F0000007C00000007000000636E782E786D6C4DCB3B0E80201045D1AD90E915ED2CF8AC45050C11660C8261F98AB1B07AC9C97D42D718D865D3E909258CFD00CCE24AC6E326A164D74DC0B4128928FF32603847
310
2BA13128B1252AC747C6BAB984FC68F0B87FE8960A5C09FE86CFB69FBA01504B0304140006080800CC70623BDBABAAF470010000D40300000C0000006662782F636F72652E786D6CC553D16E823014FD95A6AF4B694182CC941A83FA05FB810A9511A125A5257EFE2E82712ECEB8A7F100CD39F7F69E734AF9FADC366850B6
310
AF8DCE7018308C942E4C59EB2AC3DE1D498AD15A706B8CFB56869196ADCAF00863C12B6B7C374385D14E6907A836A59A41D9F7CA615434B0C8705F7CAA5606D23BA8E84F41278B93AC54100640439DE0BDB320004D43C63716C7C399D30917DCFBBA9CD9BA8469F5B156168B24CED3F7248AC8769F27244EB73B92EED8862C
310
B7F13E0C179B3C8F979C8ECD82BBBABDAA2BAC924E9558448CBD9330242CFA08E3154B5651FCC6D215639C8EE5774DBE2B5F6CF2B5768B68963BB5F5588420E442FC700B1139D4CB01F450C1E918227C2E09DF070D8140C84E1E9AAB8F1340832A9CB13130A5F1376A908D57309505ECF2A0DF179C4E9D30F5B239B87E3823
310
7A79C6F31DE1A8A5AEC08474B03C7837EAE4938639B44E5932B833D2C6B6B279CDC613877FA26EE21F4A2A4C63EC7F29A2F301D1F9F7A0E37D145F504B0304140006080800CC70623B9C113CC27E0000009D0000000B0000006662782F636E782E786D6C4DCCDF0A83201C86E15B91DFB94BFB330DD428C8FB886521330DA7
310
6397BF1A1DECE883878F57749FCDA1B7892F1BBC047A23808C7F84D9FA55424E0BE6803A256208E9EF06C84F9B91703228B1C690F78B66B34CD9A5439DF5CF0BFBF65E35BCA1B8D6A5C6F540381E886698B5741C695F9503EBA150A2F8958E3DC3EA0B504B0304140006080800CC70623B7DF2F77C2A010000120200003100
310
00006662782F41393633353835312D344632462D344230382D423046372D3739314545314133324237412F636F72652E786D6C8D51DB8EC22014FC15C2939B0D2DB4B45643319AE817EC0F6041255A68B86CFCFC856D4D76DF7CE190393373060EDB3DC707F856CE6B6B7A480A0C81328395DA5C7B18C3057510EC3873D686
310
3F34088C18550F330C39BB3A1BA7051AAC09CA84841A2BD5020AEF55806078A44B0FFD7053A328440C89E1EFC52486BBB8AA8214A99D789CF9E05200300FC927E4FB4D5B375D43103D5527440FB843077C5AA3F5861C8F645F5787F59E95B390B318B55CE45AA638FAA2957BD7248B390B7A7CC51F9C124149C82B8C378810
310
84AB2F42B7B8DD56F413775B8C5999E9FF4471926F8AA236A1AE96B8B3CC434E5839373893369E1FAF30EA395917409EB7F26AF8801C171837A4A6AC9C89E9F9C9B1A58BA30FD6A5EF5DDDCF894B9AD9B6A59C957943A9FCAE2FD5BC4DFE03504B0304140006080800CC70623BAD7543B64E01000033030000300000006662
310
782F41393633353835312D344632462D344230382D423046372D3739314545314133324237412F636E782E786D6CD593CD6EC32010845F0571AD6CE3D48AD20813A9873E410FBD12D82434182C7EAAE6EDBB2424CD25871E7B41D6EC30B3FA84F9E67BB2E40B4234DE8DB46F1925E094D7C6ED479AD3AE5951B2113C789FEE
310
6C943839C1488B4C05DF079FE72A69D8C96C13AAD6B8631503449F83828872B949AC57D26200B826A308D316B4064D6E46FCDA41C05550DC9E483A00797BFD207EFB092A45DE9514C1BBD22178396BD39D891265658C238DEA00936C654E5E433CB65A26D9F6EDB5EBC14EBF49A45CB856E66048291F6939A9A81BB5C89177
310
38143CA680F4AA299D66A042CEB3354A2684DC9D8D178FE0D9B8B41CAAD720F880EE7EF93C0C18769E099ECC04D5A102C8049A8A05632F4DDF376CF1DE0F6BB65C2F8627B65A33C6BB62177CEBBDAD973006829F89F22E814B54F4BC2BE347F8AA8F681390B50FA73F804400B5F542E796F19FF974E7F78DB802FE05E20750
310
4B0304140006080800CC70623BE75B7789680500003C100000340000006662782F41393633353835312D344632462D344230382D423046372D3739314545314133324237412F6F626A656374732E786D6CAD575B8F9B3818FD2B887D06C22499CB8AA1CA655245D5B455A356FB305264C061D8018C6C3393D95FBFC7600890
310
A4CD5EF210B0B1BFEBF98E3F7B1FF6596ABC522E1296DF9BAE3D320D9A872C4AF2F8DE2CE5CEBA358D0FBEC719939D65A691938CDE9B6ADAF4BD98B3B2D05311DD91329583D9D5FC0F438434A7A611A644887B5384CF34233629258BA878B12322891DEFF6B66BD70BFB62634E8AE781D082709A4B588AF91C528CDA28B73F
310
1C998EEF39EABBEFA97FBD6A7C7E9553F9D3D79FE442923C3C523610337627CB87ABE99D359D4CC6D6E4FACAB5E6ABF9D2726FC6A3C5F56271377BB88362213924694B38DD99FE47C48627A1E7D49F5A8BB5E1A74C0A599ED3B0F21F1E56366B89112D681E218F0915D0D6F17AD41FBA2A369DCF6335D62ABBD39779D5DDD1
310
11D4D8DE3CBB96B2E04FB8202E41051754A1AA8E8F76B4C6DFE810B580B1547F4B84911149794252234D024EF8BBE963A95AE27B3D310A9D5C215C7960FAEE415ED75694C6AFB17BCACA5D99A60A9AA65F217B0BFC53292ACB92BF283FAD0D3621576592CB5BED907C2FA8E9DF794E35E97BEA31BED21FEB401ABB94C44839
310
DCACBF0E1C5DA8DA5B2F4DFFD32AD86F543D9E565E7056502E157C00AD2671CD534549AB752FCA9CDA00677A313F04E51B22FF19E57B300579E3C97EB29F682D92935CEC18CF901B7B54FD8C51F362B56FC72FE0B3C1EAE335EDCCBF5AEC39ADB17DC238973F804BA5E6F6BFE7AF1FB32E523BE9F3BD571418E3631DCA4D48
310
5250CF639223210A9446CA30052EDF057BD35F8329C1ECD84552BF0DC8D18BE7BCE23BFE6BD960AB4A7DE79923A103BEBD80F911CBAA2C60DB19B01CF164A5583B772EE6D3FFA56666CBCDA74DC97724A48F9A58967497E489C4D979006FD7A05E227A1EBDD0F737C623387A9C844D3709995625106D157315F8B8392CD4E0
310
A0B9A720C4BE9829CEF37EA1E13111214D53925356365ADA634861B52519DD27A00AEB808EAF0628E6F435519D446F45CF2C9CF5214F0A15B2F6D06B79DA3EE3CBF7F56780D2F4E7EF73A0F5E5B02A38D07DC852C6B7C1FBB6664213E0C39E3EBA7FF4E1AD23EA2829407C85E586727488B751B2DB9502BC7B228A3FD68B6E
310
A65A22397E690AA8D158D7E404EC8CDA235CC3B7D1898680131CEC2CDF2638C65196279577750F15884AEE19F94199155B92B13297978469D4F8D358DF0AEF7631E28DC8F0D9F437D5D39A83B2231A1D52D543813A824EF8D44BCFF2FA6A31BD1E8DAD87F1CCB526B3879935BF59CDADD5C37479BB1CDD4CA7B3556B516589
310
EF352754B706114D9C885EC9131DE6EFEB43D99AFE2391C2F958179413D7CFEF6B1B6DB1E7600F00DE6E5C67454A339A4BA2E0FBA85ED26F045D454F463DBFCE484C2F90F2E5E3666003662ED8F755951A7D1BECD5B30B550B2785C8E7320B7292A4838DDA71BBC863ED7613CAF659337A3354231D4FF4A182A54904C2898C
310
98B28C4AD0CE056CCF332A80986E571EE9DBC305BB5FEB7E509220A58D25CF042D712A806AC0AD0C657FDEF80D2D9CEAA2EE4D1C76F60BFE74219A06527D6F82DF6412526107381E55E353090704D085B52408A8913C4ED159D79BDA71BB4BC506F4831350EB6F975CD22D69BF7AC49B91A2C0A9DDA3D5CA36AD20FC478E37
310
E61844E2352865EBCB61A275A65283CAAA9DD27703B4102F5AF51EF5F573B75CBB5AD38BC845F7A49F82A0966A49C2E3EA5EA0ECD326CD965F1DB402C6FA8B51A4658C5C5E2EC9E214602E55810345408596591009A82E7E7FFACA19EEA299B14A0081A705CB3296EBC14CDF658DCD336EA6D1136881AAEB87B81AB9EE53D5
310
F5EB8BC8362082DA24122F98680A4E7930C01A0079749CEA14382A0783E5EBA5A10F8C098456A03D6A4AEB6BB881E2513747552A5DB22C7EDAF83BD5528081A365F7FF06504B0304140006080000CC70623B000000000000000000000000350000006662782F41393633353835312D344632462D344230382D423046372D37
310
39314545314133324237412F76657274696365732E62696E504B0304140006080800CC70623BF270F1330600000004000000360000006662782F41393633353835312D344632462D344230382D423046372D3739314545314133324237412F747269616E676C65732E62696E636660600000504B0304140006080000CC7062
310
3B000000000000000000000000370000006662782F41393633353835312D344632462D344230382D423046372D3739314545314133324237412F617474726962757465732E62696E504B0304140006080800CC70623B08DA0BD19000000041010000360000006662782F41393633353835312D344632462D344230382D4230
310
46372D3739314545314133324237412F6469726563746F72792E786D6C858F410AC3201045AF22B36F53E9A60B35CBEEBAE80D244E44489C6234F4F835464A48035D0DF398FF9F8AF63D0E6CC63039F212F8F9020C7D47C6792B21C5FE7403D62A1188E2E60C98D7234A5830286103A55745067B9D86B8A3CF9C7F90C11DE6
310
07FB144396D7B6A82D282E9A152AD114D5EF2CB866EEE831B8EEA07A7BB5A8D7D61A2BAAEB7FD5F70921FF497D00504B0304140006080800CC70623BEDD1DC58FD000000A00100003B0000006662782F41393633353835312D344632462D344230382D423046372D3739314545314133324237412F7265736F75726365732F
310
636F72652E786D6C8D504B6E833010BD0A9A6D65B00922041947112427E8052C33A156828DFCA97AFC9A40A576D7CDCCE87D344F8F9FBFE667F689CE6B6B3A6039850C8DB2A336530731DC4903D95970676DF82583CCC8193B5861107C72362E3BA4AC096842428D1D7107A5F7182053CF7474E0D507CE32973124857FE48B
310
540F3961CEF244279DE03EB81420DB9EAC1384436FA353E879B1B182C7A8C75DA3C7F453DF353A1075D537A7BA6464B8F535A99AE14A9A2BBD90E350DD183B5CFABE3AF262350B1EF4FC9351399401471025A527C218A1E53BAB5A5AB765F5469B96525EACF23FA6B88CFF34456DC2A1DCE36E360F82A5202F42F062ED2BAD
310
579969AFDD8A6F504B010214000A0000080000CC70623B3DEE336E79000000790000001B00000000000000000000000000000000006175746F6465736B2D64657369676E2D7061636B6167652E786D6C504B01021400140006080800CC70623BD486FD9CA0000000F40000001300000000000000000000000000B20000005B
310
436F6E74656E745F54797065735D2E786D6C504B01021400140006080800CC70623B853B8169EB0000007C010000080000000000000000000000000083010000636F72652E786D6C504B01021400140006080800CC70623B55019EA25F0000007C000000070000000000000000000000000094020000636E782E786D6C504B
310
01021400140006080800CC70623BDBABAAF470010000D40300000C00000000000000000000000000180300006662782F636F72652E786D6C504B01021400140006080800CC70623B9C113CC27E0000009D0000000B00000000000000000000000000B20400006662782F636E782E786D6C504B01021400140006080800CC70
310
623B7DF2F77C2A010000120200003100000000000000000000000000590500006662782F41393633353835312D344632462D344230382D423046372D3739314545314133324237412F636F72652E786D6C504B01021400140006080800CC70623BAD7543B64E010000330300003000000000000000000000000000D2060000
310
6662782F41393633353835312D344632462D344230382D423046372D3739314545314133324237412F636E782E786D6C504B01021400140006080800CC70623BE75B7789680500003C10000034000000000000000000000000006E0800006662782F41393633353835312D344632462D344230382D423046372D3739314545
310
314133324237412F6F626A656374732E786D6C504B01021400140006080000CC70623B0000000000000000000000003500000000000000000000000000280E00006662782F41393633353835312D344632462D344230382D423046372D3739314545314133324237412F76657274696365732E62696E504B01021400140006
310
080800CC70623BF270F133060000000400000036000000000000000000000000007B0E00006662782F41393633353835312D344632462D344230382D423046372D3739314545314133324237412F747269616E676C65732E62696E504B01021400140006080000CC70623B0000000000000000000000003700000000000000
310
000000000000D50E00006662782F41393633353835312D344632462D344230382D423046372D3739314545314133324237412F617474726962757465732E62696E504B01021400140006080800CC70623B08DA0BD1900000004101000036000000000000000000000000002A0F00006662782F41393633353835312D344632
310
462D344230382D423046372D3739314545314133324237412F6469726563746F72792E786D6C504B01021400140006080800CC70623BEDD1DC58FD000000A00100003B000000000000000000000000000E1000006662782F41393633353835312D344632462D344230382D423046372D3739314545314133324237412F7265
310
736F75726365732F636F72652E786D6C504B0506000000000E000E0080040000641100000000
  0
XRECORD
  5
38
102
{ACAD_REACTORS
330
37
102
}
330
37
100
AcDbXrecord
280
     1
102
MATERIAL
148
0.0
149
0.0
149
0.0
 93
        0
 94
      127
282
     0
 72
     1
 77
     1
171
     1
175
     1
179
     1
273
     0
  0
XRECORD
  5
39
102
{ACAD_REACTORS
330
37
102
}
330
37
100
AcDbXrecord
280
     1
 70
     1
 90
429727718
  1
30362254-06B7-45E0-A893-8CFA70E3D6BC
310
504B03040A0000080000CC70623B3DEE336E79000000790000001B0000006175746F6465736B2D64657369676E2D7061636B6167652E786D6C3C3F786D6C2076657273696F6E3D22312E302220656E636F64696E673D227574662D3822203F3E3C666F726D6174733E3C666F726D61743E687474703A2F2F736368656D612E
310
6175746F6465736B2E636F6D2F64657369676E2D7061636B6167652F323030393C2F666F726D61743E3C2F666F726D6174733E504B0304140006080800CC70623BD486FD9CA0000000F4000000130000005B436F6E74656E745F54797065735D2E786D6C7D8EC10E82300C865F65E91D8A1E8C310C0EEA1BF002731658846E
310
D98AC1B77784ABF1D8FE5FBFBF75BBCE937A534CCEB38643598122B6FEE978D0B0485F9C41B54DDD7D022595594E1A469170414C76A4D9A4D207E29CF43ECE46F218070CC6BECC4078ACAA135ACF422C856C0E68EA1BF5669944DDD7BCDE7B1F8E415D77AECB980613C2E4AC91FC167A2B244592486606FC29C8FD7F045B9A
310
EF7053A7E60B504B0304140006080800CC70623B1EC5D7A3EB0000007C01000008000000636F72652E786D6C8D90416EC3201045AF82665B6103C6756C6122AB4D4ED00B204C5C94182C03558F5F9C3852BBEB6A467FFE9B197D71FC9E6FE8CBACC17AD7032D0820E3B41FAD9B7A48F1820F808E52ACDEC75F36404ECDA687
310
4D0629A6D5A76597B477D1B89855E747B38B2A041301E95B6E7A08FAD3CCAA50296647B8168BD2573599823EBB0CA76447F43862C7BCCF5EAC59410E4DDD9C7973C2755553CCCFA4C603E3040F1565ED3B1FDE4E432BCA0D9622DAF9795FAF464533826484B498524CD807E51D79ED187F21878E10516EF63F505AC67F42C9
310
BA58B1FDDD071640D2FCC87D2045B96591CB3DA85CB7DCE40F504B0304140006080800CC70623B55019EA25F0000007C00000007000000636E782E786D6C4DCB3B0E80201045D1AD90E915ED2CF8AC45050C11660C8261F98AB1B07AC9C97D42D718D865D3E909258CFD00CCE24AC6E326A164D74DC0B4128928FF32603847
310
2BA13128B1252AC747C6BAB984FC68F0B87FE8960A5C09FE86CFB69FBA01504B0304140006080800CC70623B8C9102E971010000D40300000C0000006662782F636F72652E786D6CC5535B6E833010BC8AE5DF0A6C08340F1947A84D4ED00B38C6A128602363A31CBFCB234A53A551FA553EC09AD9F5CE8C31DB9E9B1AF5CA
310
7695D1198E428A91D2D214952E33ECDD315861B4E5CC1AE3BE9561A445A3323CC098B3D21ADFCE9034DA29ED00D5A6503328BA4E398C640D8B0C77F253352214DE4145770A5B214FA2546114020D759C75CE8200340D19DE981F0F6746269C33EFAB6266AB02A655C74A59CCF365BADC27CB5D902ED22848F6340DF238A141
310
BE88E2F57B92BFEDF23523433367AE6A2EEAA455C2A902F398D2751045018D3FA264435F3771F242571B4A1919CA6F9A7C5B3CD9E42BED16F12C776AEB308F40C848FC700B1139D4891EF410CEC810227CC6846F8386402064270EF5C5C709A05E49676C024C61FC95EA45ED154CA5211D1FF4FB8291A913A68E9B83EBBB33
310
E2A7673CDE118E5AE8124C0807CB8377834E366998436B950D7A7746DAD846D4CFD978E0F04FD455FC5D49D2D4C6FE9722321F10997F0F32DC47FE05504B0304140006080800CC70623BFFEA85907E0000009D0000000B0000006662782F636E782E786D6C4DCCD10A83201886E15B91FFDC95D95A811AB6F23E625948A6C3
310
E9D8E5AF46073BFAE0E1E365ED67B3E8ADC3CB78C7815C7240DA3DFC64DCC221C519D7805AC182F7F1EF06C88D9BE6703008B6049F9E274D7A1E938DBB5AE3D6131B2589BA0D3D965551E0B2EA732C9B9A624AAEB41E3A557677029960D9AFB4EF11165F504B0304140006080800CC70623B4FEEA4082C0100001202000031
310
0000006662782F39464131463745442D413632322D343644302D413938332D3331353338454246344243312F636F72652E786D6C8D515B6EC32010BC0AE2AB55850DD871ED0813254D72825EC00192A2C460F1A872FC42ED48ED5F7E00CDCECCCEB26C731F6FE05B39AFADE921293004CA082BB5B9F43086336A21D870E6AC
310
0D7F68109861543DCC30E4ECE26C9C164858139409093556AA051CBC570102714B8F1E7AF1A5C6A11862480C7F2DA6415C878B2A4891CA89C7990F2E050073937C42DE1DB7E4F87ED8A36D4329AA9B3D46DBAEAD504556557BD81DEBDD0761E52CE42C462D17B996298E3E6BE59E35C962CE821E1FF18553435012728A7187
310
0841987E927A8D9B35ADDF70BBC6989599FE4F1427F9A4286A132ABAC49D651EF234CD5CE04CDA78BA3DC2A8FB645D00B9DF8B57E215725C60BCA2A463E54C4CE327C7A65E1C7DB02E7DEFCBF594B864C5CA6CDBD49C957943E9FA5D5FBAF336F90F504B0304140006080800CC70623BAD7543B64E01000033030000300000
310
006662782F39464131463745442D413632322D343644302D413938332D3331353338454246344243312F636E782E786D6CD593CD6EC32010845F0571AD6CE3D48AD20813A9873E410FBD12D82434182C7EAAE6EDBB2424CD25871E7B41D6EC30B3FA84F9E67BB2E40B4234DE8DB46F1925E094D7C6ED479AD3AE5951B2113C
310
789FEE6C943839C1488B4C05DF079FE72A69D8C96C13AAD6B8631503449F83828872B949AC57D26200B826A308D316B4064D6E46FCDA41C05550DC9E483A00797BFD207EFB092A45DE9514C1BBD22178396BD39D891265658C238DEA00936C654E5E433CB65A26D9F6EDB5EBC14EBF49A45CB856E66048291F6939A9A81BB5
310
C8917738143CA680F4AA299D66A042CEB3354A2684DC9D8D178FE0D9B8B41CAAD720F880EE7EF93C0C18769E099ECC04D5A102C8049A8A05632F4DDF376CF1DE0F6BB65C2F8627B65A33C6BB62177CEBBDAD973006829F89F22E814B54F4BC2BE347F8AA8F681390B50FA73F804400B5F542E796F19FF974E7F78DB802FE05
310
E207504B0304140006080800CC70623B16AB87BA640500003C100000340000006662782F39464131463745442D413632322D343644302D413938332D3331353338454246344243312F6F626A656374732E786D6CAD575B6FA33818FD2B887DE6924B3BED8A326A92B68A663B534DD4D13E548A0C38942D60649B369D5FBFC7
310
600890A493BDE42160637FD7F31D7FF63E6FB3D478A55C242CBF3247B66B1A340F5994E4F19559CA8D75611A9F7D8F33263BCB4C232719BD32D5B4E97B316765A1A722BA21652A07B3B7B33F0D11D29C9A46981221AE4C113ED38CD8A4942CA2E2C58E882476BCD9DA23BB5ED8171B73523C0F841684D35CC252CCE79062D4
310
468DFA43D7747CCF51DF7D4FFDEB5593E3AB9CCA9FBEFE241792E4E19EB28198C968BAB8199F5D5A67D3E9C49A9E8F47D6EC76B6B0469F26EEFC7C3EBFBCBEB98462213924694B38DD98FE1D62C393D073EA4FADC5DAF04326852CCF6958F90F0F2B9BB5C48816348F90C7840A68EB78EDF68723159BCEE7891A6B95DDE9D3
310
BCEAEEE8086A6C6F9E5D4B59F0175C10A7A0820BAA5055C7473B5AE3CFDD452D602CD5DF12616444529E90D448938013FE6EFA58AA96F85E4F8C42275708571E98FE6827AF6B2B4AE3D7D83D64E5A64C53054DD3AF90BD06FEA9149565C94FCA0F6B834DC85599E4F2423B24DF0B6AFA979E534DFA9E7A4CC6FA631D486393
310
921829879BF5D781A373557BCB85E97FB90DB62B558F8795179C15944B051F40AB495CF35451D26A4727654E6D8033BD98EF82F21D91FF8AF2DD9982BCF1643BDD4EB516C9492E368C67C88DED563FC36D5EACF66DFF057C3658BDBFA69DF9578B3DA735B64F18C7F20770A9D45CFCF7FCF563D6456A277DBEF78A02637CA2
310
43B90A490AEAB94F72244481D24819A6C0E59B606BFA4B3025981DBB48EAB701D97BF19C577CC77F2D1B6C55A9EF3C732474C0B727303F625995056C3B02963D9EAC146BE78EC5FCEC7FA999EBC5EACBAAE41B12D27B4D2C0BBA49F244E2ECDC81B76B502F113D8F5EE8FB1BE3111CDD4FC2AA9B844CAB1288B68AB90A7CDC
310
1C166AB0D3DC5310625FCC14E779BFD0709F8890A629C9292B1B2DED31A4B0DA928CEE135085754027E3018A397D4D5427D15BD1330B677DC8934285AC3DF45A9EB68FF8F2B8FC0A509AFEECFD0FF2DE25CC6047F7214B195F07EFEB9A094D800F7BFAE8FED187B78EA8A3A400F115961BCAD1215E47C966530AF0EE8128FE
310
58CEBB996A8964FFA529A046635D9353B0336A8F700DDF46271A024E70B0B37C9DE01847591E54DED53D54202AB947E4076556AC49C6CA5C9E1226B7F1A7B1BE15DEED62C41B91E1B3E9AFAAA735036547343A925075041DF0A9979E893B391F8FCFA6967B3EFB644DCF6E5CEBFAE272625DCC6FAF3FB93793C5F90CE1EF57
310
407342756B10D1C489E8953CD1617E5CEECAD6F4EF8914CE5D5D504E5C3F1F9736DA62CFC11E00BCDDB8CC8A9466349744C1F75EBDA4DF09BA8A9E8C7A7E9991989E20E5DBDD6A6003664ED8F7A04A8DBE0DF6EAD9B9AA858342E47399053949D2C146EDB85DE4B176BB0965FBAC19BD19AA918E27FA50C1D22402E144464C
310
59462568E704B6E71915404CB72B8FF4EDE184DDAF753F284990D2C6926782963815403548A70C657FDEF80D2D9CEAA2AE4C1C76F60BFE74219A06527D6582DF6412526107381E55E353090704D085B52408D0933C4ED159D79BDA71BB4BC506F4831350EB6F979CD22D69BF7AC49B91A2C0A9DDA3D5CA36AD20FC478E37E6
310
1844E2352865EBCB6EA275A652E3836BE04EFB400BF1A2556F515F1FBB35B2AB35BD889C744FFA1004B5544B121E57F70215746DD2F5E2C1412B602CBF19455AC6C8E5E9922C4E01E65215385004546899059180EAFCF7A707CE7017CD8CDB0410789AB32C63B91E5CEBBBACB17AC6CD347A022D5075FD106377347AAABA7E
310
7D11590744509B44E205134DC1290F06580320F78E537D3D73540E06CB970B431F185308AD40BBD794D6D77003C5A36E8EAA54BA64597CD8F83BD552A080A365F7FF06504B0304140006080000CC70623B000000000000000000000000350000006662782F39464131463745442D413632322D343644302D413938332D3331
310
353338454246344243312F76657274696365732E62696E504B0304140006080800CC70623BF270F1330600000004000000360000006662782F39464131463745442D413632322D343644302D413938332D3331353338454246344243312F747269616E676C65732E62696E636660600000504B0304140006080000CC70623B
310
000000000000000000000000370000006662782F39464131463745442D413632322D343644302D413938332D3331353338454246344243312F617474726962757465732E62696E504B0304140006080800CC70623B08DA0BD19000000041010000360000006662782F39464131463745442D413632322D343644302D413938
310
332D3331353338454246344243312F6469726563746F72792E786D6C858F410AC3201045AF22B36F53E9A60B35CBEEBAE80D244E44489C6234F4F835464A48035D0DF398FF9F8AF63D0E6CC63039F212F8F9020C7D47C6792B21C5FE7403D62A1188E2E60C98D7234A5830286103A55745067B9D86B8A3CF9C7F90C11DE607
310
FB144396D7B6A82D282E9A152AD114D5EF2CB866EEE831B8EEA07A7BB5A8D7D61A2BAAEB7FD5F70921FF497D00504B0304140006080800CC70623B0D6EF93BFE000000A00100003B0000006662782F39464131463745442D413632322D343644302D413938332D3331353338454246344243312F7265736F75726365732F63
310
6F72652E786D6C8D50596E833010BD0A9ADFCA60B334011947A8694ED00B586642AC041B79A97AFC9A40A5F6AF3F33A3B7689E1E3F7DCD8FEC139DD7D6F4C0720A191A65476DA61E62B892236427C19DB5E1970C322367EC618541F0C9D9B8EC90B226A009093576C41D94DE63804C3DD2D18357379C652E63480A7FCF17A9
310
EE72C29CE5894E3AC17D702940B63D59270887DE46A7D0F36263058F518FBB468FE9A7BE6A7420864373B8D4873369AA8691FA421B3294352543C5CAF65C0F6FEF43CB8BD52C78D0F34F46E550061C419494B6843142CB0F5677F4B52BEB177AEC28E5C52AFF638ACBF84F53D42654E51E77B379102C05791282176B5F693D
310
CB4C7BED567C03504B010214000A0000080000CC70623B3DEE336E79000000790000001B00000000000000000000000000000000006175746F6465736B2D64657369676E2D7061636B6167652E786D6C504B01021400140006080800CC70623BD486FD9CA0000000F40000001300000000000000000000000000B20000005B
310
436F6E74656E745F54797065735D2E786D6C504B01021400140006080800CC70623B1EC5D7A3EB0000007C010000080000000000000000000000000083010000636F72652E786D6C504B01021400140006080800CC70623B55019EA25F0000007C000000070000000000000000000000000094020000636E782E786D6C504B
310
01021400140006080800CC70623B8C9102E971010000D40300000C00000000000000000000000000180300006662782F636F72652E786D6C504B01021400140006080800CC70623BFFEA85907E0000009D0000000B00000000000000000000000000B30400006662782F636E782E786D6C504B01021400140006080800CC70
310
623B4FEEA4082C0100001202000031000000000000000000000000005A0500006662782F39464131463745442D413632322D343644302D413938332D3331353338454246344243312F636F72652E786D6C504B01021400140006080800CC70623BAD7543B64E010000330300003000000000000000000000000000D5060000
310
6662782F39464131463745442D413632322D343644302D413938332D3331353338454246344243312F636E782E786D6C504B01021400140006080800CC70623B16AB87BA640500003C1000003400000000000000000000000000710800006662782F39464131463745442D413632322D343644302D413938332D3331353338
310
454246344243312F6F626A656374732E786D6C504B01021400140006080000CC70623B0000000000000000000000003500000000000000000000000000270E00006662782F39464131463745442D413632322D343644302D413938332D3331353338454246344243312F76657274696365732E62696E504B01021400140006
310
080800CC70623BF270F133060000000400000036000000000000000000000000007A0E00006662782F39464131463745442D413632322D343644302D413938332D3331353338454246344243312F747269616E676C65732E62696E504B01021400140006080000CC70623B0000000000000000000000003700000000000000
310
000000000000D40E00006662782F39464131463745442D413632322D343644302D413938332D3331353338454246344243312F617474726962757465732E62696E504B01021400140006080800CC70623B08DA0BD190000000410100003600000000000000000000000000290F00006662782F39464131463745442D413632
310
322D343644302D413938332D3331353338454246344243312F6469726563746F72792E786D6C504B01021400140006080800CC70623B0D6EF93BFE000000A00100003B000000000000000000000000000D1000006662782F39464131463745442D413632322D343644302D413938332D3331353338454246344243312F7265
310
736F75726365732F636F72652E786D6C504B0506000000000E000E0080040000641100000000
  0
XRECORD
  5
E
102
{ACAD_REACTORS
330
D
102
}
330
D
100
AcDbXrecord
280
     1
102
MATERIAL
148
0.0
149
0.0
149
0.0
 93
        0
 94
      127
282
     0
 72
     1
 77
     1
171
     1
175
     1
179
     1
273
     0
  0
XRECORD
  5
F
102
{ACAD_REACTORS
330
D
102
}
330
D
100
AcDbXrecord
280
     1
270
     1
271
     1
  0
XRECORD
  5
10
102
{ACAD_REACTORS
330
D
102
}
330
D
100
AcDbXrecord
280
     1
270
     1
271
     1
  0
XRECORD
  5
11
102
{ACAD_REACTORS
330
D
102
}
330
D
100
AcDbXrecord
280
     1
 70
     0
 90
1673772943
  1
ECE7A1D2-D628-4531-984C-D00F80459256
310
504B03040A0000080000CC70623B3DEE336E79000000790000001B0000006175746F6465736B2D64657369676E2D7061636B6167652E786D6C3C3F786D6C2076657273696F6E3D22312E302220656E636F64696E673D227574662D3822203F3E3C666F726D6174733E3C666F726D61743E687474703A2F2F736368656D612E
310
6175746F6465736B2E636F6D2F64657369676E2D7061636B6167652F323030393C2F666F726D61743E3C2F666F726D6174733E504B0304140006080800CC70623BD486FD9CA0000000F4000000130000005B436F6E74656E745F54797065735D2E786D6C7D8EC10E82300C865F65E91D8A1E8C310C0EEA1BF002731658846E
310
D98AC1B77784ABF1D8FE5FBFBF75BBCE937A534CCEB38643598122B6FEE978D0B0485F9C41B54DDD7D022595594E1A469170414C76A4D9A4D207E29CF43ECE46F218070CC6BECC4078ACAA135ACF422C856C0E68EA1BF5669944DDD7BCDE7B1F8E415D77AECB980613C2E4AC91FC167A2B244592486606FC29C8FD7F045B9A
310
EF7053A7E60B504B0304140006080800CC70623BD9DDAED0EC0000007C01000008000000636F72652E786D6C8D90416EC3201045AF82665B61836D9CD8C2444DD39CA01740405C94182C03558F5F9C3852BBEB6A467FFE9B197D7EF89E6EE8CB2CC17A37002D0820E394D7D68D03A478C17B4007C117EFE32F1B20272733C0
310
2A83E0E3E2D3BC49CABB685CCCAAF3DA6CA20CC14440EA969B0182FA34932C648AD911AEC52CD5558EA6A0CF2EC329598D1E47ACCEFBECC59A050463A7EA5833865FEBDD0E37353BE3EE8DBDE3F6786A48D375FBF6CC78B9C282473B3DEFABC5C86834888A900E538A49F5419B9EB47DD5BC907D4F082F57FB1F28CDFA9F50
310
B22ED6D5F6EE030B20687EE43E10BC5CB3C8E51E54AE6B6EE207504B0304140006080800CC70623B55019EA25F0000007C00000007000000636E782E786D6C4DCB3B0E80201045D1AD90E915ED2CF8AC45050C11660C8261F98AB1B07AC9C97D42D718D865D3E909258CFD00CCE24AC6E326A164D74DC0B4128928FF326038
310
472BA13128B1252AC747C6BAB984FC68F0B87FE8960A5C09FE86CFB69FBA01504B0304140006080800CC70623BA24EB22D72010000D40300000C0000006662782F636F72652E786D6CC5535B6E833010BC8AE5DF0A6C5E49888CA3A6694ED00B38E05014B091B1518EDFE511A5A9D228FD2A1F60CDEC7A67C6986DCE4D8D7A
310
69BA4AAB0C073EC548AA5C17952A33ECECD15B61B4E1CC686DBF9561A44423333CC098B3D268D7CE50AE9595CA02AA74216750749DB418E5352C32DCE59FB211BE70162ABA93DF8AFC244AE9073ED050C759670D0840D390E18DF9F1706664C23973AE2A66B62A605A75ACA4C13C4976E1364A12EF355A2EBD384AF65EFA96
310
BC7B8BED2EA6719AAE16FB8491A199335B351775B991C2CA02F390D2D40B028F861F41BCA68B7518BFD0D59A524686F29B26D7164F36B94AD9289CE54E6D1DE6010819891F6E21228B3AD1831EC219194284CF98F06DD01008846CC5A1BEF83801D4CBDC6A1303536877A57A513B0953A94FC707FDBE6064EA84A9E3E6E0FA
310
EE8CF0E9198F7784A316AA0413C2C2F2E0ECA0934D1AE6D05A69BCDE9E91D2A611F573361E38FC1375157F5752AE6B6DFE4B11990F88CCBF0719EE23FF02504B0304140006080800CC70623B408A7D3B7C0000009D0000000B0000006662782F636E782E786D6C4DCCD10A83201886E15B91FFDC552A92A0064DBC8F581632
310
D3703A76F9ABD1C18E3E78F878E5F0D9027ABBFCF2292AE86E2D20171F69F6715550CB827B40839639A5F2770314A7CD293819B45C73AAFB45B35BA61ACAA1C1C7E7855C58C15BC331339661262CC762340413D68D77DA5B42298546CBE6573AF60CEB2F504B0304140006080800CC70623B449FB9BD290100001202000031
310
0000006662782F36394639363044362D344446342D343946362D394244322D3234314243333846323333332F636F72652E786D6C8D515B6EC32010BC0AE22B55850D98B871848994463E412FE002495162B07854397EA176A4F62F3F2C9A9D991D587EB84F37F0AD7D30CEF6905418026DA553C65E7A98E219ED203808EE9D
310
8B7F6810D871D23D2C3014FCE25D9A57483A1BB58D19B54EE9151C43D0110279CB971E06F9A5A7B11A53CC8C70ADE6515EC78BAE4895DB992778883E0700CB907242D17643D7E2538BD869608875438BBAE38922CAC8F1BDD90DB4691A5E2F42C153326A951B95E398B3D1FE599322163C9AE9115F7A3D46ADA0A018778810
310
84E907617BDCEE297BC5BB3DC6BC2EF47FA234AB2745C9D8D8D035EE220B50105E2F0DC1954B9FB747187D9F9D8FA0CCDB042D5FA0C015C65B42DF78BD10F3F3B363CB56C7109DCFDFBBB97E662ED92EB62D13BC2E1BCAE5777DB9966D8A1F504B0304140006080800CC70623BAD7543B64E01000033030000300000006662
310
782F36394639363044362D344446342D343946362D394244322D3234314243333846323333332F636E782E786D6CD593CD6EC32010845F0571AD6CE3D48AD20813A9873E410FBD12D82434182C7EAAE6EDBB2424CD25871E7B41D6EC30B3FA84F9E67BB2E40B4234DE8DB46F1925E094D7C6ED479AD3AE5951B2113C789FEE
310
6C943839C1488B4C05DF079FE72A69D8C96C13AAD6B8631503449F83828872B949AC57D26200B826A308D316B4064D6E46FCDA41C05550DC9E483A00797BFD207EFB092A45DE9514C1BBD22178396BD39D891265658C238DEA00936C654E5E433CB65A26D9F6EDB5EBC14EBF49A45CB856E66048291F6939A9A81BB5C89177
310
38143CA680F4AA299D66A042CEB3354A2684DC9D8D178FE0D9B8B41CAAD720F880EE7EF93C0C18769E099ECC04D5A102C8049A8A05632F4DDF376CF1DE0F6BB65C2F8627B65A33C6BB62177CEBBDAD973006829F89F22E814B54F4BC2BE347F8AA8F681390B50FA73F804400B5F542E796F19FF974E7F78DB802FE05E20750
310
4B0304140006080800CC70623B8D05915C650500003B100000340000006662782F36394639363044362D344446342D343946362D394244322D3234314243333846323333332F6F626A656374732E786D6CAD575B6FA33814FE2B887D06429276DA1565D4266D158D3A339A6846FB502932E050B66023DB74D2FDF5FB190C01
310
9276B2973C046C8ECFF53B17071F77456EBD502133CEAE6CDF9DD81665314F32965ED995DA3A17B6F5310C04E7AA47665B8C14F4CAD6DB7618A48257A5D94AE89654B91AEDDEDDFC61C998326A5B714EA4BCB265FC440BE2924AF184CA6737218AB8E976E7FA6E4338649B0A523E8D98964450A6A029F619B8588D52FE7039
310
B1BD30F0F4F730D0FF866AF6369557DB33949F31A9088B0F848DD8CCFCF9F2767A76E99CCDE733677E3EF59D9BBB9BA5E37F984D16E78BC5E5F5ED25044B25C0C96822E8D60EEFE11B91C581D77CEA34368A1F5329E68CD1B8B61F16D63A1B8E092D294B10C78C4A48EB593D192E7DED9BDEE7995E1B91FDEDD3ACEA9FE831
310
6A756F9F7D4D79F4274C90A7A04248AA51D5F8C718DAE06FB2F75AC4796EBE65D22A88A22223B995679120E2D50E41AA49C260C046A35368846B0BECD0DFF3EBEB8AD4F835768F69B9ADF25C43D30E6B646F807FAA64AD59F61715C7A54127C4AACA98BA3006A9D792DAE165E0D59B61A01FB3A9F9D838D2DAE62445C86166
310
F37564E842E7DE6A69879FEEA2DD5AE7E371E1A5E025154AC307D06A03D73EB5978C58FFA4C8E9033066E0F3BD53BEC1F39F91BE7B55103791EDE6BBB991A2046172CB4581D8B893FA674DDA17A77B3B7C413D1B511FD2743BFF8A38F03A658705E3ADF8015C3A3417FF3D7E439FF591DA0B5F18BC20C1B8981957AE6392A3
310
F43C640C01D1A0B4728E2DD4F26DB4B3C3152A252A3B4E913CEC1C72F012782FF88EFF8637AA552DBEF76408E8A8DE9E50F9E1CB3A2DA0DB1B6039A893B56063DC5B3E3FFB5F72E67AB9FEB4AEC496C4F4C1149625DD662C53E89D7BF0F6151A046260D1337DFDC94502430F83B0EE07A130A224BCAD7DAE1D9FB6CD422FF6
310
920702629C4BB9AE79C12F243C6432A6794E18E5552BA56B431AAB5D91317302B2B071E86C3A42B1A02F999E24061403B5D0EB639195DA655DD3EBEAB4FB862DDF579F014AD0E73C22F99E28DA57FB98E75C6CA2D74D53086D600F4786E0FE3144B771A8A7B900F03594DB8A633CBC49B2EDB69228BB479CF863B5E807AAAB
310
23872F6DFEB4129B949CA33823F58830E86D65621E10047D9DB34D862E8EAC3C2ABC2F7B2C40D67CDFE01F5545B92105AF983AC54D93D69E56FB8E797F88913F898A9FEC705D3F9D1B54EC8426FB500D40A03BD0119B06E1B95DDC7EB8F6975367793EBD70E66733DFB9BC982F9CE564727731999F5D4ECFCE3B8D6A4DC2A0
310
6D50FD148437D110834A64C6CDDF57FBACB5C307A2A477DFE4939736CFEF2B175371E0E10CF0DD1D5C15654E0BCA14D1E87DD02FF93782A162C0A3D95F1524A52770F972BF1EE9809D13CE7DD599467F8ECE9ADD85CE85A34CD45355448C64F9E8A031DC2D596ACC6E5DD93D9B82DE2EF5CAF81363A8E47996A0DE24564A79
310
4115AACE09C55E14540231FDA13C319787134EBF34E3A022514E5B4D9E0826E25C02D5805B15ABE1BEF51B26383D445DD9E875EE33FE4C22DA16427D65A3BCA92CA6D28DD01DF5DC53330704308475351050232CCD31583787BA75774AFB06E5070DD0C8EF484E19968C5D83BA5B90B244D31E54D55A372320FE4786B7EA58
310
44E135AA5467CB7EA333A61683CC6A8C3257034C10CF46F40EF9F5BE59BE5BD30C3C72D235E95D10345C1D45445A5F0BB47E46A5EBE5570F9380B5FA629579952296A773720405982B9DE04011506178964401AA8BDF1FBF0A8EAB6861DD6580C0E38217056766716DAEB2D6FA0917D3E4116581EADB879C4E7CFFB11EFACD
310
3D641311495D92C8676CB409A72D18610D803CE8A626049E8EC1887CB5B44CC39883690DDA8399B4B9855B481E7D71D4A9D22F96E5BB73BF5793020C02137BF837504B0304140006080000CC70623B000000000000000000000000350000006662782F36394639363044362D344446342D343946362D394244322D32343142
310
43333846323333332F76657274696365732E62696E504B0304140006080800CC70623BF270F1330600000004000000360000006662782F36394639363044362D344446342D343946362D394244322D3234314243333846323333332F747269616E676C65732E62696E636660600000504B0304140006080000CC70623B0000
310
00000000000000000000370000006662782F36394639363044362D344446342D343946362D394244322D3234314243333846323333332F617474726962757465732E62696E504B0304140006080800CC70623B08DA0BD19000000041010000360000006662782F36394639363044362D344446342D343946362D394244322D
310
3234314243333846323333332F6469726563746F72792E786D6C858F410AC3201045AF22B36F53E9A60B35CBEEBAE80D244E44489C6234F4F835464A48035D0DF398FF9F8AF63D0E6CC63039F212F8F9020C7D47C6792B21C5FE7403D62A1188E2E60C98D7234A5830286103A55745067B9D86B8A3CF9C7F90C11DE607FB14
310
4396D7B6A82D282E9A152AD114D5EF2CB866EEE831B8EEA07A7BB5A8D7D61A2BAAEB7FD5F70921FF497D00504B0304140006080800CC70623BCA768048FE000000A00100003B0000006662782F36394639363044362D344446342D343946362D394244322D3234314243333846323333332F7265736F75726365732F636F72
310
652E786D6C8D50596E833010BD0A9ADFCA60D600328E9AA639412F609909B1126CE4A5EAF16B0295DABFFECC8CDEA2797AECF8353F924FB44E193D409E5248504B332A3D0D10FC95B4901C39B3C6F85F3248B49871801506CE266BC2B243D2688FDA47549B11775038871E12F988C7004EDE7016A9083E2ADC3D5D84BC8B09
310
D33C8D74D471E6BC8D0192EDC93A815B742658898E651BCB59086ADC356A8C3FD555A1055ED7E7E254D615792D0F075295F585746FF53B694EE78A565DD736979A65AB9933AFE69F8CD2A2F038022F28ED489E135A7CE4554F9BBEA85E68DB53CAB255FEC71496F19FA6A0B42F8B3DEE6673C0F318E4497096AD7DC5F52C33
310
EEB55BFE0D504B010214000A0000080000CC70623B3DEE336E79000000790000001B00000000000000000000000000000000006175746F6465736B2D64657369676E2D7061636B6167652E786D6C504B01021400140006080800CC70623BD486FD9CA0000000F40000001300000000000000000000000000B20000005B436F
310
6E74656E745F54797065735D2E786D6C504B01021400140006080800CC70623BD9DDAED0EC0000007C010000080000000000000000000000000083010000636F72652E786D6C504B01021400140006080800CC70623B55019EA25F0000007C000000070000000000000000000000000095020000636E782E786D6C504B0102
310
1400140006080800CC70623BA24EB22D72010000D40300000C00000000000000000000000000190300006662782F636F72652E786D6C504B01021400140006080800CC70623B408A7D3B7C0000009D0000000B00000000000000000000000000B50400006662782F636E782E786D6C504B01021400140006080800CC70623B
310
449FB9BD290100001202000031000000000000000000000000005A0500006662782F36394639363044362D344446342D343946362D394244322D3234314243333846323333332F636F72652E786D6C504B01021400140006080800CC70623BAD7543B64E010000330300003000000000000000000000000000D20600006662
310
782F36394639363044362D344446342D343946362D394244322D3234314243333846323333332F636E782E786D6C504B01021400140006080800CC70623B8D05915C650500003B10000034000000000000000000000000006E0800006662782F36394639363044362D344446342D343946362D394244322D32343142433338
310
46323333332F6F626A656374732E786D6C504B01021400140006080000CC70623B0000000000000000000000003500000000000000000000000000250E00006662782F36394639363044362D344446342D343946362D394244322D3234314243333846323333332F76657274696365732E62696E504B010214001400060808
310
00CC70623BF270F13306000000040000003600000000000000000000000000780E00006662782F36394639363044362D344446342D343946362D394244322D3234314243333846323333332F747269616E676C65732E62696E504B01021400140006080000CC70623B00000000000000000000000037000000000000000000
310
00000000D20E00006662782F36394639363044362D344446342D343946362D394244322D3234314243333846323333332F617474726962757465732E62696E504B01021400140006080800CC70623B08DA0BD190000000410100003600000000000000000000000000270F00006662782F36394639363044362D344446342D
310
343946362D394244322D3234314243333846323333332F6469726563746F72792E786D6C504B01021400140006080800CC70623BCA768048FE000000A00100003B000000000000000000000000000B1000006662782F36394639363044362D344446342D343946362D394244322D3234314243333846323333332F7265736F
310
75726365732F636F72652E786D6C504B0506000000000E000E0080040000621100000000
  0
XRECORD
  5
12
102
{ACAD_REACTORS
330
D
102
}
330
D
100
AcDbXrecord
280
     1
270
     1
271
     1
  0
XRECORD
  5
13
102
{ACAD_REACTORS
330
D
102
}
330
D
100
AcDbXrecord
280
     1
270
     1
271
     1
  0
CELLSTYLEMAP
  5
3C9
102
{ACAD_REACTORS
330
44
102
}
330
44
100
AcDbCellStyleMap
 90
        3
300
CELLSTYLE
  1
TABLEFORMAT_BEGIN
 90
        5
170
     1
 91
        0
 92
    32768
 62
   257
 93
        1
300
CONTENTFORMAT
  1
CONTENTFORMAT_BEGIN
 90
        0
 91
        0
 92
      512
 93
        0
300

 40
0.0
140
1.0
 94
        5
 62
     0
340
23
144
6.0
309
CONTENTFORMAT_END
171
     1
301
MARGIN
  1
CELLMARGIN_BEGIN
 40
1.5
 40
1.5
 40
1.5
 40
1.5
 40
0.18
 40
0.18
309
CELLMARGIN_END
 94
        6
 95
        1
302
GRIDFORMAT
  1
GRIDFORMAT_BEGIN
 90
        0
 91
        1
 62
     0
 92
       -2
340
26
 93
        0
 40
1.125
309
GRIDFORMAT_END
 95
        2
302
GRIDFORMAT
  1
GRIDFORMAT_BEGIN
 90
        0
 91
        1
 62
     0
 92
       -2
340
26
 93
        0
 40
1.125
309
GRIDFORMAT_END
 95
        4
302
GRIDFORMAT
  1
GRIDFORMAT_BEGIN
 90
        0
 91
        1
 62
     0
 92
       -2
340
26
 93
        0
 40
1.125
309
GRIDFORMAT_END
 95
        8
302
GRIDFORMAT
  1
GRIDFORMAT_BEGIN
 90
        0
 91
        1
 62
     0
 92
       -2
340
26
 93
        0
 40
1.125
309
GRIDFORMAT_END
 95
       16
302
GRIDFORMAT
  1
GRIDFORMAT_BEGIN
 90
        0
 91
        1
 62
     0
 92
       -2
340
26
 93
        0
 40
1.125
309
GRIDFORMAT_END
 95
       32
302
GRIDFORMAT
  1
GRIDFORMAT_BEGIN
 90
        0
 91
        1
 62
     0
 92
       -2
340
26
 93
        0
 40
1.125
309
GRIDFORMAT_END
309
TABLEFORMAT_END
  1
CELLSTYLE_BEGIN
 90
        1
 91
        1
300
_TITLE
309
CELLSTYLE_END
300
CELLSTYLE
  1
TABLEFORMAT_BEGIN
 90
        5
170
     1
 91
        0
 92
        0
 62
   257
 93
        1
300
CONTENTFORMAT
  1
CONTENTFORMAT_BEGIN
 90
        0
 91
        0
 92
      512
 93
        0
300

 40
0.0
140
1.0
 94
        5
 62
     0
340
23
144
4.5
309
CONTENTFORMAT_END
171
     1
301
MARGIN
  1
CELLMARGIN_BEGIN
 40
1.5
 40
1.5
 40
1.5
 40
1.5
 40
0.18
 40
0.18
309
CELLMARGIN_END
 94
        6
 95
        1
302
GRIDFORMAT
  1
GRIDFORMAT_BEGIN
 90
        0
 91
        1
 62
     0
 92
       -2
340
26
 93
        0
 40
1.125
309
GRIDFORMAT_END
 95
        2
302
GRIDFORMAT
  1
GRIDFORMAT_BEGIN
 90
        0
 91
        1
 62
     0
 92
       -2
340
26
 93
        0
 40
1.125
309
GRIDFORMAT_END
 95
        4
302
GRIDFORMAT
  1
GRIDFORMAT_BEGIN
 90
        0
 91
        1
 62
     0
 92
       -2
340
26
 93
        0
 40
1.125
309
GRIDFORMAT_END
 95
        8
302
GRIDFORMAT
  1
GRIDFORMAT_BEGIN
 90
        0
 91
        1
 62
     0
 92
       -2
340
26
 93
        0
 40
1.125
309
GRIDFORMAT_END
 95
       16
302
GRIDFORMAT
  1
GRIDFORMAT_BEGIN
 90
        0
 91
        1
 62
     0
 92
       -2
340
26
 93
        0
 40
1.125
309
GRIDFORMAT_END
 95
       32
302
GRIDFORMAT
  1
GRIDFORMAT_BEGIN
 90
        0
 91
        1
 62
     0
 92
       -2
340
26
 93
        0
 40
1.125
309
GRIDFORMAT_END
309
TABLEFORMAT_END
  1
CELLSTYLE_BEGIN
 90
        2
 91
        1
300
_HEADER
309
CELLSTYLE_END
300
CELLSTYLE
  1
TABLEFORMAT_BEGIN
 90
        5
170
     1
 91
        0
 92
        0
 62
   257
 93
        1
300
CONTENTFORMAT
  1
CONTENTFORMAT_BEGIN
 90
        0
 91
        0
 92
      512
 93
        0
300

 40
0.0
140
1.0
 94
        2
 62
     0
340
23
144
4.5
309
CONTENTFORMAT_END
171
     1
301
MARGIN
  1
CELLMARGIN_BEGIN
 40
1.5
 40
1.5
 40
1.5
 40
1.5
 40
0.18
 40
0.18
309
CELLMARGIN_END
 94
        6
 95
        1
302
GRIDFORMAT
  1
GRIDFORMAT_BEGIN
 90
        0
 91
        1
 62
     0
 92
       -2
340
26
 93
        0
 40
1.125
309
GRIDFORMAT_END
 95
        2
302
GRIDFORMAT
  1
GRIDFORMAT_BEGIN
 90
        0
 91
        1
 62
     0
 92
       -2
340
26
 93
        0
 40
1.125
309
GRIDFORMAT_END
 95
        4
302
GRIDFORMAT
  1
GRIDFORMAT_BEGIN
 90
        0
 91
        1
 62
     0
 92
       -2
340
26
 93
        0
 40
1.125
309
GRIDFORMAT_END
 95
        8
302
GRIDFORMAT
  1
GRIDFORMAT_BEGIN
 90
        0
 91
        1
 62
     0
 92
       -2
340
26
 93
        0
 40
1.125
309
GRIDFORMAT_END
 95
       16
302
GRIDFORMAT
  1
GRIDFORMAT_BEGIN
 90
        0
 91
        1
 62
     0
 92
       -2
340
26
 93
        0
 40
1.125
309
GRIDFORMAT_END
 95
       32
302
GRIDFORMAT
  1
GRIDFORMAT_BEGIN
 90
        0
 91
        1
 62
     0
 92
       -2
340
26
 93
        0
 40
1.125
309
GRIDFORMAT_END
309
TABLEFORMAT_END
  1
CELLSTYLE_BEGIN
 90
        3
 91
        2
300
_DATA
309
CELLSTYLE_END
  0
XRECORD
  5
3D5
102
{ACAD_REACTORS
330
44
102
}
330
44
100
AcDbXrecord
280
     1
102
ACAD_ROUNDTRIP_PRE2007_TABLESTYLE
 90
      512
 91
        0
  1

 92
      512
 93
        0
  2

 94
      512
 95
        0
  3

  0
XRECORD
  5
3D4
102
{ACAD_REACTORS
330
3D3
102
}
330
3D3
100
AcDbXrecord
280
     1
102
RTVSPost2010Prop28
280
     1
102
RTVSPost2010PropOp28
 70
     1
102
RTVSPost2010Prop29
280
     1
102
RTVSPost2010PropOp29
 70
     1
102
RTVSPost2010Prop30
280
     0
102
RTVSPost2010PropOp30
 70
     1
102
RTVSPost2010Prop31
280
     0
102
RTVSPost2010PropOp31
 70
     1
102
RTVSPost2010Prop32
280
     0
102
RTVSPost2010PropOp32
 70
     1
102
RTVSPost2010Prop33
280
     0
102
RTVSPost2010PropOp33
 70
     1
102
RTVSPost2010Prop34
280
     0
102
RTVSPost2010PropOp34
 70
     1
102
RTVSPost2010Prop35
280
     0
102
RTVSPost2010PropOp35
 70
     1
102
RTVSPost2010Prop36
280
     0
102
RTVSPost2010PropOp36
 70
     1
102
RTVSPost2010Prop37
 90
       50
102
RTVSPost2010PropOp37
 70
     1
102
RTVSPost2010Prop38
140
0.0
102
RTVSPost2010PropOp38
 70
     1
102
RTVSPost2010Prop39
140
1.0
102
RTVSPost2010PropOp39
 70
     1
102
RTVSPost2010Prop40
 90
        0
102
RTVSPost2010PropOp40
 70
     1
102
RTVSPost2010Prop41ColorIndex
 90
       18
102
RTVSPost2010Prop41ColorRGB
 90
        0
102
RTVSPost2010PropOp41
 70
     1
102
RTVSPost2010Prop42
 90
       50
102
RTVSPost2010PropOp42
 70
     1
102
RTVSPost2010Prop43
 90
        3
102
RTVSPost2010PropOp43
 70
     1
102
RTVSPost2010Prop44ColorIndex
 90
        5
102
RTVSPost2010Prop44ColorRGB
 90
      255
102
RTVSPost2010PropOp44
 70
     1
102
RTVSPost2010Prop45
280
     0
102
RTVSPost2010PropOp45
 70
     1
102
RTVSPost2010Prop46
 90
       50
102
RTVSPost2010PropOp46
 70
     1
102
RTVSPost2010Prop47
 90
       50
102
RTVSPost2010PropOp47
 70
     1
102
RTVSPost2010Prop48
 90
       50
102
RTVSPost2010PropOp48
 70
     1
102
RTVSPost2010Prop49
280
     0
102
RTVSPost2010PropOp49
 70
     1
102
RTVSPost2010Prop50
 90
       50
102
RTVSPost2010PropOp50
 70
     1
102
RTVSPost2010Prop51ColorIndex
 90
      256
102
RTVSPost2010Prop51ColorRGB
 90
-16777216
102
RTVSPost2010PropOp51
 70
     0
102
RTVSPost2010Prop52
140
1.0
102
RTVSPost2010PropOp52
 70
     0
102
RTVSPost2010Prop53
 90
        2
102
RTVSPost2010PropOp53
 70
     1
102
RTVSPost2010Prop54
  1
strokes_ogs.tif
102
RTVSPost2010PropOp54
 70
     1
102
RTVSPost2010Prop55
280
     0
102
RTVSPost2010PropOp55
 70
     1
102
RTVSPost2010Prop56
140
1.0
102
RTVSPost2010PropOp56
 70
     1
102
RTVSPost2010Prop57
140
1.0
102
RTVSPost2010PropOp57
 70
     1
102
RTVSPropertyOp0
 70
     1
102
RTVSPropertyOp1
 70
     1
102
RTVSPropertyOp2
 70
     1
102
RTVSPropertyOp3
 70
     1
102
RTVSPropertyOp4
 70
     1
102
RTVSPropertyOp5
 70
     1
102
RTVSPropertyOp6
 70
     1
102
RTVSPropertyOp7
 70
     1
102
RTVSPropertyOp8
 70
     1
102
RTVSPropertyOp9
 70
     1
102
RTVSPropertyOp10
 70
     1
102
RTVSPropertyOp11
 70
     1
102
RTVSPropertyOp12
 70
     1
102
RTVSPropertyOp13
 70
     1
102
RTVSPropertyOp14
 70
     1
102
RTVSPropertyOp15
 70
     1
102
RTVSPropertyOp16
 70
     1
102
RTVSPropertyOp17
 70
     1
102
RTVSPropertyOp18
 70
     1
102
RTVSPropertyOp19
 70
     1
102
RTVSPropertyOp20
 70
     1
102
RTVSPropertyOp21
 70
     1
102
RTVSPropertyOp22
 70
     1
102
RTVSPropertyOp23
 70
     1
102
RTVSPropertyOp24
 70
     1
102
RTVSPropertyOp25
 70
     1
102
RTVSPropertyOp26
 70
     1
102
RTVSPropertyOp27
 70
     1
102
RTVSPropertyOp28
 70
     1
102
RTVSPropertyOp29
 70
     1
102
RTVSPropertyOp30
 70
     1
102
RTVSPropertyOp31
 70
     1
102
RTVSPropertyOp32
 70
     1
102
RTVSPropertyOp33
 70
     1
102
RTVSPropertyOp34
 70
     1
102
RTVSPropertyOp35
 70
     1
102
RTVSPropertyOp36
 70
     1
102
RTVSPropertyOp37
 70
     1
102
RTVSPropertyOp38
 70
     1
102
RTVSPropertyOp39
 70
     1
102
RTVSPropertyOp40
 70
     1
102
RTVSPropertyOp41
 70
     1
102
RTVSPropertyOp42
 70
     1
102
RTVSPropertyOp43
 70
     1
102
RTVSPropertyOp44
 70
     1
102
RTVSPropertyOp45
 70
     1
102
RTVSPropertyOp46
 70
     1
102
RTVSPropertyOp47
 70
     1
102
RTVSPropertyOp48
 70
     1
102
RTVSPropertyOp49
 70
     1
102
RTVSPropertyOp50
 70
     1
102
RTVSPropertyOp51
 70
     0
102
RTVSPropertyOp52
 70
     0
102
RTVSPropertyOp53
 70
     1
102
RTVSPropertyOp54
 70
     1
102
RTVSPropertyOp55
 70
     1
102
RTVSPropertyOp56
 70
     1
102
RTVSPropertyOp57
 70
     1
102
RTVSPropertyOp58
 70
     1
102
RTVSPropertyOp59
 70
     1
102
RTVSPropertyOp60
 70
     1
102
RTVSPropertyOp61
 70
     1
102
RTVSPropertyOp62
 70
     1
  0
XRECORD
  5
3D7
102
{ACAD_REACTORS
330
3D6
102
}
330
3D6
100
AcDbXrecord
280
     1
102
RTVSPost2010Prop28
280
     0
102
RTVSPost2010PropOp28
 70
     1
102
RTVSPost2010Prop29
280
     1
102
RTVSPost2010PropOp29
 70
     1
102
RTVSPost2010Prop30
280
     1
102
RTVSPost2010PropOp30
 70
     1
102
RTVSPost2010Prop31
280
     0
102
RTVSPost2010PropOp31
 70
     1
102
RTVSPost2010Prop32
280
     0
102
RTVSPost2010PropOp32
 70
     1
102
RTVSPost2010Prop33
280
     0
102
RTVSPost2010PropOp33
 70
     1
102
RTVSPost2010Prop34
280
     0
102
RTVSPost2010PropOp34
 70
     1
102
RTVSPost2010Prop35
280
     0
102
RTVSPost2010PropOp35
 70
     1
102
RTVSPost2010Prop36
280
     0
102
RTVSPost2010PropOp36
 70
     1
102
RTVSPost2010Prop37
 90
       50
102
RTVSPost2010PropOp37
 70
     1
102
RTVSPost2010Prop38
140
0.0
102
RTVSPost2010PropOp38
 70
     1
102
RTVSPost2010Prop39
140
1.0
102
RTVSPost2010PropOp39
 70
     1
102
RTVSPost2010Prop40
 90
        0
102
RTVSPost2010PropOp40
 70
     1
102
RTVSPost2010Prop41ColorIndex
 90
       18
102
RTVSPost2010Prop41ColorRGB
 90
        0
102
RTVSPost2010PropOp41
 70
     1
102
RTVSPost2010Prop42
 90
       50
102
RTVSPost2010PropOp42
 70
     1
102
RTVSPost2010Prop43
 90
        3
102
RTVSPost2010PropOp43
 70
     1
102
RTVSPost2010Prop44ColorIndex
 90
        5
102
RTVSPost2010Prop44ColorRGB
 90
      255
102
RTVSPost2010PropOp44
 70
     1
102
RTVSPost2010Prop45
280
     0
102
RTVSPost2010PropOp45
 70
     1
102
RTVSPost2010Prop46
 90
       50
102
RTVSPost2010PropOp46
 70
     1
102
RTVSPost2010Prop47
 90
       50
102
RTVSPost2010PropOp47
 70
     1
102
RTVSPost2010Prop48
 90
       50
102
RTVSPost2010PropOp48
 70
     1
102
RTVSPost2010Prop49
280
     0
102
RTVSPost2010PropOp49
 70
     1
102
RTVSPost2010Prop50
 90
       50
102
RTVSPost2010PropOp50
 70
     1
102
RTVSPost2010Prop51ColorIndex
 90
      256
102
RTVSPost2010Prop51ColorRGB
 90
-16777216
102
RTVSPost2010PropOp51
 70
     0
102
RTVSPost2010Prop52
140
1.0
102
RTVSPost2010PropOp52
 70
     0
102
RTVSPost2010Prop53
 90
        2
102
RTVSPost2010PropOp53
 70
     1
102
RTVSPost2010Prop54
  1
strokes_ogs.tif
102
RTVSPost2010PropOp54
 70
     1
102
RTVSPost2010Prop55
280
     0
102
RTVSPost2010PropOp55
 70
     1
102
RTVSPost2010Prop56
140
1.0
102
RTVSPost2010PropOp56
 70
     1
102
RTVSPost2010Prop57
140
1.0
102
RTVSPost2010PropOp57
 70
     1
102
RTVSPropertyOp0
 70
     1
102
RTVSPropertyOp1
 70
     1
102
RTVSPropertyOp2
 70
     1
102
RTVSPropertyOp3
 70
     1
102
RTVSPropertyOp4
 70
     1
102
RTVSPropertyOp5
 70
     1
102
RTVSPropertyOp6
 70
     1
102
RTVSPropertyOp7
 70
     1
102
RTVSPropertyOp8
 70
     1
102
RTVSPropertyOp9
 70
     1
102
RTVSPropertyOp10
 70
     1
102
RTVSPropertyOp11
 70
     1
102
RTVSPropertyOp12
 70
     1
102
RTVSPropertyOp13
 70
     1
102
RTVSPropertyOp14
 70
     1
102
RTVSPropertyOp15
 70
     1
102
RTVSPropertyOp16
 70
     1
102
RTVSPropertyOp17
 70
     1
102
RTVSPropertyOp18
 70
     1
102
RTVSPropertyOp19
 70
     1
102
RTVSPropertyOp20
 70
     1
102
RTVSPropertyOp21
 70
     1
102
RTVSPropertyOp22
 70
     1
102
RTVSPropertyOp23
 70
     1
102
RTVSPropertyOp24
 70
     1
102
RTVSPropertyOp25
 70
     1
102
RTVSPropertyOp26
 70
     1
102
RTVSPropertyOp27
 70
     1
102
RTVSPropertyOp28
 70
     1
102
RTVSPropertyOp29
 70
     1
102
RTVSPropertyOp30
 70
     1
102
RTVSPropertyOp31
 70
     1
102
RTVSPropertyOp32
 70
     1
102
RTVSPropertyOp33
 70
     1
102
RTVSPropertyOp34
 70
     1
102
RTVSPropertyOp35
 70
     1
102
RTVSPropertyOp36
 70
     1
102
RTVSPropertyOp37
 70
     1
102
RTVSPropertyOp38
 70
     1
102
RTVSPropertyOp39
 70
     1
102
RTVSPropertyOp40
 70
     1
102
RTVSPropertyOp41
 70
     1
102
RTVSPropertyOp42
 70
     1
102
RTVSPropertyOp43
 70
     1
102
RTVSPropertyOp44
 70
     1
102
RTVSPropertyOp45
 70
     1
102
RTVSPropertyOp46
 70
     1
102
RTVSPropertyOp47
 70
     1
102
RTVSPropertyOp48
 70
     1
102
RTVSPropertyOp49
 70
     1
102
RTVSPropertyOp50
 70
     1
102
RTVSPropertyOp51
 70
     0
102
RTVSPropertyOp52
 70
     0
102
RTVSPropertyOp53
 70
     1
102
RTVSPropertyOp54
 70
     1
102
RTVSPropertyOp55
 70
     1
102
RTVSPropertyOp56
 70
     1
102
RTVSPropertyOp57
 70
     1
102
RTVSPropertyOp58
 70
     1
102
RTVSPropertyOp59
 70
     1
102
RTVSPropertyOp60
 70
     1
102
RTVSPropertyOp61
 70
     1
102
RTVSPropertyOp62
 70
     1
  0
XRECORD
  5
3D9
102
{ACAD_REACTORS
330
3D8
102
}
330
3D8
100
AcDbXrecord
280
     1
102
RTVSPost2010Prop28
280
     0
102
RTVSPost2010PropOp28
 70
     1
102
RTVSPost2010Prop29
280
     1
102
RTVSPost2010PropOp29
 70
     1
102
RTVSPost2010Prop30
280
     1
102
RTVSPost2010PropOp30
 70
     1
102
RTVSPost2010Prop31
280
     0
102
RTVSPost2010PropOp31
 70
     1
102
RTVSPost2010Prop32
280
     0
102
RTVSPost2010PropOp32
 70
     1
102
RTVSPost2010Prop33
280
     0
102
RTVSPost2010PropOp33
 70
     1
102
RTVSPost2010Prop34
280
     0
102
RTVSPost2010PropOp34
 70
     1
102
RTVSPost2010Prop35
280
     0
102
RTVSPost2010PropOp35
 70
     1
102
RTVSPost2010Prop36
280
     0
102
RTVSPost2010PropOp36
 70
     1
102
RTVSPost2010Prop37
 90
       50
102
RTVSPost2010PropOp37
 70
     1
102
RTVSPost2010Prop38
140
0.0
102
RTVSPost2010PropOp38
 70
     1
102
RTVSPost2010Prop39
140
1.0
102
RTVSPost2010PropOp39
 70
     1
102
RTVSPost2010Prop40
 90
        0
102
RTVSPost2010PropOp40
 70
     1
102
RTVSPost2010Prop41ColorIndex
 90
       18
102
RTVSPost2010Prop41ColorRGB
 90
        0
102
RTVSPost2010PropOp41
 70
     1
102
RTVSPost2010Prop42
 90
       50
102
RTVSPost2010PropOp42
 70
     1
102
RTVSPost2010Prop43
 90
        3
102
RTVSPost2010PropOp43
 70
     1
102
RTVSPost2010Prop44ColorIndex
 90
        5
102
RTVSPost2010Prop44ColorRGB
 90
      255
102
RTVSPost2010PropOp44
 70
     1
102
RTVSPost2010Prop45
280
     0
102
RTVSPost2010PropOp45
 70
     1
102
RTVSPost2010Prop46
 90
       50
102
RTVSPost2010PropOp46
 70
     1
102
RTVSPost2010Prop47
 90
       50
102
RTVSPost2010PropOp47
 70
     1
102
RTVSPost2010Prop48
 90
       50
102
RTVSPost2010PropOp48
 70
     1
102
RTVSPost2010Prop49
280
     0
102
RTVSPost2010PropOp49
 70
     1
102
RTVSPost2010Prop50
 90
       50
102
RTVSPost2010PropOp50
 70
     1
102
RTVSPost2010Prop51ColorIndex
 90
      256
102
RTVSPost2010Prop51ColorRGB
 90
-16777216
102
RTVSPost2010PropOp51
 70
     0
102
RTVSPost2010Prop52
140
1.0
102
RTVSPost2010PropOp52
 70
     0
102
RTVSPost2010Prop53
 90
        2
102
RTVSPost2010PropOp53
 70
     1
102
RTVSPost2010Prop54
  1
strokes_ogs.tif
102
RTVSPost2010PropOp54
 70
     1
102
RTVSPost2010Prop55
280
     0
102
RTVSPost2010PropOp55
 70
     1
102
RTVSPost2010Prop56
140
1.0
102
RTVSPost2010PropOp56
 70
     1
102
RTVSPost2010Prop57
140
1.0
102
RTVSPost2010PropOp57
 70
     1
102
RTVSPropertyOp0
 70
     1
102
RTVSPropertyOp1
 70
     1
102
RTVSPropertyOp2
 70
     1
102
RTVSPropertyOp3
 70
     1
102
RTVSPropertyOp4
 70
     1
102
RTVSPropertyOp5
 70
     1
102
RTVSPropertyOp6
 70
     1
102
RTVSPropertyOp7
 70
     1
102
RTVSPropertyOp8
 70
     1
102
RTVSPropertyOp9
 70
     1
102
RTVSPropertyOp10
 70
     1
102
RTVSPropertyOp11
 70
     1
102
RTVSPropertyOp12
 70
     1
102
RTVSPropertyOp13
 70
     1
102
RTVSPropertyOp14
 70
     1
102
RTVSPropertyOp15
 70
     1
102
RTVSPropertyOp16
 70
     1
102
RTVSPropertyOp17
 70
     1
102
RTVSPropertyOp18
 70
     1
102
RTVSPropertyOp19
 70
     1
102
RTVSPropertyOp20
 70
     1
102
RTVSPropertyOp21
 70
     1
102
RTVSPropertyOp22
 70
     1
102
RTVSPropertyOp23
 70
     1
102
RTVSPropertyOp24
 70
     1
102
RTVSPropertyOp25
 70
     1
102
RTVSPropertyOp26
 70
     1
102
RTVSPropertyOp27
 70
     1
102
RTVSPropertyOp28
 70
     1
102
RTVSPropertyOp29
 70
     1
102
RTVSPropertyOp30
 70
     1
102
RTVSPropertyOp31
 70
     1
102
RTVSPropertyOp32
 70
     1
102
RTVSPropertyOp33
 70
     1
102
RTVSPropertyOp34
 70
     1
102
RTVSPropertyOp35
 70
     1
102
RTVSPropertyOp36
 70
     1
102
RTVSPropertyOp37
 70
     1
102
RTVSPropertyOp38
 70
     1
102
RTVSPropertyOp39
 70
     1
102
RTVSPropertyOp40
 70
     1
102
RTVSPropertyOp41
 70
     1
102
RTVSPropertyOp42
 70
     1
102
RTVSPropertyOp43
 70
     1
102
RTVSPropertyOp44
 70
     1
102
RTVSPropertyOp45
 70
     1
102
RTVSPropertyOp46
 70
     1
102
RTVSPropertyOp47
 70
     1
102
RTVSPropertyOp48
 70
     1
102
RTVSPropertyOp49
 70
     1
102
RTVSPropertyOp50
 70
     1
102
RTVSPropertyOp51
 70
     0
102
RTVSPropertyOp52
 70
     0
102
RTVSPropertyOp53
 70
     1
102
RTVSPropertyOp54
 70
     1
102
RTVSPropertyOp55
 70
     1
102
RTVSPropertyOp56
 70
     1
102
RTVSPropertyOp57
 70
     1
102
RTVSPropertyOp58
 70
     1
102
RTVSPropertyOp59
 70
     1
102
RTVSPropertyOp60
 70
     1
102
RTVSPropertyOp61
 70
     1
102
RTVSPropertyOp62
 70
     1
  0
ENDSEC
  0
EOF
