  0
SECTION
  2
HEADER
  9
$ACADVER
  1
AC1018
  9
$ACADMAINTVER
 70
   104
  9
$DWGCODEPAGE
  3
ANSI_932
  9
$INSBASE
 10
0.0
 20
0.0
 30
0.0
  9
$EXTMIN
 10
2.094303604501422
 20
3.386558104393912
 30
0.0
  9
$EXTMAX
 10
52.09432745019171
 20
23.31998404514933
 30
0.0
  9
$LIMMIN
 10
-1.858616010970308
 20
-3.43314086407355
  9
$LIMMAX
 10
55.30165149099923
 20
26.32222430537002
  9
$ORTHOMODE
 70
     0
  9
$REGENMODE
 70
     1
  9
$FILLMODE
 70
     1
  9
$QTEXTMODE
 70
     0
  9
$MIRRTEXT
 70
     0
  9
$LTSCALE
 40
1.0
  9
$ATTMODE
 70
     1
  9
$TEXTSIZE
 40
2.5
  9
$TRACEWID
 40
1.0
  9
$TEXTSTYLE
  7
Standard
  9
$CLAYER
  8
0
  9
$CELTYPE
  6
ByLayer
  9
$CECOLOR
 62
   256
  9
$CELTSCALE
 40
1.0
  9
$DISPSILH
 70
     0
  9
$DIMSCALE
 40
1.0
  9
$DIMASZ
 40
2.5
  9
$DIMEXO
 40
0.625
  9
$DIMDLI
 40
3.75
  9
$DIMRND
 40
0.0
  9
$DIMDLE
 40
0.0
  9
$DIMEXE
 40
1.25
  9
$DIMTP
 40
0.0
  9
$DIMTM
 40
0.0
  9
$DIMTXT
 40
2.5
  9
$DIMCEN
 40
2.5
  9
$DIMTSZ
 40
0.0
  9
$DIMTOL
 70
     0
  9
$DIMLIM
 70
     0
  9
$DIMTIH
 70
     0
  9
$DIMTOH
 70
     0
  9
$DIMSE1
 70
     0
  9
$DIMSE2
 70
     0
  9
$DIMTAD
 70
     1
  9
$DIMZIN
 70
     8
  9
$DIMBLK
  1

  9
$DIMASO
 70
     1
  9
$DIMSHO
 70
     1
  9
$DIMPOST
  1

  9
$DIMAPOST
  1

  9
$DIMALT
 70
     0
  9
$DIMALTD
 70
     3
  9
$DIMALTF
 40
0.03937007874016
  9
$DIMLFAC
 40
1.0
  9
$DIMTOFL
 70
     1
  9
$DIMTVP
 40
0.0
  9
$DIMTIX
 70
     0
  9
$DIMSOXD
 70
     0
  9
$DIMSAH
 70
     0
  9
$DIMBLK1
  1

  9
$DIMBLK2
  1

  9
$DIMSTYLE
  2
ISO-25
  9
$DIMCLRD
 70
     0
  9
$DIMCLRE
 70
     0
  9
$DIMCLRT
 70
     0
  9
$DIMTFAC
 40
1.0
  9
$DIMGAP
 40
0.625
  9
$DIMJUST
 70
     0
  9
$DIMSD1
 70
     0
  9
$DIMSD2
 70
     0
  9
$DIMTOLJ
 70
     0
  9
$DIMTZIN
 70
     8
  9
$DIMALTZ
 70
     0
  9
$DIMALTTZ
 70
     0
  9
$DIMUPT
 70
     0
  9
$DIMDEC
 70
     2
  9
$DIMTDEC
 70
     2
  9
$DIMALTU
 70
     2
  9
$DIMALTTD
 70
     3
  9
$DIMTXSTY
  7
Standard
  9
$DIMAUNIT
 70
     0
  9
$DIMADEC
 70
     0
  9
$DIMALTRND
 40
0.0
  9
$DIMAZIN
 70
     0
  9
$DIMDSEP
 70
    44
  9
$DIMATFIT
 70
     3
  9
$DIMFRAC
 70
     0
  9
$DIMLDRBLK
  1

  9
$DIMLUNIT
 70
     2
  9
$DIMLWD
 70
    -2
  9
$DIMLWE
 70
    -2
  9
$DIMTMOVE
 70
     0
  9
$LUNITS
 70
     2
  9
$LUPREC
 70
     4
  9
$SKETCHINC
 40
1.0
  9
$FILLETRAD
 40
0.0
  9
$AUNITS
 70
     0
  9
$AUPREC
 70
     0
  9
$MENU
  1
.
  9
$ELEVATION
 40
0.0
  9
$PELEVATION
 40
0.0
  9
$THICKNESS
 40
0.0
  9
$LIMCHECK
 70
     0
  9
$CHAMFERA
 40
0.0
  9
$CHAMFERB
 40
0.0
  9
$CHAMFERC
 40
0.0
  9
$CHAMFERD
 40
0.0
  9
$SKPOLY
 70
     0
  9
$TDCREATE
 40
2458241.716724537
  9
$TDUCREATE
 40
2458241.383391204
  9
$TDUPDATE
 40
2458941.697002315
  9
$TDUUPDATE
 40
2458941.363668981
  9
$TDINDWG
 40
0.0063657407
  9
$TDUSRTIMER
 40
0.0063657407
  9
$USRTIMER
 70
     1
  9
$ANGBASE
 50
0.0
  9
$ANGDIR
 70
     0
  9
$PDMODE
 70
     0
  9
$PDSIZE
 40
0.0
  9
$PLINEWID
 40
0.0
  9
$SPLFRAME
 70
     0
  9
$SPLINETYPE
 70
     6
  9
$SPLINESEGS
 70
     8
  9
$HANDSEED
  5
3E2
  9
$SURFTAB1
 70
     6
  9
$SURFTAB2
 70
     6
  9
$SURFTYPE
 70
     6
  9
$SURFU
 70
     6
  9
$SURFV
 70
     6
  9
$UCSBASE
  2

  9
$UCSNAME
  2

  9
$UCSORG
 10
0.0
 20
0.0
 30
0.0
  9
$UCSXDIR
 10
1.0
 20
0.0
 30
0.0
  9
$UCSYDIR
 10
0.0
 20
1.0
 30
0.0
  9
$UCSORTHOREF
  2

  9
$UCSORTHOVIEW
 70
     0
  9
$UCSORGTOP
 10
0.0
 20
0.0
 30
0.0
  9
$UCSORGBOTTOM
 10
0.0
 20
0.0
 30
0.0
  9
$UCSORGLEFT
 10
0.0
 20
0.0
 30
0.0
  9
$UCSORGRIGHT
 10
0.0
 20
0.0
 30
0.0
  9
$UCSORGFRONT
 10
0.0
 20
0.0
 30
0.0
  9
$UCSORGBACK
 10
0.0
 20
0.0
 30
0.0
  9
$PUCSBASE
  2

  9
$PUCSNAME
  2

  9
$PUCSORG
 10
0.0
 20
0.0
 30
0.0
  9
$PUCSXDIR
 10
1.0
 20
0.0
 30
0.0
  9
$PUCSYDIR
 10
0.0
 20
1.0
 30
0.0
  9
$PUCSORTHOREF
  2

  9
$PUCSORTHOVIEW
 70
     0
  9
$PUCSORGTOP
 10
0.0
 20
0.0
 30
0.0
  9
$PUCSORGBOTTOM
 10
0.0
 20
0.0
 30
0.0
  9
$PUCSORGLEFT
 10
0.0
 20
0.0
 30
0.0
  9
$PUCSORGRIGHT
 10
0.0
 20
0.0
 30
0.0
  9
$PUCSORGFRONT
 10
0.0
 20
0.0
 30
0.0
  9
$PUCSORGBACK
 10
0.0
 20
0.0
 30
0.0
  9
$USERI1
 70
     0
  9
$USERI2
 70
     0
  9
$USERI3
 70
     0
  9
$USERI4
 70
     0
  9
$USERI5
 70
     0
  9
$USERR1
 40
0.0
  9
$USERR2
 40
0.0
  9
$USERR3
 40
0.0
  9
$USERR4
 40
0.0
  9
$USERR5
 40
0.0
  9
$WORLDVIEW
 70
     1
  9
$SHADEDGE
 70
     3
  9
$SHADEDIF
 70
    70
  9
$TILEMODE
 70
     1
  9
$MAXACTVP
 70
    64
  9
$PINSBASE
 10
0.0
 20
0.0
 30
0.0
  9
$PLIMCHECK
 70
     0
  9
$PEXTMIN
 10
0.0
 20
0.0
 30
0.0
  9
$PEXTMAX
 10
0.0
 20
0.0
 30
0.0
  9
$PLIMMIN
 10
0.0
 20
0.0
  9
$PLIMMAX
 10
12.0
 20
9.0
  9
$UNITMODE
 70
     0
  9
$VISRETAIN
 70
     1
  9
$PLINEGEN
 70
     0
  9
$PSLTSCALE
 70
     1
  9
$TREEDEPTH
 70
  3020
  9
$CMLSTYLE
  2
Standard
  9
$CMLJUST
 70
     0
  9
$CMLSCALE
 40
20.0
  9
$PROXYGRAPHICS
 70
     1
  9
$MEASUREMENT
 70
     1
  9
$CELWEIGHT
370
    -1
  9
$ENDCAPS
280
     0
  9
$JOINSTYLE
280
     0
  9
$LWDISPLAY
290
     0
  9
$INSUNITS
 70
     4
  9
$HYPERLINKBASE
  1

  9
$STYLESHEET
  1

  9
$XEDIT
290
     1
  9
$CEPSNTYPE
380
     0
  9
$PSTYLEMODE
290
     1
  9
$FINGERPRINTGUID
  2
{9A1AF5A0-5786-F546-8DE6-417C97998153}
  9
$VERSIONGUID
  2
{7C78643A-65F1-BC4D-A181-74784A2B8291}
  9
$EXTNAMES
290
     1
  9
$PSVPSCALE
 40
0.0
  9
$OLESTARTUP
290
     0
  9
$SORTENTS
280
   127
  9
$INDEXCTL
280
     0
  9
$HIDETEXT
280
     1
  9
$XCLIPFRAME
290
     0
  9
$HALOGAP
280
     0
  9
$OBSCOLOR
 70
   257
  9
$OBSLTYPE
280
     0
  9
$INTERSECTIONDISPLAY
280
     0
  9
$INTERSECTIONCOLOR
 70
   257
  9
$DIMASSOC
280
     2
  9
$PROJECTNAME
  1

  0
ENDSEC
  0
SECTION
  2
CLASSES
  0
CLASS
  1
ACDBDICTIONARYWDFLT
  2
AcDbDictionaryWithDefault
  3
ObjectDBX Classes
 90
        0
 91
        1
280
     0
281
     0
  0
CLASS
  1
DICTIONARYVAR
  2
AcDbDictionaryVar
  3
ObjectDBX Classes
 90
        0
 91
       12
280
     0
281
     0
  0
CLASS
  1
TABLESTYLE
  2
AcDbTableStyle
  3
ObjectDBX Classes
 90
     4095
 91
        1
280
     0
281
     0
  0
CLASS
  1
MATERIAL
  2
AcDbMaterial
  3
ObjectDBX Classes
 90
     1153
 91
        3
280
     0
281
     0
  0
CLASS
  1
VISUALSTYLE
  2
AcDbVisualStyle
  3
ObjectDBX Classes
 90
     4095
 91
        3
280
     0
281
     0
  0
CLASS
  1
SCALE
  2
AcDbScale
  3
ObjectDBX Classes
 90
     1153
 91
       17
280
     0
281
     0
  0
CLASS
  1
MLEADERSTYLE
  2
AcDbMLeaderStyle
  3
ACDB_MLEADERSTYLE_CLASS
 90
     4095
 91
        0
280
     0
281
     0
  0
CLASS
  1
CELLSTYLEMAP
  2
AcDbCellStyleMap
  3
ObjectDBX Classes
 90
     1152
 91
        1
280
     0
281
     0
  0
CLASS
  1
EXACXREFPANELOBJECT
  2
ExAcXREFPanelObject
  3
EXAC_ESW
 90
     1025
 91
        0
280
     1
281
     0
  0
CLASS
  1
NPOCOLLECTION
  2
AcDbImpNonPersistentObjectsCollection
  3
ObjectDBX Classes
 90
     1153
 91
        0
280
     0
281
     0
  0
CLASS
  1
LAYER_INDEX
  2
AcDbLayerIndex
  3
ObjectDBX Classes
 90
        0
 91
        0
280
     0
281
     0
  0
CLASS
  1
SPATIAL_INDEX
  2
AcDbSpatialIndex
  3
ObjectDBX Classes
 90
        0
 91
        0
280
     0
281
     0
  0
CLASS
  1
IDBUFFER
  2
AcDbIdBuffer
  3
ObjectDBX Classes
 90
        0
 91
        0
280
     0
281
     0
  0
CLASS
  1
ACDBSECTIONVIEWSTYLE
  2
AcDbSectionViewStyle
  3
ObjectDBX Classes
 90
     1025
 91
        0
280
     0
281
     0
  0
CLASS
  1
ACDBDETAILVIEWSTYLE
  2
AcDbDetailViewStyle
  3
ObjectDBX Classes
 90
     1025
 91
        0
280
     0
281
     0
  0
CLASS
  1
SORTENTSTABLE
  2
AcDbSortentsTable
  3
ObjectDBX Classes
 90
        0
 91
        2
280
     0
281
     0
  0
CLASS
  1
DIMASSOC
  2
AcDbDimAssoc
  3
"AcDbDimAssoc|Product Desc:     AcDim ARX App For Dimension|Company:          Autodesk, Inc.|WEB Address:      www.autodesk.com"
 90
        0
 91
        0
280
     0
281
     0
  0
ENDSEC
  0
SECTION
  2
TABLES
  0
TABLE
  2
VPORT
  5
2A
330
0
100
AcDbSymbolTable
 70
     1
  0
VPORT
  5
2B
330
2A
100
AcDbSymbolTableRecord
100
AcDbViewportTableRecord
  2
*Active
 70
     0
 10
0.0
 20
0.0
 11
1.0
 21
1.0
 12
26.72151774001447
 22
11.44454172064823
 13
0.0
 23
0.0
 14
10.0
 24
10.0
 15
10.0
 25
10.0
 16
0.0
 26
0.0
 36
1.0
 17
0.0
 27
0.0
 37
0.0
 40
30.0343217179071
 41
2.350547730829421
 42
50.0
 43
0.0
 44
0.0
 50
0.0
 51
0.0
 71
     0
 72
  1000
 73
     1
 74
     3
 75
     0
 76
     1
 77
     0
 78
     0
281
     0
 65
     1
110
0.0
120
0.0
130
0.0
111
1.0
121
0.0
131
0.0
112
0.0
122
1.0
132
0.0
 79
     0
146
0.0
1001
ACAD_NAV_VCDISPLAY
1070
     3
  0
ENDTAB
  0
TABLE
  2
LTYPE
  5
25
330
0
100
AcDbSymbolTable
 70
     1
  0
LTYPE
  5
26
330
25
100
AcDbSymbolTableRecord
100
AcDbLinetypeTableRecord
  2
ByBlock
 70
     0
  3

 72
    65
 73
     0
 40
0.0
  0
LTYPE
  5
27
330
25
100
AcDbSymbolTableRecord
100
AcDbLinetypeTableRecord
  2
ByLayer
 70
     0
  3

 72
    65
 73
     0
 40
0.0
  0
LTYPE
  5
15
330
25
100
AcDbSymbolTableRecord
100
AcDbLinetypeTableRecord
  2
Continuous
 70
     0
  3
Solid line
 72
    65
 73
     0
 40
0.0
  0
ENDTAB
  0
TABLE
  2
LAYER
  5
1F
102
{ACAD_XDICTIONARY
360
20
102
}
330
0
100
AcDbSymbolTable
 70
     1
  0
LAYER
  5
6
102
{ACAD_XDICTIONARY
360
7
102
}
330
1F
100
AcDbSymbolTableRecord
100
AcDbLayerTableRecord
  2
0
 70
     0
 62
     7
  6
Continuous
370
    -3
390
8
  0
ENDTAB
  0
TABLE
  2
STYLE
  5
22
330
0
100
AcDbSymbolTable
 70
     1
  0
STYLE
  5
23
330
22
100
AcDbSymbolTableRecord
100
AcDbTextStyleTableRecord
  2
Standard
 70
     0
 40
0.0
 41
1.0
 50
0.0
 71
     0
 42
2.5
  3
arial.ttf
  4

1001
ACAD
1000
Arial
1071
       34
  0
ENDTAB
  0
TABLE
  2
VIEW
  5
28
330
0
100
AcDbSymbolTable
 70
     0
  0
ENDTAB
  0
TABLE
  2
UCS
  5
29
330
0
100
AcDbSymbolTable
 70
     0
  0
ENDTAB
  0
TABLE
  2
APPID
  5
2F
330
0
100
AcDbSymbolTable
 70
     6
  0
APPID
  5
14
330
2F
100
AcDbSymbolTableRecord
100
AcDbRegAppTableRecord
  2
ACAD
 70
     0
  0
APPID
  5
1A
330
2F
100
AcDbSymbolTableRecord
100
AcDbRegAppTableRecord
  2
ACAD_PSEXT
 70
     0
  0
APPID
  5
33
330
2F
100
AcDbSymbolTableRecord
100
AcDbRegAppTableRecord
  2
AcadAnnotative
 70
     0
  0
APPID
  5
34
330
2F
100
AcDbSymbolTableRecord
100
AcDbRegAppTableRecord
  2
ACAD_DSTYLE_DIMJAG
 70
     0
  0
APPID
  5
35
330
2F
100
AcDbSymbolTableRecord
100
AcDbRegAppTableRecord
  2
ACAD_DSTYLE_DIMTALN
 70
     0
  0
APPID
  5
2E
330
2F
100
AcDbSymbolTableRecord
100
AcDbRegAppTableRecord
  2
ACAD_NAV_VCDISPLAY
 70
     0
  0
ENDTAB
  0
TABLE
  2
DIMSTYLE
  5
30
330
0
100
AcDbSymbolTable
 70
     2
100
AcDbDimStyleTable
 71
     2
340
31
340
32
  0
DIMSTYLE
105
32
330
30
100
AcDbSymbolTableRecord
100
AcDbDimStyleTableRecord
  2
Annotative
 70
     0
 40
0.0
 41
2.5
 42
0.625
 43
3.75
 44
1.25
 73
     0
 74
     0
 77
     1
 78
     8
140
2.5
141
2.5
143
0.03937007874016
147
0.625
171
     3
172
     1
271
     2
272
     2
274
     3
278
    44
283
     0
284
     8
340
23
1001
AcadAnnotative
1000
AnnotativeData
1002
{
1070
     1
1070
     1
1002
}
1001
ACAD_DSTYLE_DIMJAG
1070
   388
1040
1.5
1001
ACAD_DSTYLE_DIMTALN
1070
   392
1070
     0
  0
DIMSTYLE
105
31
330
30
100
AcDbSymbolTableRecord
100
AcDbDimStyleTableRecord
  2
ISO-25
 70
     0
 41
2.5
 42
0.625
 43
3.75
 44
1.25
 73
     0
 74
     0
 77
     1
 78
     8
140
2.5
141
2.5
143
0.03937007874016
147
0.625
171
     3
172
     1
271
     2
272
     2
274
     3
278
    44
283
     0
284
     8
340
23
  0
ENDTAB
  0
TABLE
  2
BLOCK_RECORD
  5
1
330
0
100
AcDbSymbolTable
 70
     0
  0
BLOCK_RECORD
  5
2
102
{ACAD_XDICTIONARY
360
3
102
}
330
1
100
AcDbSymbolTableRecord
100
AcDbBlockTableRecord
  2
*Model_Space
340
17
  0
BLOCK_RECORD
  5
1B
330
1
100
AcDbSymbolTableRecord
100
AcDbBlockTableRecord
  2
*Paper_Space
340
1E
  0
ENDTAB
  0
ENDSEC
  0
SECTION
  2
BLOCKS
  0
BLOCK
  5
5
330
2
100
AcDbEntity
  8
0
100
AcDbBlockBegin
  2
*Model_Space
 70
     0
 10
0.0
 20
0.0
 30
0.0
  3
*Model_Space
  1

  0
ENDBLK
  5
16
330
2
100
AcDbEntity
  8
0
100
AcDbBlockEnd
  0
BLOCK
  5
1C
330
1B
100
AcDbEntity
 67
     1
  8
0
100
AcDbBlockBegin
  2
*Paper_Space
 70
     0
 10
0.0
 20
0.0
 30
0.0
  3
*Paper_Space
  1

  0
ENDBLK
  5
1D
330
1B
100
AcDbEntity
 67
     1
  8
0
100
AcDbBlockEnd
  0
ENDSEC
  0
SECTION
  2
ENTITIES
  0
ELLIPSE
  5
5C
330
2
100
AcDbEntity
  8
0
100
AcDbEllipse
 10
25.3686819969051
 20
12.04490610438777
 30
0.0
 11
0.0
 21
0.3229369579487661
 31
0.0
210
0.0
220
0.0
230
1.0
 40
0.4578919007023706
 41
1.544051192368964
 42
6.835944686399921
  0
ELLIPSE
  5
5D
330
2
100
AcDbEntity
  8
0
100
AcDbEllipse
 10
25.57522700825595
 20
11.87779158793978
 30
0.0
 11
-0.1711377002994612
 21
-0.0273269328240886
 31
0.0
210
0.0
220
0.0
230
1.0
 40
0.6407620893900635
 41
0.0
 42
6.283185307179584
  0
LINE
  5
5E
330
2
100
AcDbEntity
  8
0
100
AcDbLine
 10
31.9229931086531
 20
15.73623545235928
 30
0.0
 11
31.04630184076312
 21
14.97699854309448
 31
0.0
  0
LINE
  5
5F
330
2
100
AcDbEntity
  8
0
100
AcDbLine
 10
31.06187260910435
 20
14.70379345164056
 30
0.0
 11
31.07601844892397
 21
14.69635343569029
 31
0.0
  0
LINE
  5
60
330
2
100
AcDbEntity
  8
0
100
AcDbLine
 10
52.05893164420324
 20
14.97699854309448
 30
0.0
 11
51.18224037631327
 21
15.73623545235928
 31
0.0
  0
LINE
  5
61
330
2
100
AcDbEntity
  8
0
100
AcDbLine
 10
52.02921503604227
 20
14.69635343569029
 30
0.0
 11
52.04336087586201
 21
14.70379345164056
 31
0.0
  0
LINE
  5
62
330
2
100
AcDbEntity
  8
0
100
AcDbLine
 10
37.44109810958683
 20
21.56935698313224
 30
0.0
 11
37.44109810958683
 21
15.96764504933851
 31
0.0
  0
SPLINE
  5
63
330
2
100
AcDbEntity
  8
0
100
AcDbSpline
210
0.0
220
0.0
230
1.0
 70
     8
 71
     3
 72
    12
 73
     8
 74
     0
 42
0.000000001
 43
0.0000000001
 40
0.0
 40
0.0
 40
0.0
 40
0.0
 40
0.1814292812455211
 40
0.4157921650614691
 40
0.6513173281689455
 40
0.8893818971947672
 40
1.0
 40
1.0
 40
1.0
 40
1.0
 10
41.80618089702889
 20
23.22256443496873
 30
0.0
 10
41.78123095380869
 20
23.24051777273263
 30
0.0
 10
41.73011078004559
 20
23.27718393203024
 30
0.0
 10
41.6321568192228
 20
23.31062518884306
 30
0.0
 10
41.5182199538544
 20
23.32443154742378
 30
0.0
 10
41.41941129427467
 20
23.31552077176292
 30
0.0
 10
41.36044712259542
 20
23.30015336322965
 30
0.0
 10
41.34174098853252
 20
23.29527811787242
 30
0.0
  0
LINE
  5
64
330
2
100
AcDbEntity
  8
0
100
AcDbLine
 10
41.85199651705132
 20
23.18336069007202
 30
0.0
 11
41.81912059450544
 21
23.21183207416794
 31
0.0
  0
LINE
  5
65
330
2
100
AcDbEntity
  8
0
100
AcDbLine
 10
41.34174098854094
 20
23.2952781178739
 30
0.0
 11
38.0390604332134
 21
22.34187636404207
 31
0.0
  0
SPLINE
  5
66
330
2
100
AcDbEntity
  8
0
100
AcDbSpline
210
0.0
220
0.0
230
1.0
 70
     8
 71
     3
 72
    16
 73
    12
 74
     0
 42
0.000000001
 43
0.0000000001
 40
0.0
 40
0.0
 40
0.0
 40
0.0
 40
0.0698495378242814
 40
0.1990379081207498
 40
0.3285182403160732
 40
0.4581529125746114
 40
0.5879251972799283
 40
0.7178828956211315
 40
0.8480723407691174
 40
0.9707891010511659
 40
1.0
 40
1.0
 40
1.0
 40
1.0
 10
38.0390604332134
 20
22.34187636404207
 30
0.0
 10
38.01697329507306
 20
22.33477414335997
 30
0.0
 10
37.95403547316739
 20
22.31453619774721
 30
0.0
 10
37.85258442434854
 20
22.26269482309207
 30
0.0
 10
37.74092059315691
 20
22.18166601291233
 30
0.0
 10
37.64159997508796
 20
22.08231731173689
 30
0.0
 10
37.55858217263837
 20
21.96896101660636
 30
0.0
 10
37.49514113361046
 20
21.84580447065718
 30
0.0
 10
37.45499232329333
 20
21.72016089363709
 30
0.0
 10
37.44192529406636
 20
21.62739167687379
 30
0.0
 10
37.44123150361846
 20
21.57871581645711
 30
0.0
 10
37.44109810958927
 20
21.56935698313426
 30
0.0
  0
SPLINE
  5
67
330
2
100
AcDbEntity
  8
0
100
AcDbSpline
210
0.0
220
0.0
230
1.0
 70
     8
 71
     3
 72
    12
 73
     8
 74
     0
 42
0.000000001
 43
0.0000000001
 40
0.0
 40
0.0
 40
0.0
 40
0.0
 40
0.1814292812455528
 40
0.4157921650615191
 40
0.6513173281689923
 40
0.8893818971948038
 40
1.0
 40
1.0
 40
1.0
 40
1.0
 10
43.2503494059676
 20
22.98011659176359
 30
0.0
 10
43.23020242641677
 20
22.99701093029546
 30
0.0
 10
43.17308254983301
 20
23.03572868052402
 30
0.0
 10
43.07512858901019
 20
23.06916993733674
 30
0.0
 10
42.9611917236422
 20
23.08297629591756
 30
0.0
 10
42.86238306406248
 20
23.0740655202565
 30
0.0
 10
42.80341889238281
 20
23.05869811172333
 30
0.0
 10
42.78471275831996
 20
23.05382286636609
 30
0.0
  0
LINE
  5
68
330
2
100
AcDbEntity
  8
0
100
AcDbLine
 10
43.2949682868282
 20
22.9419054385657
 30
0.0
 11
43.26209236428234
 21
22.97037682266152
 31
0.0
  0
LINE
  5
69
330
2
100
AcDbEntity
  8
0
100
AcDbLine
 10
36.03693146961616
 20
20.50600366797894
 30
0.0
 11
36.03693146961616
 21
14.72516354141565
 31
0.0
  0
LINE
  5
6A
330
2
100
AcDbEntity
  8
0
100
AcDbLine
 10
42.78471275831782
 20
23.05382286636747
 30
0.0
 11
42.18167783459793
 21
22.87974167860433
 31
0.0
  0
LINE
  5
6B
330
2
100
AcDbEntity
  8
0
100
AcDbLine
 10
37.44109810958683
 20
21.51125418841666
 30
0.0
 11
36.63489379323585
 21
21.27852304889026
 31
0.0
  0
SPLINE
  5
6C
330
2
100
AcDbEntity
  8
0
100
AcDbSpline
210
0.0
220
0.0
230
1.0
 70
     8
 71
     3
 72
    16
 73
    12
 74
     0
 42
0.000000001
 43
0.0000000001
 40
0.0
 40
0.0
 40
0.0
 40
0.0
 40
0.069849537824281
 40
0.1990379081207491
 40
0.3285182403160724
 40
0.4581529125746112
 40
0.5879251972799239
 40
0.717882895621127
 40
0.8480723407691126
 40
0.9707891010511568
 40
1.0
 40
1.0
 40
1.0
 40
1.0
 10
36.63489379324347
 20
21.27852304888888
 30
0.0
 10
36.61280665510306
 20
21.27142082820689
 30
0.0
 10
36.54986883319703
 20
21.25118288259402
 30
0.0
 10
36.44841778437856
 20
21.19934150793888
 30
0.0
 10
36.33675395318655
 20
21.11831269775926
 30
0.0
 10
36.2374333351176
 20
21.0189639965837
 30
0.0
 10
36.15441553266837
 20
20.90560770145317
 30
0.0
 10
36.09097449364047
 20
20.782451155504
 30
0.0
 10
36.05082568332297
 20
20.656807578484
 30
0.0
 10
36.03775865409637
 20
20.56403836172061
 30
0.0
 10
36.03706486364847
 20
20.51536250130403
 30
0.0
 10
36.03693146961891
 20
20.50600366798095
 30
0.0
  0
LINE
  5
6D
330
2
100
AcDbEntity
  8
0
100
AcDbLine
 10
47.16700281354461
 20
14.74598660284167
 30
0.0
 11
47.16700281354461
 21
19.35336628294111
 31
0.0
  0
SPLINE
  5
6E
330
2
100
AcDbEntity
  8
0
100
AcDbSpline
210
0.0
220
0.0
230
1.0
 70
     8
 71
     3
 72
    18
 73
    14
 74
     0
 42
0.000000001
 43
0.0000000001
 40
0.0
 40
0.0
 40
0.0
 40
0.0
 40
0.1492339177251531
 40
0.4238467322756426
 40
0.6967154132333683
 40
0.9658693911153502
 40
1.0
 40
1.0
 40
1.0
 40
1.000000010757339
 40
1.000000020757339
 40
1.000000030757339
 40
1.12268556899787
 40
1.12268556899787
 40
1.12268556899787
 40
1.12268556899787
 10
47.16700281354881
 20
19.35336628294461
 30
0.0
 10
47.16625467531317
 20
19.37564604092327
 30
0.0
 10
47.16412985039946
 20
19.43892389865851
 30
0.0
 10
47.14139392802787
 20
19.53759735479237
 30
0.0
 10
47.08970518296695
 20
19.63828213934901
 30
0.0
 10
47.04155777176612
 20
19.70273550069418
 30
0.0
 10
47.00721055413848
 20
19.72564246837732
 30
0.0
 10
47.00334523587861
 20
19.72822034008202
 30
0.0
 10
47.00334523579287
 20
19.72822034013922
 30
0.0
 10
47.00334523570706
 20
19.72822034019642
 30
0.0
 10
47.00334523562121
 20
19.72822034025373
 30
0.0
 10
46.98945023589498
 20
19.73748761860603
 30
0.0
 10
46.9755552361687
 20
19.74675489695843
 30
0.0
 10
46.96166023644241
 20
19.75602217531073
 30
0.0
  0
SPLINE
  5
6F
330
2
100
AcDbEntity
  8
0
100
AcDbSpline
210
0.0
220
0.0
230
1.0
 70
     8
 71
     3
 72
    13
 73
     9
 74
     0
 42
0.000000001
 43
0.0000000001
 40
0.0
 40
0.0
 40
0.0
 40
0.0
 40
0.0158253456713535
 40
0.2513810179288308
 40
0.4866674389099493
 40
0.7237065316793756
 40
0.9543250345606843
 40
1.0
 40
1.0
 40
1.0
 40
1.0
 10
45.13414864231252
 20
22.21072402792676
 30
0.0
 10
45.13083760200097
 20
22.21385434707359
 30
0.0
 10
45.09843185571037
 20
22.23890974115056
 30
0.0
 10
45.03400451678539
 20
22.27287490880603
 30
0.0
 10
44.92770987234881
 20
22.30533034522399
 30
0.0
 10
44.81206641716977
 20
22.3104012986767
 30
0.0
 10
44.72529085949605
 20
22.29736097448375
 30
0.0
 10
44.67876581596436
 20
22.28448633372557
 30
0.0
 10
44.67107461078254
 20
22.28235798528779
 30
0.0
  0
LINE
  5
70
330
2
100
AcDbEntity
  8
0
100
AcDbLine
 10
45.18133013929985
 20
22.17044055748145
 30
0.0
 11
45.14845421675397
 21
22.19891194157738
 31
0.0
  0
LINE
  5
71
330
2
100
AcDbEntity
  8
0
100
AcDbLine
 10
44.67107461078947
 20
22.28235798528323
 30
0.0
 11
44.60069067497477
 21
22.26203989315468
 31
0.0
  0
LINE
  5
72
330
2
100
AcDbEntity
  8
0
100
AcDbLine
 10
35.98842435486994
 20
19.1759902273674
 30
0.0
 11
35.98842435486994
 21
16.8040328912034
 31
0.0
  0
SPLINE
  5
73
330
2
100
AcDbEntity
  8
0
100
AcDbSpline
210
0.0
220
0.0
230
1.0
 70
     8
 71
     3
 72
    10
 73
     6
 74
     0
 42
0.000000001
 43
0.0000000001
 40
0.0
 40
0.0
 40
0.0
 40
0.0
 40
0.3979521901974357
 40
0.8842451873244241
 40
1.0
 40
1.0
 40
1.0
 40
1.0
 10
36.03693146961891
 20
19.42258025354123
 30
0.0
 10
36.02530027334431
 20
19.38988165881098
 30
0.0
 10
35.99945588906397
 20
19.31722575758787
 30
0.0
 10
35.98932825466392
 20
19.23401357322966
 30
0.0
 10
35.98857012022153
 20
19.18534723070254
 30
0.0
 10
35.98842435487031
 20
19.17599022736973
 30
0.0
  0
LINE
  5
74
330
2
100
AcDbEntity
  8
0
100
AcDbLine
 10
47.11680913009636
 20
14.73873209320335
 30
0.0
 11
47.11680913009636
 21
15.18814334033994
 31
0.0
  0
LINE
  5
75
330
2
100
AcDbEntity
  8
0
100
AcDbLine
 10
47.11677414168096
 20
15.18924388120459
 30
0.0
 11
46.77276263684364
 21
20.59412039114294
 31
0.0
  0
SPLINE
  5
76
330
2
100
AcDbEntity
  8
0
100
AcDbSpline
210
0.0
220
0.0
230
1.0
 70
     8
 71
     3
 72
    13
 73
     9
 74
     0
 42
0.000000001
 43
0.0000000001
 40
0.0
 40
0.0
 40
0.0
 40
0.0
 40
0.0507388817682468
 40
0.8059723946858722
 40
1.0
 40
1.0
 40
1.0
 40
1.141396091173834
 40
1.141396091173834
 40
1.141396091173834
 40
1.141396091173834
 10
46.27384729056949
 20
21.2237160458772
 30
0.0
 10
46.27042231770936
 20
21.22768822398552
 30
0.0
 10
46.23691725579522
 20
21.2535069450668
 30
0.0
 10
46.19173891606692
 20
21.27662435208779
 30
0.0
 10
46.15455420422458
 20
21.28866249755487
 30
0.0
 10
46.14534476231165
 20
21.29112307714937
 30
0.0
 10
46.13863345395798
 20
21.29291620517432
 30
0.0
 10
46.13192214560428
 20
21.29470933319906
 30
0.0
 10
46.12521083725062
 20
21.29650246122402
 30
0.0
  0
LINE
  5
77
330
2
100
AcDbEntity
  8
0
100
AcDbLine
 10
46.32102878755691
 20
21.18343257543188
 30
0.0
 11
46.28815286501106
 21
21.21190395952781
 31
0.0
  0
SPLINE
  5
78
330
2
100
AcDbEntity
  8
0
100
AcDbSpline
210
0.0
220
0.0
230
1.0
 70
     8
 71
     3
 72
    13
 73
     9
 74
     0
 42
0.000000001
 43
0.0000000001
 40
0.0
 40
0.0
 40
0.0
 40
0.0
 40
0.050738881768261
 40
0.8059723946858008
 40
1.0
 40
1.0
 40
1.0
 40
1.141396091172524
 40
1.141396091172524
 40
1.141396091172524
 40
1.141396091172524
 10
45.70399796644093
 20
21.71722003690202
 30
0.0
 10
45.70068591512508
 20
21.72006381131721
 30
0.0
 10
45.66769546631374
 20
21.74635367722906
 30
0.0
 10
45.62976117563862
 20
21.77012834311252
 30
0.0
 10
45.58470488009602
 20
21.78216648857961
 30
0.0
 10
45.57549543818308
 20
21.7846270681741
 30
0.0
 10
45.56878412982948
 20
21.78642019619895
 30
0.0
 10
45.56207282147592
 20
21.7882133242238
 30
0.0
 10
45.55536151312233
 20
21.79000645224864
 30
0.0
  0
LINE
  5
79
330
2
100
AcDbEntity
  8
0
100
AcDbLine
 10
45.75117946342832
 20
21.67693656645662
 30
0.0
 11
45.71830354088244
 21
21.70540795055254
 31
0.0
  0
SPLINE
  5
7A
330
2
100
AcDbEntity
  8
0
100
AcDbSpline
210
0.0
220
0.0
230
1.0
 70
     8
 71
     3
 72
    12
 73
     8
 74
     0
 42
0.000000001
 43
0.0000000001
 40
0.0
 40
0.0
 40
0.0
 40
0.0
 40
0.1814292812455421
 40
0.4157921650615087
 40
0.651317328168993
 40
0.8893818971948022
 40
1.0
 40
1.0
 40
1.0
 40
1.0
 10
44.22519373740648
 20
22.60486264951781
 30
0.0
 10
44.20571689560815
 20
22.62076439635107
 30
0.0
 10
44.14912362042035
 20
22.65948214657953
 30
0.0
 10
44.05116965959758
 20
22.69292340339234
 30
0.0
 10
43.93723279422919
 20
22.70672976197317
 30
0.0
 10
43.83842413464946
 20
22.6978189863121
 30
0.0
 10
43.77945996297022
 20
22.68245157777893
 30
0.0
 10
43.76075382890731
 20
22.67757633242171
 30
0.0
  0
LINE
  5
7B
330
2
100
AcDbEntity
  8
0
100
AcDbLine
 10
44.27100935742902
 20
22.5656589046212
 30
0.0
 11
44.23813343488314
 21
22.59413028871712
 31
0.0
  0
LINE
  5
7C
330
2
100
AcDbEntity
  8
0
100
AcDbLine
 10
43.76075382890109
 20
22.67757633242298
 30
0.0
 11
43.62464960439219
 21
22.63828642709812
 31
0.0
  0
LINE
  5
7D
330
2
100
AcDbEntity
  8
0
100
AcDbLine
 10
35.98842435486994
 20
16.80403289124152
 30
0.0
 11
35.86186794204559
 21
14.74259659656526
 31
0.0
  0
LINE
  5
7E
330
2
100
AcDbEntity
  8
0
100
AcDbLine
 10
46.22569212800378
 20
15.45084166729188
 30
0.0
 11
46.22569212800378
 21
15.64608627966272
 31
0.0
  0
LINE
  5
7F
330
2
100
AcDbEntity
  8
0
100
AcDbLine
 10
36.87954135694493
 20
15.64608627966272
 30
0.0
 11
36.87954135694493
 21
15.45084166729188
 31
0.0
  0
LINE
  5
80
330
2
100
AcDbEntity
  8
0
100
AcDbLine
 10
47.68945561770435
 20
13.58153182717415
 30
0.0
 11
47.68945561770435
 21
13.68969608635532
 31
0.0
  0
LINE
  5
81
330
2
100
AcDbEntity
  8
0
100
AcDbLine
 10
35.41577786724436
 20
13.68969608635532
 30
0.0
 11
35.41577786724436
 21
13.58153182717415
 31
0.0
  0
LINE
  5
82
330
2
100
AcDbEntity
  8
0
100
AcDbLine
 10
34.11025347709724
 20
10.44176824494467
 30
0.0
 11
34.11944579355324
 21
10.35089227188456
 31
0.0
  0
LINE
  5
83
330
2
100
AcDbEntity
  8
0
100
AcDbLine
 10
48.98578769139547
 20
10.35089227188456
 30
0.0
 11
48.99498000785169
 21
10.44176824494467
 31
0.0
  0
LINE
  5
84
330
2
100
AcDbEntity
  8
0
100
AcDbLine
 10
35.94519969952385
 20
13.55194944088487
 30
0.0
 11
35.88098679358476
 21
13.57048611014018
 31
0.0
  0
LINE
  5
85
330
2
100
AcDbEntity
  8
0
100
AcDbLine
 10
47.22425104978221
 20
13.57048736831489
 30
0.0
 11
47.16003378544249
 21
13.55194944088487
 31
0.0
  0
LINE
  5
86
330
2
100
AcDbEntity
  8
0
100
AcDbLine
 10
36.0238068861219
 20
14.57293770593079
 30
0.0
 11
35.87421201743856
 21
14.61612202478193
 31
0.0
  0
LINE
  5
87
330
2
100
AcDbEntity
  8
0
100
AcDbLine
 10
47.23102146752784
 20
14.61612202478193
 30
0.0
 11
47.08142659882681
 21
14.57293770593079
 31
0.0
  0
LWPOLYLINE
  5
88
330
2
100
AcDbEntity
  8
0
100
AcDbPolyline
 90
       17
 70
   128
 43
0.0
 10
32.68008094488143
 20
14.85150618434868
 10
32.70844662575004
 20
14.89669982610746
 10
32.70535144464508
 20
14.95276358249975
 10
32.67126661486482
 20
15.01116225481977
 10
32.6113812427423
 20
15.06300517459768
 10
32.53481233334162
 20
15.10039972726585
 10
32.45321680902036
 20
15.11765293114814
 10
32.37901684866736
 20
15.11213814237254
 10
32.32350872363068
 20
15.08469493751732
 10
32.29514304277954
 20
15.03950129577602
 10
32.2982382238845
 20
14.98343753938373
 10
32.33232305366477
 20
14.92503886706382
 10
32.39220842576976
 20
14.8731959472858
 10
32.46877733517044
 20
14.83580139461763
 10
32.55037285950917
 20
14.81854819071797
 10
32.62457281986217
 20
14.82406297951104
 10
32.68008094488143
 20
14.85150618434868
  0
LWPOLYLINE
  5
89
330
2
100
AcDbEntity
  8
0
100
AcDbPolyline
 90
        9
 70
   128
 43
0.0
 10
31.94535233562615
 20
14.86559976991459
 10
31.97371801647719
 20
14.91079341167337
 10
31.97062283537233
 20
14.96685716804818
 10
31.93653800559202
 20
15.02525584036799
 10
31.87665263348697
 20
15.07709876014601
 10
31.80008372408634
 20
15.11449331281418
 10
31.71848819974766
 20
15.13174651671395
 10
31.64428823939456
 20
15.12623172793845
 10
31.64068812337766
 20
15.12527679711228
  0
LWPOLYLINE
  5
8A
330
2
100
AcDbEntity
  8
0
100
AcDbPolyline
 90
        9
 70
   128
 43
0.0
 10
31.56110422678569
 20
15.05618465356025
 10
31.56041443352427
 20
15.05359488132435
 10
31.56350961461166
 20
14.99753112494964
 10
31.5975944443919
 20
14.93913245262961
 10
31.65747981651444
 20
14.88728953283423
 10
31.73404872591512
 20
14.84989498016606
 10
31.8156442502539
 20
14.83264177628388
 10
31.88984421058937
 20
14.83815656505937
 10
31.94535233562615
 20
14.86559976991459
  0
LWPOLYLINE
  5
8B
330
2
100
AcDbEntity
  8
0
100
AcDbPolyline
 90
       17
 70
   128
 43
0.0
 10
32.80112566663117
 20
14.30594676230263
 10
32.82949134748231
 20
14.35114040406152
 10
32.82639616639493
 20
14.4072041604537
 10
32.79231133659715
 20
14.46560283277373
 10
32.73242596449209
 20
14.51744575255174
 10
32.65585705509141
 20
14.5548403052198
 10
32.57426153075268
 20
14.57209350910209
 10
32.50006157039968
 20
14.56657872032639
 10
32.44455344538043
 20
14.53913551547139
 10
32.4161877645294
 20
14.49394187372997
 10
32.41928294561677
 20
14.4378781173378
 10
32.45336777539703
 20
14.37947944501777
 10
32.51325314751956
 20
14.32763652523975
 10
32.58982205692023
 20
14.29024197257169
 10
32.67141758125891
 20
14.27298876867193
 10
32.74561754159449
 20
14.278503557465
 10
32.80112566663117
 20
14.30594676230263
  0
LINE
  5
8C
330
2
100
AcDbEntity
  8
0
100
AcDbLine
 10
32.93940487329152
 20
15.11500037908553
 30
0.0
 11
32.0236549428453
 21
15.71387648823588
 31
0.0
  0
ARC
  5
8D
330
2
100
AcDbEntity
  8
0
100
AcDbCircle
 10
31.82020598330568
 20
13.34507840510605
 30
0.0
 40
2.094094064112822
100
AcDbArc
 50
35.02348436039887
 51
57.69304655109493
  0
LINE
  5
8E
330
2
100
AcDbEntity
  8
0
100
AcDbLine
 10
33.53509495718522
 20
14.54690441440067
 30
0.0
 11
33.54709841673456
 21
14.52901788289023
 31
0.0
  0
ARC
  5
8F
330
2
100
AcDbEntity
  8
0
100
AcDbCircle
 10
33.9758206602
 20
14.82947438520528
 30
0.0
 40
0.5235235160280796
100
AcDbArc
 50
215.0234843603989
 51
237.6930465510949
  0
LINE
  5
90
330
2
100
AcDbEntity
  8
0
100
AcDbLine
 10
33.69602093769926
 20
14.38699389170591
 30
0.0
 11
34.23398723155873
 21
14.03517823746335
 31
0.0
  0
LINE
  5
91
330
2
100
AcDbEntity
  8
0
100
AcDbLine
 10
33.66413790743022
 20
13.54167424643851
 30
0.0
 11
33.12617161357064
 21
13.89348990068117
 31
0.0
  0
ARC
  5
92
330
2
100
AcDbEntity
  8
0
100
AcDbCircle
 10
32.74498971080292
 20
13.30732479958389
 30
0.0
 40
0.6992060988981713
100
AcDbArc
 50
56.96413735990797
 51
75.62988647090572
  0
LINE
  5
93
330
2
100
AcDbEntity
  8
0
100
AcDbLine
 10
32.91852191328473
 20
13.98465466268308
 30
0.0
 11
32.89331240652797
 21
13.99110442183057
 31
0.0
  0
ARC
  5
94
330
2
100
AcDbEntity
  8
0
100
AcDbCircle
 10
33.58744121643736
 20
16.70042387420966
 30
0.0
 40
2.796824395593173
100
AcDbArc
 50
236.9641373600024
 51
255.6298864709054
  0
LINE
  5
95
330
2
100
AcDbEntity
  8
0
100
AcDbLine
 10
32.06271360540153
 20
14.35576346980304
 30
0.0
 11
31.31611588800821
 21
14.84401852855656
 31
0.0
  0
ARC
  5
96
330
2
100
AcDbEntity
  8
0
100
AcDbCircle
 10
30.86901448376221
 20
15.86653372822172
 30
0.0
 40
1.069279500063066
100
AcDbArc
 50
315.6185138918069
 51
349.0309109471953
  0
ARC
  5
97
330
2
100
AcDbEntity
  8
0
100
AcDbCircle
 10
30.84658806359357
 20
15.87698917207594
 30
0.0
 40
1.06927950006314
100
AcDbArc
 50
315.6185138918069
 51
349.0309109471953
  0
LWPOLYLINE
  5
98
330
2
100
AcDbEntity
  8
0
100
AcDbPolyline
 90
        9
 70
   128
 43
0.0
 10
31.01964053964909
 20
14.91429042043356
 10
31.01090603477474
 20
14.84875507070866
 10
31.01092988046159
 20
14.79303246988616
 10
31.01971116032197
 20
14.74926400626051
 10
31.0369124147233
 20
14.71913167734249
 10
31.06187260910435
 20
14.70379345164056
 10
31.09363253717333
 20
14.70383876854864
 10
31.13097168272549
 20
14.7192658865895
 10
31.17245512330927
 20
14.74948195023689
  0
LINE
  5
99
330
2
100
AcDbEntity
  8
0
100
AcDbLine
 10
31.0237314770585
 20
14.93615234668701
 30
0.0
 11
31.01964053964909
 21
14.91429042043356
 31
0.0
  0
LINE
  5
9A
330
2
100
AcDbEntity
  8
0
100
AcDbLine
 10
31.90042274494847
 20
15.69538925595181
 30
0.0
 11
31.89633180753907
 21
15.67352732969836
 31
0.0
  0
LINE
  5
9B
330
2
100
AcDbEntity
  8
0
100
AcDbLine
 10
31.17245512330927
 20
14.74948195023689
 30
0.0
 11
31.6108007572543
 21
15.12910040487813
 31
0.0
  0
LWPOLYLINE
  5
9C
330
2
100
AcDbEntity
  8
0
100
AcDbPolyline
 90
        9
 70
   128
 43
0.0
 10
32.0236549428453
 20
15.71387648823588
 10
32.0076021583005
 20
15.7224585687612
 10
31.99107537643693
 20
15.7276094377136
 10
31.97485809866041
 20
15.72908490277025
 10
31.95971915347526
 20
15.72681501510171
 10
31.94637624776493
 20
15.7209073855278
 10
31.93546194180745
 20
15.71164208284049
 10
31.92749366087542
 20
15.6994583563844
 10
31.92284916511721
 20
15.68493381209748
  0
LWPOLYLINE
  5
9D
330
2
100
AcDbEntity
  8
0
100
AcDbPolyline
 90
        9
 70
   128
 43
0.0
 10
32.03147025600207
 20
15.73301473492119
 10
32.0106016361045
 20
15.74417143961443
 10
31.98911681966961
 20
15.75086756925974
 10
31.96803435857046
 20
15.75278567384383
 10
31.948353729807
 20
15.74983481988011
 10
31.93100795239411
 20
15.74215490141475
 10
31.91681935464057
 20
15.73011000791054
 10
31.9064605894414
 20
15.71427116352826
 10
31.90042274494847
 20
15.69538925595181
  0
LINE
  5
9E
330
2
100
AcDbEntity
  8
0
100
AcDbLine
 10
31.92284916511721
 20
15.68493381209748
 30
0.0
 11
31.9187582277077
 21
15.66307188584413
 31
0.0
  0
LINE
  5
9F
330
2
100
AcDbEntity
  8
0
100
AcDbLine
 10
32.94722018644833
 20
15.13413862578831
 30
0.0
 11
32.03147025600207
 21
15.73301473492119
 31
0.0
  0
ARC
  5
A0
330
2
100
AcDbEntity
  8
0
100
AcDbCircle
 10
31.09241871722411
 20
14.92485681630081
 30
0.0
 40
0.0696098123005496
100
AcDbArc
 50
131.4912298235055
 51
170.6613651516957
  0
LINE
  5
A1
330
2
100
AcDbEntity
  8
0
100
AcDbLine
 10
31.19488154347791
 20
14.73902650638267
 30
0.0
 11
31.63322717742283
 21
15.1186449610238
 31
0.0
  0
ARC
  5
A2
330
2
100
AcDbEntity
  8
0
100
AcDbCircle
 10
31.82802129644492
 20
13.36421665179114
 30
0.0
 40
2.094094064112989
100
AcDbArc
 50
35.02348436039887
 51
57.69304655109493
  0
ARC
  5
A3
330
2
100
AcDbEntity
  8
0
100
AcDbCircle
 10
34.33512617420154
 20
14.19617810665702
 30
0.0
 40
0.1698058295821935
100
AcDbArc
 50
236.661092581801
 51
249.1503439897935
  0
LINE
  5
A4
330
2
100
AcDbEntity
  8
0
100
AcDbLine
 10
34.27468939176393
 20
14.03749157575698
 30
0.0
 11
35.14457141821402
 21
13.70924586826326
 31
0.0
  0
ARC
  5
A5
330
2
100
AcDbEntity
  8
0
100
AcDbCircle
 10
34.36368691966635
 20
11.7134935272192
 30
0.0
 40
2.143083761032177
100
AcDbArc
 50
40.57738586982408
 51
68.63092307740278
  0
ARC
  5
A6
330
2
100
AcDbEntity
  8
0
100
AcDbCircle
 10
34.37331612213552
 20
11.72126056966714
 30
0.0
 40
2.111021493525146
100
AcDbArc
 50
40.75484759111055
 51
68.62970744750412
  0
LINE
  5
A7
330
2
100
AcDbEntity
  8
0
100
AcDbLine
 10
34.27267763986018
 20
14.01538422756809
 30
0.0
 11
35.14255966629284
 21
13.68713852007449
 31
0.0
  0
ARC
  5
A8
330
2
100
AcDbEntity
  8
0
100
AcDbCircle
 10
34.34377973683635
 20
14.20207426391903
 30
0.0
 40
0.1997715642143987
100
AcDbArc
 50
236.661092581801
 51
249.1503439897935
  0
LINE
  5
A9
330
2
100
AcDbEntity
  8
0
100
AcDbLine
 10
33.70383625085603
 20
14.40613213840869
 30
0.0
 11
34.24180254469797
 21
14.05431648414844
 31
0.0
  0
LINE
  5
AA
330
2
100
AcDbEntity
  8
0
100
AcDbLine
 10
32.68789625803825
 20
14.87064443105146
 30
0.0
 11
32.70801784886815
 21
14.89505198668008
 31
0.0
  0
ARC
  5
AB
330
2
100
AcDbEntity
  8
0
100
AcDbCircle
 10
33.98363597335687
 20
14.84861263190806
 30
0.0
 40
0.5235235160281074
100
AcDbArc
 50
215.0234843602949
 51
237.6930465510949
  0
LWPOLYLINE
  5
AC
330
2
100
AcDbEntity
  8
0
100
AcDbPolyline
 90
        5
 70
   128
 43
0.0
 10
31.19488154347791
 20
14.73902650638267
 10
31.1533981028766
 20
14.7088104427177
 10
31.11605895734208
 20
14.6933833246943
 10
31.08429902927293
 20
14.69333800778634
 10
31.07601844892397
 20
14.69635343569029
  0
LINE
  5
AD
330
2
100
AcDbEntity
  8
0
100
AcDbLine
 10
33.54291027032445
 20
14.56604266108598
 30
0.0
 11
33.55491372987378
 21
14.54815612957553
 31
0.0
  0
LINE
  5
AE
330
2
100
AcDbEntity
  8
0
100
AcDbLine
 10
34.57271034216439
 20
13.19363452904966
 30
0.0
 11
33.70282831573172
 21
13.52188023654337
 31
0.0
  0
ARC
  5
AF
330
2
100
AcDbEntity
  8
0
100
AcDbCircle
 10
33.77393041270784
 20
13.7085702728944
 30
0.0
 40
0.1997715642158068
100
AcDbArc
 50
236.6610925819049
 51
249.1503439897935
  0
LINE
  5
B0
330
2
100
AcDbEntity
  8
0
100
AcDbLine
 10
32.80894097978804
 20
14.32508500900542
 30
0.0
 11
32.82906257060036
 21
14.34949256463403
 31
0.0
  0
ARC
  5
B1
330
2
100
AcDbEntity
  8
0
100
AcDbCircle
 10
33.80989166894141
 20
11.24001071471643
 30
0.0
 40
2.097269256948994
100
AcDbArc
 50
43.43807867209598
 51
68.67117243010135
  0
LWPOLYLINE
  5
B2
330
2
100
AcDbEntity
  8
0
100
AcDbPolyline
 90
       17
 70
   128
 43
0.0
 10
50.73199448382897
 20
14.58577326610862
 10
50.78750260886565
 20
14.55833006125339
 10
50.86170256921865
 20
14.5528152724779
 10
50.94329809353991
 20
14.57006847637767
 10
51.01986700294059
 20
14.60746302902825
 10
51.07975237506312
 20
14.65930594882374
 10
51.11383720484337
 20
14.71770462114367
 10
51.1169323859308
 20
14.77376837751848
 10
51.08856670507972
 20
14.81896201927726
 10
51.03305858006046
 20
14.84640522413247
 10
50.95885861970747
 20
14.85192001290807
 10
50.87726309536873
 20
14.83466680902578
 10
50.80069418596806
 20
14.79727225635762
 10
50.74080881386306
 20
14.74542933656222
 10
50.7067239840828
 20
14.6870306642422
 10
50.70362880297786
 20
14.6309669078675
 10
50.73199448382897
 20
14.58577326610862
  0
LWPOLYLINE
  5
B3
330
2
100
AcDbEntity
  8
0
100
AcDbPolyline
 90
       17
 70
   128
 43
0.0
 10
50.85303920557883
 20
15.13133268815465
 10
50.90854733059797
 20
15.10388948329944
 10
50.98274729095098
 20
15.09837469452395
 10
51.0643428152897
 20
15.11562789840613
 10
51.14091172469038
 20
15.1530224510743
 10
51.20079709679544
 20
15.20486537086969
 10
51.23488192657564
 20
15.26326404318971
 10
51.2379771076806
 20
15.31932779956441
 10
51.20961142682945
 20
15.36452144132331
 10
51.15410330179279
 20
15.39196464617852
 10
51.07990334145721
 20
15.39747943495401
 10
50.99830781711854
 20
15.38022623107172
 10
50.92173890771785
 20
15.34283167840366
 10
50.86185353559532
 20
15.29098875860806
 10
50.82776870581507
 20
15.23259008628824
 10
50.82467352472769
 20
15.17652632991343
 10
50.85303920557883
 20
15.13133268815465
  0
LWPOLYLINE
  5
B4
330
2
100
AcDbEntity
  8
0
100
AcDbPolyline
 90
       17
 70
   128
 43
0.0
 10
49.99726587457382
 20
14.57167968056017
 10
50.05277399959286
 20
14.54423647570506
 10
50.12697395994596
 20
14.53872168692947
 10
50.20856948428463
 20
14.55597489081176
 10
50.28513839368526
 20
14.59336944347982
 10
50.34502376579031
 20
14.64521236325784
 10
50.37910859557062
 20
14.70361103557786
 10
50.38220377667546
 20
14.75967479197005
 10
50.35383809582445
 20
14.80486843372893
 10
50.29832997078766
 20
14.83231163856646
 10
50.2241300104522
 20
14.83782642735963
 10
50.14253448611341
 20
14.82057322345987
 10
50.06596557671273
 20
14.78317867079181
 10
50.00608020459019
 20
14.73133575101379
 10
49.97199537480995
 20
14.67293707869376
 10
49.96890019372257
 20
14.61687332230159
 10
49.99726587457382
 20
14.57167968056017
  0
LINE
  5
B5
330
2
100
AcDbEntity
  8
0
100
AcDbLine
 10
51.04251987956493
 20
14.35576346980304
 30
0.0
 11
51.7891175969406
 21
14.84401852855656
 31
0.0
  0
ARC
  5
B6
330
2
100
AcDbEntity
  8
0
100
AcDbCircle
 10
49.5177922685291
 20
16.70042387420966
 30
0.0
 40
2.796824395593326
100
AcDbArc
 50
284.3701135290944
 51
303.0358626399975
  0
LINE
  5
B7
330
2
100
AcDbEntity
  8
0
100
AcDbLine
 10
50.21192107843838
 20
13.99110442183057
 30
0.0
 11
50.18671157168173
 21
13.98465466268308
 31
0.0
  0
ARC
  5
B8
330
2
100
AcDbEntity
  8
0
100
AcDbCircle
 10
50.3602437741459
 20
13.30732479958389
 30
0.0
 40
0.6992060988982419
100
AcDbArc
 50
104.3701135290943
 51
123.0358626400035
  0
LINE
  5
B9
330
2
100
AcDbEntity
  8
0
100
AcDbLine
 10
49.97906187139571
 20
13.89348990068117
 30
0.0
 11
49.44109557753613
 21
13.54167424643851
 31
0.0
  0
LINE
  5
BA
330
2
100
AcDbEntity
  8
0
100
AcDbLine
 10
48.87124625340762
 20
14.03517823746335
 30
0.0
 11
49.4092125472672
 21
14.38699389170591
 31
0.0
  0
ARC
  5
BB
330
2
100
AcDbEntity
  8
0
100
AcDbCircle
 10
49.12941282476635
 20
14.82947438520528
 30
0.0
 40
0.5235235160278543
100
AcDbArc
 50
302.3069534489051
 51
324.976515639705
  0
LINE
  5
BC
330
2
100
AcDbEntity
  8
0
100
AcDbLine
 10
49.5581350682319
 20
14.52901788289023
 30
0.0
 11
49.57013852778125
 21
14.54690441440067
 31
0.0
  0
ARC
  5
BD
330
2
100
AcDbEntity
  8
0
100
AcDbCircle
 10
51.28502750166078
 20
13.34507840510605
 30
0.0
 40
2.094094064112827
100
AcDbArc
 50
122.306953448905
 51
144.9765156396011
  0
LINE
  5
BE
330
2
100
AcDbEntity
  8
0
100
AcDbLine
 10
50.16582861167494
 20
15.11500037908553
 30
0.0
 11
51.08157854212116
 21
15.71387648823588
 31
0.0
  0
ARC
  5
BF
330
2
100
AcDbEntity
  8
0
100
AcDbCircle
 10
52.23621900118673
 20
15.86653372822172
 30
0.0
 40
1.06927950006325
100
AcDbArc
 50
190.9690890528047
 51
224.381486108193
  0
ARC
  5
C0
330
2
100
AcDbEntity
  8
0
100
AcDbCircle
 10
52.25864542135525
 20
15.87698917207594
 30
0.0
 40
1.069279500063179
100
AcDbArc
 50
190.9690890528047
 51
224.381486108193
  0
LINE
  5
C1
330
2
100
AcDbEntity
  8
0
100
AcDbLine
 10
51.20481074001782
 20
15.69538925595181
 30
0.0
 11
51.20890167740965
 21
15.67352732969836
 31
0.0
  0
LINE
  5
C2
330
2
100
AcDbEntity
  8
0
100
AcDbLine
 10
52.08150200790782
 20
14.93615234668701
 30
0.0
 11
52.08559294529974
 21
14.91429042043356
 31
0.0
  0
LWPOLYLINE
  5
C3
330
2
100
AcDbEntity
  8
0
100
AcDbPolyline
 90
        9
 70
   128
 43
0.0
 10
51.93277836165709
 20
14.74948195023689
 10
51.97426180224086
 20
14.7192658865895
 10
52.01160094779297
 20
14.70383876854864
 10
52.04336087586201
 20
14.70379345164056
 10
52.06832107022545
 20
14.71913167734249
 10
52.08552232462697
 20
14.74926400626051
 10
52.09430360450476
 20
14.79303246988616
 10
52.09432745019171
 20
14.84875507070866
 10
52.08559294529974
 20
14.91429042043356
  0
LINE
  5
C4
330
2
100
AcDbEntity
  8
0
100
AcDbLine
 10
51.49443272771211
 20
15.12910040487813
 30
0.0
 11
51.93277836165709
 21
14.74948195023689
 31
0.0
  0
LWPOLYLINE
  5
C5
330
2
100
AcDbEntity
  8
0
100
AcDbPolyline
 90
        9
 70
   128
 43
0.0
 10
51.07376322896429
 20
15.73301473492119
 10
51.09463184886196
 20
15.74417143961443
 10
51.11611666529679
 20
15.75086756925974
 10
51.13719912639588
 20
15.75278567384383
 10
51.15687975514194
 20
15.74983481988011
 10
51.17422553257219
 20
15.74215490141475
 10
51.18841413030817
 20
15.73011000791054
 10
51.19877289552505
 20
15.71427116352826
 10
51.20481074001782
 20
15.69538925595181
  0
LWPOLYLINE
  5
C6
330
2
100
AcDbEntity
  8
0
100
AcDbPolyline
 90
        9
 70
   128
 43
0.0
 10
51.08157854212116
 20
15.71387648823588
 10
51.09763132664822
 20
15.7224585687612
 10
51.11415810852932
 20
15.7276094377136
 10
51.13037538630606
 20
15.72908490277025
 10
51.1455143314912
 20
15.72681501510171
 10
51.15885723720142
 20
15.7209073855278
 10
51.169771543159
 20
15.71164208284049
 10
51.17773982409083
 20
15.6994583563844
 10
51.18238431984925
 20
15.68493381209748
  0
LINE
  5
C7
330
2
100
AcDbEntity
  8
0
100
AcDbLine
 10
51.18238431984925
 20
15.68493381209748
 30
0.0
 11
51.18647525724112
 21
15.66307188584413
 31
0.0
  0
LINE
  5
C8
330
2
100
AcDbEntity
  8
0
100
AcDbLine
 10
50.15801329851802
 20
15.13413862578831
 30
0.0
 11
51.07376322896429
 21
15.73301473492119
 31
0.0
  0
ARC
  5
C9
330
2
100
AcDbEntity
  8
0
100
AcDbCircle
 10
52.01281476774229
 20
14.92485681630081
 30
0.0
 40
0.0696098123009065
100
AcDbArc
 50
9.338634848403341
 51
48.50877017640637
  0
LINE
  5
CA
330
2
100
AcDbEntity
  8
0
100
AcDbLine
 10
51.47200630754341
 20
15.1186449610238
 30
0.0
 11
51.91035194148856
 21
14.73902650638267
 31
0.0
  0
ARC
  5
CB
330
2
100
AcDbEntity
  8
0
100
AcDbCircle
 10
51.27721218852133
 20
13.36421665179114
 30
0.0
 40
2.09409406411334
100
AcDbArc
 50
122.306953448905
 51
144.9765156396011
  0
ARC
  5
CC
330
2
100
AcDbEntity
  8
0
100
AcDbCircle
 10
48.76145374813001
 20
14.20207426391903
 30
0.0
 40
0.1997715642133947
100
AcDbArc
 50
290.8496560102065
 51
303.338907418199
  0
LINE
  5
CD
330
2
100
AcDbEntity
  8
0
100
AcDbLine
 10
47.96267381865597
 20
13.68713852007449
 30
0.0
 11
48.83255584510617
 21
14.01538422756809
 31
0.0
  0
ARC
  5
CE
330
2
100
AcDbEntity
  8
0
100
AcDbCircle
 10
48.73191736283094
 20
11.72126056966714
 30
0.0
 40
2.111021493524517
100
AcDbArc
 50
111.3702925524959
 51
139.2451524088895
  0
ARC
  5
CF
330
2
100
AcDbEntity
  8
0
100
AcDbCircle
 10
48.7415465653
 20
11.7134935272192
 30
0.0
 40
2.143083761032254
100
AcDbArc
 50
111.3690769225972
 51
139.1612078133029
  0
LINE
  5
D0
330
2
100
AcDbEntity
  8
0
100
AcDbLine
 10
47.96066206675223
 20
13.70924586826326
 30
0.0
 11
48.83054409318489
 21
14.03749157575698
 31
0.0
  0
ARC
  5
D1
330
2
100
AcDbEntity
  8
0
100
AcDbCircle
 10
48.77010731076483
 20
14.19617810665702
 30
0.0
 40
0.1698058295814519
100
AcDbArc
 50
290.8496560101006
 51
303.338907418199
  0
LINE
  5
D2
330
2
100
AcDbEntity
  8
0
100
AcDbLine
 10
48.86343094025075
 20
14.05431648414844
 30
0.0
 11
49.40139723411042
 21
14.40613213840869
 31
0.0
  0
ARC
  5
D3
330
2
100
AcDbEntity
  8
0
100
AcDbCircle
 10
49.12159751160948
 20
14.84861263190806
 30
0.0
 40
0.523523516028674
100
AcDbArc
 50
302.3069534489051
 51
324.9765156396011
  0
LWPOLYLINE
  5
D4
330
2
100
AcDbEntity
  8
0
100
AcDbPolyline
 90
        5
 70
   128
 43
0.0
 10
52.02921503604227
 20
14.69635343569029
 10
52.02093445569332
 20
14.69333800778634
 10
51.98917452762439
 20
14.6933833246943
 10
51.95183538207233
 20
14.7088104427177
 10
51.91035194148856
 20
14.73902650638267
  0
LINE
  5
D5
330
2
100
AcDbEntity
  8
0
100
AcDbLine
 10
49.55031975509245
 20
14.54815612957553
 30
0.0
 11
49.56232321462437
 21
14.56604266108598
 31
0.0
  0
LINE
  5
D6
330
2
100
AcDbEntity
  8
0
100
AcDbLine
 10
49.40240516923467
 20
13.52188023654337
 30
0.0
 11
48.53252314278454
 21
13.19363452904966
 31
0.0
  0
ARC
  5
D7
330
2
100
AcDbEntity
  8
0
100
AcDbCircle
 10
49.33130307225862
 20
13.7085702728944
 30
0.0
 40
0.199771564214681
100
AcDbArc
 50
290.8496560102065
 51
303.338907418199
  0
ARC
  5
D8
330
2
100
AcDbEntity
  8
0
100
AcDbCircle
 10
49.29534181600731
 20
11.24001071471643
 30
0.0
 40
2.097269256948793
100
AcDbArc
 50
111.3288275698986
 51
136.5619213279039
  0
LWPOLYLINE
  5
D9
330
2
100
AcDbEntity
  8
0
100
AcDbPolyline
 90
       17
 70
   128
 43
0.0
 10
41.85945868623589
 20
6.81119765094204
 10
41.77558488036559
 20
6.808319846313751
 10
41.7044801011174
 20
6.800124552069386
 10
41.65696940655897
 20
6.787859427476788
 10
41.64028586926339
 20
6.773391726589178
 10
41.65696940655897
 20
6.758924025684194
 10
41.7044801011174
 20
6.746658901109075
 10
41.77558488036559
 20
6.738463606864708
 10
41.85945868623589
 20
6.735585802218838
 10
41.9433324921237
 20
6.738463606864708
 10
42.01443727137184
 20
6.746658901109075
 10
42.06194796593027
 20
6.758924025684194
 10
42.07863150320841
 20
6.773391726589178
 10
42.06194796593027
 20
6.787859427476788
 10
42.01443727137184
 20
6.800124552069386
 10
41.9433324921237
 20
6.808319846313751
 10
41.85945868623589
 20
6.81119765094204
  0
LINE
  5
DA
330
2
100
AcDbEntity
  8
0
100
AcDbLine
 10
40.67592547458448
 20
6.843434161569813
 30
0.0
 11
40.67592547458448
 21
6.702316588781366
 31
0.0
  0
LINE
  5
DB
330
2
100
AcDbEntity
  8
0
100
AcDbLine
 10
42.42930801036444
 20
6.843434161569813
 30
0.0
 11
42.42930801036444
 21
6.702316588781366
 31
0.0
  0
ARC
  5
DC
330
2
100
AcDbEntity
  8
0
100
AcDbCircle
 10
42.00369909624941
 20
6.574217129435567
 30
0.0
 40
0.4258245013195075
100
AcDbArc
 50
268.2859860207051
 51
358.1767252639035
  0
LINE
  5
DD
330
2
100
AcDbEntity
  8
0
100
AcDbLine
 10
41.99096237641937
 20
6.148583153014182
 30
0.0
 11
41.11427110852939
 21
6.148583153014182
 31
0.0
  0
ARC
  5
DE
330
2
100
AcDbEntity
  8
0
100
AcDbCircle
 10
41.10153438871703
 20
6.574217129435567
 30
0.0
 40
0.4258245013195181
100
AcDbArc
 50
181.8232747360965
 51
271.7140139792949
  0
LINE
  5
DF
330
2
100
AcDbEntity
  8
0
100
AcDbLine
 10
40.67592547458448
 20
6.586073548291578
 30
0.0
 11
40.67592547458448
 21
6.560668766322368
 31
0.0
  0
LINE
  5
E0
330
2
100
AcDbEntity
  8
0
100
AcDbLine
 10
42.42930801036444
 20
6.586073548291578
 30
0.0
 11
42.42930801036444
 21
6.560668766322368
 31
0.0
  0
LINE
  5
E1
330
2
100
AcDbEntity
  8
0
100
AcDbLine
 10
40.67592547458448
 20
6.702316588781366
 30
0.0
 11
40.67592547458448
 21
6.586073548291578
 31
0.0
  0
LINE
  5
E2
330
2
100
AcDbEntity
  8
0
100
AcDbLine
 10
42.42930801036444
 20
6.702316588781366
 30
0.0
 11
42.42930801036444
 21
6.586073548291578
 31
0.0
  0
LINE
  5
E3
330
2
100
AcDbEntity
  8
0
100
AcDbLine
 10
42.00024271918382
 20
22.82852589874984
 30
0.0
 11
42.00024271918382
 21
16.74975248539762
 31
0.0
  0
LINE
  5
E4
330
2
100
AcDbEntity
  8
0
100
AcDbLine
 10
42.26325009955079
 20
16.73747362139671
 30
0.0
 11
42.26325009955079
 21
22.60075482596508
 31
0.0
  0
ARC
  5
E5
330
2
100
AcDbEntity
  8
0
100
AcDbCircle
 10
41.83142008718422
 20
22.62591191466706
 30
0.0
 40
0.4325621789798238
100
AcDbArc
 50
356.6658924962008
 51
73.03118074249295
  0
LINE
  5
E6
330
2
100
AcDbEntity
  8
0
100
AcDbLine
 10
41.80618089702889
 20
23.22256443496873
 30
0.0
 11
41.81912059450544
 21
23.21183207416794
 31
0.0
  0
ARC
  5
E7
330
2
100
AcDbEntity
  8
0
100
AcDbCircle
 10
41.54431759494409
 20
22.84643046960326
 30
0.0
 40
0.4562765527282125
100
AcDbArc
 50
357.7511011825993
 51
47.59820542870313
  0
LINE
  5
E8
330
2
100
AcDbEntity
  8
0
100
AcDbLine
 10
43.44321448896072
 20
22.58707064724341
 30
0.0
 11
43.44321448896072
 21
16.60691319685492
 31
0.0
  0
LINE
  5
E9
330
2
100
AcDbEntity
  8
0
100
AcDbLine
 10
43.70622186932769
 20
16.56296845153364
 30
0.0
 11
43.70622186932769
 21
22.35929957445865
 31
0.0
  0
ARC
  5
EA
330
2
100
AcDbEntity
  8
0
100
AcDbCircle
 10
43.27439185697866
 20
22.38445666316064
 30
0.0
 40
0.432562178979849
100
AcDbArc
 50
356.6658924962008
 51
73.03118074249295
  0
LINE
  5
EB
330
2
100
AcDbEntity
  8
0
100
AcDbLine
 10
43.24915266682331
 20
22.98110918346232
 30
0.0
 11
43.26209236428234
 21
22.97037682266152
 31
0.0
  0
ARC
  5
EC
330
2
100
AcDbEntity
  8
0
100
AcDbCircle
 10
42.98728936472098
 20
22.60497521809683
 30
0.0
 40
0.4562765527279898
100
AcDbArc
 50
357.7511011825993
 51
47.59820542870313
  0
LINE
  5
ED
330
2
100
AcDbEntity
  8
0
100
AcDbLine
 10
45.67241810202658
 20
16.44806991082145
 30
0.0
 11
45.67241810202658
 21
16.00825207649532
 31
0.0
  0
ARC
  5
EE
330
2
100
AcDbEntity
  8
0
100
AcDbCircle
 10
45.64378618795694
 20
16.00527787690942
 30
0.0
 40
0.0287859751702475
100
AcDbArc
 50
320.5016421888989
 51
5.930448480802318
  0
LINE
  5
EF
330
2
100
AcDbEntity
  8
0
100
AcDbLine
 10
45.65067735884331
 20
15.97369972937214
 30
0.0
 11
45.66599867883408
 21
15.98696838169897
 31
0.0
  0
LINE
  5
F0
330
2
100
AcDbEntity
  8
0
100
AcDbLine
 10
45.3283934980014
 20
21.85315222641959
 30
0.0
 11
45.67241810202658
 21
16.44806991082145
 31
0.0
  0
LINE
  5
F1
330
2
100
AcDbEntity
  8
0
100
AcDbLine
 10
45.93542548239357
 20
15.83747278155684
 30
0.0
 11
45.93542548239357
 21
16.22029883803679
 31
0.0
  0
ARC
  5
F2
330
2
100
AcDbEntity
  8
0
100
AcDbCircle
 10
45.16539173508678
 20
21.61837775425547
 30
0.0
 40
0.4260667057584838
100
AcDbArc
 50
0.9418320962970463
 51
73.41635011499682
  0
LINE
  5
F3
330
2
100
AcDbEntity
  8
0
100
AcDbLine
 10
45.93542548239357
 20
16.22029883803679
 30
0.0
 11
45.59140087836839
 21
21.6253811536524
 31
0.0
  0
LINE
  5
F4
330
2
100
AcDbEntity
  8
0
100
AcDbLine
 10
45.13414864231252
 20
22.21072402792676
 30
0.0
 11
45.14845421675397
 21
22.19891194157738
 31
0.0
  0
ARC
  5
F5
330
2
100
AcDbEntity
  8
0
100
AcDbCircle
 10
44.88344207471092
 20
21.83964308631604
 30
0.0
 40
0.4451564510944641
100
AcDbArc
 50
1.739019088000278
 51
47.99649121569454
  0
ELLIPSE
  5
F6
330
2
100
AcDbEntity
  8
0
100
AcDbEllipse
 10
46.72229805954567
 20
14.96061043783363
 30
0.0
 11
0.0654549711454364
 21
0.0299031200459563
 31
0.0
210
0.0
220
0.0
230
1.0
 40
0.2087121525
 41
5.324686820454131
 42
5.664523729907375
  0
LINE
  5
F7
330
2
100
AcDbEntity
  8
0
100
AcDbLine
 10
46.71133941869731
 20
14.95111997647425
 30
0.0
 11
46.76502557539591
 21
14.966617834979
 31
0.0
  0
LINE
  5
F8
330
2
100
AcDbEntity
  8
0
100
AcDbLine
 10
46.71133941869731
 20
14.95111997647425
 30
0.0
 11
46.6667995638406
 21
14.93826242787992
 31
0.0
  0
LINE
  5
F9
330
2
100
AcDbEntity
  8
0
100
AcDbLine
 10
46.81211675028365
 20
15.46106192877189
 30
0.0
 11
46.81211675028365
 21
15.02124409444587
 31
0.0
  0
ARC
  5
FA
330
2
100
AcDbEntity
  8
0
100
AcDbCircle
 10
46.7834848362139
 20
15.01826989485975
 30
0.0
 40
0.0287859751703166
100
AcDbArc
 50
320.5016421888989
 51
5.930448480802318
  0
LINE
  5
FB
330
2
100
AcDbEntity
  8
0
100
AcDbLine
 10
46.77924082773778
 20
14.97704839910654
 30
0.0
 11
46.80569732709116
 21
14.99996039964951
 31
0.0
  0
LINE
  5
FC
330
2
100
AcDbEntity
  8
0
100
AcDbLine
 10
46.46809214625836
 20
20.86614424437001
 30
0.0
 11
46.81211675028365
 21
15.46106192877189
 31
0.0
  0
LINE
  5
FD
330
2
100
AcDbEntity
  8
0
100
AcDbLine
 10
47.0815435538255
 20
14.76107055975886
 30
0.0
 11
47.09265795600837
 21
14.73219449586784
 31
0.0
  0
ARC
  5
FE
330
2
100
AcDbEntity
  8
0
100
AcDbCircle
 10
47.16822322689607
 20
14.79508025234577
 30
0.0
 40
0.09311296854789
100
AcDbArc
 50
180.9890363252073
 51
201.4230884660908
  0
LINE
  5
FF
330
2
100
AcDbEntity
  8
0
100
AcDbLine
 10
47.07512413065064
 20
14.7934730216611
 30
0.0
 11
47.07512413065064
 21
15.23329085598722
 31
0.0
  0
ARC
  5
100
330
2
100
AcDbEntity
  8
0
100
AcDbCircle
 10
46.30509038334374
 20
20.6313697722059
 30
0.0
 40
0.4260667057587574
100
AcDbArc
 50
0.9418320962970463
 51
73.41635011390588
  0
LINE
  5
101
330
2
100
AcDbEntity
  8
0
100
AcDbLine
 10
47.07512413065064
 20
15.23329085598722
 30
0.0
 11
46.73109952662534
 21
20.63837317160293
 31
0.0
  0
LINE
  5
102
330
2
100
AcDbEntity
  8
0
100
AcDbLine
 10
46.76397544917122
 20
20.60990178750701
 30
0.0
 11
46.73109952662534
 21
20.63837317160293
 31
0.0
  0
LINE
  5
103
330
2
100
AcDbEntity
  8
0
100
AcDbLine
 10
46.27384729056949
 20
21.2237160458772
 30
0.0
 11
46.28815286501106
 21
21.21190395952781
 31
0.0
  0
ARC
  5
104
330
2
100
AcDbEntity
  8
0
100
AcDbCircle
 10
46.02314072296787
 20
20.85263510426638
 30
0.0
 40
0.4451564510944445
100
AcDbArc
 50
1.739019088000278
 51
47.99649121569454
  0
LINE
  5
105
330
2
100
AcDbEntity
  8
0
100
AcDbLine
 10
46.2422674261551
 20
15.95456591979673
 30
0.0
 11
46.2422674261551
 21
15.5147480854706
 31
0.0
  0
ARC
  5
106
330
2
100
AcDbEntity
  8
0
100
AcDbCircle
 10
46.21363551208554
 20
15.51177388588459
 30
0.0
 40
0.0287859751703639
100
AcDbArc
 50
320.5016421888989
 51
5.930448480704083
  0
LINE
  5
107
330
2
100
AcDbEntity
  8
0
100
AcDbLine
 10
46.22569212800378
 20
15.48466914496424
 30
0.0
 11
46.23584800296265
 21
15.49346439067435
 31
0.0
  0
LINE
  5
108
330
2
100
AcDbEntity
  8
0
100
AcDbLine
 10
45.89824282212981
 20
21.35964823539485
 30
0.0
 11
46.2422674261551
 21
15.95456591979673
 31
0.0
  0
ELLIPSE
  5
109
330
2
100
AcDbEntity
  8
0
100
AcDbEllipse
 10
46.48120796087621
 20
15.16940058788195
 30
0.0
 11
-0.0381324753033744
 21
0.0834682155859261
 31
0.0
210
0.0
220
0.0
230
1.0
 40
0.6417424304999999
 41
4.277489269257396
 42
4.61732617871148
  0
LINE
  5
10A
330
2
100
AcDbEntity
  8
0
100
AcDbLine
 10
46.51169422969693
 20
15.25457455078347
 30
0.0
 11
46.53815072906795
 21
15.18583854915486
 31
0.0
  0
ARC
  5
10B
330
2
100
AcDbEntity
  8
0
100
AcDbCircle
 10
46.59837390276753
 20
15.2885842433705
 30
0.0
 40
0.0931129685478113
100
AcDbArc
 50
180.9890363252073
 51
201.4230884660908
  0
LINE
  5
10C
330
2
100
AcDbEntity
  8
0
100
AcDbLine
 10
46.50527480652208
 20
15.28697701268594
 30
0.0
 11
46.50527480652208
 21
15.72679484701196
 31
0.0
  0
LWPOLYLINE
  5
10D
330
2
100
AcDbEntity
  8
0
100
AcDbPolyline
 90
        9
 70
   128
 43
0.0
 10
46.51408388342208
 20
15.12194828104959
 10
46.52242271283955
 20
15.12480399926485
 10
46.52978766737766
 20
15.12826499719488
 10
46.53600471850676
 20
15.13224949395684
 10
46.54092696177136
 20
15.13666333874765
 10
46.54443808811904
 20
15.14140223560475
 10
46.54645513215196
 20
15.14635420783851
 10
46.54693043258482
 20
15.15140224388599
 10
46.54585275842348
 20
15.15642706229088
  0
ARC
  5
10E
330
2
100
AcDbEntity
  8
0
100
AcDbCircle
 10
45.73524105921534
 20
21.12487376323074
 30
0.0
 40
0.4260667057583318
100
AcDbArc
 50
0.9418320962970463
 51
73.41635011670359
  0
LINE
  5
10F
330
2
100
AcDbEntity
  8
0
100
AcDbLine
 10
46.50527480652208
 20
15.72679484701196
 30
0.0
 11
46.16125020249689
 21
21.13187716262756
 31
0.0
  0
LINE
  5
110
330
2
100
AcDbEntity
  8
0
100
AcDbLine
 10
46.51408388342208
 20
15.12194828104959
 30
0.0
 11
46.46954402856534
 21
15.10909073245536
 31
0.0
  0
LINE
  5
111
330
2
100
AcDbEntity
  8
0
100
AcDbLine
 10
45.70399796644093
 20
21.71722003690202
 30
0.0
 11
45.71830354088244
 21
21.70540795055254
 31
0.0
  0
ARC
  5
112
330
2
100
AcDbEntity
  8
0
100
AcDbCircle
 10
45.45329139883949
 20
21.3461390952912
 30
0.0
 40
0.4451564510944542
100
AcDbArc
 50
1.739019088000278
 51
47.99649121569454
  0
LINE
  5
113
330
2
100
AcDbEntity
  8
0
100
AcDbLine
 10
44.41925555956152
 20
22.21082411329881
 30
0.0
 11
44.41925555956152
 21
16.40277428616246
 31
0.0
  0
LINE
  5
114
330
2
100
AcDbEntity
  8
0
100
AcDbLine
 10
44.6822629399285
 20
16.32911392270949
 30
0.0
 11
44.6822629399285
 21
21.98305304051415
 31
0.0
  0
ARC
  5
115
330
2
100
AcDbEntity
  8
0
100
AcDbCircle
 10
44.25043292756193
 20
22.00821012921614
 30
0.0
 40
0.4325621789798904
100
AcDbArc
 50
356.6658924962008
 51
73.03118074249295
  0
LINE
  5
116
330
2
100
AcDbEntity
  8
0
100
AcDbLine
 10
44.22519373740648
 20
22.60486264951781
 30
0.0
 11
44.23813343488314
 21
22.59413028871712
 31
0.0
  0
ARC
  5
117
330
2
100
AcDbEntity
  8
0
100
AcDbCircle
 10
43.96333043532179
 20
22.22872868415233
 30
0.0
 40
0.4562765527280451
100
AcDbArc
 50
357.7511011825993
 51
47.59820542870313
  0
LINE
  5
118
330
2
100
AcDbEntity
  8
0
100
AcDbLine
 10
46.96166023644241
 20
17.62628883768946
 30
0.0
 11
46.96166023644241
 21
20.00903707641512
 31
0.0
  0
ARC
  5
119
330
2
100
AcDbEntity
  8
0
100
AcDbCircle
 10
46.51079227728911
 20
20.02793679430781
 30
0.0
 40
0.4512639093970688
100
AcDbArc
 50
357.5996509555052
 51
52.41445409170697
  0
LWPOLYLINE
  5
11A
330
2
100
AcDbEntity
  8
0
100
AcDbPolyline
 90
       25
 70
   128
 43
0.0
 10
36.9225932242974
 20
15.47585609491691
 10
37.22102391775307
 20
15.63552197375747
 10
37.54142653368875
 20
15.78416232323872
 10
37.88217583591694
 20
15.92102316798795
 10
38.24154338005143
 20
16.04541028396359
 10
38.61770628105045
 20
16.1566927198789
 10
39.0087564597157
 20
16.25430599770484
 10
39.41271032143261
 20
16.33775497594188
 10
39.82751881790512
 20
16.40661636120183
 10
40.25107784089016
 20
16.46054085543401
 10
40.68123889528357
 20
16.49925492766673
 10
41.11581999726869
 20
16.52256220147561
 10
41.55261674247446
 20
16.53034445118575
 10
41.98941348768006
 20
16.52256220147561
 10
42.42399458968288
 20
16.49925492766673
 10
42.85415564407624
 20
16.46054085543401
 10
43.27771466706128
 20
16.40661636120183
 10
43.69252316353363
 20
16.33775497594188
 10
44.09647702525076
 20
16.25430599770484
 10
44.4875272039159
 20
16.1566927198789
 10
44.86369010491501
 20
16.04541028396359
 10
45.22305764904929
 20
15.92102316798795
 10
45.56380695125997
 20
15.78416232323872
 10
45.88420956721317
 20
15.63552197375747
 10
46.18264026066906
 20
15.47585609491691
  0
LWPOLYLINE
  5
11B
330
2
100
AcDbEntity
  8
0
100
AcDbPolyline
 90
       25
 70
   128
 43
0.0
 10
36.9225932242974
 20
15.70362716770168
 10
37.22102391775307
 20
15.86329304654213
 10
37.54142653368875
 20
16.01193339600601
 10
37.88217583591694
 20
16.14879424075515
 10
38.24154338005143
 20
16.27318135674824
 10
38.61770628105045
 20
16.38446379266366
 10
39.0087564597157
 20
16.48207707048961
 10
39.41271032143261
 20
16.56552604872664
 10
39.82751881790512
 20
16.63438743398659
 10
40.25107784089016
 20
16.68831192821867
 10
40.68123889528357
 20
16.72702600043402
 10
41.11581999726869
 20
16.75033327426037
 10
41.55261674247446
 20
16.7581155239703
 10
41.98941348768006
 20
16.75033327426037
 10
42.42399458968288
 20
16.72702600043402
 10
42.85415564407624
 20
16.68831192821867
 10
43.27771466706128
 20
16.63438743398659
 10
43.69252316353363
 20
16.56552604872664
 10
44.09647702525076
 20
16.48207707048961
 10
44.4875272039159
 20
16.38446379266366
 10
44.86369010491501
 20
16.27318135674824
 10
45.22305764904929
 20
16.14879424075515
 10
45.56380695125997
 20
16.01193339600601
 10
45.88420956721317
 20
15.86329304654213
 10
46.18264026066906
 20
15.70362716770168
  0
ARC
  5
11C
330
2
100
AcDbEntity
  8
0
100
AcDbCircle
 10
46.15687962636523
 20
15.6394770985039
 30
0.0
 40
0.0691291664745593
100
AcDbArc
 50
5.486214864204679
 51
68.12116947569627
  0
ARC
  5
11D
330
2
100
AcDbEntity
  8
0
100
AcDbCircle
 10
36.94835385858359
 20
15.6394770985039
 30
0.0
 40
0.0691291664743686
100
AcDbArc
 50
111.8788305243037
 51
174.5137851357953
  0
ARC
  5
11E
330
2
100
AcDbEntity
  8
0
100
AcDbCircle
 10
47.18842939776088
 20
14.49374836129815
 30
0.0
 40
0.2561390776320711
100
AcDbArc
 50
49.18123064730205
 51
109.6293860299029
  0
ARC
  5
11F
330
2
100
AcDbEntity
  8
0
100
AcDbCircle
 10
35.91680408720556
 20
14.49374836129815
 30
0.0
 40
0.2561390776320524
100
AcDbArc
 50
70.37061397009714
 51
130.8187693526979
  0
LINE
  5
120
330
2
100
AcDbEntity
  8
0
100
AcDbLine
 10
36.15350925906158
 20
14.69151043235881
 30
0.0
 11
36.00285008905494
 21
14.73500198854145
 31
0.0
  0
LINE
  5
121
330
2
100
AcDbEntity
  8
0
100
AcDbLine
 10
47.10238339589376
 20
14.73500198854145
 30
0.0
 11
46.95172422590487
 21
14.69151043235881
 31
0.0
  0
ARC
  5
122
330
2
100
AcDbEntity
  8
0
100
AcDbCircle
 10
45.9466514291275
 20
13.66178337203417
 30
0.0
 40
1.743027698968627
100
AcDbArc
 50
0.9175695192051982
 51
36.05203300709574
  0
ARC
  5
123
330
2
100
AcDbEntity
  8
0
100
AcDbCircle
 10
37.17057486716612
 20
13.6577741706556
 30
0.0
 40
1.755087325344909
100
AcDbArc
 50
144.0725632246001
 51
178.9578342491065
  0
LWPOLYLINE
  5
124
330
2
100
AcDbEntity
  8
0
100
AcDbPolyline
 90
       11
 70
   128
 43
0.0
 10
39.39789117652984
 20
12.03511819698847
 10
39.27215231629104
 20
12.15965566067712
 10
39.175091619356
 20
12.29044920173978
 10
39.10792968032317
 20
12.42585401550361
 10
39.07151109954494
 20
12.56416730788533
 10
39.06629386180219
 20
12.70364970897919
 10
39.09234357686326
 20
12.8425471466443
 10
39.14933265448283
 20
12.979112905038
 10
39.23654442392143
 20
13.11162959048507
 10
39.35288214657708
 20
13.2384307288013
 10
39.38134489016164
 20
13.26459477246925
  0
LWPOLYLINE
  5
125
330
2
100
AcDbEntity
  8
0
100
AcDbPolyline
 90
       29
 70
   128
 43
0.0
 10
43.72740165022367
 20
13.26144485230458
 10
43.83308116867541
 20
13.15461211883468
 10
43.93014186561047
 20
13.02381857777202
 10
43.99730380462566
 20
12.88841376399062
 10
44.03372238542136
 20
12.75010047160889
 10
44.03893962316426
 20
12.6106180705324
 10
44.01288990810319
 20
12.47172063285003
 10
43.95590083048363
 20
12.33515487447381
 10
43.86868906104502
 20
12.20263818900916
 10
43.75235133838916
 20
12.07583705071039
 10
43.60835067687375
 20
11.95634605742146
 10
43.43849796836826
 20
11.84566787773619
 10
43.24492920921773
 20
11.74519435397035
 10
43.03007863891216
 20
11.65618899898587
 10
42.79664812800928
 20
11.57977110677486
 10
42.54757320063192
 20
11.51690167665546
 10
42.28598611850664
 20
11.46837132818785
 10
42.01517649097899
 20
11.43479035867146
 10
41.73854990621538
 20
11.41658106829114
 10
41.4595851040452
 20
11.41397244940224
 10
41.18179022869771
 20
11.42699730695019
 10
40.90865871191026
 20
11.45549184574263
 10
40.64362534101614
 20
11.49909773046191
 10
40.3900230643836
 20
11.55726659178973
 10
40.15104107782316
 20
11.62926692254741
 10
39.92968471843498
 20
11.71419327681764
 10
39.7287376709209
 20
11.81097765637545
 10
39.55072696095204
 20
11.91840294152828
 10
39.39789117652984
 20
12.03511819698847
  0
LWPOLYLINE
  5
126
330
2
100
AcDbEntity
  8
0
100
AcDbPolyline
 90
       11
 70
   128
 43
0.0
 10
44.04569048438237
 20
13.19492842585672
 10
44.09795627053006
 20
13.10664735090606
 10
44.15411849520221
 20
12.96712053801776
 10
44.17978049041148
 20
12.82537553498044
 10
44.1746413927224
 20
12.68307417235537
 10
44.13876145333857
 20
12.54188480351418
 10
44.07256133175231
 20
12.40346274471084
 10
43.97681716386521
 20
12.26943086802948
 10
43.85265146251131
 20
12.14136057469433
 10
43.70151995700679
 20
12.0207533717709
 10
43.62916045000974
 20
11.97185610237323
  0
LWPOLYLINE
  5
127
330
2
100
AcDbEntity
  8
0
100
AcDbPolyline
 90
       11
 70
   128
 43
0.0
 10
39.47607303495671
 20
11.97185610237323
 10
39.35044324173932
 20
12.06003726883299
 10
39.208118681723
 20
12.18329395340067
 10
39.09328121786469
 20
12.31352209785424
 10
39.0072772144364
 20
12.44919489629027
 10
38.95111498976424
 20
12.58872170917876
 10
38.92545299455498
 20
12.73046671223346
 10
38.93059209224405
 20
12.87276807485842
 10
38.96647203162778
 20
13.01395744369961
 10
39.03267215321404
 20
13.15237950248548
 10
39.06161853326779
 20
13.19801782816338
  0
LWPOLYLINE
  5
128
330
2
100
AcDbEntity
  8
0
100
AcDbPolyline
 90
       89
 70
   128
 43
0.0
 10
39.76723645418424
 20
13.33120311729638
 10
40.18535767279303
 20
13.38750151740627
 10
40.61044613022963
 20
13.42874226254697
 10
41.04033567312684
 20
13.45471519931881
 10
41.47283568294323
 20
13.46528797560469
 10
41.90574223873233
 20
13.46040671493923
 10
42.33684934794365
 20
13.4400962911399
 10
42.76396018756881
 20
13.40446020143339
 10
43.18489829866485
 20
13.35368003917785
 10
43.59751867709458
 20
13.28801456846262
 10
43.99971870399091
 20
13.20779840544211
 10
44.38944886022126
 20
13.11344031332885
 10
44.76472317025376
 20
13.00542111928729
 10
45.12362932220634
 20
12.88429126441556
 10
45.46433841258753
 20
12.75066799866548
 10
45.78511426599631
 20
12.60523223557304
 10
46.08432228220079
 20
12.44872508243696
 10
46.36043776573895
 20
12.28194406386593
 10
46.61205369538522
 20
12.1057390576832
 10
46.83788789404661
 20
11.92100796419466
 10
47.03678956241001
 20
11.72869213073651
 10
47.20774514318264
 20
11.52977155470244
 10
47.34988348587302
 20
11.32525988975098
 10
47.46248028611033
 20
11.11619928042908
 10
47.54496177639167
 20
10.90365505171944
 10
47.59690764993528
 20
10.68871028027088
 10
47.61805320250727
 20
10.47246027536269
 10
47.60829068117613
 20
10.25600699746817
 10
47.56766983356009
 20
10.04045344285377
 10
47.49639765416451
 20
9.826898023041113
 10
47.39483732967088
 20
9.616428967501889
 10
47.26350638822294
 20
9.410118778286999
 10
47.10307406219938
 20
9.209018764838939
 10
46.91435787793774
 20
9.01415368672368
 10
46.69831948988998
 20
8.826516531707429
 10
46.45605978012901
 20
8.647063455739854
 10
46.18881324862874
 20
8.476708910531783
 10
45.89794172242632
 20
8.316320983836215
 10
45.58492741618928
 20
8.166716975733972
 10
45.25136537902958
 20
8.028659233964862
 10
44.89895536664671
 20
7.902851269150516
 10
44.52949317968683
 20
7.789934169810988
 10
44.14486151277087
 20
7.690483335620466
 10
43.74702036070261
 20
7.605005545242969
 10
43.33799703078221
 20
7.533936373897778
 10
42.91987581217332
 20
7.477637973770407
 10
42.49478735473682
 20
7.436397228647295
 10
42.06489781183944
 20
7.410424291857875
 10
41.63239780202311
 20
7.399851515589472
 10
41.19949124623411
 20
7.404732776237457
 10
40.76838413700527
 20
7.425043200054372
 10
40.34127329739749
 20
7.460679289760879
 10
39.92033518630145
 20
7.511459451998844
 10
39.50771480787178
 20
7.577124922731655
 10
39.10551478097555
 20
7.657341085734676
 10
38.71578462472751
 20
7.751699177865422
 10
38.3405103147127
 20
7.859718371889291
 10
37.98160416275989
 20
7.980848226761017
 10
37.64089507236129
 20
8.114471492528679
 10
37.32011921897005
 20
8.259907255621122
 10
37.02091120276567
 20
8.416414408739726
 10
36.74479571922729
 20
8.583195427328336
 10
36.49317978958102
 20
8.759400433511066
 10
36.2673455909197
 20
8.944131526982136
 10
36.06844392255636
 20
9.136447360457648
 10
35.89748834178382
 20
9.335367936491827
 10
35.7553499990758
 20
9.539879601443178
 10
35.64275319885612
 20
9.748940210747703
 10
35.56027170857463
 20
9.961484439457141
 10
35.50832583503107
 20
10.17642921092339
 10
35.48718028245919
 20
10.39267921581399
 10
35.4969428037728
 20
10.60913249372599
 10
35.53756365140637
 20
10.82468604832291
 10
35.60883583080179
 20
11.03824146813557
 10
35.71039615529536
 20
11.24871052367469
 10
35.8417270967435
 20
11.45502071288968
 10
36.00215942276687
 20
11.65612072635533
 10
36.19087560702857
 20
11.85098580447058
 10
36.40691399507641
 20
12.03862295948673
 10
36.64917370483744
 20
12.21807603545442
 10
36.91642023633771
 20
12.38843058064491
 10
37.2072917625226
 20
12.54881850735806
 10
37.52030606877718
 20
12.69842251546029
 10
37.85386810593671
 20
12.83648025721192
 10
38.20627811831975
 20
12.96228822204375
 10
38.57574030527953
 20
13.07520532138328
 10
38.96037197219559
 20
13.17465615555611
 10
39.35821312426369
 20
13.26013394593361
 10
39.76723645418424
 20
13.33120311729638
  0
LWPOLYLINE
  5
129
330
2
100
AcDbEntity
  8
0
100
AcDbPolyline
 90
       98
 70
   128
 43
0.0
 10
35.10707396839702
 20
8.678194985044184
 10
34.87970999753006
 20
8.890706535542525
 10
34.68033451656659
 20
9.110131026679422
 10
34.50978377553255
 20
9.335548115852112
 10
34.3687731235203
 20
9.566012325473387
 10
34.25789400821268
 20
9.800557008527714
 10
34.1776114951456
 20
10.03819840314414
 10
34.12826231708641
 20
10.27793975871022
 10
34.11005346163268
 20
10.51877551665391
 10
34.12306130304147
 20
10.75969552811766
 10
34.16723128192244
 20
10.99968929084969
 10
34.24237813403554
 20
11.23775018760332
 10
34.34818666735595
 20
11.47287970824626
 10
34.48421308412455
 20
11.70409163785578
 10
34.64988684229043
 20
11.93041619324565
 10
34.84451304851123
 20
12.1509040905864
 10
35.06727537285249
 20
12.36463052700294
 10
35.31723947272335
 20
12.57069905953104
 10
35.5933569118091
 20
12.76824536515807
 10
35.89446955762497
 20
12.95644086602903
 10
36.2193144390692
 20
13.13449620477351
 10
36.56652904381286
 20
13.30166455545342
 10
36.93465703316955
 20
13.45724475590975
 10
37.32215435040646
 20
13.60058424869494
 10
37.72739569709106
 20
13.73108181818941
 10
38.14868135020723
 20
13.84819011221197
 10
38.5842442913038
 20
13.95141793788093
 10
39.03225761805908
 20
14.04033232183876
 10
39.49084220684415
 20
14.11456032624802
 10
39.95807459456241
 20
14.17379061307112
 10
40.43199504619108
 20
14.21777474986738
 10
40.91061577465552
 20
14.24632825193357
 10
41.39192927830388
 20
14.25933135591324
 10
41.87391676100062
 20
14.25672952229902
 10
42.35455659977178
 20
14.23853366407395
 10
42.83183282407526
 20
14.20482010099981
 10
43.30374357159318
 20
14.15573023945075
 10
43.76830948462012
 20
14.09146997940101
 10
44.22358201227651
 20
14.01230885067359
 10
44.66765158335785
 20
13.91857888260511
 10
45.09865561576863
 20
13.81067321119324
 10
45.51478632882358
 20
13.689044430374
 10
45.91429832566251
 20
13.55420269351183
 10
46.29551591416574
 20
13.40671357369373
 10
46.65684013526618
 20
13.24719569156095
 10
46.99675546960127
 20
13.07631812053083
 10
47.3138361941567
 20
12.89479758054262
 10
47.60675236215991
 20
12.70339543181339
 10
47.87427538141363
 20
12.50291448147249
 10
48.11528316741752
 20
12.29419561629583
 10
48.32876484972699
 20
12.07811427572387
 10
48.51382501201832
 20
11.85557678003298
 10
48.6696874476234
 20
11.6275165287749
 10
48.79569841533289
 20
11.39489008592895
 10
48.89132938135446
 20
11.15867316761928
 10
48.95617923618268
 20
10.91985654971964
 10
48.98997597700665
 20
10.67944191207469
 10
48.99257784852888
 20
10.4384376372719
 10
48.96397393760907
 20
10.19785458097483
 10
48.90428421897365
 20
9.958701832121148
 10
48.81375905206581
 20
9.721982480467612
 10
48.69277813087427
 20
9.488689409243939
 10
48.54184889144113
 20
9.259801130640408
 10
48.36160438344853
 20
9.036277681648936
 10
48.15280061500076
 20
8.819056597331716
 10
47.91631338166803
 20
8.609048978352172
 10
47.65313459309657
 20
8.40713566967161
 10
47.36436811256539
 20
8.214163565890491
 10
47.05122512705687
 20
8.030942059054055
 10
46.715019067094
 20
7.858239643840417
 10
46.35716009771726
 20
7.696780694212177
 10
45.97914920381744
 20
7.547242425085224
 10
45.5825718944399
 20
7.410252051953979
 10
45.16909155264275
 20
7.286384160046361
 10
44.74044245868353
 20
7.176158294334445
 10
44.29842251583007
 20
7.080036780430861
 10
43.84488570930797
 20
6.998422785346686
 10
43.38173433013731
 20
6.931658626531168
 10
42.91091099613693
 20
6.880024336112843
 10
42.43439050399083
 20
6.843736486203852
 10
41.95417154625181
 20
6.822947280683444
 10
41.47226832812146
 20
6.817743916685136
 10
40.99070211916187
 20
6.828148218947166
 10
40.51149277539327
 20
6.854116548197834
 10
40.03665026738827
 20
6.895539984243921
 10
39.5681662496044
 20
6.952244782797019
 10
39.10800570681465
 20
7.023993104213621
 10
38.65809871229746
 20
7.110484011118681
 10
38.22033233229451
 20
7.211354730594131
 10
37.7965427111714
 20
7.326182175764889
 10
37.38850736986048
 20
7.454484720432443
 10
36.99793775039048
 20
7.595724219146664
 10
36.62647203748603
 20
7.749308264352606
 10
36.27566828741198
 20
7.914592671179297
 10
35.94699789302917
 20
8.090884179419971
 10
35.64183941220319
 20
8.277443361182886
 10
35.36147278563997
 20
8.473487722450784
 10
35.10707396839702
 20
8.678194985044184
  0
LWPOLYLINE
  5
12A
330
2
100
AcDbEntity
  8
0
100
AcDbPolyline
 90
       52
 70
   128
 43
0.0
 10
34.11025347709724
 20
10.44176824494467
 10
34.10084953003427
 20
10.60985910446134
 10
34.11387345774597
 20
10.85107705242131
 10
34.15809805994587
 20
11.09136760619995
 10
34.23333784327969
 20
11.32972290371888
 10
34.33927722592791
 20
11.56514319999131
 10
34.47547186134024
 20
11.79664106049393
 10
34.64135050185225
 20
12.0232455027449
 10
34.83621739482348
 20
12.24400606898944
 10
35.05925520077481
 20
12.45799681265655
 10
35.30952842161845
 20
12.66432018222323
 10
35.58598732451887
 20
12.86211078576217
 10
35.88747234474033
 20
13.05053902075947
 10
36.21271894935573
 20
13.22881455368379
 10
36.56036294105334
 20
13.39618963503789
 10
36.92894618012438
 20
13.55196223552753
 10
37.31692270036769
 20
13.69547899076344
 10
37.72266519343062
 20
13.82613794156887
 10
38.14447183430731
 20
13.9433910589222
 10
38.58057341934062
 20
14.04674654246476
 10
39.02914078692309
 20
14.13577088342594
 10
39.48829248963284
 20
14.21009068274123
 10
39.95610268566423
 20
14.26939421738272
 10
40.43060921646934
 20
14.31343274768211
 10
40.9098218367662
 20
14.34202156075102
 10
41.39173056228868
 20
14.35504074517727
 10
41.87431410036498
 20
14.35243569396583
 10
42.35554832792555
 20
14.33421733363583
 10
42.83341478138121
 20
14.3004620782811
 10
43.30590912274356
 20
14.25131150919317
 10
43.77104954654966
 20
14.18697178095495
 10
44.22688509222916
 20
14.1077127567076
 10
44.67150382706902
 20
14.0138668763771
 10
45.10304086559052
 20
13.90582776219169
 10
45.51968619147508
 20
13.78404856774979
 10
45.91969224943137
 20
13.64904007728253
 10
46.30138127505208
 20
13.50136856335417
 10
46.66315233190999
 20
13.34165341158884
 10
47.00348802645256
 20
13.17056452286039
 10
47.32096087253376
 20
12.9888195033903
 10
47.61423927869077
 20
12.79718065499724
 10
47.88209313338533
 20
12.59645177757567
 10
48.12339896441979
 20
12.38747479779753
 10
48.33714465132846
 20
12.17112623776445
 10
48.52243367038619
 20
11.94831353851489
 10
48.67848885507027
 20
11.71997125392266
 10
48.80465565568729
 20
11.48705713090392
 10
48.9004048848535
 20
11.25054809222546
 10
48.96533493701443
 20
11.01143613899003
 10
48.99917347295471
 20
10.77072418982442
 10
49.00177856210927
 20
10.52942187432183
 10
48.99498000785169
 20
10.44176824494467
  0
LINE
  5
12B
330
2
100
AcDbEntity
  8
0
100
AcDbLine
 10
36.49449618086577
 20
14.04733084628877
 30
0.0
 11
36.44975310490416
 21
13.34293593077101
 31
0.0
  0
SPLINE
  5
12C
330
2
100
AcDbEntity
  8
0
100
AcDbSpline
210
0.0
220
0.0
230
1.0
 70
     8
 71
     3
 72
    12
 73
     8
 74
     0
 42
0.000000001
 43
0.0000000001
 40
0.0
 40
0.0
 40
0.0
 40
0.0
 40
0.2499999999999977
 40
0.2499999999999977
 40
0.4999999999999953
 40
0.4999999999999953
 40
1.0
 40
1.0
 40
1.0
 40
1.0
 10
36.55053284722465
 20
14.15702946089068
 30
0.0
 10
36.54366952783784
 20
14.15236886808503
 30
0.0
 10
36.53686420178336
 20
14.14588327273921
 30
0.0
 10
36.52394389910636
 20
14.12991381283675
 30
0.0
 10
36.51793074883566
 20
14.12051702421691
 30
0.0
 10
36.50249400161615
 20
14.09021181087275
 30
0.0
 10
36.49575237941306
 20
14.06710180932641
 30
0.0
 10
36.4944961808683
 20
14.04733084629364
 30
0.0
  0
ARC
  5
12D
330
2
100
AcDbEntity
  8
0
100
AcDbCircle
 10
39.17147329135794
 20
10.29685004094323
 30
0.0
 40
4.665866903992125
100
AcDbArc
 50
123.1209904228978
 51
124.1752714889019
  0
LWPOLYLINE
  5
12E
330
2
100
AcDbEntity
  8
0
100
AcDbPolyline
 90
        4
 70
   128
 43
0.0
 10
36.64442177480741
 20
14.55423377357257
 10
36.64154163562041
 20
14.50932318482753
 10
36.63002213346188
 20
14.32968048441362
 10
36.62200244209162
 20
14.20460033422449
  0
LWPOLYLINE
  5
12F
330
2
100
AcDbEntity
  8
0
100
AcDbPolyline
 90
        4
 70
   128
 43
0.0
 10
36.70834845949322
 20
15.34414366729533
 10
36.70466952886115
 20
15.29875465052159
 10
36.68996054023374
 20
15.11719626634868
 10
36.64442177480741
 20
14.55423377357257
  0
SPLINE
  5
130
330
2
100
AcDbEntity
  8
0
100
AcDbSpline
210
0.0
220
0.0
230
1.0
 70
     8
 71
     3
 72
     8
 73
     4
 74
     0
 42
0.000000001
 43
0.0000000001
 40
0.0
 40
0.0
 40
0.0
 40
0.0
 40
1.0
 40
1.0
 40
1.0
 40
1.0
 10
36.71626395043583
 20
15.35073965849225
 30
0.0
 10
36.71358466835925
 20
15.34902456784177
 30
0.0
 10
36.71094665066607
 20
15.34682184066839
 30
0.0
 10
36.70834845949544
 20
15.34414366728697
 30
0.0
  0
LWPOLYLINE
  5
131
330
2
100
AcDbEntity
  8
0
100
AcDbPolyline
 90
       26
 70
   128
 43
0.0
 10
36.71626395044289
 20
15.35073965849383
 10
37.00308239325696
 20
15.5212045347719
 10
37.31387996798406
 20
15.68081561120285
 10
37.64701856059619
 20
15.82873162915339
 10
38.00074230471572
 20
15.96417297085504
 10
38.37318683631942
 20
16.08642576859565
 10
38.76238912009789
 20
16.19484566718067
 10
39.16629779600731
 20
16.28886122023522
 10
39.58278399136299
 20
16.36797690200625
 10
40.00965254143566
 20
16.43177571920153
 10
40.44465355940888
 20
16.47992140876738
 10
40.88549429487336
 20
16.51216021025954
 10
41.32985121813986
 20
16.52832220334116
 10
41.77538226682645
 20
16.52832220334116
 10
42.21973919009292
 20
16.51216021025954
 10
42.66057992555747
 20
16.47992140876738
 10
43.09558094353057
 20
16.43177571920153
 10
43.52244949360327
 20
16.36797690200625
 10
43.93893568895898
 20
16.28886122023522
 10
44.34284436486847
 20
16.19484566718067
 10
44.73204664862939
 20
16.08642576859565
 10
45.1044911802332
 20
15.96417297085504
 10
45.45821492437021
 20
15.82873162915339
 10
45.79135351696465
 20
15.68081561120285
 10
46.1021510917094
 20
15.5212045347719
 10
46.38896953452348
 20
15.35073965849383
  0
SPLINE
  5
132
330
2
100
AcDbEntity
  8
0
100
AcDbSpline
210
0.0
220
0.0
230
1.0
 70
     8
 71
     3
 72
     8
 73
     4
 74
     0
 42
0.000000001
 43
0.0000000001
 40
0.0
 40
0.0
 40
0.0
 40
0.0
 40
1.0
 40
1.0
 40
1.0
 40
1.0
 10
46.39688502546709
 20
15.34414366728697
 30
0.0
 10
46.394315699314
 20
15.34679208707563
 30
0.0
 10
46.39163222376604
 20
15.34903518942602
 30
0.0
 10
46.3889695345267
 20
15.35073965849225
 30
0.0
  0
LWPOLYLINE
  5
133
330
2
100
AcDbEntity
  8
0
100
AcDbPolyline
 90
        4
 70
   128
 43
0.0
 10
46.46081171015892
 20
14.55423377357257
 10
46.45714370737838
 20
14.59962654923036
 10
46.44246510481759
 20
14.78119538538658
 10
46.39688502547313
 20
15.34414366729533
  0
LWPOLYLINE
  5
134
330
2
100
AcDbEntity
  8
0
100
AcDbPolyline
 90
        4
 70
   128
 43
0.0
 10
46.48323104287483
 20
14.20460033422449
 10
46.48035161719174
 20
14.24951115667781
 10
46.46883286588425
 20
14.42915410302125
 10
46.46081171015892
 20
14.55423377357257
  0
ARC
  5
135
330
2
100
AcDbEntity
  8
0
100
AcDbCircle
 10
43.9337601938014
 20
10.29685004122361
 30
0.0
 40
4.665866903667419
100
AcDbArc
 50
55.82472851109804
 51
56.87900957710224
  0
SPLINE
  5
136
330
2
100
AcDbEntity
  8
0
100
AcDbSpline
210
0.0
220
0.0
230
1.0
 70
     8
 71
     3
 72
    12
 73
     8
 74
     0
 42
0.000000001
 43
0.0000000001
 40
0.0
 40
0.0
 40
0.0
 40
0.0
 40
0.2499999999999977
 40
0.2499999999999977
 40
0.4999999999999953
 40
0.4999999999999953
 40
1.0
 40
1.0
 40
1.0
 40
1.0
 10
46.61073730409429
 20
14.04733084629354
 30
0.0
 10
46.61010924319318
 20
14.0572157238949
 30
0.0
 10
46.60817100608872
 20
14.0678105454167
 30
0.0
 10
46.60191685438586
 20
14.08940081217402
 30
0.0
 10
46.597615918096
 20
14.10026197018471
 30
0.0
 10
46.58219425063326
 20
14.13056257747795
 30
0.0
 10
46.56842597695935
 20
14.14770915775079
 30
0.0
 10
46.55470063773825
 20
14.15702946089068
 30
0.0
  0
LINE
  5
137
330
2
100
AcDbEntity
  8
0
100
AcDbLine
 10
46.65577496007469
 20
13.33829832692387
 30
0.0
 11
46.61073730410058
 21
14.04733084628877
 31
0.0
  0
ELLIPSE
  5
138
330
2
100
AcDbEntity
  8
0
100
AcDbEllipse
 10
47.09413545784657
 20
14.53098197740087
 30
0.0
 11
-0.0128295741986831
 21
0.0419198348773991
 31
0.0
210
0.0
220
0.0
230
1.0
 40
0.4241965134
 41
6.276413276825089
 42
7.226106511356407
  0
LINE
  5
139
330
2
100
AcDbEntity
  8
0
100
AcDbLine
 10
47.07095053684219
 20
13.81101611660379
 30
0.0
 11
47.07220825254787
 21
14.55120249870226
 31
0.0
  0
LINE
  5
13A
330
2
100
AcDbEntity
  8
0
100
AcDbLine
 10
47.07095053684219
 20
13.81101611660379
 30
0.0
 11
47.07952385720482
 21
13.12703597006894
 31
0.0
  0
LINE
  5
13B
330
2
100
AcDbEntity
  8
0
100
AcDbLine
 10
46.41187261638086
 20
15.15903564048379
 30
0.0
 11
47.08683681243128
 21
14.57449950007402
 31
0.0
  0
ELLIPSE
  5
13C
330
2
100
AcDbEntity
  8
0
100
AcDbEllipse
 10
36.01109802711945
 20
14.53098197740087
 30
0.0
 11
0.0128295741986931
 21
0.0419198348773991
 31
0.0
210
0.0
220
0.0
230
1.0
 40
0.4241965134000001
 41
5.340264103002668
 42
6.289957337534119
  0
LINE
  5
13D
330
2
100
AcDbEntity
  8
0
100
AcDbLine
 10
36.03428294812426
 20
13.81101611660379
 30
0.0
 11
36.02570046794644
 21
13.12630519934524
 31
0.0
  0
LINE
  5
13E
330
2
100
AcDbEntity
  8
0
100
AcDbLine
 10
36.03302523241844
 20
14.55120249870226
 30
0.0
 11
36.03428294812426
 21
13.81101611660379
 31
0.0
  0
LINE
  5
13F
330
2
100
AcDbEntity
  8
0
100
AcDbLine
 10
36.01839667253497
 20
14.57449950007402
 30
0.0
 11
36.69334935784962
 21
15.15902567190348
 31
0.0
  0
LINE
  5
140
330
2
100
AcDbEntity
  8
0
100
AcDbLine
 10
35.98504226004835
 20
13.1149266747636
 30
0.0
 11
35.98347419733459
 21
13.42478737259591
 31
0.0
  0
LINE
  5
141
330
2
100
AcDbEntity
  8
0
100
AcDbLine
 10
35.87745084549476
 20
13.22775767174631
 30
0.0
 11
35.89354197602464
 21
13.52688923838572
 31
0.0
  0
LINE
  5
142
330
2
100
AcDbEntity
  8
0
100
AcDbLine
 10
35.98347419733459
 20
13.42478737259591
 30
0.0
 11
35.97297337951722
 21
13.50395936729782
 31
0.0
  0
LINE
  5
143
330
2
100
AcDbEntity
  8
0
100
AcDbLine
 10
47.12019122491799
 20
13.1149266747636
 30
0.0
 11
47.12175928761433
 21
13.42478737259591
 31
0.0
  0
LINE
  5
144
330
2
100
AcDbEntity
  8
0
100
AcDbLine
 10
47.12175928761433
 20
13.42478737259591
 30
0.0
 11
47.13226010544919
 21
13.50395936729782
 31
0.0
  0
LINE
  5
145
330
2
100
AcDbEntity
  8
0
100
AcDbLine
 10
47.21169150894183
 20
13.52688923838572
 30
0.0
 11
47.2281107528737
 21
13.2216580957919
 31
0.0
  0
SPLINE
  5
146
330
2
100
AcDbEntity
  8
0
100
AcDbSpline
210
0.0
220
0.0
230
1.0
 70
     8
 71
     3
 72
     8
 73
     4
 74
     0
 42
0.000000001
 43
0.0000000001
 40
0.0
 40
0.0
 40
0.0
 40
0.0
 40
1.0
 40
1.0
 40
1.0
 40
1.0
 10
35.86760705009464
 20
14.61604024873234
 30
0.0
 10
35.86612783456579
 20
14.61518252857637
 30
0.0
 10
35.8645382977853
 20
14.61372509369949
 30
0.0
 10
35.86291741538269
 20
14.61171988090468
 30
0.0
  0
LWPOLYLINE
  5
147
330
2
100
AcDbEntity
  8
0
100
AcDbPolyline
 90
        4
 70
   128
 43
0.0
 10
35.83407628076351
 20
13.85245398989639
 10
35.83599769045623
 20
13.89633417157044
 10
35.8436898486364
 20
14.07185256942344
 10
35.86760705009645
 20
14.61604024873869
  0
LWPOLYLINE
  5
148
330
2
100
AcDbEntity
  8
0
100
AcDbPolyline
 90
        4
 70
   128
 43
0.0
 10
35.81525248163442
 20
13.50593437396711
 10
35.81767006954868
 20
13.55044523318934
 10
35.82734143592343
 20
13.72848829725676
 10
35.83407628076351
 20
13.85245398989639
  0
ARC
  5
149
330
2
100
AcDbEntity
  8
0
100
AcDbCircle
 10
37.92596810399006
 20
11.75377552021172
 30
0.0
 40
2.743206351561578
100
AcDbArc
 50
138.8008210538084
 51
140.3030696583927
  0
SPLINE
  5
14A
330
2
100
AcDbEntity
  8
0
100
AcDbSpline
210
0.0
220
0.0
230
1.0
 70
     8
 71
     3
 72
    12
 73
     8
 74
     0
 42
0.000000001
 43
0.0000000001
 40
0.0
 40
0.0
 40
0.0
 40
0.0
 40
0.2499999999999977
 40
0.2499999999999977
 40
0.4999999999999953
 40
0.4999999999999953
 40
1.0
 40
1.0
 40
1.0
 40
1.0
 10
35.89354197602597
 20
13.52688923838922
 30
0.0
 10
35.89406918754831
 20
13.53668677786653
 30
0.0
 10
35.89364045652486
 20
13.54523174485961
 30
0.0
 10
35.89097973397964
 20
13.55910150404674
 30
0.0
 10
35.88874677684587
 20
13.56430414436645
 30
0.0
 10
35.87994363422279
 20
13.57362545072336
 30
0.0
 10
35.87119342273466
 20
13.5712704507913
 30
0.0
 10
35.86191285376506
 20
13.560667053001
 30
0.0
  0
ARC
  5
14B
330
2
100
AcDbEntity
  8
0
100
AcDbCircle
 10
37.29511424989695
 20
13.38658097293658
 30
0.0
 40
1.884715659358924
100
AcDbArc
 50
139.4554486087082
 51
174.1405686757003
  0
SPLINE
  5
14C
330
2
100
AcDbEntity
  8
0
100
AcDbSpline
210
0.0
220
0.0
230
1.0
 70
     8
 71
     3
 72
    12
 73
     8
 74
     0
 42
0.000000001
 43
0.0000000001
 40
0.0
 40
0.0
 40
0.0
 40
0.0
 40
0.2499999999999977
 40
0.2499999999999977
 40
0.4999999999999953
 40
0.4999999999999953
 40
1.0
 40
1.0
 40
1.0
 40
1.0
 10
47.24332063119753
 20
13.56066705300089
 30
0.0
 10
47.23867990735818
 20
13.56596925387518
 30
0.0
 10
47.23421545176239
 20
13.56924357573356
 30
0.0
 10
47.22602851429116
 20
13.57155352200331
 30
0.0
 10
47.22237454505862
 20
13.57052870445519
 30
0.0
 10
47.21356049499701
 20
13.56122529761823
 30
0.0
 10
47.21063702147244
 20
13.54648551450189
 30
0.0
 10
47.21169150893657
 20
13.52688923838922
 30
0.0
  0
ARC
  5
14D
330
2
100
AcDbEntity
  8
0
100
AcDbCircle
 10
45.17926538095881
 20
11.75377552019425
 30
0.0
 40
2.7432063515865
100
AcDbArc
 50
39.69693034160715
 51
41.19917894619154
  0
LWPOLYLINE
  5
14E
330
2
100
AcDbEntity
  8
0
100
AcDbPolyline
 90
        4
 70
   128
 43
0.0
 10
47.27115720420274
 20
13.85245398989639
 10
47.27357548254651
 20
13.80794338435354
 10
47.28324757548772
 20
13.62990058725619
 10
47.28998100333193
 20
13.50593437396711
  0
LWPOLYLINE
  5
14F
330
2
100
AcDbEntity
  8
0
100
AcDbPolyline
 90
        4
 70
   128
 43
0.0
 10
47.23762643487002
 20
14.61604024873869
 10
47.23955865318416
 20
14.57216392918781
 10
47.24728086595403
 20
14.39665627041702
 10
47.27115720420274
 20
13.85245398989639
  0
SPLINE
  5
150
330
2
100
AcDbEntity
  8
0
100
AcDbSpline
210
0.0
220
0.0
230
1.0
 70
     8
 71
     3
 72
     8
 73
     4
 74
     0
 42
0.000000001
 43
0.0000000001
 40
0.0
 40
0.0
 40
0.0
 40
0.0
 40
1.0
 40
1.0
 40
1.0
 40
1.0
 10
47.24231606957984
 20
14.61171988090468
 30
0.0
 10
47.240685086472
 20
14.61373758940101
 30
0.0
 10
47.23912226859901
 20
14.61517289254495
 30
0.0
 10
47.23762643486826
 20
14.61604024873234
 30
0.0
  0
ARC
  5
151
330
2
100
AcDbEntity
  8
0
100
AcDbCircle
 10
45.83200915616149
 20
13.39596390567477
 30
0.0
 40
1.861995752232735
100
AcDbArc
 50
5.640979907207991
 51
40.76300280840252
  0
ELLIPSE
  5
152
330
2
100
AcDbEntity
  8
0
100
AcDbEllipse
 10
35.92922798998464
 20
13.46531115605823
 30
0.0
 11
0.0132241419114129
 21
0.0872410121340418
 31
0.0
210
0.0
220
0.0
230
1.0
 40
0.4926395442000002
 41
5.244502075586893
 42
6.218569152574255
  0
ELLIPSE
  5
153
330
2
100
AcDbEntity
  8
0
100
AcDbEllipse
 10
47.17600549498144
 20
13.46531115605823
 30
0.0
 11
-0.0132241419114029
 21
0.0872410121340417
 31
0.0
210
0.0
220
0.0
230
1.0
 40
0.4926395442000002
 41
0.0646161546055805
 42
1.03868323159258
  0
SPLINE
  5
154
330
2
100
AcDbEntity
  8
0
100
AcDbSpline
210
0.0
220
0.0
230
1.0
 70
     8
 71
     2
 72
     6
 73
     3
 74
     0
 42
0.000000001
 43
0.0000000001
 40
0.0
 40
0.0
 40
0.0
 40
1.0
 40
1.0
 40
1.0
 10
35.86760705009464
 20
14.61604024873234
 30
0.0
 10
35.86938703826455
 20
14.61707237130061
 30
0.0
 10
35.87421201743856
 20
14.61612202478193
 30
0.0
  0
SPLINE
  5
155
330
2
100
AcDbEntity
  8
0
100
AcDbSpline
210
0.0
220
0.0
230
1.0
 70
     8
 71
     2
 72
     6
 73
     3
 74
     0
 42
0.000000001
 43
0.0000000001
 40
0.0
 40
0.0
 40
0.0
 40
1.0
 40
1.0
 40
1.0
 10
47.23762643486826
 20
14.61604024873234
 30
0.0
 10
47.23584644669798
 20
14.61707237130061
 30
0.0
 10
47.23102146752784
 20
14.61612202478193
 30
0.0
  0
ARC
  5
156
330
2
100
AcDbEntity
  8
0
100
AcDbCircle
 10
46.75022919016992
 20
20.5919106972021
 30
0.0
 40
0.022641531889896
100
AcDbArc
 50
5.600680447300604
 51
52.61802886549225
  0
POLYLINE
  5
157
330
2
100
AcDbEntity
  8
0
100
AcDb2dPolyline
 66
     1
 10
0.0
 20
0.0
 30
0.0
  0
VERTEX
  5
158
330
157
100
AcDbEntity
  8
0
100
AcDbVertex
100
AcDb2dVertex
 10
33.05932614645522
 20
15.05806358770714
 30
0.0
 42
-0.0015015087017912
  0
VERTEX
  5
159
330
157
100
AcDbEntity
  8
0
100
AcDbVertex
100
AcDb2dVertex
 10
33.57453180777387
 20
16.85918636961501
 30
0.0
 42
-0.0018772801581776
  0
VERTEX
  5
15A
330
157
100
AcDbEntity
  8
0
100
AcDbVertex
100
AcDb2dVertex
 10
33.99633575070811
 20
18.29696627496841
 30
0.0
 42
-0.0010744958360915
  0
VERTEX
  5
15B
330
157
100
AcDbEntity
  8
0
100
AcDbVertex
100
AcDb2dVertex
 10
34.69877908674744
 20
20.64004867415146
 30
0.0
 42
-0.0032426344150331
  0
VERTEX
  5
15C
330
157
100
AcDbEntity
  8
0
100
AcDbVertex
100
AcDb2dVertex
 10
34.93824152309712
 20
21.41443296059711
 30
0.0
 42
-0.1565880789669473
  0
VERTEX
  5
15D
330
157
100
AcDbEntity
  8
0
100
AcDbVertex
100
AcDb2dVertex
 10
35.61866405746791
 20
22.37351518338055
 30
0.0
 42
-0.1426368247333273
  0
VERTEX
  5
15E
330
157
100
AcDbEntity
  8
0
100
AcDbVertex
100
AcDb2dVertex
 10
36.82205352402475
 20
22.82611625446111
 30
0.0
 42
-0.06410863077857
  0
VERTEX
  5
15F
330
157
100
AcDbEntity
  8
0
100
AcDbVertex
100
AcDb2dVertex
 10
37.08647240120381
 20
22.81244287821028
 30
0.0
 42
-0.1208262440945415
  0
VERTEX
  5
160
330
157
100
AcDbEntity
  8
0
100
AcDbVertex
100
AcDb2dVertex
 10
38.10017074171384
 20
22.35951739057681
 30
0.0
  0
SEQEND
  5
161
330
157
100
AcDbEntity
  8
0
  0
POLYLINE
  5
162
330
2
100
AcDbEntity
  8
0
100
AcDb2dPolyline
 66
     1
 10
0.0
 20
0.0
 30
0.0
  0
VERTEX
  5
163
330
162
100
AcDbEntity
  8
0
100
AcDbVertex
100
AcDb2dVertex
 10
33.1903556195616
 20
14.9545858999327
 30
0.0
 42
-0.0015527628339248
  0
VERTEX
  5
164
330
162
100
AcDbEntity
  8
0
100
AcDbVertex
100
AcDb2dVertex
 10
33.72269348933826
 20
16.81632342126075
 30
0.0
 42
-0.0018772801581775
  0
VERTEX
  5
165
330
162
100
AcDbEntity
  8
0
100
AcDbVertex
100
AcDb2dVertex
 10
34.14417139546646
 20
18.25299198288252
 30
0.0
 42
-0.0010744958360915
  0
VERTEX
  5
166
330
162
100
AcDbEntity
  8
0
100
AcDbVertex
100
AcDb2dVertex
 10
34.84642436592969
 20
20.59543939528742
 30
0.0
 42
-0.003242634415033
  0
VERTEX
  5
167
330
162
100
AcDbEntity
  8
0
100
AcDbVertex
100
AcDb2dVertex
 10
35.08529579491982
 20
21.36791245582494
 30
0.0
 42
-0.1565880789669471
  0
VERTEX
  5
168
330
162
100
AcDbEntity
  8
0
100
AcDbVertex
100
AcDb2dVertex
 10
35.71115707424729
 20
22.25008845178407
 30
0.0
 42
-0.1426368247333275
  0
VERTEX
  5
169
330
162
100
AcDbEntity
  8
0
100
AcDbVertex
100
AcDb2dVertex
 10
36.8338222515053
 20
22.67232869553946
 30
0.0
 42
-0.0641086307785688
  0
VERTEX
  5
16A
330
162
100
AcDbEntity
  8
0
100
AcDbVertex
100
AcDb2dVertex
 10
37.05890383239581
 20
22.66068949195671
 30
0.0
 42
-0.1090477297582252
  0
VERTEX
  5
16B
330
162
100
AcDbEntity
  8
0
100
AcDbVertex
100
AcDb2dVertex
 10
37.92419547854456
 20
22.29796289960763
 30
0.0
 42
-0.0266115773029467
  0
SEQEND
  5
16C
330
162
100
AcDbEntity
  8
0
  0
ARC
  5
16D
330
2
100
AcDbEntity
  8
0
100
AcDbCircle
 10
40.31815694296112
 20
9.113016564059275
 30
0.0
 40
9.201838551040083
100
AcDbArc
 50
118.0686454629626
 51
140.665933933275
  0
ARC
  5
16E
330
2
100
AcDbEntity
  8
0
100
AcDbCircle
 10
40.31815694296112
 20
9.113016564059275
 30
0.0
 40
9.133288680970661
100
AcDbArc
 50
118.298205363246
 51
140.665933933275
  0
ELLIPSE
  5
16F
330
2
100
AcDbEntity
  8
0
100
AcDbEllipse
 10
31.69446680565322
 20
14.71148931021948
 30
0.0
 11
0.0194200631341961
 21
0.1906560932656157
 31
0.0
210
0.0
220
0.0
230
1.0
 40
0.7151041201610262
 41
1.77474674691261
 42
6.720820369635412
  0
ELLIPSE
  5
170
330
2
100
AcDbEntity
  8
0
100
AcDbEllipse
 10
31.63759077981083
 20
14.48458910041858
 30
0.0
 11
0.0279248788770551
 21
0.0640718808722108
 31
0.0
210
0.0
220
0.0
230
1.0
 40
0.638763401582286
 41
0.0
 42
6.283185307179585
  0
ARC
  5
171
330
2
100
AcDbEntity
  8
0
100
AcDbCircle
 10
29.45504602757501
 20
11.97704413757418
 30
0.0
 40
4.586331894336539
100
AcDbArc
 50
49.96585756049338
 51
164.440000019749
  0
ARC
  5
172
330
2
100
AcDbEntity
  8
0
100
AcDbCircle
 10
29.45504602757501
 20
11.97704413757418
 30
0.0
 40
4.418621935877191
100
AcDbArc
 50
57.00260336890197
 51
162.8260441122335
  0
POLYLINE
  5
173
330
2
100
AcDbEntity
  8
0
100
AcDb2dPolyline
 66
     1
 10
0.0
 20
0.0
 30
0.0
 70
     2
  0
VERTEX
  5
174
330
173
100
AcDbEntity
  8
0
100
AcDbVertex
100
AcDb2dVertex
 10
25.22115727212675
 20
12.02284343759422
 30
0.0
 42
-0.0868928847829508
  0
VERTEX
  5
175
330
173
100
AcDbEntity
  8
0
100
AcDbVertex
100
AcDb2dVertex
 10
24.93253184011406
 20
12.14111853059745
 30
0.0
 42
-0.1660521251341621
 70
     1
  0
VERTEX
  5
176
330
173
100
AcDbEntity
  8
0
100
AcDbVertex
100
AcDb2dVertex
 10
24.82793246601105
 20
12.27061841171324
 30
0.0
 42
-0.0547599089024654
  0
VERTEX
  5
177
330
173
100
AcDbEntity
  8
0
100
AcDbVertex
100
AcDb2dVertex
 10
24.7836102836723
 20
12.45101776833501
 30
0.0
 42
-0.0199880518474743
 70
     1
  0
VERTEX
  5
178
330
173
100
AcDbEntity
  8
0
100
AcDbVertex
100
AcDb2dVertex
 10
24.73721078740295
 20
12.95649976966728
 30
0.0
 42
-0.0402165887896709
  0
VERTEX
  5
179
330
173
100
AcDbEntity
  8
0
100
AcDbVertex
100
AcDb2dVertex
 10
24.77069187567308
 20
14.11772473011839
 30
0.0
 42
-0.1000229639175796
 70
     1
  0
VERTEX
  5
17A
330
173
100
AcDbEntity
  8
0
100
AcDbVertex
100
AcDb2dVertex
 10
24.91374608952987
 20
14.56647796276163
 30
0.0
 42
-0.080149435795889
  0
VERTEX
  5
17B
330
173
100
AcDbEntity
  8
0
100
AcDbVertex
100
AcDb2dVertex
 10
25.08598949029772
 20
14.78481113577772
 30
0.0
 42
-0.0215269885069411
 70
     1
  0
VERTEX
  5
17C
330
173
100
AcDbEntity
  8
0
100
AcDbVertex
100
AcDb2dVertex
 10
25.87331873689801
 20
15.44777446103799
 30
0.0
 42
-0.0390975682810057
  0
VERTEX
  5
17D
330
173
100
AcDbEntity
  8
0
100
AcDbVertex
100
AcDb2dVertex
 10
27.35510849244401
 20
16.41574503102259
 30
0.0
 42
-0.0602350128485601
 70
     1
  0
VERTEX
  5
17E
330
173
100
AcDbEntity
  8
0
100
AcDbVertex
100
AcDb2dVertex
 10
28.42415453755877
 20
16.84294947020138
 30
0.0
 42
-0.0808843508663106
  0
VERTEX
  5
17F
330
173
100
AcDbEntity
  8
0
100
AcDbVertex
100
AcDb2dVertex
 10
29.44444338090415
 20
16.9437026666949
 30
0.0
 42
-0.0613852523259514
 70
     1
  0
VERTEX
  5
180
330
173
100
AcDbEntity
  8
0
100
AcDbVertex
100
AcDb2dVertex
 10
30.76850583350381
 20
16.69509083243265
 30
0.0
 42
-0.0403634113734059
  0
VERTEX
  5
181
330
173
100
AcDbEntity
  8
0
100
AcDbVertex
100
AcDb2dVertex
 10
31.68656330342949
 20
16.31889547799785
 30
0.0
 42
-0.066251847979695
 70
     1
  0
VERTEX
  5
182
330
173
100
AcDbEntity
  8
0
100
AcDbVertex
100
AcDb2dVertex
 10
32.18616771460056
 20
15.97570498678311
 30
0.0
 42
-0.0713509044210409
  0
VERTEX
  5
183
330
173
100
AcDbEntity
  8
0
100
AcDbVertex
100
AcDb2dVertex
 10
32.34368714827802
 20
15.78644739073838
 30
0.0
 42
-0.0404011931540576
 70
     1
  0
VERTEX
  5
184
330
173
100
AcDbEntity
  8
0
100
AcDbVertex
100
AcDb2dVertex
 10
32.54030435002645
 20
15.40025076487648
 30
0.0
  0
SEQEND
  5
185
330
173
100
AcDbEntity
  8
0
  0
POLYLINE
  5
186
330
2
100
AcDbEntity
  8
0
100
AcDb2dPolyline
 66
     1
 10
0.0
 20
0.0
 30
0.0
  0
VERTEX
  5
187
330
186
100
AcDbEntity
  8
0
100
AcDbVertex
100
AcDb2dVertex
 10
25.12596278065377
 20
12.10713472507606
 30
0.0
 42
-0.2949968539897347
  0
VERTEX
  5
188
330
186
100
AcDbEntity
  8
0
100
AcDbVertex
100
AcDb2dVertex
 10
24.86467791040769
 20
12.4693813644695
 30
0.0
 42
-0.0120534277068633
  0
VERTEX
  5
189
330
186
100
AcDbEntity
  8
0
100
AcDbVertex
100
AcDb2dVertex
 10
24.81149011966822
 20
12.96270125029378
 30
0.0
 42
-0.0481646675578456
  0
VERTEX
  5
18A
330
186
100
AcDbEntity
  8
0
100
AcDbVertex
100
AcDb2dVertex
 10
24.82557307691291
 20
14.04933185661304
 30
0.0
 42
-0.1000229639175538
  0
VERTEX
  5
18B
330
186
100
AcDbEntity
  8
0
100
AcDbVertex
100
AcDb2dVertex
 10
24.97887188033943
 20
14.53022180555814
 30
0.0
 42
-0.0801494357959455
  0
VERTEX
  5
18C
330
186
100
AcDbEntity
  8
0
100
AcDbVertex
100
AcDb2dVertex
 10
25.1364089509913
 20
14.7299134532482
 30
0.0
 42
-0.0215269885069639
  0
VERTEX
  5
18D
330
186
100
AcDbEntity
  8
0
100
AcDbVertex
100
AcDb2dVertex
 10
25.91883089077205
 20
15.38874462609423
 30
0.0
 42
-0.0390975682810118
  0
VERTEX
  5
18E
330
186
100
AcDbEntity
  8
0
100
AcDbVertex
100
AcDb2dVertex
 10
27.39087631333436
 20
16.35034976703128
 30
0.0
 42
-0.0602350128485656
  0
VERTEX
  5
18F
330
186
100
AcDbEntity
  8
0
100
AcDbVertex
100
AcDb2dVertex
 10
28.44330578663896
 20
16.77091401211021
 30
0.0
 42
-0.0808843508663099
  0
VERTEX
  5
190
330
186
100
AcDbEntity
  8
0
100
AcDbVertex
100
AcDb2dVertex
 10
29.43975159400009
 20
16.86931271643688
 30
0.0
 42
-0.0613852523259457
  0
VERTEX
  5
191
330
186
100
AcDbEntity
  8
0
100
AcDbVertex
100
AcDb2dVertex
 10
30.74589383268121
 20
16.6240656609613
 30
0.0
 42
-0.0403634113733529
  0
VERTEX
  5
192
330
186
100
AcDbEntity
  8
0
100
AcDbVertex
100
AcDb2dVertex
 10
31.65283368423124
 20
16.2524260086719
 30
0.0
 42
-0.0662518479796546
  0
VERTEX
  5
193
330
186
100
AcDbEntity
  8
0
100
AcDbVertex
100
AcDb2dVertex
 10
32.13622752787392
 20
15.92037095283073
 30
0.0
 42
-0.0713509044211984
  0
VERTEX
  5
194
330
186
100
AcDbEntity
  8
0
100
AcDbVertex
100
AcDb2dVertex
 10
32.28020698532851
 20
15.7473814660001
 30
0.0
 42
-0.0296517993704506
  0
VERTEX
  5
195
330
186
100
AcDbEntity
  8
0
100
AcDbVertex
100
AcDb2dVertex
 10
32.42650095567022
 20
15.4746751593014
 30
0.0
 42
-0.0404011931541065
  0
SEQEND
  5
196
330
186
100
AcDbEntity
  8
0
  0
ELLIPSE
  5
197
330
2
100
AcDbEntity
  8
0
100
AcDbEllipse
 10
31.74741852586234
 20
16.01124350524001
 30
0.0
 11
-0.0954112159865506
 21
-0.2809778008057861
 31
0.0
210
0.0
220
0.0
230
1.0
 40
0.6717394876003492
 41
2.350298767500601
 42
5.444532007288938
  0
ELLIPSE
  5
198
330
2
100
AcDbEntity
  8
0
100
AcDbEllipse
 10
31.74741852586234
 20
16.01124350524001
 30
0.0
 11
-0.0954112159865506
 21
-0.2809778008057861
 31
0.0
210
0.0
220
0.0
230
1.0
 40
0.6717394876003492
 41
7.526565401255446
 42
8.265259175314124
  0
ELLIPSE
  5
199
330
2
100
AcDbEntity
  8
0
100
AcDbEllipse
 10
30.10584205695563
 20
16.57819329696918
 30
0.0
 11
-0.0954112159865506
 21
-0.2809778008057861
 31
0.0
210
0.0
220
0.0
230
1.0
 40
0.6717394876003492
 41
2.883858089953638
 42
7.084233753195849
  0
ELLIPSE
  5
19A
330
2
100
AcDbEntity
  8
0
100
AcDbEllipse
 10
30.10584205695563
 20
16.57819329696918
 30
0.0
 11
-0.0954112159865506
 21
-0.2809778008057861
 31
0.0
210
0.0
220
0.0
230
1.0
 40
0.6717394876003492
 41
7.758899083873728
 42
8.694456627139633
  0
ELLIPSE
  5
19B
330
2
100
AcDbEntity
  8
0
100
AcDbEllipse
 10
27.55616413573629
 20
16.23658151241459
 30
0.0
 11
-0.1227639862309015
 21
0.2755702556108014
 31
0.0
210
0.0
220
0.0
230
1.0
 40
0.7562046212144633
 41
5.742368711136252
 42
10.03683750363791
  0
ELLIPSE
  5
19C
330
2
100
AcDbEntity
  8
0
100
AcDbEllipse
 10
27.55616413573629
 20
16.23658151241459
 30
0.0
 11
-0.1227639862309015
 21
0.2755702556108014
 31
0.0
210
0.0
220
0.0
230
1.0
 40
0.7562046212144633
 41
10.71860919550879
 42
11.65895334551968
  0
ELLIPSE
  5
19D
330
2
100
AcDbEntity
  8
0
100
AcDbEllipse
 10
25.938295087166
 20
15.13903246722783
 30
0.0
 11
0.2326324949034328
 21
-0.2424062489189286
 31
0.0
210
0.0
220
0.0
230
1.0
 40
0.6939971189447486
 41
2.508437691543771
 42
6.716825859570253
  0
ELLIPSE
  5
19E
330
2
100
AcDbEntity
  8
0
100
AcDbEllipse
 10
25.938295087166
 20
15.13903246722783
 30
0.0
 11
0.2326324949034328
 21
-0.2424062489189286
 31
0.0
210
0.0
220
0.0
230
1.0
 40
0.6939971189447486
 41
7.450098685663068
 42
8.454924650439208
  0
ARC
  5
19F
330
2
100
AcDbEntity
  8
0
100
AcDbCircle
 10
25.80518512424472
 20
19.88074625893523
 30
0.0
 40
7.97584463609907
100
AcDbArc
 50
269.5774501294737
 51
316.7755357370989
  0
SPLINE
  5
1A0
330
2
100
AcDbEntity
  8
0
100
AcDbSpline
210
0.0
220
0.0
230
1.0
 70
     8
 71
     3
 72
    12
 73
     8
 74
     0
 42
0.000000001
 43
0.0000000001
 40
0.0
 40
0.0
 40
0.0
 40
0.0
 40
0.0561527116454317
 40
0.2973809050237443
 40
0.5349953206127607
 40
0.7911384943783137
 40
1.0
 40
1.0
 40
1.0
 40
1.0
 10
3.680855955662584
 20
7.019007467409041
 30
0.0
 10
3.684399869535011
 20
7.018129655704188
 30
0.0
 10
3.703168194052361
 20
7.01348082519222
 30
0.0
 10
3.738365340266725
 20
7.025797283999926
 30
0.0
 10
3.777974262277448
 20
7.054344393366943
 30
0.0
 10
3.808443911057855
 20
7.095793722297091
 30
0.0
 10
3.821640831721282
 20
7.130006954579006
 30
0.0
 10
3.827568360715145
 20
7.145374170272421
 30
0.0
  0
SPLINE
  5
1A1
330
2
100
AcDbEntity
  8
0
100
AcDbSpline
210
0.0
220
0.0
230
1.0
 70
     8
 71
     3
 72
    14
 73
    10
 74
     0
 42
0.000000001
 43
0.0000000001
 40
0.0
 40
0.0
 40
0.0
 40
0.0
 40
0.0895666099134426
 40
0.2574446574809165
 40
0.4265404418782642
 40
0.5984839071749279
 40
0.7563954180467296
 40
0.9018621575732323
 40
1.0
 40
1.0
 40
1.0
 40
1.0
 10
3.827568360715145
 20
7.145374170272421
 30
0.0
 10
3.830882870854551
 20
7.156759473431212
 30
0.0
 10
3.840409891341247
 20
7.189484676214552
 30
0.0
 10
3.846142936449164
 20
7.248601704427852
 30
0.0
 10
3.839473600058671
 20
7.31704728610466
 30
0.0
 10
3.819113100075722
 20
7.37652326515976
 30
0.0
 10
3.787530208467325
 20
7.420177001309891
 30
0.0
 10
3.751302807924516
 20
7.446802608425529
 30
0.0
 10
3.725307014542258
 20
7.449048973944904
 30
0.0
 10
3.714834423861708
 20
7.449953938308072
 30
0.0
  0
LINE
  5
1A2
330
2
100
AcDbEntity
  8
0
100
AcDbLine
 10
3.576063723650956
 20
7.023921940629069
 30
0.0
 11
3.683509638752712
 21
7.016985906565603
 31
0.0
  0
LINE
  5
1A3
330
2
100
AcDbEntity
  8
0
100
AcDbLine
 10
3.716259577139719
 20
7.451935807002075
 30
0.0
 11
3.608985637359615
 21
7.461167637723771
 31
0.0
  0
LINE
  5
1A4
330
2
100
AcDbEntity
  8
0
100
AcDbLine
 10
3.419144732379121
 20
7.53934672803826
 30
0.0
 11
3.219298826979031
 21
7.552246591666039
 31
0.0
  0
SPLINE
  5
1A5
330
2
100
AcDbEntity
  8
0
100
AcDbSpline
210
0.0
220
0.0
230
1.0
 70
     8
 71
     3
 72
    12
 73
     8
 74
     0
 42
0.000000001
 43
0.0000000001
 40
0.0
 40
0.0
 40
0.0
 40
0.0
 40
0.0561526623884076
 40
0.2973808932933741
 40
0.5349958086800302
 40
0.7911384618867823
 40
1.0
 40
1.0
 40
1.0
 40
1.0
 10
3.940617148491575
 20
7.807681578863592
 30
0.0
 10
3.94416106252557
 20
7.806803741503097
 30
0.0
 10
3.962929403622065
 20
7.802154771225887
 30
0.0
 10
3.998126591096892
 20
7.814471339507638
 30
0.0
 10
4.037735352258973
 20
7.843018564839939
 30
0.0
 10
4.068205147358798
 20
7.884467784721873
 30
0.0
 10
4.081402033094698
 20
7.91868098924755
 30
0.0
 10
4.08732955354407
 20
7.934048210993942
 30
0.0
  0
SPLINE
  5
1A6
330
2
100
AcDbEntity
  8
0
100
AcDbSpline
210
0.0
220
0.0
230
1.0
 70
     8
 71
     3
 72
    14
 73
    10
 74
     0
 42
0.000000001
 43
0.0000000001
 40
0.0
 40
0.0
 40
0.0
 40
0.0
 40
0.0895670159676381
 40
0.2574451310446296
 40
0.4265406876876749
 40
0.5984844361673513
 40
0.7563960547221375
 40
0.9018622010086328
 40
1.0
 40
1.0
 40
1.0
 40
1.0
 10
4.08732955354407
 20
7.934048210993942
 30
0.0
 10
4.090644061299032
 20
7.945433559563571
 30
0.0
 10
4.100171049265637
 20
7.978158804709082
 30
0.0
 10
4.105904185328178
 20
8.037275873686304
 30
0.0
 10
4.099234605508045
 20
8.105721312337731
 30
0.0
 10
4.07887488952134
 20
8.165197622461629
 30
0.0
 10
4.047289546348411
 20
8.20885057823494
 30
0.0
 10
4.011064215245427
 20
8.235476680878305
 30
0.0
 10
3.985068285173503
 20
8.237723123219563
 30
0.0
 10
3.974595616690702
 20
8.238628120495686
 30
0.0
  0
LINE
  5
1A7
330
2
100
AcDbEntity
  8
0
100
AcDbLine
 10
3.835823784744242
 20
7.812595654647108
 30
0.0
 11
3.943270831584904
 21
7.805660088752765
 31
0.0
  0
LINE
  5
1A8
330
2
100
AcDbEntity
  8
0
100
AcDbLine
 10
3.976020769971977
 20
8.240609847722968
 30
0.0
 11
3.868746830191943
 21
8.24984167844463
 31
0.0
  0
LINE
  5
1A9
330
2
100
AcDbEntity
  8
0
100
AcDbLine
 10
3.67890592521138
 20
8.328020768759119
 30
0.0
 11
3.479060019802468
 21
8.340920632386936
 31
0.0
  0
LINE
  5
1AA
330
2
100
AcDbEntity
  8
0
100
AcDbLine
 10
3.890142588468083
 20
8.602323023169905
 30
0.0
 11
3.804687705228294
 21
8.607548091658905
 31
0.0
  0
LINE
  5
1AB
330
2
100
AcDbEntity
  8
0
100
AcDbLine
 10
3.871712237347639
 20
5.361917205750705
 30
0.0
 11
3.908576040726484
 21
5.473842216318536
 31
0.0
  0
LINE
  5
1AC
330
2
100
AcDbEntity
  8
0
100
AcDbLine
 10
4.877476170858809
 20
4.75709632696215
 30
0.0
 11
4.906492566481732
 21
4.845193961120763
 31
0.0
  0
LINE
  5
1AD
330
2
100
AcDbEntity
  8
0
100
AcDbLine
 10
4.816157962528214
 20
4.2802980326503
 30
0.0
 11
5.083596541741232
 21
4.257282740048916
 31
0.0
  0
LINE
  5
1AE
330
2
100
AcDbEntity
  8
0
100
AcDbLine
 10
5.421078739898412
 20
3.972904422728099
 30
0.0
 11
5.506908834224607
 21
3.965232413258606
 31
0.0
  0
SPLINE
  5
1AF
330
2
100
AcDbEntity
  8
0
100
AcDbSpline
210
0.0
220
0.0
230
1.0
 70
     8
 71
     3
 72
     9
 73
     5
 74
     0
 42
0.000000001
 43
0.0000000001
 40
0.0
 40
0.0
 40
0.0
 40
0.0
 40
0.6184372295390216
 40
1.0
 40
1.0
 40
1.0
 40
1.0
 10
4.997104090832376
 20
8.064324545628949
 30
0.0
 10
4.984263840090783
 20
8.073905056385054
 30
0.0
 10
4.963501424556396
 20
8.089396540885752
 30
0.0
 10
4.937817100827499
 20
8.091267683576532
 30
0.0
 10
4.928016919108078
 20
8.091981641965549
 30
0.0
  0
LINE
  5
1B0
330
2
100
AcDbEntity
  8
0
100
AcDbLine
 10
4.928517292285736
 20
8.093930817511637
 30
0.0
 11
4.096959039108609
 21
8.168261741165911
 31
0.0
  0
LINE
  5
1B1
330
2
100
AcDbEntity
  8
0
100
AcDbLine
 10
5.670965810324068
 20
7.480743177915585
 30
0.0
 11
4.997104090828695
 21
8.064324545630405
 31
0.0
  0
SPLINE
  5
1B2
330
2
100
AcDbEntity
  8
0
100
AcDbSpline
210
0.0
220
0.0
230
1.0
 70
     8
 71
     3
 72
     9
 73
     5
 74
     0
 42
0.000000001
 43
0.0000000001
 40
0.0
 40
0.0
 40
0.0
 40
0.0
 40
0.4962257895678297
 40
1.0
 40
1.0
 40
1.0
 40
1.0
 10
4.594724593754478
 20
5.299724061190014
 30
0.0
 10
4.600379804236462
 20
5.304487059249559
 30
0.0
 10
4.611776250372265
 20
5.314085508503252
 30
0.0
 10
4.619941889582172
 20
5.325259741439911
 30
0.0
 10
4.624055528027753
 20
5.330889031814756
 30
0.0
  0
SPLINE
  5
1B3
330
2
100
AcDbEntity
  8
0
100
AcDbSpline
210
0.0
220
0.0
230
1.0
 70
     8
 71
     3
 72
    10
 73
     6
 74
     0
 42
0.000000001
 43
0.0000000001
 40
0.0
 40
0.0
 40
0.0
 40
0.0
 40
0.4246994035048667
 40
0.9248441483348596
 40
1.0
 40
1.0
 40
1.0
 40
1.0
 10
4.547164632867112
 20
5.275546479943001
 30
0.0
 10
4.554071989299051
 20
5.277494588394543
 30
0.0
 10
4.569113753247421
 20
5.28173687526111
 30
0.0
 10
4.585557399977158
 20
5.291244262630751
 30
0.0
 10
4.593665386396818
 20
5.298744277709555
 30
0.0
 10
4.594724593754478
 20
5.299724061190048
 30
0.0
  0
LINE
  5
1B4
330
2
100
AcDbEntity
  8
0
100
AcDbLine
 10
4.6240555280281
 20
5.330889031811352
 30
0.0
 11
4.646014637588318
 21
5.36015280023062
 31
0.0
  0
LINE
  5
1B5
330
2
100
AcDbEntity
  8
0
100
AcDbLine
 10
4.531986410779843
 20
5.272760276844076
 30
0.0
 11
4.547164632863014
 21
5.275546479945159
 31
0.0
  0
SPLINE
  5
1B6
330
2
100
AcDbEntity
  8
0
100
AcDbSpline
210
0.0
220
0.0
230
1.0
 70
     8
 71
     2
 72
     6
 73
     3
 74
     0
 42
0.000000001
 43
0.0000000001
 40
0.0
 40
0.0
 40
0.0
 40
1.0
 40
1.0
 40
1.0
 10
4.529750058937864
 20
5.272269123543165
 30
0.0
 10
4.530877298813042
 20
5.272518264045157
 30
0.0
 10
4.531986410781095
 20
5.272760276844149
 30
0.0
  0
SPLINE
  5
1B7
330
2
100
AcDbEntity
  8
0
100
AcDbSpline
210
0.0
220
0.0
230
1.0
 70
     8
 71
     3
 72
    12
 73
     8
 74
     0
 42
0.000000001
 43
0.0000000001
 40
0.0
 40
0.0
 40
0.0
 40
0.0
 40
0.067366168286369
 40
0.3069842954474938
 40
0.5348031355017388
 40
0.7837831707209901
 40
1.0
 40
1.0
 40
1.0
 40
1.0
 10
5.580103694956175
 20
4.38615480415131
 30
0.0
 10
5.584297645623161
 20
4.385391161653414
 30
0.0
 10
5.603409271286177
 20
4.381911280577256
 30
0.0
 10
5.637172791930686
 20
4.393199637698738
 30
0.0
 10
5.674448966835969
 20
4.417940028821361
 30
0.0
 10
5.702069805091612
 20
4.452724346022105
 30
0.0
 10
5.713199262206014
 20
4.480915574001364
 30
0.0
 10
5.718372074218527
 20
4.494018452357475
 30
0.0
  0
LINE
  5
1B8
330
2
100
AcDbEntity
  8
0
100
AcDbLine
 10
5.140442628627522
 20
4.411272834242751
 30
0.0
 11
5.579704301555599
 21
4.384415767150334
 31
0.0
  0
LINE
  5
1B9
330
2
100
AcDbEntity
  8
0
100
AcDbLine
 10
5.95261404746386
 20
4.901459720954969
 30
0.0
 11
6.071943266495374
 21
4.99876850596652
 31
0.0
  0
SPLINE
  5
1BA
330
2
100
AcDbEntity
  8
0
100
AcDbSpline
210
0.0
220
0.0
230
1.0
 70
     8
 71
     3
 72
    11
 73
     7
 74
     0
 42
0.000000001
 43
0.0000000001
 40
0.0
 40
0.0
 40
0.0
 40
0.0
 40
0.1430693510064041
 40
0.4273942590745158
 40
0.7122227007896443
 40
1.0
 40
1.0
 40
1.0
 40
1.0
 10
5.763221356263395
 20
4.630186298333358
 30
0.0
 10
5.768370523079413
 20
4.644541934117263
 30
0.0
 10
5.783752743804701
 20
4.687426844660528
 30
0.0
 10
5.821695935091181
 20
4.757630358639922
 30
0.0
 10
5.880173339686917
 20
4.836533939449583
 30
0.0
 10
5.928384384321155
 20
4.879743618730877
 30
0.0
 10
5.952614047465108
 20
4.901459720953718
 30
0.0
  0
LINE
  5
1BB
330
2
100
AcDbEntity
  8
0
100
AcDbLine
 10
5.718372074217414
 20
4.494018452357369
 30
0.0
 11
5.763221356264438
 21
4.630186298335615
 31
0.0
  0
LINE
  5
1BC
330
2
100
AcDbEntity
  8
0
100
AcDbLine
 10
5.885055142347006
 20
8.117570853945892
 30
0.0
 11
5.373325841448916
 21
6.563882921661633
 31
0.0
  0
LINE
  5
1BD
330
2
100
AcDbEntity
  8
0
100
AcDbLine
 10
5.856537499484449
 20
8.662192912985021
 30
0.0
 11
5.542174042988496
 21
8.780465403525264
 31
0.0
  0
LINE
  5
1BE
330
2
100
AcDbEntity
  8
0
100
AcDbLine
 10
6.206717153684504
 20
8.539303635782852
 30
0.0
 11
6.120240447948606
 21
8.614194659784411
 31
0.0
  0
LINE
  5
1BF
330
2
100
AcDbEntity
  8
0
100
AcDbLine
 10
6.097266621664543
 20
8.623425611776927
 30
0.0
 11
5.985104371902338
 21
8.631870457409767
 31
0.0
  0
LINE
  5
1C0
330
2
100
AcDbEntity
  8
0
100
AcDbLine
 10
4.935081047405869
 20
8.829983199140794
 30
0.0
 11
4.923391420256329
 21
8.794492776473934
 31
0.0
  0
LINE
  5
1C1
330
2
100
AcDbEntity
  8
0
100
AcDbLine
 10
4.930370298185899
 20
8.777165451861254
 30
0.0
 11
4.741465516059657
 21
8.791388977499934
 31
0.0
  0
LINE
  5
1C2
330
2
100
AcDbEntity
  8
0
100
AcDbLine
 10
4.584521147731726
 20
8.872551757761154
 30
0.0
 11
4.107609484479031
 21
8.908460958734538
 31
0.0
  0
LINE
  5
1C3
330
2
100
AcDbEntity
  8
0
100
AcDbLine
 10
4.74149537362671
 20
8.791363644775429
 30
0.0
 11
4.694948301712321
 21
8.830941933987187
 31
0.0
  0
LINE
  5
1C4
330
2
100
AcDbEntity
  8
0
100
AcDbLine
 10
2.094303604504763
 20
5.27207820002874
 30
0.0
 11
2.094303604504763
 21
5.237901134171295
 31
0.0
  0
LINE
  5
1C5
330
2
100
AcDbEntity
  8
0
100
AcDbLine
 10
3.673015251680483
 20
8.646845736571188
 30
0.0
 11
3.446596918115283
 21
8.514244705386591
 31
0.0
  0
LINE
  5
1C6
330
2
100
AcDbEntity
  8
0
100
AcDbLine
 10
8.271756159385407
 20
8.44792542509608
 30
0.0
 11
8.45017886904089
 21
8.43449132661326
 31
0.0
  0
LINE
  5
1C7
330
2
100
AcDbEntity
  8
0
100
AcDbLine
 10
8.474037879988228
 20
9.210682587644766
 30
0.0
 11
8.335869652836457
 21
9.330339782355668
 31
0.0
  0
LINE
  5
1C8
330
2
100
AcDbEntity
  8
0
100
AcDbLine
 10
7.723560872341322
 20
7.219132877341653
 30
0.0
 11
7.78341369800476
 21
7.246503964116582
 31
0.0
  0
SPLINE
  5
1C9
330
2
100
AcDbEntity
  8
0
100
AcDbSpline
210
0.0
220
0.0
230
1.0
 70
     8
 71
     3
 72
    10
 73
     6
 74
     0
 42
0.000000001
 43
0.0000000001
 40
0.0
 40
0.0
 40
0.0
 40
0.0
 40
0.223414656091903
 40
0.6496074072459033
 40
1.0
 40
1.0
 40
1.0
 40
1.0
 10
7.813394043489691
 20
7.29336917581145
 30
0.0
 10
7.817731644578995
 20
7.302679366770665
 30
0.0
 10
7.830343788502854
 20
7.329749967758924
 30
0.0
 10
7.863758055999245
 20
7.360922417561868
 30
0.0
 10
7.88711092422091
 20
7.374252609074225
 30
0.0
 10
7.897647656736675
 20
7.380267144891243
 30
0.0
  0
LINE
  5
1CA
330
2
100
AcDbEntity
  8
0
100
AcDbLine
 10
7.804323760294179
 20
7.27590589987258
 30
0.0
 11
7.813394043489205
 21
7.29336917581509
 31
0.0
  0
LINE
  5
1CB
330
2
100
AcDbEntity
  8
0
100
AcDbLine
 10
6.912969738729996
 20
9.490640323674124
 30
0.0
 11
6.876373023351471
 21
9.379528445225583
 31
0.0
  0
LINE
  5
1CC
330
2
100
AcDbEntity
  8
0
100
AcDbLine
 10
7.929594125569113
 20
6.846333960242963
 30
0.0
 11
7.951518717294799
 21
6.827346706837444
 31
0.0
  0
SPLINE
  5
1CD
330
2
100
AcDbEntity
  8
0
100
AcDbSpline
210
0.0
220
0.0
230
1.0
 70
     8
 71
     3
 72
    12
 73
     8
 74
     0
 42
0.000000001
 43
0.0000000001
 40
0.0
 40
0.0
 40
0.0
 40
0.0
 40
0.0606925764686208
 40
0.3204610155387727
 40
0.5571976569296279
 40
0.7857352886232667
 40
1.0
 40
1.0
 40
1.0
 40
1.0
 10
11.55963183175116
 20
9.720570797092785
 30
0.0
 10
11.55612779830792
 20
9.715983713300646
 30
0.0
 10
11.53762625856383
 20
9.69176359255573
 30
0.0
 10
11.52152036310522
 20
9.640733376724426
 30
0.0
 10
11.51523059555797
 20
9.575372051470601
 30
0.0
 10
11.52739872175014
 20
9.514807188470614
 30
0.0
 10
11.54964038506942
 20
9.48280966317877
 30
0.0
 10
11.5604027571441
 20
9.467326591264807
 30
0.0
  0
SPLINE
  5
1CE
330
2
100
AcDbEntity
  8
0
100
AcDbSpline
210
0.0
220
0.0
230
1.0
 70
     8
 71
     3
 72
    13
 73
     9
 74
     0
 42
0.000000001
 43
0.0000000001
 40
0.0
 40
0.0
 40
0.0
 40
0.0
 40
0.1303754809643037
 40
0.303283450701318
 40
0.4791018037484784
 40
0.6622248062783119
 40
0.8520685611530565
 40
1.0
 40
1.0
 40
1.0
 40
1.0
 10
11.86742097104375
 20
9.816582552427572
 30
0.0
 10
11.85461393779803
 20
9.824450414063557
 30
0.0
 10
11.8248218234581
 20
9.842752875607358
 30
0.0
 10
11.76827298398599
 20
9.84938441790728
 30
0.0
 10
11.70580349269819
 20
9.840182561377277
 30
0.0
 10
11.64493909354966
 20
9.81180646737719
 30
0.0
 10
11.59303700772817
 20
9.771182651797225
 30
0.0
 10
11.56980603036379
 20
9.73598562568908
 30
0.0
 10
11.55963183175116
 20
9.720570797092785
 30
0.0
  0
LINE
  5
1CF
330
2
100
AcDbEntity
  8
0
100
AcDbLine
 10
11.92106020702413
 20
9.782425042514795
 30
0.0
 11
11.86742097104375
 21
9.816582552427572
 31
0.0
  0
LINE
  5
1D0
330
2
100
AcDbEntity
  8
0
100
AcDbLine
 10
11.56340074432868
 20
9.463315133134246
 30
0.0
 11
11.58415474227565
 21
9.439885967776287
 31
0.0
  0
SPLINE
  5
1D1
330
2
100
AcDbEntity
  8
0
100
AcDbSpline
210
0.0
220
0.0
230
1.0
 70
     8
 71
     3
 72
    12
 73
     8
 74
     0
 42
0.000000001
 43
0.0000000001
 40
0.0
 40
0.0
 40
0.0
 40
0.0
 40
0.0606937166279216
 40
0.3204616990037354
 40
0.5571981577917608
 40
0.7857356728127672
 40
1.0
 40
1.0
 40
1.0
 40
1.0
 10
22.11654808579721
 20
12.76809001763569
 30
0.0
 10
22.11304389753362
 20
12.76350290075284
 30
0.0
 10
22.0945418484425
 20
12.73928300862103
 30
0.0
 10
22.07843649419113
 20
12.68825242369799
 30
0.0
 10
22.07214647075036
 20
12.62289117591911
 30
0.0
 10
22.08431490962534
 20
12.56232643041768
 30
0.0
 10
22.10655643166846
 20
12.53032882875285
 30
0.0
 10
22.11731872825788
 20
12.5148457301322
 30
0.0
  0
SPLINE
  5
1D2
330
2
100
AcDbEntity
  8
0
100
AcDbSpline
210
0.0
220
0.0
230
1.0
 70
     8
 71
     3
 72
    13
 73
     9
 74
     0
 42
0.000000001
 43
0.0000000001
 40
0.0
 40
0.0
 40
0.0
 40
0.0
 40
0.1303755812226645
 40
0.3032836839253981
 40
0.4791021721763542
 40
0.6622244685674682
 40
0.8520687492924226
 40
1.0
 40
1.0
 40
1.0
 40
1.0
 10
22.42433694215754
 20
12.86410169129497
 30
0.0
 10
22.41152990879332
 20
12.87196955336495
 30
0.0
 10
22.38173779417763
 20
12.89027201591822
 30
0.0
 10
22.32518895730988
 20
12.8969035486839
 30
0.0
 10
22.26271955478259
 20
12.8877017460563
 30
0.0
 10
22.20185524119068
 20
12.85932556614669
 30
0.0
 10
22.14995314154013
 20
12.81870192675328
 30
0.0
 10
22.12672223171756
 20
12.78350483845302
 30
0.0
 10
22.11654808579721
 20
12.76809001763569
 30
0.0
  0
LINE
  5
1D3
330
2
100
AcDbEntity
  8
0
100
AcDbLine
 10
22.12031685691069
 20
12.51083431283648
 30
0.0
 11
22.14107071339139
 21
12.48740510663737
 31
0.0
  0
LINE
  5
1D4
330
2
100
AcDbEntity
  8
0
100
AcDbLine
 10
22.14107071339139
 20
12.48740510663737
 30
0.0
 11
22.1929040120204
 21
12.43874625698353
 31
0.0
  0
LINE
  5
1D5
330
2
100
AcDbEntity
  8
0
100
AcDbLine
 10
22.50867036242993
 20
12.80336191134092
 30
0.0
 11
22.45827362789913
 21
12.84414130362421
 31
0.0
  0
LINE
  5
1D6
330
2
100
AcDbEntity
  8
0
100
AcDbLine
 10
11.58415474227565
 20
9.439885967776287
 30
0.0
 11
11.63598818237086
 21
9.391227158954793
 31
0.0
  0
LINE
  5
1D7
330
2
100
AcDbEntity
  8
0
100
AcDbLine
 10
11.95175467424674
 20
9.755842854144562
 30
0.0
 11
11.92106020702413
 21
9.782425042514795
 31
0.0
  0
LINE
  5
1D8
330
2
100
AcDbEntity
  8
0
100
AcDbLine
 10
25.14832808103888
 20
13.34269955479211
 30
0.0
 11
25.11035348581034
 21
13.33173723340459
 31
0.0
  0
LINE
  5
1D9
330
2
100
AcDbEntity
  8
0
100
AcDbLine
 10
27.57508823397071
 20
13.73632043262854
 30
0.0
 11
27.55692333809008
 21
13.75205169391821
 31
0.0
  0
LINE
  5
1DA
330
2
100
AcDbEntity
  8
0
100
AcDbLine
 10
27.55692333809008
 20
13.75205169391821
 30
0.0
 11
26.18064288452681
 21
14.94394552943255
 31
0.0
  0
LINE
  5
1DB
330
2
100
AcDbEntity
  8
0
100
AcDbLine
 10
26.05383530104039
 20
15.05376411812399
 30
0.0
 11
25.78653964224994
 21
15.28524894895715
 31
0.0
  0
LINE
  5
1DC
330
2
100
AcDbEntity
  8
0
100
AcDbLine
 10
25.72921040661443
 20
15.3348975233969
 30
0.0
 11
25.11953314331079
 21
15.86289352152611
 31
0.0
  0
LINE
  5
1DD
330
2
100
AcDbEntity
  8
0
100
AcDbLine
 10
25.04069124935865
 20
15.86091340603057
 30
0.0
 11
8.483801680911746
 21
11.08135108138694
 31
0.0
  0
LINE
  5
1DE
330
2
100
AcDbEntity
  8
0
100
AcDbLine
 10
25.13160249564623
 20
12.10040014905656
 30
0.0
 11
27.45560989298569
 21
10.08775070437834
 31
0.0
  0
LINE
  5
1DF
330
2
100
AcDbEntity
  8
0
100
AcDbLine
 10
28.1758989064441
 20
10.32795282729445
 30
0.0
 11
28.1758989064441
 21
10.36592734736546
 31
0.0
  0
LINE
  5
1E0
330
2
100
AcDbEntity
  8
0
100
AcDbLine
 10
10.93785010373702
 20
6.009376951233497
 30
0.0
 11
26.85814503121854
 21
10.60517023221795
 31
0.0
  0
LINE
  5
1E1
330
2
100
AcDbEntity
  8
0
100
AcDbLine
 10
5.543389414351092
 20
6.571713176251487
 30
0.0
 11
5.588640930311886
 21
6.53252421388078
 31
0.0
  0
LINE
  5
1E2
330
2
100
AcDbEntity
  8
0
100
AcDbLine
 10
6.037641074587349
 20
8.231394322447858
 30
0.0
 11
6.024652222733269
 21
8.191960504890673
 31
0.0
  0
LINE
  5
1E3
330
2
100
AcDbEntity
  8
0
100
AcDbLine
 10
9.257855922349293
 20
5.989461821516647
 30
0.0
 11
8.544168478935674
 21
6.043199054090194
 31
0.0
  0
LINE
  5
1E4
330
2
100
AcDbEntity
  8
0
100
AcDbLine
 10
9.305449329492573
 20
5.891579005496007
 30
0.0
 11
9.318437049607677
 21
5.93101263780789
 31
0.0
  0
ARC
  5
1E5
330
2
100
AcDbEntity
  8
0
100
AcDbCircle
 10
6.162715621294315
 20
8.655436552416947
 30
0.0
 40
0.0215421641337804
100
AcDbArc
 50
99.61106931520333
 51
162.1753033699015
  0
LINE
  5
1E6
330
2
100
AcDbEntity
  8
0
100
AcDbLine
 10
6.30875953996876
 20
8.69348816958387
 30
0.0
 11
6.270006881165087
 21
8.689134619296515
 31
0.0
  0
LINE
  5
1E7
330
2
100
AcDbEntity
  8
0
100
AcDbLine
 10
6.26620200881628
 20
8.688707079534683
 30
0.0
 11
6.159118958077385
 21
8.676676346414538
 31
0.0
  0
LINE
  5
1E8
330
2
100
AcDbEntity
  8
0
100
AcDbLine
 10
6.142207534079943
 20
8.662030731214819
 30
0.0
 11
6.125073159499692
 21
8.610009353594097
 31
0.0
  0
LINE
  5
1E9
330
2
100
AcDbEntity
  8
0
100
AcDbLine
 10
4.743657244349456
 20
4.312819629362383
 30
0.0
 11
4.051110300611173
 21
4.912582875951551
 31
0.0
  0
LINE
  5
1EA
330
2
100
AcDbEntity
  8
0
100
AcDbLine
 10
4.537471873198208
 20
4.892785890230392
 30
0.0
 11
4.051110300611173
 21
4.912582875951551
 31
0.0
  0
ELLIPSE
  5
1EB
330
2
100
AcDbEntity
  8
0
100
AcDbEllipse
 10
4.522506506060532
 20
4.904293248003384
 30
0.0
 11
0.0249290548294305
 21
-0.0084122483282861
 31
0.0
210
0.0
220
0.0
230
1.0
 40
0.3166888303999999
 41
5.458480189693617
 42
6.942010053889517
  0
LINE
  5
1EC
330
2
100
AcDbEntity
  8
0
100
AcDbLine
 10
4.304861812922723
 20
5.1094433069092
 30
0.0
 11
4.543848753171237
 21
4.902474545478831
 31
0.0
  0
ELLIPSE
  5
1ED
330
2
100
AcDbEntity
  8
0
100
AcDbEllipse
 10
4.283519557428053
 20
5.111262016695178
 30
0.0
 11
0.0249290548294205
 21
-0.0084122483282861
 31
0.0
210
0.0
220
0.0
230
0.9999999999999998
 40
0.3166888303999999
 41
0.6588247467100106
 42
2.142354610904445
  0
LINE
  5
1EE
330
2
100
AcDbEntity
  8
0
100
AcDbLine
 10
3.73047050115945
 20
5.190265087735924
 30
0.0
 11
4.272275522316109
 21
5.122452667085214
 31
0.0
  0
LINE
  5
1EF
330
2
100
AcDbEntity
  8
0
100
AcDbLine
 10
3.73047050115945
 20
5.190265087735924
 30
0.0
 11
3.037923531900976
 21
5.790028356433865
 31
0.0
  0
LINE
  5
1F0
330
2
100
AcDbEntity
  8
0
100
AcDbLine
 10
3.076217516390715
 20
6.062383828736684
 30
0.0
 11
3.859737672329826
 21
5.383835469309476
 31
0.0
  0
ELLIPSE
  5
1F1
330
2
100
AcDbEntity
  8
0
100
AcDbEllipse
 10
3.788595064301418
 20
5.389897310931544
 30
0.0
 11
0.0830968494314166
 21
-0.0280408277609521
 31
0.0
210
0.0
220
0.0
230
1.0
 40
0.3166888304
 41
5.458480189693979
 42
6.942010053889137
  0
LINE
  5
1F2
330
2
100
AcDbEntity
  8
0
100
AcDbLine
 10
3.728720469660405
 20
5.356006707613957
 30
0.0
 11
3.838478017382309
 21
5.351538989374446
 31
0.0
  0
ELLIPSE
  5
1F3
330
2
100
AcDbEntity
  8
0
100
AcDbEllipse
 10
3.753661477172328
 20
5.336827412740195
 30
0.0
 11
0.0415484247157058
 21
-0.0140204138804835
 31
0.0
210
0.0
220
0.0
230
0.9999999999999998
 40
0.3166888304
 41
2.316887536104295
 42
3.800417400299778
  0
LINE
  5
1F4
330
2
100
AcDbEntity
  8
0
100
AcDbLine
 10
3.721758898649198
 20
5.33668101095409
 30
0.0
 11
3.718090076317195
 21
5.339858304286277
 31
0.0
  0
ELLIPSE
  5
1F5
330
2
100
AcDbEntity
  8
0
100
AcDbEllipse
 10
3.757330287980805
 20
5.333650129379332
 30
0.0
 11
0.0415484247157058
 21
-0.0140204138804835
 31
0.0
210
0.0
220
0.0
230
0.9999999999999998
 40
0.3166888304
 41
3.800417400299803
 42
5.283947264494716
  0
LINE
  5
1F6
330
2
100
AcDbEntity
  8
0
100
AcDbLine
 10
3.776071632837326
 20
5.31499939739682
 30
0.0
 11
4.204789042592901
 21
5.26134069623518
 31
0.0
  0
ELLIPSE
  5
1F7
330
2
100
AcDbEntity
  8
0
100
AcDbEllipse
 10
4.279753039234917
 20
5.186737419607576
 30
0.0
 11
0.1661936988628332
 21
-0.0560816555219191
 31
0.0
210
0.0
220
0.0
230
0.9999999999999998
 40
0.3166888304
 41
0.6588247467096388
 42
2.14235461090486
  0
LINE
  5
1F8
330
2
100
AcDbEntity
  8
0
100
AcDbLine
 10
4.422037695477861
 20
5.174613606306746
 30
0.0
 11
4.853527030615108
 21
4.800932880608444
 31
0.0
  0
ELLIPSE
  5
1F9
330
2
100
AcDbEntity
  8
0
100
AcDbEllipse
 10
4.71124237817826
 20
4.813056690620596
 30
0.0
 11
0.1661936988628331
 21
-0.0560816555219142
 31
0.0
210
0.0
220
0.0
230
0.9999999999999998
 40
0.3166888304
 41
5.458480189694113
 42
6.942010053889237
  0
LINE
  5
1FA
330
2
100
AcDbEntity
  8
0
100
AcDbLine
 10
4.811007710503242
 20
4.736339929578361
 30
0.0
 11
4.426161475334354
 21
4.752005079056477
 31
0.0
  0
ELLIPSE
  5
1FB
330
2
100
AcDbEntity
  8
0
100
AcDbEllipse
 10
4.451102478198243
 20
4.732825788208071
 30
0.0
 11
0.0415484247157108
 21
-0.0140204138804835
 31
0.0
210
0.0
220
0.0
230
0.9999999999999998
 40
0.3166888304
 41
2.316887536104025
 42
3.800417400300071
  0
LINE
  5
1FC
330
2
100
AcDbEntity
  8
0
100
AcDbLine
 10
4.419199883898101
 20
4.732679400076572
 30
0.0
 11
4.415531081991071
 21
4.735856675737556
 31
0.0
  0
ELLIPSE
  5
1FD
330
2
100
AcDbEntity
  8
0
100
AcDbEllipse
 10
4.454771289006654
 20
4.729648504847203
 30
0.0
 11
0.0415484247157058
 21
-0.0140204138804835
 31
0.0
210
0.0
220
0.0
230
0.9999999999999998
 40
0.3166888304
 41
3.800417400300069
 42
5.283947264494716
  0
LINE
  5
1FE
330
2
100
AcDbEntity
  8
0
100
AcDbLine
 10
4.595782136758489
 20
4.695694383600336
 30
0.0
 11
4.473512618095121
 21
4.710997786528094
 31
0.0
  0
ELLIPSE
  5
1FF
330
2
100
AcDbEntity
  8
0
100
AcDbEllipse
 10
4.633263879486914
 20
4.658392659197442
 30
0.0
 11
0.0830968494314166
 21
-0.0280408277609571
 31
0.0
210
0.0
220
0.0
230
1.0
 40
0.3166888304
 41
0.6588247467096168
 42
2.142354610904783
  0
LINE
  5
200
330
2
100
AcDbEntity
  8
0
100
AcDbLine
 10
4.704406473404666
 20
4.65233082979177
 30
0.0
 11
5.487926670184904
 21
3.973782435004539
 31
0.0
  0
LINE
  5
201
330
2
100
AcDbEntity
  8
0
100
AcDbLine
 10
5.083596541741232
 20
4.257282740048916
 30
0.0
 11
5.402096575867528
 21
3.981454444474065
 31
0.0
  0
ELLIPSE
  5
202
330
2
100
AcDbEntity
  8
0
100
AcDbEllipse
 10
3.883972003819943
 20
8.514838232803567
 30
0.0
 11
0.006581070772849
 21
0.0874568916446317
 31
0.0
210
0.0
220
0.0
230
0.9999999999999998
 40
0.5778770211000001
 41
5.877920137287945
 42
7.448640311660927
  0
LINE
  5
203
330
2
100
AcDbEntity
  8
0
100
AcDbLine
 10
4.436231740898186
 20
8.137935054476399
 30
0.0
 11
3.909946305724992
 21
8.593711610978758
 31
0.0
  0
LINE
  5
204
330
2
100
AcDbEntity
  8
0
100
AcDbLine
 10
3.413622057243542
 20
6.160228292285441
 30
0.0
 11
3.69610610164143
 21
7.017891943521442
 31
0.0
  0
LINE
  5
205
330
2
100
AcDbEntity
  8
0
100
AcDbLine
 10
3.814679595255483
 20
7.377900484042767
 30
0.0
 11
3.955867294473619
 21
7.806566125708566
 31
0.0
  0
ARC
  5
206
330
2
100
AcDbEntity
  8
0
100
AcDbCircle
 10
3.701120072520391
 20
6.046670504259685
 30
0.0
 40
0.3091124067519831
100
AcDbArc
 50
158.4466572452005
 51
209.5566189156511
  0
ELLIPSE
  5
207
330
2
100
AcDbEntity
  8
0
100
AcDbEllipse
 10
3.102197381215288
 20
6.141251215673395
 30
0.0
 11
0.0065886721134325
 21
0.0874514659970362
 31
0.0
210
0.0
220
0.0
230
0.9999999999999998
 40
0.5779408021
 41
1.165636268090271
 42
2.736356442463288
  0
LINE
  5
208
330
2
100
AcDbEntity
  8
0
100
AcDbLine
 10
3.840123295106204
 20
8.552820285500047
 30
0.0
 11
3.058344254537135
 21
6.179221117915336
 31
0.0
  0
LWPOLYLINE
  5
209
330
2
100
AcDbEntity
  8
0
100
AcDbPolyline
 90
        7
 70
   128
 43
0.0
 10
3.741881284277719
 20
8.126213747597631
 10
3.726282247013996
 20
8.053052854602048
 10
3.725785519604206
 20
7.977265366529453
 10
3.740453808495636
 20
7.907992864316308
 10
3.768515607773086
 20
7.853590110603809
 10
3.806587250596174
 20
7.820619100756154
 10
3.835823784744242
 20
7.812595654647108
  0
LWPOLYLINE
  5
20A
330
2
100
AcDbEntity
  8
0
100
AcDbPolyline
 90
        5
 70
   128
 43
0.0
 10
3.868746830191943
 20
8.24984167844463
 10
3.852932942326778
 20
8.249498610967993
 10
3.809270892390636
 20
8.230740357194648
 10
3.77070373556141
 20
8.187923993459927
 10
3.741881284277719
 20
8.126213747597631
  0
LWPOLYLINE
  5
20B
330
2
100
AcDbEntity
  8
0
100
AcDbPolyline
 90
        7
 70
   128
 43
0.0
 10
3.482121223175681
 20
7.337540033579593
 10
3.46652105419049
 20
7.264378813881149
 10
3.4660243267807
 20
7.188591325808593
 10
3.480692615672196
 20
7.119318823595409
 10
3.508754414940755
 20
7.064915999145405
 10
3.546826057763985
 20
7.031944989297751
 10
3.576063723650956
 20
7.023921940629069
  0
LWPOLYLINE
  5
20C
330
2
100
AcDbEntity
  8
0
100
AcDbPolyline
 90
        5
 70
   128
 43
0.0
 10
3.608985637359615
 20
7.461167637723771
 10
3.593171749503272
 20
7.46082442878083
 10
3.549510831288598
 20
7.442066501710305
 10
3.510942542729151
 20
7.399249952739035
 10
3.482121223175681
 20
7.337540033579593
  0
LINE
  5
20D
330
2
100
AcDbEntity
  8
0
100
AcDbLine
 10
3.681853975215052
 20
7.52440456455371
 30
0.0
 11
3.757185241731232
 21
7.753121821993161
 31
0.0
  0
ELLIPSE
  5
20E
330
2
100
AcDbEntity
  8
0
100
AcDbEllipse
 10
3.695009764539104
 20
7.513013590397751
 30
0.0
 11
0.0019766016340322
 21
0.0262354397991078
 31
0.0
210
0.0
220
0.0
230
1.0
 40
0.5779408021000001
 41
1.165636268090297
 42
2.73635644246337
  0
LINE
  5
20F
330
2
100
AcDbEntity
  8
0
100
AcDbLine
 10
3.687215137061431
 20
7.489353219836897
 30
0.0
 11
3.736810783637058
 21
7.446402129980276
 31
0.0
  0
LINE
  5
210
330
2
100
AcDbEntity
  8
0
100
AcDbLine
 10
3.765238805633393
 20
7.435360404352159
 30
0.0
 11
3.85267560253785
 21
7.700832020743134
 31
0.0
  0
LINE
  5
211
330
2
100
AcDbEntity
  8
0
100
AcDbLine
 10
3.778131441380183
 20
7.765389158003221
 30
0.0
 11
3.85267560253785
 21
7.700832020743134
 31
0.0
  0
ELLIPSE
  5
212
330
2
100
AcDbEntity
  8
0
100
AcDbEllipse
 10
3.770339862123261
 20
7.741727258561186
 30
0.0
 11
0.0019743212318502
 21
0.026237067493388
 31
0.0
210
0.0
220
0.0
230
1.0
 40
0.5778770211000001
 41
5.877920137287437
 42
7.448640311660861
  0
LINE
  5
213
330
2
100
AcDbEntity
  8
0
100
AcDbLine
 10
3.623811133470267
 20
8.160745465679017
 30
0.0
 11
3.364049940638009
 21
7.372071283491854
 31
0.0
  0
LINE
  5
214
330
2
100
AcDbEntity
  8
0
100
AcDbLine
 10
3.754667280136196
 20
8.558045027286233
 30
0.0
 11
3.623811133470267
 21
8.160745465679017
 31
0.0
  0
LINE
  5
215
330
2
100
AcDbEntity
  8
0
100
AcDbLine
 10
3.364049940638009
 20
7.372071283491854
 30
0.0
 11
3.222453418915544
 21
6.942160705935014
 31
0.0
  0
LWPOLYLINE
  5
216
330
2
100
AcDbEntity
  8
0
100
AcDbPolyline
 90
       17
 70
   128
 43
0.0
 10
3.82160480367135
 20
7.156404865858354
 10
3.834723848596333
 20
7.222115117046391
 10
3.832581789010709
 20
7.289308346277563
 10
3.81550519397326
 20
7.347754959713051
 10
3.786092671547849
 20
7.388556886765019
 10
3.748823687551015
 20
7.40550283823382
 10
3.709370468285324
 20
7.396012480058954
 10
3.673740552439902
 20
7.361530741099061
 10
3.647357734071722
 20
7.307307254662983
 10
3.634238689146805
 20
7.241597003474979
 10
3.636380748732364
 20
7.174403915710039
 10
3.653457425452204
 20
7.115957160817072
 10
3.682869947868794
 20
7.075155233756318
 10
3.720138931874379
 20
7.058209282287518
 10
3.759592069457749
 20
7.067699781928647
 10
3.795221985303171
 20
7.102181379422269
 10
3.82160480367135
 20
7.156404865858354
  0
ARC
  5
217
330
2
100
AcDbEntity
  8
0
100
AcDbCircle
 10
3.384623277184733
 20
6.070256545722745
 30
0.0
 40
0.4457898063554137
100
AcDbArc
 50
158.4462968151016
 51
218.9476879695059
  0
LWPOLYLINE
  5
218
330
2
100
AcDbEntity
  8
0
100
AcDbPolyline
 90
       10
 70
   128
 43
0.0
 10
3.219298826979031
 20
7.552246591666039
 10
3.183977591675563
 20
7.54793432331017
 10
3.134514723914113
 20
7.518966584650204
 10
3.091384831565005
 20
7.465839270724123
 10
3.058810206975761
 20
7.393753334558869
 10
3.039979444372494
 20
7.309764864758156
 10
3.036735615935551
 20
7.222095347697419
 10
3.049396925410432
 20
7.139326493367322
 10
3.076723338088849
 20
7.069559960478724
 10
3.116040165138588
 20
7.019625408302875
  0
LWPOLYLINE
  5
219
330
2
100
AcDbEntity
  8
0
100
AcDbPolyline
 90
        3
 70
   128
 43
0.0
 10
3.417973639061503
 20
5.914888753416247
 10
3.428190888632347
 20
5.898668371474323
 10
3.44697786586586
 20
5.877855365549337
  0
LINE
  5
21A
330
2
100
AcDbEntity
  8
0
100
AcDbLine
 10
3.222453418915544
 20
6.942160705935014
 30
0.0
 11
3.203738491226745
 21
6.943676430040804
 31
0.0
  0
LINE
  5
21B
330
2
100
AcDbEntity
  8
0
100
AcDbLine
 10
2.970005929892717
 20
6.234027748249611
 30
0.0
 11
3.203738491226745
 21
6.943676430040804
 31
0.0
  0
LWPOLYLINE
  5
21C
330
2
100
AcDbEntity
  8
0
100
AcDbPolyline
 90
       17
 70
   128
 43
0.0
 10
4.081365996503609
 20
7.945079048045516
 10
4.094485041428592
 20
8.01078915776725
 10
4.09234298184304
 20
8.077982386998421
 10
4.075266386796697
 20
8.136429000433942
 10
4.045853864380107
 20
8.177230927485911
 10
4.008584880383274
 20
8.194176878954712
 10
3.969131661117582
 20
8.184686520779846
 10
3.93350174527216
 20
8.15020478181996
 10
3.90711892690398
 20
8.095981436858931
 10
3.893999881979063
 20
8.030271185662108
 10
3.896141941564622
 20
7.963077956430931
 10
3.913218618284462
 20
7.90463127226669
 10
3.942631140701052
 20
7.863829345214722
 10
3.979900124697819
 20
7.846883393745921
 10
4.019353262290007
 20
7.856373822649546
 10
4.054983178135429
 20
7.890855561609432
 10
4.081365996503609
 20
7.945079048045516
  0
LINE
  5
21D
330
2
100
AcDbEntity
  8
0
100
AcDbLine
 10
3.44697786586586
 20
5.877855365549337
 30
0.0
 11
3.908938010100958
 21
5.477786145107899
 31
0.0
  0
LINE
  5
21E
330
2
100
AcDbEntity
  8
0
100
AcDbLine
 10
3.116040165138588
 20
7.019625408302875
 30
0.0
 11
3.203738491226745
 21
6.943676430040804
 31
0.0
  0
LWPOLYLINE
  5
21F
330
2
100
AcDbEntity
  8
0
100
AcDbPolyline
 90
       10
 70
   128
 43
0.0
 10
3.479060019802468
 20
8.340920632386936
 10
3.443738784507825
 20
8.336608505497332
 10
3.394275916746375
 20
8.307640625371064
 10
3.351146024397264
 20
8.254513452911254
 10
3.318571399799267
 20
8.182427516746031
 10
3.299740637204685
 20
8.098439046945319
 10
3.296496808767739
 20
8.010769388418317
 10
3.309158118233938
 20
7.928000534088214
 10
3.336484530921107
 20
7.858234142665887
 10
3.375801357962025
 20
7.808299449023734
  0
LINE
  5
220
330
2
100
AcDbEntity
  8
0
100
AcDbLine
 10
3.85267560253785
 20
7.700832020743134
 30
0.0
 11
3.742891788314004
 21
7.709723393594184
 31
0.0
  0
LINE
  5
221
330
2
100
AcDbEntity
  8
0
100
AcDbLine
 10
3.482214611747803
 20
7.730834746655873
 30
0.0
 11
3.463499684050251
 21
7.732350470761697
 31
0.0
  0
LINE
  5
222
330
2
100
AcDbEntity
  8
0
100
AcDbLine
 10
3.375801357962025
 20
7.808299449023734
 30
0.0
 11
3.463499684050251
 21
7.732350470761697
 31
0.0
  0
ELLIPSE
  5
223
330
2
100
AcDbEntity
  8
0
100
AcDbEllipse
 10
3.798516676168627
 20
8.520063096499274
 30
0.0
 11
0.006581070772849
 21
0.0874568916446317
 31
0.0
210
0.0
220
0.0
230
0.9999999999999998
 40
0.5778770211000001
 41
0.0081150858514489
 42
1.165455004481329
  0
ELLIPSE
  5
224
330
2
100
AcDbEntity
  8
0
100
AcDbEllipse
 10
4.319057719338065
 20
5.306072424479204
 30
0.0
 11
0.1555474395838865
 21
-0.0880995819554609
 31
0.0
210
0.0
220
0.0
230
1.0
 40
0.165794471
 41
0.6896272446617182
 42
2.173157108856921
  0
ARC
  5
225
330
2
100
AcDbEntity
  8
0
100
AcDbCircle
 10
4.149650683587919
 20
8.104857654585696
 30
0.0
 40
0.0836242711672727
100
AcDbArc
 50
51.2772147340015
 51
145.8445444761049
  0
LINE
  5
226
330
2
100
AcDbEntity
  8
0
100
AcDbLine
 10
4.24296225623951
 20
5.37723885867903
 30
0.0
 11
4.231029726894554
 21
5.382309397293138
 31
0.0
  0
LINE
  5
227
330
2
100
AcDbEntity
  8
0
100
AcDbLine
 10
3.892388172692018
 20
5.424693723469721
 30
0.0
 11
4.231029726894554
 21
5.382309397293138
 31
0.0
  0
LINE
  5
228
330
2
100
AcDbEntity
  8
0
100
AcDbLine
 10
4.879843121240185
 20
4.880832671650501
 30
0.0
 11
4.448353786102939
 21
5.25451339734001
 31
0.0
  0
LINE
  5
229
330
2
100
AcDbEntity
  8
0
100
AcDbLine
 10
4.216414246388767
 20
8.157583850004449
 30
0.0
 11
4.20196209451134
 21
8.170099780668738
 31
0.0
  0
ELLIPSE
  5
22A
330
2
100
AcDbEntity
  8
0
100
AcDbEllipse
 10
4.750547058281408
 20
4.932391695501008
 30
0.0
 11
0.1555474395838866
 21
-0.0880995819554511
 31
0.0
210
0.0
220
0.0
230
1.0
 40
0.165794471
 41
0.0331063377241576
 42
0.689627244661631
  0
LINE
  5
22B
330
2
100
AcDbEntity
  8
0
100
AcDbLine
 10
4.126253700137665
 20
5.140728806886396
 30
0.0
 11
4.051110300611173
 21
4.912582875951551
 31
0.0
  0
LINE
  5
22C
330
2
100
AcDbEntity
  8
0
100
AcDbLine
 10
4.762821603704505
 20
4.738301261174273
 30
0.0
 11
5.152711578323089
 21
4.400646638477889
 31
0.0
  0
LINE
  5
22D
330
2
100
AcDbEntity
  8
0
100
AcDbLine
 10
5.557748467400041
 20
4.014673575246741
 30
0.0
 11
5.707880219604772
 21
4.470494671456654
 31
0.0
  0
ELLIPSE
  5
22E
330
2
100
AcDbEntity
  8
0
100
AcDbEllipse
 10
5.513899859969098
 20
4.052655602703643
 30
0.0
 11
0.0065810707728441
 21
0.0874568916446317
 31
0.0
210
0.0
220
0.0
230
0.9999999999999998
 40
0.5778770211
 41
2.736327483698102
 42
4.30704765807106
  0
ARC
  5
22F
330
2
100
AcDbEntity
  8
0
100
AcDbCircle
 10
5.20431088868448
 20
4.459321832882151
 30
0.0
 40
0.0781362097197611
100
AcDbArc
 50
228.6714130374028
 51
314.9203592104971
  0
ARC
  5
230
330
2
100
AcDbEntity
  8
0
100
AcDbCircle
 10
4.828008019970747
 20
4.403789566764876
 30
0.0
 40
0.1240587879166713
100
AcDbArc
 50
227.1621517867994
 51
264.5187678972925
  0
ELLIPSE
  5
231
330
2
100
AcDbEntity
  8
0
100
AcDbEllipse
 10
5.428070189550618
 20
4.06032766000384
 30
0.0
 11
0.006581070772849
 21
0.0874568916446317
 31
0.0
210
0.0
220
0.0
230
0.9999999999999998
 40
0.5778770211000001
 41
2.736327483698255
 42
3.133477567738518
  0
LINE
  5
232
330
2
100
AcDbEntity
  8
0
100
AcDbLine
 10
4.429938878274946
 20
6.692789758313434
 30
0.0
 11
4.142529678265601
 21
6.462113030159034
 31
0.0
  0
ELLIPSE
  5
233
330
2
100
AcDbEntity
  8
0
100
AcDbEllipse
 10
3.959371384976624
 20
6.029096944596962
 30
0.0
 11
0.0065886721134325
 21
0.0874514659970362
 31
0.0
210
0.0
220
0.0
230
0.9999999999999998
 40
0.5779408021
 41
1.16563626809024
 42
2.736356442463259
  0
ELLIPSE
  5
234
330
2
100
AcDbEntity
  8
0
100
AcDbEllipse
 10
4.253525079672019
 20
6.980036409640034
 30
0.0
 11
0.2887839368734048
 21
0.3299716526788448
 31
0.0
210
0.0
220
0.0
230
1.0
 40
0.7540258493
 41
4.482373612415839
 42
5.224320880421761
  0
ELLIPSE
  5
235
330
2
100
AcDbEntity
  8
0
100
AcDbEllipse
 10
4.319507052650538
 20
6.174377631608117
 30
0.0
 11
0.2896622912951453
 21
0.3292051906013127
 31
0.0
210
0.0
220
0.0
230
0.9999999999999998
 40
0.7560319662000003
 41
1.342801356481428
 42
2.084748624487349
  0
LINE
  5
236
330
2
100
AcDbEntity
  8
0
100
AcDbLine
 10
3.960367447788545
 20
6.203234624421238
 30
0.0
 11
3.915518165741526
 21
6.067066778451738
 31
0.0
  0
LINE
  5
237
330
2
100
AcDbEntity
  8
0
100
AcDbLine
 10
4.904541866956583
 20
5.109188537888767
 30
0.0
 11
5.68545404883676
 21
4.432898750254249
 31
0.0
  0
LINE
  5
238
330
2
100
AcDbEntity
  8
0
100
AcDbLine
 10
3.933391345921675
 20
5.950229560001812
 30
0.0
 11
4.623367538183669
 21
5.352692649487993
 31
0.0
  0
LINE
  5
239
330
2
100
AcDbEntity
  8
0
100
AcDbLine
 10
4.941238691954312
 20
7.951766045060186
 30
0.0
 11
4.611899942011485
 21
6.951842414926984
 31
0.0
  0
ELLIPSE
  5
23A
330
2
100
AcDbEntity
  8
0
100
AcDbEllipse
 10
4.985087456909157
 20
7.913783943708606
 30
0.0
 11
0.006581070772849
 21
0.0874568916446317
 31
0.0
210
0.0
220
0.0
230
0.9999999999999998
 40
0.5778770211000001
 41
5.877920137287912
 42
7.44864031166087
  0
LINE
  5
23B
330
2
100
AcDbEntity
  8
0
100
AcDbLine
 10
5.299176538948636
 20
7.743142603033313
 30
0.0
 11
5.011061702564417
 21
7.99265737054769
 31
0.0
  0
LINE
  5
23C
330
2
100
AcDbEntity
  8
0
100
AcDbLine
 10
4.909995835671729
 20
5.16186254197247
 30
0.0
 11
4.672767624033362
 21
5.367308199740326
 31
0.0
  0
LINE
  5
23D
330
2
100
AcDbEntity
  8
0
100
AcDbLine
 10
4.762987655052325
 20
5.050873980365462
 30
0.0
 11
4.909995835671729
 21
5.16186254197247
 31
0.0
  0
LINE
  5
23E
330
2
100
AcDbEntity
  8
0
100
AcDbLine
 10
4.52575944341396
 20
5.256319638142072
 30
0.0
 11
4.762987655052325
 21
5.050873980365462
 31
0.0
  0
ELLIPSE
  5
23F
330
2
100
AcDbEntity
  8
0
100
AcDbEllipse
 10
4.857211250224169
 20
5.080110887643848
 30
0.0
 11
0.0517290352337519
 21
0.0825328821878884
 31
0.0
210
0.0
220
0.0
230
1.0
 40
0.2945542466
 41
5.171606599400139
 42
6.237537654344468
  0
ELLIPSE
  5
240
330
2
100
AcDbEntity
  8
0
100
AcDbEllipse
 10
4.849081637992343
 20
5.073973170301448
 30
0.0
 11
0.0887038823978504
 21
0.0190134401560022
 31
0.0
210
0.0
220
0.0
230
1.0
 40
0.2601647544
 41
3.335243632973681
 42
4.401174687917908
  0
ELLIPSE
  5
241
330
2
100
AcDbEntity
  8
0
100
AcDbEllipse
 10
4.855282496590652
 20
5.087731032467672
 30
0.0
 11
-0.023258305958859
 21
0.0434173477755226
 31
0.0
210
0.0
220
0.0
230
1.0
 40
0.8730488701000002
 41
2.500405314970203
 42
4.062474995505384
  0
LINE
  5
242
330
2
100
AcDbEntity
  8
0
100
AcDbLine
 10
4.89953458136137
 20
5.077624512984304
 30
0.0
 11
4.901931953026175
 21
5.103034923428168
 31
0.0
  0
LINE
  5
243
330
2
100
AcDbEntity
  8
0
100
AcDbLine
 10
4.82662784800047
 20
5.046181837368165
 30
0.0
 11
4.851247986849446
 21
5.04079110068563
 31
0.0
  0
LINE
  5
244
330
2
100
AcDbEntity
  8
0
100
AcDbLine
 10
6.05422754999088
 20
7.599883472227161
 30
0.0
 11
5.943287567374191
 21
7.263053998776746
 31
0.0
  0
LWPOLYLINE
  5
245
330
2
100
AcDbEntity
  8
0
100
AcDbPolyline
 90
        9
 70
   128
 43
0.0
 10
6.05422754999088
 20
7.599883472227161
 10
6.108326451808671
 20
7.582672209448556
 10
6.145744802314682
 20
7.542441686479226
 10
6.160785478553377
 20
7.485316462570008
 10
6.151158993073082
 20
7.419993460984711
 10
6.118330934719963
 20
7.356417490596101
 10
6.06729901804625
 20
7.304267494678296
 10
6.005831429771049
 20
7.271482371195943
 10
5.943287567374191
 20
7.263053998776746
  0
ARC
  5
246
330
2
100
AcDbEntity
  8
0
100
AcDbCircle
 10
6.533552415468198
 20
8.019450916650118
 30
0.0
 40
0.058647849214548
100
AcDbArc
 50
333.6487475794982
 51
82.98636861719684
  0
LINE
  5
247
330
2
100
AcDbEntity
  8
0
100
AcDbLine
 10
6.586106151075558
 20
7.993418723299186
 30
0.0
 11
6.196394194645202
 21
6.810192351458647
 31
0.0
  0
ARC
  5
248
330
2
100
AcDbEntity
  8
0
100
AcDbCircle
 10
6.091188935705273
 20
6.845207173144711
 30
0.0
 40
0.1108791425239549
100
AcDbArc
 50
287.7679507352944
 51
341.5913261540985
  0
LINE
  5
249
330
2
100
AcDbEntity
  8
0
100
AcDbLine
 10
6.125025110786526
 20
6.739616939208969
 30
0.0
 11
5.539460688899488
 21
6.570579050902947
 31
0.0
  0
ARC
  5
24A
330
2
100
AcDbEntity
  8
0
100
AcDbCircle
 10
5.497242623520773
 20
6.712230439502771
 30
0.0
 40
0.14780893388092
100
AcDbArc
 50
266.2240578527004
 51
286.5962675312989
  0
LINE
  5
24B
330
2
100
AcDbEntity
  8
0
100
AcDbLine
 10
5.487508676682596
 20
6.564742368065475
 30
0.0
 11
5.400939342824908
 21
6.571260734794461
 31
0.0
  0
LINE
  5
24C
330
2
100
AcDbEntity
  8
0
100
AcDbLine
 10
6.540713639194816
 20
8.077659911586902
 30
0.0
 11
5.912668643714242
 21
8.124948640549954
 31
0.0
  0
LWPOLYLINE
  5
24D
330
2
100
AcDbEntity
  8
0
100
AcDbPolyline
 90
        6
 70
   128
 43
0.0
 10
5.885055142347006
 20
8.117570853945892
 10
5.886333044748174
 20
8.119822666448367
 10
5.890085911397228
 20
8.122558491295041
 10
5.895886839327877
 20
8.12436463842646
 10
5.903511973716694
 20
8.125171723820461
 10
5.912668643714242
 20
8.124948640549954
  0
LWPOLYLINE
  5
24E
330
2
100
AcDbEntity
  8
0
100
AcDbPolyline
 90
        9
 70
   128
 43
0.0
 10
5.400939342824908
 20
6.571260734794461
 10
5.391782672827359
 20
6.571483791527417
 10
5.384157538438538
 20
6.570676732662215
 10
5.378356610499137
 20
6.568870576690778
 10
5.374603743858839
 20
6.566134849101621
 10
5.373041890222708
 20
6.562574396665342
 10
5.373732188473063
 20
6.558326428148842
 10
5.376647407925512
 20
6.553553808747114
 10
5.381675904035029
 20
6.548440216194108
  0
LINE
  5
24F
330
2
100
AcDbEntity
  8
0
100
AcDbLine
 10
7.828461006900362
 20
4.42946215951002
 30
0.0
 11
7.823864473472042
 21
4.433442874223626
 31
0.0
  0
LINE
  5
250
330
2
100
AcDbEntity
  8
0
100
AcDbLine
 10
5.499856320929514
 20
6.446092972919129
 30
0.0
 11
5.381675904035029
 21
6.548440216194108
 31
0.0
  0
LINE
  5
251
330
2
100
AcDbEntity
  8
0
100
AcDbLine
 10
4.992473268100341
 20
8.52541799193589
 30
0.0
 11
4.904774860338618
 21
8.601367040935432
 31
0.0
  0
LINE
  5
252
330
2
100
AcDbEntity
  8
0
100
AcDbLine
 10
5.24226392988421
 20
8.50661004053537
 30
0.0
 11
4.992473268100341
 21
8.52541799193589
 31
0.0
  0
LINE
  5
253
330
2
100
AcDbEntity
  8
0
100
AcDbLine
 10
5.154565522122553
 20
8.582559089526162
 30
0.0
 11
5.24226392988421
 21
8.50661004053537
 31
0.0
  0
LINE
  5
254
330
2
100
AcDbEntity
  8
0
100
AcDbLine
 10
4.904774860338618
 20
8.601367040935432
 30
0.0
 11
5.154565522122553
 21
8.582559089526162
 31
0.0
  0
LINE
  5
255
330
2
100
AcDbEntity
  8
0
100
AcDbLine
 10
5.226220881030714
 20
3.45945269055005
 30
0.0
 11
5.399025688741218
 21
3.984113738791551
 31
0.0
  0
LINE
  5
256
330
2
100
AcDbEntity
  8
0
100
AcDbLine
 10
4.116050032951922
 20
5.109751222782544
 30
0.0
 11
4.072513967809107
 21
5.147454561179959
 31
0.0
  0
LINE
  5
257
330
2
100
AcDbEntity
  8
0
100
AcDbLine
 10
3.290541481474967
 20
8.291018492493645
 30
0.0
 11
2.475454529524113
 21
5.816290881090756
 31
0.0
  0
ARC
  5
258
330
2
100
AcDbEntity
  8
0
100
AcDbCircle
 10
6.093223234723623
 20
8.582249929721285
 30
0.0
 40
0.0410532652949177
100
AcDbArc
 50
333.6488063391008
 51
82.98770571809695
  0
ARC
  5
259
330
2
100
AcDbEntity
  8
0
100
AcDbCircle
 10
6.097118739915448
 20
8.621785450596611
 30
0.0
 40
0.001646814412353
100
AcDbArc
 50
47.32038030139935
 51
84.84797494359755
  0
ARC
  5
25A
330
2
100
AcDbEntity
  8
0
100
AcDbCircle
 10
5.374783745732091
 20
8.347608244360291
 30
0.0
 40
0.4638572999291203
100
AcDbArc
 50
68.87912926580007
 51
84.59496622089726
  0
ARC
  5
25B
330
2
100
AcDbEntity
  8
0
100
AcDbCircle
 10
6.032002994434817
 20
9.116892924614507
 30
0.0
 40
0.4876194873888655
100
AcDbArc
 50
248.878643278104
 51
264.5952845953962
  0
ARC
  5
25C
330
2
100
AcDbEntity
  8
0
100
AcDbCircle
 10
5.152579098876192
 20
3.483961119781879
 30
0.0
 40
0.0776129833336735
100
AcDbArc
 50
287.7674011092011
 51
341.5922464559998
  0
LINE
  5
25D
330
2
100
AcDbEntity
  8
0
100
AcDbLine
 10
2.428014617172124
 20
5.790102923810483
 30
0.0
 11
5.176262975018152
 21
3.410050029998273
 31
0.0
  0
ARC
  5
25E
330
2
100
AcDbEntity
  8
0
100
AcDbCircle
 10
2.449154745354121
 20
5.825043010203807
 30
0.0
 40
0.027717835618981
100
AcDbArc
 50
287.7671483982983
 51
341.5934186932954
  0
LINE
  5
25F
330
2
100
AcDbEntity
  8
0
100
AcDbLine
 10
3.398104698562498
 20
4.56761873336072
 30
0.0
 11
3.246206317648374
 21
4.523769447801949
 31
0.0
  0
LWPOLYLINE
  5
260
330
2
100
AcDbEntity
  8
0
100
AcDbPolyline
 90
        9
 70
   128
 43
0.0
 10
3.246206317648374
 20
4.523769447801949
 10
3.194754105538632
 20
4.501208103404195
 10
3.164484729617619
 20
4.470518508862157
 10
3.160008484612445
 20
4.436373475009597
 10
3.182007466009225
 20
4.403971448795212
 10
3.227129930972161
 20
4.378244597317165
 10
3.288508986947546
 20
4.36311035133029
 10
3.356799611905944
 20
4.360872578314516
 10
3.421603112755533
 20
4.371871367500358
  0
LINE
  5
261
330
2
100
AcDbEntity
  8
0
100
AcDbLine
 10
3.421603112755533
 20
4.371871367500358
 30
0.0
 11
3.573501493669723
 21
4.415720653050337
 31
0.0
  0
LWPOLYLINE
  5
262
330
2
100
AcDbEntity
  8
0
100
AcDbPolyline
 90
        9
 70
   128
 43
0.0
 10
3.573501493669723
 20
4.415720653050337
 10
3.624954837509685
 20
4.438282324159697
 10
3.655223081700409
 20
4.468971591990097
 10
3.6596993266969
 20
4.503116625851482
 10
3.637701477039022
 20
4.535518978759894
 10
3.592577880337111
 20
4.561245503535124
 10
3.531198824370482
 20
4.576379749521998
 10
3.462909331142373
 20
4.578617849240551
 10
3.398104698562498
 20
4.56761873336072
  0
LINE
  5
263
330
2
100
AcDbEntity
  8
0
100
AcDbLine
 10
5.135894207441077
 20
3.398396570586948
 30
0.0
 11
5.176262975018152
 21
3.410050029998273
 31
0.0
  0
ARC
  5
264
330
2
100
AcDbEntity
  8
0
100
AcDbCircle
 10
5.047939906677203
 20
3.719207122318521
 30
0.0
 40
0.33264901792461
100
AcDbArc
 50
262.2008268918017
 51
285.3316431664972
  0
LINE
  5
265
330
2
100
AcDbEntity
  8
0
100
AcDbLine
 10
4.124866810908892
 20
3.507256025862798
 30
0.0
 11
5.002799011160218
 21
3.389635174665302
 31
0.0
  0
ARC
  5
266
330
2
100
AcDbEntity
  8
0
100
AcDbCircle
 10
4.143499807811934
 20
3.715051239807437
 30
0.0
 40
0.2086289517619536
100
AcDbArc
 50
233.1444269821997
 51
264.8759916605935
  0
LINE
  5
267
330
2
100
AcDbEntity
  8
0
100
AcDbLine
 10
4.018364168448432
 20
3.548116787784924
 30
0.0
 11
2.117802060459832
 21
5.194051854768957
 31
0.0
  0
ARC
  5
268
330
2
100
AcDbEntity
  8
0
100
AcDbCircle
 10
2.151202310938816
 20
5.240171716041493
 30
0.0
 40
0.0569439929746404
100
AcDbArc
 50
182.2852148176459
 51
234.0877427972317
  0
LINE
  5
269
330
2
100
AcDbEntity
  8
0
100
AcDbLine
 10
2.457612824428948
 20
5.798647190276934
 30
0.0
 11
2.417244056843048
 21
5.786993730856818
 31
0.0
  0
ARC
  5
26A
330
2
100
AcDbEntity
  8
0
100
AcDbCircle
 10
2.443400444624642
 20
5.657518274721773
 30
0.0
 40
0.1320910684480692
100
AcDbArc
 50
101.421071468093
 51
144.7560980463011
  0
LWPOLYLINE
  5
26B
330
2
100
AcDbEntity
  8
0
100
AcDbPolyline
 90
        6
 70
   128
 43
0.0
 10
4.974527959789017
 20
8.840522594052751
 10
4.961446864309179
 20
8.840841237763612
 10
4.950553780180638
 20
8.839688329365614
 10
4.942267756995986
 20
8.837108257742556
 10
4.936906183914288
 20
8.833199954338306
 10
4.935081047405869
 20
8.829983199140794
  0
LINE
  5
26C
330
2
100
AcDbEntity
  8
0
100
AcDbLine
 10
2.335521275833621
 20
5.733742518271761
 30
0.0
 11
2.100280466006518
 21
5.29477629856494
 31
0.0
  0
ARC
  5
26D
330
2
100
AcDbEntity
  8
0
100
AcDbCircle
 10
4.567672568332818
 20
8.658704295854999
 30
0.0
 40
0.214160958852545
100
AcDbArc
 50
53.53729464470077
 51
85.22747148609594
  0
LWPOLYLINE
  5
26E
330
2
100
AcDbEntity
  8
0
100
AcDbPolyline
 90
        3
 70
   128
 43
0.0
 10
3.917700040941427
 20
8.870669551637302
 10
3.917309357402844
 20
8.870113793491764
 10
3.916977374248913
 20
8.869373910183933
  0
ARC
  5
26F
330
2
100
AcDbEntity
  8
0
100
AcDbCircle
 10
4.06349078606187
 20
8.568292731501031
 30
0.0
 40
0.3427180769348345
100
AcDbArc
 50
82.44019616819748
 51
109.3018013701013
  0
ARC
  5
270
330
2
100
AcDbEntity
  8
0
100
AcDbCircle
 10
3.675395904367573
 20
8.188131810878164
 30
0.0
 40
0.3983699236573503
100
AcDbArc
 50
125.0532852855033
 51
165.0326126333989
  0
ARC
  5
271
330
2
100
AcDbEntity
  8
0
100
AcDbCircle
 10
2.141857596157665
 20
5.271692249344392
 30
0.0
 40
0.047555557828429
100
AcDbArc
 50
150.9605160887984
 51
179.534994665199
  0
LINE
  5
272
330
2
100
AcDbEntity
  8
0
100
AcDbLine
 10
3.916977374248913
 20
8.869373910183933
 30
0.0
 11
3.827740691230641
 21
8.763661100423014
 31
0.0
  0
ARC
  5
273
330
2
100
AcDbEntity
  8
0
100
AcDbCircle
 10
3.800396592847019
 20
8.803840229266103
 30
0.0
 40
0.0486010505163464
100
AcDbArc
 50
257.7914719907966
 51
304.2374325905976
  0
ARC
  5
274
330
2
100
AcDbEntity
  8
0
100
AcDbCircle
 10
3.627253970004311
 20
8.712069453112166
 30
0.0
 40
0.079675768587844
100
AcDbArc
 50
305.053689274202
 51
345.0319929205975
  0
LINE
  5
275
330
2
100
AcDbEntity
  8
0
100
AcDbLine
 10
3.790118915355912
 20
8.756338319233513
 30
0.0
 11
3.773535692720923
 21
8.757586948024982
 31
0.0
  0
ARC
  5
276
330
2
100
AcDbEntity
  8
0
100
AcDbCircle
 10
3.774727997035037
 20
8.690218318709561
 30
0.0
 40
0.067379179317011
100
AcDbArc
 50
91.01392702580204
 51
163.0906939452005
  0
LINE
  5
277
330
2
100
AcDbEntity
  8
0
100
AcDbLine
 10
3.710261865222188
 20
8.70981606487129
 30
0.0
 11
3.704226355340897
 21
8.691490823537698
 31
0.0
  0
ARC
  5
278
330
2
100
AcDbEntity
  8
0
100
AcDbCircle
 10
8.604535315845065
 20
4.663325426196314
 30
0.0
 40
0.1000450609602206
100
AcDbArc
 50
286.6490829758923
 51
308.1274944216975
  0
LINE
  5
279
330
2
100
AcDbEntity
  8
0
100
AcDbLine
 10
8.047634726201227
 20
4.398436617487138
 30
0.0
 11
8.633199148088266
 21
4.567474505784407
 31
0.0
  0
ARC
  5
27A
330
2
100
AcDbEntity
  8
0
100
AcDbCircle
 10
8.005416660822515
 20
4.540088006078243
 30
0.0
 40
0.1478089338811721
100
AcDbArc
 50
266.2240578527004
 51
286.5962675312989
  0
LINE
  5
27B
330
2
100
AcDbEntity
  8
0
100
AcDbLine
 10
7.909113380126648
 20
4.3991183013699
 30
0.0
 11
7.995682713984336
 21
4.392599934649666
 31
0.0
  0
ARC
  5
27C
330
2
100
AcDbEntity
  8
0
100
AcDbCircle
 10
7.922241269232876
 20
4.556368342149822
 30
0.0
 40
0.1577970747440336
100
AcDbArc
 50
233.5365937101954
 51
265.2277757242015
  0
ARC
  5
27D
330
2
100
AcDbEntity
  8
0
100
AcDbCircle
 10
7.185946369755298
 20
9.289546398135751
 30
0.0
 40
0.0215431155582986
100
AcDbArc
 50
99.61260672580433
 51
162.1737659591987
  0
LINE
  5
27E
330
2
100
AcDbEntity
  8
0
100
AcDbLine
 10
7.336885418575666
 20
9.328149084890359
 30
0.0
 11
7.182348977738405
 21
9.310787033687116
 31
0.0
  0
LINE
  5
27F
330
2
100
AcDbEntity
  8
0
100
AcDbLine
 10
8.421689381914102
 20
9.246468166024932
 30
0.0
 11
7.336885418575666
 21
9.328149084890359
 31
0.0
  0
ARC
  5
280
330
2
100
AcDbEntity
  8
0
100
AcDbCircle
 10
8.420258677752432
 20
9.234827115515273
 30
0.0
 40
0.011728638932922
100
AcDbArc
 50
333.6434646951036
 51
82.99339176569528
  0
LINE
  5
281
330
2
100
AcDbEntity
  8
0
100
AcDbLine
 10
8.363231060620339
 20
9.024565028192373
 30
0.0
 11
8.4307681106398
 21
9.229620121024941
 31
0.0
  0
LINE
  5
282
330
2
100
AcDbEntity
  8
0
100
AcDbLine
 10
7.406889637455624
 20
9.096572794210501
 30
0.0
 11
8.363231060620339
 21
9.024565028192373
 31
0.0
  0
LINE
  5
283
330
2
100
AcDbEntity
  8
0
100
AcDbLine
 10
6.251214550935679
 20
8.674402756559334
 30
0.0
 11
6.155102479538032
 21
8.382593282619545
 31
0.0
  0
ARC
  5
284
330
2
100
AcDbEntity
  8
0
100
AcDbCircle
 10
6.271050016545705
 20
8.668373180649521
 30
0.0
 40
0.0207316540968044
100
AcDbArc
 50
91.01248601779754
 51
163.0918007758042
  0
LINE
  5
285
330
2
100
AcDbEntity
  8
0
100
AcDbLine
 10
6.270683682106513
 20
8.689101597878437
 30
0.0
 11
6.367031153110706
 21
8.68184696732092
 31
0.0
  0
LINE
  5
286
330
2
100
AcDbEntity
  8
0
100
AcDbLine
 10
6.367031153110706
 20
8.68184696732092
 30
0.0
 11
7.027913260759901
 21
8.878596643916168
 31
0.0
  0
LINE
  5
287
330
2
100
AcDbEntity
  8
0
100
AcDbLine
 10
7.16543755374103
 20
9.296141418487398
 30
0.0
 11
7.027913260759901
 21
8.878596643916168
 31
0.0
  0
LINE
  5
288
330
2
100
AcDbEntity
  8
0
100
AcDbLine
 10
7.177989928384747
 20
8.230490596669184
 30
0.0
 11
7.414002923319798
 21
8.947062833779142
 31
0.0
  0
LINE
  5
289
330
2
100
AcDbEntity
  8
0
100
AcDbLine
 10
8.370344346484509
 20
8.875055067760982
 30
0.0
 11
8.310968193099178
 21
8.694781029744044
 31
0.0
  0
LINE
  5
28A
330
2
100
AcDbEntity
  8
0
100
AcDbLine
 10
8.132546615173914
 20
8.708215313472205
 30
0.0
 11
7.955908641893982
 21
8.171916858405158
 31
0.0
  0
LINE
  5
28B
330
2
100
AcDbEntity
  8
0
100
AcDbLine
 10
7.955908641893982
 20
8.171916858405158
 30
0.0
 11
7.177989928384747
 21
8.230490596669184
 31
0.0
  0
ARC
  5
28C
330
2
100
AcDbEntity
  8
0
100
AcDbCircle
 10
8.453632387072616
 20
8.482224828563584
 30
0.0
 40
0.0476868728287175
100
AcDbArc
 50
226.9690139197043
 51
295.3354855813934
  0
LINE
  5
28D
330
2
100
AcDbEntity
  8
0
100
AcDbLine
 10
8.337777747657584
 20
8.519517983974015
 30
0.0
 11
8.421091161522017
 21
8.447366451094357
 31
0.0
  0
ARC
  5
28E
330
2
100
AcDbEntity
  8
0
100
AcDbCircle
 10
8.474636605479268
 20
8.630134963419038
 30
0.0
 40
0.1759729044605882
100
AcDbArc
 50
158.4468754029978
 51
218.9470807937977
  0
ARC
  5
28F
330
2
100
AcDbEntity
  8
0
100
AcDbCircle
 10
8.306487841178196
 20
8.896991703589439
 30
0.0
 40
0.0675193991427883
100
AcDbArc
 50
341.0408574851015
 51
24.40699054409735
  0
ARC
  5
290
330
2
100
AcDbEntity
  8
0
100
AcDbCircle
 10
8.49092570106807
 20
8.980690961724917
 30
0.0
 40
0.1350216831016638
100
AcDbArc
 50
161.0380058708973
 51
204.4098498788006
  0
LINE
  5
291
330
2
100
AcDbEntity
  8
0
100
AcDbLine
 10
7.955908641893982
 20
8.171916858405158
 30
0.0
 11
8.016484823497886
 21
8.119456346268894
 31
0.0
  0
LINE
  5
292
330
2
100
AcDbEntity
  8
0
100
AcDbLine
 10
6.246540144894569
 20
8.252724613671652
 30
0.0
 11
6.164039402189201
 21
8.324172352684637
 31
0.0
  0
LINE
  5
293
330
2
100
AcDbEntity
  8
0
100
AcDbLine
 10
6.164039402189201
 20
8.324172352684637
 30
0.0
 11
7.156065367283217
 21
8.249477823554734
 31
0.0
  0
LINE
  5
294
330
2
100
AcDbEntity
  8
0
100
AcDbLine
 10
7.156065367283217
 20
8.249477823554734
 30
0.0
 11
7.177989928384747
 21
8.230490596669184
 31
0.0
  0
ARC
  5
295
330
2
100
AcDbEntity
  8
0
100
AcDbCircle
 10
7.986632469609134
 20
8.090281035763718
 30
0.0
 40
0.0417416072534964
100
AcDbArc
 50
6.36813634549947
 51
44.3428500442048
  0
ARC
  5
296
330
2
100
AcDbEntity
  8
0
100
AcDbCircle
 10
8.296210603327923
 20
8.64356865965566
 30
0.0
 40
0.1759690054198087
100
AcDbArc
 50
158.446168294299
 51
218.947801727599
  0
LINE
  5
297
330
2
100
AcDbEntity
  8
0
100
AcDbLine
 10
8.242669583605509
 20
8.460800876279996
 30
0.0
 11
8.159356169732394
 21
8.532952409159655
 31
0.0
  0
ARC
  5
298
330
2
100
AcDbEntity
  8
0
100
AcDbCircle
 10
8.276196061159136
 20
8.497247549617359
 30
0.0
 40
0.0495215578737381
100
AcDbArc
 50
227.3897431828991
 51
264.8561861738975
  0
ARC
  5
299
330
2
100
AcDbEntity
  8
0
100
AcDbCircle
 10
7.534584277903355
 20
9.052698727751799
 30
0.0
 40
0.1350216831016939
100
AcDbArc
 50
161.0380058708973
 51
204.4098498788006
  0
ARC
  5
29A
330
2
100
AcDbEntity
  8
0
100
AcDbCircle
 10
6.216749627353424
 20
8.223589949670436
 30
0.0
 40
0.0416689762542104
100
AcDbArc
 50
6.491114374099955
 51
44.36230848150002
  0
ARC
  5
29B
330
2
100
AcDbEntity
  8
0
100
AcDbCircle
 10
7.35015195195743
 20
8.968999732895689
 30
0.0
 40
0.0675142509907237
100
AcDbArc
 50
341.0391203479005
 51
24.40872768130068
  0
ELLIPSE
  5
29C
330
2
100
AcDbEntity
  8
0
100
AcDbEllipse
 10
8.504844598391912
 20
9.77393011268032
 30
0.0
 11
0.2117704899976686
 21
0.7553321713449172
 31
0.0
210
0.0
220
0.0
230
1.0
 40
0.033449368
 41
2.272263534317461
 42
2.34174625460599
  0
SPLINE
  5
29D
330
2
100
AcDbEntity
  8
0
100
AcDbSpline
210
0.0
220
0.0
230
1.0
 70
     8
 71
     3
 72
    11
 73
     7
 74
     0
 42
0.000000001
 43
0.0000000001
 40
0.0
 40
0.0
 40
0.0
 40
0.0
 40
0.2517137385180087
 40
0.5017633876615959
 40
0.7884835531649208
 40
1.0
 40
1.0
 40
1.0
 40
1.0
 10
8.331552107330889
 20
9.333341358509759
 30
0.0
 10
8.334439483062583
 20
9.331254226644507
 30
0.0
 10
8.340195145972156
 20
9.327093761024361
 30
0.0
 10
8.346836548983617
 20
9.315945393597065
 30
0.0
 10
8.350528774744033
 20
9.303680088749086
 30
0.0
 10
8.349372007257812
 20
9.29540772748135
 30
0.0
 10
8.34888092462269
 20
9.291895860992738
 30
0.0
  0
ARC
  5
29E
330
2
100
AcDbEntity
  8
0
100
AcDbCircle
 10
6.209654437377446
 20
8.361044324151507
 30
0.0
 40
0.0586538465503262
100
AcDbArc
 50
158.4451304928023
 51
218.9496259357019
  0
LINE
  5
29F
330
2
100
AcDbEntity
  8
0
100
AcDbLine
 10
8.131385491549991
 20
9.391785087626804
 30
0.0
 11
7.739450819690008
 21
9.4212958742077
 31
0.0
  0
LINE
  5
2A0
330
2
100
AcDbEntity
  8
0
100
AcDbLine
 10
8.131385491549991
 20
9.391785087626804
 30
0.0
 11
8.326151497321788
 21
9.33556117927252
 31
0.0
  0
ARC
  5
2A1
330
2
100
AcDbEntity
  8
0
100
AcDbCircle
 10
8.318860804456987
 20
9.310144133857615
 30
0.0
 40
0.0264420195933777
100
AcDbArc
 50
61.31673829750063
 51
73.99485028310441
  0
ELLIPSE
  5
2A2
330
2
100
AcDbEntity
  8
0
100
AcDbEllipse
 10
7.20158641520001
 20
9.313458881889296
 30
0.0
 11
0.0406961026421051
 21
-0.0165840684250665
 31
0.0
210
0.0
220
0.0
230
0.9999999999999998
 40
0.2713924154000002
 41
1.896947681047104
 42
2.246013531439856
  0
LINE
  5
2A3
330
2
100
AcDbEntity
  8
0
100
AcDbLine
 10
7.234262707686043
 20
9.316619436597481
 30
0.0
 11
7.192811267617798
 21
9.329234964117137
 31
0.0
  0
LINE
  5
2A4
330
2
100
AcDbEntity
  8
0
100
AcDbLine
 10
6.882566321348488
 20
9.369195008964414
 30
0.0
 11
7.053925753876985
 21
9.220793387221913
 31
0.0
  0
ELLIPSE
  5
2A5
330
2
100
AcDbEntity
  8
0
100
AcDbEllipse
 10
6.917146124257195
 20
9.363153770413642
 30
0.0
 11
0.0406961026415119
 21
-0.0165840684248222
 31
0.0
210
0.0
220
0.0
230
1.0
 40
0.2713924153999999
 41
2.246013531444893
 42
3.816809858235645
  0
LINE
  5
2A6
330
2
100
AcDbEntity
  8
0
100
AcDbLine
 10
6.895221653160624
 20
9.382141102677525
 30
0.0
 11
7.179661324987816
 21
9.332446096058545
 31
0.0
  0
LINE
  5
2A7
330
2
100
AcDbEntity
  8
0
100
AcDbLine
 10
6.312173372495516
 20
8.703851799884411
 30
0.0
 11
6.306428716931797
 21
8.686410087380727
 31
0.0
  0
LINE
  5
2A8
330
2
100
AcDbEntity
  8
0
100
AcDbLine
 10
6.310347893884436
 20
8.703989295889901
 30
0.0
 11
6.312173372495516
 21
8.703851799884411
 31
0.0
  0
LWPOLYLINE
  5
2A9
330
2
100
AcDbEntity
  8
0
100
AcDbPolyline
 90
        9
 70
   128
 43
0.0
 10
6.306178604858585
 20
8.713370502688668
 10
6.305604818335043
 20
8.711706597282367
 10
6.305359233174025
 20
8.710050433784967
 10
6.305452034938617
 20
8.708475685573411
 10
6.305878696716758
 20
8.707052486228075
 10
6.306621110833615
 20
8.705844502511109
 10
6.307645325426148
 20
8.704905734567969
 10
6.308906071346763
 20
8.704277861709076
 10
6.310347893884436
 20
8.703989295889901
  0
LINE
  5
2AA
330
2
100
AcDbEntity
  8
0
100
AcDbLine
 10
6.501563666301517
 20
9.153239115123472
 30
0.0
 11
6.306178604858585
 21
8.713370502688668
 31
0.0
  0
ARC
  5
2AB
330
2
100
AcDbEntity
  8
0
100
AcDbCircle
 10
6.530047667963929
 20
9.141677091933839
 30
0.0
 40
0.0307411569537763
100
AcDbArc
 50
90.72684154310181
 51
157.9071328555001
  0
LINE
  5
2AC
330
2
100
AcDbEntity
  8
0
100
AcDbLine
 10
6.660725482893545
 20
9.162547150469562
 30
0.0
 11
6.52965770292957
 21
9.172415775353353
 31
0.0
  0
LINE
  5
2AD
330
2
100
AcDbEntity
  8
0
100
AcDbLine
 10
7.145068077678562
 20
9.234295002838608
 30
0.0
 11
6.660725482893545
 21
9.162547150469562
 31
0.0
  0
ARC
  5
2AE
330
2
100
AcDbEntity
  8
0
100
AcDbCircle
 10
7.64970043540456
 20
9.81005963446867
 30
0.0
 40
0.3989892138551933
100
AcDbArc
 50
248.388378947195
 51
282.9996079636003
  0
SPLINE
  5
2AF
330
2
100
AcDbEntity
  8
0
100
AcDbSpline
210
0.0
220
0.0
230
1.0
 70
     8
 71
     3
 72
     9
 73
     5
 74
     0
 42
0.000000001
 43
0.0000000001
 40
0.0
 40
0.0
 40
0.0
 40
0.0
 40
0.3637854744933605
 40
1.0
 40
1.0
 40
1.0
 40
1.0
 10
7.530392595525229
 20
7.479945394095272
 30
0.0
 10
7.529031390725796
 20
7.487291466335373
 30
0.0
 10
7.525289611861922
 20
7.507484884586355
 30
0.0
 10
7.520747667178215
 20
7.527091595273204
 30
0.0
 10
7.517858015996479
 20
7.539565669409553
 30
0.0
  0
SPLINE
  5
2B0
330
2
100
AcDbEntity
  8
0
100
AcDbSpline
210
0.0
220
0.0
230
1.0
 70
     8
 71
     3
 72
     9
 73
     5
 74
     0
 42
0.000000001
 43
0.0000000001
 40
0.0
 40
0.0
 40
0.0
 40
0.0
 40
0.4931078804754943
 40
1.0
 40
1.0
 40
1.0
 40
1.0
 10
7.773046575268058
 20
7.461674789918218
 30
0.0
 10
7.766107448250036
 20
7.449564645889005
 30
0.0
 10
7.75203521924553
 20
7.425005833286889
 30
0.0
 10
7.744226527921333
 20
7.397499666368346
 30
0.0
 10
7.740268363825342
 20
7.383557007118968
 30
0.0
  0
SPLINE
  5
2B1
330
2
100
AcDbEntity
  8
0
100
AcDbSpline
210
0.0
220
0.0
230
1.0
 70
     8
 71
     3
 72
     9
 73
     5
 74
     0
 42
0.000000001
 43
0.0000000001
 40
0.0
 40
0.0
 40
0.0
 40
0.0
 40
0.3964137364449641
 40
1.0
 40
1.0
 40
1.0
 40
1.0
 10
7.740268363825342
 20
7.383557007118968
 30
0.0
 10
7.734719609315707
 20
7.377077847522403
 30
0.0
 10
7.720722227289126
 20
7.360733409878376
 30
0.0
 10
7.705435475106092
 20
7.346690569393609
 30
0.0
 10
7.696208601474002
 20
7.338214503775716
 30
0.0
  0
LINE
  5
2B2
330
2
100
AcDbEntity
  8
0
100
AcDbLine
 10
7.529250304935578
 20
7.35078547976875
 30
0.0
 11
7.537725117486437
 21
7.398807705070868
 31
0.0
  0
SPLINE
  5
2B3
330
2
100
AcDbEntity
  8
0
100
AcDbSpline
210
0.0
220
0.0
230
1.0
 70
     8
 71
     3
 72
     9
 73
     5
 74
     0
 42
0.000000001
 43
0.0000000001
 40
0.0
 40
0.0
 40
0.0
 40
0.0
 40
0.3822979274184181
 40
1.0
 40
1.0
 40
1.0
 40
1.0
 10
7.537725117490674
 20
7.398807705074304
 30
0.0
 10
7.538240325409849
 20
7.409504528829654
 30
0.0
 10
7.539587986179657
 20
7.437484862983113
 30
0.0
 10
7.533903756178159
 20
7.463732298670945
 30
0.0
 10
7.530392595525229
 20
7.479945394095272
 30
0.0
  0
LINE
  5
2B4
330
2
100
AcDbEntity
  8
0
100
AcDbLine
 10
7.517858015996479
 20
7.539565669410109
 30
0.0
 11
7.520675122958994
 21
7.566498633814215
 31
0.0
  0
ARC
  5
2B5
330
2
100
AcDbEntity
  8
0
100
AcDbCircle
 10
7.62056432007388
 20
7.272644492011998
 30
0.0
 40
0.3103676986345413
100
AcDbArc
 50
62.61379871470332
 51
108.7743259455004
  0
LINE
  5
2B6
330
2
100
AcDbEntity
  8
0
100
AcDbLine
 10
7.69582123401533
 20
7.267374343707381
 30
0.0
 11
7.693819205708073
 21
7.265931271949932
 31
0.0
  0
LWPOLYLINE
  5
2B7
330
2
100
AcDbEntity
  8
0
100
AcDbPolyline
 90
        9
 70
   128
 43
0.0
 10
7.560174479183081
 20
7.275994411835192
 10
7.560621729842923
 20
7.284525241085904
 10
7.567984781932954
 20
7.290640563257931
 10
7.581662933924384
 20
7.293842447526559
 10
7.600545574599992
 20
7.293870929842444
 10
7.623094394886665
 20
7.290723171417351
 10
7.647476283650664
 20
7.284655347721222
 10
7.671708837204938
 20
7.276161253091188
 10
7.693819205708073
 20
7.265931271949932
  0
LINE
  5
2B8
330
2
100
AcDbEntity
  8
0
100
AcDbLine
 10
7.560174479183081
 20
7.275994411835192
 30
0.0
 11
7.55919666546843
 21
7.277661685719249
 31
0.0
  0
LINE
  5
2B9
330
2
100
AcDbEntity
  8
0
100
AcDbLine
 10
7.55919666546843
 20
7.277661685719249
 30
0.0
 11
7.529250304935578
 21
7.35078547976875
 31
0.0
  0
LINE
  5
2BA
330
2
100
AcDbEntity
  8
0
100
AcDbLine
 10
7.696208601475949
 20
7.338214503778351
 30
0.0
 11
7.69582123401533
 21
7.267374343707381
 31
0.0
  0
LINE
  5
2BB
330
2
100
AcDbEntity
  8
0
100
AcDbLine
 10
7.502747470167156
 20
9.439118643500833
 30
0.0
 11
7.328487259173781
 21
9.452239532801922
 31
0.0
  0
LINE
  5
2BC
330
2
100
AcDbEntity
  8
0
100
AcDbLine
 10
7.694797019422725
 20
7.265857755202357
 30
0.0
 11
7.732068814135524
 21
7.233579434140489
 31
0.0
  0
LINE
  5
2BD
330
2
100
AcDbEntity
  8
0
100
AcDbLine
 10
7.694797019422725
 20
7.265857755202357
 30
0.0
 11
7.69582123401533
 21
7.267374343707381
 31
0.0
  0
LINE
  5
2BE
330
2
100
AcDbEntity
  8
0
100
AcDbLine
 10
7.785187416015486
 20
7.537667700236698
 30
0.0
 11
7.763329102701337
 21
7.5482281003696
 31
0.0
  0
LINE
  5
2BF
330
2
100
AcDbEntity
  8
0
100
AcDbLine
 10
7.785187416015486
 20
7.537667700236698
 30
0.0
 11
7.773046575264794
 21
7.461674789920515
 31
0.0
  0
LWPOLYLINE
  5
2C0
330
2
100
AcDbEntity
  8
0
100
AcDbPolyline
 90
        9
 70
   128
 43
0.0
 10
7.731091000420872
 20
7.233652950888064
 10
7.730643749761103
 20
7.225122121637318
 10
7.723280697671068
 20
7.219006799465291
 10
7.709602545679569
 20
7.215804915196664
 10
7.690721036734181
 20
7.215776688846086
 10
7.668171084717288
 20
7.218924191305911
 10
7.643789195953289
 20
7.224992015002
 10
7.619556642399015
 20
7.233486109632067
 10
7.59744627389588
 20
7.24371609077333
  0
LINE
  5
2C1
330
2
100
AcDbEntity
  8
0
100
AcDbLine
 10
7.596468460181228
 20
7.243789607520904
 30
0.0
 11
7.59744627389588
 21
7.24371609077333
 31
0.0
  0
LINE
  5
2C2
330
2
100
AcDbEntity
  8
0
100
AcDbLine
 10
7.55919666546843
 20
7.276067928582767
 30
0.0
 11
7.596468460181228
 21
7.243789607520904
 31
0.0
  0
LINE
  5
2C3
330
2
100
AcDbEntity
  8
0
100
AcDbLine
 10
7.55919666546843
 20
7.276067928582767
 30
0.0
 11
7.560174479183081
 21
7.275994411835192
 31
0.0
  0
LINE
  5
2C4
330
2
100
AcDbEntity
  8
0
100
AcDbLine
 10
7.693819205708073
 20
7.265931271949932
 30
0.0
 11
7.694797019422725
 21
7.265857755202357
 31
0.0
  0
LINE
  5
2C5
330
2
100
AcDbEntity
  8
0
100
AcDbLine
 10
7.731091000420872
 20
7.233652950888064
 30
0.0
 11
7.732068814135524
 21
7.233579434140489
 31
0.0
  0
LINE
  5
2C6
330
2
100
AcDbEntity
  8
0
100
AcDbLine
 10
7.328487259173781
 20
9.452239532801922
 30
0.0
 11
7.23974858936403
 21
9.471744536798865
 31
0.0
  0
LWPOLYLINE
  5
2C7
330
2
100
AcDbEntity
  8
0
100
AcDbPolyline
 90
        3
 70
   128
 43
0.0
 10
7.793373117263204
 20
7.254067564761063
 10
7.785052490257015
 20
7.247302037492122
 10
7.78341369800476
 20
7.246503964116582
  0
LINE
  5
2C8
330
2
100
AcDbEntity
  8
0
100
AcDbLine
 10
7.911803187784709
 20
7.3902731202855
 30
0.0
 11
7.899679379500153
 21
7.381460966717454
 31
0.0
  0
ARC
  5
2C9
330
2
100
AcDbEntity
  8
0
100
AcDbCircle
 10
7.218247194242479
 20
9.376200754559727
 30
0.0
 40
0.0979332646095442
100
AcDbArc
 50
77.3173082077961
 51
85.32930291050437
  0
LINE
  5
2CA
330
2
100
AcDbEntity
  8
0
100
AcDbLine
 10
7.22622178103334
 20
9.473808798709914
 30
0.0
 11
6.93269319491716
 21
9.495910162596358
 31
0.0
  0
LINE
  5
2CB
330
2
100
AcDbEntity
  8
0
100
AcDbLine
 10
7.55919666546843
 20
7.277661685719249
 30
0.0
 11
7.55919666546843
 21
7.276067928582767
 31
0.0
  0
SPLINE
  5
2CC
330
2
100
AcDbEntity
  8
0
100
AcDbSpline
210
0.0
220
0.0
230
1.0
 70
     8
 71
     3
 72
     9
 73
     5
 74
     0
 42
0.000000001
 43
0.0000000001
 40
0.0
 40
0.0
 40
0.0
 40
0.0
 40
0.690265050481048
 40
1.0
 40
1.0
 40
1.0
 40
1.0
 10
7.924040337794282
 20
7.409048088109854
 30
0.0
 10
7.920029070166499
 20
7.414540709000586
 30
0.0
 10
7.914217871084258
 20
7.422497972499434
 30
0.0
 10
7.908303243611502
 20
7.430236044436091
 30
0.0
 10
7.906471276769803
 20
7.432632795756794
 30
0.0
  0
LINE
  5
2CD
330
2
100
AcDbEntity
  8
0
100
AcDbLine
 10
7.911803187784709
 20
7.3902731202855
 30
0.0
 11
7.924040337797271
 21
7.409048088109781
 31
0.0
  0
LWPOLYLINE
  5
2CE
330
2
100
AcDbEntity
  8
0
100
AcDbPolyline
 90
        6
 70
   128
 43
0.0
 10
6.93269319491716
 20
9.495910162596358
 10
6.926152081312129
 20
9.496069108900972
 10
6.920705580088986
 20
9.495492760795116
 10
6.916562568492283
 20
9.494202654250432
 10
6.91388174111472
 20
9.49224846718832
 10
6.912969738729996
 20
9.490640323674124
  0
ARC
  5
2CF
330
2
100
AcDbEntity
  8
0
100
AcDbCircle
 10
7.946572343057083
 20
6.865843324560183
 30
0.0
 40
0.0258271264840327
100
AcDbArc
 50
206.3093621142012
 51
267.201958473101
  0
ARC
  5
2D0
330
2
100
AcDbEntity
  8
0
100
AcDbCircle
 10
8.175309556230892
 20
6.969717535740969
 30
0.0
 40
0.2770326060251321
100
AcDbArc
 50
168.1565985804002
 51
204.5995217088999
  0
LINE
  5
2D1
330
2
100
AcDbEntity
  8
0
100
AcDbLine
 10
7.967307857296007
 20
7.218260088065784
 30
0.0
 11
7.904174364178789
 21
7.026575010474144
 31
0.0
  0
LINE
  5
2D2
330
2
100
AcDbEntity
  8
0
100
AcDbLine
 10
8.325249921846321
 20
6.99487005184393
 30
0.0
 11
8.388383414963538
 21
7.18655512943553
 31
0.0
  0
ARC
  5
2D3
330
2
100
AcDbEntity
  8
0
100
AcDbCircle
 10
7.909547485341038
 20
7.195709475460742
 30
0.0
 40
0.4616762824711686
100
AcDbArc
 50
308.3912028773999
 51
334.2132946608982
  0
ARC
  5
2D4
330
2
100
AcDbEntity
  8
0
100
AcDbCircle
 10
8.167666676317706
 20
6.867697944750995
 30
0.0
 40
0.0443073207451699
100
AcDbArc
 50
268.1090752518035
 51
310.1931445754983
  0
LINE
  5
2D5
330
2
100
AcDbEntity
  8
0
100
AcDbLine
 10
7.94531157564159
 20
6.840046989004844
 30
0.0
 11
8.166204673327307
 21
6.823414751334366
 31
0.0
  0
ARC
  5
2D6
330
2
100
AcDbEntity
  8
0
100
AcDbCircle
 10
8.003020235888097
 20
7.124132224047982
 30
0.0
 40
0.2744137264867695
100
AcDbArc
 50
305.8579809468014
 51
16.63386199700215
  0
ARC
  5
2D7
330
2
100
AcDbEntity
  8
0
100
AcDbCircle
 10
8.260542433653778
 20
6.996719188061268
 30
0.0
 40
0.2752285450283512
100
AcDbArc
 50
126.1985519929031
 51
197.4443547745024
  0
ARC
  5
2D8
330
2
100
AcDbEntity
  8
0
100
AcDbCircle
 10
8.007381372586381
 20
6.918466979088507
 30
0.0
 40
0.0103269477236035
100
AcDbArc
 50
204.3362626065012
 51
267.2102901677972
  0
LINE
  5
2D9
330
2
100
AcDbEntity
  8
0
100
AcDbLine
 10
8.032746682061787
 20
6.906204349596924
 30
0.0
 11
8.006878756054017
 21
6.908152269889704
 31
0.0
  0
LINE
  5
2DA
330
2
100
AcDbEntity
  8
0
100
AcDbLine
 10
8.151394869779071
 20
6.897270905160088
 30
0.0
 11
8.032746682061787
 21
6.906204349596924
 31
0.0
  0
ARC
  5
2DB
330
2
100
AcDbEntity
  8
0
100
AcDbCircle
 10
8.151946600300984
 20
6.915137013158036
 30
0.0
 40
0.0178746250747592
100
AcDbArc
 50
268.2311879514998
 51
311.3935721910028
  0
ARC
  5
2DC
330
2
100
AcDbEntity
  8
0
100
AcDbCircle
 10
7.931472077066795
 20
7.176722222046469
 30
0.0
 40
0.4616762824712064
100
AcDbArc
 50
308.3912028773999
 51
334.2132946608982
  0
ARC
  5
2DD
330
2
100
AcDbEntity
  8
0
100
AcDbCircle
 10
8.189591268052218
 20
6.848710691336723
 30
0.0
 40
0.0443073207451699
100
AcDbArc
 50
268.1090752518035
 51
310.1931445754983
  0
LINE
  5
2DE
330
2
100
AcDbEntity
  8
0
100
AcDbLine
 10
8.347174513572078
 20
6.975882798438403
 30
0.0
 11
8.410308006698116
 21
7.167567876030044
 31
0.0
  0
LINE
  5
2DF
330
2
100
AcDbEntity
  8
0
100
AcDbLine
 10
7.967236167376099
 20
6.821059735599323
 30
0.0
 11
8.188129265053067
 21
6.804427497928839
 31
0.0
  0
ARC
  5
2E0
330
2
100
AcDbEntity
  8
0
100
AcDbCircle
 10
7.968855078683209
 20
6.847897345233386
 30
0.0
 40
0.0268863936668423
100
AcDbArc
 50
229.8492770627066
 51
266.5479592276035
  0
ARC
  5
2E1
330
2
100
AcDbEntity
  8
0
100
AcDbCircle
 10
8.288111435312728
 20
6.975069503594731
 30
0.0
 40
0.2814194189263036
100
AcDbArc
 50
124.0986910639973
 51
193.8826501116997
  0
LINE
  5
2E2
330
2
100
AcDbEntity
  8
0
100
AcDbLine
 10
8.142023764006303
 20
7.212015720979019
 30
0.0
 11
8.265950335007879
 21
7.202684338987621
 31
0.0
  0
ARC
  5
2E3
330
2
100
AcDbEntity
  8
0
100
AcDbCircle
 10
8.141408149400838
 20
7.194450786707644
 30
0.0
 40
0.0175757189666974
100
AcDbArc
 50
87.9927231040005
 51
129.0223704634991
  0
LINE
  5
2E4
330
2
100
AcDbEntity
  8
0
100
AcDbLine
 10
11.56340074432868
 20
9.463315133134246
 30
0.0
 11
11.56088208180428
 21
9.466242339571383
 31
0.0
  0
LINE
  5
2E5
330
2
100
AcDbEntity
  8
0
100
AcDbLine
 10
22.12031685691069
 20
12.51083431283648
 30
0.0
 11
22.11779819438635
 21
12.51376151927361
 31
0.0
  0
LWPOLYLINE
  5
2E6
330
2
100
AcDbEntity
  8
0
100
AcDbPolyline
 90
       12
 70
   128
 43
0.0
 10
22.1929040120204
 20
12.43874625698353
 10
22.19712408737881
 20
12.43523845891692
 10
22.25138100684539
 20
12.40867125752684
 10
22.31641000429374
 20
12.40511895836634
 10
22.38516451161405
 20
12.424966675021
 10
22.45019365053749
 20
12.46606352420156
 10
22.50445042852904
 20
12.52395593181446
 10
22.54205551429446
 20
12.59237046481557
 10
22.55893383522661
 20
12.66389336906038
 10
22.55325595164979
 20
12.73077383737134
 10
22.52563780700349
 20
12.78576461660793
 10
22.50867036242993
 20
12.80336191134092
  0
LWPOLYLINE
  5
2E7
330
2
100
AcDbEntity
  8
0
100
AcDbPolyline
 90
       12
 70
   128
 43
0.0
 10
11.63598818237086
 20
9.391227158954793
 10
11.64020783333047
 20
9.387719238373561
 10
11.69446517719585
 20
9.361152159498139
 10
11.75949375025421
 20
9.357599737822981
 10
11.82824854049831
 20
9.377447536151137
 10
11.89327767942174
 20
9.41854438534048
 10
11.94753445741323
 20
9.476436792944644
 10
11.98513954317871
 20
9.544851325945707
 10
12.00201758117833
 20
9.616374148516991
 10
11.99634026346659
 20
9.683254780183805
 10
11.96872155295514
 20
9.73824539607332
 10
11.95175467424674
 20
9.755842854144562
  0
LWPOLYLINE
  5
2E8
330
2
100
AcDbEntity
  8
0
100
AcDbPolyline
 90
       19
 70
   128
 43
0.0
 10
22.08547960356404
 20
12.56098757149285
 10
22.08767133792248
 20
12.50726871041725
 10
22.10898745055239
 20
12.44082626417642
 10
22.14989265759937
 20
12.38898466519273
 10
22.20707325704541
 20
12.35594405252418
 10
22.27589665835555
 20
12.34438107172947
 10
22.3507873994246
 20
12.35523254467171
 10
22.42567785755223
 20
12.38761917956368
 10
22.49450140032871
 20
12.43891741047476
 10
22.55168199977475
 20
12.5049712576275
 10
22.59258720682167
 20
12.58042948891383
 10
22.61390331945158
 20
12.65917879851443
 10
22.61390331945158
 20
12.73483953958069
 10
22.59258720682167
 20
12.80128198582149
 10
22.55168199977475
 20
12.85312351406768
 10
22.49450140032871
 20
12.88616426820253
 10
22.42567785755223
 20
12.89772713743611
 10
22.3507873994246
 20
12.88687581689611
 10
22.3507873994246
 20
12.88687581689611
  0
LWPOLYLINE
  5
2E9
330
2
100
AcDbEntity
  8
0
100
AcDbPolyline
 90
       19
 70
   128
 43
0.0
 10
11.52856334952445
 20
9.513468350949459
 10
11.53075550827301
 20
9.459749612388556
 10
11.55207162090291
 20
9.393307166147719
 10
11.59297682795858
 20
9.341465567164025
 10
11.65015742739595
 20
9.308424954495482
 10
11.71898068723982
 20
9.296861932859606
 10
11.79387114537626
 20
9.307713324128355
 10
11.86876160351271
 20
9.340099959020328
 10
11.9375854292129
 20
9.391398271604902
 10
11.99476602865902
 20
9.45745211875764
 10
12.03567123571469
 20
9.532910350043973
 10
12.05698734833584
 20
9.611659659644569
 10
12.05698734833584
 20
9.687320400719624
 10
12.03567123571469
 20
9.753762846951667
 10
11.99476602865902
 20
9.805604375206636
 10
11.9375854292129
 20
9.838645129341417
 10
11.86876160351271
 20
9.850207916892749
 10
11.79387114537626
 20
9.839356596352757
 10
11.79387114537626
 20
9.839356596352757
  0
ARC
  5
2EA
330
2
100
AcDbEntity
  8
0
100
AcDbCircle
 10
25.04967109869828
 20
12.16753754611413
 30
0.0
 40
0.5343237821179551
100
AcDbArc
 50
8.749285570098944
 51
43.73463283130277
  0
LINE
  5
2EB
330
2
100
AcDbEntity
  8
0
100
AcDbLine
 10
25.4357464296482
 20
12.53692588237588
 30
0.0
 11
25.17265120636303
 21
12.76477302935701
 31
0.0
  0
ARC
  5
2EC
330
2
100
AcDbEntity
  8
0
100
AcDbCircle
 10
25.29505621314219
 20
12.87728730753003
 30
0.0
 40
0.1662601830805319
100
AcDbArc
 50
179.5143540286999
 51
222.5891186933038
  0
LINE
  5
2ED
330
2
100
AcDbEntity
  8
0
100
AcDbLine
 10
25.12880200247787
 20
13.29641623085269
 30
0.0
 11
25.12880200247787
 21
12.87869653211887
 31
0.0
  0
LWPOLYLINE
  5
2EE
330
2
100
AcDbEntity
  8
0
100
AcDbPolyline
 90
        9
 70
   128
 43
0.0
 10
25.17265120636303
 20
13.33439082608123
 10
25.16409667852455
 20
13.34033990017163
 10
25.15587089454197
 20
13.34314170710581
 10
25.14828993858711
 20
13.34268859117746
 10
25.14164514713463
 20
13.33899788197496
 10
25.13619200113573
 20
13.33221132854262
 10
25.1321398348753
 20
13.3225900773059
 10
25.12964456687078
 20
13.31050349627025
 10
25.12880200247787
 20
13.29641623085269
  0
LINE
  5
2EF
330
2
100
AcDbEntity
  8
0
100
AcDbLine
 10
25.17265120636303
 20
13.33439082608123
 30
0.0
 11
25.26034961412476
 21
13.25844177709041
 31
0.0
  0
LWPOLYLINE
  5
2F0
330
2
100
AcDbEntity
  8
0
100
AcDbPolyline
 90
       11
 70
   128
 43
0.0
 10
25.26034961412476
 20
13.25844177709041
 10
25.31281860456454
 20
13.2240369375367
 10
25.36223832212936
 20
13.21370099954731
 10
25.40573664809275
 20
13.22803469891489
 10
25.4407855625731
 20
13.26620494176964
 10
25.46534816044522
 20
13.32599346884778
 10
25.47799708077693
 20
13.4039254482333
 10
25.47799708077693
 20
13.49547184257538
 10
25.46534816044522
 20
13.59531239462796
 10
25.4407855625731
 20
13.69764458918087
 10
25.41358475086033
 20
13.77438099378395
  0
LINE
  5
2F1
330
2
100
AcDbEntity
  8
0
100
AcDbLine
 10
25.3218099126689
 20
13.96470594569056
 30
0.0
 11
25.17265120636303
 21
14.09388117455805
 31
0.0
  0
ARC
  5
2F2
330
2
100
AcDbEntity
  8
0
100
AcDbCircle
 10
25.29505656768046
 20
14.20639559005796
 30
0.0
 40
0.1662605370411804
100
AcDbArc
 50
179.514378016001
 51
222.5890708547
  0
LINE
  5
2F3
330
2
100
AcDbEntity
  8
0
100
AcDbLine
 10
25.12880200247787
 20
15.84070908922158
 30
0.0
 11
25.12880200247787
 21
14.82394029409106
 31
0.0
  0
LINE
  5
2F4
330
2
100
AcDbEntity
  8
0
100
AcDbLine
 10
25.12880200247787
 20
14.72283523685598
 30
0.0
 11
25.12880200247787
 21
14.20780474804859
 31
0.0
  0
LINE
  5
2F5
330
2
100
AcDbEntity
  8
0
100
AcDbLine
 10
27.58435709313778
 20
13.71413600031523
 30
0.0
 11
27.58435709313778
 21
10.90171684615705
 31
0.0
  0
ARC
  5
2F6
330
2
100
AcDbEntity
  8
0
100
AcDbCircle
 10
25.25708161791364
 20
12.86632498614256
 30
0.0
 40
0.1662601830805219
100
AcDbArc
 50
179.5143540286999
 51
222.5891186933038
  0
LINE
  5
2F7
330
2
100
AcDbEntity
  8
0
100
AcDbLine
 10
25.09082740724931
 20
13.28545390945642
 30
0.0
 11
25.09082740724931
 21
12.8677342107226
 31
0.0
  0
LINE
  5
2F8
330
2
100
AcDbEntity
  8
0
100
AcDbLine
 10
25.13467661113448
 20
12.75381070796953
 30
0.0
 11
25.39777183441966
 21
12.52596356098837
 31
0.0
  0
ARC
  5
2F9
330
2
100
AcDbEntity
  8
0
100
AcDbCircle
 10
8.529682131104369
 20
8.283896746382971
 30
0.0
 40
0.0556858497370165
100
AcDbArc
 50
177.7639509145997
 51
291.3846800217992
  0
LINE
  5
2FA
330
2
100
AcDbEntity
  8
0
100
AcDbLine
 10
8.474038682472396
 20
8.286069414058355
 30
0.0
 11
8.474038682472396
 21
11.05820934867969
 31
0.0
  0
LINE
  5
2FB
330
2
100
AcDbEntity
  8
0
100
AcDbLine
 10
25.03092825091924
 20
14.20486733215036
 30
0.0
 11
25.03092825091923
 21
14.61169486324761
 31
0.0
  0
LINE
  5
2FC
330
2
100
AcDbEntity
  8
0
100
AcDbLine
 10
25.03092825091924
 20
14.7295052698045
 30
0.0
 11
25.03092825091924
 21
15.83777167332335
 31
0.0
  0
ARC
  5
2FD
330
2
100
AcDbEntity
  8
0
100
AcDbCircle
 10
24.92301272730302
 20
14.2102040790359
 30
0.0
 40
0.1080474021153619
100
AcDbArc
 50
287.2087967792028
 51
357.1688579939015
  0
LINE
  5
2FE
330
2
100
AcDbEntity
  8
0
100
AcDbLine
 10
24.95497906045339
 20
14.10699364037582
 30
0.0
 11
24.82805504021018
 21
14.07035383174813
 31
0.0
  0
LINE
  5
2FF
330
2
100
AcDbEntity
  8
0
100
AcDbLine
 10
24.76376832073208
 20
14.0517958543498
 30
0.0
 11
24.42333585896657
 21
13.9535214676274
 31
0.0
  0
ARC
  5
300
330
2
100
AcDbEntity
  8
0
100
AcDbCircle
 10
24.45530202199086
 20
13.85031116097969
 30
0.0
 40
0.1080472256794982
100
AcDbArc
 50
107.2087313155014
 51
177.1689234576004
  0
LINE
  5
301
330
2
100
AcDbEntity
  8
0
100
AcDbLine
 10
24.34738666850072
 20
13.85564777585283
 30
0.0
 11
24.34738666850072
 21
12.86831028040361
 31
0.0
  0
ARC
  5
302
330
2
100
AcDbEntity
  8
0
100
AcDbCircle
 10
24.23947226024139
 20
12.87364615551451
 30
0.0
 40
0.1080462450748719
100
AcDbArc
 50
287.2085247059992
 51
357.1692905096015
  0
LINE
  5
303
330
2
100
AcDbEntity
  8
0
100
AcDbLine
 10
24.27143776097616
 20
12.77043667030257
 30
0.0
 11
8.549986741199202
 21
8.232044681139738
 31
0.0
  0
LINE
  5
304
330
2
100
AcDbEntity
  8
0
100
AcDbLine
 10
22.67650787356545
 20
13.6391282155848
 30
0.0
 11
22.06891576454532
 21
13.46373148173489
 31
0.0
  0
LINE
  5
305
330
2
100
AcDbEntity
  8
0
100
AcDbLine
 10
22.67650787356545
 20
13.86697536256597
 30
0.0
 11
22.67650787356545
 21
13.6391282155848
 31
0.0
  0
LINE
  5
306
330
2
100
AcDbEntity
  8
0
100
AcDbLine
 10
22.67650787356545
 20
13.86697536256597
 30
0.0
 11
22.06891576454532
 21
13.69157862871609
 31
0.0
  0
LINE
  5
307
330
2
100
AcDbEntity
  8
0
100
AcDbLine
 10
22.06891576454532
 20
13.69157862871609
 30
0.0
 11
22.06891576454532
 21
13.46373148173489
 31
0.0
  0
LINE
  5
308
330
2
100
AcDbEntity
  8
0
100
AcDbLine
 10
12.11959190245847
 20
10.59160907671494
 30
0.0
 11
11.51199951050573
 21
10.41621226119153
 31
0.0
  0
LINE
  5
309
330
2
100
AcDbEntity
  8
0
100
AcDbLine
 10
12.11959190245847
 20
10.81945622369611
 30
0.0
 11
12.11959190245847
 21
10.59160907671494
 31
0.0
  0
LINE
  5
30A
330
2
100
AcDbEntity
  8
0
100
AcDbLine
 10
12.11959190245847
 20
10.81945622369611
 30
0.0
 11
11.51199951050573
 21
10.64405940817273
 31
0.0
  0
LINE
  5
30B
330
2
100
AcDbEntity
  8
0
100
AcDbLine
 10
11.51199951050573
 20
10.64405940817273
 30
0.0
 11
11.51199951050573
 21
10.41621226119153
 31
0.0
  0
LWPOLYLINE
  5
30C
330
2
100
AcDbEntity
  8
0
100
AcDbPolyline
 90
        7
 70
   128
 43
0.0
 10
25.11035348581034
 20
13.33173723340459
 10
25.11031534335864
 20
13.3317262697812
 10
25.10367055190607
 20
13.32803556058748
 10
25.09821740590725
 20
13.32124900715514
 10
25.09416523964674
 20
13.31162775591838
 10
25.09166997164222
 20
13.29954117488276
 10
25.09082740724931
 20
13.28545390945642
  0
ARC
  5
30D
330
2
100
AcDbEntity
  8
0
100
AcDbCircle
 10
24.98306708221696
 20
12.14246175114409
 30
0.0
 40
0.5648483598727893
100
AcDbArc
 50
9.722545797199682
 51
42.76137260430065
  0
ARC
  5
30E
330
2
100
AcDbEntity
  8
0
100
AcDbCircle
 10
25.10097977751358
 20
15.84179457145526
 30
0.0
 40
0.0278433919236784
100
AcDbArc
 50
357.7657421884998
 51
111.3844477884982
  0
ARC
  5
30F
330
2
100
AcDbEntity
  8
0
100
AcDbCircle
 10
27.55585183538433
 20
13.71525476565901
 30
0.0
 40
0.0285272037800245
100
AcDbArc
 50
357.752426936099
 51
47.59881152089938
  0
LWPOLYLINE
  5
310
330
2
100
AcDbEntity
  8
0
100
AcDbPolyline
 90
        7
 70
   128
 43
0.0
 10
8.474038682472396
 20
11.05820934867969
 10
8.474459964664477
 20
11.06525280455782
 10
8.475707557825575
 20
11.07129630727069
 10
8.477733681792541
 20
11.07610679142714
 10
8.480460254792062
 20
11.07950006814331
 10
8.483782650518234
 20
11.08134549347332
 10
8.483801680911746
 20
11.08135108138694
  0
LWPOLYLINE
  5
311
330
2
100
AcDbEntity
  8
0
100
AcDbPolyline
 90
        9
 70
   128
 43
0.0
 10
25.05285281202077
 20
15.85675875873382
 10
25.04857554810153
 20
15.85973329578339
 10
25.04446269694692
 20
15.86113437608552
 10
25.0406722189739
 20
15.86090781811699
 10
25.03734982324765
 20
15.85906239278698
 10
25.0346232502482
 20
15.85566911607081
 10
25.03259712627249
 20
15.85085863191432
 10
25.03134953311132
 20
15.84481512920149
 10
25.03092825091924
 20
15.83777167332335
  0
LINE
  5
312
330
2
100
AcDbEntity
  8
0
100
AcDbLine
 10
25.05285281202077
 20
15.85675875873382
 30
0.0
 11
25.09082740724931
 21
15.86772108013005
 31
0.0
  0
ARC
  5
313
330
2
100
AcDbEntity
  8
0
100
AcDbCircle
 10
25.84993438930299
 20
11.99439684467306
 30
0.0
 40
0.2835314423539108
100
AcDbArc
 50
57.13646885050129
 51
107.602106908103
  0
LINE
  5
314
330
2
100
AcDbEntity
  8
0
100
AcDbLine
 10
26.00378986868177
 20
12.23255345337585
 30
0.0
 11
28.15240045048903
 21
10.37180210668799
 31
0.0
  0
LWPOLYLINE
  5
315
330
2
100
AcDbEntity
  8
0
100
AcDbPolyline
 90
        9
 70
   128
 43
0.0
 10
28.08820047733664
 20
10.25200377213843
 10
28.11614974980571
 20
10.26201775692511
 10
28.13965380075162
 20
10.27456546091903
 10
28.15781083336569
 20
10.28916483325578
 10
28.16992261080742
 20
10.30525489210525
 10
28.17552336144603
 20
10.32221708377298
 10
28.17439836396499
 20
10.33939969851207
 10
28.16659085917978
 20
10.35614259470816
 10
28.15240045048903
 20
10.37180210668799
  0
LINE
  5
316
330
2
100
AcDbEntity
  8
0
100
AcDbLine
 10
28.08820047733664
 20
10.25200377213843
 30
0.0
 11
27.49579814981961
 21
10.08099195050359
 31
0.0
  0
LINE
  5
317
330
2
100
AcDbEntity
  8
0
100
AcDbLine
 10
25.7641930799971
 20
12.2646532168079
 30
0.0
 11
25.17179075248008
 21
12.09364139518182
 31
0.0
  0
LWPOLYLINE
  5
318
330
2
100
AcDbEntity
  8
0
100
AcDbPolyline
 90
        9
 70
   128
 43
0.0
 10
26.57267678036543
 20
11.25754144824977
 10
26.52122400239062
 20
11.2349799404962
 10
26.49095519234351
 20
11.20429050930998
 10
26.48647894733826
 20
11.17014547545738
 10
26.50847736286121
 20
11.137743285896
 10
26.55360039369804
 20
11.11201659776499
 10
26.61497944966467
 20
11.09688235177811
 10
26.68326950876668
 20
11.09464441541531
 10
26.74807357547266
 20
11.10564336794817
  0
LINE
  5
319
330
2
100
AcDbEntity
  8
0
100
AcDbLine
 10
26.74807357547266
 20
11.10564336794817
 30
0.0
 11
26.89997195639553
 21
11.14949265350691
 31
0.0
  0
LWPOLYLINE
  5
31A
330
2
100
AcDbEntity
  8
0
100
AcDbPolyline
 90
        9
 70
   128
 43
0.0
 10
26.89997195639553
 20
11.14949265350691
 10
26.9514253002355
 20
11.17205432460752
 10
26.98169354442629
 20
11.20274359244671
 10
26.98616978942271
 20
11.23688862629931
 10
26.96417137389975
 20
11.26929081586064
 10
26.91904834306299
 20
11.2950175039917
 10
26.85766928709636
 20
11.31015174997857
 10
26.78937979385943
 20
11.31238984969717
 10
26.72457516128838
 20
11.30139073380851
  0
LINE
  5
31B
330
2
100
AcDbEntity
  8
0
100
AcDbLine
 10
26.72457516128838
 20
11.30139073380851
 30
0.0
 11
26.57267678036543
 21
11.25754144824977
 31
0.0
  0
ARC
  5
31C
330
2
100
AcDbEntity
  8
0
100
AcDbCircle
 10
25.84993438930299
 20
12.03237136475286
 30
0.0
 40
0.283531442353953
100
AcDbArc
 50
57.13646885050129
 51
107.602106908103
  0
LINE
  5
31D
330
2
100
AcDbEntity
  8
0
100
AcDbLine
 10
25.7641930799971
 20
12.30262773688771
 30
0.0
 11
25.17179075248008
 21
12.13161591526158
 31
0.0
  0
LINE
  5
31E
330
2
100
AcDbEntity
  8
0
100
AcDbLine
 10
28.15240045048903
 20
10.40977662675901
 30
0.0
 11
26.00378986868177
 21
12.27052797344686
 31
0.0
  0
ARC
  5
31F
330
2
100
AcDbEntity
  8
0
100
AcDbCircle
 10
25.15757726565021
 20
12.12993793623634
 30
0.0
 40
0.03898027835727
100
AcDbArc
 50
177.7643096007013
 51
291.3849844368009
  0
ARC
  5
320
330
2
100
AcDbEntity
  8
0
100
AcDbCircle
 10
25.16772988889808
 20
12.14198629495329
 30
0.0
 40
0.0111371175817228
100
AcDbArc
 50
177.763632320301
 51
291.3844626884991
  0
ARC
  5
321
330
2
100
AcDbEntity
  8
0
100
AcDbCircle
 10
27.48174290754931
 20
10.12027917553944
 30
0.0
 40
0.04172572211777
100
AcDbArc
 50
231.221989142398
 51
289.6849767793979
  0
LINE
  5
322
330
2
100
AcDbEntity
  8
0
100
AcDbLine
 10
25.15660125390951
 20
12.14242088832323
 30
0.0
 11
25.15660125390951
 21
12.7348234103553
 31
0.0
  0
LWPOLYLINE
  5
323
330
2
100
AcDbEntity
  8
0
100
AcDbPolyline
 90
       13
 70
   128
 43
0.0
 10
25.50227040114859
 20
12.22701717673689
 10
25.50078374381584
 20
12.23587122192442
 10
25.48174788156748
 20
12.30946425904044
 10
25.45258327801887
 20
12.37710829280358
 10
25.41680761499445
 20
12.43064444246759
 10
25.37873597217129
 20
12.46361545231521
 10
25.34296030914694
 20
12.47204456867992
 10
25.3137957055982
 20
12.45491511005062
 10
25.2947599250234
 20
12.41429308277343
 10
25.28814886555648
 20
12.35507816538372
 10
25.2947599250234
 20
12.28441259245921
 10
25.3137957055982
 20
12.21081960838313
 10
25.32700336797814
 20
12.17642198360959
  0
LINE
  5
324
330
2
100
AcDbEntity
  8
0
100
AcDbLine
 10
25.11862665868096
 20
12.13145856693572
 30
0.0
 11
25.11862665868096
 21
12.77298073756943
 31
0.0
  0
LINE
  5
325
330
2
100
AcDbEntity
  8
0
100
AcDbLine
 10
8.52733231895068
 20
8.086264989594095
 30
0.0
 11
24.74945439707587
 21
12.77167453342834
 31
0.0
  0
LINE
  5
326
330
2
100
AcDbEntity
  8
0
100
AcDbLine
 10
24.82696753085749
 20
12.79406252773906
 30
0.0
 11
25.04557268400601
 21
12.85720190407716
 31
0.0
  0
ARC
  5
327
330
2
100
AcDbEntity
  8
0
100
AcDbCircle
 10
25.07005360504939
 20
12.9176792299824
 30
0.0
 40
0.03325194078734
100
AcDbArc
 50
179.5141860577003
 51
222.5891435567018
  0
LINE
  5
328
330
2
100
AcDbEntity
  8
0
100
AcDbLine
 10
24.55918392282982
 20
13.96742112323961
 30
0.0
 11
24.55918392282982
 21
13.77754843002069
 31
0.0
  0
LINE
  5
329
330
2
100
AcDbEntity
  8
0
100
AcDbLine
 10
24.55918392282982
 20
13.77754843002069
 30
0.0
 11
24.74502877836991
 21
13.83119721870701
 31
0.0
  0
LINE
  5
32A
330
2
100
AcDbEntity
  8
0
100
AcDbLine
 10
24.80721809713253
 20
13.84914972867102
 30
0.0
 11
24.8250058065058
 21
13.85428459806843
 31
0.0
  0
LINE
  5
32B
330
2
100
AcDbEntity
  8
0
100
AcDbLine
 10
24.8250058065058
 20
13.85428459806843
 30
0.0
 11
24.8250058065058
 21
14.04415729128732
 31
0.0
  0
LINE
  5
32C
330
2
100
AcDbEntity
  8
0
100
AcDbLine
 10
24.8250058065058
 20
13.32264139658154
 30
0.0
 11
24.8250058065058
 21
13.47453949456316
 31
0.0
  0
LINE
  5
32D
330
2
100
AcDbEntity
  8
0
100
AcDbLine
 10
24.8250058065058
 20
13.47453949456316
 30
0.0
 11
24.79197832771012
 21
13.46500528267658
 31
0.0
  0
LINE
  5
32E
330
2
100
AcDbEntity
  8
0
100
AcDbLine
 10
24.72854879668394
 20
13.44669475427046
 30
0.0
 11
24.55918392282982
 21
13.39780332651542
 31
0.0
  0
LINE
  5
32F
330
2
100
AcDbEntity
  8
0
100
AcDbLine
 10
24.55918392282982
 20
13.39780332651542
 30
0.0
 11
24.55918392282982
 21
13.24590522852509
 31
0.0
  0
LINE
  5
330
330
2
100
AcDbEntity
  8
0
100
AcDbLine
 10
24.55918392282982
 20
13.24590522852509
 30
0.0
 11
24.72767997659268
 21
13.29454584952888
 31
0.0
  0
LINE
  5
331
330
2
100
AcDbEntity
  8
0
100
AcDbLine
 10
24.79315427254744
 20
13.3134466507281
 30
0.0
 11
24.8250058065058
 21
13.32264139658154
 31
0.0
  0
LINE
  5
332
330
2
100
AcDbEntity
  8
0
100
AcDbLine
 10
25.03680285956718
 20
12.91796117156482
 30
0.0
 11
25.03092825091535
 21
14.20486733214709
 31
0.0
  0
LINE
  5
333
330
2
100
AcDbEntity
  8
0
100
AcDbLine
 10
25.04557268400601
 20
12.85720190407716
 30
0.0
 11
25.08065206345241
 21
12.82682227033334
 31
0.0
  0
LINE
  5
334
330
2
100
AcDbEntity
  8
0
100
AcDbLine
 10
25.08065206345241
 20
12.82682227033334
 30
0.0
 11
25.09517101268787
 21
12.8310135299554
 31
0.0
  0
LINE
  5
335
330
2
100
AcDbEntity
  8
0
100
AcDbLine
 10
10.88574448756483
 20
6.045572822398963
 30
0.0
 11
10.92082386701123
 21
6.015193188655143
 31
0.0
  0
LINE
  5
336
330
2
100
AcDbEntity
  8
0
100
AcDbLine
 10
10.88574448756483
 20
6.045572822398963
 30
0.0
 11
10.77449893817265
 21
6.013458998458909
 31
0.0
  0
LINE
  5
337
330
2
100
AcDbEntity
  8
0
100
AcDbLine
 10
25.08065206345241
 20
12.86479679483313
 30
0.0
 11
25.04557268400601
 21
12.89517642857695
 31
0.0
  0
LINE
  5
338
330
2
100
AcDbEntity
  8
0
100
AcDbLine
 10
25.08065206345241
 20
12.86479679483313
 30
0.0
 11
25.08065206345241
 21
12.82682227033334
 31
0.0
  0
LINE
  5
339
330
2
100
AcDbEntity
  8
0
100
AcDbLine
 10
25.08065206345241
 20
12.86479679483313
 30
0.0
 11
25.09082743741753
 21
12.86773417227561
 31
0.0
  0
ARC
  5
33A
330
2
100
AcDbEntity
  8
0
100
AcDbCircle
 10
28.1176308619778
 20
10.36292294889012
 30
0.0
 40
0.0583454489716026
100
AcDbArc
 50
2.951652952599148
 51
53.42130466589946
  0
ARC
  5
33B
330
2
100
AcDbEntity
  8
0
100
AcDbCircle
 10
10.93470840386768
 20
6.028009160306796
 30
0.0
 40
0.0188952240808052
100
AcDbArc
 50
222.7082226247964
 51
279.570991519398
  0
LINE
  5
33C
330
2
100
AcDbEntity
  8
0
100
AcDbLine
 10
8.450491540833191
 20
8.064082967628134
 30
0.0
 11
8.528850181988133
 21
8.086703158910761
 31
0.0
  0
ARC
  5
33D
330
2
100
AcDbEntity
  8
0
100
AcDbCircle
 10
8.446268637464639
 20
8.078252964877401
 30
0.0
 40
0.0147858626664431
100
AcDbArc
 50
266.2273906944014
 51
286.5949634005967
  0
LINE
  5
33E
330
2
100
AcDbEntity
  8
0
100
AcDbLine
 10
10.75631545096114
 20
6.011416065630267
 30
0.0
 11
8.381201438937377
 21
8.068325136926473
 31
0.0
  0
ARC
  5
33F
330
2
100
AcDbEntity
  8
0
100
AcDbCircle
 10
10.75972143747217
 20
6.063044625019477
 30
0.0
 40
0.0517407855463162
100
AcDbArc
 50
266.2256106960966
 51
286.5951008251005
  0
LINE
  5
340
330
2
100
AcDbEntity
  8
0
100
AcDbLine
 10
6.654127784276839
 20
8.198365453804434
 30
0.0
 11
8.445295773745476
 21
8.063499142629126
 31
0.0
  0
LINE
  5
341
330
2
100
AcDbEntity
  8
0
100
AcDbLine
 10
8.416395915185486
 20
6.187600652905863
 30
0.0
 11
10.75631545096114
 21
6.011416065630267
 31
0.0
  0
LINE
  5
342
330
2
100
AcDbEntity
  8
0
100
AcDbLine
 10
6.07412804291604
 20
8.112791519872867
 30
0.0
 11
6.07523487371869
 21
8.116151565387646
 31
0.0
  0
LINE
  5
343
330
2
100
AcDbEntity
  8
0
100
AcDbLine
 10
6.810846959916087
 20
8.043427035199824
 30
0.0
 11
6.397980963221008
 21
6.789904771558656
 31
0.0
  0
ARC
  5
344
330
2
100
AcDbEntity
  8
0
100
AcDbCircle
 10
6.292779934606095
 20
6.824915253314333
 30
0.0
 40
0.1108737581913473
100
AcDbArc
 50
287.7671609107019
 51
341.5927637648008
  0
LINE
  5
345
330
2
100
AcDbEntity
  8
0
100
AcDbLine
 10
6.326613011092549
 20
6.719329680478034
 30
0.0
 11
5.64605353416513
 21
6.522869081878166
 31
0.0
  0
LINE
  5
346
330
2
100
AcDbEntity
  8
0
100
AcDbLine
 10
6.613454722524508
 20
7.088981078910275
 30
0.0
 11
6.564100027986329
 21
6.939133039663976
 31
0.0
  0
ARC
  5
347
330
2
100
AcDbEntity
  8
0
100
AcDbCircle
 10
6.59683686084824
 20
6.926204055854787
 30
0.0
 40
0.0351974267273365
100
AcDbArc
 50
158.4491067602004
 51
218.9439832005047
  0
LINE
  5
348
330
2
100
AcDbEntity
  8
0
100
AcDbLine
 10
6.569461679882597
 20
6.904080351021876
 30
0.0
 11
6.806247348168881
 21
6.69901794703736
 31
0.0
  0
LWPOLYLINE
  5
349
330
2
100
AcDbEntity
  8
0
100
AcDbPolyline
 90
        9
 70
   128
 43
0.0
 10
6.806247348168881
 20
6.69901794703736
 10
6.808964234626458
 20
6.69725031396208
 10
6.811875615686859
 20
6.696459629518198
 10
6.81486969018449
 20
6.696676359706631
 10
6.817831883422168
 20
6.697892327695785
 10
6.820649368461223
 20
6.700061146621983
 10
6.82321174297819
 20
6.703098768677739
 10
6.825422533373205
 20
6.706888998744935
 10
6.827195210439063
 20
6.711285928051549
  0
LINE
  5
34A
330
2
100
AcDbEntity
  8
0
100
AcDbLine
 10
6.827195210439063
 20
6.711285928051549
 30
0.0
 11
6.876549904977242
 21
6.861133967289097
 31
0.0
  0
ARC
  5
34B
330
2
100
AcDbEntity
  8
0
100
AcDbCircle
 10
6.767437714542928
 20
6.904231682817034
 30
0.0
 40
0.1173153152196397
100
AcDbArc
 50
338.4467067232994
 51
38.94685972650222
  0
LINE
  5
34C
330
2
100
AcDbEntity
  8
0
100
AcDbLine
 10
6.858677273069934
 20
6.977976012395457
 30
0.0
 11
6.683280498378927
 21
7.12987407501706
 31
0.0
  0
LWPOLYLINE
  5
34D
330
2
100
AcDbEntity
  8
0
100
AcDbPolyline
 90
        9
 70
   128
 43
0.0
 10
6.683280498378927
 20
7.12987407501706
 10
6.674226837283117
 20
7.135767242285
 10
6.664521842876792
 20
7.138402665669865
 10
6.654540530898355
 20
7.137679846066431
 10
6.644665826191872
 20
7.133626378072397
 10
6.635276445622158
 20
7.126397658619087
 10
6.626733661019557
 20
7.116271839736183
 10
6.619365127806234
 20
7.103637780484838
 10
6.613454722524508
 20
7.088981078910275
  0
LINE
  5
34E
330
2
100
AcDbEntity
  8
0
100
AcDbLine
 10
8.396926784023399
 20
6.172901811586761
 30
0.0
 11
8.32419396690747
 21
5.952073182980767
 31
0.0
  0
LINE
  5
34F
330
2
100
AcDbEntity
  8
0
100
AcDbLine
 10
8.359273346353877
 20
5.92169354923694
 30
0.0
 11
8.32419396690747
 21
5.952073182980767
 31
0.0
  0
LINE
  5
350
330
2
100
AcDbEntity
  8
0
100
AcDbLine
 10
8.359273346353877
 20
5.92169354923694
 30
0.0
 11
8.215745231902808
 21
5.48591939970833
 31
0.0
  0
LWPOLYLINE
  5
351
330
2
100
AcDbEntity
  8
0
100
AcDbPolyline
 90
        9
 70
   128
 43
0.0
 10
8.169314669929194
 20
5.447613725452449
 10
8.173197411795065
 20
5.457550744120784
 10
8.177925709919644
 20
5.466395918685971
 10
8.183372015268412
 20
5.473909755166541
 10
8.189386539599414
 20
5.479888142857109
 10
8.195808187892149
 20
5.484169636443573
 10
8.202461104846339
 20
5.486637854159285
 10
8.209168045870136
 20
5.487226610930091
 10
8.215745231902808
 20
5.48591939970833
  0
LINE
  5
352
330
2
100
AcDbEntity
  8
0
100
AcDbLine
 10
8.169314669929194
 20
5.447613725452449
 30
0.0
 11
8.106971123536938
 21
5.258331727191447
 31
0.0
  0
ARC
  5
353
330
2
100
AcDbEntity
  8
0
100
AcDbCircle
 10
8.205802498394952
 20
5.223457902825393
 30
0.0
 40
0.1048037417427334
100
AcDbArc
 50
160.5640055550011
 51
207.8755931541977
  0
LINE
  5
354
330
2
100
AcDbEntity
  8
0
100
AcDbLine
 10
8.113159671561037
 20
5.174456566951053
 30
0.0
 11
7.908778497593705
 21
4.553924201913985
 31
0.0
  0
LINE
  5
355
330
2
100
AcDbEntity
  8
0
100
AcDbLine
 10
7.908778497593705
 20
4.553924201913985
 30
0.0
 11
7.873699118156051
 21
4.584303835657806
 31
0.0
  0
LINE
  5
356
330
2
100
AcDbEntity
  8
0
100
AcDbLine
 10
7.873699118156051
 20
4.584303835657806
 30
0.0
 11
7.825385614137588
 21
4.437614019535096
 31
0.0
  0
LINE
  5
357
330
2
100
AcDbEntity
  8
0
100
AcDbLine
 10
5.541166888337256
 20
6.571071588255307
 30
0.0
 11
5.50137821680688
 21
6.450263464213318
 31
0.0
  0
LINE
  5
358
330
2
100
AcDbEntity
  8
0
100
AcDbLine
 10
6.637569517035266
 20
6.13555380530385
 30
0.0
 11
6.686924211573446
 21
6.285401879910133
 31
0.0
  0
ARC
  5
359
330
2
100
AcDbEntity
  8
0
100
AcDbCircle
 10
6.65419094464224
 20
6.298331354953093
 30
0.0
 40
0.0351942905757869
100
AcDbArc
 50
338.4462305090001
 51
38.94700718389577
  0
LINE
  5
35A
330
2
100
AcDbEntity
  8
0
100
AcDbLine
 10
6.6815625188421
 20
6.320454533182173
 30
0.0
 11
6.444776850549772
 21
6.525516937176798
 31
0.0
  0
LWPOLYLINE
  5
35B
330
2
100
AcDbEntity
  8
0
100
AcDbPolyline
 90
        9
 70
   128
 43
0.0
 10
6.444776850549772
 20
6.525516937176798
 10
6.442061095822415
 20
6.527284967683617
 10
6.439149714762084
 20
6.528075652127499
 10
6.436155681105507
 20
6.527858886570297
 10
6.433192335721461
 20
6.526642609567072
 10
6.430375982412693
 20
6.524474117334973
 10
6.427812476156687
 20
6.521436168576399
 10
6.425602817491888
 20
6.517646194483262
 10
6.423829029129471
 20
6.513248991522559
  0
LINE
  5
35C
330
2
100
AcDbEntity
  8
0
100
AcDbLine
 10
6.423829029129471
 20
6.513248991522559
 30
0.0
 11
6.374474334582539
 21
6.363400916916276
 31
0.0
  0
ARC
  5
35D
330
2
100
AcDbEntity
  8
0
100
AcDbCircle
 10
6.483585377623738
 20
6.320304093482719
 30
0.0
 40
0.1173139203286983
100
AcDbArc
 50
158.4469060871004
 51
218.9477876243997
  0
LINE
  5
35E
330
2
100
AcDbEntity
  8
0
100
AcDbLine
 10
6.392348098220063
 20
6.246559163152746
 30
0.0
 11
6.56774487291107
 21
6.094661100531109
 31
0.0
  0
LWPOLYLINE
  5
35F
330
2
100
AcDbEntity
  8
0
100
AcDbPolyline
 90
        9
 70
   128
 43
0.0
 10
6.56774487291107
 20
6.094661100531109
 10
6.576798513581977
 20
6.088768057040725
 10
6.586502355841862
 20
6.086132289273013
 10
6.596483708661492
 20
6.086855073507678
 10
6.606358413367974
 20
6.09090857687048
 10
6.615748905251687
 20
6.098137534609111
 10
6.624291710270581
 20
6.108263371172004
 10
6.631659070912492
 20
6.12089717445804
 10
6.637569517035266
 20
6.13555380530385
  0
ARC
  5
360
330
2
100
AcDbEntity
  8
0
100
AcDbCircle
 10
6.62928033219201
 20
7.974287551848873
 30
0.0
 40
0.2254383520566909
100
AcDbArc
 50
53.53777866929698
 51
85.22706836750106
  0
LINE
  5
361
330
2
100
AcDbEntity
  8
0
100
AcDbLine
 10
6.036580386864449
 20
8.169899228229251
 30
0.0
 11
6.071659684628533
 21
8.139519665214184
 31
0.0
  0
ARC
  5
362
330
2
100
AcDbEntity
  8
0
100
AcDbCircle
 10
5.625974869272601
 20
6.57899942727207
 30
0.0
 40
0.0596134922504855
100
AcDbArc
 50
231.2247871519014
 51
289.6828904016963
  0
LINE
  5
363
330
2
100
AcDbEntity
  8
0
100
AcDbLine
 10
6.077087986970493
 20
8.241933858826078
 30
0.0
 11
6.648038394396978
 21
8.198944146860089
 31
0.0
  0
LINE
  5
364
330
2
100
AcDbEntity
  8
0
100
AcDbLine
 10
6.798335979905049
 20
8.125216533130387
 30
0.0
 11
6.763256682140892
 21
8.155596096136704
 31
0.0
  0
ARC
  5
365
330
2
100
AcDbEntity
  8
0
100
AcDbCircle
 10
6.734467187895925
 20
8.07359518096176
 30
0.0
 40
0.0821217790329476
100
AcDbArc
 50
338.4471897567049
 51
38.94655127820121
  0
ARC
  5
366
330
2
100
AcDbEntity
  8
0
100
AcDbCircle
 10
6.053412887183818
 20
8.124770464943093
 30
0.0
 40
0.0234624066481045
100
AcDbArc
 50
338.4477632986961
 51
38.94920519329672
  0
ARC
  5
367
330
2
100
AcDbEntity
  8
0
100
AcDbCircle
 10
5.42773341957281
 20
6.474774996231862
 30
0.0
 40
0.0776168239586176
100
AcDbArc
 50
287.7679525381048
 51
341.5907760378013
  0
ARC
  5
368
330
2
100
AcDbEntity
  8
0
100
AcDbCircle
 10
7.751740816903584
 20
4.462125551553599
 30
0.0
 40
0.0776168239585516
100
AcDbArc
 50
287.7679525381048
 51
341.5907760379009
  0
LINE
  5
369
330
2
100
AcDbEntity
  8
0
100
AcDbLine
 10
7.775426576403625
 20
4.388211032289257
 30
0.0
 11
5.451419179064165
 21
6.400860476967513
 31
0.0
  0
ARC
  5
36A
330
2
100
AcDbEntity
  8
0
100
AcDbCircle
 10
7.092729377540843
 20
4.486136928295252
 30
0.0
 40
0.2835274684692368
100
AcDbArc
 50
237.1360984818005
 51
287.6022525421927
  0
LINE
  5
36B
330
2
100
AcDbEntity
  8
0
100
AcDbLine
 10
6.938874515093914
 20
4.247984652050956
 30
0.0
 11
4.790263933286659
 21
6.108735998747566
 31
0.0
  0
LWPOLYLINE
  5
36C
330
2
100
AcDbEntity
  8
0
100
AcDbPolyline
 90
        9
 70
   128
 43
0.0
 10
4.854462774708837
 20
6.228534006594308
 10
4.826514633978719
 20
6.218520348501699
 10
4.803010583024071
 20
6.205972644507779
 10
4.784852984553668
 20
6.191373108823991
 10
4.772741207103127
 20
6.175283049974526
 10
4.767141022329651
 20
6.158321021653788
 10
4.768264888080406
 20
6.141138080211918
 10
4.776073524595844
 20
6.124395510718651
 10
4.790263933286659
 20
6.108735998747566
  0
LINE
  5
36D
330
2
100
AcDbEntity
  8
0
100
AcDbLine
 10
4.854462774708837
 20
6.228534006594308
 30
0.0
 11
5.451419179064165
 21
6.400860476967513
 31
0.0
  0
LINE
  5
36E
330
2
100
AcDbEntity
  8
0
100
AcDbLine
 10
7.775426576403625
 20
4.388211032289257
 30
0.0
 11
7.178470172048366
 21
4.215884561916085
 31
0.0
  0
LWPOLYLINE
  5
36F
330
2
100
AcDbEntity
  8
0
100
AcDbPolyline
 90
        9
 70
   128
 43
0.0
 10
6.194589676572807
 20
5.374894410775812
 10
6.259394309152686
 20
5.385893526664467
 10
6.327684934111013
 20
5.383655753648694
 10
6.389062858347426
 20
5.368521180958968
 10
6.434186455049331
 20
5.342794656183738
 10
6.456184304707212
 20
5.310392303275358
 10
6.45170919144094
 20
5.276247596116827
 10
6.421439815519997
 20
5.245558001574789
 10
6.369986471680035
 20
5.222996330474221
  0
LINE
  5
370
330
2
100
AcDbEntity
  8
0
100
AcDbLine
 10
6.042692427380083
 20
5.331045451928646
 30
0.0
 11
6.194589676572807
 21
5.374894410775812
 31
0.0
  0
LWPOLYLINE
  5
371
330
2
100
AcDbEntity
  8
0
100
AcDbPolyline
 90
        9
 70
   128
 43
0.0
 10
6.218089222487312
 20
5.179147371618263
 10
6.153284589916255
 20
5.168148255738433
 10
6.084993964957854
 20
5.170386028754133
 10
6.023616040712693
 20
5.18552060144386
 10
5.97849244401954
 20
5.211247126219096
 10
5.956494594352976
 20
5.243649479127501
 10
5.960969707628001
 20
5.277794186286073
 10
5.991239083540122
 20
5.308483780819287
 10
6.042692427380083
 20
5.331045451928646
  0
LINE
  5
372
330
2
100
AcDbEntity
  8
0
100
AcDbLine
 10
6.369986471680035
 20
5.222996330474221
 30
0.0
 11
6.218089222487312
 21
5.179147371618263
 31
0.0
  0
LWPOLYLINE
  5
373
330
2
100
AcDbEntity
  8
0
100
AcDbPolyline
 90
        6
 70
   128
 43
0.0
 10
6.037641074587349
 20
8.231394322447858
 10
6.039466129422267
 20
8.234611289840358
 10
6.044827784177465
 20
8.238519522515883
 10
6.053114939092337
 20
8.241099779366711
 10
6.064007941547378
 20
8.242252758502246
 10
6.077087986970493
 20
8.241933858826078
  0
ARC
  5
374
330
2
100
AcDbEntity
  8
0
100
AcDbCircle
 10
8.416763318747022
 20
6.166870819593477
 30
0.0
 40
0.0207330888798636
100
AcDbArc
 50
91.01537091239954
 51
163.0889158813009
  0
LINE
  5
375
330
2
100
AcDbEntity
  8
0
100
AcDbLine
 10
6.683280498378927
 20
7.12987407501706
 30
0.0
 11
6.647595956449626
 21
7.132560979595172
 31
0.0
  0
LINE
  5
376
330
2
100
AcDbEntity
  8
0
100
AcDbLine
 10
6.647595956449626
 20
7.132560979595172
 30
0.0
 11
6.64562225203112
 21
7.134169751056151
 31
0.0
  0
ARC
  5
377
330
2
100
AcDbEntity
  8
0
100
AcDbCircle
 10
8.134075758089839
 20
5.24670016532353
 30
0.0
 40
0.0829294970435892
100
AcDbArc
 50
271.0145916048997
 51
343.0899246265995
  0
LINE
  5
378
330
2
100
AcDbEntity
  8
0
100
AcDbLine
 10
8.275762001504126
 20
5.411860168053452
 30
0.0
 11
8.213419586833268
 21
5.222578425757725
 31
0.0
  0
ARC
  5
379
330
2
100
AcDbEntity
  8
0
100
AcDbCircle
 10
8.23371966911271
 20
5.432686330877251
 30
0.0
 40
0.0469178726163947
100
AcDbArc
 50
333.6479453033992
 51
82.98683627680146
  0
LINE
  5
37A
330
2
100
AcDbEntity
  8
0
100
AcDbLine
 10
8.382316534875897
 20
5.91302382256038
 30
0.0
 11
8.475095664859292
 21
5.906037900985196
 31
0.0
  0
LINE
  5
37B
330
2
100
AcDbEntity
  8
0
100
AcDbLine
 10
8.508865321594832
 20
6.008565774104352
 30
0.0
 11
8.475095664859292
 21
5.906037900985196
 31
0.0
  0
ARC
  5
37C
330
2
100
AcDbEntity
  8
0
100
AcDbCircle
 10
8.397190362895305
 20
5.080883722000559
 30
0.0
 40
0.0175939854537587
100
AcDbArc
 50
153.6475781335004
 51
262.9889434904014
  0
LINE
  5
37D
330
2
100
AcDbEntity
  8
0
100
AcDbLine
 10
8.530643179587384
 20
5.053211155519862
 30
0.0
 11
8.395042825633023
 21
5.063421293540255
 31
0.0
  0
ARC
  5
37E
330
2
100
AcDbEntity
  8
0
100
AcDbCircle
 10
8.528808460029924
 20
5.156856000804895
 30
0.0
 40
0.103661083100364
100
AcDbArc
 50
271.0141431408975
 51
343.0903272024994
  0
LINE
  5
37F
330
2
100
AcDbEntity
  8
0
100
AcDbLine
 10
8.731892859866533
 20
5.442174614301054
 30
0.0
 11
8.627987703693708
 21
5.126704752471232
 31
0.0
  0
ARC
  5
380
330
2
100
AcDbEntity
  8
0
100
AcDbCircle
 10
8.679338384865276
 20
5.468206360363883
 30
0.0
 40
0.0586483132384373
100
AcDbArc
 50
333.6494597713012
 51
82.98569660479783
  0
LINE
  5
381
330
2
100
AcDbEntity
  8
0
100
AcDbLine
 10
8.550898862292527
 20
5.536625578537605
 30
0.0
 11
8.686500347977037
 21
5.526415731860016
 31
0.0
  0
ARC
  5
382
330
2
100
AcDbEntity
  8
0
100
AcDbCircle
 10
8.55144944264596
 20
5.50553219153797
 30
0.0
 40
0.0310982612662736
100
AcDbArc
 50
91.01444831259879
 51
163.0903211841985
  0
LINE
  5
383
330
2
100
AcDbEntity
  8
0
100
AcDbLine
 10
8.3814247325473
 20
5.08869353786764
 30
0.0
 11
8.521695731410133
 21
5.514577550647894
 31
0.0
  0
LINE
  5
384
330
2
100
AcDbEntity
  8
0
100
AcDbLine
 10
8.831611411105969
 20
4.682318980266571
 30
0.0
 11
9.244477407792228
 21
5.935841243916532
 31
0.0
  0
ARC
  5
385
330
2
100
AcDbEntity
  8
0
100
AcDbCircle
 10
8.726410382482233
 20
4.717329462022256
 30
0.0
 40
0.1108737581913375
100
AcDbArc
 50
287.7671609107019
 51
341.5927637648008
  0
LINE
  5
386
330
2
100
AcDbEntity
  8
0
100
AcDbLine
 10
8.76024345896876
 20
4.611743889194741
 30
0.0
 11
8.666304370874687
 21
4.58462601029454
 31
0.0
  0
SPLINE
  5
387
330
2
100
AcDbEntity
  8
0
100
AcDbSpline
210
0.0
220
0.0
230
1.0
 70
     8
 71
     3
 72
    11
 73
     7
 74
     0
 42
0.000000001
 43
0.0000000001
 40
0.0
 40
0.0
 40
0.0
 40
0.0
 40
0.2500008980131977
 40
0.4999945491153201
 40
0.7499934820642217
 40
1.0
 40
1.0
 40
1.0
 40
1.0
 10
8.113159671557356
 20
5.174456566948034
 30
0.0
 10
8.114468751331902
 20
5.173278367389887
 30
0.0
 10
8.117086872933873
 20
5.17092200242669
 30
0.0
 10
8.123121001843113
 20
5.167661722455084
 30
0.0
 10
8.129702378695885
 20
5.165049359017952
 30
0.0
 10
8.133596902469918
 20
5.16420557069004
 30
0.0
 10
8.135544193896535
 20
5.16378367012602
 30
0.0
  0
ARC
  5
388
330
2
100
AcDbEntity
  8
0
100
AcDbCircle
 10
8.549952201634257
 20
6.001993826822909
 30
0.0
 40
0.0416091600802631
100
AcDbArc
 50
97.99005346269854
 51
170.9123793011013
  0
LWPOLYLINE
  5
389
330
2
100
AcDbEntity
  8
0
100
AcDbPolyline
 90
        9
 70
   128
 43
0.0
 10
9.258441867588558
 20
5.944019703697447
 10
9.256631337212485
 20
5.945198367131597
 10
9.254690766527399
 20
5.945725575415948
 10
9.252694771308394
 20
5.945581041465307
 10
9.250719612192794
 20
5.944770275457461
 10
9.248841234375648
 20
5.943324443322904
 10
9.247133389162659
 20
5.941299447271237
 10
9.245658801645731
 20
5.938772338698759
 10
9.244477407792228
 20
5.935841243916532
  0
LINE
  5
38A
330
2
100
AcDbEntity
  8
0
100
AcDbLine
 10
9.258441867588558
 20
5.944019703697447
 30
0.0
 11
9.293521165352643
 21
5.913640140691131
 31
0.0
  0
LINE
  5
38B
330
2
100
AcDbEntity
  8
0
100
AcDbLine
 10
9.271430719442633
 20
5.983453662720895
 30
0.0
 11
9.30651001720679
 21
5.953074099714619
 31
0.0
  0
LWPOLYLINE
  5
38C
330
2
100
AcDbEntity
  8
0
100
AcDbPolyline
 90
        9
 70
   128
 43
0.0
 10
9.266002417109424
 20
5.881039469117787
 10
9.279082462532542
 20
5.880720569441619
 10
9.289975464987584
 20
5.881873548568368
 10
9.298262619902455
 20
5.884453805427981
 10
9.30362427465765
 20
5.888362038103466
 10
9.305854500735598
 20
5.893448073216648
 10
9.304869260440295
 20
5.899516995905178
 10
9.300705251252376
 20
5.906335087854668
 10
9.293521165352643
 20
5.913640140691131
  0
LINE
  5
38D
330
2
100
AcDbEntity
  8
0
100
AcDbLine
 10
9.227385565757636
 20
5.883947250632665
 30
0.0
 11
9.266002417109424
 21
5.881039469117787
 31
0.0
  0
LWPOLYLINE
  5
38E
330
2
100
AcDbEntity
  8
0
100
AcDbPolyline
 90
        5
 70
   128
 43
0.0
 10
9.30651001720679
 20
5.953074099714619
 10
9.313692971376232
 20
5.945768720175303
 10
9.317856980564226
 20
5.938950628225806
 10
9.31884335258967
 20
5.932882032240096
 10
9.318437049607677
 20
5.93101263780789
  0
ARC
  5
38F
330
2
100
AcDbEntity
  8
0
100
AcDbCircle
 10
8.386069684834591
 20
5.957957291109882
 30
0.0
 40
0.0450899404624754
100
AcDbArc
 50
233.5382219833973
 51
265.2253486921031
  0
SPLINE
  5
390
330
2
100
AcDbEntity
  8
0
100
AcDbSpline
210
0.0
220
0.0
230
1.0
 70
     8
 71
     3
 72
    11
 73
     7
 74
     0
 42
0.000000001
 43
0.0000000001
 40
0.0
 40
0.0
 40
0.0
 40
0.0
 40
0.2499849550576336
 40
0.5000043246191953
 40
0.7500107420831888
 40
1.0
 40
1.0
 40
1.0
 40
1.0
 10
8.239448218336574
 20
5.479253169880434
 30
0.0
 10
8.237391130581688
 20
5.479341251882448
 30
0.0
 10
8.233276671880361
 20
5.479517428012332
 30
0.0
 10
8.226365484928276
 20
5.481127863741074
 30
0.0
 10
8.220000318326658
 20
5.483385738234343
 30
0.0
 10
8.217163561592514
 20
5.485074865209289
 30
0.0
 10
8.21574523190336
 20
5.485919399711872
 30
0.0
  0
LINE
  5
391
330
2
100
AcDbEntity
  8
0
100
AcDbLine
 10
3.778131441380183
 20
7.765389158003221
 30
0.0
 11
3.766415384451716
 21
7.766436374586417
 31
0.0
  0
LINE
  5
392
330
2
100
AcDbEntity
  8
0
100
AcDbLine
 10
5.6590756398819
 20
7.431460838822894
 30
0.0
 11
5.299176538948636
 21
7.743142603033313
 31
0.0
  0
ARC
  5
393
330
2
100
AcDbEntity
  8
0
100
AcDbCircle
 10
4.605334293728559
 20
5.341211781979391
 30
0.0
 40
0.0213777506863202
100
AcDbArc
 50
331.1040592006979
 51
32.48287448140534
  0
ELLIPSE
  5
394
330
2
100
AcDbEntity
  8
0
100
AcDbEllipse
 10
4.619983042137604
 20
5.285556542342238
 30
0.0
 11
0.0517290352337519
 21
0.0825328821878884
 31
0.0
210
0.0
220
0.0
230
1.0
 40
0.2945542466
 41
6.237537654344557
 42
6.941786914968744
  0
ELLIPSE
  5
395
330
2
100
AcDbEntity
  8
0
100
AcDbEllipse
 10
4.611853429905708
 20
5.279418824999837
 30
0.0
 11
0.0887038823978454
 21
0.0190134401560072
 31
0.0
210
0.0
220
0.0
230
1.0
 40
0.2601647544
 41
2.693902237372129
 42
3.335243632973141
  0
LINE
  5
396
330
2
100
AcDbEntity
  8
0
100
AcDbLine
 10
6.130010662992324
 20
8.564027533819555
 30
0.0
 11
5.983633987067791
 21
8.119605311996481
 31
0.0
  0
LINE
  5
397
330
2
100
AcDbEntity
  8
0
100
AcDbLine
 10
3.735445297614832
 20
8.744961567897863
 30
0.0
 11
4.436396113979388
 21
8.137920354120918
 31
0.0
  0
LINE
  5
398
330
2
100
AcDbEntity
  8
0
100
AcDbLine
 10
7.997972050112367
 20
6.914211335796196
 30
0.0
 11
8.004474246362615
 21
6.908580268664913
 31
0.0
  0
LINE
  5
399
330
2
100
AcDbEntity
  8
0
100
AcDbLine
 10
8.396926784023399
 20
6.172901811586761
 30
0.0
 11
6.683497402376798
 21
7.656775183685222
 31
0.0
  0
LINE
  5
39A
330
2
100
AcDbEntity
  8
0
100
AcDbLine
 10
22.42433694215754
 20
12.86410169129497
 30
0.0
 11
22.45827362789913
 21
12.84414130362421
 31
0.0
  0
LINE
  5
39B
330
2
100
AcDbEntity
  8
0
100
AcDbLine
 10
3.917700040941427
 20
8.870669551637302
 30
0.0
 11
3.95020735959142
 21
8.891746817184056
 31
0.0
  0
LINE
  5
39C
330
2
100
AcDbEntity
  8
0
100
AcDbLine
 10
4.923391420256329
 20
8.794492776473934
 30
0.0
 11
4.930370298185899
 21
8.777165451861254
 31
0.0
  0
ARC
  5
39D
330
2
100
AcDbEntity
  8
0
100
AcDbCircle
 10
6.051017597176342
 20
8.191960504890673
 30
0.0
 40
0.026365374443069
100
AcDbArc
 50
180.0
 51
236.7986991297114
  0
LINE
  5
39E
330
2
100
AcDbEntity
  8
0
100
AcDbLine
 10
24.76120015858445
 20
14.02573818728589
 30
0.0
 11
24.55918392282982
 21
13.96742112323961
 31
0.0
  0
ARC
  5
39F
330
2
100
AcDbEntity
  8
0
100
AcDbCircle
 10
9.257855922349293
 20
5.971122335516669
 30
0.0
 40
0.0183394859999846
100
AcDbArc
 50
42.25196494832572
 51
90.0
  0
ARC
  5
3A0
330
2
100
AcDbEntity
  8
0
100
AcDbCircle
 10
7.777072873677401
 20
7.27590589987258
 30
0.0
 40
0.0272508866167446
100
AcDbArc
 50
306.737845675434
 51
0.0
  0
ARC
  5
3A1
330
2
100
AcDbEntity
  8
0
100
AcDbCircle
 10
7.581266459977986
 20
7.179659340611647
 30
0.0
 40
0.4120118224913977
100
AcDbArc
 50
37.8789765818884
 51
60.33423412112897
  0
LINE
  5
3A2
330
2
100
AcDbEntity
  8
0
100
AcDbLine
 10
7.28506891520634
 20
7.598878051575716
 30
0.0
 11
7.344921740869774
 21
7.626249138350645
 31
0.0
  0
SPLINE
  5
3A3
330
2
100
AcDbEntity
  8
0
100
AcDbSpline
210
0.0
220
0.0
230
1.0
 70
     8
 71
     3
 72
    10
 73
     6
 74
     0
 42
0.000000001
 43
0.0000000001
 40
0.0
 40
0.0
 40
0.0
 40
0.0
 40
0.223414656091903
 40
0.6496074072459033
 40
1.0
 40
1.0
 40
1.0
 40
1.0
 10
7.374902086354707
 20
7.673114350045505
 30
0.0
 10
7.379239687444011
 20
7.682424541004728
 30
0.0
 10
7.391851831367868
 20
7.709495141992986
 30
0.0
 10
7.425266098864259
 20
7.740667591795897
 30
0.0
 10
7.448618967085924
 20
7.753997783308254
 30
0.0
 10
7.459155699601691
 20
7.760012319125306
 30
0.0
  0
LINE
  5
3A4
330
2
100
AcDbEntity
  8
0
100
AcDbLine
 10
7.365831803159194
 20
7.65565107410661
 30
0.0
 11
7.374902086354223
 21
7.67311435004912
 31
0.0
  0
SPLINE
  5
3A5
330
2
100
AcDbEntity
  8
0
100
AcDbSpline
210
0.0
220
0.0
230
1.0
 70
     8
 71
     3
 72
     9
 73
     5
 74
     0
 42
0.000000001
 43
0.0000000001
 40
0.0
 40
0.0
 40
0.0
 40
0.0
 40
0.3637854744933605
 40
1.0
 40
1.0
 40
1.0
 40
1.0
 10
7.091900638390248
 20
7.859690568329335
 30
0.0
 10
7.09053943359081
 20
7.867036640569403
 30
0.0
 10
7.086797654726937
 20
7.887230058820417
 30
0.0
 10
7.082255710043234
 20
7.906836769507234
 30
0.0
 10
7.079366058861493
 20
7.919310843643615
 30
0.0
  0
SPLINE
  5
3A6
330
2
100
AcDbEntity
  8
0
100
AcDbSpline
210
0.0
220
0.0
230
1.0
 70
     8
 71
     3
 72
     9
 73
     5
 74
     0
 42
0.000000001
 43
0.0000000001
 40
0.0
 40
0.0
 40
0.0
 40
0.0
 40
0.4931078804754943
 40
1.0
 40
1.0
 40
1.0
 40
1.0
 10
7.334554618133073
 20
7.841419964152247
 30
0.0
 10
7.327615491115051
 20
7.829309820123067
 30
0.0
 10
7.313543262110548
 20
7.804751007520952
 30
0.0
 10
7.305734570786348
 20
7.777244840602368
 30
0.0
 10
7.301776406690357
 20
7.76330218135303
 30
0.0
  0
SPLINE
  5
3A7
330
2
100
AcDbEntity
  8
0
100
AcDbSpline
210
0.0
220
0.0
230
1.0
 70
     8
 71
     3
 72
     9
 73
     5
 74
     0
 42
0.000000001
 43
0.0000000001
 40
0.0
 40
0.0
 40
0.0
 40
0.0
 40
0.3964137364449641
 40
1.0
 40
1.0
 40
1.0
 40
1.0
 10
7.301776406690357
 20
7.76330218135303
 30
0.0
 10
7.296227652180722
 20
7.756823021756465
 30
0.0
 10
7.282230270154141
 20
7.740478584112438
 30
0.0
 10
7.266943517971107
 20
7.726435743627671
 30
0.0
 10
7.257716644339017
 20
7.717959678009778
 30
0.0
  0
LINE
  5
3A8
330
2
100
AcDbEntity
  8
0
100
AcDbLine
 10
7.090758347800527
 20
7.730530654002772
 30
0.0
 11
7.099233160351452
 21
7.77855287930493
 31
0.0
  0
SPLINE
  5
3A9
330
2
100
AcDbEntity
  8
0
100
AcDbSpline
210
0.0
220
0.0
230
1.0
 70
     8
 71
     3
 72
     9
 73
     5
 74
     0
 42
0.000000001
 43
0.0000000001
 40
0.0
 40
0.0
 40
0.0
 40
0.0
 40
0.3822979274184181
 40
1.0
 40
1.0
 40
1.0
 40
1.0
 10
7.099233160355689
 20
7.778552879308334
 30
0.0
 10
7.099748368274863
 20
7.789249703063684
 30
0.0
 10
7.101096029044672
 20
7.817230037217177
 30
0.0
 10
7.095411799043174
 20
7.843477472905007
 30
0.0
 10
7.091900638390248
 20
7.859690568329335
 30
0.0
  0
LINE
  5
3AA
330
2
100
AcDbEntity
  8
0
100
AcDbLine
 10
7.079366058861493
 20
7.919310843644171
 30
0.0
 11
7.082183165824012
 21
7.946243808048278
 31
0.0
  0
ARC
  5
3AB
330
2
100
AcDbEntity
  8
0
100
AcDbCircle
 10
7.182072362938894
 20
7.652389666246061
 30
0.0
 40
0.3103676986345413
100
AcDbArc
 50
62.61379871470332
 51
108.7743259455004
  0
LINE
  5
3AC
330
2
100
AcDbEntity
  8
0
100
AcDbLine
 10
7.257329276880344
 20
7.64711951794141
 30
0.0
 11
7.255327248573087
 21
7.645676446183995
 31
0.0
  0
LWPOLYLINE
  5
3AD
330
2
100
AcDbEntity
  8
0
100
AcDbPolyline
 90
        9
 70
   128
 43
0.0
 10
7.121682522048097
 20
7.655739586069221
 10
7.122129772707937
 20
7.664270415319967
 10
7.1294928247979
 20
7.670385737491994
 10
7.143170976789399
 20
7.673587621760622
 10
7.16205361746501
 20
7.673616104076506
 10
7.18460243775168
 20
7.670468345651413
 10
7.208984326515678
 20
7.664400521955284
 10
7.233216880069954
 20
7.655906427325217
 10
7.255327248573087
 20
7.645676446183995
  0
LINE
  5
3AE
330
2
100
AcDbEntity
  8
0
100
AcDbLine
 10
7.121682522048097
 20
7.655739586069221
 30
0.0
 11
7.120704708333445
 21
7.657406859953279
 31
0.0
  0
LINE
  5
3AF
330
2
100
AcDbEntity
  8
0
100
AcDbLine
 10
7.120704708333445
 20
7.657406859953279
 30
0.0
 11
7.090758347800527
 21
7.730530654002772
 31
0.0
  0
LINE
  5
3B0
330
2
100
AcDbEntity
  8
0
100
AcDbLine
 10
7.257716644340963
 20
7.717959678012413
 30
0.0
 11
7.257329276880344
 21
7.64711951794141
 31
0.0
  0
LINE
  5
3B1
330
2
100
AcDbEntity
  8
0
100
AcDbLine
 10
7.256305062287739
 20
7.645602929436381
 30
0.0
 11
7.293576857000538
 21
7.613324608374519
 31
0.0
  0
LINE
  5
3B2
330
2
100
AcDbEntity
  8
0
100
AcDbLine
 10
7.256305062287739
 20
7.645602929436381
 30
0.0
 11
7.257329276880344
 21
7.64711951794141
 31
0.0
  0
LINE
  5
3B3
330
2
100
AcDbEntity
  8
0
100
AcDbLine
 10
7.346695458880501
 20
7.917412874470728
 30
0.0
 11
7.324837145566355
 21
7.927973274603663
 31
0.0
  0
LINE
  5
3B4
330
2
100
AcDbEntity
  8
0
100
AcDbLine
 10
7.346695458880501
 20
7.917412874470728
 30
0.0
 11
7.33455461812981
 21
7.841419964154538
 31
0.0
  0
LWPOLYLINE
  5
3B5
330
2
100
AcDbEntity
  8
0
100
AcDbPolyline
 90
        9
 70
   128
 43
0.0
 10
7.292599043285886
 20
7.613398125122126
 10
7.292151792626048
 20
7.604867295871381
 10
7.284788740536017
 20
7.598751973699354
 10
7.271110588544587
 20
7.595550089430727
 10
7.252229079599196
 20
7.59552186308015
 10
7.229679127582302
 20
7.598669365539974
 10
7.205297238818305
 20
7.604737189236057
 10
7.181064685264029
 20
7.61323128386613
 10
7.158954316760896
 20
7.623461265007352
  0
LINE
  5
3B6
330
2
100
AcDbEntity
  8
0
100
AcDbLine
 10
7.157976503046177
 20
7.623534781754927
 30
0.0
 11
7.158954316760896
 21
7.623461265007352
 31
0.0
  0
LINE
  5
3B7
330
2
100
AcDbEntity
  8
0
100
AcDbLine
 10
7.120704708333445
 20
7.655813102816829
 30
0.0
 11
7.157976503046177
 21
7.623534781754927
 31
0.0
  0
LINE
  5
3B8
330
2
100
AcDbEntity
  8
0
100
AcDbLine
 10
7.120704708333445
 20
7.655813102816829
 30
0.0
 11
7.121682522048097
 21
7.655739586069221
 31
0.0
  0
LINE
  5
3B9
330
2
100
AcDbEntity
  8
0
100
AcDbLine
 10
7.255327248573087
 20
7.645676446183995
 30
0.0
 11
7.256305062287739
 21
7.645602929436381
 31
0.0
  0
LINE
  5
3BA
330
2
100
AcDbEntity
  8
0
100
AcDbLine
 10
7.292599043285886
 20
7.613398125122126
 30
0.0
 11
7.293576857000538
 21
7.613324608374519
 31
0.0
  0
LWPOLYLINE
  5
3BB
330
2
100
AcDbEntity
  8
0
100
AcDbPolyline
 90
        3
 70
   128
 43
0.0
 10
7.354881160128219
 20
7.633812738995126
 10
7.34656053312203
 20
7.627047211726185
 10
7.344921740869774
 20
7.626249138350645
  0
LINE
  5
3BC
330
2
100
AcDbEntity
  8
0
100
AcDbLine
 10
7.473311230649658
 20
7.770018294519556
 30
0.0
 11
7.461187422365168
 21
7.761206140951517
 31
0.0
  0
LINE
  5
3BD
330
2
100
AcDbEntity
  8
0
100
AcDbLine
 10
7.120704708333445
 20
7.657406859953279
 30
0.0
 11
7.120704708333445
 21
7.655813102816829
 31
0.0
  0
SPLINE
  5
3BE
330
2
100
AcDbEntity
  8
0
100
AcDbSpline
210
0.0
220
0.0
230
1.0
 70
     8
 71
     3
 72
     9
 73
     5
 74
     0
 42
0.000000001
 43
0.0000000001
 40
0.0
 40
0.0
 40
0.0
 40
0.0
 40
0.690265050481048
 40
1.0
 40
1.0
 40
1.0
 40
1.0
 10
7.485548380659301
 20
7.788793262343917
 30
0.0
 10
7.481537113031517
 20
7.794285883234616
 30
0.0
 10
7.475725913949273
 20
7.802243146733497
 30
0.0
 10
7.469811286476517
 20
7.809981218670154
 30
0.0
 10
7.467979319634817
 20
7.812377969990857
 30
0.0
  0
LINE
  5
3BF
330
2
100
AcDbEntity
  8
0
100
AcDbLine
 10
7.473311230649658
 20
7.770018294519556
 30
0.0
 11
7.485548380662216
 21
7.788793262343844
 31
0.0
  0
ARC
  5
3C0
330
2
100
AcDbEntity
  8
0
100
AcDbCircle
 10
7.338580916542416
 20
7.65565107410661
 30
0.0
 40
0.0272508866167446
100
AcDbArc
 50
306.737845675434
 51
0.0
  0
ARC
  5
3C1
330
2
100
AcDbEntity
  8
0
100
AcDbCircle
 10
7.142774502842934
 20
7.559404514845676
 30
0.0
 40
0.4120118224913977
100
AcDbArc
 50
37.8789765818884
 51
60.33423412112897
  0
LINE
  5
3C2
330
2
100
AcDbEntity
  8
0
100
AcDbLine
 10
4.974527959789017
 20
8.840522594052751
 30
0.0
 11
5.418477145474479
 21
8.809403092227253
 31
0.0
  0
ENDSEC
  0
SECTION
  2
OBJECTS
  0
DICTIONARY
  5
A
330
0
100
AcDbDictionary
281
     1
  3
ACAD_COLOR
350
42
  3
ACAD_GROUP
350
37
  3
ACAD_LAYOUT
350
18
  3
ACAD_MATERIAL
350
C
  3
ACAD_MLEADERSTYLE
350
45
  3
ACAD_MLINESTYLE
350
38
  3
ACAD_PLOTSETTINGS
350
39
  3
ACAD_PLOTSTYLENAME
350
9
  3
ACAD_SCALELIST
350
43
  3
ACAD_TABLESTYLE
350
44
  3
ACAD_VISUALSTYLE
350
2D
  3
ACDB_RECOMPOSE_DATA
350
3D2
  3
AcDbVariableDictionary
350
3C4
  3
AcDsDecomposeData
350
3D8
  0
DICTIONARY
  5
20
330
1F
100
AcDbDictionary
280
     1
281
     1
  3
ACAD_LAYERSTATES
360
21
  0
DICTIONARY
  5
7
330
6
100
AcDbDictionary
280
     1
281
     1
  0
DICTIONARY
  5
3
330
2
100
AcDbDictionary
280
     1
281
     1
  3
ACAD_SORTENTS
360
3C3
  0
DICTIONARY
  5
42
102
{ACAD_REACTORS
330
A
102
}
330
A
100
AcDbDictionary
281
     1
  0
DICTIONARY
  5
37
102
{ACAD_REACTORS
330
A
102
}
330
A
100
AcDbDictionary
281
     1
  0
DICTIONARY
  5
18
102
{ACAD_REACTORS
330
A
102
}
330
A
100
AcDbDictionary
281
     1
  3
Model
350
17
  3
レイアウト1
350
1E
  0
DICTIONARY
  5
C
102
{ACAD_REACTORS
330
A
102
}
330
A
100
AcDbDictionary
281
     1
  3
ByBlock
350
3E
  3
ByLayer
350
3A
  3
Global
350
B
  0
DICTIONARY
  5
45
102
{ACAD_REACTORS
330
A
102
}
330
A
100
AcDbDictionary
281
     1
  0
DICTIONARY
  5
38
102
{ACAD_REACTORS
330
A
102
}
330
A
100
AcDbDictionary
281
     1
  3
Standard
350
46
  0
DICTIONARY
  5
39
102
{ACAD_REACTORS
330
A
102
}
330
A
100
AcDbDictionary
281
     1
  0
ACDBDICTIONARYWDFLT
  5
9
102
{ACAD_REACTORS
330
A
102
}
330
A
100
AcDbDictionary
281
     1
  3
Normal
350
8
100
AcDbDictionaryWithDefault
340
8
  0
DICTIONARY
  5
43
102
{ACAD_REACTORS
330
A
102
}
330
A
100
AcDbDictionary
281
     1
  3
A0
350
4B
  3
A1
350
4C
  3
A2
350
4D
  3
A3
350
4E
  3
A4
350
4F
  3
A5
350
50
  3
A6
350
51
  3
A7
350
52
  3
A8
350
53
  3
A9
350
54
  3
B0
350
55
  3
B1
350
56
  3
B2
350
57
  3
B3
350
58
  3
B4
350
59
  3
B5
350
5A
  3
B6
350
5B
  0
DICTIONARY
  5
44
102
{ACAD_REACTORS
330
A
102
}
330
A
100
AcDbDictionary
281
     1
  3
Standard
350
47
  0
DICTIONARY
  5
2D
102
{ACAD_REACTORS
330
A
102
}
330
A
100
AcDbDictionary
281
     1
  3
2dWireframe
350
2C
  3
Realistic
350
49
  3
Wireframe
350
4A
  0
XRECORD
  5
3D2
102
{ACAD_REACTORS
330
A
102
}
330
A
100
AcDbXrecord
280
     1
 90
        1
330
47
  0
DICTIONARY
  5
3C4
102
{ACAD_REACTORS
330
A
102
}
330
A
100
AcDbDictionary
281
     1
  3
CANNOSCALE
350
3CA
  3
CMLEADERSTYLE
350
3C6
  3
CTABLESTYLE
350
3C5
  3
CVIEWDETAILSTYLE
350
3C7
  3
CVIEWSECTIONSTYLE
350
3C8
  3
LAYEREVAL
350
3CC
  3
LAYERNOTIFY
350
3CD
  3
LIGHTINGUNITS
350
3CB
  3
MSLTSCALE
350
3C9
  3
PSOLHEIGHT
350
3CF
  3
PSOLWIDTH
350
3CE
  3
XCLIPFRAME
350
3D0
  0
DICTIONARY
  5
3D8
102
{ACAD_REACTORS
330
A
102
}
330
A
100
AcDbDictionary
281
     1
  3
AcDsRecords
350
3DA
  3
AcDsSchemas
350
3D9
1001
ACAD
1070
     2
  0
DICTIONARY
  5
21
102
{ACAD_REACTORS
330
20
102
}
330
20
100
AcDbDictionary
281
     1
  0
SORTENTSTABLE
  5
3C3
102
{ACAD_REACTORS
330
3
102
}
330
3
100
AcDbSortentsTable
330
2
  0
LAYOUT
  5
17
102
{ACAD_XDICTIONARY
360
19
102
}
102
{ACAD_REACTORS
330
18
102
}
330
18
100
AcDbPlotSettings
  1

  2
none_device
  4
ISO_A4_(210.00_x_297.00_MM)
  6

 40
7.5
 41
20.0
 42
7.5
 43
20.0
 44
210.0
 45
297.0
 46
11.54999923706054
 47
-13.65000009536743
 48
0.0
 49
0.0
140
0.0
141
0.0
142
1.0
143
8.704084754739808
 70
 11952
 72
     1
 73
     0
 74
     0
  7

 75
     0
147
0.1148885871608098
 76
     0
 77
     2
 78
   300
148
0.0
149
0.0
100
AcDbLayout
  1
Model
 70
     1
 71
     0
 10
0.0
 20
0.0
 11
12.0
 21
9.0
 12
0.0
 22
0.0
 32
0.0
 14
0.0
 24
0.0
 34
0.0
 15
0.0
 25
0.0
 35
0.0
146
0.0
 13
0.0
 23
0.0
 33
0.0
 16
1.0
 26
0.0
 36
0.0
 17
0.0
 27
1.0
 37
0.0
 76
     0
330
2
331
2B
1001
ACAD_PSEXT
1000
None
1000
None
1000
Not applicable
1000
The layout will not be plotted unless a new plotter configuration name is selected.
1070
     0
  0
LAYOUT
  5
1E
102
{ACAD_REACTORS
330
18
102
}
330
18
100
AcDbPlotSettings
  1

  2
C:\Documents and Settings\basas\Application Data\Autodesk\AutoCAD 2005\R16.1\enu\plotters\Default Windows System Printer.pc3
  4

  6

 40
0.0
 41
0.0
 42
0.0
 43
0.0
 44
0.0
 45
0.0
 46
0.0
 47
0.0
 48
0.0
 49
0.0
140
0.0
141
0.0
142
1.0
143
1.0
 70
   688
 72
     0
 73
     0
 74
     5
  7

 75
    16
147
1.0
 76
     0
 77
     2
 78
   300
148
0.0
149
0.0
100
AcDbLayout
  1
レイアウト1
 70
     1
 71
     1
 10
0.0
 20
0.0
 11
12.0
 21
9.0
 12
0.0
 22
0.0
 32
0.0
 14
0.0
 24
0.0
 34
0.0
 15
0.0
 25
0.0
 35
0.0
146
0.0
 13
0.0
 23
0.0
 33
0.0
 16
1.0
 26
0.0
 36
0.0
 17
0.0
 27
1.0
 37
0.0
 76
     0
330
1B
  0
MATERIAL
  5
3E
102
{ACAD_XDICTIONARY
360
3F
102
}
102
{ACAD_REACTORS
330
C
102
}
330
C
100
AcDbMaterial
  1
ByBlock
  0
MATERIAL
  5
3A
102
{ACAD_XDICTIONARY
360
3B
102
}
102
{ACAD_REACTORS
330
C
102
}
330
C
100
AcDbMaterial
  1
ByLayer
  0
MATERIAL
  5
B
102
{ACAD_XDICTIONARY
360
D
102
}
102
{ACAD_REACTORS
330
C
102
}
330
C
100
AcDbMaterial
  1
Global
 43
0.0007999999797903
 43
0.0
 43
0.0
 43
0.0
 43
0.0
 43
0.0007999999797903
 43
0.0
 43
0.0
 43
0.0
 43
0.0
 43
1.0
 43
0.0
 43
0.0
 43
0.0
 43
0.0
 43
1.0
 49
0.0007999999797903
 49
0.0
 49
0.0
 49
0.0
 49
0.0
 49
0.0007999999797903
 49
0.0
 49
0.0
 49
0.0
 49
0.0
 49
1.0
 49
0.0
 49
0.0
 49
0.0
 49
0.0
 49
1.0
142
0.0007999999797903
142
0.0
142
0.0
142
0.0
142
0.0
142
0.0007999999797903
142
0.0
142
0.0
142
0.0
142
0.0
142
1.0
142
0.0
142
0.0
142
0.0
142
0.0
142
1.0
144
0.0007999999797903
144
0.0
144
0.0
144
0.0
144
0.0
144
0.0007999999797903
144
0.0
144
0.0
144
0.0
144
0.0
144
1.0
144
0.0
144
0.0
144
0.0
144
0.0
144
1.0
1001
ACAD
1070
    -1
1070
     3
1070
     0
1000

1071
        0
1070
     0
  0
MLINESTYLE
  5
46
102
{ACAD_REACTORS
330
38
102
}
330
38
100
AcDbMlineStyle
  2
STANDARD
 70
     0
  3

 62
   256
 51
90.0
 52
90.0
 71
     2
 49
0.5
 62
   256
  6
BYLAYER
 49
-0.5
 62
   256
  6
BYLAYER
  0
ACDBPLACEHOLDER
  5
8
102
{ACAD_REACTORS
330
9
102
}
330
9
  0
SCALE
  5
4B
102
{ACAD_REACTORS
330
43
102
}
330
43
100
AcDbScale
 70
     0
300
1:1
140
1.0
141
1.0
290
     1
  0
SCALE
  5
4C
102
{ACAD_REACTORS
330
43
102
}
330
43
100
AcDbScale
 70
     0
300
1:2
140
1.0
141
2.0
290
     0
  0
SCALE
  5
4D
102
{ACAD_REACTORS
330
43
102
}
330
43
100
AcDbScale
 70
     0
300
1:4
140
1.0
141
4.0
290
     0
  0
SCALE
  5
4E
102
{ACAD_REACTORS
330
43
102
}
330
43
100
AcDbScale
 70
     0
300
1:5
140
1.0
141
5.0
290
     0
  0
SCALE
  5
4F
102
{ACAD_REACTORS
330
43
102
}
330
43
100
AcDbScale
 70
     0
300
1:8
140
1.0
141
8.0
290
     0
  0
SCALE
  5
50
102
{ACAD_REACTORS
330
43
102
}
330
43
100
AcDbScale
 70
     0
300
1:10
140
1.0
141
10.0
290
     0
  0
SCALE
  5
51
102
{ACAD_REACTORS
330
43
102
}
330
43
100
AcDbScale
 70
     0
300
1:16
140
1.0
141
16.0
290
     0
  0
SCALE
  5
52
102
{ACAD_REACTORS
330
43
102
}
330
43
100
AcDbScale
 70
     0
300
1:20
140
1.0
141
20.0
290
     0
  0
SCALE
  5
53
102
{ACAD_REACTORS
330
43
102
}
330
43
100
AcDbScale
 70
     0
300
1:30
140
1.0
141
30.0
290
     0
  0
SCALE
  5
54
102
{ACAD_REACTORS
330
43
102
}
330
43
100
AcDbScale
 70
     0
300
1:40
140
1.0
141
40.0
290
     0
  0
SCALE
  5
55
102
{ACAD_REACTORS
330
43
102
}
330
43
100
AcDbScale
 70
     0
300
1:50
140
1.0
141
50.0
290
     0
  0
SCALE
  5
56
102
{ACAD_REACTORS
330
43
102
}
330
43
100
AcDbScale
 70
     0
300
1:100
140
1.0
141
100.0
290
     0
  0
SCALE
  5
57
102
{ACAD_REACTORS
330
43
102
}
330
43
100
AcDbScale
 70
     0
300
2:1
140
2.0
141
1.0
290
     0
  0
SCALE
  5
58
102
{ACAD_REACTORS
330
43
102
}
330
43
100
AcDbScale
 70
     0
300
4:1
140
4.0
141
1.0
290
     0
  0
SCALE
  5
59
102
{ACAD_REACTORS
330
43
102
}
330
43
100
AcDbScale
 70
     0
300
8:1
140
8.0
141
1.0
290
     0
  0
SCALE
  5
5A
102
{ACAD_REACTORS
330
43
102
}
330
43
100
AcDbScale
 70
     0
300
10:1
140
10.0
141
1.0
290
     0
  0
SCALE
  5
5B
102
{ACAD_REACTORS
330
43
102
}
330
43
100
AcDbScale
 70
     0
300
100:1
140
100.0
141
1.0
290
     0
  0
TABLESTYLE
  5
47
102
{ACAD_XDICTIONARY
360
48
102
}
102
{ACAD_REACTORS
330
44
102
}
330
44
100
AcDbTableStyle
  3
Standard
 70
     0
 71
     0
 40
1.5
 41
1.5
280
     0
281
     0
  7
Standard
140
4.5
170
     2
 62
     0
 63
     7
283
     0
274
    -2
284
     1
 64
     0
275
    -2
285
     1
 65
     0
276
    -2
286
     1
 66
     0
277
    -2
287
     1
 67
     0
278
    -2
288
     1
 68
     0
279
    -2
289
     1
 69
     0
  7
Standard
140
6.0
170
     5
 62
     0
 63
     7
283
     0
274
    -2
284
     1
 64
     0
275
    -2
285
     1
 65
     0
276
    -2
286
     1
 66
     0
277
    -2
287
     1
 67
     0
278
    -2
288
     1
 68
     0
279
    -2
289
     1
 69
     0
  7
Standard
140
4.5
170
     5
 62
     0
 63
     7
283
     0
274
    -2
284
     1
 64
     0
275
    -2
285
     1
 65
     0
276
    -2
286
     1
 66
     0
277
    -2
287
     1
 67
     0
278
    -2
288
     1
 68
     0
279
    -2
289
     1
 69
     0
  0
VISUALSTYLE
  5
2C
102
{ACAD_XDICTIONARY
360
3DB
102
}
102
{ACAD_REACTORS
330
2D
102
}
330
2D
100
AcDbVisualStyle
  2

 70
     4
 71
     0
 72
     2
 73
     1
 90
        0
 40
-0.6
 41
-30.0
 62
     5
 63
     7
421
 16777215
 74
     1
 91
        4
 64
     7
 65
   257
 75
     1
175
     1
 42
1.0
 92
        0
 66
   257
 43
1.0
 76
     1
 77
     6
 78
     2
 67
     7
 79
     5
170
     0
171
     0
290
     0
174
     0
 93
        1
 44
0.0
173
     0
291
     0
 45
0.0
1001
ACAD
1000
AcDbSavedByObjectVersion
1070
     0
  0
VISUALSTYLE
  5
49
102
{ACAD_XDICTIONARY
360
3DE
102
}
102
{ACAD_REACTORS
330
2D
102
}
330
2D
100
AcDbVisualStyle
  2

 70
     8
 71
     2
 72
     3
 73
     0
 90
        2
 40
-0.6
 41
30.0
 62
     5
 63
     7
421
 16777215
 74
     0
 91
        0
 64
     7
 65
   257
 75
     1
175
     1
 42
1.0
 92
        8
 66
   257
 43
1.0
 76
     1
 77
     6
 78
     2
 67
     7
 79
     3
170
     0
171
     0
290
     0
174
     0
 93
       13
 44
0.0
173
     0
291
     0
 45
0.0
1001
ACAD
1000
AcDbSavedByObjectVersion
1070
     0
  0
VISUALSTYLE
  5
4A
102
{ACAD_XDICTIONARY
360
3E0
102
}
102
{ACAD_REACTORS
330
2D
102
}
330
2D
100
AcDbVisualStyle
  2

 70
     5
 71
     0
 72
     2
 73
     0
 90
        0
 40
-0.6
 41
-30.0
 62
     5
 63
     7
421
 16777215
 74
     1
 91
        4
 64
     7
 65
   257
 75
     1
175
     1
 42
1.0
 92
        0
 66
   257
 43
1.0
 76
     1
 77
     6
 78
     2
 67
     7
 79
     3
170
     0
171
     0
290
     0
174
     0
 93
        1
 44
0.0
173
     0
291
     0
 45
0.0
1001
ACAD
1000
AcDbSavedByObjectVersion
1070
     0
  0
DICTIONARYVAR
  5
3CA
102
{ACAD_REACTORS
330
3C4
102
}
330
3C4
100
DictionaryVariables
280
     0
  1
1:1
  0
DICTIONARYVAR
  5
3C6
102
{ACAD_REACTORS
330
3C4
102
}
330
3C4
100
DictionaryVariables
280
     0
  1
STANDARD
  0
DICTIONARYVAR
  5
3C5
102
{ACAD_REACTORS
330
3C4
102
}
330
3C4
100
DictionaryVariables
280
     0
  1
STANDARD
  0
DICTIONARYVAR
  5
3C7
102
{ACAD_REACTORS
330
3C4
102
}
330
3C4
100
DictionaryVariables
280
     0
  1

  0
DICTIONARYVAR
  5
3C8
102
{ACAD_REACTORS
330
3C4
102
}
330
3C4
100
DictionaryVariables
280
     0
  1

  0
DICTIONARYVAR
  5
3CC
102
{ACAD_REACTORS
330
3C4
102
}
330
3C4
100
DictionaryVariables
280
     0
  1
0
  0
DICTIONARYVAR
  5
3CD
102
{ACAD_REACTORS
330
3C4
102
}
330
3C4
100
DictionaryVariables
280
     0
  1
0
  0
DICTIONARYVAR
  5
3CB
102
{ACAD_REACTORS
330
3C4
102
}
330
3C4
100
DictionaryVariables
280
     0
  1
2
  0
DICTIONARYVAR
  5
3C9
102
{ACAD_REACTORS
330
3C4
102
}
330
3C4
100
DictionaryVariables
280
     0
  1
1
  0
DICTIONARYVAR
  5
3CF
102
{ACAD_REACTORS
330
3C4
102
}
330
3C4
100
DictionaryVariables
280
     0
  1
80.000000
  0
DICTIONARYVAR
  5
3CE
102
{ACAD_REACTORS
330
3C4
102
}
330
3C4
100
DictionaryVariables
280
     0
  1
5.000000
  0
DICTIONARYVAR
  5
3D0
102
{ACAD_REACTORS
330
3C4
102
}
330
3C4
100
DictionaryVariables
280
     0
  1
2
  0
DICTIONARY
  5
3DA
102
{ACAD_REACTORS
330
3D8
102
}
330
3D8
100
AcDbDictionary
281
     1
  0
DICTIONARY
  5
3D9
102
{ACAD_REACTORS
330
3D8
102
}
330
3D8
100
AcDbDictionary
281
     1
  3
1811589675312
350
3D3
  3
1811589675328
350
3D4
  3
1811589675344
350
3D5
  3
1811589675360
350
3D6
  3
1811589675376
350
3D7
  0
DICTIONARY
  5
19
330
17
100
AcDbDictionary
280
     1
281
     1
  0
DICTIONARY
  5
3F
330
3E
100
AcDbDictionary
280
     1
281
     1
  3
ACAD_XREC_ROUNDTRIP
360
40
  3
FBXASSET
360
41
  0
DICTIONARY
  5
3B
330
3A
100
AcDbDictionary
280
     1
281
     1
  3
ACAD_XREC_ROUNDTRIP
360
3C
  3
FBXASSET
360
3D
  0
DICTIONARY
  5
D
330
B
100
AcDbDictionary
280
     1
281
     1
  3
ACAD_XREC_ROUNDTRIP
360
E
  3
BUMPTILE
360
F
  3
DIFFUSETILE
360
10
  3
FBXASSET
360
11
  3
OPACITYTILE
360
12
  3
REFLECTIONTILE
360
13
  0
DICTIONARY
  5
48
330
47
100
AcDbDictionary
280
     1
281
     1
  3
ACAD_ROUNDTRIP_2008_TABLESTYLE_CELLSTYLEMAP
360
3D1
  3
ACAD_XREC_ROUNDTRIP
360
3DD
  0
DICTIONARY
  5
3DB
330
2C
100
AcDbDictionary
280
     1
281
     1
  3
ACAD_XREC_ROUNDTRIP
360
3DC
  0
DICTIONARY
  5
3DE
330
49
100
AcDbDictionary
280
     1
281
     1
  3
ACAD_XREC_ROUNDTRIP
360
3DF
  0
DICTIONARY
  5
3E0
330
4A
100
AcDbDictionary
280
     1
281
     1
  3
ACAD_XREC_ROUNDTRIP
360
3E1
  0
XRECORD
  5
3D3
102
{ACAD_REACTORS
330
3D9
102
}
330
3D9
100
AcDbXrecord
280
     1
  1
AcDb_Thumbnail_Schema
102
{ATTRRECORD
341
3D4
  2
AcDbDs::TreatedAsObjectData
280
     1
291
     1
102
ATTRRECORD}
102
{ATTRRECORD
341
3D5
  2
AcDbDs::Legacy
280
     1
291
     1
102
ATTRRECORD}
  2
AcDbDs::ID
280
    10
 91
        8
102
{ATTRRECORD
341
3D6
  2
AcDs:Indexable
280
     1
291
     1
102
ATTRRECORD}
102
{ATTRRECORD
341
3D7
  2
AcDbDs::HandleAttribute
280
     7
282
     1
102
ATTRRECORD}
  2
Thumbnail_Data
280
    15
 91
        0
  0
XRECORD
  5
3D4
102
{ACAD_REACTORS
330
3D9
102
}
330
3D9
100
AcDbXrecord
280
     1
  1
AcDbDs::TreatedAsObjectDataSchema
  2
AcDbDs::TreatedAsObjectData
280
     1
 91
        0
  0
XRECORD
  5
3D5
102
{ACAD_REACTORS
330
3D9
102
}
330
3D9
100
AcDbXrecord
280
     1
  1
AcDbDs::LegacySchema
  2
AcDbDs::Legacy
280
     1
 91
        0
  0
XRECORD
  5
3D6
102
{ACAD_REACTORS
330
3D9
102
}
330
3D9
100
AcDbXrecord
280
     1
  1
AcDbDs::IndexedPropertySchema
  2
AcDs:Indexable
280
     1
 91
        0
  0
XRECORD
  5
3D7
102
{ACAD_REACTORS
330
3D9
102
}
330
3D9
100
AcDbXrecord
280
     1
  1
AcDbDs::HandleAttributeSchema
  2
AcDbDs::HandleAttribute
280
     7
 91
        1
284
     1
  0
XRECORD
  5
40
102
{ACAD_REACTORS
330
3F
102
}
330
3F
100
AcDbXrecord
280
     1
102
MATERIAL
148
0.0
149
0.0
149
0.0
 93
        0
 94
      127
282
     0
 72
     1
 77
     1
171
     1
175
     1
179
     1
273
     0
  0
XRECORD
  5
41
102
{ACAD_REACTORS
330
3F
102
}
330
3F
100
AcDbXrecord
280
     1
 70
     1
 90
429727718
  1
D62C5603-E3A1-4AEA-B7FB-FE5D8D0755AF
310
504B03040A0000080000CC70623B3DEE336E79000000790000001B0000006175746F6465736B2D64657369676E2D7061636B6167652E786D6C3C3F786D6C2076657273696F6E3D22312E302220656E636F64696E673D227574662D3822203F3E3C666F726D6174733E3C666F726D61743E687474703A2F2F736368656D612E
310
6175746F6465736B2E636F6D2F64657369676E2D7061636B6167652F323030393C2F666F726D61743E3C2F666F726D6174733E504B0304140006080800CC70623BD486FD9CA0000000F4000000130000005B436F6E74656E745F54797065735D2E786D6C7D8EC10E82300C865F65E91D8A1E8C310C0EEA1BF002731658846E
310
D98AC1B77784ABF1D8FE5FBFBF75BBCE937A534CCEB38643598122B6FEE978D0B0485F9C41B54DDD7D022595594E1A469170414C76A4D9A4D207E29CF43ECE46F218070CC6BECC4078ACAA135ACF422C856C0E68EA1BF5669944DDD7BCDE7B1F8E415D77AECB980613C2E4AC91FC167A2B244592486606FC29C8FD7F045B9A
310
EF7053A7E60B504B0304140006080800CC70623B853B8169EB0000007C01000008000000636F72652E786D6C8D90416EC3201045AF62CDB6C206821CC7C244919D9CA01740401C94182C03558F5F9C3852BBEB6A467FFE9B197D7EFC9E1EC5975982F5AE035262288C535E5B377690E21535501C055FBC8FBF6C503839990E
310
5619041F179FE64D52DE45E362569DD7661365082642A11EB9E920A89B99642953CC8E702F67A9EE7234257977194EC9EAE275C4EABCCF5EAD5940D4AC6F0E35A568B8F43562CD7046CD199FD07E60174276A7BE677B5EADB0E0D14EEFFB6A31321A0D82627C4084204C3F096B71DD52F6819B16635EADF63F509AF53FA164
310
5DDCD1EDDD17164090FCC8732078B56691CB33A85CD7DCC40F504B0304140006080800CC70623B55019EA25F0000007C00000007000000636E782E786D6C4DCB3B0E80201045D1AD90E915ED2CF8AC45050C11660C8261F98AB1B07AC9C97D42D718D865D3E909258CFD00CCE24AC6E326A164D74DC0B4128928FF32603847
310
2BA13128B1252AC747C6BAB984FC68F0B87FE8960A5C09FE86CFB69FBA01504B0304140006080800CC70623BDBABAAF470010000D40300000C0000006662782F636F72652E786D6CC553D16E823014FD95A6AF4B694182CC941A83FA05FB810A9511A125A5257EFE2E82712ECEB8A7F100CD39F7F69E734AF9FADC366850B6
310
AF8DCE7018308C942E4C59EB2AC3DE1D498AD15A706B8CFB56869196ADCAF00863C12B6B7C374385D14E6907A836A59A41D9F7CA615434B0C8705F7CAA5606D23BA8E84F41278B93AC54100640439DE0BDB320004D43C63716C7C399D30917DCFBBA9CD9BA8469F5B156168B24CED3F7248AC8769F27244EB73B92EED8862C
310
B7F13E0C179B3C8F979C8ECD82BBBABDAA2BAC924E9558448CBD9330242CFA08E3154B5651FCC6D215639C8EE5774DBE2B5F6CF2B5768B68963BB5F5588420E442FC700B1139D4CB01F450C1E918227C2E09DF070D8140C84E1E9AAB8F1340832A9CB13130A5F1376A908D57309505ECF2A0DF179C4E9D30F5B239B87E3823
310
7A79C6F31DE1A8A5AEC08474B03C7837EAE4938639B44E5932B833D2C6B6B279CDC613877FA26EE21F4A2A4C63EC7F29A2F301D1F9F7A0E37D145F504B0304140006080800CC70623B9C113CC27E0000009D0000000B0000006662782F636E782E786D6C4DCCDF0A83201C86E15B91DFB94BFB330DD428C8FB886521330DA7
310
6397BF1A1DECE883878F57749FCDA1B7892F1BBC047A23808C7F84D9FA55424E0BE6803A256208E9EF06C84F9B91703228B1C690F78B66B34CD9A5439DF5CF0BFBF65E35BCA1B8D6A5C6F540381E886698B5741C695F9503EBA150A2F8958E3DC3EA0B504B0304140006080800CC70623B7DF2F77C2A010000120200003100
310
00006662782F41393633353835312D344632462D344230382D423046372D3739314545314133324237412F636F72652E786D6C8D51DB8EC22014FC15C2939B0D2DB4B45643319AE817EC0F6041255A68B86CFCFC856D4D76DF7CE190393373060EDB3DC707F856CE6B6B7A480A0C81328395DA5C7B18C3057510EC3873D686
310
3F34088C18550F330C39BB3A1BA7051AAC09CA84841A2BD5020AEF55806078A44B0FFD7053A328440C89E1EFC52486BBB8AA8214A99D789CF9E05200300FC927E4FB4D5B375D43103D5527440FB843077C5AA3F5861C8F645F5787F59E95B390B318B55CE45AA638FAA2957BD7248B390B7A7CC51F9C124149C82B8C378810
310
84AB2F42B7B8DD56F413775B8C5999E9FF4471926F8AA236A1AE96B8B3CC434E5839373893369E1FAF30EA395917409EB7F26AF8801C171837A4A6AC9C89E9F9C9B1A58BA30FD6A5EF5DDDCF894B9AD9B6A59C957943A9FCAE2FD5BC4DFE03504B0304140006080800CC70623BAD7543B64E01000033030000300000006662
310
782F41393633353835312D344632462D344230382D423046372D3739314545314133324237412F636E782E786D6CD593CD6EC32010845F0571AD6CE3D48AD20813A9873E410FBD12D82434182C7EAAE6EDBB2424CD25871E7B41D6EC30B3FA84F9E67BB2E40B4234DE8DB46F1925E094D7C6ED479AD3AE5951B2113C789FEE
310
6C943839C1488B4C05DF079FE72A69D8C96C13AAD6B8631503449F83828872B949AC57D26200B826A308D316B4064D6E46FCDA41C05550DC9E483A00797BFD207EFB092A45DE9514C1BBD22178396BD39D891265658C238DEA00936C654E5E433CB65A26D9F6EDB5EBC14EBF49A45CB856E66048291F6939A9A81BB5C89177
310
38143CA680F4AA299D66A042CEB3354A2684DC9D8D178FE0D9B8B41CAAD720F880EE7EF93C0C18769E099ECC04D5A102C8049A8A05632F4DDF376CF1DE0F6BB65C2F8627B65A33C6BB62177CEBBDAD973006829F89F22E814B54F4BC2BE347F8AA8F681390B50FA73F804400B5F542E796F19FF974E7F78DB802FE05E20750
310
4B0304140006080800CC70623BE75B7789680500003C100000340000006662782F41393633353835312D344632462D344230382D423046372D3739314545314133324237412F6F626A656374732E786D6CAD575B8F9B3818FD2B887D06C22499CB8AA1CA655245D5B455A356FB305264C061D8018C6C3393D95FBFC7600890
310
A4CD5EF210B0B1BFEBF98E3F7B1FF6596ABC522E1296DF9BAE3D320D9A872C4AF2F8DE2CE5CEBA358D0FBEC719939D65A691938CDE9B6ADAF4BD98B3B2D05311DD91329583D9D5FC0F438434A7A611A644887B5384CF34233629258BA878B12322891DEFF6B66BD70BFB62634E8AE781D082709A4B588AF91C528CDA28B73F
310
1C998EEF39EABBEFA97FBD6A7C7E9553F9D3D79FE442923C3C523610337627CB87ABE99D359D4CC6D6E4FACAB5E6ABF9D2726FC6A3C5F56271377BB88362213924694B38DD99FE47C48627A1E7D49F5A8BB5E1A74C0A599ED3B0F21F1E56366B89112D681E218F0915D0D6F17AD41FBA2A369DCF6335D62ABBD39779D5DDD1
310
11D4D8DE3CBB96B2E04FB8202E41051754A1AA8E8F76B4C6DFE810B580B1547F4B84911149794252234D024EF8BBE963A95AE27B3D310A9D5C215C7960FAEE415ED75694C6AFB17BCACA5D99A60A9AA65F217B0BFC53292ACB92BF283FAD0D3621576592CB5BED907C2FA8E9DF794E35E97BEA31BED21FEB401ABB94C44839
310
DCACBF0E1C5DA8DA5B2F4DFFD32AD86F543D9E565E7056502E157C00AD2671CD534549AB752FCA9CDA00677A313F04E51B22FF19E57B300579E3C97EB29F682D92935CEC18CF901B7B54FD8C51F362B56FC72FE0B3C1EAE335EDCCBF5AEC39ADB17DC238973F804BA5E6F6BFE7AF1FB32E523BE9F3BD571418E3631DCA4D48
310
5250CF639223210A9446CA30052EDF057BD35F8329C1ECD84552BF0DC8D18BE7BCE23BFE6BD960AB4A7DE79923A103BEBD80F911CBAA2C60DB19B01CF164A5583B772EE6D3FFA56666CBCDA74DC97724A48F9A58967497E489C4D979006FD7A05E227A1EBDD0F737C623387A9C844D3709995625106D157315F8B8392CD4E0
310
A0B9A720C4BE9829CEF37EA1E13111214D53925356365ADA634861B52519DD27A00AEB808EAF0628E6F435519D446F45CF2C9CF5214F0A15B2F6D06B79DA3EE3CBF7F56780D2F4E7EF73A0F5E5B02A38D07DC852C6B7C1FBB6664213E0C39E3EBA7FF4E1AD23EA2829407C85E586727488B751B2DB9502BC7B228A3FD68B6E
310
A65A22397E690AA8D158D7E404EC8CDA235CC3B7D1898680131CEC2CDF2638C65196279577750F15884AEE19F94199155B92B13297978469D4F8D358DF0AEF7631E28DC8F0D9F437D5D39A83B2231A1D52D543813A824EF8D44BCFF2FA6A31BD1E8DAD87F1CCB526B3879935BF59CDADD5C37479BB1CDD4CA7B3556B516589
310
EF352754B706114D9C885EC9131DE6EFEB43D99AFE2391C2F958179413D7CFEF6B1B6DB1E7600F00DE6E5C67454A339A4BA2E0FBA85ED26F045D454F463DBFCE484C2F90F2E5E3666003662ED8F755951A7D1BECD5B30B550B2785C8E7320B7292A4838DDA71BBC863ED7613CAF659337A3354231D4FF4A182A54904C2898C
310
98B28C4AD0CE056CCF332A80986E571EE9DBC305BB5FEB7E509220A58D25CF042D712A806AC0AD0C657FDEF80D2D9CEAA2EE4D1C76F60BFE74219A06527D6F82DF6412526107381E55E353090704D085B52408A8913C4ED159D79BDA71BB4BC506F4831350EB6F975CD22D69BF7AC49B91A2C0A9DDA3D5CA36AD20FC478E37
310
E61844E2352865EBCB61A275A65283CAAA9DD27703B4102F5AF51EF5F573B75CBB5AD38BC845F7A49F82A0966A49C2E3EA5EA0ECD326CD965F1DB402C6FA8B51A4658C5C5E2EC9E214602E55810345408596591009A82E7E7FFACA19EEA299B14A0081A705CB3296EBC14CDF658DCD336EA6D1136881AAEB87B81AB9EE53D5
310
F5EB8BC8362082DA24122F98680A4E7930C01A0079749CEA14382A0783E5EBA5A10F8C098456A03D6A4AEB6BB881E2513747552A5DB22C7EDAF83BD5528081A365F7FF06504B0304140006080000CC70623B000000000000000000000000350000006662782F41393633353835312D344632462D344230382D423046372D37
310
39314545314133324237412F76657274696365732E62696E504B0304140006080800CC70623BF270F1330600000004000000360000006662782F41393633353835312D344632462D344230382D423046372D3739314545314133324237412F747269616E676C65732E62696E636660600000504B0304140006080000CC7062
310
3B000000000000000000000000370000006662782F41393633353835312D344632462D344230382D423046372D3739314545314133324237412F617474726962757465732E62696E504B0304140006080800CC70623B08DA0BD19000000041010000360000006662782F41393633353835312D344632462D344230382D4230
310
46372D3739314545314133324237412F6469726563746F72792E786D6C858F410AC3201045AF22B36F53E9A60B35CBEEBAE80D244E44489C6234F4F835464A48035D0DF398FF9F8AF63D0E6CC63039F212F8F9020C7D47C6792B21C5FE7403D62A1188E2E60C98D7234A5830286103A55745067B9D86B8A3CF9C7F90C11DE6
310
07FB144396D7B6A82D282E9A152AD114D5EF2CB866EEE831B8EEA07A7BB5A8D7D61A2BAAEB7FD5F70921FF497D00504B0304140006080800CC70623BEDD1DC58FD000000A00100003B0000006662782F41393633353835312D344632462D344230382D423046372D3739314545314133324237412F7265736F75726365732F
310
636F72652E786D6C8D504B6E833010BD0A9A6D65B00922041947112427E8052C33A156828DFCA97AFC9A40A576D7CDCCE87D344F8F9FBFE667F689CE6B6B3A6039850C8DB2A336530731DC4903D95970676DF82583CCC8193B5861107C72362E3BA4AC096842428D1D7107A5F7182053CF7474E0D507CE32973124857FE48B
310
540F3961CEF244279DE03EB81420DB9EAC1384436FA353E879B1B182C7A8C75DA3C7F453DF353A1075D537A7BA6464B8F535A99AE14A9A2BBD90E350DD183B5CFABE3AF262350B1EF4FC9351399401471025A527C218A1E53BAB5A5AB765F5469B96525EACF23FA6B88CFF34456DC2A1DCE36E360F82A5202F42F062ED2BAD
310
579969AFDD8A6F504B010214000A0000080000CC70623B3DEE336E79000000790000001B00000000000000000000000000000000006175746F6465736B2D64657369676E2D7061636B6167652E786D6C504B01021400140006080800CC70623BD486FD9CA0000000F40000001300000000000000000000000000B20000005B
310
436F6E74656E745F54797065735D2E786D6C504B01021400140006080800CC70623B853B8169EB0000007C010000080000000000000000000000000083010000636F72652E786D6C504B01021400140006080800CC70623B55019EA25F0000007C000000070000000000000000000000000094020000636E782E786D6C504B
310
01021400140006080800CC70623BDBABAAF470010000D40300000C00000000000000000000000000180300006662782F636F72652E786D6C504B01021400140006080800CC70623B9C113CC27E0000009D0000000B00000000000000000000000000B20400006662782F636E782E786D6C504B01021400140006080800CC70
310
623B7DF2F77C2A010000120200003100000000000000000000000000590500006662782F41393633353835312D344632462D344230382D423046372D3739314545314133324237412F636F72652E786D6C504B01021400140006080800CC70623BAD7543B64E010000330300003000000000000000000000000000D2060000
310
6662782F41393633353835312D344632462D344230382D423046372D3739314545314133324237412F636E782E786D6C504B01021400140006080800CC70623BE75B7789680500003C10000034000000000000000000000000006E0800006662782F41393633353835312D344632462D344230382D423046372D3739314545
310
314133324237412F6F626A656374732E786D6C504B01021400140006080000CC70623B0000000000000000000000003500000000000000000000000000280E00006662782F41393633353835312D344632462D344230382D423046372D3739314545314133324237412F76657274696365732E62696E504B01021400140006
310
080800CC70623BF270F133060000000400000036000000000000000000000000007B0E00006662782F41393633353835312D344632462D344230382D423046372D3739314545314133324237412F747269616E676C65732E62696E504B01021400140006080000CC70623B0000000000000000000000003700000000000000
310
000000000000D50E00006662782F41393633353835312D344632462D344230382D423046372D3739314545314133324237412F617474726962757465732E62696E504B01021400140006080800CC70623B08DA0BD1900000004101000036000000000000000000000000002A0F00006662782F41393633353835312D344632
310
462D344230382D423046372D3739314545314133324237412F6469726563746F72792E786D6C504B01021400140006080800CC70623BEDD1DC58FD000000A00100003B000000000000000000000000000E1000006662782F41393633353835312D344632462D344230382D423046372D3739314545314133324237412F7265
310
736F75726365732F636F72652E786D6C504B0506000000000E000E0080040000641100000000
  0
XRECORD
  5
3C
102
{ACAD_REACTORS
330
3B
102
}
330
3B
100
AcDbXrecord
280
     1
102
MATERIAL
148
0.0
149
0.0
149
0.0
 93
        0
 94
      127
282
     0
 72
     1
 77
     1
171
     1
175
     1
179
     1
273
     0
  0
XRECORD
  5
3D
102
{ACAD_REACTORS
330
3B
102
}
330
3B
100
AcDbXrecord
280
     1
 70
     1
 90
429727718
  1
30362254-06B7-45E0-A893-8CFA70E3D6BC
310
504B03040A0000080000CC70623B3DEE336E79000000790000001B0000006175746F6465736B2D64657369676E2D7061636B6167652E786D6C3C3F786D6C2076657273696F6E3D22312E302220656E636F64696E673D227574662D3822203F3E3C666F726D6174733E3C666F726D61743E687474703A2F2F736368656D612E
310
6175746F6465736B2E636F6D2F64657369676E2D7061636B6167652F323030393C2F666F726D61743E3C2F666F726D6174733E504B0304140006080800CC70623BD486FD9CA0000000F4000000130000005B436F6E74656E745F54797065735D2E786D6C7D8EC10E82300C865F65E91D8A1E8C310C0EEA1BF002731658846E
310
D98AC1B77784ABF1D8FE5FBFBF75BBCE937A534CCEB38643598122B6FEE978D0B0485F9C41B54DDD7D022595594E1A469170414C76A4D9A4D207E29CF43ECE46F218070CC6BECC4078ACAA135ACF422C856C0E68EA1BF5669944DDD7BCDE7B1F8E415D77AECB980613C2E4AC91FC167A2B244592486606FC29C8FD7F045B9A
310
EF7053A7E60B504B0304140006080800CC70623B1EC5D7A3EB0000007C01000008000000636F72652E786D6C8D90416EC3201045AF82665B6103C6756C6122AB4D4ED00B204C5C94182C03558F5F9C3852BBEB6A467FFE9B197D71FC9E6FE8CBACC17AD7032D0820E3B41FAD9B7A48F1820F808E52ACDEC75F36404ECDA687
310
4D0629A6D5A76597B477D1B89855E747B38B2A041301E95B6E7A08FAD3CCAA50296647B8168BD2573599823EBB0CA76447F43862C7BCCF5EAC59410E4DDD9C7973C2755553CCCFA4C603E3040F1565ED3B1FDE4E432BCA0D9622DAF9795FAF464533826484B498524CD807E51D79ED187F21878E10516EF63F505AC67F42C9
310
BA58B1FDDD071640D2FCC87D2045B96591CB3DA85CB7DCE40F504B0304140006080800CC70623B55019EA25F0000007C00000007000000636E782E786D6C4DCB3B0E80201045D1AD90E915ED2CF8AC45050C11660C8261F98AB1B07AC9C97D42D718D865D3E909258CFD00CCE24AC6E326A164D74DC0B4128928FF32603847
310
2BA13128B1252AC747C6BAB984FC68F0B87FE8960A5C09FE86CFB69FBA01504B0304140006080800CC70623B8C9102E971010000D40300000C0000006662782F636F72652E786D6CC5535B6E833010BC8AE5DF0A6C08340F1947A84D4ED00B38C6A128602363A31CBFCB234A53A551FA553EC09AD9F5CE8C31DB9E9B1AF5CA
310
7695D1198E428A91D2D214952E33ECDD315861B4E5CC1AE3BE9561A445A3323CC098B3D21ADFCE9034DA29ED00D5A6503328BA4E398C640D8B0C77F253352214DE4145770A5B214FA2546114020D759C75CE8200340D19DE981F0F6746269C33EFAB6266AB02A655C74A59CCF365BADC27CB5D902ED22848F6340DF238A141
310
BE88E2F57B92BFEDF23523433367AE6A2EEAA455C2A902F398D2751045018D3FA264435F3771F242571B4A1919CA6F9A7C5B3CD9E42BED16F12C776AEB308F40C848FC700B1139D4891EF410CEC810227CC6846F8386402064270EF5C5C709A05E49676C024C61FC95EA45ED154CA5211D1FF4FB8291A913A68E9B83EBBB33
310
E2A7673CDE118E5AE8124C0807CB8377834E366998436B950D7A7746DAD846D4CFD978E0F04FD455FC5D49D2D4C6FE9722321F10997F0F32DC47FE05504B0304140006080800CC70623BFFEA85907E0000009D0000000B0000006662782F636E782E786D6C4DCCD10A83201886E15B91FFDC95D95A811AB6F23E625948A6C3
310
E9D8E5AF46073BFAE0E1E365ED67B3E8ADC3CB78C7815C7240DA3DFC64DCC221C519D7805AC182F7F1EF06C88D9BE6703008B6049F9E274D7A1E938DBB5AE3D6131B2589BA0D3D965551E0B2EA732C9B9A624AAEB41E3A557677029960D9AFB4EF11165F504B0304140006080800CC70623B4FEEA4082C0100001202000031
310
0000006662782F39464131463745442D413632322D343644302D413938332D3331353338454246344243312F636F72652E786D6C8D515B6EC32010BC0AE2AB55850DD871ED0813254D72825EC00192A2C460F1A872FC42ED48ED5F7E00CDCECCCEB26C731F6FE05B39AFADE921293004CA082BB5B9F43086336A21D870E6AC
310
0D7F68109861543DCC30E4ECE26C9C164858139409093556AA051CBC570102714B8F1E7AF1A5C6A11862480C7F2DA6415C878B2A4891CA89C7990F2E050073937C42DE1DB7E4F87ED8A36D4329AA9B3D46DBAEAD504556557BD81DEBDD0761E52CE42C462D17B996298E3E6BE59E35C962CE821E1FF18553435012728A7187
310
0841987E927A8D9B35ADDF70BBC6989599FE4F1427F9A4286A132ABAC49D651EF234CD5CE04CDA78BA3DC2A8FB645D00B9DF8B57E215725C60BCA2A463E54C4CE327C7A65E1C7DB02E7DEFCBF594B864C5CA6CDBD49C957943E9FA5D5FBAF336F90F504B0304140006080800CC70623BAD7543B64E01000033030000300000
310
006662782F39464131463745442D413632322D343644302D413938332D3331353338454246344243312F636E782E786D6CD593CD6EC32010845F0571AD6CE3D48AD20813A9873E410FBD12D82434182C7EAAE6EDBB2424CD25871E7B41D6EC30B3FA84F9E67BB2E40B4234DE8DB46F1925E094D7C6ED479AD3AE5951B2113C
310
789FEE6C943839C1488B4C05DF079FE72A69D8C96C13AAD6B8631503449F83828872B949AC57D26200B826A308D316B4064D6E46FCDA41C05550DC9E483A00797BFD207EFB092A45DE9514C1BBD22178396BD39D891265658C238DEA00936C654E5E433CB65A26D9F6EDB5EBC14EBF49A45CB856E66048291F6939A9A81BB5
310
C8917738143CA680F4AA299D66A042CEB3354A2684DC9D8D178FE0D9B8B41CAAD720F880EE7EF93C0C18769E099ECC04D5A102C8049A8A05632F4DDF376CF1DE0F6BB65C2F8627B65A33C6BB62177CEBBDAD973006829F89F22E814B54F4BC2BE347F8AA8F681390B50FA73F804400B5F542E796F19FF974E7F78DB802FE05
310
E207504B0304140006080800CC70623B16AB87BA640500003C100000340000006662782F39464131463745442D413632322D343644302D413938332D3331353338454246344243312F6F626A656374732E786D6CAD575B6FA33818FD2B887DE6924B3BED8A326A92B68A663B534DD4D13E548A0C38942D60649B369D5FBFC7
310
600890A493BDE42160637FD7F31D7FF63E6FB3D478A55C242CBF3247B66B1A340F5994E4F19559CA8D75611A9F7D8F33263BCB4C232719BD32D5B4E97B316765A1A722BA21652A07B3B7B33F0D11D29C9A46981221AE4C113ED38CD8A4942CA2E2C58E882476BCD9DA23BB5ED8171B73523C0F841684D35CC252CCE79062D4
310
468DFA43D7747CCF51DF7D4FFDEB5593E3AB9CCA9FBEFE241792E4E19EB28198C968BAB8199F5D5A67D3E9C49A9E8F47D6EC76B6B0469F26EEFC7C3EBFBCBEB98462213924694B38DD98FE1D62C393D073EA4FADC5DAF04326852CCF6958F90F0F2B9BB5C48816348F90C7840A68EB78EDF68723159BCEE7891A6B95DDE9D3
310
BCEAEEE8086A6C6F9E5D4B59F0175C10A7A0820BAA5055C7473B5AE3CFDD452D602CD5DF12616444529E90D448938013FE6EFA58AA96F85E4F8C42275708571E98FE6827AF6B2B4AE3D7D83D64E5A64C53054DD3AF90BD06FEA9149565C94FCA0F6B834DC85599E4F2423B24DF0B6AFA979E534DFA9E7A4CC6FA631D486393
310
921829879BF5D781A373557BCB85E97FB90DB62B558F8795179C15944B051F40AB495CF35451D26A4727654E6D8033BD98EF82F21D91FF8AF2DD9982BCF1643BDD4EB516C9492E368C67C88DED563FC36D5EACF66DFF057C3658BDBFA69DF9578B3DA735B64F18C7F20770A9D45CFCF7FCF563D6456A277DBEF78A02637CA2
310
43B90A490AEAB94F72244481D24819A6C0E59B606BFA4B3025981DBB48EAB701D97BF19C577CC77F2D1B6C55A9EF3C732474C0B727303F625995056C3B02963D9EAC146BE78EC5FCEC7FA999EBC5EACBAAE41B12D27B4D2C0BBA49F244E2ECDC81B76B502F113D8F5EE8FB1BE3111CDD4FC2AA9B844CAB1288B68AB90A7CDC
310
1C166AB0D3DC5310625FCC14E779BFD0709F8890A629C9292B1B2DED31A4B0DA928CEE135085754027E3018A397D4D5427D15BD1330B677DC8934285AC3DF45A9EB68FF8F2B8FC0A509AFEECFD0FF2DE25CC6047F7214B195F07EFEB9A094D800F7BFAE8FED187B78EA8A3A400F115961BCAD1215E47C966530AF0EE8128FE
310
58CEBB996A8964FFA529A046635D9353B0336A8F700DDF46271A024E70B0B37C9DE01847591E54DED53D54202AB947E4076556AC49C6CA5C9E1226B7F1A7B1BE15DEED62C41B91E1B3E9AFAAA735036547343A925075041DF0A9979E893B391F8FCFA6967B3EFB644DCF6E5CEBFAE272625DCC6FAF3FB93793C5F90CE1EF57
310
407342756B10D1C489E8953CD1617E5CEECAD6F4EF8914CE5D5D504E5C3F1F9736DA62CFC11E00BCDDB8CC8A9466349744C1F75EBDA4DF09BA8A9E8C7A7E9991989E20E5DBDD6A6003664ED8F7A04A8DBE0DF6EAD9B9AA858342E47399053949D2C146EDB85DE4B176BB0965FBAC19BD19AA918E27FA50C1D22402E144464C
310
59462568E704B6E71915404CB72B8FF4EDE184DDAF753F284990D2C6926782963815403548A70C657FDEF80D2D9CEAA2AE4C1C76F60BFE74219A06527D6582DF6412526107381E55E353090704D085B52408D0933C4ED159D79BDA71BB4BC506F4831350EB6F979CD22D69BF7AC49B91A2C0A9DDA3D5CA36AD20FC478E37E6
310
1844E2352865EBCB6EA275A652E3836BE04EFB400BF1A2556F515F1FBB35B2AB35BD889C744FFA1004B5544B121E57F70215746DD2F5E2C1412B602CBF19455AC6C8E5E9922C4E01E65215385004546899059180EAFCF7A707CE7017CD8CDB0410789AB32C63B91E5CEBBBACB17AC6CD347A022D5075FD106377347AAABA7E
310
7D11590744509B44E205134DC1290F06580320F78E537D3D73540E06CB970B431F185308AD40BBD794D6D77003C5A36E8EAA54BA64597CD8F83BD552A080A365F7FF06504B0304140006080000CC70623B000000000000000000000000350000006662782F39464131463745442D413632322D343644302D413938332D3331
310
353338454246344243312F76657274696365732E62696E504B0304140006080800CC70623BF270F1330600000004000000360000006662782F39464131463745442D413632322D343644302D413938332D3331353338454246344243312F747269616E676C65732E62696E636660600000504B0304140006080000CC70623B
310
000000000000000000000000370000006662782F39464131463745442D413632322D343644302D413938332D3331353338454246344243312F617474726962757465732E62696E504B0304140006080800CC70623B08DA0BD19000000041010000360000006662782F39464131463745442D413632322D343644302D413938
310
332D3331353338454246344243312F6469726563746F72792E786D6C858F410AC3201045AF22B36F53E9A60B35CBEEBAE80D244E44489C6234F4F835464A48035D0DF398FF9F8AF63D0E6CC63039F212F8F9020C7D47C6792B21C5FE7403D62A1188E2E60C98D7234A5830286103A55745067B9D86B8A3CF9C7F90C11DE607
310
FB144396D7B6A82D282E9A152AD114D5EF2CB866EEE831B8EEA07A7BB5A8D7D61A2BAAEB7FD5F70921FF497D00504B0304140006080800CC70623B0D6EF93BFE000000A00100003B0000006662782F39464131463745442D413632322D343644302D413938332D3331353338454246344243312F7265736F75726365732F63
310
6F72652E786D6C8D50596E833010BD0A9ADFCA60B334011947A8694ED00B586642AC041B79A97AFC9A40A5F6AF3F33A3B7689E1E3F7DCD8FEC139DD7D6F4C0720A191A65476DA61E62B892236427C19DB5E1970C322367EC618541F0C9D9B8EC90B226A009093576C41D94DE63804C3DD2D18357379C652E63480A7FCF17A9
310
EE72C29CE5894E3AC17D702940B63D59270887DE46A7D0F36263058F518FBB468FE9A7BE6A7420864373B8D4873369AA8691FA421B3294352543C5CAF65C0F6FEF43CB8BD52C78D0F34F46E550061C419494B6843142CB0F5677F4B52BEB177AEC28E5C52AFF638ACBF84F53D42654E51E77B379102C05791282176B5F693D
310
CB4C7BED567C03504B010214000A0000080000CC70623B3DEE336E79000000790000001B00000000000000000000000000000000006175746F6465736B2D64657369676E2D7061636B6167652E786D6C504B01021400140006080800CC70623BD486FD9CA0000000F40000001300000000000000000000000000B20000005B
310
436F6E74656E745F54797065735D2E786D6C504B01021400140006080800CC70623B1EC5D7A3EB0000007C010000080000000000000000000000000083010000636F72652E786D6C504B01021400140006080800CC70623B55019EA25F0000007C000000070000000000000000000000000094020000636E782E786D6C504B
310
01021400140006080800CC70623B8C9102E971010000D40300000C00000000000000000000000000180300006662782F636F72652E786D6C504B01021400140006080800CC70623BFFEA85907E0000009D0000000B00000000000000000000000000B30400006662782F636E782E786D6C504B01021400140006080800CC70
310
623B4FEEA4082C0100001202000031000000000000000000000000005A0500006662782F39464131463745442D413632322D343644302D413938332D3331353338454246344243312F636F72652E786D6C504B01021400140006080800CC70623BAD7543B64E010000330300003000000000000000000000000000D5060000
310
6662782F39464131463745442D413632322D343644302D413938332D3331353338454246344243312F636E782E786D6C504B01021400140006080800CC70623B16AB87BA640500003C1000003400000000000000000000000000710800006662782F39464131463745442D413632322D343644302D413938332D3331353338
310
454246344243312F6F626A656374732E786D6C504B01021400140006080000CC70623B0000000000000000000000003500000000000000000000000000270E00006662782F39464131463745442D413632322D343644302D413938332D3331353338454246344243312F76657274696365732E62696E504B01021400140006
310
080800CC70623BF270F133060000000400000036000000000000000000000000007A0E00006662782F39464131463745442D413632322D343644302D413938332D3331353338454246344243312F747269616E676C65732E62696E504B01021400140006080000CC70623B0000000000000000000000003700000000000000
310
000000000000D40E00006662782F39464131463745442D413632322D343644302D413938332D3331353338454246344243312F617474726962757465732E62696E504B01021400140006080800CC70623B08DA0BD190000000410100003600000000000000000000000000290F00006662782F39464131463745442D413632
310
322D343644302D413938332D3331353338454246344243312F6469726563746F72792E786D6C504B01021400140006080800CC70623B0D6EF93BFE000000A00100003B000000000000000000000000000D1000006662782F39464131463745442D413632322D343644302D413938332D3331353338454246344243312F7265
310
736F75726365732F636F72652E786D6C504B0506000000000E000E0080040000641100000000
  0
XRECORD
  5
E
102
{ACAD_REACTORS
330
D
102
}
330
D
100
AcDbXrecord
280
     1
102
MATERIAL
148
0.0
149
0.0
149
0.0
 93
        0
 94
      127
282
     0
 72
     1
 77
     1
171
     1
175
     1
179
     1
273
     0
  0
XRECORD
  5
F
102
{ACAD_REACTORS
330
D
102
}
330
D
100
AcDbXrecord
280
     1
270
     1
271
     1
  0
XRECORD
  5
10
102
{ACAD_REACTORS
330
D
102
}
330
D
100
AcDbXrecord
280
     1
270
     1
271
     1
  0
XRECORD
  5
11
102
{ACAD_REACTORS
330
D
102
}
330
D
100
AcDbXrecord
280
     1
 70
     0
 90
1673772943
  1
ECE7A1D2-D628-4531-984C-D00F80459256
310
504B03040A0000080000CC70623B3DEE336E79000000790000001B0000006175746F6465736B2D64657369676E2D7061636B6167652E786D6C3C3F786D6C2076657273696F6E3D22312E302220656E636F64696E673D227574662D3822203F3E3C666F726D6174733E3C666F726D61743E687474703A2F2F736368656D612E
310
6175746F6465736B2E636F6D2F64657369676E2D7061636B6167652F323030393C2F666F726D61743E3C2F666F726D6174733E504B0304140006080800CC70623BD486FD9CA0000000F4000000130000005B436F6E74656E745F54797065735D2E786D6C7D8EC10E82300C865F65E91D8A1E8C310C0EEA1BF002731658846E
310
D98AC1B77784ABF1D8FE5FBFBF75BBCE937A534CCEB38643598122B6FEE978D0B0485F9C41B54DDD7D022595594E1A469170414C76A4D9A4D207E29CF43ECE46F218070CC6BECC4078ACAA135ACF422C856C0E68EA1BF5669944DDD7BCDE7B1F8E415D77AECB980613C2E4AC91FC167A2B244592486606FC29C8FD7F045B9A
310
EF7053A7E60B504B0304140006080800CC70623BD9DDAED0EC0000007C01000008000000636F72652E786D6C8D90416EC3201045AF82665B61836D9CD8C2444DD39CA01740405C94182C03558F5F9C3852BBEB6A467FFE9B197D7EF89E6EE8CB2CC17A37002D0820E394D7D68D03A478C17B4007C117EFE32F1B20272733C0
310
2A83E0E3E2D3BC49CABB685CCCAAF3DA6CA20CC14440EA969B0182FA34932C648AD911AEC52CD5558EA6A0CF2EC329598D1E47ACCEFBECC59A050463A7EA5833865FEBDD0E37353BE3EE8DBDE3F6786A48D375FBF6CC78B9C282473B3DEFABC5C86834888A900E538A49F5419B9EB47DD5BC907D4F082F57FB1F28CDFA9F50
310
B22ED6D5F6EE030B20687EE43E10BC5CB3C8E51E54AE6B6EE207504B0304140006080800CC70623B55019EA25F0000007C00000007000000636E782E786D6C4DCB3B0E80201045D1AD90E915ED2CF8AC45050C11660C8261F98AB1B07AC9C97D42D718D865D3E909258CFD00CCE24AC6E326A164D74DC0B4128928FF326038
310
472BA13128B1252AC747C6BAB984FC68F0B87FE8960A5C09FE86CFB69FBA01504B0304140006080800CC70623BA24EB22D72010000D40300000C0000006662782F636F72652E786D6CC5535B6E833010BC8AE5DF0A6C5E49888CA3A6694ED00B38E05014B091B1518EDFE511A5A9D228FD2A1F60CDEC7A67C6986DCE4D8D7A
310
69BA4AAB0C073EC548AA5C17952A33ECECD15B61B4E1CC686DBF9561A44423333CC098B3D268D7CE50AE9595CA02AA74216750749DB418E5352C32DCE59FB211BE70162ABA93DF8AFC244AE9073ED050C759670D0840D390E18DF9F1706664C23973AE2A66B62A605A75ACA4C13C4976E1364A12EF355A2EBD384AF65EFA96
310
BC7B8BED2EA6719AAE16FB8491A199335B351775B991C2CA02F390D2D40B028F861F41BCA68B7518BFD0D59A524686F29B26D7164F36B94AD9289CE54E6D1DE6010819891F6E21228B3AD1831EC219194284CF98F06DD01008846CC5A1BEF83801D4CBDC6A1303536877A57A513B0953A94FC707FDBE6064EA84A9E3E6E0FA
310
EE8CF0E9198F7784A316AA0413C2C2F2E0ECA0934D1AE6D05A69BCDE9E91D2A611F573361E38FC1375157F5752AE6B6DFE4B11990F88CCBF0719EE23FF02504B0304140006080800CC70623B408A7D3B7C0000009D0000000B0000006662782F636E782E786D6C4DCCD10A83201886E15B91FFDC552A92A0064DBC8F581632
310
D3703A76F9ABD1C18E3E78F878E5F0D9027ABBFCF2292AE86E2D20171F69F6715550CB827B40839639A5F2770314A7CD293819B45C73AAFB45B35BA61ACAA1C1C7E7855C58C15BC331339661262CC762340413D68D77DA5B42298546CBE6573AF60CEB2F504B0304140006080800CC70623B449FB9BD290100001202000031
310
0000006662782F36394639363044362D344446342D343946362D394244322D3234314243333846323333332F636F72652E786D6C8D515B6EC32010BC0AE22B55850D98B871848994463E412FE002495162B07854397EA176A4F62F3F2C9A9D991D587EB84F37F0AD7D30CEF6905418026DA553C65E7A98E219ED203808EE9D
310
8B7F6810D871D23D2C3014FCE25D9A57483A1BB58D19B54EE9151C43D0110279CB971E06F9A5A7B11A53CC8C70ADE6515EC78BAE4895DB992778883E0700CB907242D17643D7E2538BD869608875438BBAE38922CAC8F1BDD90DB4691A5E2F42C153326A951B95E398B3D1FE599322163C9AE9115F7A3D46ADA0A018778810
310
84E907617BDCEE297BC5BB3DC6BC2EF47FA234AB2745C9D8D8D035EE220B50105E2F0DC1954B9FB747187D9F9D8FA0CCDB042D5FA0C015C65B42DF78BD10F3F3B363CB56C7109DCFDFBBB97E662ED92EB62D13BC2E1BCAE5777DB9966D8A1F504B0304140006080800CC70623BAD7543B64E01000033030000300000006662
310
782F36394639363044362D344446342D343946362D394244322D3234314243333846323333332F636E782E786D6CD593CD6EC32010845F0571AD6CE3D48AD20813A9873E410FBD12D82434182C7EAAE6EDBB2424CD25871E7B41D6EC30B3FA84F9E67BB2E40B4234DE8DB46F1925E094D7C6ED479AD3AE5951B2113C789FEE
310
6C943839C1488B4C05DF079FE72A69D8C96C13AAD6B8631503449F83828872B949AC57D26200B826A308D316B4064D6E46FCDA41C05550DC9E483A00797BFD207EFB092A45DE9514C1BBD22178396BD39D891265658C238DEA00936C654E5E433CB65A26D9F6EDB5EBC14EBF49A45CB856E66048291F6939A9A81BB5C89177
310
38143CA680F4AA299D66A042CEB3354A2684DC9D8D178FE0D9B8B41CAAD720F880EE7EF93C0C18769E099ECC04D5A102C8049A8A05632F4DDF376CF1DE0F6BB65C2F8627B65A33C6BB62177CEBBDAD973006829F89F22E814B54F4BC2BE347F8AA8F681390B50FA73F804400B5F542E796F19FF974E7F78DB802FE05E20750
310
4B0304140006080800CC70623B8D05915C650500003B100000340000006662782F36394639363044362D344446342D343946362D394244322D3234314243333846323333332F6F626A656374732E786D6CAD575B6FA33814FE2B887D06429276DA1565D4266D158D3A339A6846FB502932E050B66023DB74D2FDF5FB190C01
310
9276B2973C046C8ECFF53B17071F77456EBD502133CEAE6CDF9DD81665314F32965ED995DA3A17B6F5310C04E7AA47665B8C14F4CAD6DB7618A48257A5D94AE89654B91AEDDEDDFC61C998326A5B714EA4BCB265FC440BE2924AF184CA6737218AB8E976E7FA6E4338649B0A523E8D98964450A6A029F619B8588D52FE7039
310
B1BD30F0F4F730D0FF866AF6369557DB33949F31A9088B0F848DD8CCFCF9F2767A76E99CCDE733677E3EF59D9BBB9BA5E37F984D16E78BC5E5F5ED25044B25C0C96822E8D60EEFE11B91C581D77CEA34368A1F5329E68CD1B8B61F16D63A1B8E092D294B10C78C4A48EB593D192E7DED9BDEE7995E1B91FDEDD3ACEA9FE831
310
6A756F9F7D4D79F4274C90A7A04248AA51D5F8C718DAE06FB2F75AC4796EBE65D22A88A22223B995679120E2D50E41AA49C260C046A35368846B0BECD0DFF3EBEB8AD4F835768F69B9ADF25C43D30E6B646F807FAA64AD59F61715C7A54127C4AACA98BA3006A9D792DAE165E0D59B61A01FB3A9F9D838D2DAE62445C86166
310
F37564E842E7DE6A69879FEEA2DD5AE7E371E1A5E025154AC307D06A03D73EB5978C58FFA4C8E9033066E0F3BD53BEC1F39F91BE7B55103791EDE6BBB991A2046172CB4581D8B893FA674DDA17A77B3B7C413D1B511FD2743BFF8A38F03A658705E3ADF8015C3A3417FF3D7E439FF591DA0B5F18BC20C1B8981957AE6392A3
310
F43C640C01D1A0B4728E2DD4F26DB4B3C3152A252A3B4E913CEC1C72F012782FF88EFF8637AA552DBEF76408E8A8DE9E50F9E1CB3A2DA0DB1B6039A893B56063DC5B3E3FFB5F72E67AB9FEB4AEC496C4F4C1149625DD662C53E89D7BF0F6151A046260D1337DFDC94502430F83B0EE07A130A224BCAD7DAE1D9FB6CD422FF6
310
920702629C4BB9AE79C12F243C6432A6794E18E5552BA56B431AAB5D91317302B2B071E86C3A42B1A02F999E24061403B5D0EB639195DA655DD3EBEAB4FB862DDF579F014AD0E73C22F99E28DA57FB98E75C6CA2D74D53086D600F4786E0FE3144B771A8A7B900F03594DB8A633CBC49B2EDB69228BB479CF863B5E807AAAB
310
23872F6DFEB4129B949CA33823F58830E86D65621E10047D9DB34D862E8EAC3C2ABC2F7B2C40D67CDFE01F5545B92105AF983AC54D93D69E56FB8E797F88913F898A9FEC705D3F9D1B54EC8426FB500D40A03BD0119B06E1B95DDC7EB8F6975367793EBD70E66733DFB9BC982F9CE564727731999F5D4ECFCE3B8D6A4DC2A0
310
6D50FD148437D110834A64C6CDDF57FBACB5C307A2A477DFE4939736CFEF2B175371E0E10CF0DD1D5C15654E0BCA14D1E87DD02FF93782A162C0A3D95F1524A52770F972BF1EE9809D13CE7DD599467F8ECE9ADD85CE85A34CD45355448C64F9E8A031DC2D596ACC6E5DD93D9B82DE2EF5CAF81363A8E47996A0DE24564A79
310
4115AACE09C55E14540231FDA13C319787134EBF34E3A022514E5B4D9E0826E25C02D5805B15ABE1BEF51B26383D445DD9E875EE33FE4C22DA16427D65A3BCA92CA6D28DD01DF5DC53330704308475351050232CCD31583787BA75774AFB06E5070DD0C8EF484E19968C5D83BA5B90B244D31E54D55A372320FE4786B7EA58
310
44E135AA5467CB7EA333A61683CC6A8C3257034C10CF46F40EF9F5BE59BE5BD30C3C72D235E95D10345C1D45445A5F0BB47E46A5EBE5570F9380B5FA629579952296A773720405982B9DE04011506178964401AA8BDF1FBF0A8EAB6861DD6580C0E38217056766716DAEB2D6FA0917D3E4116581EADB879C4E7CFFB11EFACD
310
3D641311495D92C8676CB409A72D18610D803CE8A626049E8EC1887CB5B44CC39883690DDA8399B4B9855B481E7D71D4A9D22F96E5BB73BF5793020C02137BF837504B0304140006080000CC70623B000000000000000000000000350000006662782F36394639363044362D344446342D343946362D394244322D32343142
310
43333846323333332F76657274696365732E62696E504B0304140006080800CC70623BF270F1330600000004000000360000006662782F36394639363044362D344446342D343946362D394244322D3234314243333846323333332F747269616E676C65732E62696E636660600000504B0304140006080000CC70623B0000
310
00000000000000000000370000006662782F36394639363044362D344446342D343946362D394244322D3234314243333846323333332F617474726962757465732E62696E504B0304140006080800CC70623B08DA0BD19000000041010000360000006662782F36394639363044362D344446342D343946362D394244322D
310
3234314243333846323333332F6469726563746F72792E786D6C858F410AC3201045AF22B36F53E9A60B35CBEEBAE80D244E44489C6234F4F835464A48035D0DF398FF9F8AF63D0E6CC63039F212F8F9020C7D47C6792B21C5FE7403D62A1188E2E60C98D7234A5830286103A55745067B9D86B8A3CF9C7F90C11DE607FB14
310
4396D7B6A82D282E9A152AD114D5EF2CB866EEE831B8EEA07A7BB5A8D7D61A2BAAEB7FD5F70921FF497D00504B0304140006080800CC70623BCA768048FE000000A00100003B0000006662782F36394639363044362D344446342D343946362D394244322D3234314243333846323333332F7265736F75726365732F636F72
310
652E786D6C8D50596E833010BD0A9ADFCA60D600328E9AA639412F609909B1126CE4A5EAF16B0295DABFFECC8CDEA2797AECF8353F924FB44E193D409E5248504B332A3D0D10FC95B4901C39B3C6F85F3248B49871801506CE266BC2B243D2688FDA47549B11775038871E12F988C7004EDE7016A9083E2ADC3D5D84BC8B09
310
D33C8D74D471E6BC8D0192EDC93A815B742658898E651BCB59086ADC356A8C3FD555A1055ED7E7E254D615792D0F075295F585746FF53B694EE78A565DD736979A65AB9933AFE69F8CD2A2F038022F28ED489E135A7CE4554F9BBEA85E68DB53CAB255FEC71496F19FA6A0B42F8B3DEE6673C0F318E4497096AD7DC5F52C33
310
EEB55BFE0D504B010214000A0000080000CC70623B3DEE336E79000000790000001B00000000000000000000000000000000006175746F6465736B2D64657369676E2D7061636B6167652E786D6C504B01021400140006080800CC70623BD486FD9CA0000000F40000001300000000000000000000000000B20000005B436F
310
6E74656E745F54797065735D2E786D6C504B01021400140006080800CC70623BD9DDAED0EC0000007C010000080000000000000000000000000083010000636F72652E786D6C504B01021400140006080800CC70623B55019EA25F0000007C000000070000000000000000000000000095020000636E782E786D6C504B0102
310
1400140006080800CC70623BA24EB22D72010000D40300000C00000000000000000000000000190300006662782F636F72652E786D6C504B01021400140006080800CC70623B408A7D3B7C0000009D0000000B00000000000000000000000000B50400006662782F636E782E786D6C504B01021400140006080800CC70623B
310
449FB9BD290100001202000031000000000000000000000000005A0500006662782F36394639363044362D344446342D343946362D394244322D3234314243333846323333332F636F72652E786D6C504B01021400140006080800CC70623BAD7543B64E010000330300003000000000000000000000000000D20600006662
310
782F36394639363044362D344446342D343946362D394244322D3234314243333846323333332F636E782E786D6C504B01021400140006080800CC70623B8D05915C650500003B10000034000000000000000000000000006E0800006662782F36394639363044362D344446342D343946362D394244322D32343142433338
310
46323333332F6F626A656374732E786D6C504B01021400140006080000CC70623B0000000000000000000000003500000000000000000000000000250E00006662782F36394639363044362D344446342D343946362D394244322D3234314243333846323333332F76657274696365732E62696E504B010214001400060808
310
00CC70623BF270F13306000000040000003600000000000000000000000000780E00006662782F36394639363044362D344446342D343946362D394244322D3234314243333846323333332F747269616E676C65732E62696E504B01021400140006080000CC70623B00000000000000000000000037000000000000000000
310
00000000D20E00006662782F36394639363044362D344446342D343946362D394244322D3234314243333846323333332F617474726962757465732E62696E504B01021400140006080800CC70623B08DA0BD190000000410100003600000000000000000000000000270F00006662782F36394639363044362D344446342D
310
343946362D394244322D3234314243333846323333332F6469726563746F72792E786D6C504B01021400140006080800CC70623BCA768048FE000000A00100003B000000000000000000000000000B1000006662782F36394639363044362D344446342D343946362D394244322D3234314243333846323333332F7265736F
310
75726365732F636F72652E786D6C504B0506000000000E000E0080040000621100000000
  0
XRECORD
  5
12
102
{ACAD_REACTORS
330
D
102
}
330
D
100
AcDbXrecord
280
     1
270
     1
271
     1
  0
XRECORD
  5
13
102
{ACAD_REACTORS
330
D
102
}
330
D
100
AcDbXrecord
280
     1
270
     1
271
     1
  0
CELLSTYLEMAP
  5
3D1
102
{ACAD_REACTORS
330
48
102
}
330
48
100
AcDbCellStyleMap
 90
        3
300
CELLSTYLE
  1
TABLEFORMAT_BEGIN
 90
        5
170
     1
 91
        0
 92
    32768
 62
   257
 93
        1
300
CONTENTFORMAT
  1
CONTENTFORMAT_BEGIN
 90
        0
 91
        0
 92
      512
 93
        0
300

 40
0.0
140
1.0
 94
        5
 62
     0
340
23
144
6.0
309
CONTENTFORMAT_END
171
     1
301
MARGIN
  1
CELLMARGIN_BEGIN
 40
1.5
 40
1.5
 40
1.5
 40
1.5
 40
0.18
 40
0.18
309
CELLMARGIN_END
 94
        6
 95
        1
302
GRIDFORMAT
  1
GRIDFORMAT_BEGIN
 90
        0
 91
        1
 62
     0
 92
       -2
340
26
 93
        0
 40
1.125
309
GRIDFORMAT_END
 95
        2
302
GRIDFORMAT
  1
GRIDFORMAT_BEGIN
 90
        0
 91
        1
 62
     0
 92
       -2
340
26
 93
        0
 40
1.125
309
GRIDFORMAT_END
 95
        4
302
GRIDFORMAT
  1
GRIDFORMAT_BEGIN
 90
        0
 91
        1
 62
     0
 92
       -2
340
26
 93
        0
 40
1.125
309
GRIDFORMAT_END
 95
        8
302
GRIDFORMAT
  1
GRIDFORMAT_BEGIN
 90
        0
 91
        1
 62
     0
 92
       -2
340
26
 93
        0
 40
1.125
309
GRIDFORMAT_END
 95
       16
302
GRIDFORMAT
  1
GRIDFORMAT_BEGIN
 90
        0
 91
        1
 62
     0
 92
       -2
340
26
 93
        0
 40
1.125
309
GRIDFORMAT_END
 95
       32
302
GRIDFORMAT
  1
GRIDFORMAT_BEGIN
 90
        0
 91
        1
 62
     0
 92
       -2
340
26
 93
        0
 40
1.125
309
GRIDFORMAT_END
309
TABLEFORMAT_END
  1
CELLSTYLE_BEGIN
 90
        1
 91
        1
300
_TITLE
309
CELLSTYLE_END
300
CELLSTYLE
  1
TABLEFORMAT_BEGIN
 90
        5
170
     1
 91
        0
 92
        0
 62
   257
 93
        1
300
CONTENTFORMAT
  1
CONTENTFORMAT_BEGIN
 90
        0
 91
        0
 92
      512
 93
        0
300

 40
0.0
140
1.0
 94
        5
 62
     0
340
23
144
4.5
309
CONTENTFORMAT_END
171
     1
301
MARGIN
  1
CELLMARGIN_BEGIN
 40
1.5
 40
1.5
 40
1.5
 40
1.5
 40
0.18
 40
0.18
309
CELLMARGIN_END
 94
        6
 95
        1
302
GRIDFORMAT
  1
GRIDFORMAT_BEGIN
 90
        0
 91
        1
 62
     0
 92
       -2
340
26
 93
        0
 40
1.125
309
GRIDFORMAT_END
 95
        2
302
GRIDFORMAT
  1
GRIDFORMAT_BEGIN
 90
        0
 91
        1
 62
     0
 92
       -2
340
26
 93
        0
 40
1.125
309
GRIDFORMAT_END
 95
        4
302
GRIDFORMAT
  1
GRIDFORMAT_BEGIN
 90
        0
 91
        1
 62
     0
 92
       -2
340
26
 93
        0
 40
1.125
309
GRIDFORMAT_END
 95
        8
302
GRIDFORMAT
  1
GRIDFORMAT_BEGIN
 90
        0
 91
        1
 62
     0
 92
       -2
340
26
 93
        0
 40
1.125
309
GRIDFORMAT_END
 95
       16
302
GRIDFORMAT
  1
GRIDFORMAT_BEGIN
 90
        0
 91
        1
 62
     0
 92
       -2
340
26
 93
        0
 40
1.125
309
GRIDFORMAT_END
 95
       32
302
GRIDFORMAT
  1
GRIDFORMAT_BEGIN
 90
        0
 91
        1
 62
     0
 92
       -2
340
26
 93
        0
 40
1.125
309
GRIDFORMAT_END
309
TABLEFORMAT_END
  1
CELLSTYLE_BEGIN
 90
        2
 91
        1
300
_HEADER
309
CELLSTYLE_END
300
CELLSTYLE
  1
TABLEFORMAT_BEGIN
 90
        5
170
     1
 91
        0
 92
        0
 62
   257
 93
        1
300
CONTENTFORMAT
  1
CONTENTFORMAT_BEGIN
 90
        0
 91
        0
 92
      512
 93
        0
300

 40
0.0
140
1.0
 94
        2
 62
     0
340
23
144
4.5
309
CONTENTFORMAT_END
171
     1
301
MARGIN
  1
CELLMARGIN_BEGIN
 40
1.5
 40
1.5
 40
1.5
 40
1.5
 40
0.18
 40
0.18
309
CELLMARGIN_END
 94
        6
 95
        1
302
GRIDFORMAT
  1
GRIDFORMAT_BEGIN
 90
        0
 91
        1
 62
     0
 92
       -2
340
26
 93
        0
 40
1.125
309
GRIDFORMAT_END
 95
        2
302
GRIDFORMAT
  1
GRIDFORMAT_BEGIN
 90
        0
 91
        1
 62
     0
 92
       -2
340
26
 93
        0
 40
1.125
309
GRIDFORMAT_END
 95
        4
302
GRIDFORMAT
  1
GRIDFORMAT_BEGIN
 90
        0
 91
        1
 62
     0
 92
       -2
340
26
 93
        0
 40
1.125
309
GRIDFORMAT_END
 95
        8
302
GRIDFORMAT
  1
GRIDFORMAT_BEGIN
 90
        0
 91
        1
 62
     0
 92
       -2
340
26
 93
        0
 40
1.125
309
GRIDFORMAT_END
 95
       16
302
GRIDFORMAT
  1
GRIDFORMAT_BEGIN
 90
        0
 91
        1
 62
     0
 92
       -2
340
26
 93
        0
 40
1.125
309
GRIDFORMAT_END
 95
       32
302
GRIDFORMAT
  1
GRIDFORMAT_BEGIN
 90
        0
 91
        1
 62
     0
 92
       -2
340
26
 93
        0
 40
1.125
309
GRIDFORMAT_END
309
TABLEFORMAT_END
  1
CELLSTYLE_BEGIN
 90
        3
 91
        2
300
_DATA
309
CELLSTYLE_END
  0
XRECORD
  5
3DD
102
{ACAD_REACTORS
330
48
102
}
330
48
100
AcDbXrecord
280
     1
102
ACAD_ROUNDTRIP_PRE2007_TABLESTYLE
 90
      512
 91
        0
  1

 92
      512
 93
        0
  2

 94
      512
 95
        0
  3

  0
XRECORD
  5
3DC
102
{ACAD_REACTORS
330
3DB
102
}
330
3DB
100
AcDbXrecord
280
     1
102
RTVSPost2010Prop28
280
     1
102
RTVSPost2010PropOp28
 70
     1
102
RTVSPost2010Prop29
280
     1
102
RTVSPost2010PropOp29
 70
     1
102
RTVSPost2010Prop30
280
     0
102
RTVSPost2010PropOp30
 70
     1
102
RTVSPost2010Prop31
280
     0
102
RTVSPost2010PropOp31
 70
     1
102
RTVSPost2010Prop32
280
     0
102
RTVSPost2010PropOp32
 70
     1
102
RTVSPost2010Prop33
280
     0
102
RTVSPost2010PropOp33
 70
     1
102
RTVSPost2010Prop34
280
     0
102
RTVSPost2010PropOp34
 70
     1
102
RTVSPost2010Prop35
280
     0
102
RTVSPost2010PropOp35
 70
     1
102
RTVSPost2010Prop36
280
     0
102
RTVSPost2010PropOp36
 70
     1
102
RTVSPost2010Prop37
 90
       50
102
RTVSPost2010PropOp37
 70
     1
102
RTVSPost2010Prop38
140
0.0
102
RTVSPost2010PropOp38
 70
     1
102
RTVSPost2010Prop39
140
1.0
102
RTVSPost2010PropOp39
 70
     1
102
RTVSPost2010Prop40
 90
        0
102
RTVSPost2010PropOp40
 70
     1
102
RTVSPost2010Prop41ColorIndex
 90
       18
102
RTVSPost2010Prop41ColorRGB
 90
        0
102
RTVSPost2010PropOp41
 70
     1
102
RTVSPost2010Prop42
 90
       50
102
RTVSPost2010PropOp42
 70
     1
102
RTVSPost2010Prop43
 90
        3
102
RTVSPost2010PropOp43
 70
     1
102
RTVSPost2010Prop44ColorIndex
 90
        5
102
RTVSPost2010Prop44ColorRGB
 90
      255
102
RTVSPost2010PropOp44
 70
     1
102
RTVSPost2010Prop45
280
     0
102
RTVSPost2010PropOp45
 70
     1
102
RTVSPost2010Prop46
 90
       50
102
RTVSPost2010PropOp46
 70
     1
102
RTVSPost2010Prop47
 90
       50
102
RTVSPost2010PropOp47
 70
     1
102
RTVSPost2010Prop48
 90
       50
102
RTVSPost2010PropOp48
 70
     1
102
RTVSPost2010Prop49
280
     0
102
RTVSPost2010PropOp49
 70
     1
102
RTVSPost2010Prop50
 90
       50
102
RTVSPost2010PropOp50
 70
     1
102
RTVSPost2010Prop51ColorIndex
 90
      256
102
RTVSPost2010Prop51ColorRGB
 90
-16777216
102
RTVSPost2010PropOp51
 70
     0
102
RTVSPost2010Prop52
140
1.0
102
RTVSPost2010PropOp52
 70
     0
102
RTVSPost2010Prop53
 90
        2
102
RTVSPost2010PropOp53
 70
     1
102
RTVSPost2010Prop54
  1
strokes_ogs.tif
102
RTVSPost2010PropOp54
 70
     1
102
RTVSPost2010Prop55
280
     0
102
RTVSPost2010PropOp55
 70
     1
102
RTVSPost2010Prop56
140
1.0
102
RTVSPost2010PropOp56
 70
     1
102
RTVSPost2010Prop57
140
1.0
102
RTVSPost2010PropOp57
 70
     1
102
RTVSPropertyOp0
 70
     1
102
RTVSPropertyOp1
 70
     1
102
RTVSPropertyOp2
 70
     1
102
RTVSPropertyOp3
 70
     1
102
RTVSPropertyOp4
 70
     1
102
RTVSPropertyOp5
 70
     1
102
RTVSPropertyOp6
 70
     1
102
RTVSPropertyOp7
 70
     1
102
RTVSPropertyOp8
 70
     1
102
RTVSPropertyOp9
 70
     1
102
RTVSPropertyOp10
 70
     1
102
RTVSPropertyOp11
 70
     1
102
RTVSPropertyOp12
 70
     1
102
RTVSPropertyOp13
 70
     1
102
RTVSPropertyOp14
 70
     1
102
RTVSPropertyOp15
 70
     1
102
RTVSPropertyOp16
 70
     1
102
RTVSPropertyOp17
 70
     1
102
RTVSPropertyOp18
 70
     1
102
RTVSPropertyOp19
 70
     1
102
RTVSPropertyOp20
 70
     1
102
RTVSPropertyOp21
 70
     1
102
RTVSPropertyOp22
 70
     1
102
RTVSPropertyOp23
 70
     1
102
RTVSPropertyOp24
 70
     1
102
RTVSPropertyOp25
 70
     1
102
RTVSPropertyOp26
 70
     1
102
RTVSPropertyOp27
 70
     1
102
RTVSPropertyOp28
 70
     1
102
RTVSPropertyOp29
 70
     1
102
RTVSPropertyOp30
 70
     1
102
RTVSPropertyOp31
 70
     1
102
RTVSPropertyOp32
 70
     1
102
RTVSPropertyOp33
 70
     1
102
RTVSPropertyOp34
 70
     1
102
RTVSPropertyOp35
 70
     1
102
RTVSPropertyOp36
 70
     1
102
RTVSPropertyOp37
 70
     1
102
RTVSPropertyOp38
 70
     1
102
RTVSPropertyOp39
 70
     1
102
RTVSPropertyOp40
 70
     1
102
RTVSPropertyOp41
 70
     1
102
RTVSPropertyOp42
 70
     1
102
RTVSPropertyOp43
 70
     1
102
RTVSPropertyOp44
 70
     1
102
RTVSPropertyOp45
 70
     1
102
RTVSPropertyOp46
 70
     1
102
RTVSPropertyOp47
 70
     1
102
RTVSPropertyOp48
 70
     1
102
RTVSPropertyOp49
 70
     1
102
RTVSPropertyOp50
 70
     1
102
RTVSPropertyOp51
 70
     0
102
RTVSPropertyOp52
 70
     0
102
RTVSPropertyOp53
 70
     1
102
RTVSPropertyOp54
 70
     1
102
RTVSPropertyOp55
 70
     1
102
RTVSPropertyOp56
 70
     1
102
RTVSPropertyOp57
 70
     1
102
RTVSPropertyOp58
 70
     1
102
RTVSPropertyOp59
 70
     1
102
RTVSPropertyOp60
 70
     1
102
RTVSPropertyOp61
 70
     1
102
RTVSPropertyOp62
 70
     1
  0
XRECORD
  5
3DF
102
{ACAD_REACTORS
330
3DE
102
}
330
3DE
100
AcDbXrecord
280
     1
102
RTVSPost2010Prop28
280
     0
102
RTVSPost2010PropOp28
 70
     1
102
RTVSPost2010Prop29
280
     1
102
RTVSPost2010PropOp29
 70
     1
102
RTVSPost2010Prop30
280
     1
102
RTVSPost2010PropOp30
 70
     1
102
RTVSPost2010Prop31
280
     0
102
RTVSPost2010PropOp31
 70
     1
102
RTVSPost2010Prop32
280
     0
102
RTVSPost2010PropOp32
 70
     1
102
RTVSPost2010Prop33
280
     0
102
RTVSPost2010PropOp33
 70
     1
102
RTVSPost2010Prop34
280
     0
102
RTVSPost2010PropOp34
 70
     1
102
RTVSPost2010Prop35
280
     0
102
RTVSPost2010PropOp35
 70
     1
102
RTVSPost2010Prop36
280
     0
102
RTVSPost2010PropOp36
 70
     1
102
RTVSPost2010Prop37
 90
       50
102
RTVSPost2010PropOp37
 70
     1
102
RTVSPost2010Prop38
140
0.0
102
RTVSPost2010PropOp38
 70
     1
102
RTVSPost2010Prop39
140
1.0
102
RTVSPost2010PropOp39
 70
     1
102
RTVSPost2010Prop40
 90
        0
102
RTVSPost2010PropOp40
 70
     1
102
RTVSPost2010Prop41ColorIndex
 90
       18
102
RTVSPost2010Prop41ColorRGB
 90
        0
102
RTVSPost2010PropOp41
 70
     1
102
RTVSPost2010Prop42
 90
       50
102
RTVSPost2010PropOp42
 70
     1
102
RTVSPost2010Prop43
 90
        3
102
RTVSPost2010PropOp43
 70
     1
102
RTVSPost2010Prop44ColorIndex
 90
        5
102
RTVSPost2010Prop44ColorRGB
 90
      255
102
RTVSPost2010PropOp44
 70
     1
102
RTVSPost2010Prop45
280
     0
102
RTVSPost2010PropOp45
 70
     1
102
RTVSPost2010Prop46
 90
       50
102
RTVSPost2010PropOp46
 70
     1
102
RTVSPost2010Prop47
 90
       50
102
RTVSPost2010PropOp47
 70
     1
102
RTVSPost2010Prop48
 90
       50
102
RTVSPost2010PropOp48
 70
     1
102
RTVSPost2010Prop49
280
     0
102
RTVSPost2010PropOp49
 70
     1
102
RTVSPost2010Prop50
 90
       50
102
RTVSPost2010PropOp50
 70
     1
102
RTVSPost2010Prop51ColorIndex
 90
      256
102
RTVSPost2010Prop51ColorRGB
 90
-16777216
102
RTVSPost2010PropOp51
 70
     0
102
RTVSPost2010Prop52
140
1.0
102
RTVSPost2010PropOp52
 70
     0
102
RTVSPost2010Prop53
 90
        2
102
RTVSPost2010PropOp53
 70
     1
102
RTVSPost2010Prop54
  1
strokes_ogs.tif
102
RTVSPost2010PropOp54
 70
     1
102
RTVSPost2010Prop55
280
     0
102
RTVSPost2010PropOp55
 70
     1
102
RTVSPost2010Prop56
140
1.0
102
RTVSPost2010PropOp56
 70
     1
102
RTVSPost2010Prop57
140
1.0
102
RTVSPost2010PropOp57
 70
     1
102
RTVSPropertyOp0
 70
     1
102
RTVSPropertyOp1
 70
     1
102
RTVSPropertyOp2
 70
     1
102
RTVSPropertyOp3
 70
     1
102
RTVSPropertyOp4
 70
     1
102
RTVSPropertyOp5
 70
     1
102
RTVSPropertyOp6
 70
     1
102
RTVSPropertyOp7
 70
     1
102
RTVSPropertyOp8
 70
     1
102
RTVSPropertyOp9
 70
     1
102
RTVSPropertyOp10
 70
     1
102
RTVSPropertyOp11
 70
     1
102
RTVSPropertyOp12
 70
     1
102
RTVSPropertyOp13
 70
     1
102
RTVSPropertyOp14
 70
     1
102
RTVSPropertyOp15
 70
     1
102
RTVSPropertyOp16
 70
     1
102
RTVSPropertyOp17
 70
     1
102
RTVSPropertyOp18
 70
     1
102
RTVSPropertyOp19
 70
     1
102
RTVSPropertyOp20
 70
     1
102
RTVSPropertyOp21
 70
     1
102
RTVSPropertyOp22
 70
     1
102
RTVSPropertyOp23
 70
     1
102
RTVSPropertyOp24
 70
     1
102
RTVSPropertyOp25
 70
     1
102
RTVSPropertyOp26
 70
     1
102
RTVSPropertyOp27
 70
     1
102
RTVSPropertyOp28
 70
     1
102
RTVSPropertyOp29
 70
     1
102
RTVSPropertyOp30
 70
     1
102
RTVSPropertyOp31
 70
     1
102
RTVSPropertyOp32
 70
     1
102
RTVSPropertyOp33
 70
     1
102
RTVSPropertyOp34
 70
     1
102
RTVSPropertyOp35
 70
     1
102
RTVSPropertyOp36
 70
     1
102
RTVSPropertyOp37
 70
     1
102
RTVSPropertyOp38
 70
     1
102
RTVSPropertyOp39
 70
     1
102
RTVSPropertyOp40
 70
     1
102
RTVSPropertyOp41
 70
     1
102
RTVSPropertyOp42
 70
     1
102
RTVSPropertyOp43
 70
     1
102
RTVSPropertyOp44
 70
     1
102
RTVSPropertyOp45
 70
     1
102
RTVSPropertyOp46
 70
     1
102
RTVSPropertyOp47
 70
     1
102
RTVSPropertyOp48
 70
     1
102
RTVSPropertyOp49
 70
     1
102
RTVSPropertyOp50
 70
     1
102
RTVSPropertyOp51
 70
     0
102
RTVSPropertyOp52
 70
     0
102
RTVSPropertyOp53
 70
     1
102
RTVSPropertyOp54
 70
     1
102
RTVSPropertyOp55
 70
     1
102
RTVSPropertyOp56
 70
     1
102
RTVSPropertyOp57
 70
     1
102
RTVSPropertyOp58
 70
     1
102
RTVSPropertyOp59
 70
     1
102
RTVSPropertyOp60
 70
     1
102
RTVSPropertyOp61
 70
     1
102
RTVSPropertyOp62
 70
     1
  0
XRECORD
  5
3E1
102
{ACAD_REACTORS
330
3E0
102
}
330
3E0
100
AcDbXrecord
280
     1
102
RTVSPost2010Prop28
280
     0
102
RTVSPost2010PropOp28
 70
     1
102
RTVSPost2010Prop29
280
     1
102
RTVSPost2010PropOp29
 70
     1
102
RTVSPost2010Prop30
280
     1
102
RTVSPost2010PropOp30
 70
     1
102
RTVSPost2010Prop31
280
     0
102
RTVSPost2010PropOp31
 70
     1
102
RTVSPost2010Prop32
280
     0
102
RTVSPost2010PropOp32
 70
     1
102
RTVSPost2010Prop33
280
     0
102
RTVSPost2010PropOp33
 70
     1
102
RTVSPost2010Prop34
280
     0
102
RTVSPost2010PropOp34
 70
     1
102
RTVSPost2010Prop35
280
     0
102
RTVSPost2010PropOp35
 70
     1
102
RTVSPost2010Prop36
280
     0
102
RTVSPost2010PropOp36
 70
     1
102
RTVSPost2010Prop37
 90
       50
102
RTVSPost2010PropOp37
 70
     1
102
RTVSPost2010Prop38
140
0.0
102
RTVSPost2010PropOp38
 70
     1
102
RTVSPost2010Prop39
140
1.0
102
RTVSPost2010PropOp39
 70
     1
102
RTVSPost2010Prop40
 90
        0
102
RTVSPost2010PropOp40
 70
     1
102
RTVSPost2010Prop41ColorIndex
 90
       18
102
RTVSPost2010Prop41ColorRGB
 90
        0
102
RTVSPost2010PropOp41
 70
     1
102
RTVSPost2010Prop42
 90
       50
102
RTVSPost2010PropOp42
 70
     1
102
RTVSPost2010Prop43
 90
        3
102
RTVSPost2010PropOp43
 70
     1
102
RTVSPost2010Prop44ColorIndex
 90
        5
102
RTVSPost2010Prop44ColorRGB
 90
      255
102
RTVSPost2010PropOp44
 70
     1
102
RTVSPost2010Prop45
280
     0
102
RTVSPost2010PropOp45
 70
     1
102
RTVSPost2010Prop46
 90
       50
102
RTVSPost2010PropOp46
 70
     1
102
RTVSPost2010Prop47
 90
       50
102
RTVSPost2010PropOp47
 70
     1
102
RTVSPost2010Prop48
 90
       50
102
RTVSPost2010PropOp48
 70
     1
102
RTVSPost2010Prop49
280
     0
102
RTVSPost2010PropOp49
 70
     1
102
RTVSPost2010Prop50
 90
       50
102
RTVSPost2010PropOp50
 70
     1
102
RTVSPost2010Prop51ColorIndex
 90
      256
102
RTVSPost2010Prop51ColorRGB
 90
-16777216
102
RTVSPost2010PropOp51
 70
     0
102
RTVSPost2010Prop52
140
1.0
102
RTVSPost2010PropOp52
 70
     0
102
RTVSPost2010Prop53
 90
        2
102
RTVSPost2010PropOp53
 70
     1
102
RTVSPost2010Prop54
  1
strokes_ogs.tif
102
RTVSPost2010PropOp54
 70
     1
102
RTVSPost2010Prop55
280
     0
102
RTVSPost2010PropOp55
 70
     1
102
RTVSPost2010Prop56
140
1.0
102
RTVSPost2010PropOp56
 70
     1
102
RTVSPost2010Prop57
140
1.0
102
RTVSPost2010PropOp57
 70
     1
102
RTVSPropertyOp0
 70
     1
102
RTVSPropertyOp1
 70
     1
102
RTVSPropertyOp2
 70
     1
102
RTVSPropertyOp3
 70
     1
102
RTVSPropertyOp4
 70
     1
102
RTVSPropertyOp5
 70
     1
102
RTVSPropertyOp6
 70
     1
102
RTVSPropertyOp7
 70
     1
102
RTVSPropertyOp8
 70
     1
102
RTVSPropertyOp9
 70
     1
102
RTVSPropertyOp10
 70
     1
102
RTVSPropertyOp11
 70
     1
102
RTVSPropertyOp12
 70
     1
102
RTVSPropertyOp13
 70
     1
102
RTVSPropertyOp14
 70
     1
102
RTVSPropertyOp15
 70
     1
102
RTVSPropertyOp16
 70
     1
102
RTVSPropertyOp17
 70
     1
102
RTVSPropertyOp18
 70
     1
102
RTVSPropertyOp19
 70
     1
102
RTVSPropertyOp20
 70
     1
102
RTVSPropertyOp21
 70
     1
102
RTVSPropertyOp22
 70
     1
102
RTVSPropertyOp23
 70
     1
102
RTVSPropertyOp24
 70
     1
102
RTVSPropertyOp25
 70
     1
102
RTVSPropertyOp26
 70
     1
102
RTVSPropertyOp27
 70
     1
102
RTVSPropertyOp28
 70
     1
102
RTVSPropertyOp29
 70
     1
102
RTVSPropertyOp30
 70
     1
102
RTVSPropertyOp31
 70
     1
102
RTVSPropertyOp32
 70
     1
102
RTVSPropertyOp33
 70
     1
102
RTVSPropertyOp34
 70
     1
102
RTVSPropertyOp35
 70
     1
102
RTVSPropertyOp36
 70
     1
102
RTVSPropertyOp37
 70
     1
102
RTVSPropertyOp38
 70
     1
102
RTVSPropertyOp39
 70
     1
102
RTVSPropertyOp40
 70
     1
102
RTVSPropertyOp41
 70
     1
102
RTVSPropertyOp42
 70
     1
102
RTVSPropertyOp43
 70
     1
102
RTVSPropertyOp44
 70
     1
102
RTVSPropertyOp45
 70
     1
102
RTVSPropertyOp46
 70
     1
102
RTVSPropertyOp47
 70
     1
102
RTVSPropertyOp48
 70
     1
102
RTVSPropertyOp49
 70
     1
102
RTVSPropertyOp50
 70
     1
102
RTVSPropertyOp51
 70
     0
102
RTVSPropertyOp52
 70
     0
102
RTVSPropertyOp53
 70
     1
102
RTVSPropertyOp54
 70
     1
102
RTVSPropertyOp55
 70
     1
102
RTVSPropertyOp56
 70
     1
102
RTVSPropertyOp57
 70
     1
102
RTVSPropertyOp58
 70
     1
102
RTVSPropertyOp59
 70
     1
102
RTVSPropertyOp60
 70
     1
102
RTVSPropertyOp61
 70
     1
102
RTVSPropertyOp62
 70
     1
  0
ENDSEC
  0
EOF
