  0
SECTION
  2
HEADER
  9
$ACADVER
  1
AC1032
  9
$ACADMAINTVER
 90
        4
  9
$DWGCODEPAGE
  3
ANSI_932
  9
$REQUIREDVERSIONS
160
                 0
  9
$INSBASE
 10
0.0
 20
0.0
 30
0.0
  9
$EXTMIN
 10
446.8886733165056
 20
270.8554827998098
 30
0.0
  9
$EXTMAX
 10
500.1565995445496
 20
347.2560366303755
 30
0.0
  9
$LIMMIN
 10
0.0
 20
0.0
  9
$LIMMAX
 10
420.0
 20
297.0
  9
$ORTHOMODE
 70
     0
  9
$REGENMODE
 70
     1
  9
$FILLMODE
 70
     1
  9
$QTEXTMODE
 70
     0
  9
$MIRRTEXT
 70
     0
  9
$LTSCALE
 40
1.0
  9
$ATTMODE
 70
     1
  9
$TEXTSIZE
 40
2.5
  9
$TRACEWID
 40
1.0
  9
$TEXTSTYLE
  7
Standard
  9
$CLAYER
  8
0
  9
$CELTYPE
  6
ByLayer
  9
$CECOLOR
 62
   256
  9
$CELTSCALE
 40
1.0
  9
$DISPSILH
 70
     0
  9
$DIMSCALE
 40
1.0
  9
$DIMASZ
 40
2.5
  9
$DIMEXO
 40
0.625
  9
$DIMDLI
 40
3.75
  9
$DIMRND
 40
0.0
  9
$DIMDLE
 40
0.0
  9
$DIMEXE
 40
1.25
  9
$DIMTP
 40
0.0
  9
$DIMTM
 40
0.0
  9
$DIMTXT
 40
2.5
  9
$DIMCEN
 40
2.5
  9
$DIMTSZ
 40
0.0
  9
$DIMTOL
 70
     0
  9
$DIMLIM
 70
     0
  9
$DIMTIH
 70
     0
  9
$DIMTOH
 70
     0
  9
$DIMSE1
 70
     0
  9
$DIMSE2
 70
     0
  9
$DIMTAD
 70
     1
  9
$DIMZIN
 70
     8
  9
$DIMBLK
  1

  9
$DIMASO
 70
     1
  9
$DIMSHO
 70
     1
  9
$DIMPOST
  1

  9
$DIMAPOST
  1

  9
$DIMALT
 70
     0
  9
$DIMALTD
 70
     3
  9
$DIMALTF
 40
0.03937007874016
  9
$DIMLFAC
 40
1.0
  9
$DIMTOFL
 70
     1
  9
$DIMTVP
 40
0.0
  9
$DIMTIX
 70
     0
  9
$DIMSOXD
 70
     0
  9
$DIMSAH
 70
     0
  9
$DIMBLK1
  1

  9
$DIMBLK2
  1

  9
$DIMSTYLE
  2
ISO-25
  9
$DIMCLRD
 70
     0
  9
$DIMCLRE
 70
     0
  9
$DIMCLRT
 70
     0
  9
$DIMTFAC
 40
1.0
  9
$DIMGAP
 40
0.625
  9
$DIMJUST
 70
     0
  9
$DIMSD1
 70
     0
  9
$DIMSD2
 70
     0
  9
$DIMTOLJ
 70
     0
  9
$DIMTZIN
 70
     8
  9
$DIMALTZ
 70
     0
  9
$DIMALTTZ
 70
     0
  9
$DIMUPT
 70
     0
  9
$DIMDEC
 70
     2
  9
$DIMTDEC
 70
     2
  9
$DIMALTU
 70
     2
  9
$DIMALTTD
 70
     3
  9
$DIMTXSTY
  7
Standard
  9
$DIMAUNIT
 70
     0
  9
$DIMADEC
 70
     0
  9
$DIMALTRND
 40
0.0
  9
$DIMAZIN
 70
     0
  9
$DIMDSEP
 70
    44
  9
$DIMATFIT
 70
     3
  9
$DIMFRAC
 70
     0
  9
$DIMLDRBLK
  1

  9
$DIMLUNIT
 70
     2
  9
$DIMLWD
 70
    -2
  9
$DIMLWE
 70
    -2
  9
$DIMTMOVE
 70
     0
  9
$DIMFXL
 40
1.0
  9
$DIMFXLON
 70
     0
  9
$DIMJOGANG
 40
0.7853981633974483
  9
$DIMTFILL
 70
     0
  9
$DIMTFILLCLR
 70
     0
  9
$DIMARCSYM
 70
     0
  9
$DIMLTYPE
  6

  9
$DIMLTEX1
  6

  9
$DIMLTEX2
  6

  9
$DIMTXTDIRECTION
 70
     0
  9
$LUNITS
 70
     2
  9
$LUPREC
 70
     4
  9
$SKETCHINC
 40
1.0
  9
$FILLETRAD
 40
0.0
  9
$AUNITS
 70
     0
  9
$AUPREC
 70
     0
  9
$MENU
  1
.
  9
$ELEVATION
 40
0.0
  9
$PELEVATION
 40
0.0
  9
$THICKNESS
 40
0.0
  9
$LIMCHECK
 70
     0
  9
$CHAMFERA
 40
0.0
  9
$CHAMFERB
 40
0.0
  9
$CHAMFERC
 40
0.0
  9
$CHAMFERD
 40
0.0
  9
$SKPOLY
 70
     0
  9
$TDCREATE
 40
2459202.698807871
  9
$TDUCREATE
 40
2459202.365474537
  9
$TDUPDATE
 40
2459202.698807871
  9
$TDUUPDATE
 40
2459202.365474537
  9
$TDINDWG
 40
0.0001273148
  9
$TDUSRTIMER
 40
0.0001273148
  9
$USRTIMER
 70
     1
  9
$ANGBASE
 50
0.0
  9
$ANGDIR
 70
     0
  9
$PDMODE
 70
     0
  9
$PDSIZE
 40
0.0
  9
$PLINEWID
 40
0.0
  9
$SPLFRAME
 70
     0
  9
$SPLINETYPE
 70
     6
  9
$SPLINESEGS
 70
     8
  9
$HANDSEED
  5
2B7
  9
$SURFTAB1
 70
     6
  9
$SURFTAB2
 70
     6
  9
$SURFTYPE
 70
     6
  9
$SURFU
 70
     6
  9
$SURFV
 70
     6
  9
$UCSBASE
  2

  9
$UCSNAME
  2

  9
$UCSORG
 10
0.0
 20
0.0
 30
0.0
  9
$UCSXDIR
 10
1.0
 20
0.0
 30
0.0
  9
$UCSYDIR
 10
0.0
 20
1.0
 30
0.0
  9
$UCSORTHOREF
  2

  9
$UCSORTHOVIEW
 70
     0
  9
$UCSORGTOP
 10
0.0
 20
0.0
 30
0.0
  9
$UCSORGBOTTOM
 10
0.0
 20
0.0
 30
0.0
  9
$UCSORGLEFT
 10
0.0
 20
0.0
 30
0.0
  9
$UCSORGRIGHT
 10
0.0
 20
0.0
 30
0.0
  9
$UCSORGFRONT
 10
0.0
 20
0.0
 30
0.0
  9
$UCSORGBACK
 10
0.0
 20
0.0
 30
0.0
  9
$PUCSBASE
  2

  9
$PUCSNAME
  2

  9
$PUCSORG
 10
0.0
 20
0.0
 30
0.0
  9
$PUCSXDIR
 10
1.0
 20
0.0
 30
0.0
  9
$PUCSYDIR
 10
0.0
 20
1.0
 30
0.0
  9
$PUCSORTHOREF
  2

  9
$PUCSORTHOVIEW
 70
     0
  9
$PUCSORGTOP
 10
0.0
 20
0.0
 30
0.0
  9
$PUCSORGBOTTOM
 10
0.0
 20
0.0
 30
0.0
  9
$PUCSORGLEFT
 10
0.0
 20
0.0
 30
0.0
  9
$PUCSORGRIGHT
 10
0.0
 20
0.0
 30
0.0
  9
$PUCSORGFRONT
 10
0.0
 20
0.0
 30
0.0
  9
$PUCSORGBACK
 10
0.0
 20
0.0
 30
0.0
  9
$USERI1
 70
     0
  9
$USERI2
 70
     0
  9
$USERI3
 70
     0
  9
$USERI4
 70
     0
  9
$USERI5
 70
     0
  9
$USERR1
 40
0.0
  9
$USERR2
 40
0.0
  9
$USERR3
 40
0.0
  9
$USERR4
 40
0.0
  9
$USERR5
 40
0.0
  9
$WORLDVIEW
 70
     1
  9
$SHADEDGE
 70
     3
  9
$SHADEDIF
 70
    70
  9
$TILEMODE
 70
     1
  9
$MAXACTVP
 70
    64
  9
$PINSBASE
 10
0.0
 20
0.0
 30
0.0
  9
$PLIMCHECK
 70
     0
  9
$PEXTMIN
 10
0.0
 20
0.0
 30
0.0
  9
$PEXTMAX
 10
0.0
 20
0.0
 30
0.0
  9
$PLIMMIN
 10
0.0
 20
0.0
  9
$PLIMMAX
 10
12.0
 20
9.0
  9
$UNITMODE
 70
     0
  9
$VISRETAIN
 70
     1
  9
$PLINEGEN
 70
     0
  9
$PSLTSCALE
 70
     1
  9
$TREEDEPTH
 70
  3020
  9
$CMLSTYLE
  2
Standard
  9
$CMLJUST
 70
     0
  9
$CMLSCALE
 40
20.0
  9
$PROXYGRAPHICS
 70
     1
  9
$MEASUREMENT
 70
     1
  9
$CELWEIGHT
370
    -1
  9
$ENDCAPS
280
     0
  9
$JOINSTYLE
280
     0
  9
$LWDISPLAY
290
     0
  9
$INSUNITS
 70
     4
  9
$HYPERLINKBASE
  1

  9
$STYLESHEET
  1

  9
$XEDIT
290
     1
  9
$CEPSNTYPE
380
     0
  9
$PSTYLEMODE
290
     1
  9
$FINGERPRINTGUID
  2
{66D4277D-CA2D-8D4D-A234-4A07D9E92466}
  9
$VERSIONGUID
  2
{0884754D-1740-0B47-BF07-D960D6583E1A}
  9
$EXTNAMES
290
     1
  9
$PSVPSCALE
 40
0.0
  9
$OLESTARTUP
290
     0
  9
$SORTENTS
280
   127
  9
$INDEXCTL
280
     0
  9
$HIDETEXT
280
     1
  9
$XCLIPFRAME
280
     2
  9
$HALOGAP
280
     0
  9
$OBSCOLOR
 70
   257
  9
$OBSLTYPE
280
     0
  9
$INTERSECTIONDISPLAY
280
     0
  9
$INTERSECTIONCOLOR
 70
   257
  9
$DIMASSOC
280
     2
  9
$PROJECTNAME
  1

  9
$CAMERADISPLAY
290
     0
  9
$LENSLENGTH
 40
50.0
  9
$CAMERAHEIGHT
 40
0.0
  9
$STEPSPERSEC
 40
2.0
  9
$STEPSIZE
 40
6.0
  9
$3DDWFPREC
 40
2.0
  9
$PSOLWIDTH
 40
5.0
  9
$PSOLHEIGHT
 40
80.0
  9
$LOFTANG1
 40
1.570796326794896
  9
$LOFTANG2
 40
1.570796326794896
  9
$LOFTMAG1
 40
0.0
  9
$LOFTMAG2
 40
0.0
  9
$LOFTPARAM
 70
     7
  9
$LOFTNORMALS
280
     1
  9
$LATITUDE
 40
37.795
  9
$LONGITUDE
 40
-122.394
  9
$NORTHDIRECTION
 40
0.0
  9
$TIMEZONE
 70
 -8000
  9
$LIGHTGLYPHDISPLAY
280
     1
  9
$TILEMODELIGHTSYNCH
280
     1
  9
$CMATERIAL
347
38
  9
$SOLIDHIST
280
     0
  9
$SHOWHIST
280
     1
  9
$DWFFRAME
280
     2
  9
$DGNFRAME
280
     0
  9
$REALWORLDSCALE
290
     1
  9
$INTERFERECOLOR
 62
     1
  9
$INTERFEREOBJVS
345
45
  9
$INTERFEREVPVS
346
46
  9
$CSHADOW
280
     0
  9
$SHADOWPLANELOCATION
 40
0.0
  0
ENDSEC
  0
SECTION
  2
CLASSES
  0
CLASS
  1
ACDBDICTIONARYWDFLT
  2
AcDbDictionaryWithDefault
  3
ObjectDBX Classes
 90
        0
 91
        1
280
     0
281
     0
  0
CLASS
  1
DICTIONARYVAR
  2
AcDbDictionaryVar
  3
ObjectDBX Classes
 90
        0
 91
        5
280
     0
281
     0
  0
CLASS
  1
TABLESTYLE
  2
AcDbTableStyle
  3
ObjectDBX Classes
 90
     4095
 91
        1
280
     0
281
     0
  0
CLASS
  1
MATERIAL
  2
AcDbMaterial
  3
ObjectDBX Classes
 90
     1153
 91
        3
280
     0
281
     0
  0
CLASS
  1
VISUALSTYLE
  2
AcDbVisualStyle
  3
ObjectDBX Classes
 90
     4095
 91
        3
280
     0
281
     0
  0
CLASS
  1
SCALE
  2
AcDbScale
  3
ObjectDBX Classes
 90
     1153
 91
       17
280
     0
281
     0
  0
CLASS
  1
MLEADERSTYLE
  2
AcDbMLeaderStyle
  3
ACDB_MLEADERSTYLE_CLASS
 90
     4095
 91
        0
280
     0
281
     0
  0
CLASS
  1
CELLSTYLEMAP
  2
AcDbCellStyleMap
  3
ObjectDBX Classes
 90
     1152
 91
        1
280
     0
281
     0
  0
CLASS
  1
EXACXREFPANELOBJECT
  2
ExAcXREFPanelObject
  3
EXAC_ESW
 90
     1025
 91
        0
280
     1
281
     0
  0
CLASS
  1
NPOCOLLECTION
  2
AcDbImpNonPersistentObjectsCollection
  3
ObjectDBX Classes
 90
     1153
 91
        0
280
     0
281
     0
  0
CLASS
  1
LAYER_INDEX
  2
AcDbLayerIndex
  3
ObjectDBX Classes
 90
        0
 91
        0
280
     0
281
     0
  0
CLASS
  1
SPATIAL_INDEX
  2
AcDbSpatialIndex
  3
ObjectDBX Classes
 90
        0
 91
        0
280
     0
281
     0
  0
CLASS
  1
IDBUFFER
  2
AcDbIdBuffer
  3
ObjectDBX Classes
 90
        0
 91
        0
280
     0
281
     0
  0
CLASS
  1
ACDBSECTIONVIEWSTYLE
  2
AcDbSectionViewStyle
  3
ObjectDBX Classes
 90
     1025
 91
        0
280
     0
281
     0
  0
CLASS
  1
ACDBDETAILVIEWSTYLE
  2
AcDbDetailViewStyle
  3
ObjectDBX Classes
 90
     1025
 91
        0
280
     0
281
     0
  0
ENDSEC
  0
SECTION
  2
TABLES
  0
TABLE
  2
VPORT
  5
28
330
0
100
AcDbSymbolTable
 70
     1
  0
VPORT
  5
29
330
28
100
AcDbSymbolTableRecord
100
AcDbViewportTableRecord
  2
*Active
 70
     0
 10
0.0
 20
0.0
 11
1.0
 21
1.0
 12
519.9210802181806
 22
305.1307602540716
 13
0.0
 23
0.0
 14
10.0
 24
10.0
 15
10.0
 25
10.0
 16
0.0
 26
0.0
 36
1.0
 17
0.0
 27
0.0
 37
0.0
 40
254.651333590807
 41
2.070631970260222
 42
50.0
 43
0.0
 44
0.0
 50
0.0
 51
0.0
 71
     0
 72
  1000
 73
     1
 74
     3
 75
     0
 76
     1
 77
     0
 78
     0
281
     0
 65
     1
110
0.0
120
0.0
130
0.0
111
1.0
121
0.0
131
0.0
112
0.0
122
1.0
132
0.0
 79
     0
146
0.0
348
2A
 60
     3
 61
     5
292
     1
282
     1
141
0.0
142
0.0
 63
   250
421
  3355443
1001
ACAD_NAV_VCDISPLAY
1070
     3
  0
ENDTAB
  0
TABLE
  2
LTYPE
  5
23
330
0
100
AcDbSymbolTable
 70
     1
  0
LTYPE
  5
24
330
23
100
AcDbSymbolTableRecord
100
AcDbLinetypeTableRecord
  2
ByBlock
 70
     0
  3

 72
    65
 73
     0
 40
0.0
  0
LTYPE
  5
25
330
23
100
AcDbSymbolTableRecord
100
AcDbLinetypeTableRecord
  2
ByLayer
 70
     0
  3

 72
    65
 73
     0
 40
0.0
  0
LTYPE
  5
13
330
23
100
AcDbSymbolTableRecord
100
AcDbLinetypeTableRecord
  2
Continuous
 70
     0
  3
Solid line
 72
    65
 73
     0
 40
0.0
  0
ENDTAB
  0
TABLE
  2
LAYER
  5
1D
102
{ACAD_XDICTIONARY
360
1E
102
}
330
0
100
AcDbSymbolTable
 70
     2
  0
LAYER
  5
5
102
{ACAD_XDICTIONARY
360
6
102
}
330
1D
100
AcDbSymbolTableRecord
100
AcDbLayerTableRecord
  2
0
 70
     0
 62
     7
  6
Continuous
370
    -3
390
7
347
A
348
0
  0
LAYER
  5
152
330
1D
100
AcDbSymbolTableRecord
100
AcDbLayerTableRecord
  2
_U+56FE_U+5C42 1
 70
     0
 62
     7
  6
Continuous
370
    -3
390
7
347
A
348
0
  0
ENDTAB
  0
TABLE
  2
STYLE
  5
20
330
0
100
AcDbSymbolTable
 70
     1
  0
STYLE
  5
21
330
20
100
AcDbSymbolTableRecord
100
AcDbTextStyleTableRecord
  2
Standard
 70
     0
 40
0.0
 41
1.0
 50
0.0
 71
     0
 42
2.5
  3
arial.ttf
  4

1001
ACAD
1000
Arial
1071
       34
  0
ENDTAB
  0
TABLE
  2
VIEW
  5
26
330
0
100
AcDbSymbolTable
 70
     0
  0
ENDTAB
  0
TABLE
  2
UCS
  5
27
330
0
100
AcDbSymbolTable
 70
     0
  0
ENDTAB
  0
TABLE
  2
APPID
  5
2D
330
0
100
AcDbSymbolTable
 70
     6
  0
APPID
  5
12
330
2D
100
AcDbSymbolTableRecord
100
AcDbRegAppTableRecord
  2
ACAD
 70
     0
  0
APPID
  5
18
330
2D
100
AcDbSymbolTableRecord
100
AcDbRegAppTableRecord
  2
ACAD_PSEXT
 70
     0
  0
APPID
  5
31
330
2D
100
AcDbSymbolTableRecord
100
AcDbRegAppTableRecord
  2
AcadAnnotative
 70
     0
  0
APPID
  5
32
330
2D
100
AcDbSymbolTableRecord
100
AcDbRegAppTableRecord
  2
ACAD_DSTYLE_DIMJAG
 70
     0
  0
APPID
  5
33
330
2D
100
AcDbSymbolTableRecord
100
AcDbRegAppTableRecord
  2
ACAD_DSTYLE_DIMTALN
 70
     0
  0
APPID
  5
2C
330
2D
100
AcDbSymbolTableRecord
100
AcDbRegAppTableRecord
  2
ACAD_NAV_VCDISPLAY
 70
     0
  0
ENDTAB
  0
TABLE
  2
DIMSTYLE
  5
2E
330
0
100
AcDbSymbolTable
 70
     2
100
AcDbDimStyleTable
 71
     2
340
2F
340
30
  0
DIMSTYLE
105
30
330
2E
100
AcDbSymbolTableRecord
100
AcDbDimStyleTableRecord
  2
Annotative
 70
     0
 40
0.0
 41
2.5
 42
0.625
 43
3.75
 44
1.25
 73
     0
 74
     0
 77
     1
 78
     8
140
2.5
141
2.5
143
0.03937007874016
147
0.625
171
     3
172
     1
271
     2
272
     2
274
     3
278
    44
283
     0
284
     8
340
21
1001
AcadAnnotative
1000
AnnotativeData
1002
{
1070
     1
1070
     1
1002
}
1001
ACAD_DSTYLE_DIMJAG
1070
   388
1040
1.5
1001
ACAD_DSTYLE_DIMTALN
1070
   392
1070
     0
  0
DIMSTYLE
105
2F
330
2E
100
AcDbSymbolTableRecord
100
AcDbDimStyleTableRecord
  2
ISO-25
 70
     0
 41
2.5
 42
0.625
 43
3.75
 44
1.25
 73
     0
 74
     0
 77
     1
 78
     8
140
2.5
141
2.5
143
0.03937007874016
147
0.625
171
     3
172
     1
271
     2
272
     2
274
     3
278
    44
283
     0
284
     8
340
21
  0
ENDTAB
  0
TABLE
  2
BLOCK_RECORD
  5
1
330
0
100
AcDbSymbolTable
 70
    42
  0
BLOCK_RECORD
  5
2
102
{ACAD_XDICTIONARY
360
3
102
}
330
1
100
AcDbSymbolTableRecord
100
AcDbBlockTableRecord
  2
*Model_Space
340
15
 70
     0
280
     1
281
     0
  0
BLOCK_RECORD
  5
19
330
1
100
AcDbSymbolTableRecord
100
AcDbBlockTableRecord
  2
*Paper_Space
340
1C
 70
     0
280
     1
281
     0
  0
BLOCK_RECORD
  5
153
330
1
100
AcDbSymbolTableRecord
100
AcDbBlockTableRecord
  2
block 2
340
0
102
{BLKREFS
331
151
102
}
 70
     0
280
     1
281
     0
  0
BLOCK_RECORD
  5
15B
330
1
100
AcDbSymbolTableRecord
100
AcDbBlockTableRecord
  2
block 3
340
0
102
{BLKREFS
331
15A
102
}
 70
     0
280
     1
281
     0
  0
BLOCK_RECORD
  5
163
330
1
100
AcDbSymbolTableRecord
100
AcDbBlockTableRecord
  2
block 7
340
0
102
{BLKREFS
331
162
102
}
 70
     0
280
     1
281
     0
  0
BLOCK_RECORD
  5
16B
330
1
100
AcDbSymbolTableRecord
100
AcDbBlockTableRecord
  2
block 8
340
0
102
{BLKREFS
331
16A
102
}
 70
     0
280
     1
281
     0
  0
BLOCK_RECORD
  5
173
330
1
100
AcDbSymbolTableRecord
100
AcDbBlockTableRecord
  2
block 9
340
0
102
{BLKREFS
331
172
102
}
 70
     0
280
     1
281
     0
  0
BLOCK_RECORD
  5
178
330
1
100
AcDbSymbolTableRecord
100
AcDbBlockTableRecord
  2
block 15
340
0
102
{BLKREFS
331
177
102
}
 70
     0
280
     1
281
     0
  0
BLOCK_RECORD
  5
17D
330
1
100
AcDbSymbolTableRecord
100
AcDbBlockTableRecord
  2
block 28
340
0
102
{BLKREFS
331
17C
102
}
 70
     0
280
     1
281
     0
  0
BLOCK_RECORD
  5
185
330
1
100
AcDbSymbolTableRecord
100
AcDbBlockTableRecord
  2
block 225
340
0
102
{BLKREFS
331
184
102
}
 70
     0
280
     1
281
     0
  0
BLOCK_RECORD
  5
18A
330
1
100
AcDbSymbolTableRecord
100
AcDbBlockTableRecord
  2
block 226
340
0
102
{BLKREFS
331
189
102
}
 70
     0
280
     1
281
     0
  0
BLOCK_RECORD
  5
18F
330
1
100
AcDbSymbolTableRecord
100
AcDbBlockTableRecord
  2
block 227
340
0
102
{BLKREFS
331
18E
102
}
 70
     0
280
     1
281
     0
  0
BLOCK_RECORD
  5
194
330
1
100
AcDbSymbolTableRecord
100
AcDbBlockTableRecord
  2
block 228
340
0
102
{BLKREFS
331
193
102
}
 70
     0
280
     1
281
     0
  0
BLOCK_RECORD
  5
199
330
1
100
AcDbSymbolTableRecord
100
AcDbBlockTableRecord
  2
block 229
340
0
102
{BLKREFS
331
198
102
}
 70
     0
280
     1
281
     0
  0
BLOCK_RECORD
  5
19E
330
1
100
AcDbSymbolTableRecord
100
AcDbBlockTableRecord
  2
block 230
340
0
102
{BLKREFS
331
19D
102
}
 70
     0
280
     1
281
     0
  0
BLOCK_RECORD
  5
1A3
330
1
100
AcDbSymbolTableRecord
100
AcDbBlockTableRecord
  2
block 231
340
0
102
{BLKREFS
331
1A2
102
}
 70
     0
280
     1
281
     0
  0
BLOCK_RECORD
  5
1A8
330
1
100
AcDbSymbolTableRecord
100
AcDbBlockTableRecord
  2
block 232
340
0
102
{BLKREFS
331
1A7
102
}
 70
     0
280
     1
281
     0
  0
BLOCK_RECORD
  5
1AD
330
1
100
AcDbSymbolTableRecord
100
AcDbBlockTableRecord
  2
block 233
340
0
102
{BLKREFS
331
1AC
102
}
 70
     0
280
     1
281
     0
  0
BLOCK_RECORD
  5
1B2
330
1
100
AcDbSymbolTableRecord
100
AcDbBlockTableRecord
  2
block 242
340
0
102
{BLKREFS
331
1B1
102
}
 70
     0
280
     1
281
     0
  0
BLOCK_RECORD
  5
1B7
330
1
100
AcDbSymbolTableRecord
100
AcDbBlockTableRecord
  2
block 243
340
0
102
{BLKREFS
331
1B6
102
}
 70
     0
280
     1
281
     0
  0
BLOCK_RECORD
  5
1BC
330
1
100
AcDbSymbolTableRecord
100
AcDbBlockTableRecord
  2
block 244
340
0
102
{BLKREFS
331
1BB
102
}
 70
     0
280
     1
281
     0
  0
BLOCK_RECORD
  5
1C1
330
1
100
AcDbSymbolTableRecord
100
AcDbBlockTableRecord
  2
block 253
340
0
102
{BLKREFS
331
1C0
102
}
 70
     0
280
     1
281
     0
  0
BLOCK_RECORD
  5
1C6
330
1
100
AcDbSymbolTableRecord
100
AcDbBlockTableRecord
  2
block 254
340
0
102
{BLKREFS
331
1C5
102
}
 70
     0
280
     1
281
     0
  0
BLOCK_RECORD
  5
1CB
330
1
100
AcDbSymbolTableRecord
100
AcDbBlockTableRecord
  2
block 255
340
0
102
{BLKREFS
331
1CA
102
}
 70
     0
280
     1
281
     0
  0
BLOCK_RECORD
  5
1D0
330
1
100
AcDbSymbolTableRecord
100
AcDbBlockTableRecord
  2
block 256
340
0
102
{BLKREFS
331
1CF
102
}
 70
     0
280
     1
281
     0
  0
BLOCK_RECORD
  5
1D5
330
1
100
AcDbSymbolTableRecord
100
AcDbBlockTableRecord
  2
block 257
340
0
102
{BLKREFS
331
1D4
102
}
 70
     0
280
     1
281
     0
  0
BLOCK_RECORD
  5
1DA
330
1
100
AcDbSymbolTableRecord
100
AcDbBlockTableRecord
  2
block 258
340
0
102
{BLKREFS
331
1D9
102
}
 70
     0
280
     1
281
     0
  0
BLOCK_RECORD
  5
1DF
330
1
100
AcDbSymbolTableRecord
100
AcDbBlockTableRecord
  2
block 259
340
0
102
{BLKREFS
331
1DE
102
}
 70
     0
280
     1
281
     0
  0
BLOCK_RECORD
  5
1E4
330
1
100
AcDbSymbolTableRecord
100
AcDbBlockTableRecord
  2
block 260
340
0
102
{BLKREFS
331
1E3
102
}
 70
     0
280
     1
281
     0
  0
BLOCK_RECORD
  5
1E9
330
1
100
AcDbSymbolTableRecord
100
AcDbBlockTableRecord
  2
block 261
340
0
102
{BLKREFS
331
1E8
102
}
 70
     0
280
     1
281
     0
  0
BLOCK_RECORD
  5
1EE
330
1
100
AcDbSymbolTableRecord
100
AcDbBlockTableRecord
  2
block 262
340
0
102
{BLKREFS
331
1ED
102
}
 70
     0
280
     1
281
     0
  0
BLOCK_RECORD
  5
1F3
330
1
100
AcDbSymbolTableRecord
100
AcDbBlockTableRecord
  2
block 263
340
0
102
{BLKREFS
331
1F2
102
}
 70
     0
280
     1
281
     0
  0
BLOCK_RECORD
  5
1F8
330
1
100
AcDbSymbolTableRecord
100
AcDbBlockTableRecord
  2
block 264
340
0
102
{BLKREFS
331
1F7
102
}
 70
     0
280
     1
281
     0
  0
BLOCK_RECORD
  5
1FD
330
1
100
AcDbSymbolTableRecord
100
AcDbBlockTableRecord
  2
block 266
340
0
102
{BLKREFS
331
1FC
102
}
 70
     0
280
     1
281
     0
  0
BLOCK_RECORD
  5
202
330
1
100
AcDbSymbolTableRecord
100
AcDbBlockTableRecord
  2
block 267
340
0
102
{BLKREFS
331
201
102
}
 70
     0
280
     1
281
     0
  0
BLOCK_RECORD
  5
207
330
1
100
AcDbSymbolTableRecord
100
AcDbBlockTableRecord
  2
block 601
340
0
102
{BLKREFS
331
206
102
}
 70
     0
280
     1
281
     0
  0
BLOCK_RECORD
  5
221
330
1
100
AcDbSymbolTableRecord
100
AcDbBlockTableRecord
  2
block 602
340
0
102
{BLKREFS
331
220
102
}
 70
     0
280
     1
281
     0
  0
BLOCK_RECORD
  5
239
330
1
100
AcDbSymbolTableRecord
100
AcDbBlockTableRecord
  2
block 619
340
0
102
{BLKREFS
331
238
102
}
 70
     0
280
     1
281
     0
  0
BLOCK_RECORD
  5
241
330
1
100
AcDbSymbolTableRecord
100
AcDbBlockTableRecord
  2
block 622
340
0
102
{BLKREFS
331
240
102
}
 70
     0
280
     1
281
     0
  0
BLOCK_RECORD
  5
249
330
1
100
AcDbSymbolTableRecord
100
AcDbBlockTableRecord
  2
block 695
340
0
102
{BLKREFS
331
248
102
}
 70
     0
280
     1
281
     0
  0
BLOCK_RECORD
  5
279
330
1
100
AcDbSymbolTableRecord
100
AcDbBlockTableRecord
  2
block 698
340
0
102
{BLKREFS
331
278
102
}
 70
     0
280
     1
281
     0
  0
BLOCK_RECORD
  5
27E
330
1
100
AcDbSymbolTableRecord
100
AcDbBlockTableRecord
  2
block 704
340
0
102
{BLKREFS
331
27D
102
}
 70
     0
280
     1
281
     0
  0
BLOCK_RECORD
  5
283
330
1
100
AcDbSymbolTableRecord
100
AcDbBlockTableRecord
  2
block 705
340
0
102
{BLKREFS
331
282
102
}
 70
     0
280
     1
281
     0
  0
BLOCK_RECORD
  5
28B
330
1
100
AcDbSymbolTableRecord
100
AcDbBlockTableRecord
  2
block 964
340
0
102
{BLKREFS
331
28A
102
}
 70
     0
280
     1
281
     0
  0
ENDTAB
  0
ENDSEC
  0
SECTION
  2
BLOCKS
  0
BLOCK
  5
4
330
2
100
AcDbEntity
  8
0
100
AcDbBlockBegin
  2
*Model_Space
 70
     0
 10
0.0
 20
0.0
 30
0.0
  3
*Model_Space
  1

  0
ENDBLK
  5
14
330
2
100
AcDbEntity
  8
0
100
AcDbBlockEnd
  0
BLOCK
  5
1A
330
19
100
AcDbEntity
 67
     1
  8
0
100
AcDbBlockBegin
  2
*Paper_Space
 70
     0
 10
0.0
 20
0.0
 30
0.0
  3
*Paper_Space
  1

  0
ENDBLK
  5
1B
330
19
100
AcDbEntity
 67
     1
  8
0
100
AcDbBlockEnd
  0
BLOCK
  5
154
330
153
100
AcDbEntity
  8
0
100
AcDbBlockBegin
  2
block 2
 70
     0
 10
0.0
 20
0.0
 30
0.0
  3
block 2
  1

  0
POLYLINE
  5
155
330
153
100
AcDbEntity
  8
_U+56FE_U+5C42 1
 62
     7
370
     5
100
AcDb2dPolyline
 66
     1
 10
0.0
 20
0.0
 30
0.0
  0
VERTEX
  5
156
330
155
100
AcDbEntity
  8
_U+56FE_U+5C42 1
 62
     7
370
     5
100
AcDbVertex
100
AcDb2dVertex
 10
102.3191338442776
 20
-165.4624921773004
 30
0.0
  0
VERTEX
  5
157
330
155
100
AcDbEntity
  8
_U+56FE_U+5C42 1
 62
     7
370
     5
100
AcDbVertex
100
AcDb2dVertex
 10
104.5513772838073
 20
-164.4039108936711
 30
0.0
  0
SEQEND
  5
158
330
155
100
AcDbEntity
  8
_U+56FE_U+5C42 1
 62
     7
370
     5
  0
ENDBLK
  5
159
330
153
100
AcDbEntity
  8
0
100
AcDbBlockEnd
  0
BLOCK
  5
15C
330
15B
100
AcDbEntity
  8
0
100
AcDbBlockBegin
  2
block 3
 70
     0
 10
0.0
 20
0.0
 30
0.0
  3
block 3
  1

  0
POLYLINE
  5
15D
330
15B
100
AcDbEntity
  8
_U+56FE_U+5C42 1
 62
     7
370
     5
100
AcDb2dPolyline
 66
     1
 10
0.0
 20
0.0
 30
0.0
  0
VERTEX
  5
15E
330
15D
100
AcDbEntity
  8
_U+56FE_U+5C42 1
 62
     7
370
     5
100
AcDbVertex
100
AcDb2dVertex
 10
99.40456925712078
 20
-150.0102901283613
 30
0.0
  0
VERTEX
  5
15F
330
15D
100
AcDbEntity
  8
_U+56FE_U+5C42 1
 62
     7
370
     5
100
AcDbVertex
100
AcDb2dVertex
 10
97.00722165628448
 20
-150.6071383336194
 30
0.0
  0
SEQEND
  5
160
330
15D
100
AcDbEntity
  8
_U+56FE_U+5C42 1
 62
     7
370
     5
  0
ENDBLK
  5
161
330
15B
100
AcDbEntity
  8
0
100
AcDbBlockEnd
  0
BLOCK
  5
164
330
163
100
AcDbEntity
  8
0
100
AcDbBlockBegin
  2
block 7
 70
     0
 10
0.0
 20
0.0
 30
0.0
  3
block 7
  1

  0
POLYLINE
  5
165
330
163
100
AcDbEntity
  8
_U+56FE_U+5C42 1
 62
     7
370
     5
100
AcDb2dPolyline
 66
     1
 10
0.0
 20
0.0
 30
0.0
  0
VERTEX
  5
166
330
165
100
AcDbEntity
  8
_U+56FE_U+5C42 1
 62
     7
370
     5
100
AcDbVertex
100
AcDb2dVertex
 10
106.3957308232277
 20
-163.5579478225524
 30
0.0
  0
VERTEX
  5
167
330
165
100
AcDbEntity
  8
_U+56FE_U+5C42 1
 62
     7
370
     5
100
AcDbVertex
100
AcDb2dVertex
 10
107.6836478439778
 20
-162.9808533497775
 30
0.0
  0
SEQEND
  5
168
330
165
100
AcDbEntity
  8
_U+56FE_U+5C42 1
 62
     7
370
     5
  0
ENDBLK
  5
169
330
163
100
AcDbEntity
  8
0
100
AcDbBlockEnd
  0
BLOCK
  5
16C
330
16B
100
AcDbEntity
  8
0
100
AcDbBlockBegin
  2
block 8
 70
     0
 10
0.0
 20
0.0
 30
0.0
  3
block 8
  1

  0
POLYLINE
  5
16D
330
16B
100
AcDbEntity
  8
_U+56FE_U+5C42 1
 62
     7
370
     5
100
AcDb2dPolyline
 66
     1
 10
0.0
 20
0.0
 30
0.0
  0
VERTEX
  5
16E
330
16D
100
AcDbEntity
  8
_U+56FE_U+5C42 1
 62
     7
370
     5
100
AcDbVertex
100
AcDb2dVertex
 10
102.7289878110388
 20
-149.1245950406808
 30
0.0
  0
VERTEX
  5
16F
330
16D
100
AcDbEntity
  8
_U+56FE_U+5C42 1
 62
     7
370
     5
100
AcDbVertex
100
AcDb2dVertex
 10
101.3671578663222
 20
-149.4949841235737
 30
0.0
  0
SEQEND
  5
170
330
16D
100
AcDbEntity
  8
_U+56FE_U+5C42 1
 62
     7
370
     5
  0
ENDBLK
  5
171
330
16B
100
AcDbEntity
  8
0
100
AcDbBlockEnd
  0
BLOCK
  5
174
330
173
100
AcDbEntity
  8
0
100
AcDbBlockBegin
  2
block 9
 70
     0
 10
0.0
 20
0.0
 30
0.0
  3
block 9
  1

  0
SPLINE
  5
175
330
173
100
AcDbEntity
  8
_U+56FE_U+5C42 1
 62
     7
370
     5
100
AcDbSpline
210
0.0
220
0.0
230
1.0
 70
     8
 71
     3
 72
    11
 73
     7
 74
     0
 42
0.000000001
 43
0.0000000001
 40
0.0
 40
0.0
 40
0.0
 40
0.0
 40
1.0
 40
1.0
 40
1.0
 40
2.0
 40
2.0
 40
2.0
 40
2.0
 10
107.706133362806
 20
-162.9667195914947
 30
0.0
 10
107.8312915864904
 20
-162.9086741245451
 30
0.0
 10
107.9564498101761
 20
-162.8506286575955
 30
0.0
 10
108.0771856713219
 20
-162.7841085741423
 30
0.0
 10
108.2092313478707
 20
-162.7113572859971
 30
0.0
 10
108.3359873353278
 20
-162.6284693150089
 30
0.0
 10
108.4627433227855
 20
-162.5455813440207
 30
0.0
  0
ENDBLK
  5
176
330
173
100
AcDbEntity
  8
0
100
AcDbBlockEnd
  0
BLOCK
  5
179
330
178
100
AcDbEntity
  8
0
100
AcDbBlockBegin
  2
block 15
 70
     0
 10
0.0
 20
0.0
 30
0.0
  3
block 15
  1

  0
SPLINE
  5
17A
330
178
100
AcDbEntity
  8
_U+56FE_U+5C42 1
 62
     7
370
     5
100
AcDbSpline
210
0.0
220
0.0
230
1.0
 70
     8
 71
     3
 72
    14
 73
    10
 74
     0
 42
0.000000001
 43
0.0000000001
 40
0.0
 40
0.0
 40
0.0
 40
0.0
 40
1.0
 40
1.0
 40
1.0
 40
2.0
 40
2.0
 40
2.0
 40
3.0
 40
3.0
 40
3.0
 40
3.0
 10
103.6327284092818
 20
-148.9674356026205
 30
0.0
 10
103.5872309014153
 20
-148.9701416036135
 30
0.0
 10
103.5417333935488
 20
-148.9728476046064
 30
0.0
 10
103.4963573351896
 20
-148.9766337784479
 30
0.0
 10
103.3263024613648
 20
-148.9908231403766
 30
0.0
 10
103.1579533572174
 20
-149.0201836308542
 30
0.0
 10
102.9927446802282
 20
-149.0602145393127
 30
0.0
 10
102.9002921074669
 20
-149.082616271138
 30
0.0
 10
102.8088230044855
 20
-149.1083595973101
 30
0.0
 10
102.7173539015054
 20
-149.1341029234817
 30
0.0
  0
ENDBLK
  5
17B
330
178
100
AcDbEntity
  8
0
100
AcDbBlockEnd
  0
BLOCK
  5
17E
330
17D
100
AcDbEntity
  8
0
100
AcDbBlockBegin
  2
block 28
 70
     0
 10
0.0
 20
0.0
 30
0.0
  3
block 28
  1

  0
POLYLINE
  5
17F
330
17D
100
AcDbEntity
  8
_U+56FE_U+5C42 1
 62
     7
370
     5
100
AcDb2dPolyline
 66
     1
 10
0.0
 20
0.0
 30
0.0
  0
VERTEX
  5
180
330
17F
100
AcDbEntity
  8
_U+56FE_U+5C42 1
 62
     7
370
     5
100
AcDbVertex
100
AcDb2dVertex
 10
100.3969726689301
 20
-163.0540739253494
 30
0.0
  0
VERTEX
  5
181
330
17F
100
AcDbEntity
  8
_U+56FE_U+5C42 1
 62
     7
370
     5
100
AcDbVertex
100
AcDb2dVertex
 10
100.4250967128228
 20
-163.0483376172189
 30
0.0
  0
SEQEND
  5
182
330
17F
100
AcDbEntity
  8
_U+56FE_U+5C42 1
 62
     7
370
     5
  0
ENDBLK
  5
183
330
17D
100
AcDbEntity
  8
0
100
AcDbBlockEnd
  0
BLOCK
  5
186
330
185
100
AcDbEntity
  8
0
100
AcDbBlockBegin
  2
block 225
 70
     0
 10
0.0
 20
0.0
 30
0.0
  3
block 225
  1

  0
SPLINE
  5
187
330
185
100
AcDbEntity
  8
_U+56FE_U+5C42 1
 62
     7
370
     5
100
AcDbSpline
210
0.0
220
0.0
230
1.0
 70
     8
 71
     3
 72
     8
 73
     4
 74
     0
 42
0.000000001
 43
0.0000000001
 40
0.0
 40
0.0
 40
0.0
 40
0.0
 40
1.0
 40
1.0
 40
1.0
 40
1.0
 10
97.33052914807275
 20
-161.5323262352418
 30
0.0
 10
97.4247286905487
 20
-161.6598292009233
 30
0.0
 10
97.52263193493476
 20
-161.7845538231361
 30
0.0
 10
97.624113672738
 20
-161.9063405915184
 30
0.0
  0
ENDBLK
  5
188
330
185
100
AcDbEntity
  8
0
100
AcDbBlockEnd
  0
BLOCK
  5
18B
330
18A
100
AcDbEntity
  8
0
100
AcDbBlockBegin
  2
block 226
 70
     0
 10
0.0
 20
0.0
 30
0.0
  3
block 226
  1

  0
SPLINE
  5
18C
330
18A
100
AcDbEntity
  8
_U+56FE_U+5C42 1
 62
     7
370
     5
100
AcDbSpline
210
0.0
220
0.0
230
1.0
 70
     8
 71
     3
 72
     8
 73
     4
 74
     0
 42
0.000000001
 43
0.0000000001
 40
0.0
 40
0.0
 40
0.0
 40
0.0
 40
1.0
 40
1.0
 40
1.0
 40
1.0
 10
97.05653299884277
 20
-161.1383314021548
 30
0.0
 10
97.1440816861377
 20
-161.2722540549258
 30
0.0
 10
97.23545125845696
 20
-161.403639621828
 30
0.0
 10
97.3305291480824
 20
-161.5323262352585
 30
0.0
  0
ENDBLK
  5
18D
330
18A
100
AcDbEntity
  8
0
100
AcDbBlockEnd
  0
BLOCK
  5
190
330
18F
100
AcDbEntity
  8
0
100
AcDbBlockBegin
  2
block 227
 70
     0
 10
0.0
 20
0.0
 30
0.0
  3
block 227
  1

  0
SPLINE
  5
191
330
18F
100
AcDbEntity
  8
_U+56FE_U+5C42 1
 62
     7
370
     5
100
AcDbSpline
210
0.0
220
0.0
230
1.0
 70
     8
 71
     3
 72
     8
 73
     4
 74
     0
 42
0.000000001
 43
0.0000000001
 40
0.0
 40
0.0
 40
0.0
 40
0.0
 40
1.0
 40
1.0
 40
1.0
 40
1.0
 10
96.80345932111382
 20
-160.7262756483678
 30
0.0
 10
96.88392226922374
 20
-160.8659820367589
 30
0.0
 10
96.96831378749472
 20
-161.0033887042133
 30
0.0
 10
97.05653299882158
 20
-161.138331402158
 30
0.0
  0
ENDBLK
  5
192
330
18F
100
AcDbEntity
  8
0
100
AcDbBlockEnd
  0
BLOCK
  5
195
330
194
100
AcDbEntity
  8
0
100
AcDbBlockBegin
  2
block 228
 70
     0
 10
0.0
 20
0.0
 30
0.0
  3
block 228
  1

  0
SPLINE
  5
196
330
194
100
AcDbEntity
  8
_U+56FE_U+5C42 1
 62
     7
370
     5
100
AcDbSpline
210
0.0
220
0.0
230
1.0
 70
     8
 71
     3
 72
     8
 73
     4
 74
     0
 42
0.000000001
 43
0.0000000001
 40
0.0
 40
0.0
 40
0.0
 40
0.0
 40
1.0
 40
1.0
 40
1.0
 40
1.0
 10
96.57254240029271
 20
-160.2981665474017
 30
0.0
 10
96.64551732181843
 20
-160.4429898552694
 30
0.0
 10
96.72251960158428
 20
-160.5857484571191
 30
0.0
 10
96.80345932112087
 20
-160.7262756483485
 30
0.0
  0
ENDBLK
  5
197
330
194
100
AcDbEntity
  8
0
100
AcDbBlockEnd
  0
BLOCK
  5
19A
330
199
100
AcDbEntity
  8
0
100
AcDbBlockBegin
  2
block 229
 70
     0
 10
0.0
 20
0.0
 30
0.0
  3
block 229
  1

  0
SPLINE
  5
19B
330
199
100
AcDbEntity
  8
_U+56FE_U+5C42 1
 62
     7
370
     5
100
AcDbSpline
210
0.0
220
0.0
230
1.0
 70
     8
 71
     3
 72
     8
 73
     4
 74
     0
 42
0.000000001
 43
0.0000000001
 40
0.0
 40
0.0
 40
0.0
 40
0.0
 40
1.0
 40
1.0
 40
1.0
 40
1.0
 10
96.36490603156468
 20
-159.856092052053
 30
0.0
 10
96.43002570449636
 20
-160.0053379272628
 30
0.0
 10
96.49926434607259
 20
-160.1527525527678
 30
0.0
 10
96.5725424002786
 20
-160.2981665474242
 30
0.0
  0
ENDBLK
  5
19C
330
199
100
AcDbEntity
  8
0
100
AcDbBlockEnd
  0
BLOCK
  5
19F
330
19E
100
AcDbEntity
  8
0
100
AcDbBlockBegin
  2
block 230
 70
     0
 10
0.0
 20
0.0
 30
0.0
  3
block 230
  1

  0
SPLINE
  5
1A0
330
19E
100
AcDbEntity
  8
_U+56FE_U+5C42 1
 62
     7
370
     5
100
AcDbSpline
210
0.0
220
0.0
230
1.0
 70
     8
 71
     3
 72
     8
 73
     4
 74
     0
 42
0.000000001
 43
0.0000000001
 40
0.0
 40
0.0
 40
0.0
 40
0.0
 40
1.0
 40
1.0
 40
1.0
 40
1.0
 10
96.18156269863376
 20
-159.4022030811869
 30
0.0
 10
96.23849722177915
 20
-159.5551544422206
 30
0.0
 10
96.2996348603297
 20
-159.70650818602
 30
0.0
 10
96.36490603157817
 20
-159.856092052035
 30
0.0
  0
ENDBLK
  5
1A1
330
19E
100
AcDbEntity
  8
0
100
AcDbBlockEnd
  0
BLOCK
  5
1A4
330
1A3
100
AcDbEntity
  8
0
100
AcDbBlockBegin
  2
block 231
 70
     0
 10
0.0
 20
0.0
 30
0.0
  3
block 231
  1

  0
SPLINE
  5
1A5
330
1A3
100
AcDbEntity
  8
_U+56FE_U+5C42 1
 62
     7
370
     5
100
AcDbSpline
210
0.0
220
0.0
230
1.0
 70
     8
 71
     3
 72
     8
 73
     4
 74
     0
 42
0.000000001
 43
0.0000000001
 40
0.0
 40
0.0
 40
0.0
 40
0.0
 40
1.0
 40
1.0
 40
1.0
 40
1.0
 10
96.02340453713836
 20
-158.9387107277815
 30
0.0
 10
96.07186129688408
 20
-159.0946300497285
 30
0.0
 10
96.1246006557541
 20
-159.249186029207
 30
0.0
 10
96.18156269861325
 20
-159.4022030811805
 30
0.0
  0
ENDBLK
  5
1A6
330
1A3
100
AcDbEntity
  8
0
100
AcDbBlockEnd
  0
BLOCK
  5
1A9
330
1A8
100
AcDbEntity
  8
0
100
AcDbBlockBegin
  2
block 232
 70
     0
 10
0.0
 20
0.0
 30
0.0
  3
block 232
  1

  0
SPLINE
  5
1AA
330
1A8
100
AcDbEntity
  8
_U+56FE_U+5C42 1
 62
     7
370
     5
100
AcDbSpline
210
0.0
220
0.0
230
1.0
 70
     8
 71
     3
 72
     8
 73
     4
 74
     0
 42
0.000000001
 43
0.0000000001
 40
0.0
 40
0.0
 40
0.0
 40
0.0
 40
1.0
 40
1.0
 40
1.0
 40
1.0
 10
95.89120292413129
 20
-158.467873486257
 30
0.0
 10
95.93092877920552
 20
-158.6260059331451
 30
0.0
 10
95.97501277754542
 20
-158.7830114923065
 30
0.0
 10
96.02340453714347
 20
-158.938710727768
 30
0.0
  0
ENDBLK
  5
1AB
330
1A8
100
AcDbEntity
  8
0
100
AcDbBlockEnd
  0
BLOCK
  5
1AE
330
1AD
100
AcDbEntity
  8
0
100
AcDbBlockBegin
  2
block 233
 70
     0
 10
0.0
 20
0.0
 30
0.0
  3
block 233
  1

  0
SPLINE
  5
1AF
330
1AD
100
AcDbEntity
  8
_U+56FE_U+5C42 1
 62
     7
370
     5
100
AcDbSpline
210
0.0
220
0.0
230
1.0
 70
     8
 71
     3
 72
     8
 73
     4
 74
     0
 42
0.000000001
 43
0.0000000001
 40
0.0
 40
0.0
 40
0.0
 40
0.0
 40
1.0
 40
1.0
 40
1.0
 40
1.0
 10
95.78560190597945
 20
-157.9919863285024
 30
0.0
 10
95.81638762117249
 20
-158.1515628736927
 30
0.0
 10
95.851601549977
 20
-158.3102531665178
 30
0.0
 10
95.89120292412935
 20
-158.4678734862743
 30
0.0
  0
ENDBLK
  5
1B0
330
1AD
100
AcDbEntity
  8
0
100
AcDbBlockEnd
  0
BLOCK
  5
1B3
330
1B2
100
AcDbEntity
  8
0
100
AcDbBlockBegin
  2
block 242
 70
     0
 10
0.0
 20
0.0
 30
0.0
  3
block 242
  1

  0
SPLINE
  5
1B4
330
1B2
100
AcDbEntity
  8
_U+56FE_U+5C42 1
 62
     7
370
     5
100
AcDbSpline
210
0.0
220
0.0
230
1.0
 70
     8
 71
     3
 72
     8
 73
     4
 74
     0
 42
0.000000001
 43
0.0000000001
 40
0.0
 40
0.0
 40
0.0
 40
0.0
 40
1.0
 40
1.0
 40
1.0
 40
1.0
 10
96.07294846340565
 20
-153.8634438105591
 30
0.0
 10
96.02127342249534
 20
-154.0010716662302
 30
0.0
 10
95.9742875663235
 20
-154.140414870486
 30
0.0
 10
95.93207214511487
 20
-154.2812324642789
 30
0.0
  0
ENDBLK
  5
1B5
330
1B2
100
AcDbEntity
  8
0
100
AcDbBlockEnd
  0
BLOCK
  5
1B8
330
1B7
100
AcDbEntity
  8
0
100
AcDbBlockBegin
  2
block 243
 70
     0
 10
0.0
 20
0.0
 30
0.0
  3
block 243
  1

  0
SPLINE
  5
1B9
330
1B7
100
AcDbEntity
  8
_U+56FE_U+5C42 1
 62
     7
370
     5
100
AcDbSpline
210
0.0
220
0.0
230
1.0
 70
     8
 71
     3
 72
     8
 73
     4
 74
     0
 42
0.000000001
 43
0.0000000001
 40
0.0
 40
0.0
 40
0.0
 40
0.0
 40
1.0
 40
1.0
 40
1.0
 40
1.0
 10
96.23953960739678
 20
-153.4630383682775
 30
0.0
 10
96.179341377242
 20
-153.5945165328971
 30
0.0
 10
96.12377678585112
 20
-153.7280672382918
 30
0.0
 10
96.07294846340884
 20
-153.8634438105758
 30
0.0
  0
ENDBLK
  5
1BA
330
1B7
100
AcDbEntity
  8
0
100
AcDbBlockEnd
  0
BLOCK
  5
1BD
330
1BC
100
AcDbEntity
  8
0
100
AcDbBlockBegin
  2
block 244
 70
     0
 10
0.0
 20
0.0
 30
0.0
  3
block 244
  1

  0
SPLINE
  5
1BE
330
1BC
100
AcDbEntity
  8
_U+56FE_U+5C42 1
 62
     7
370
     5
100
AcDbSpline
210
0.0
220
0.0
230
1.0
 70
     8
 71
     3
 72
     8
 73
     4
 74
     0
 42
0.000000001
 43
0.0000000001
 40
0.0
 40
0.0
 40
0.0
 40
0.0
 40
1.0
 40
1.0
 40
1.0
 40
1.0
 10
96.431034152557
 20
-153.0819637012639
 30
0.0
 10
96.36261229263249
 20
-153.2066294675518
 30
0.0
 10
96.2987387157144
 20
-153.333738059784
 30
0.0
 10
96.23953960740255
 20
-153.463038368271
 30
0.0
  0
ENDBLK
  5
1BF
330
1BC
100
AcDbEntity
  8
0
100
AcDbBlockEnd
  0
BLOCK
  5
1C2
330
1C1
100
AcDbEntity
  8
0
100
AcDbBlockBegin
  2
block 253
 70
     0
 10
0.0
 20
0.0
 30
0.0
  3
block 253
  1

  0
SPLINE
  5
1C3
330
1C1
100
AcDbEntity
  8
_U+56FE_U+5C42 1
 62
     7
370
     5
100
AcDbSpline
210
0.0
220
0.0
230
1.0
 70
     8
 71
     3
 72
     8
 73
     4
 74
     0
 42
0.000000001
 43
0.0000000001
 40
0.0
 40
0.0
 40
0.0
 40
0.0
 40
1.0
 40
1.0
 40
1.0
 40
1.0
 10
102.8641023682696
 20
-164.2491885712992
 30
0.0
 10
102.9921329032973
 20
-164.2306551526244
 30
0.0
 10
103.1192886371582
 20
-164.2065133023177
 30
0.0
 10
103.2452027555561
 20
-164.176832663924
 30
0.0
  0
ENDBLK
  5
1C4
330
1C1
100
AcDbEntity
  8
0
100
AcDbBlockEnd
  0
BLOCK
  5
1C7
330
1C6
100
AcDbEntity
  8
0
100
AcDbBlockBegin
  2
block 254
 70
     0
 10
0.0
 20
0.0
 30
0.0
  3
block 254
  1

  0
SPLINE
  5
1C8
330
1C6
100
AcDbEntity
  8
_U+56FE_U+5C42 1
 62
     7
370
     5
100
AcDbSpline
210
0.0
220
0.0
230
1.0
 70
     8
 71
     3
 72
     8
 73
     4
 74
     0
 42
0.000000001
 43
0.0000000001
 40
0.0
 40
0.0
 40
0.0
 40
0.0
 40
1.0
 40
1.0
 40
1.0
 40
1.0
 10
102.475631284812
 20
-164.2883282713975
 30
0.0
 10
102.6056260212588
 20
-164.2808967037857
 30
0.0
 10
102.7352378568191
 20
-164.2678378981476
 30
0.0
 10
102.8641023682594
 20
-164.2491885712838
 30
0.0
  0
ENDBLK
  5
1C9
330
1C6
100
AcDbEntity
  8
0
100
AcDbBlockEnd
  0
BLOCK
  5
1CC
330
1CB
100
AcDbEntity
  8
0
100
AcDbBlockBegin
  2
block 255
 70
     0
 10
0.0
 20
0.0
 30
0.0
  3
block 255
  1

  0
SPLINE
  5
1CD
330
1CB
100
AcDbEntity
  8
_U+56FE_U+5C42 1
 62
     7
370
     5
100
AcDbSpline
210
0.0
220
0.0
230
1.0
 70
     8
 71
     3
 72
     8
 73
     4
 74
     0
 42
0.000000001
 43
0.0000000001
 40
0.0
 40
0.0
 40
0.0
 40
0.0
 40
1.0
 40
1.0
 40
1.0
 40
1.0
 10
102.0816818022555
 20
-164.2940629268488
 30
0.0
 10
102.213020211817
 20
-164.2977373654725
 30
0.0
 10
102.3444554787192
 20
-164.2958240847056
 30
0.0
 10
102.4756312848287
 20
-164.288328271411
 30
0.0
  0
ENDBLK
  5
1CE
330
1CB
100
AcDbEntity
  8
0
100
AcDbBlockEnd
  0
BLOCK
  5
1D1
330
1D0
100
AcDbEntity
  8
0
100
AcDbBlockBegin
  2
block 256
 70
     0
 10
0.0
 20
0.0
 30
0.0
  3
block 256
  1

  0
SPLINE
  5
1D2
330
1D0
100
AcDbEntity
  8
_U+56FE_U+5C42 1
 62
     7
370
     5
100
AcDbSpline
210
0.0
220
0.0
230
1.0
 70
     8
 71
     3
 72
     8
 73
     4
 74
     0
 42
0.000000001
 43
0.0000000001
 40
0.0
 40
0.0
 40
0.0
 40
0.0
 40
1.0
 40
1.0
 40
1.0
 40
1.0
 10
101.6841735320656
 20
-164.266359576228
 30
0.0
 10
101.8162350549872
 20
-164.2810994388466
 30
0.0
 10
101.9488523509545
 20
-164.2903418715767
 30
0.0
 10
102.0816818022606
 20
-164.2940629268353
 30
0.0
  0
ENDBLK
  5
1D3
330
1D0
100
AcDbEntity
  8
0
100
AcDbBlockEnd
  0
BLOCK
  5
1D6
330
1D5
100
AcDbEntity
  8
0
100
AcDbBlockBegin
  2
block 257
 70
     0
 10
0.0
 20
0.0
 30
0.0
  3
block 257
  1

  0
SPLINE
  5
1D7
330
1D5
100
AcDbEntity
  8
_U+56FE_U+5C42 1
 62
     7
370
     5
100
AcDbSpline
210
0.0
220
0.0
230
1.0
 70
     8
 71
     3
 72
     8
 73
     4
 74
     0
 42
0.000000001
 43
0.0000000001
 40
0.0
 40
0.0
 40
0.0
 40
0.0
 40
1.0
 40
1.0
 40
1.0
 40
1.0
 10
101.2850430289353
 20
-164.205359542476
 30
0.0
 10
101.417208474958
 20
-164.2310728017775
 30
0.0
 10
101.5503610879326
 20
-164.2514228221854
 30
0.0
 10
101.6841735320681
 20
-164.2663595762184
 30
0.0
  0
ENDBLK
  5
1D8
330
1D5
100
AcDbEntity
  8
0
100
AcDbBlockEnd
  0
BLOCK
  5
1DB
330
1DA
100
AcDbEntity
  8
0
100
AcDbBlockBegin
  2
block 258
 70
     0
 10
0.0
 20
0.0
 30
0.0
  3
block 258
  1

  0
SPLINE
  5
1DC
330
1DA
100
AcDbEntity
  8
_U+56FE_U+5C42 1
 62
     7
370
     5
100
AcDbSpline
210
0.0
220
0.0
230
1.0
 70
     8
 71
     3
 72
     8
 73
     4
 74
     0
 42
0.000000001
 43
0.0000000001
 40
0.0
 40
0.0
 40
0.0
 40
0.0
 40
1.0
 40
1.0
 40
1.0
 40
1.0
 10
100.8862343436415
 20
-164.1113531368624
 30
0.0
 10
101.0178870164021
 20
-164.1479037922907
 30
0.0
 10
101.150926018406
 20
-164.1792634864219
 30
0.0
 10
101.2850430289411
 20
-164.2053595424978
 30
0.0
  0
ENDBLK
  5
1DD
330
1DA
100
AcDbEntity
  8
0
100
AcDbBlockEnd
  0
BLOCK
  5
1E0
330
1DF
100
AcDbEntity
  8
0
100
AcDbBlockBegin
  2
block 259
 70
     0
 10
0.0
 20
0.0
 30
0.0
  3
block 259
  1

  0
SPLINE
  5
1E1
330
1DF
100
AcDbEntity
  8
_U+56FE_U+5C42 1
 62
     7
370
     5
100
AcDbSpline
210
0.0
220
0.0
230
1.0
 70
     8
 71
     3
 72
     8
 73
     4
 74
     0
 42
0.000000001
 43
0.0000000001
 40
0.0
 40
0.0
 40
0.0
 40
0.0
 40
1.0
 40
1.0
 40
1.0
 40
1.0
 10
100.4896911161819
 20
-163.9848043091819
 30
0.0
 10
100.6202167912901
 20
-164.0320088117434
 30
0.0
 10
100.7524938342873
 20
-164.0742223803027
 30
0.0
 10
100.8862343436415
 20
-164.111353136856
 30
0.0
  0
ENDBLK
  5
1E2
330
1DF
100
AcDbEntity
  8
0
100
AcDbBlockEnd
  0
BLOCK
  5
1E5
330
1E4
100
AcDbEntity
  8
0
100
AcDbBlockBegin
  2
block 260
 70
     0
 10
0.0
 20
0.0
 30
0.0
  3
block 260
  1

  0
SPLINE
  5
1E6
330
1E4
100
AcDbEntity
  8
_U+56FE_U+5C42 1
 62
     7
370
     5
100
AcDbSpline
210
0.0
220
0.0
230
1.0
 70
     8
 71
     3
 72
     8
 73
     4
 74
     0
 42
0.000000001
 43
0.0000000001
 40
0.0
 40
0.0
 40
0.0
 40
0.0
 40
1.0
 40
1.0
 40
1.0
 40
1.0
 10
100.0973444588955
 20
-163.8263270561725
 30
0.0
 10
100.2261348365963
 20
-163.8839561126298
 30
0.0
 10
100.3570059228234
 20
-163.9368177589833
 30
0.0
 10
100.4896911161781
 20
-163.9848043091954
 30
0.0
  0
ENDBLK
  5
1E7
330
1E4
100
AcDbEntity
  8
0
100
AcDbBlockEnd
  0
BLOCK
  5
1EA
330
1E9
100
AcDbEntity
  8
0
100
AcDbBlockBegin
  2
block 261
 70
     0
 10
0.0
 20
0.0
 30
0.0
  3
block 261
  1

  0
SPLINE
  5
1EB
330
1E9
100
AcDbEntity
  8
_U+56FE_U+5C42 1
 62
     7
370
     5
100
AcDbSpline
210
0.0
220
0.0
230
1.0
 70
     8
 71
     3
 72
     8
 73
     4
 74
     0
 42
0.000000001
 43
0.0000000001
 40
0.0
 40
0.0
 40
0.0
 40
0.0
 40
1.0
 40
1.0
 40
1.0
 40
1.0
 10
99.71110679528154
 20
-163.6366926902295
 30
0.0
 10
99.83755839140613
 20
-163.7044736512889
 30
0.0
 10
99.96638608507652
 20
-163.7677252714865
 30
0.0
 10
100.0973444589064
 20
-163.8263270561732
 30
0.0
  0
ENDBLK
  5
1EC
330
1E9
100
AcDbEntity
  8
0
100
AcDbBlockEnd
  0
BLOCK
  5
1EF
330
1EE
100
AcDbEntity
  8
0
100
AcDbBlockBegin
  2
block 262
 70
     0
 10
0.0
 20
0.0
 30
0.0
  3
block 262
  1

  0
SPLINE
  5
1F0
330
1EE
100
AcDbEntity
  8
_U+56FE_U+5C42 1
 62
     7
370
     5
100
AcDbSpline
210
0.0
220
0.0
230
1.0
 70
     8
 71
     3
 72
     8
 73
     4
 74
     0
 42
0.000000001
 43
0.0000000001
 40
0.0
 40
0.0
 40
0.0
 40
0.0
 40
1.0
 40
1.0
 40
1.0
 40
1.0
 10
99.33285912689349
 20
-163.4168258565722
 30
0.0
 10
99.45637669830004
 20
-163.4944411850823
 30
0.0
 10
99.58253423160265
 20
-163.567773712172
 30
0.0
 10
99.71110679527768
 20
-163.636692690225
 30
0.0
  0
ENDBLK
  5
1F1
330
1EE
100
AcDbEntity
  8
0
100
AcDbBlockEnd
  0
BLOCK
  5
1F4
330
1F3
100
AcDbEntity
  8
0
100
AcDbBlockBegin
  2
block 263
 70
     0
 10
0.0
 20
0.0
 30
0.0
  3
block 263
  1

  0
SPLINE
  5
1F5
330
1F3
100
AcDbEntity
  8
_U+56FE_U+5C42 1
 62
     7
370
     5
100
AcDbSpline
210
0.0
220
0.0
230
1.0
 70
     8
 71
     3
 72
     8
 73
     4
 74
     0
 42
0.000000001
 43
0.0000000001
 40
0.0
 40
0.0
 40
0.0
 40
0.0
 40
1.0
 40
1.0
 40
1.0
 40
1.0
 10
98.9644446668905
 20
-163.1677976138274
 30
0.0
 10
99.08444363463008
 20
-163.254884257852
 30
0.0
 10
99.20731690876998
 20
-163.3379399433872
 30
0.0
 10
99.33285912688965
 20
-163.4168258565504
 30
0.0
  0
ENDBLK
  5
1F6
330
1F3
100
AcDbEntity
  8
0
100
AcDbBlockEnd
  0
BLOCK
  5
1F9
330
1F8
100
AcDbEntity
  8
0
100
AcDbBlockBegin
  2
block 264
 70
     0
 10
0.0
 20
0.0
 30
0.0
  3
block 264
  1

  0
SPLINE
  5
1FA
330
1F8
100
AcDbEntity
  8
_U+56FE_U+5C42 1
 62
     7
370
     5
100
AcDbSpline
210
0.0
220
0.0
230
1.0
 70
     8
 71
     3
 72
     8
 73
     4
 74
     0
 42
0.000000001
 43
0.0000000001
 40
0.0
 40
0.0
 40
0.0
 40
0.0
 40
1.0
 40
1.0
 40
1.0
 40
1.0
 10
98.60765774987783
 20
-162.8908208350274
 30
0.0
 10
98.72356795624472
 20
-162.9869707683211
 30
0.0
 10
98.84255919696556
 20
-163.0793447007464
 30
0.0
 10
98.96444466688665
 20
-163.1677976138415
 30
0.0
  0
ENDBLK
  5
1FB
330
1F8
100
AcDbEntity
  8
0
100
AcDbBlockEnd
  0
BLOCK
  5
1FE
330
1FD
100
AcDbEntity
  8
0
100
AcDbBlockBegin
  2
block 266
 70
     0
 10
0.0
 20
0.0
 30
0.0
  3
block 266
  1

  0
SPLINE
  5
1FF
330
1FD
100
AcDbEntity
  8
_U+56FE_U+5C42 1
 62
     7
370
     5
100
AcDbSpline
210
0.0
220
0.0
230
1.0
 70
     8
 71
     3
 72
     8
 73
     4
 74
     0
 42
0.000000001
 43
0.0000000001
 40
0.0
 40
0.0
 40
0.0
 40
0.0
 40
1.0
 40
1.0
 40
1.0
 40
1.0
 10
97.93585554113876
 20
-162.2585524187173
 30
0.0
 10
98.04193946572913
 20
-162.3714386775346
 30
0.0
 10
98.15145088371064
 20
-162.4810542620181
 30
0.0
 10
98.26423623320685
 20
-162.587245464222
 30
0.0
  0
ENDBLK
  5
200
330
1FD
100
AcDbEntity
  8
0
100
AcDbBlockEnd
  0
BLOCK
  5
203
330
202
100
AcDbEntity
  8
0
100
AcDbBlockBegin
  2
block 267
 70
     0
 10
0.0
 20
0.0
 30
0.0
  3
block 267
  1

  0
SPLINE
  5
204
330
202
100
AcDbEntity
  8
_U+56FE_U+5C42 1
 62
     7
370
     5
100
AcDbSpline
210
0.0
220
0.0
230
1.0
 70
     8
 71
     3
 72
     8
 73
     4
 74
     0
 42
0.000000001
 43
0.0000000001
 40
0.0
 40
0.0
 40
0.0
 40
0.0
 40
1.0
 40
1.0
 40
1.0
 40
1.0
 10
97.62411367271747
 20
-161.906340591528
 30
0.0
 10
97.72450054110031
 20
-162.0268197258719
 30
0.0
 10
97.82846077728114
 20
-162.1442759563294
 30
0.0
 10
97.93585554113043
 20
-162.2585524187071
 30
0.0
  0
ENDBLK
  5
205
330
202
100
AcDbEntity
  8
0
100
AcDbBlockEnd
  0
BLOCK
  5
208
330
207
100
AcDbEntity
  8
0
100
AcDbBlockBegin
  2
block 601
 70
     0
 10
0.0
 20
0.0
 30
0.0
  3
block 601
  1

  0
POLYLINE
  5
209
330
207
100
AcDbEntity
  8
_U+56FE_U+5C42 1
 62
     7
370
     5
100
AcDb2dPolyline
 66
     1
 10
0.0
 20
0.0
 30
0.0
  0
VERTEX
  5
20A
330
209
100
AcDbEntity
  8
_U+56FE_U+5C42 1
 62
     7
370
     5
100
AcDbVertex
100
AcDb2dVertex
 10
107.4357308887363
 20
-155.9024368304334
 30
0.0
  0
VERTEX
  5
20B
330
209
100
AcDbEntity
  8
_U+56FE_U+5C42 1
 62
     7
370
     5
100
AcDbVertex
100
AcDb2dVertex
 10
107.2347592501599
 20
-155.2838839986929
 30
0.0
  0
VERTEX
  5
20C
330
209
100
AcDbEntity
  8
_U+56FE_U+5C42 1
 62
     7
370
     5
100
AcDbVertex
100
AcDb2dVertex
 10
106.9928923083312
 20
-154.6802646558333
 30
0.0
  0
VERTEX
  5
20D
330
209
100
AcDbEntity
  8
_U+56FE_U+5C42 1
 62
     7
370
     5
100
AcDbVertex
100
AcDb2dVertex
 10
106.711873671072
 20
-154.0959324870113
 30
0.0
  0
VERTEX
  5
20E
330
209
100
AcDbEntity
  8
_U+56FE_U+5C42 1
 62
     7
370
     5
100
AcDbVertex
100
AcDb2dVertex
 10
106.3937278948962
 20
-153.5350970891276
 30
0.0
  0
VERTEX
  5
20F
330
209
100
AcDbEntity
  8
_U+56FE_U+5C42 1
 62
     7
370
     5
100
AcDbVertex
100
AcDb2dVertex
 10
106.0407469306226
 20
-153.0017974823189
 30
0.0
  0
VERTEX
  5
210
330
209
100
AcDbEntity
  8
_U+56FE_U+5C42 1
 62
     7
370
     5
100
AcDbVertex
100
AcDb2dVertex
 10
105.6554741043684
 20
-152.4998752102027
 30
0.0
  0
VERTEX
  5
211
330
209
100
AcDbEntity
  8
_U+56FE_U+5C42 1
 62
     7
370
     5
100
AcDbVertex
100
AcDb2dVertex
 10
105.2406856339646
 20
-152.0329507678931
 30
0.0
  0
VERTEX
  5
212
330
209
100
AcDbEntity
  8
_U+56FE_U+5C42 1
 62
     7
370
     5
100
AcDbVertex
100
AcDb2dVertex
 10
104.7993696811117
 20
-151.6043838490755
 30
0.0
  0
VERTEX
  5
213
330
209
100
AcDbEntity
  8
_U+56FE_U+5C42 1
 62
     7
370
     5
100
AcDbVertex
100
AcDb2dVertex
 10
104.3347062249027
 20
-151.2172658717829
 30
0.0
  0
VERTEX
  5
214
330
209
100
AcDbEntity
  8
_U+56FE_U+5C42 1
 62
     7
370
     5
100
AcDbVertex
100
AcDb2dVertex
 10
103.8500428278691
 20
-150.8743839637178
 30
0.0
  0
VERTEX
  5
215
330
209
100
AcDbEntity
  8
_U+56FE_U+5C42 1
 62
     7
370
     5
100
AcDbVertex
100
AcDb2dVertex
 10
103.3488716345279
 20
-150.5782080672764
 30
0.0
  0
VERTEX
  5
216
330
209
100
AcDbEntity
  8
_U+56FE_U+5C42 1
 62
     7
370
     5
100
AcDbVertex
100
AcDb2dVertex
 10
102.834803904959
 20
-150.3308744725931
 30
0.0
  0
VERTEX
  5
217
330
209
100
AcDbEntity
  8
_U+56FE_U+5C42 1
 62
     7
370
     5
100
AcDbVertex
100
AcDb2dVertex
 10
102.3115435220631
 20
-150.1341622673096
 30
0.0
  0
VERTEX
  5
218
330
209
100
AcDbEntity
  8
_U+56FE_U+5C42 1
 62
     7
370
     5
100
AcDbVertex
100
AcDb2dVertex
 10
101.7828600878034
 20
-149.9894932337353
 30
0.0
  0
VERTEX
  5
219
330
209
100
AcDbEntity
  8
_U+56FE_U+5C42 1
 62
     7
370
     5
100
AcDbVertex
100
AcDb2dVertex
 10
101.252562430122
 20
-149.8979043572098
 30
0.0
  0
VERTEX
  5
21A
330
209
100
AcDbEntity
  8
_U+56FE_U+5C42 1
 62
     7
370
     5
100
AcDbVertex
100
AcDb2dVertex
 10
100.7244727261422
 20
-149.8600589969944
 30
0.0
  0
VERTEX
  5
21B
330
209
100
AcDbEntity
  8
_U+56FE_U+5C42 1
 62
     7
370
     5
100
AcDbVertex
100
AcDb2dVertex
 10
100.2023945668169
 20
-149.8762292186792
 30
0.0
  0
VERTEX
  5
21C
330
209
100
AcDbEntity
  8
_U+56FE_U+5C42 1
 62
     7
370
     5
100
AcDbVertex
100
AcDb2dVertex
 10
99.69009077682901
 20
-149.9462976446811
 30
0.0
  0
VERTEX
  5
21D
330
209
100
AcDbEntity
  8
_U+56FE_U+5C42 1
 62
     7
370
     5
100
AcDbVertex
100
AcDb2dVertex
 10
99.3725481780271
 20
-150.0182898130116
 30
0.0
  0
SEQEND
  5
21E
330
209
100
AcDbEntity
  8
_U+56FE_U+5C42 1
 62
     7
370
     5
  0
ENDBLK
  5
21F
330
207
100
AcDbEntity
  8
0
100
AcDbBlockEnd
  0
BLOCK
  5
222
330
221
100
AcDbEntity
  8
0
100
AcDbBlockBegin
  2
block 602
 70
     0
 10
0.0
 20
0.0
 30
0.0
  3
block 602
  1

  0
POLYLINE
  5
223
330
221
100
AcDbEntity
  8
_U+56FE_U+5C42 1
 62
     7
370
     5
100
AcDb2dPolyline
 66
     1
 10
0.0
 20
0.0
 30
0.0
  0
VERTEX
  5
224
330
223
100
AcDbEntity
  8
_U+56FE_U+5C42 1
 62
     7
370
     5
100
AcDbVertex
100
AcDb2dVertex
 10
104.5215432425487
 20
-164.4180296488301
 30
0.0
  0
VERTEX
  5
225
330
223
100
AcDbEntity
  8
_U+56FE_U+5C42 1
 62
     7
370
     5
100
AcDbVertex
100
AcDb2dVertex
 10
104.8695846137929
 20
-164.2409702104689
 30
0.0
  0
VERTEX
  5
226
330
223
100
AcDbEntity
  8
_U+56FE_U+5C42 1
 62
     7
370
     5
100
AcDbVertex
100
AcDb2dVertex
 10
105.3069811330719
 20
-163.9641674850973
 30
0.0
  0
VERTEX
  5
227
330
223
100
AcDbEntity
  8
_U+56FE_U+5C42 1
 62
     7
370
     5
100
AcDbVertex
100
AcDb2dVertex
 10
105.7173726929881
 20
-163.6397589911838
 30
0.0
  0
VERTEX
  5
228
330
223
100
AcDbEntity
  8
_U+56FE_U+5C42 1
 62
     7
370
     5
100
AcDbVertex
100
AcDb2dVertex
 10
106.0978024382039
 20
-163.2700828525571
 30
0.0
  0
VERTEX
  5
229
330
223
100
AcDbEntity
  8
_U+56FE_U+5C42 1
 62
     7
370
     5
100
AcDbVertex
100
AcDb2dVertex
 10
106.4455292694829
 20
-162.857802920861
 30
0.0
  0
VERTEX
  5
22A
330
223
100
AcDbEntity
  8
_U+56FE_U+5C42 1
 62
     7
370
     5
100
AcDbVertex
100
AcDb2dVertex
 10
106.7580478545701
 20
-162.4058894477318
 30
0.0
  0
VERTEX
  5
22B
330
223
100
AcDbEntity
  8
_U+56FE_U+5C42 1
 62
     7
370
     5
100
AcDbVertex
100
AcDb2dVertex
 10
107.0331063928453
 20
-161.9175972243785
 30
0.0
  0
VERTEX
  5
22C
330
223
100
AcDbEntity
  8
_U+56FE_U+5C42 1
 62
     7
370
     5
100
AcDbVertex
100
AcDb2dVertex
 10
107.2687234558549
 20
-161.396446401229
 30
0.0
  0
VERTEX
  5
22D
330
223
100
AcDbEntity
  8
_U+56FE_U+5C42 1
 62
     7
370
     5
100
AcDbVertex
100
AcDb2dVertex
 10
107.4632006176671
 20
-160.8461900531215
 30
0.0
  0
VERTEX
  5
22E
330
223
100
AcDbEntity
  8
_U+56FE_U+5C42 1
 62
     7
370
     5
100
AcDbVertex
100
AcDb2dVertex
 10
107.6151376524004
 20
-160.2707945882339
 30
0.0
  0
VERTEX
  5
22F
330
223
100
AcDbEntity
  8
_U+56FE_U+5C42 1
 62
     7
370
     5
100
AcDbVertex
100
AcDb2dVertex
 10
107.7234393115249
 20
-159.6744043669337
 30
0.0
  0
VERTEX
  5
230
330
223
100
AcDbEntity
  8
_U+56FE_U+5C42 1
 62
     7
370
     5
100
AcDbVertex
100
AcDb2dVertex
 10
107.7873253870475
 20
-159.0613175727854
 30
0.0
  0
VERTEX
  5
231
330
223
100
AcDbEntity
  8
_U+56FE_U+5C42 1
 62
     7
370
     5
100
AcDbVertex
100
AcDb2dVertex
 10
107.8063352297228
 20
-158.4359499488113
 30
0.0
  0
VERTEX
  5
232
330
223
100
AcDbEntity
  8
_U+56FE_U+5C42 1
 62
     7
370
     5
100
AcDbVertex
100
AcDb2dVertex
 10
107.7803322672096
 20
-157.8028069520596
 30
0.0
  0
VERTEX
  5
233
330
223
100
AcDbEntity
  8
_U+56FE_U+5C42 1
 62
     7
370
     5
100
AcDbVertex
100
AcDb2dVertex
 10
107.7095035933286
 20
-157.1664523359156
 30
0.0
  0
VERTEX
  5
234
330
223
100
AcDbEntity
  8
_U+56FE_U+5C42 1
 62
     7
370
     5
100
AcDbVertex
100
AcDb2dVertex
 10
107.5943601734511
 20
-156.5314726050955
 30
0.0
  0
VERTEX
  5
235
330
223
100
AcDbEntity
  8
_U+56FE_U+5C42 1
 62
     7
370
     5
100
AcDbVertex
100
AcDb2dVertex
 10
107.4357308887363
 20
-155.9024368304334
 30
0.0
  0
SEQEND
  5
236
330
223
100
AcDbEntity
  8
_U+56FE_U+5C42 1
 62
     7
370
     5
  0
ENDBLK
  5
237
330
221
100
AcDbEntity
  8
0
100
AcDbBlockEnd
  0
BLOCK
  5
23A
330
239
100
AcDbEntity
  8
0
100
AcDbBlockBegin
  2
block 619
 70
     0
 10
0.0
 20
0.0
 30
0.0
  3
block 619
  1

  0
POLYLINE
  5
23B
330
239
100
AcDbEntity
  8
_U+56FE_U+5C42 1
 62
     7
370
     5
100
AcDb2dPolyline
 66
     1
 10
0.0
 20
0.0
 30
0.0
  0
VERTEX
  5
23C
330
23B
100
AcDbEntity
  8
_U+56FE_U+5C42 1
 62
     7
370
     5
100
AcDbVertex
100
AcDb2dVertex
 10
107.6836478439778
 20
-162.9808533497775
 30
0.0
  0
VERTEX
  5
23D
330
23B
100
AcDbEntity
  8
_U+56FE_U+5C42 1
 62
     7
370
     5
100
AcDbVertex
100
AcDb2dVertex
 10
107.7048668854112
 20
-162.971281004712
 30
0.0
  0
SEQEND
  5
23E
330
23B
100
AcDbEntity
  8
_U+56FE_U+5C42 1
 62
     7
370
     5
  0
ENDBLK
  5
23F
330
239
100
AcDbEntity
  8
0
100
AcDbBlockEnd
  0
BLOCK
  5
242
330
241
100
AcDbEntity
  8
0
100
AcDbBlockBegin
  2
block 622
 70
     0
 10
0.0
 20
0.0
 30
0.0
  3
block 622
  1

  0
POLYLINE
  5
243
330
241
100
AcDbEntity
  8
_U+56FE_U+5C42 1
 62
     7
370
     5
100
AcDb2dPolyline
 66
     1
 10
0.0
 20
0.0
 30
0.0
  0
VERTEX
  5
244
330
243
100
AcDbEntity
  8
_U+56FE_U+5C42 1
 62
     7
370
     5
100
AcDbVertex
100
AcDb2dVertex
 10
108.4861724614931
 20
-162.5324727112832
 30
0.0
  0
VERTEX
  5
245
330
243
100
AcDbEntity
  8
_U+56FE_U+5C42 1
 62
     7
370
     5
100
AcDbVertex
100
AcDb2dVertex
 10
108.4661864860136
 20
-162.5459860057716
 30
0.0
  0
SEQEND
  5
246
330
243
100
AcDbEntity
  8
_U+56FE_U+5C42 1
 62
     7
370
     5
  0
ENDBLK
  5
247
330
241
100
AcDbEntity
  8
0
100
AcDbBlockEnd
  0
BLOCK
  5
24A
330
249
100
AcDbEntity
  8
0
100
AcDbBlockBegin
  2
block 695
 70
     0
 10
0.0
 20
0.0
 30
0.0
  3
block 695
  1

  0
POLYLINE
  5
24B
330
249
100
AcDbEntity
  8
_U+56FE_U+5C42 1
 62
     7
370
     5
100
AcDb2dPolyline
 66
     1
 10
0.0
 20
0.0
 30
0.0
  0
VERTEX
  5
24C
330
24B
100
AcDbEntity
  8
_U+56FE_U+5C42 1
 62
     7
370
     5
100
AcDbVertex
100
AcDb2dVertex
 10
100.0049270869078
 20
-157.7157220186102
 30
0.0
  0
VERTEX
  5
24D
330
24B
100
AcDbEntity
  8
_U+56FE_U+5C42 1
 62
     7
370
     5
100
AcDbVertex
100
AcDb2dVertex
 10
99.92738613930805
 20
-157.3687884088538
 30
0.0
  0
VERTEX
  5
24E
330
24B
100
AcDbEntity
  8
_U+56FE_U+5C42 1
 62
     7
370
     5
100
AcDbVertex
100
AcDb2dVertex
 10
99.89358828489677
 20
-157.0196106759948
 30
0.0
  0
VERTEX
  5
24F
330
24B
100
AcDbEntity
  8
_U+56FE_U+5C42 1
 62
     7
370
     5
100
AcDbVertex
100
AcDb2dVertex
 10
99.90432502711485
 20
-156.6763726581586
 30
0.0
  0
VERTEX
  5
250
330
24B
100
AcDbEntity
  8
_U+56FE_U+5C42 1
 62
     7
370
     5
100
AcDbVertex
100
AcDb2dVertex
 10
99.95934581219543
 20
-156.3471200247003
 30
0.0
  0
VERTEX
  5
251
330
24B
100
AcDbEntity
  8
_U+56FE_U+5C42 1
 62
     7
370
     5
100
AcDbVertex
100
AcDb2dVertex
 10
100.0573602882663
 20
-156.0395693666866
 30
0.0
  0
VERTEX
  5
252
330
24B
100
AcDbEntity
  8
_U+56FE_U+5C42 1
 62
     7
370
     5
100
AcDbVertex
100
AcDb2dVertex
 10
100.1960708054699
 20
-155.7609289853337
 30
0.0
  0
VERTEX
  5
253
330
24B
100
AcDbEntity
  8
_U+56FE_U+5C42 1
 62
     7
370
     5
100
AcDbVertex
100
AcDb2dVertex
 10
100.3722268907307
 20
-155.5177301722885
 30
0.0
  0
VERTEX
  5
254
330
24B
100
AcDbEntity
  8
_U+56FE_U+5C42 1
 62
     7
370
     5
100
AcDbVertex
100
AcDb2dVertex
 10
100.5816987711527
 20
-155.3156756597176
 30
0.0
  0
VERTEX
  5
255
330
24B
100
AcDbEntity
  8
_U+56FE_U+5C42 1
 62
     7
370
     5
100
AcDbVertex
100
AcDb2dVertex
 10
100.8195773706602
 20
-155.1594993123842
 30
0.0
  0
VERTEX
  5
256
330
24B
100
AcDbEntity
  8
_U+56FE_U+5C42 1
 62
     7
370
     5
100
AcDbVertex
100
AcDb2dVertex
 10
101.0802866165764
 20
-155.0528616352011
 30
0.0
  0
VERTEX
  5
257
330
24B
100
AcDbEntity
  8
_U+56FE_U+5C42 1
 62
     7
370
     5
100
AcDbVertex
100
AcDb2dVertex
 10
101.3577154293918
 20
-154.998263531704
 30
0.0
  0
VERTEX
  5
258
330
24B
100
AcDbEntity
  8
_U+56FE_U+5C42 1
 62
     7
370
     5
100
AcDbVertex
100
AcDb2dVertex
 10
101.6453619838629
 20
-154.9969819360076
 30
0.0
  0
VERTEX
  5
259
330
24B
100
AcDbEntity
  8
_U+56FE_U+5C42 1
 62
     7
370
     5
100
AcDbVertex
100
AcDb2dVertex
 10
101.9364831234764
 20
-155.0490513278077
 30
0.0
  0
VERTEX
  5
25A
330
24B
100
AcDbEntity
  8
_U+56FE_U+5C42 1
 62
     7
370
     5
100
AcDbVertex
100
AcDb2dVertex
 10
102.2242558276718
 20
-155.1532468214168
 30
0.0
  0
VERTEX
  5
25B
330
24B
100
AcDbEntity
  8
_U+56FE_U+5C42 1
 62
     7
370
     5
100
AcDbVertex
100
AcDb2dVertex
 10
102.501934398424
 20
-155.3071290653329
 30
0.0
  0
VERTEX
  5
25C
330
24B
100
AcDbEntity
  8
_U+56FE_U+5C42 1
 62
     7
370
     5
100
AcDbVertex
100
AcDb2dVertex
 10
102.7630110098212
 20
-155.507088571977
 30
0.0
  0
VERTEX
  5
25D
330
24B
100
AcDbEntity
  8
_U+56FE_U+5C42 1
 62
     7
370
     5
100
AcDbVertex
100
AcDb2dVertex
 10
103.0013657834254
 20
-155.7484428394564
 30
0.0
  0
VERTEX
  5
25E
330
24B
100
AcDbEntity
  8
_U+56FE_U+5C42 1
 62
     7
370
     5
100
AcDbVertex
100
AcDb2dVertex
 10
103.2114120891597
 20
-156.0255288823866
 30
0.0
  0
VERTEX
  5
25F
330
24B
100
AcDbEntity
  8
_U+56FE_U+5C42 1
 62
     7
370
     5
100
AcDbVertex
100
AcDb2dVertex
 10
103.3882261347764
 20
-156.3318575788443
 30
0.0
  0
VERTEX
  5
260
330
24B
100
AcDbEntity
  8
_U+56FE_U+5C42 1
 62
     7
370
     5
100
AcDbVertex
100
AcDb2dVertex
 10
103.5276642333648
 20
-156.6602441612706
 30
0.0
  0
VERTEX
  5
261
330
24B
100
AcDbEntity
  8
_U+56FE_U+5C42 1
 62
     7
370
     5
100
AcDbVertex
100
AcDb2dVertex
 10
103.6264579932731
 20
-157.0029963964046
 30
0.0
  0
VERTEX
  5
262
330
24B
100
AcDbEntity
  8
_U+56FE_U+5C42 1
 62
     7
370
     5
100
AcDbVertex
100
AcDb2dVertex
 10
103.68229102439
 20
-157.3520766499567
 30
0.0
  0
VERTEX
  5
263
330
24B
100
AcDbEntity
  8
_U+56FE_U+5C42 1
 62
     7
370
     5
100
AcDbVertex
100
AcDb2dVertex
 10
103.6938555181896
 20
-157.6993034179299
 30
0.0
  0
VERTEX
  5
264
330
24B
100
AcDbEntity
  8
_U+56FE_U+5C42 1
 62
     7
370
     5
100
AcDbVertex
100
AcDb2dVertex
 10
103.6608800757103
 20
-158.0365380751828
 30
0.0
  0
VERTEX
  5
265
330
24B
100
AcDbEntity
  8
_U+56FE_U+5C42 1
 62
     7
370
     5
100
AcDbVertex
100
AcDb2dVertex
 10
103.5841374088005
 20
-158.3558784845152
 30
0.0
  0
VERTEX
  5
266
330
24B
100
AcDbEntity
  8
_U+56FE_U+5C42 1
 62
     7
370
     5
100
AcDbVertex
100
AcDb2dVertex
 10
103.4654265757014
 20
-158.6498361799656
 30
0.0
  0
VERTEX
  5
267
330
24B
100
AcDbEntity
  8
_U+56FE_U+5C42 1
 62
     7
370
     5
100
AcDbVertex
100
AcDb2dVertex
 10
103.3075298013695
 20
-158.9115224778556
 30
0.0
  0
VERTEX
  5
268
330
24B
100
AcDbEntity
  8
_U+56FE_U+5C42 1
 62
     7
370
     5
100
AcDbVertex
100
AcDb2dVertex
 10
103.1141486069125
 20
-159.1348045231132
 30
0.0
  0
VERTEX
  5
269
330
24B
100
AcDbEntity
  8
_U+56FE_U+5C42 1
 62
     7
370
     5
100
AcDbVertex
100
AcDb2dVertex
 10
102.8898147936825
 20
-159.3144466785978
 30
0.0
  0
VERTEX
  5
26A
330
24B
100
AcDbEntity
  8
_U+56FE_U+5C42 1
 62
     7
370
     5
100
AcDbVertex
100
AcDb2dVertex
 10
102.6397874043413
 20
-159.4462408970283
 30
0.0
  0
VERTEX
  5
26B
330
24B
100
AcDbEntity
  8
_U+56FE_U+5C42 1
 62
     7
370
     5
100
AcDbVertex
100
AcDb2dVertex
 10
102.3699265538491
 20
-159.5270963771295
 30
0.0
  0
VERTEX
  5
26C
330
24B
100
AcDbEntity
  8
_U+56FE_U+5C42 1
 62
     7
370
     5
100
AcDbVertex
100
AcDb2dVertex
 10
102.0865575374239
 20
-159.5551184338495
 30
0.0
  0
VERTEX
  5
26D
330
24B
100
AcDbEntity
  8
_U+56FE_U+5C42 1
 62
     7
370
     5
100
AcDbVertex
100
AcDb2dVertex
 10
101.7963220129625
 20
-159.5296492718041
 30
0.0
  0
VERTEX
  5
26E
330
24B
100
AcDbEntity
  8
_U+56FE_U+5C42 1
 62
     7
370
     5
100
AcDbVertex
100
AcDb2dVertex
 10
101.5060232339482
 20
-159.4512875847352
 30
0.0
  0
VERTEX
  5
26F
330
24B
100
AcDbEntity
  8
_U+56FE_U+5C42 1
 62
     7
370
     5
100
AcDbVertex
100
AcDb2dVertex
 10
101.2224656860725
 20
-159.3218692273016
 30
0.0
  0
VERTEX
  5
270
330
24B
100
AcDbEntity
  8
_U+56FE_U+5C42 1
 62
     7
370
     5
100
AcDbVertex
100
AcDb2dVertex
 10
100.9522952053084
 20
-159.1444255097839
 30
0.0
  0
VERTEX
  5
271
330
24B
100
AcDbEntity
  8
_U+56FE_U+5C42 1
 62
     7
370
     5
100
AcDbVertex
100
AcDb2dVertex
 10
100.7018445379867
 20
-158.9231193046502
 30
0.0
  0
VERTEX
  5
272
330
24B
100
AcDbEntity
  8
_U+56FE_U+5C42 1
 62
     7
370
     5
100
AcDbVertex
100
AcDb2dVertex
 10
100.4769845490153
 20
-158.6631374668498
 30
0.0
  0
VERTEX
  5
273
330
24B
100
AcDbEntity
  8
_U+56FE_U+5C42 1
 62
     7
370
     5
100
AcDbVertex
100
AcDb2dVertex
 10
100.2829849796567
 20
-158.3705714962094
 30
0.0
  0
VERTEX
  5
274
330
24B
100
AcDbEntity
  8
_U+56FE_U+5C42 1
 62
     7
370
     5
100
AcDbVertex
100
AcDb2dVertex
 10
100.1243934833823
 20
-158.0522785476
 30
0.0
  0
VERTEX
  5
275
330
24B
100
AcDbEntity
  8
_U+56FE_U+5C42 1
 62
     7
370
     5
100
AcDbVertex
100
AcDb2dVertex
 10
100.0049270869078
 20
-157.7157220186102
 30
0.0
  0
SEQEND
  5
276
330
24B
100
AcDbEntity
  8
_U+56FE_U+5C42 1
 62
     7
370
     5
  0
ENDBLK
  5
277
330
249
100
AcDbEntity
  8
0
100
AcDbBlockEnd
  0
BLOCK
  5
27A
330
279
100
AcDbEntity
  8
0
100
AcDbBlockBegin
  2
block 698
 70
     0
 10
0.0
 20
0.0
 30
0.0
  3
block 698
  1

  0
SPLINE
  5
27B
330
279
100
AcDbEntity
  8
_U+56FE_U+5C42 1
 62
     7
370
     5
100
AcDbSpline
210
0.0
220
0.0
230
1.0
 70
     9
 71
     3
 72
    53
 73
    49
 74
     0
 42
0.000000001
 43
0.0000000001
 40
0.0
 40
0.0
 40
0.0
 40
0.0
 40
1.0
 40
1.0
 40
1.0
 40
2.0
 40
2.0
 40
2.0
 40
3.0
 40
3.0
 40
3.0
 40
4.0
 40
4.0
 40
4.0
 40
5.0
 40
5.0
 40
5.0
 40
6.0
 40
6.0
 40
6.0
 40
7.0
 40
7.0
 40
7.0
 40
8.0
 40
8.0
 40
8.0
 40
9.0
 40
9.0
 40
9.0
 40
10.0
 40
10.0
 40
10.0
 40
11.0
 40
11.0
 40
11.0
 40
12.0
 40
12.0
 40
12.0
 40
13.0
 40
13.0
 40
13.0
 40
14.0
 40
14.0
 40
14.0
 40
15.0
 40
15.0
 40
15.0
 40
16.0
 40
16.0
 40
16.0
 40
16.0
 10
100.8181828117774
 20
-157.5250797308042
 30
0.0
 10
100.7898970730665
 20
-157.3778493407344
 30
0.0
 10
100.7616113343581
 20
-157.2306189506646
 30
0.0
 10
100.7637520089178
 20
-157.0875985073091
 30
0.0
 10
100.7658926734774
 20
-156.9445787320939
 30
0.0
 10
100.798459467026
 20
-156.8057688642593
 30
0.0
 10
100.8513974612374
 20
-156.6836093938248
 30
0.0
 10
100.9043355958249
 20
-156.561449599458
 30
0.0
 10
100.9776450391148
 20
-156.4559402907947
 30
0.0
 10
101.0677757431989
 20
-156.3746113495541
 30
0.0
 10
101.1579063677316
 20
-156.293282480099
 30
0.0
 10
101.2648582233645
 20
-156.2361339353808
 30
0.0
 10
101.3799457992695
 20
-156.2076499919162
 30
0.0
 10
101.4950334088734
 20
-156.1791660401115
 30
0.0
 10
101.618256743512
 20
-156.1793467063466
 30
0.0
 10
101.7403819830734
 20
-156.2081422779804
 30
0.0
 10
101.8625072376256
 20
-156.2369378531492
 30
0.0
 10
101.983534396831
 20
-156.2943483407398
 30
0.0
 10
102.0942115441766
 20
-156.3760132775207
 30
0.0
 10
102.2048885750179
 20
-156.4576781283363
 30
0.0
 10
102.3052156157857
 20
-156.5635973772777
 30
0.0
 10
102.3875665143521
 20
-156.6857058121819
 30
0.0
 10
102.4699175921334
 20
-156.8078145128265
 30
0.0
 10
102.534292449471
 20
-156.9461124698976
 30
0.0
 10
102.575787276789
 20
-157.0900732751334
 30
0.0
 10
102.617281996077
 20
-157.234033705572
 30
0.0
 10
102.635896804482
 20
-157.3836569546893
 30
0.0
 10
102.6302180796493
 20
-157.5275524864034
 30
0.0
 10
102.6245393588175
 20
-157.671447916706
 30
0.0
 10
102.5945671389911
 20
-157.8096156376785
 30
0.0
 10
102.5425726273297
 20
-157.9315415998871
 30
0.0
 10
102.4905779777929
 20
-158.0534678854086
 30
0.0
 10
102.4165609196288
 20
-158.1591523260283
 30
0.0
 10
102.3261943453669
 20
-158.2405396441578
 30
0.0
 10
102.2358278508689
 20
-158.3219268904517
 30
0.0
 10
102.1291118691336
 20
-158.3790170571465
 30
0.0
 10
102.0140242892969
 20
-158.4075010017963
 30
0.0
 10
101.8989366757601
 20
-158.4359849547862
 30
0.0
 10
101.7754774592187
 20
-158.4358626689788
 30
0.0
 10
101.6535881054937
 20
-158.4070087157315
 30
0.0
 10
101.5316987368082
 20
-158.3781547589433
 30
0.0
 10
101.4113792313267
 20
-158.3205691276615
 30
0.0
 10
101.2997585443905
 20
-158.2391377161919
 30
0.0
 10
101.1881378988291
 20
-158.1577063349065
 30
0.0
 10
101.0852160653638
 20
-158.0524291911115
 30
0.0
 10
101.0064031634718
 20
-157.9294449761587
 30
0.0
 10
100.927590537889
 20
-157.8064611923731
 30
0.0
 10
100.8728866748335
 20
-157.6657704615884
 30
0.0
 10
100.8181828117774
 20
-157.5250797308042
 30
0.0
  0
ENDBLK
  5
27C
330
279
100
AcDbEntity
  8
0
100
AcDbBlockEnd
  0
BLOCK
  5
27F
330
27E
100
AcDbEntity
  8
0
100
AcDbBlockBegin
  2
block 704
 70
     0
 10
0.0
 20
0.0
 30
0.0
  3
block 704
  1

  0
SPLINE
  5
280
330
27E
100
AcDbEntity
  8
_U+56FE_U+5C42 1
 62
     7
370
     5
100
AcDbSpline
210
0.0
220
0.0
230
1.0
 70
     8
 71
     3
 72
     8
 73
     4
 74
     0
 42
0.000000001
 43
0.0000000001
 40
0.0
 40
0.0
 40
0.0
 40
0.0
 40
1.0
 40
1.0
 40
1.0
 40
1.0
 10
100.4250967128382
 20
-163.0483376172382
 30
0.0
 10
100.434833739652
 20
-163.0461418543534
 30
0.0
 10
100.4425491557848
 20
-163.0387260819041
 30
0.0
 10
100.4451286916442
 20
-163.0290836205703
 30
0.0
  0
ENDBLK
  5
281
330
27E
100
AcDbEntity
  8
0
100
AcDbBlockEnd
  0
BLOCK
  5
284
330
283
100
AcDbEntity
  8
0
100
AcDbBlockBegin
  2
block 705
 70
     0
 10
0.0
 20
0.0
 30
0.0
  3
block 705
  1

  0
POLYLINE
  5
285
330
283
100
AcDbEntity
  8
_U+56FE_U+5C42 1
 62
     7
370
     5
100
AcDb2dPolyline
 66
     1
 10
0.0
 20
0.0
 30
0.0
  0
VERTEX
  5
286
330
285
100
AcDbEntity
  8
_U+56FE_U+5C42 1
 62
     7
370
     5
100
AcDbVertex
100
AcDb2dVertex
 10
100.4451286916263
 20
-163.0290836205606
 30
0.0
  0
VERTEX
  5
287
330
285
100
AcDbEntity
  8
_U+56FE_U+5C42 1
 62
     7
370
     5
100
AcDbVertex
100
AcDb2dVertex
 10
100.7780986250196
 20
-162.0132668468036
 30
0.0
  0
SEQEND
  5
288
330
285
100
AcDbEntity
  8
_U+56FE_U+5C42 1
 62
     7
370
     5
  0
ENDBLK
  5
289
330
283
100
AcDbEntity
  8
0
100
AcDbBlockEnd
  0
BLOCK
  5
28C
330
28B
100
AcDbEntity
  8
0
100
AcDbBlockBegin
  2
block 964
 70
     0
 10
0.0
 20
0.0
 30
0.0
  3
block 964
  1

  0
POLYLINE
  5
28D
330
28B
100
AcDbEntity
  8
_U+56FE_U+5C42 1
 62
     7
370
     5
100
AcDb2dPolyline
 66
     1
 10
0.0
 20
0.0
 30
0.0
  0
VERTEX
  5
28E
330
28D
100
AcDbEntity
  8
_U+56FE_U+5C42 1
 62
     7
370
     5
100
AcDbVertex
100
AcDb2dVertex
 10
107.7048668854112
 20
-162.971281004712
 30
0.0
  0
VERTEX
  5
28F
330
28D
100
AcDbEntity
  8
_U+56FE_U+5C42 1
 62
     7
370
     5
100
AcDbVertex
100
AcDb2dVertex
 10
107.8601527406424
 20
-162.8972247717853
 30
0.0
  0
VERTEX
  5
290
330
28D
100
AcDbEntity
  8
_U+56FE_U+5C42 1
 62
     7
370
     5
100
AcDbVertex
100
AcDb2dVertex
 10
108.304904925424
 20
-162.6433069291784
 30
0.0
  0
VERTEX
  5
291
330
28D
100
AcDbEntity
  8
_U+56FE_U+5C42 1
 62
     7
370
     5
100
AcDbVertex
100
AcDb2dVertex
 10
108.7232959790093
 20
-162.3397252759604
 30
0.0
  0
VERTEX
  5
292
330
28D
100
AcDbEntity
  8
_U+56FE_U+5C42 1
 62
     7
370
     5
100
AcDbVertex
100
AcDb2dVertex
 10
109.1121143464006
 20
-161.9888096761681
 30
0.0
  0
VERTEX
  5
293
330
28D
100
AcDbEntity
  8
_U+56FE_U+5C42 1
 62
     7
370
     5
100
AcDbVertex
100
AcDb2dVertex
 10
109.4683760246783
 20
-161.5932560260977
 30
0.0
  0
VERTEX
  5
294
330
28D
100
AcDbEntity
  8
_U+56FE_U+5C42 1
 62
     7
370
     5
100
AcDbVertex
100
AcDb2dVertex
 10
109.7893465891625
 20
-161.1560988552368
 30
0.0
  0
VERTEX
  5
295
330
28D
100
AcDbEntity
  8
_U+56FE_U+5C42 1
 62
     7
370
     5
100
AcDbVertex
100
AcDb2dVertex
 10
110.0725622954278
 20
-160.6806926431734
 30
0.0
  0
VERTEX
  5
296
330
28D
100
AcDbEntity
  8
_U+56FE_U+5C42 1
 62
     7
370
     5
100
AcDbVertex
100
AcDb2dVertex
 10
110.3158493841838
 20
-160.1706882651941
 30
0.0
  0
VERTEX
  5
297
330
28D
100
AcDbEntity
  8
_U+56FE_U+5C42 1
 62
     7
370
     5
100
AcDbVertex
100
AcDb2dVertex
 10
110.5173406137923
 20
-159.6299990173348
 30
0.0
  0
VERTEX
  5
298
330
28D
100
AcDbEntity
  8
_U+56FE_U+5C42 1
 62
     7
370
     5
100
AcDbVertex
100
AcDb2dVertex
 10
110.6754895335452
 20
-159.0627755117073
 30
0.0
  0
VERTEX
  5
299
330
28D
100
AcDbEntity
  8
_U+56FE_U+5C42 1
 62
     7
370
     5
100
AcDbVertex
100
AcDb2dVertex
 10
110.7890822412471
 20
-158.4733700742055
 30
0.0
  0
VERTEX
  5
29A
330
28D
100
AcDbEntity
  8
_U+56FE_U+5C42 1
 62
     7
370
     5
100
AcDbVertex
100
AcDb2dVertex
 10
110.8572467790066
 20
-157.8663074360363
 30
0.0
  0
VERTEX
  5
29B
330
28D
100
AcDbEntity
  8
_U+56FE_U+5C42 1
 62
     7
370
     5
100
AcDbVertex
100
AcDb2dVertex
 10
110.8794597949481
 20
-157.2462460501487
 30
0.0
  0
VERTEX
  5
29C
330
28D
100
AcDbEntity
  8
_U+56FE_U+5C42 1
 62
     7
370
     5
100
AcDbVertex
100
AcDb2dVertex
 10
110.8555513053043
 20
-156.6179471235856
 30
0.0
  0
VERTEX
  5
29D
330
28D
100
AcDbEntity
  8
_U+56FE_U+5C42 1
 62
     7
370
     5
100
AcDbVertex
100
AcDb2dVertex
 10
110.7857044632971
 20
-155.9862315852254
 30
0.0
  0
VERTEX
  5
29E
330
28D
100
AcDbEntity
  8
_U+56FE_U+5C42 1
 62
     7
370
     5
100
AcDbVertex
100
AcDb2dVertex
 10
110.6704554566009
 20
-155.355948369981
 30
0.0
  0
VERTEX
  5
29F
330
28D
100
AcDbEntity
  8
_U+56FE_U+5C42 1
 62
     7
370
     5
100
AcDbVertex
100
AcDb2dVertex
 10
110.5106889247863
 20
-154.731936110839
 30
0.0
  0
VERTEX
  5
2A0
330
28D
100
AcDbEntity
  8
_U+56FE_U+5C42 1
 62
     7
370
     5
100
AcDbVertex
100
AcDb2dVertex
 10
110.3076312207325
 20
-154.1189837941901
 30
0.0
  0
SEQEND
  5
2A1
330
28D
100
AcDbEntity
  8
_U+56FE_U+5C42 1
 62
     7
370
     5
  0
ENDBLK
  5
2A2
330
28B
100
AcDbEntity
  8
0
100
AcDbBlockEnd
  0
ENDSEC
  0
SECTION
  2
ENTITIES
  0
LINE
  5
58
330
2
100
AcDbEntity
  8
0
100
AcDbLine
 10
464.940851852475
 20
306.4846511452552
 30
0.0
 11
461.6861860617401
 21
305.629648707124
 31
0.0
  0
LINE
  5
59
330
2
100
AcDbEntity
  8
0
100
AcDbLine
 10
468.0692426029237
 20
307.3324965339523
 30
0.0
 11
465.1062375179831
 21
306.5266215124567
 31
0.0
  0
LINE
  5
5A
330
2
100
AcDbEntity
  8
0
100
AcDbLine
 10
477.1841140703051
 20
308.3282663038742
 30
0.0
 11
470.0380287105538
 21
307.68528430312
 31
0.0
  0
SPLINE
  5
5B
330
2
100
AcDbEntity
  8
0
100
AcDbSpline
210
0.0
220
0.0
230
1.0
 70
     8
 71
     3
 72
    10
 73
     6
 74
     0
 42
0.000000001
 43
0.0000000001
 40
0.0
 40
0.0
 40
0.0
 40
0.0
 40
0.0553138590639482
 40
0.6567803452303838
 40
1.0
 40
1.0
 40
1.0
 40
1.0
 10
484.344313048572
 20
297.1811968902375
 30
0.0
 10
484.3351070748903
 20
297.1995489408305
 30
0.0
 10
484.2257980757515
 20
297.417455742636
 30
0.0
 10
484.0693788930313
 20
297.7597110616754
 30
0.0
 10
483.9424242240539
 20
298.0814215267961
 30
0.0
 10
483.8962995528328
 20
298.1983041082058
 30
0.0
  0
SPLINE
  5
5C
330
2
100
AcDbEntity
  8
0
100
AcDbSpline
210
0.0
220
0.0
230
1.0
 70
     8
 71
     3
 72
     9
 73
     5
 74
     0
 42
0.000000001
 43
0.0000000001
 40
0.0
 40
0.0
 40
0.0
 40
0.0
 40
0.2470571183999424
 40
1.0
 40
1.0
 40
1.0
 40
1.0
 10
484.6555452475637
 20
296.5751091412728
 30
0.0
 10
484.6298953659546
 20
296.6224583827503
 30
0.0
 10
484.5260737000369
 20
296.8141113971792
 30
0.0
 10
484.4276186023265
 20
297.0148174540419
 30
0.0
 10
484.3534875373483
 20
297.1659376508508
 30
0.0
  0
SPLINE
  5
5D
330
2
100
AcDbEntity
  8
0
100
AcDbSpline
210
0.0
220
0.0
230
1.0
 70
     8
 71
     3
 72
     9
 73
     5
 74
     0
 42
0.000000001
 43
0.0000000001
 40
0.0
 40
0.0
 40
0.0
 40
0.0
 40
0.2822672741959296
 40
1.0
 40
1.0
 40
1.0
 40
1.0
 10
484.9090295983802
 20
296.115527264653
 30
0.0
 10
484.88727428015
 20
296.1536832491344
 30
0.0
 10
484.8102008103606
 20
296.2888600406698
 30
0.0
 10
484.7334307923598
 20
296.4329552489395
 30
0.0
 10
484.6783304380799
 20
296.5363770955462
 30
0.0
  0
SPLINE
  5
5E
330
2
100
AcDbEntity
  8
0
100
AcDbSpline
210
0.0
220
0.0
230
1.0
 70
     8
 71
     3
 72
    10
 73
     6
 74
     0
 42
0.000000001
 43
0.0000000001
 40
0.0
 40
0.0
 40
0.0
 40
0.0
 40
0.4104008840272176
 40
0.9381152092872856
 40
1.0
 40
1.0
 40
1.0
 40
1.0
 10
470.0642460678317
 20
307.6787549017241
 30
0.0
 10
469.7878982338569
 20
307.65098332898
 30
0.0
 10
469.1562083028766
 20
307.5875016558379
 30
0.0
 10
468.4903106134053
 20
307.4598566305436
 30
0.0
 10
468.1113479684658
 20
307.3402859244491
 30
0.0
 10
468.071571748769
 20
307.3277356883283
 30
0.0
  0
LINE
  5
5F
330
2
100
AcDbEntity
  8
0
100
AcDbLine
 10
484.2890710708872
 20
302.5019236894094
 30
0.0
 11
482.2481130555072
 21
301.9705002292425
 31
0.0
  0
LINE
  5
60
330
2
100
AcDbEntity
  8
0
100
AcDbLine
 10
485.8717872051665
 20
281.7507964721575
 30
0.0
 11
494.392449969598
 21
285.6071444364756
 31
0.0
  0
LINE
  5
61
330
2
100
AcDbEntity
  8
0
100
AcDbLine
 10
484.2849060889196
 20
310.3687168299042
 30
0.0
 11
476.4104289000488
 21
308.258653915139
 31
0.0
  0
SPLINE
  5
62
330
2
100
AcDbEntity
  8
0
100
AcDbSpline
210
0.0
220
0.0
230
1.0
 70
     8
 71
     3
 72
    32
 73
    28
 74
     0
 42
0.000000001
 43
0.0000000001
 40
0.0
 40
0.0
 40
0.0
 40
0.0
 40
0.008713036438921
 40
0.0508592945942375
 40
0.0930478555052303
 40
0.1352718802774056
 40
0.1775238575569665
 40
0.2197966186595954
 40
0.2620840789632846
 40
0.3043814260896915
 40
0.346684872614594
 40
0.3889923287439172
 40
0.4313021083353076
 40
0.4736137451966861
 40
0.5159273373877844
 40
0.5582431590486572
 40
0.6005616356765634
 40
0.6428830513090114
 40
0.6852076105816085
 40
0.7275348858667084
 40
0.7698633750408158
 40
0.8121908027976388
 40
0.8545135864581281
 40
0.8968267538848312
 40
0.9391237211825981
 40
0.9813966300414882
 40
1.0
 40
1.0
 40
1.0
 40
1.0
 10
498.2709702942752
 20
289.0243513709431
 30
0.0
 10
498.3096788489268
 20
289.079713594682
 30
0.0
 10
498.5356264618096
 20
289.4028711605048
 30
0.0
 10
498.8822952900192
 20
290.0587316540852
 30
0.0
 10
499.3030310552701
 20
290.9873374581032
 30
0.0
 10
499.6426639912727
 20
291.9738327787797
 30
0.0
 10
499.9060011587015
 20
293.0034178109306
 30
0.0
 10
500.0890741529216
 20
294.0702992430049
 30
0.0
 10
500.191040854044
 20
295.1658974002275
 30
0.0
 10
500.2110246578529
 20
296.2821020913617
 30
0.0
 10
500.1489381199057
 20
297.4104845461717
 30
0.0
 10
500.005270423427
 20
298.5425934084616
 30
0.0
 10
499.7811295228101
 20
299.6699526344692
 30
0.0
 10
499.4781973456002
 20
300.7841363412599
 30
0.0
 10
499.0987500516932
 20
301.8768292452406
 30
0.0
 10
498.6456005198441
 20
302.9398723542708
 30
0.0
 10
498.1221116146738
 20
303.9653264920737
 30
0.0
 10
497.5321501237129
 20
304.9455240753713
 30
0.0
 10
496.8800701085029
 20
305.8731177414292
 30
0.0
 10
496.1706839983238
 20
306.7411438690677
 30
0.0
 10
495.4092303304153
 20
307.5430136702491
 30
0.0
 10
494.6013724977814
 20
308.2727835896259
 30
0.0
 10
493.7530608297366
 20
308.9243844818371
 30
0.0
 10
492.8708581452924
 20
309.4947014144643
 30
0.0
 10
491.960607152618
 20
309.9723395125035
 30
0.0
 10
491.205239524994
 20
310.3037737349394
 30
0.0
 10
490.751613480678
 20
310.4403673389503
 30
0.0
 10
490.612988497529
 20
310.4821094000414
 30
0.0
  0
LINE
  5
63
330
2
100
AcDbEntity
  8
0
100
AcDbLine
 10
460.7039726650428
 20
300.415255836823
 30
0.0
 11
460.7651632924089
 21
300.4277408348114
 31
0.0
  0
LINE
  5
64
330
2
100
AcDbEntity
  8
0
100
AcDbLine
 10
459.3619573617383
 20
302.7444286505391
 30
0.0
 11
459.2988007565323
 21
302.7100477277671
 31
0.0
  0
LINE
  5
65
330
2
100
AcDbEntity
  8
0
100
AcDbLine
 10
488.5504968863689
 20
294.5704985331929
 30
0.0
 11
491.2311348713264
 21
295.9108175256716
 31
0.0
  0
LINE
  5
66
330
2
100
AcDbEntity
  8
0
100
AcDbLine
 10
487.2863455435012
 20
303.8003970606557
 30
0.0
 11
486.8068020037271
 21
303.5606252907687
 31
0.0
  0
LINE
  5
67
330
2
100
AcDbEntity
  8
0
100
AcDbLine
 10
490.5605622728778
 20
303.8255271943679
 30
0.0
 11
488.5641633312225
 21
326.6371584992589
 31
0.0
  0
SPLINE
  5
68
330
2
100
AcDbEntity
  8
0
100
AcDbSpline
210
0.0
220
0.0
230
1.0
 70
     8
 71
     3
 72
    11
 73
     7
 74
     0
 42
0.000000001
 43
0.0000000001
 40
0.0
 40
0.0
 40
0.0
 40
0.0
 40
0.0407743571792118
 40
0.4419390020606102
 40
0.8295733500244708
 40
1.0
 40
1.0
 40
1.0
 40
1.0
 10
485.6252782551948
 20
328.3113571419482
 30
0.0
 10
485.6218992074401
 20
328.3139949694951
 30
0.0
 10
485.5852748901987
 20
328.3425854600473
 30
0.0
 10
485.4916086529736
 20
328.351989212037
 30
0.0
 10
485.3920662924735
 20
328.3379226483197
 30
0.0
 10
485.3371134782363
 20
328.3128456554202
 30
0.0
 10
485.3203313987293
 20
328.3051873745028
 30
0.0
  0
LINE
  5
69
330
2
100
AcDbEntity
  8
0
100
AcDbLine
 10
488.3792337302305
 20
326.9370945961228
 30
0.0
 11
485.6223606229898
 21
328.3155311497262
 31
0.0
  0
LINE
  5
6A
330
2
100
AcDbEntity
  8
0
100
AcDbLine
 10
485.3203313987458
 20
328.3051873744896
 30
0.0
 11
479.3739985654864
 21
325.3320209578939
 31
0.0
  0
SPLINE
  5
6B
330
2
100
AcDbEntity
  8
0
100
AcDbSpline
210
0.0
220
0.0
230
1.0
 70
     8
 71
     3
 72
    11
 73
     7
 74
     0
 42
0.000000001
 43
0.0000000001
 40
0.0
 40
0.0
 40
0.0
 40
0.0
 40
0.3001259933591704
 40
0.6584250671372497
 40
0.9857813923206
 40
1.0
 40
1.0
 40
1.0
 40
1.0
 10
488.5641633312108
 20
326.6371584992575
 30
0.0
 10
488.557863987279
 20
326.6772327532376
 30
0.0
 10
488.5440443047356
 20
326.7651488083319
 30
0.0
 10
488.4740914486889
 20
326.8714150243777
 30
0.0
 10
488.4025067887655
 20
326.9374347536226
 30
0.0
 10
488.3593493971942
 20
326.9453515202008
 30
0.0
 10
488.3575529011396
 20
326.9456810683826
 30
0.0
  0
LINE
  5
6C
330
2
100
AcDbEntity
  8
0
100
AcDbLine
 10
479.3740902790885
 20
325.3323778867791
 30
0.0
 11
479.3338780506386
 21
325.312286893929
 31
0.0
  0
LINE
  5
6D
330
2
100
AcDbEntity
  8
0
100
AcDbLine
 10
462.6052783343819
 20
316.5917309011472
 30
0.0
 11
461.6861860963392
 21
305.6296491197894
 31
0.0
  0
SPLINE
  5
6E
330
2
100
AcDbEntity
  8
0
100
AcDbSpline
210
0.0
220
0.0
230
1.0
 70
     8
 71
     3
 72
    15
 73
    11
 74
     0
 42
0.000000001
 43
0.0000000001
 40
0.0
 40
0.0
 40
0.0
 40
0.0
 40
0.0757831162662718
 40
0.2199864614524736
 40
0.3645420439429674
 40
0.5095028181196433
 40
0.654979535483669
 40
0.8009595998195441
 40
0.9467695525608535
 40
1.0
 40
1.0
 40
1.0
 40
1.0
 10
474.6005838174585
 20
323.9855540646582
 30
0.0
 10
474.4914165530524
 20
323.9705922351317
 30
0.0
 10
474.1745211628077
 20
323.9271603983771
 30
0.0
 10
473.6718926890683
 20
323.8178944762605
 30
0.0
 10
473.1187019589026
 20
323.6444988930941
 30
0.0
 10
472.6231354399991
 20
323.4273379428411
 30
0.0
 10
472.196201495663
 20
323.1709915802455
 30
0.0
 10
471.850326674012
 20
322.8791470061102
 30
0.0
 10
471.6448132967142
 20
322.6249218638334
 30
0.0
 10
471.5619160968389
 20
322.4692596100161
 30
0.0
 10
471.5397464516975
 20
322.4276300141523
 30
0.0
  0
SPLINE
  5
6F
330
2
100
AcDbEntity
  8
0
100
AcDbSpline
210
0.0
220
0.0
230
1.0
 70
     8
 71
     3
 72
     9
 73
     5
 74
     0
 42
0.000000001
 43
0.0000000001
 40
0.0
 40
0.0
 40
0.0
 40
0.0
 40
0.1257485721718141
 40
1.0
 40
1.0
 40
1.0
 40
1.0
 10
469.0582342396403
 20
320.177229325661
 30
0.0
 10
469.0516054494525
 20
320.1733814472181
 30
0.0
 10
468.998890813626
 20
320.142781668815
 30
0.0
 10
468.9395666070557
 20
320.1146853349491
 30
0.0
 10
468.8877023347568
 20
320.0901220749498
 30
0.0
  0
SPLINE
  5
70
330
2
100
AcDbEntity
  8
0
100
AcDbSpline
210
0.0
220
0.0
230
1.0
 70
     8
 71
     3
 72
    13
 73
     9
 74
     0
 42
0.000000001
 43
0.0000000001
 40
0.0
 40
0.0
 40
0.0
 40
0.0
 40
0.0651279634329867
 40
0.2457008971898762
 40
0.436798222405601
 40
0.6267958658289633
 40
0.8163839606149608
 40
1.0
 40
1.0
 40
1.0
 40
1.0
 10
471.5379872483899
 20
322.4322829795012
 30
0.0
 10
471.5109066419937
 20
322.3768571672442
 30
0.0
 10
471.408742702923
 20
322.1677584778148
 30
0.0
 10
471.166618460445
 20
321.8180918096014
 30
0.0
 10
470.7727711355862
 20
321.3727621518393
 30
0.0
 10
470.2790432895203
 20
320.9426504058092
 30
0.0
 10
469.7135503346966
 20
320.5391961937203
 30
0.0
 10
469.2743301205618
 20
320.2965908823323
 30
0.0
 10
469.0582342396403
 20
320.177229325661
 30
0.0
  0
LINE
  5
71
330
2
100
AcDbEntity
  8
0
100
AcDbLine
 10
468.8897322105013
 20
320.0898877803844
 30
0.0
 11
462.9433993772757
 21
317.1167213637547
 31
0.0
  0
SPLINE
  5
72
330
2
100
AcDbEntity
  8
0
100
AcDbSpline
210
0.0
220
0.0
230
1.0
 70
     8
 71
     3
 72
     9
 73
     5
 74
     0
 42
0.000000001
 43
0.0000000001
 40
0.0
 40
0.0
 40
0.0
 40
0.0
 40
0.4941221777449794
 40
1.0
 40
1.0
 40
1.0
 40
1.0
 10
462.7036846909971
 20
316.8759643207075
 30
0.0
 10
462.6781777146681
 20
316.830989416667
 30
0.0
 10
462.6265569263734
 20
316.7399696121205
 30
0.0
 10
462.6124265688591
 20
316.6415295469479
 30
0.0
 10
462.6052783343721
 20
316.5917309011557
 30
0.0
  0
SPLINE
  5
73
330
2
100
AcDbEntity
  8
0
100
AcDbSpline
210
0.0
220
0.0
230
1.0
 70
     8
 71
     3
 72
    10
 73
     6
 74
     0
 42
0.000000001
 43
0.0000000001
 40
0.0
 40
0.0
 40
0.0
 40
0.0
 40
0.3539970048471119
 40
0.8825702336859253
 40
1.0
 40
1.0
 40
1.0
 40
1.0
 10
462.9433993772652
 20
317.1167213637707
 30
0.0
 10
462.9104451637238
 20
317.0966209661238
 30
0.0
 10
462.8282851240966
 20
317.0465075120393
 30
0.0
 10
462.7425011743017
 20
316.9590181267945
 30
0.0
 10
462.7096553681721
 20
316.8887394982117
 30
0.0
 10
462.7036846909971
 20
316.8759643207075
 30
0.0
  0
LINE
  5
74
330
2
100
AcDbEntity
  8
0
100
AcDbLine
 10
491.3903074704487
 20
296.0017409276588
 30
0.0
 11
492.263737167016
 21
296.5666660067577
 31
0.0
  0
LINE
  5
75
330
2
100
AcDbEntity
  8
0
100
AcDbLine
 10
488.4305859784624
 20
304.2329683101769
 30
0.0
 11
487.4545867306405
 21
303.8731790163155
 31
0.0
  0
ARC
  5
76
330
2
100
AcDbEntity
  8
0
100
AcDbCircle
 10
466.2901450270854
 20
339.2085293089018
 30
0.0
 40
0.1696311063253779
100
AcDbArc
 50
296.5650511770984
 51
358.3672830916983
  0
LINE
  5
77
330
2
100
AcDbEntity
  8
0
100
AcDbLine
 10
466.4597074153407
 20
339.2036960168459
 30
0.0
 11
466.4952053947581
 21
340.449079653568
 31
0.0
  0
LINE
  5
78
330
2
100
AcDbEntity
  8
0
100
AcDbLine
 10
465.8248750852861
 20
338.7862408013789
 30
0.0
 11
466.3660064919048
 21
339.0568065046882
 31
0.0
  0
ARC
  5
79
330
2
100
AcDbEntity
  8
0
100
AcDbCircle
 10
464.7282023626559
 20
339.0885820033167
 30
0.0
 40
0.1696311063254219
100
AcDbArc
 50
181.6327169083016
 51
243.4349488229016
  0
SPLINE
  5
7A
330
2
100
AcDbEntity
  8
0
100
AcDbSpline
210
0.0
220
0.0
230
1.0
 70
     8
 71
     3
 72
    12
 73
     8
 74
     0
 42
0.000000001
 43
0.0000000001
 40
0.0
 40
0.0
 40
0.0
 40
0.0
 40
0.1475158588788654
 40
0.4231868005389715
 40
0.6937153230115953
 40
0.9582143884426448
 40
1.0
 40
1.0
 40
1.0
 40
1.0
 10
464.953577702213
 20
338.7862409130885
 30
0.0
 10
464.9910701901372
 20
338.7698860234798
 30
0.0
 10
465.0986269377946
 20
338.7229678584816
 30
0.0
 10
465.3136367068177
 20
338.6871080580762
 30
0.0
 10
465.572463513302
 20
338.6988234309413
 30
0.0
 10
465.7392260691835
 20
338.7451231532637
 30
0.0
 10
465.8145929766657
 20
338.781304654489
 30
0.0
 10
465.8248750852951
 20
338.7862408013789
 30
0.0
  0
LINE
  5
7B
330
2
100
AcDbEntity
  8
0
100
AcDbLine
 10
464.5231416769669
 20
340.3291318100527
 30
0.0
 11
464.5586403577669
 21
339.083748635741
 31
0.0
  0
LINE
  5
7C
330
2
100
AcDbEntity
  8
0
100
AcDbLine
 10
464.6523406109564
 20
338.9368594587065
 30
0.0
 11
464.9535777022075
 21
338.7862409130979
 31
0.0
  0
SPLINE
  5
7D
330
2
100
AcDbEntity
  8
0
100
AcDbSpline
210
0.0
220
0.0
230
1.0
 70
     8
 71
     3
 72
    11
 73
     7
 74
     0
 42
0.000000001
 43
0.0000000001
 40
0.0
 40
0.0
 40
0.0
 40
0.0
 40
0.2629738349761944
 40
0.6391771404057138
 40
0.9581775518461967
 40
1.0
 40
1.0
 40
1.0
 40
1.0
 10
467.0076714299738
 20
339.8661722399594
 30
0.0
 10
467.0432068482341
 20
339.8863493555452
 30
0.0
 10
467.129578281456
 20
339.9353913107763
 30
0.0
 10
467.2162161428849
 20
340.0422614030737
 30
0.0
 10
467.2605954654229
 20
340.1511675471138
 30
0.0
 10
467.2479117608722
 20
340.2021887458431
 30
0.0
 10
467.2464416112909
 20
340.208102538115
 30
0.0
  0
LINE
  5
7E
330
2
100
AcDbEntity
  8
0
100
AcDbLine
 10
467.2503625076988
 20
340.1893305653431
 30
0.0
 11
467.2672153581461
 21
340.7805748101422
 31
0.0
  0
SPLINE
  5
7F
330
2
100
AcDbEntity
  8
0
100
AcDbSpline
210
0.0
220
0.0
230
1.0
 70
     8
 71
     3
 72
    11
 73
     7
 74
     0
 42
0.000000001
 43
0.0000000001
 40
0.0
 40
0.0
 40
0.0
 40
0.0
 40
0.0409110022202005
 40
0.3570778594329024
 40
0.6713435791916779
 40
1.0
 40
1.0
 40
1.0
 40
1.0
 10
463.3602299107931
 20
339.6656493977143
 30
0.0
 10
463.3584371671926
 20
339.6556321545213
 30
0.0
 10
463.3427898104265
 20
339.5682000320436
 30
0.0
 10
463.4068865297486
 20
339.4021690032616
 30
0.0
 10
463.5454275416179
 20
339.1967747813097
 30
0.0
 10
463.7014339283139
 20
339.0881227999042
 30
0.0
 10
463.7811830883438
 20
339.032580815783
 30
0.0
  0
LINE
  5
80
330
2
100
AcDbEntity
  8
0
100
AcDbLine
 10
463.3414568834795
 20
340.1499580713261
 30
0.0
 11
463.355138185711
 21
339.645679424718
 31
0.0
  0
LINE
  5
81
330
2
100
AcDbEntity
  8
0
100
AcDbLine
 10
467.0075253137675
 20
339.8660991818583
 30
0.0
 11
467.0076714299653
 21
339.8661722399741
 31
0.0
  0
SPLINE
  5
82
330
2
100
AcDbEntity
  8
0
100
AcDbSpline
210
0.0
220
0.0
230
1.0
 70
     8
 71
     3
 72
    11
 73
     7
 74
     0
 42
0.000000001
 43
0.0000000001
 40
0.0
 40
0.0
 40
0.0
 40
0.0
 40
0.0299632897717728
 40
0.4741515006760018
 40
0.8610345542979905
 40
1.0
 40
1.0
 40
1.0
 40
1.0
 10
466.8538242525236
 20
339.7172720153644
 30
0.0
 10
466.8535137299631
 20
339.7181890217049
 30
0.0
 10
466.8485998924242
 20
339.7327001096314
 30
0.0
 10
466.8610722821157
 20
339.7560690581794
 30
0.0
 10
466.9292447506598
 20
339.8245702761511
 30
0.0
 10
466.9911623998719
 20
339.8574184330054
 30
0.0
 10
467.0075253137731
 20
339.8660991818591
 30
0.0
  0
LINE
  5
83
330
2
100
AcDbEntity
  8
0
100
AcDbLine
 10
463.7811830883519
 20
339.0325808157743
 30
0.0
 11
464.5655518328041
 21
338.5532441622365
 31
0.0
  0
SPLINE
  5
84
330
2
100
AcDbEntity
  8
0
100
AcDbSpline
210
0.0
220
0.0
230
1.0
 70
     8
 71
     3
 72
    11
 73
     7
 74
     0
 42
0.000000001
 43
0.0000000001
 40
0.0
 40
0.0
 40
0.0
 40
0.0
 40
0.2629734182137603
 40
0.6391765415676094
 40
0.9581768083763419
 40
1.0
 40
1.0
 40
1.0
 40
1.0
 10
470.1053648199712
 20
340.9453980551063
 30
0.0
 10
470.1409002278149
 20
340.9655751645033
 30
0.0
 10
470.2272716916799
 20
341.014617136467
 30
0.0
 10
470.313908844919
 20
341.1214870219052
 30
0.0
 10
470.3582899254664
 20
341.230393742353
 30
0.0
 10
470.3456046826119
 20
341.2814146726345
 30
0.0
 10
470.3441343310306
 20
341.2873285291038
 30
0.0
  0
LINE
  5
85
330
2
100
AcDbEntity
  8
0
100
AcDbLine
 10
470.3480557859966
 20
341.2685564571761
 30
0.0
 11
470.3858455910543
 21
342.5943248108697
 31
0.0
  0
SPLINE
  5
86
330
2
100
AcDbEntity
  8
0
100
AcDbSpline
210
0.0
220
0.0
230
1.0
 70
     8
 71
     3
 72
    10
 73
     6
 74
     0
 42
0.000000001
 43
0.0000000001
 40
0.0
 40
0.0
 40
0.0
 40
0.0
 40
0.2832709091945991
 40
0.6226914861216219
 40
1.0
 40
1.0
 40
1.0
 40
1.0
 10
468.8546519226033
 20
341.1328642240304
 30
0.0
 10
468.8598852081659
 20
341.0948863687686
 30
0.0
 10
468.8713891157631
 20
341.0114027269079
 30
0.0
 10
468.9584376785169
 20
340.9043851191877
 30
0.0
 10
469.0448475181469
 20
340.8526735759206
 30
0.0
 10
469.0903363487156
 20
340.8254510091366
 30
0.0
  0
LINE
  5
87
330
2
100
AcDbEntity
  8
0
100
AcDbLine
 10
468.7889186229884
 20
343.208901856141
 30
0.0
 11
468.8476454944097
 21
341.1486090202286
 31
0.0
  0
LINE
  5
88
330
2
100
AcDbEntity
  8
0
100
AcDbLine
 10
469.5537648801817
 20
340.6695980852167
 30
0.0
 11
470.1053648199821
 21
340.9453980551
 31
0.0
  0
LINE
  5
89
330
2
100
AcDbEntity
  8
0
100
AcDbLine
 10
469.090336348705
 20
340.8254510091523
 30
0.0
 11
469.4020419731377
 21
340.6695981969359
 31
0.0
  0
ARC
  5
8A
330
2
100
AcDbEntity
  8
0
100
AcDbCircle
 10
469.477903219133
 20
340.8213209343826
 30
0.0
 40
0.1696311063254477
100
AcDbArc
 50
243.4349488229016
 51
296.5650511770984
  0
SPLINE
  5
8B
330
2
100
AcDbEntity
  8
0
100
AcDbSpline
210
0.0
220
0.0
230
1.0
 70
     8
 71
     3
 72
    10
 73
     6
 74
     0
 42
0.000000001
 43
0.0000000001
 40
0.0
 40
0.0
 40
0.0
 40
0.0
 40
0.4620601501199453
 40
0.9266103297949314
 40
1.0
 40
1.0
 40
1.0
 40
1.0
 10
470.3612992981781
 20
341.7331792698754
 30
0.0
 10
470.4447572830998
 20
341.7333403188293
 30
0.0
 10
470.6121230057491
 20
341.7336632846253
 30
0.0
 10
470.7770211926897
 20
341.7820078622654
 30
0.0
 10
470.8523807521777
 20
341.8181215282859
 30
0.0
 10
470.8626618518561
 20
341.8230484174907
 30
0.0
  0
LINE
  5
8C
330
2
100
AcDbEntity
  8
0
100
AcDbLine
 10
470.8626618518403
 20
341.8230484174883
 30
0.0
 11
470.9827369729373
 21
341.8830859780198
 31
0.0
  0
LINE
  5
8D
330
2
100
AcDbEntity
  8
0
100
AcDbLine
 10
484.4191007490885
 20
345.7629781051363
 30
0.0
 11
484.4075385786178
 21
346.33660825805
 31
0.0
  0
ARC
  5
8E
330
2
100
AcDbEntity
  8
0
100
AcDbCircle
 10
485.5643631883277
 20
345.8396142981186
 30
0.0
 40
0.1017786637952393
100
AcDbArc
 50
63.43494882290162
 51
116.5650511770983
  0
LINE
  5
8F
330
2
100
AcDbEntity
  8
0
100
AcDbLine
 10
486.1137085197379
 20
345.6787333156455
 30
0.0
 11
485.6098797524654
 21
345.9306476992964
 31
0.0
  0
LINE
  5
90
330
2
100
AcDbEntity
  8
0
100
AcDbLine
 10
485.5188462316636
 20
345.9306476992964
 30
0.0
 11
484.8013039772996
 21
345.5718765721144
 31
0.0
  0
SPLINE
  5
91
330
2
100
AcDbEntity
  8
0
100
AcDbSpline
210
0.0
220
0.0
230
1.0
 70
     8
 71
     3
 72
    10
 73
     6
 74
     0
 42
0.000000001
 43
0.0000000001
 40
0.0
 40
0.0
 40
0.0
 40
0.0
 40
0.4443805684889567
 40
0.8539727709018547
 40
1.0
 40
1.0
 40
1.0
 40
1.0
 10
486.3847964097216
 20
346.9891448590304
 30
0.0
 10
486.3565808058122
 20
346.9999827825199
 30
0.0
 10
486.3023584586581
 20
347.0208101818472
 30
0.0
 10
486.2316998591447
 20
347.0190233480137
 30
0.0
 10
486.2004148648205
 20
346.9991008843664
 30
0.0
 10
486.1921925803316
 20
346.9938648864904
 30
0.0
  0
LINE
  5
92
330
2
100
AcDbEntity
  8
0
100
AcDbLine
 10
486.1908680392035
 20
346.9975452387827
 30
0.0
 11
484.6728065084187
 21
346.2385144733732
 31
0.0
  0
LINE
  5
93
330
2
100
AcDbEntity
  8
0
100
AcDbLine
 10
488.8413071121483
 20
345.7608895078229
 30
0.0
 11
486.3847964097114
 21
346.9891448590413
 31
0.0
  0
LINE
  5
94
330
2
100
AcDbEntity
  8
0
100
AcDbLine
 10
484.5463865035886
 20
346.045982644382
 30
0.0
 11
484.5001636266005
 21
345.7224467147422
 31
0.0
  0
LINE
  5
95
330
2
100
AcDbEntity
  8
0
100
AcDbLine
 10
489.2654208903405
 20
344.1024376062222
 30
0.0
 11
489.0772434434697
 21
345.4195704279338
 31
0.0
  0
LINE
  5
96
330
2
100
AcDbEntity
  8
0
100
AcDbLine
 10
490.1985377143057
 20
343.6363187183763
 30
0.0
 11
489.2653525240513
 21
344.1029113135036
 31
0.0
  0
LINE
  5
97
330
2
100
AcDbEntity
  8
0
100
AcDbLine
 10
490.3636387436689
 20
342.7907092922181
 30
0.0
 11
490.2537763407138
 21
343.5596798981136
 31
0.0
  0
SPLINE
  5
98
330
2
100
AcDbEntity
  8
0
100
AcDbSpline
210
0.0
220
0.0
230
1.0
 70
     8
 71
     3
 72
    11
 73
     7
 74
     0
 42
0.000000001
 43
0.0000000001
 40
0.0
 40
0.0
 40
0.0
 40
0.0
 40
0.2176575546559938
 40
0.5084808748268155
 40
0.8000702778683081
 40
1.0
 40
1.0
 40
1.0
 40
1.0
 10
489.0772434434706
 20
345.4195704279415
 30
0.0
 10
489.0709081483769
 20
345.4493811448791
 30
0.0
 10
489.0561079435475
 20
345.519023475703
 30
0.0
 10
488.9978638407101
 20
345.6259381169335
 30
0.0
 10
488.9209996687424
 20
345.7134025736558
 30
0.0
 10
488.8643499023002
 20
345.7471588470668
 30
0.0
 10
488.8413071121349
 20
345.7608895078237
 30
0.0
  0
ARC
  5
99
330
2
100
AcDbEntity
  8
0
100
AcDbCircle
 10
490.1530212169688
 20
343.545285283781
 30
0.0
 40
0.101778663795249
100
AcDbArc
 50
8.130733838098775
 51
63.43494882290162
  0
LINE
  5
9A
330
2
100
AcDbEntity
  8
0
100
AcDbLine
 10
468.2939495467572
 20
325.5798963450601
 30
0.0
 11
468.4810187223653
 21
322.4900373220243
 31
0.0
  0
LINE
  5
9B
330
2
100
AcDbEntity
  8
0
100
AcDbLine
 10
493.7374823691069
 20
328.8741122365036
 30
0.0
 11
494.7316261658431
 21
340.4904437858876
 31
0.0
  0
SPLINE
  5
9C
330
2
100
AcDbEntity
  8
0
100
AcDbSpline
210
0.0
220
0.0
230
1.0
 70
     8
 71
     3
 72
    10
 73
     6
 74
     0
 42
0.000000001
 43
0.0000000001
 40
0.0
 40
0.0
 40
0.0
 40
0.0
 40
0.3475889408020505
 40
0.7314370154917375
 40
1.0
 40
1.0
 40
1.0
 40
1.0
 10
493.5453292880883
 20
328.6243036425686
 30
0.0
 10
493.5775127689018
 20
328.6433345574649
 30
0.0
 10
493.6452369867668
 20
328.6833816186909
 30
0.0
 10
493.7154705087764
 20
328.7673162377398
 30
0.0
 10
493.7276237363911
 20
328.8365187335718
 30
0.0
 10
493.7326265747606
 20
328.8650057258661
 30
0.0
  0
LINE
  5
9D
330
2
100
AcDbEntity
  8
0
100
AcDbLine
 10
488.6063756089376
 20
326.154826803014
 30
0.0
 11
493.5453292880733
 21
328.6243036425649
 31
0.0
  0
LINE
  5
9E
330
2
100
AcDbEntity
  8
0
100
AcDbLine
 10
456.4378681149879
 20
334.3731310921417
 30
0.0
 11
457.4320123585663
 21
322.756799766162
 31
0.0
  0
SPLINE
  5
9F
330
2
100
AcDbEntity
  8
0
100
AcDbSpline
210
0.0
220
0.0
230
1.0
 70
     8
 71
     3
 72
    10
 73
     6
 74
     0
 42
0.000000001
 43
0.0000000001
 40
0.0
 40
0.0
 40
0.0
 40
0.0
 40
0.2421349976286305
 40
0.5666045723632633
 40
1.0
 40
1.0
 40
1.0
 40
1.0
 10
457.438291780467
 20
322.750474860709
 30
0.0
 10
457.4414712275249
 20
322.724357840936
 30
0.0
 10
457.4489112475889
 20
322.6632430786555
 30
0.0
 10
457.5142451769415
 20
322.5745229193716
 30
0.0
 10
457.5841753589931
 20
322.531559923424
 30
0.0
 10
457.624165886409
 20
322.5069909488137
 30
0.0
  0
LINE
  5
A0
330
2
100
AcDbEntity
  8
0
100
AcDbLine
 10
457.6241658864082
 20
322.5069909488191
 30
0.0
 11
465.6740516642144
 21
318.482048059916
 31
0.0
  0
LWPOLYLINE
  5
A1
330
2
100
AcDbEntity
  8
0
100
AcDbPolyline
 90
       39
 70
   128
 43
0.0
 10
475.8926688244206
 20
275.8566735268384
 10
476.2027663328021
 20
276.005245857228
 10
477.1320712889529
 20
276.5319794831798
 10
478.0098643079464
 20
277.1566894005527
 10
478.8301492914205
 20
277.8751190211198
 10
479.5873227165858
 20
278.6823476999973
 10
480.2762124484003
 20
279.5728723703786
 10
480.8921127115318
 20
280.5406015252589
 10
481.4308162488875
 20
281.5789332313581
 10
481.8886430169889
 20
282.6807674159431
 10
482.2624656209349
 20
283.8385755817514
 10
482.5497304063667
 20
285.0444566548787
 10
482.7484756962718
 20
286.2901714759722
 10
482.857342542949
 20
287.5672054249833
 10
482.8755887476463
 20
288.8668387052027
 10
482.8030891955486
 20
290.1801938925909
 10
482.640338536899
 20
291.4982981275277
 10
482.3884485059454
 20
292.8121444129479
 10
482.0491407716338
 20
294.1127638122562
 10
481.6247326385201
 20
295.3912695917184
 10
481.1181236419096
 20
296.6389280780206
 10
480.5327732057104
 20
297.8472153977033
 10
479.8726805348025
 20
299.0078793550937
 10
479.1423551236525
 20
300.1129899160168
 10
478.3467859245029
 20
301.154996617305
 10
477.4914073876318
 20
302.1267864663058
 10
476.5820614799641
 20
303.0217184759089
 10
475.6249610445153
 20
303.8336784360553
 10
474.6266442227187
 20
304.5571205508125
 10
473.5939288769211
 20
305.187101122803
 10
472.5338723748855
 20
305.7193209936521
 10
471.4537130540655
 20
306.1501431895923
 10
470.3608317933742
 20
306.476622940843
 10
469.2626921367966
 20
306.6965290349429
 10
468.1667973970073
 20
306.8083645428227
 10
467.08063234288
 20
306.8113573234651
 10
466.011616281423
 20
306.7054962515125
 10
464.9670534587295
 20
306.4914969485255
 10
464.940851852475
 20
306.4846511452552
  0
SPLINE
  5
A2
330
2
100
AcDbEntity
  8
0
100
AcDbSpline
210
0.0
220
0.0
230
1.0
 70
     8
 71
     3
 72
     9
 73
     5
 74
     0
 42
0.000000001
 43
0.0000000001
 40
0.0
 40
0.0
 40
0.0
 40
0.0
 40
0.9519818248144462
 40
1.0
 40
1.0
 40
1.0
 40
1.0
 10
483.8563206857932
 20
298.2031198006464
 30
0.0
 10
483.7423320139329
 20
298.4019637256606
 30
0.0
 10
483.6225937280865
 20
298.6108373825217
 30
0.0
 10
483.5115904059547
 20
298.8223872350401
 30
0.0
 10
483.5062602289864
 20
298.8325454729188
 30
0.0
  0
LINE
  5
A3
330
2
100
AcDbEntity
  8
0
100
AcDbLine
 10
484.3265342370009
 20
297.1455552374068
 30
0.0
 11
483.8563206857948
 21
298.2031198006463
 31
0.0
  0
SPLINE
  5
A4
330
2
100
AcDbEntity
  8
0
100
AcDbSpline
210
0.0
220
0.0
230
1.0
 70
     8
 71
     3
 72
     9
 73
     5
 74
     0
 42
0.000000001
 43
0.0000000001
 40
0.0
 40
0.0
 40
0.0
 40
0.0
 40
0.0480213550720668
 40
1.0
 40
1.0
 40
1.0
 40
1.0
 10
484.558495939566
 20
296.4659420642355
 30
0.0
 10
484.5544980683978
 20
296.4767641081593
 30
0.0
 10
484.4712461242946
 20
296.7021230949591
 30
0.0
 10
484.3971101250704
 20
296.9292936859853
 30
0.0
 10
484.3265342369886
 20
297.1455552373978
 30
0.0
  0
ARC
  5
A5
330
2
100
AcDbEntity
  8
0
100
AcDbCircle
 10
478.0178424132702
 20
298.9967013742788
 30
0.0
 40
9.368735612931462
100
AcDbArc
 50
85.43544561989696
 51
95.10553320700266
  0
LINE
  5
A6
330
2
100
AcDbEntity
  8
0
100
AcDbLine
 10
473.6623304728134
 20
307.7827467544737
 30
0.0
 11
478.7634275570559
 21
308.3357221890147
 31
0.0
  0
ARC
  5
A7
330
2
100
AcDbEntity
  8
0
100
AcDbCircle
 10
472.3255373194008
 20
296.5741168656607
 30
0.0
 40
11.28806448953576
100
AcDbArc
 50
75.96031185180294
 51
83.19876539309611
  0
LINE
  5
A8
330
2
100
AcDbEntity
  8
0
100
AcDbLine
 10
475.0639534779574
 20
307.5249833547561
 30
0.0
 11
480.8033085798601
 21
307.960579422197
 31
0.0
  0
ARC
  5
A9
330
2
100
AcDbEntity
  8
0
100
AcDbCircle
 10
477.5836400084007
 20
296.9035299911458
 30
0.0
 40
11.51627577953317
100
AcDbArc
 50
63.30330527929813
 51
73.76512907300011
  0
LINE
  5
AA
330
2
100
AcDbEntity
  8
0
100
AcDbLine
 10
478.0534136382956
 20
306.3494656198888
 30
0.0
 11
482.7575279886765
 21
307.1921397610875
 31
0.0
  0
ARC
  5
AB
330
2
100
AcDbEntity
  8
0
100
AcDbCircle
 10
471.1722966671898
 20
293.709429533248
 30
0.0
 40
14.39167408752609
100
AcDbArc
 50
55.28078841839741
 51
61.4365424403002
  0
LINE
  5
AC
330
2
100
AcDbEntity
  8
0
100
AcDbLine
 10
479.3691489151566
 20
305.5387108413578
 30
0.0
 11
484.4688110333156
 21
305.9940121932857
 31
0.0
  0
ARC
  5
AD
330
2
100
AcDbEntity
  8
0
100
AcDbCircle
 10
474.5058178154259
 20
292.4311284669119
 30
0.0
 40
16.78956744943383
100
AcDbArc
 50
355.8478018232956
 51
11.58180973269606
  0
LINE
  5
AE
330
2
100
AcDbEntity
  8
0
100
AcDbLine
 10
486.9707008140143
 20
288.4419302101629
 30
0.0
 11
491.2513165571421
 21
291.2154611479551
 31
0.0
  0
ARC
  5
AF
330
2
100
AcDbEntity
  8
0
100
AcDbCircle
 10
470.7494536188887
 20
290.1459725671434
 30
0.0
 40
16.3105064580708
100
AcDbArc
 50
348.3403455396051
 51
354.0030723317038
  0
LINE
  5
B0
330
2
100
AcDbEntity
  8
0
100
AcDbLine
 10
486.7233986977163
 20
286.8496565116144
 30
0.0
 11
490.8914001827803
 21
288.8981094488666
 31
0.0
  0
ARC
  5
B1
330
2
100
AcDbEntity
  8
0
100
AcDbCircle
 10
478.0643740683702
 20
291.9466227824455
 30
0.0
 40
13.1843100875518
100
AcDbArc
 50
337.0722079159973
 51
346.630925152596
  0
LINE
  5
B2
330
2
100
AcDbEntity
  8
0
100
AcDbLine
 10
485.6765599029517
 20
283.6559895225999
 30
0.0
 11
490.2070781392154
 21
286.8104013763016
 31
0.0
  0
ARC
  5
B3
330
2
100
AcDbEntity
  8
0
100
AcDbCircle
 10
474.0275815164672
 20
289.0705383449795
 30
0.0
 40
12.84585677946899
100
AcDbArc
 50
328.4303448441026
 51
335.0705756626963
  0
LINE
  5
B4
330
2
100
AcDbEntity
  8
0
100
AcDbLine
 10
484.9723070734138
 20
282.3452860165028
 30
0.0
 11
489.1821288471363
 21
284.9028440105527
 31
0.0
  0
ARC
  5
B5
330
2
100
AcDbEntity
  8
0
100
AcDbCircle
 10
480.5732534221657
 20
290.6215016647536
 30
0.0
 40
10.33517205701444
100
AcDbArc
 50
315.1596088364964
 51
326.4049199825004
  0
LINE
  5
B6
330
2
100
AcDbEntity
  8
0
100
AcDbLine
 10
483.0135038971847
 20
279.9450786572877
 30
0.0
 11
487.9016533755238
 21
283.333817837121
 31
0.0
  0
ARC
  5
B7
330
2
100
AcDbEntity
  8
0
100
AcDbCircle
 10
470.7550329910465
 20
293.5671551052923
 30
0.0
 40
18.32569441279086
100
AcDbArc
 50
302.580037570683
 51
311.9839638818756
  0
SPLINE
  5
B8
330
2
100
AcDbEntity
  8
0
100
AcDbSpline
210
0.0
220
0.0
230
1.0
 70
     8
 71
     3
 72
    10
 73
     6
 74
     0
 42
0.000000001
 43
0.0000000001
 40
0.0
 40
0.0
 40
0.0
 40
0.0
 40
0.3893950305638458
 40
0.6902640186074481
 40
1.0
 40
1.0
 40
1.0
 40
1.0
 10
486.2469157226167
 20
294.1986585811506
 30
0.0
 10
486.0702882159406
 20
294.3912395275751
 30
0.0
 10
485.757188142788
 20
294.7326195852343
 30
0.0
 10
485.3067092801888
 20
295.3859909867712
 30
0.0
 10
485.0382196672821
 20
295.8453110622291
 30
0.0
 10
484.9020254043626
 20
296.0783061432825
 30
0.0
  0
LINE
  5
B9
330
2
100
AcDbEntity
  8
0
100
AcDbLine
 10
486.4871587954493
 20
294.7358212371304
 30
0.0
 11
486.2469157226321
 21
294.1986585811461
 31
0.0
  0
SPLINE
  5
BA
330
2
100
AcDbEntity
  8
0
100
AcDbSpline
210
0.0
220
0.0
230
1.0
 70
     8
 71
     3
 72
    12
 73
     8
 74
     0
 42
0.000000001
 43
0.0000000001
 40
0.0
 40
0.0
 40
0.0
 40
0.0
 40
0.1297750483185001
 40
0.3550910298523865
 40
0.5751824915578757
 40
0.7874449460297248
 40
1.0
 40
1.0
 40
1.0
 40
1.0
 10
486.9594733255775
 20
293.8009267410158
 30
0.0
 10
486.9535606589947
 20
293.8043001904748
 30
0.0
 10
486.9373823959675
 20
293.8135306369901
 30
0.0
 10
486.9126791874649
 20
293.8451917201243
 30
0.0
 10
486.8900087945
 20
293.8949768839515
 30
0.0
 10
486.8743409031274
 20
293.9534407468446
 30
0.0
 10
486.8718049072992
 20
293.993333894889
 30
0.0
 10
486.8705360360324
 20
294.0132942074164
 30
0.0
  0
SPLINE
  5
BB
330
2
100
AcDbEntity
  8
0
100
AcDbSpline
210
0.0
220
0.0
230
1.0
 70
     8
 71
     3
 72
     9
 73
     5
 74
     0
 42
0.000000001
 43
0.0000000001
 40
0.0
 40
0.0
 40
0.0
 40
0.0
 40
0.4914173108804253
 40
1.0
 40
1.0
 40
1.0
 40
1.0
 10
487.8065927224335
 20
293.7335343998126
 30
0.0
 10
487.6708701418447
 20
293.7044291278379
 30
0.0
 10
487.3946841435418
 20
293.6452019265766
 30
0.0
 10
487.1061942774555
 20
293.7484278322975
 30
0.0
 10
486.9594733255775
 20
293.8009267410158
 30
0.0
  0
LWPOLYLINE
  5
BC
330
2
100
AcDbEntity
  8
0
100
AcDbPolyline
 90
        4
 70
   128
 43
0.0
 10
488.1836214486932
 20
293.8546346258223
 10
488.1216692967407
 20
293.8347365247779
 10
487.8738338786664
 20
293.7551333965896
 10
487.8065927224211
 20
293.7335343998281
  0
LINE
  5
BD
330
2
100
AcDbEntity
  8
0
100
AcDbLine
 10
488.6519274462015
 20
294.6212113658581
 30
0.0
 11
488.1836214486932
 21
293.8546346258223
 31
0.0
  0
SPLINE
  5
BE
330
2
100
AcDbEntity
  8
0
100
AcDbSpline
210
0.0
220
0.0
230
1.0
 70
     8
 71
     3
 72
    17
 73
    13
 74
     0
 42
0.000000001
 43
0.0000000001
 40
0.0
 40
0.0
 40
0.0
 40
0.0
 40
0.0474566999882041
 40
0.0712668561479998
 40
0.0817278588613766
 40
0.0923039850757497
 40
0.1014546774772949
 40
0.1119392643763818
 40
0.1301995214858434
 40
0.1880144224198761
 40
0.4549407121618417
 40
1.0
 40
1.0
 40
1.0
 40
1.0
 10
481.9931501159873
 20
301.757731521754
 30
0.0
 10
481.9832689256871
 20
301.7610289264095
 30
0.0
 10
481.9684301069771
 20
301.7659807174805
 30
0.0
 10
481.9497382923849
 20
301.776061882353
 30
0.0
 10
481.9393975825468
 20
301.7838398818404
 30
0.0
 10
481.9328591542937
 20
301.7904323578983
 30
0.0
 10
481.9281388070546
 20
301.797625037191
 30
0.0
 10
481.9251256426944
 20
301.805869839604
 30
0.0
 10
481.924750270786
 20
301.8211001019047
 30
0.0
 10
481.9492864570458
 20
301.8607623158686
 30
0.0
 10
482.0548850811751
 20
301.9156440962457
 30
0.0
 10
482.171029700477
 20
301.9449318765209
 30
0.0
 10
482.2489937742623
 20
301.9645918028791
 30
0.0
  0
LINE
  5
BF
330
2
100
AcDbEntity
  8
0
100
AcDbLine
 10
483.0487011450594
 20
301.3918158993994
 30
0.0
 11
481.9931501159779
 21
301.7577315217659
 31
0.0
  0
SPLINE
  5
C0
330
2
100
AcDbEntity
  8
0
100
AcDbSpline
210
0.0
220
0.0
230
1.0
 70
     8
 71
     3
 72
    10
 73
     6
 74
     0
 42
0.000000001
 43
0.0000000001
 40
0.0
 40
0.0
 40
0.0
 40
0.0
 40
0.3007370628224456
 40
0.6106050968430081
 40
1.0
 40
1.0
 40
1.0
 40
1.0
 10
483.4645134452877
 20
299.31143882772
 30
0.0
 10
483.3905946151759
 20
299.5486495369393
 30
0.0
 10
483.2405126332766
 20
300.0302731410126
 30
0.0
 10
483.0820723770435
 20
300.7446230020668
 30
0.0
 10
483.060637482788
 20
301.1603257045575
 30
0.0
 10
483.0487011450686
 20
301.3918158994073
 30
0.0
  0
LWPOLYLINE
  5
C1
330
2
100
AcDbEntity
  8
0
100
AcDbPolyline
 90
        5
 70
   128
 43
0.0
 10
483.8563206857948
 20
298.2031198006463
 10
483.873161583288
 20
298.2045457679013
 10
483.8849590142579
 20
298.2034868925382
 10
483.891282449766
 20
298.1999703254745
 10
483.8923457020527
 20
298.1966800229653
  0
LWPOLYLINE
  5
C2
330
2
100
AcDbEntity
  8
0
100
AcDbPolyline
 90
        5
 70
   128
 43
0.0
 10
484.3265342370009
 20
297.1455552374068
 10
484.340196548589
 20
297.1541306917505
 10
484.3487503786307
 20
297.1603632636442
 10
484.3518829401902
 20
297.1640242182289
 10
484.3513605859304
 20
297.164849848887
  0
LINE
  5
C3
330
2
100
AcDbEntity
  8
0
100
AcDbLine
 10
483.8563206857948
 20
298.2031198006463
 30
0.0
 11
483.6118139913699
 21
298.867398293246
 31
0.0
  0
LWPOLYLINE
  5
C4
330
2
100
AcDbEntity
  8
0
100
AcDbPolyline
 90
        5
 70
   128
 43
0.0
 10
484.9020254043682
 20
296.0783061432882
 10
484.9092903286479
 20
296.0927177410532
 10
484.9116125485366
 20
296.105058285568
 10
484.9089131969353
 20
296.1149207885186
 10
484.9086770427854
 20
296.1152974975444
  0
ARC
  5
C5
330
2
100
AcDbEntity
  8
0
100
AcDbCircle
 10
476.2148605527644
 20
292.1045423023704
 30
0.0
 40
13.61954258447423
100
AcDbArc
 50
346.6978781310944
 51
351.8235115612996
  0
LWPOLYLINE
  5
C6
330
2
100
AcDbEntity
  8
0
100
AcDbPolyline
 90
        3
 70
   128
 43
0.0
 10
489.4689956111242
 20
288.9708792597195
 10
487.6380286944459
 20
287.8736231652993
 10
487.355062830855
 20
287.7040534227891
  0
LINE
  5
C7
330
2
100
AcDbEntity
  8
0
100
AcDbLine
 10
483.6118139913699
 20
298.867398293246
 30
0.0
 11
483.4645134452983
 21
299.3114388277223
 31
0.0
  0
LINE
  5
C8
330
2
100
AcDbEntity
  8
0
100
AcDbLine
 10
486.5070631620899
 20
294.7448933480463
 30
0.0
 11
486.4871587954493
 21
294.7358212371304
 31
0.0
  0
LWPOLYLINE
  5
C9
330
2
100
AcDbEntity
  8
0
100
AcDbPolyline
 90
        3
 70
   128
 43
0.0
 10
490.1736380838563
 20
288.6520697809332
 10
490.5182631967575
 20
288.7701797793686
 10
490.8914001827803
 20
288.8981094488666
  0
LINE
  5
CA
330
2
100
AcDbEntity
  8
0
100
AcDbLine
 10
489.4689956111242
 20
288.9708792597195
 30
0.0
 11
490.1499221286816
 21
288.6440771590543
 31
0.0
  0
LINE
  5
CB
330
2
100
AcDbEntity
  8
0
100
AcDbLine
 10
482.040413679939
 20
306.9446444577919
 30
0.0
 11
482.7575279886765
 21
307.1921397610875
 31
0.0
  0
ELLIPSE
  5
CC
330
2
100
AcDbEntity
  8
0
100
AcDbEllipse
 10
-746.1814554523689
 20
-221.8819358590573
 30
0.0
 11
1303.141157364289
 21
549.9639776488215
 31
0.0
210
0.0
220
0.0
230
1.0
 40
0.0209447545
 41
0.3320078942197963
 42
0.3391124191584667
  0
LWPOLYLINE
  5
CD
330
2
100
AcDbEntity
  8
0
100
AcDbPolyline
 90
        3
 70
   128
 43
0.0
 10
488.4739004951547
 20
284.6245215047643
 10
488.8139446194045
 20
284.7581114780108
 10
489.1821288471363
 20
284.9028440105527
  0
ELLIPSE
  5
CE
330
2
100
AcDbEntity
  8
0
100
AcDbEllipse
 10
-783.1208611193742
 20
-93.72559744318625
 30
0.0
 11
1342.92717720365
 21
411.9470853546847
 31
0.0
210
0.0
220
0.0
230
1.0
 40
0.0242584752
 41
5.941713313300775
 42
5.948266395453339
  0
LINE
  5
CF
330
2
100
AcDbEntity
  8
0
100
AcDbLine
 10
487.866982056613
 20
285.2000745033823
 30
0.0
 11
488.4573312754826
 21
284.6181440172541
 31
0.0
  0
LINE
  5
D0
330
2
100
AcDbEntity
  8
0
100
AcDbLine
 10
478.0288913629967
 20
308.1165674943561
 30
0.0
 11
478.7634275570559
 21
308.3357221890147
 31
0.0
  0
ELLIPSE
  5
D1
330
2
100
AcDbEntity
  8
0
100
AcDbEllipse
 10
-742.0413839831371
 20
-186.1181456341995
 30
0.0
 11
1298.648759280962
 21
511.5469010208388
 31
0.0
210
0.0
220
0.0
230
1.0
 40
0.0273396188
 41
0.3390417372118295
 42
0.3425395806841063
  0
LWPOLYLINE
  5
D2
330
2
100
AcDbEntity
  8
0
100
AcDbPolyline
 90
        3
 70
   128
 43
0.0
 10
485.6272162497628
 20
281.7551913418305
 10
485.9671813952963
 20
281.9044353063995
 10
486.3352963630545
 20
282.0661313751444
  0
ARC
  5
D3
330
2
100
AcDbEntity
  8
0
100
AcDbCircle
 10
478.8002072635986
 20
290.9855751330671
 30
0.0
 40
11.57770892707593
100
AcDbArc
 50
326.6725978427948
 51
335.4485343888011
  0
ARC
  5
D4
330
2
100
AcDbEntity
  8
0
100
AcDbCircle
 10
475.7385574686187
 20
292.0198646968535
 30
0.0
 40
14.82273911811886
100
AcDbArc
 50
346.8674478758039
 51
354.9796672682997
  0
LINE
  5
D5
330
2
100
AcDbEntity
  8
0
100
AcDbLine
 10
490.5512742871092
 20
310.4943977303591
 30
0.0
 11
489.962057803904
 21
310.6642736890085
 31
0.0
  0
ARC
  5
D6
330
2
100
AcDbEntity
  8
0
100
AcDbCircle
 10
490.5991231721931
 20
293.7907863826887
 30
0.0
 40
9.020051202498962
100
AcDbArc
 50
294.8689259341005
 51
327.771681728603
  0
LWPOLYLINE
  5
D7
330
2
100
AcDbEntity
  8
0
100
AcDbPolyline
 90
        3
 70
   128
 43
0.0
 10
499.1023866679469
 20
301.9093156272071
 10
498.8004149741605
 20
302.6345069153389
 10
498.5313600877891
 20
303.2094764231198
  0
LWPOLYLINE
  5
D8
330
2
100
AcDbEntity
  8
0
100
AcDbPolyline
 90
        3
 70
   128
 43
0.0
 10
498.4240357277026
 20
303.4231339469417
 10
498.8012353696974
 20
302.6323884079224
 10
499.0444567330643
 20
302.0561137096912
  0
LWPOLYLINE
  5
D9
330
2
100
AcDbEntity
  8
0
100
AcDbPolyline
 90
       39
 70
   128
 43
0.0
 10
464.9722532615276
 20
301.9593018326171
 10
464.3392249875606
 20
301.8809817811856
 10
463.4467901310443
 20
301.6601066164318
 10
462.5889995876576
 20
301.3340514553008
 10
461.7736234047785
 20
300.9057741643502
 10
461.0080439413852
 20
300.3791538387121
 10
460.2991953775369
 20
299.7589534074599
 10
459.6534969397326
 20
299.0507950024238
 10
459.0767957336006
 20
298.2610917911173
 10
458.5743157484443
 20
297.3969950457592
 10
458.1506064708242
 20
296.4663288665773
 10
457.8095042329566
 20
295.477521351816
 10
457.5541002637804
 20
294.4395268784628
 10
457.3867060591059
 20
293.3617462387704
 10
457.3088377419995
 20
292.2539428674251
 10
457.3212008705552
 20
291.126146247489
 10
457.4236841819661
 20
289.988571935813
 10
457.6153573583816
 20
288.8515156328209
 10
457.894486666352
 20
287.7252813838372
 10
458.2585429997184
 20
286.6200675633369
 10
458.7042304774493
 20
285.5458841330646
 10
459.227512360288
 20
284.512453547953
 10
459.8236490318359
 20
283.5291419091664
 10
460.4872426826765
 20
282.6048482567686
 10
461.2122842281689
 20
281.7479471599069
 10
461.9922055886858
 20
280.9661945855253
 10
462.8199458217604
 20
280.2666752705515
 10
463.6880074235994
 20
279.6557215917153
 10
464.5885296107393
 20
279.1388659433796
 10
465.5133571330758
 20
278.7207939189817
 10
466.4541148959786
 20
278.4052794902043
 10
467.4022825822701
 20
278.1951964014696
 10
468.3492735193246
 20
278.092432330663
 10
469.2865119819316
 20
278.0979286534799
 10
470.2055102721609
 20
278.2116295861205
 10
471.0979453520815
 20
278.4325046391551
 10
471.9557352252216
 20
278.7585601354093
 10
472.7711120783811
 20
279.1868370912368
 10
473.10182219448
 20
279.4143232832457
  0
LWPOLYLINE
  5
DA
330
2
100
AcDbEntity
  8
0
100
AcDbPolyline
 90
        6
 70
   128
 43
0.0
 10
460.7651632924089
 20
300.4277408348114
 10
460.7881381658525
 20
300.4386372719922
 10
460.8050834001822
 20
300.4604852107481
 10
460.8127053484423
 20
300.4898119305351
 10
460.809844464738
 20
300.5221546097323
 10
460.7969364166089
 20
300.5525901710479
  0
LINE
  5
DB
330
2
100
AcDbEntity
  8
0
100
AcDbLine
 10
460.7969364166089
 20
300.5525901710479
 30
0.0
 11
459.4504837832691
 21
302.7105621319937
 31
0.0
  0
ARC
  5
DC
330
2
100
AcDbEntity
  8
0
100
AcDbCircle
 10
459.3884726108534
 20
302.6811025643505
 30
0.0
 40
0.0686531254198775
100
AcDbArc
 50
25.41093006299826
 51
112.7195355440006
  0
LINE
  5
DD
330
2
100
AcDbEntity
  8
0
100
AcDbLine
 10
459.2909265679028
 20
302.6080603546763
 30
0.0
 11
460.6373781958389
 21
300.4500887847302
 31
0.0
  0
LWPOLYLINE
  5
DE
330
2
100
AcDbEntity
  8
0
100
AcDbPolyline
 90
        5
 70
   128
 43
0.0
 10
459.2988007565323
 20
302.7100477277671
 10
459.2836348332911
 20
302.6904972457779
 10
459.2768125025554
 20
302.664248419516
 10
459.2793733341756
 20
302.6353000146862
 10
459.2909265679028
 20
302.6080603546763
  0
LWPOLYLINE
  5
DF
330
2
100
AcDbEntity
  8
0
100
AcDbPolyline
 90
        4
 70
   128
 43
0.0
 10
460.6373781958389
 20
300.4500887847302
 10
460.656165075159
 20
300.428702971658
 10
460.6793256100519
 20
300.4164267425736
 10
460.7033340210602
 20
300.4151297022535
  0
LWPOLYLINE
  5
E0
330
2
100
AcDbEntity
  8
0
100
AcDbPolyline
 90
        3
 70
   128
 43
0.0
 10
463.6747434685447
 20
279.3801659309296
 10
463.6552318171513
 20
279.3668168376832
 10
463.642647950351
 20
279.3446377893554
  0
LINE
  5
E1
330
2
100
AcDbEntity
  8
0
100
AcDbLine
 10
463.642647950351
 20
279.3446377893554
 30
0.0
 11
462.9181872949455
 21
277.1344759260668
 31
0.0
  0
ELLIPSE
  5
E2
330
2
100
AcDbEntity
  8
0
100
AcDbEllipse
 10
486.535936363547
 20
298.4942043344789
 30
0.0
 11
-2.03862185125688
 21
3.911422069136764
 31
0.0
210
0.0
220
0.0
230
1.0
 40
0.6035364255999999
 41
1.888068631759544
 42
3.131444470713676
  0
ELLIPSE
  5
E3
330
2
100
AcDbEntity
  8
0
100
AcDbEllipse
 10
486.535936363547
 20
298.4942043344789
 30
0.0
 11
-2.03862185125688
 21
3.911422069136764
 31
0.0
210
0.0
220
0.0
230
1.0
 40
0.6035364255999999
 41
0.8759289409164983
 42
1.068013535745022
  0
LWPOLYLINE
  5
E4
330
2
100
AcDbEntity
  8
0
100
AcDbPolyline
 90
       16
 70
   128
 43
0.0
 10
486.1401101979097
 20
301.4149222979157
 10
486.182644311125
 20
300.7649811646719
 10
486.3090862110224
 20
300.0902351777792
 10
486.5159869744359
 20
299.4090893812797
 10
486.797703030674
 20
298.740122362626
 10
487.1465496505971
 20
298.1015848319856
 10
487.5530112959405
 20
297.5108916618585
 10
488.0060007855873
 20
296.9841551897342
 10
488.4931618053006
 20
296.5357450084072
 10
489.0012057959157
 20
296.177891860177
 10
489.5162746189458
 20
295.9203574486789
 10
490.0243186095608
 20
295.77016660626
 10
490.5114796292402
 20
295.7314157679077
 10
490.9644691189209
 20
295.8051627503514
 10
491.3709307642644
 20
295.9893942751349
 10
491.3903074704487
 20
296.0017409276588
  0
LWPOLYLINE
  5
E5
330
2
100
AcDbEntity
  8
0
100
AcDbPolyline
 90
        7
 70
   128
 43
0.0
 10
487.4545867306405
 20
303.8731790163155
 10
487.1282795400593
 20
303.710190011509
 10
486.7855061260481
 20
303.4189072726852
 10
486.5089007855677
 20
303.0322882132816
 10
486.305864058353
 20
302.5606862824276
 10
486.1818277136966
 20
302.0167133433497
 10
486.1401101979097
 20
301.4149222979157
  0
ELLIPSE
  5
E6
330
2
100
AcDbEntity
  8
0
100
AcDbEllipse
 10
486.535936363547
 20
298.4942043344789
 30
0.0
 11
-2.03862185125688
 21
3.911422069136764
 31
0.0
210
0.0
220
0.0
230
1.0
 40
0.6035364255999999
 41
0.2364788249046008
 42
0.8759289409164983
  0
LINE
  5
E7
330
2
100
AcDbEntity
  8
0
100
AcDbLine
 10
486.2056982750041
 20
303.110866118306
 30
0.0
 11
484.0009880124108
 21
302.0085109869925
 31
0.0
  0
SPLINE
  5
E8
330
2
100
AcDbEntity
  8
0
100
AcDbSpline
210
0.0
220
0.0
230
1.0
 70
     8
 71
     3
 72
    10
 73
     6
 74
     0
 42
0.000000001
 43
0.0000000001
 40
0.0
 40
0.0
 40
0.0
 40
0.0
 40
0.4197628641927463
 40
0.9937224298165304
 40
1.0
 40
1.0
 40
1.0
 40
1.0
 10
486.6661495213439
 20
303.480124912622
 30
0.0
 10
486.6057970394376
 20
303.4388290285733
 30
0.0
 10
486.4629220495767
 20
303.3410675309784
 30
0.0
 10
486.2965739364887
 20
303.1985575829116
 30
0.0
 10
486.206670933224
 20
303.1118046954863
 30
0.0
 10
486.2056982750161
 20
303.1108661182981
 30
0.0
  0
ELLIPSE
  5
E9
330
2
100
AcDbEntity
  8
0
100
AcDbEllipse
 10
488.9693152323689
 20
299.7108937688898
 30
0.0
 11
-2.253097972222863
 21
3.800317262848457
 31
0.0
210
0.0
220
0.0
230
1.0
 40
0.5710500528999999
 41
6.242300552538725
 42
6.306541431029763
  0
ELLIPSE
  5
EA
330
2
100
AcDbEntity
  8
0
100
AcDbEllipse
 10
484.2820028204068
 20
305.838839683534
 30
0.0
 11
-1.819809900641539
 21
3.069487019992969
 31
0.0
210
0.0
220
0.0
230
1.0
 40
0.5710500529000001
 41
3.570752517316508
 42
3.960605083961615
  0
ELLIPSE
  5
EB
330
2
100
AcDbEntity
  8
0
100
AcDbEllipse
 10
482.0510275808722
 20
304.7118260422784
 30
0.0
 11
-1.568170654812985
 21
3.008786207028298
 31
0.0
210
0.0
220
0.0
230
0.9999999999999998
 40
0.6035364256000002
 41
3.378071478494426
 42
3.991341655726395
  0
LINE
  5
EC
330
2
100
AcDbEntity
  8
0
100
AcDbLine
 10
485.7491364229927
 20
328.0764942063214
 30
0.0
 11
486.8052222060963
 21
304.5016651488443
 31
0.0
  0
LINE
  5
ED
330
2
100
AcDbEntity
  8
0
100
AcDbLine
 10
483.7150724559373
 20
323.0890086869799
 30
0.0
 11
484.4704937713459
 21
306.2258692566607
 31
0.0
  0
ELLIPSE
  5
EE
330
2
100
AcDbEntity
  8
0
100
AcDbEllipse
 10
482.5168329056179
 20
322.377092286967
 30
0.0
 11
0.7964790697792418
 21
1.498080973593164
 31
0.0
210
0.0
220
0.0
230
1.0
 40
0.5990391722
 41
5.490632514423241
 42
6.982889024878359
  0
LINE
  5
EF
330
2
100
AcDbEntity
  8
0
100
AcDbLine
 10
479.2639119613016
 20
322.188270343128
 30
0.0
 11
482.5482426574612
 21
323.8304356912077
 31
0.0
  0
LINE
  5
F0
330
2
100
AcDbEntity
  8
0
100
AcDbLine
 10
484.4704937713459
 20
306.2258692566607
 30
0.0
 11
484.4502475173833
 21
303.4364004452417
 31
0.0
  0
LINE
  5
F1
330
2
100
AcDbEntity
  8
0
100
AcDbLine
 10
468.7796456063166
 20
316.9461371656526
 30
0.0
 11
465.4953149101571
 21
315.3039718175728
 31
0.0
  0
SPLINE
  5
F2
330
2
100
AcDbEntity
  8
0
100
AcDbSpline
210
0.0
220
0.0
230
1.0
 70
     8
 71
     3
 72
    10
 73
     6
 74
     0
 42
0.000000001
 43
0.0000000001
 40
0.0
 40
0.0
 40
0.0
 40
0.0
 40
0.3063809142611243
 40
0.6470078479371301
 40
1.0
 40
1.0
 40
1.0
 40
1.0
 10
468.7796456063172
 20
316.9461371656397
 30
0.0
 10
469.1543676008595
 20
317.1533288745486
 30
0.0
 10
469.9456964989018
 20
317.5908713435854
 30
0.0
 10
470.872740300201
 20
318.3864893798369
 30
0.0
 10
471.2463643913456
 20
318.9912166471487
 30
0.0
 10
471.436506754362
 20
319.2989705482284
 30
0.0
  0
LWPOLYLINE
  5
F3
330
2
100
AcDbEntity
  8
0
100
AcDbPolyline
 90
        9
 70
   128
 43
0.0
 10
474.5582451961269
 20
320.8598397690985
 10
474.0064753460074
 20
320.7713343490182
 10
473.4837258712945
 20
320.6463186459886
 10
472.9996086877601
 20
320.4870914069227
 10
472.5630254613577
 20
320.2965804156245
 10
472.1820034787614
 20
320.0782888024063
 10
471.8635490006297
 20
319.8362302106392
 10
471.6135175945704
 20
319.5748554732996
 10
471.4365067543758
 20
319.298970548223
  0
SPLINE
  5
F4
330
2
100
AcDbEntity
  8
0
100
AcDbSpline
210
0.0
220
0.0
230
1.0
 70
     8
 71
     3
 72
    10
 73
     6
 74
     0
 42
0.000000001
 43
0.0000000001
 40
0.0
 40
0.0
 40
0.0
 40
0.0
 40
0.3063809142611243
 40
0.6470078479371301
 40
1.0
 40
1.0
 40
1.0
 40
1.0
 10
479.263911961299
 20
322.1882703431306
 30
0.0
 10
478.8495285434811
 20
322.0009093458594
 30
0.0
 10
477.9744436054076
 20
321.6052448968383
 30
0.0
 10
476.3832075329045
 20
321.1417229961887
 30
0.0
 10
475.173752998281
 20
320.9549109506164
 30
0.0
 10
474.5582451961218
 20
320.8598397691081
 30
0.0
  0
ELLIPSE
  5
F5
330
2
100
AcDbEntity
  8
0
100
AcDbEllipse
 10
465.4639059625349
 20
313.8506288154255
 30
0.0
 11
0.7964790697792418
 21
1.498080973593164
 31
0.0
210
0.0
220
0.0
230
1.0
 40
0.5990391722
 41
0.699703717698773
 42
2.191960228153913
  0
LINE
  5
F6
330
2
100
AcDbEntity
  8
0
100
AcDbLine
 10
464.2705951688582
 20
313.3667700434404
 30
0.0
 11
463.6654879903045
 21
306.1496142083541
 31
0.0
  0
ELLIPSE
  5
F7
330
2
100
AcDbEntity
  8
0
100
AcDbEllipse
 10
462.8930726089274
 20
316.7381290210307
 30
0.0
 11
0.15929581395586
 21
0.2996161947186019
 31
0.0
210
0.0
220
0.0
230
1.0
 40
0.5990391722
 41
0.6997037176987666
 42
2.19196022815403
  0
SPLINE
  5
F8
330
2
100
AcDbEntity
  8
0
100
AcDbSpline
210
0.0
220
0.0
230
1.0
 70
     8
 71
     3
 72
    10
 73
     6
 74
     0
 42
0.000000001
 43
0.0000000001
 40
0.0
 40
0.0
 40
0.0
 40
0.0
 40
0.30638084296552
 40
0.6470077640333716
 40
1.0
 40
1.0
 40
1.0
 40
1.0
 10
479.7329879732969
 20
318.2724683805207
 30
0.0
 10
479.8942442654823
 20
318.5399223278372
 30
0.0
 10
480.2347814610631
 20
319.1047252011509
 30
0.0
 10
481.1184246721956
 20
319.9125954341351
 30
0.0
 10
481.9610338397883
 20
320.3849262021947
 30
0.0
 10
482.3898491213417
 20
320.6253017631092
 30
0.0
  0
LWPOLYLINE
  5
F9
330
2
100
AcDbEntity
  8
0
100
AcDbPolyline
 90
        9
 70
   128
 43
0.0
 10
476.6112495315463
 20
316.7115991596546
 10
477.1630193816659
 20
316.8001045797349
 10
477.6857688563788
 20
316.9251202827646
 10
478.1698860399131
 20
317.0843475218304
 10
478.6064692663154
 20
317.2748585131286
 10
478.9874912489118
 20
317.4931501263468
 10
479.3059457270437
 20
317.735208718114
 10
479.5559771331028
 20
317.9965834554534
 10
479.7329879732975
 20
318.2724683805302
  0
SPLINE
  5
FA
330
2
100
AcDbEntity
  8
0
100
AcDbSpline
210
0.0
220
0.0
230
1.0
 70
     8
 71
     3
 72
    10
 73
     6
 74
     0
 42
0.000000001
 43
0.0000000001
 40
0.0
 40
0.0
 40
0.0
 40
0.0
 40
0.30638084296552
 40
0.6470077640333716
 40
1.0
 40
1.0
 40
1.0
 40
1.0
 10
476.6112495315371
 20
316.7115991596407
 30
0.0
 10
476.0763416369039
 20
316.630971013548
 30
0.0
 10
474.9467358902767
 20
316.4607024157577
 30
0.0
 10
473.3309954243082
 20
316.0188808101914
 30
0.0
 10
472.3863338881889
 20
315.5975762263951
 30
0.0
 10
471.9055827663599
 20
315.3831685856184
 30
0.0
  0
LINE
  5
FB
330
2
100
AcDbEntity
  8
0
100
AcDbLine
 10
471.9055827663716
 20
315.383168585625
 30
0.0
 11
468.621252070212
 21
313.7410032375452
 31
0.0
  0
LINE
  5
FC
330
2
100
AcDbEntity
  8
0
100
AcDbLine
 10
482.3898491213567
 20
320.6253017631005
 30
0.0
 11
483.7939891679524
 21
321.3273717864155
 31
0.0
  0
SPLINE
  5
FD
330
2
100
AcDbEntity
  8
0
100
AcDbSpline
210
0.0
220
0.0
230
1.0
 70
     8
 71
     3
 72
    11
 73
     7
 74
     0
 42
0.000000001
 43
0.0000000001
 40
0.0
 40
0.0
 40
0.0
 40
0.0
 40
0.3147157010308116
 40
0.6293670649676911
 40
0.8275336256619254
 40
1.0
 40
1.0
 40
1.0
 40
1.0
 10
474.6214130840026
 20
323.9641121380365
 30
0.0
 10
475.1712699766882
 20
324.0461607488918
 30
0.0
 10
476.2708713552285
 20
324.2102411974664
 30
0.0
 10
477.597590065924
 20
324.5762451676307
 30
0.0
 10
478.6155175084316
 20
324.9379930398895
 30
0.0
 10
479.1076402546227
 20
325.1688567713092
 30
0.0
 10
479.3366394010625
 20
325.313666530765
 30
0.0
  0
LINE
  5
FE
330
2
100
AcDbEntity
  8
0
100
AcDbLine
 10
467.4544222717359
 20
311.7748564920185
 30
0.0
 11
467.2627403819473
 21
307.1131464420026
 31
0.0
  0
ARC
  5
FF
330
2
100
AcDbEntity
  8
0
100
AcDbCircle
 10
462.9916275656218
 20
317.0375678515666
 30
0.0
 40
0.0926889240839801
100
AcDbArc
 50
121.3539269379009
 51
185.4295088728012
  0
ELLIPSE
  5
100
330
2
100
AcDbEntity
  8
0
100
AcDbEllipse
 10
468.6526618220553
 20
312.2562508856483
 30
0.0
 11
0.7185632604032776
 21
1.5369948288741
 31
0.0
210
0.0
220
0.0
230
1.0
 40
0.6252013992000001
 41
0.6682574245714587
 42
2.160513935026584
  0
LWPOLYLINE
  5
101
330
2
100
AcDbEntity
  8
0
100
AcDbPolyline
 90
        7
 70
   128
 43
0.0
 10
486.1401101979097
 20
301.4149222979157
 10
486.1804956880464
 20
302.007423543987
 10
486.3006061093428
 20
302.5441960696985
 10
486.4973305719702
 20
303.0113318509389
 10
486.7655739995822
 20
303.3967380406718
 10
487.0983893934363
 20
303.6904342196655
 10
487.4545867306405
 20
303.8731790163155
  0
LWPOLYLINE
  5
102
330
2
100
AcDbEntity
  8
0
100
AcDbPolyline
 90
       16
 70
   128
 43
0.0
 10
491.3903074704487
 20
296.0017409276588
 10
491.2311033692354
 20
295.9108026299909
 10
490.8180552121828
 20
295.7681421384951
 10
490.3646216767462
 20
295.7313451070187
 10
489.8825463498277
 20
295.801365208698
 10
489.3843147797665
 20
295.976390312286
 10
488.8828308954717
 20
296.2518816855287
 10
488.3910828827425
 20
296.6207104101269
 10
487.9218067987956
 20
297.0733211966664
 10
487.4871564562559
 20
297.5979893825291
 10
487.0983893934363
 20
298.1811311806732
 10
486.7655739995822
 20
298.80763837541
 10
486.4973305719702
 20
299.4612879927549
 10
486.3006061093428
 20
300.1251526146997
 10
486.1804956880464
 20
300.7820355617415
 10
486.1401101979097
 20
301.4149222979157
  0
LWPOLYLINE
  5
103
330
2
100
AcDbEntity
  8
0
100
AcDbPolyline
 90
       10
 70
   128
 43
0.0
 10
493.2240039002925
 20
298.7031381112653
 10
493.1857429039896
 20
298.2243597914575
 10
493.0687625866034
 20
297.7015776230628
 10
492.8771651493234
 20
297.2466106545872
 10
492.6159122871841
 20
296.8712506628227
 10
492.2917706995179
 20
296.5852092120112
 10
491.9131352535977
 20
296.3959039827383
 10
491.4898124913098
 20
296.3082299044901
 10
491.032766210449
 20
296.3244630814461
 10
490.5747189275071
 20
296.4369327950801
  0
LWPOLYLINE
  5
104
330
2
100
AcDbEntity
  8
0
100
AcDbPolyline
 90
       11
 70
   128
 43
0.0
 10
487.3054163887197
 20
302.9346042859917
 10
487.39341721641
 20
303.1753602398496
 10
487.620578979445
 20
303.5918716307248
 10
487.9142285289848
 20
303.9236482281107
 10
488.2667602262912
 20
304.1620940563029
 10
488.6690437079391
 20
304.3010348039239
 10
489.1106602632349
 20
304.3368710777904
 10
489.580172110366
 20
304.2686758044502
 10
490.0654191530283
 20
304.0982165980788
 10
490.5538337503152
 20
303.8299034498769
 10
490.9357833697088
 20
303.5514628460981
  0
ARC
  5
105
330
2
100
AcDbEntity
  8
0
100
AcDbCircle
 10
487.0777321581792
 20
298.7456796043838
 30
0.0
 40
6.153398804704095
100
AcDbArc
 50
5.84935614030372
 51
54.2645642908997
  0
ELLIPSE
  5
106
330
2
100
AcDbEntity
  8
0
100
AcDbEllipse
 10
465.6291210004558
 20
339.1791445914591
 30
0.0
 11
0.6785244253016066
 21
0.0
 31
0.0
210
0.0
220
0.0
230
1.0
 40
0.4947332971
 41
0.7855504566450799
 42
2.356042196944732
  0
ELLIPSE
  5
107
330
2
100
AcDbEntity
  8
0
100
AcDbEllipse
 10
465.6291210004558
 20
341.2651240864442
 30
0.0
 11
0.6785244253016066
 21
0.0
 31
0.0
210
0.0
220
0.0
230
1.0
 40
0.5001523164
 41
0.7855504566451439
 42
2.356042196944668
  0
LINE
  5
108
330
2
100
AcDbEntity
  8
0
100
AcDbLine
 10
466.108836728559
 20
341.5051285196426
 30
0.0
 11
466.1088369519971
 21
339.4165486271924
 31
0.0
  0
LINE
  5
109
330
2
100
AcDbEntity
  8
0
100
AcDbLine
 10
466.1088369519971
 20
339.4165486271924
 30
0.0
 11
466.4100740432481
 21
339.2659300815838
 31
0.0
  0
LINE
  5
10A
330
2
100
AcDbEntity
  8
0
100
AcDbLine
 10
464.6082731713319
 20
339.1459827563215
 30
0.0
 11
465.1494046896698
 21
339.4165485154733
 31
0.0
  0
LINE
  5
10B
330
2
100
AcDbEntity
  8
0
100
AcDbLine
 10
467.0685618935622
 20
341.0252659371409
 30
0.0
 11
466.108836728559
 21
341.5051285196426
 31
0.0
  0
LINE
  5
10C
330
2
100
AcDbEntity
  8
0
100
AcDbLine
 10
465.1494044662316
 20
341.5051284079574
 30
0.0
 11
463.8357282213395
 21
340.8482902854943
 31
0.0
  0
ELLIPSE
  5
10D
330
2
100
AcDbEntity
  8
0
100
AcDbEllipse
 10
465.0516687840839
 20
339.5137055279714
 30
0.0
 11
1.527101901264589
 21
-0.0000280506221152
 31
0.0
210
0.0
220
0.0
230
1.0
 40
0.4998621914
 41
2.356355278151806
 42
3.827207301667426
  0
ELLIPSE
  5
10E
330
2
100
AcDbEntity
  8
0
100
AcDbEllipse
 10
466.5718037703669
 20
340.0508837127336
 30
0.0
 11
0.5090483446191835
 21
0.0
 31
0.0
210
0.0
220
0.0
230
1.0
 40
0.4998477299000001
 41
5.497939437029826
 42
7.068431177329471
  0
LINE
  5
10F
330
2
100
AcDbEntity
  8
0
100
AcDbLine
 10
466.9316637485265
 20
339.8709171224688
 30
0.0
 11
466.9318098647243
 21
339.8709901805506
 31
0.0
  0
ELLIPSE
  5
110
330
2
100
AcDbEntity
  8
0
100
AcDbEllipse
 10
467.5316745564146
 20
339.5710944903931
 30
0.0
 11
0.8484139076986583
 21
0.0
 31
0.0
210
0.0
220
0.0
230
1.0
 40
0.4998477299000001
 41
2.356346783439929
 42
2.436687733839447
  0
ELLIPSE
  5
111
330
2
100
AcDbEntity
  8
0
100
AcDbEllipse
 10
466.5885532744198
 20
340.7854079494961
 30
0.0
 11
0.6787311261589113
 21
0.0
 31
0.0
210
0.0
220
0.0
230
1.0
 40
0.4998477299000001
 41
6.268938610606367
 42
7.068431177329382
  0
ELLIPSE
  5
112
330
2
100
AcDbEntity
  8
0
100
AcDbEllipse
 10
465.0378378162596
 20
340.1703853720595
 30
0.0
 11
1.696523124974615
 21
0.0121407489817386
 31
0.0
210
0.0
220
0.0
230
0.9999999999999998
 40
0.4945686032000001
 41
2.882952572035451
 42
3.151469551837136
  0
ELLIPSE
  5
113
330
2
100
AcDbEntity
  8
0
100
AcDbEllipse
 10
463.760336011901
 20
387.2559174059396
 30
0.0
 11
-1.333107629794406
 21
93.6738055639393
 31
0.0
210
0.0
220
0.0
230
0.9999999999999998
 40
0.0127133083
 41
2.09366625693873
 42
2.094778411103567
  0
ELLIPSE
  5
114
330
2
100
AcDbEntity
  8
0
100
AcDbEllipse
 10
465.0357149856246
 20
340.2486276175307
 30
0.0
 11
1.696779890293985
 21
-0.000031167357893
 31
0.0
210
0.0
220
0.0
230
0.9999999999999998
 40
0.4998621914
 41
2.356355278151752
 42
2.885533893434651
  0
LINE
  5
115
330
2
100
AcDbEntity
  8
0
100
AcDbLine
 10
467.3295001813626
 20
339.9352184147327
 30
0.0
 11
467.1774910742427
 21
340.0112229682755
 31
0.0
  0
ELLIPSE
  5
116
330
2
100
AcDbEntity
  8
0
100
AcDbEllipse
 10
469.7071832195659
 20
342.5991580994312
 30
0.0
 11
0.6787311261589309
 21
0.0
 31
0.0
210
0.0
220
0.0
230
1.0
 40
0.4998477299000001
 41
6.268938610606253
 42
7.068431177329451
  0
LINE
  5
117
330
2
100
AcDbEntity
  8
0
100
AcDbLine
 10
470.1871916796282
 20
342.8390161613066
 30
0.0
 11
469.8377264117695
 21
343.0137487952528
 31
0.0
  0
ELLIPSE
  5
118
330
2
100
AcDbEntity
  8
0
100
AcDbEllipse
 10
469.7177978303034
 20
342.95374752482
 30
0.0
 11
0.169631106325421
 21
0.0
 31
0.0
210
0.0
220
0.0
230
1.0
 40
0.5001523164
 41
0.7855504566449632
 42
0.8026991626697316
  0
LINE
  5
119
330
2
100
AcDbEntity
  8
0
100
AcDbLine
 10
470.4219774017643
 20
343.3079306411654
 30
0.0
 11
469.8356524107039
 21
343.0147681456522
 31
0.0
  0
ELLIPSE
  5
11A
330
2
100
AcDbEntity
  8
0
100
AcDbEllipse
 10
471.5013695932844
 20
342.7679369020319
 30
0.0
 11
1.526681006628181
 21
-0.000028068669895
 31
0.0
210
0.0
220
0.0
230
1.0
 40
0.5001378460000003
 41
0.8852276211558342
 42
2.356079644671425
  0
ELLIPSE
  5
11B
330
2
100
AcDbEntity
  8
0
100
AcDbEllipse
 10
471.5005738876908
 20
343.5104380380072
 30
0.0
 11
1.696312229586887
 21
-0.000031187411063
 31
0.0
210
0.0
220
0.0
230
1.0
 40
0.500137846
 41
0.885227621155867
 42
2.356079644671535
  0
LINE
  5
11C
330
2
100
AcDbEntity
  8
0
100
AcDbLine
 10
469.0462687973955
 20
341.394361488925
 30
0.0
 11
469.5978686254429
 21
341.6701614029317
 31
0.0
  0
LINE
  5
11D
330
2
100
AcDbEntity
  8
0
100
AcDbLine
 10
470.3012485559026
 20
344.11043144076
 30
0.0
 11
468.9875723110104
 21
343.4535933182969
 31
0.0
  0
ARC
  5
11E
330
2
100
AcDbEntity
  8
0
100
AcDbCircle
 10
469.7177976507658
 20
341.3863524464497
 30
0.0
 40
0.3081079273627396
100
AcDbArc
 50
67.09261392300001
 51
112.9074394460992
  0
LINE
  5
11F
330
2
100
AcDbEntity
  8
0
100
AcDbLine
 10
469.8377264117695
 20
343.0137487952528
 30
0.0
 11
469.8377264117695
 21
341.6701615146508
 31
0.0
  0
LINE
  5
120
330
2
100
AcDbEntity
  8
0
100
AcDbLine
 10
474.3448642685802
 20
343.4429004721665
 30
0.0
 11
472.5745440650643
 21
344.1671222923684
 31
0.0
  0
LINE
  5
121
330
2
100
AcDbEntity
  8
0
100
AcDbLine
 10
469.8377264117695
 20
341.6701615146508
 30
0.0
 11
470.1494320361685
 21
341.5143087024344
 31
0.0
  0
ELLIPSE
  5
122
330
2
100
AcDbEntity
  8
0
100
AcDbEllipse
 10
469.467580949796
 20
343.2137350306085
 30
0.0
 11
0.6787311261589309
 21
0.0
 31
0.0
210
0.0
220
0.0
230
1.0
 40
0.4998477299000001
 41
2.356346783439926
 42
3.155839350163068
  0
LWPOLYLINE
  5
123
330
2
100
AcDbEntity
  8
0
100
AcDbPolyline
 90
       13
 70
   128
 43
0.0
 10
480.8110446953846
 20
346.6759908378465
 10
480.8791243441596
 20
346.7507660268918
 10
481.1420271575878
 20
346.9441908103794
 10
481.4928759492684
 20
347.0988482736474
 10
481.9096260518556
 20
347.2050207398307
 10
482.3660906047876
 20
347.2560366303755
 10
482.8335888857682
 20
347.2486907445276
 10
483.2827464557448
 20
347.1834447502719
 10
483.6853398338486
 20
347.0643976301159
 10
484.0160742727455
 20
346.8990304106674
 10
484.2541685130235
 20
346.6977337216154
 10
484.384660501535
 20
346.4731549366272
 10
484.4075385786178
 20
346.33660825805
  0
ELLIPSE
  5
124
330
2
100
AcDbEntity
  8
0
100
AcDbEllipse
 10
484.8131488098841
 20
345.9293789981937
 30
0.0
 11
-0.1322430368913446
 21
0.3128676272061496
 31
0.0
210
0.0
220
0.0
230
1.0
 40
0.6414579436999999
 41
0.0409212336936197
 42
0.8397318948866042
  0
ARC
  5
125
330
2
100
AcDbEntity
  8
0
100
AcDbCircle
 10
484.5856995933689
 20
346.0358298474105
 30
0.0
 40
0.0406029348039138
100
AcDbArc
 50
104.6258748239999
 51
165.5194807876028
  0
ARC
  5
126
330
2
100
AcDbEntity
  8
0
100
AcDbCircle
 10
475.5070367528886
 20
318.443755320612
 30
0.0
 40
5.712610634712402
100
AcDbArc
 50
88.41318605739978
 51
112.5777291985983
  0
ELLIPSE
  5
127
330
2
100
AcDbEntity
  8
0
100
AcDbEllipse
 10
481.7020599485605
 20
346.7611625592685
 30
0.0
 11
0.5088933189762051
 21
0.0
 31
0.0
210
0.0
220
0.0
230
1.0
 40
0.5013714068999999
 41
0.78676769126801
 42
2.35482496232181
  0
LINE
  5
128
330
2
100
AcDbEntity
  8
0
100
AcDbLine
 10
482.0614091704106
 20
346.9418241384897
 30
0.0
 11
482.0614087235683
 21
334.8317157571326
 31
0.0
  0
LINE
  5
129
330
2
100
AcDbEntity
  8
0
100
AcDbLine
 10
482.0614091704106
 20
346.9418241384897
 30
0.0
 11
494.583124294346
 21
340.680966576522
 31
0.0
  0
LINE
  5
12A
330
2
100
AcDbEntity
  8
0
100
AcDbLine
 10
456.5863708801357
 20
334.5636538827762
 30
0.0
 11
464.9969413711412
 21
338.768939128262
 31
0.0
  0
LINE
  5
12B
330
2
100
AcDbEntity
  8
0
100
AcDbLine
 10
466.4682843692913
 20
339.504610627354
 30
0.0
 11
469.1001507521786
 21
340.8205438187636
 31
0.0
  0
LINE
  5
12C
330
2
100
AcDbEntity
  8
0
100
AcDbLine
 10
470.3531431544072
 20
341.4470400199119
 30
0.0
 11
481.3427109447543
 21
346.9418239150855
 31
0.0
  0
ELLIPSE
  5
12D
330
2
100
AcDbEntity
  8
0
100
AcDbEllipse
 10
481.7020599485605
 20
334.5121671898827
 30
0.0
 11
0.3392622126508033
 21
0.0
 31
0.0
210
0.0
220
0.0
230
1.0
 40
0.5013714068999999
 41
0.7867676912678363
 42
2.354824962321957
  0
ARC
  5
12E
330
2
100
AcDbEntity
  8
0
100
AcDbCircle
 10
481.8156898688703
 20
334.8439555849084
 30
0.0
 40
0.2460235129968553
100
AcDbArc
 50
300.789469511101
 51
357.1483209685006
  0
LWPOLYLINE
  5
12F
330
2
100
AcDbEntity
  8
0
100
AcDbPolyline
 90
       24
 70
   128
 43
0.0
 10
468.2939495467572
 20
325.5798963450601
 10
468.3229815399948
 20
326.0334676184783
 10
468.4662761786204
 20
326.4858316459042
 10
468.7218338602449
 20
326.9256485590091
 10
469.0856234309872
 20
327.3459826417579
 10
469.5519079309713
 20
327.7402048211151
 10
470.1133338780309
 20
328.1020980789684
 10
470.761047501759
 20
328.4259548908154
 10
471.4848340174317
 20
328.7066678643792
 10
472.273278376146
 20
328.9398101143543
 10
473.1139465416775
 20
329.1217048997423
 10
473.9935803678872
 20
329.2494837405208
 10
474.8983084227053
 20
329.3211310598335
 10
475.8138618112815
 20
329.3355172498783
 10
476.7258016166252
 20
329.2924154283039
 10
477.6197470107988
 20
329.1925053483095
 10
478.481598674114
 20
329.0373624508224
 10
479.2977655657292
 20
328.8294336236704
 10
480.0553758313995
 20
328.5719978796998
 10
480.7424816790404
 20
328.2691153055483
 10
481.3482468273433
 20
327.9255623817111
 10
481.8631183152844
 20
327.5467572488759
 10
482.2789759696226
 20
327.1386738030682
 10
482.4773061465283
 20
326.8836755633057
  0
LINE
  5
130
330
2
100
AcDbEntity
  8
0
100
AcDbLine
 10
493.5110684156112
 20
328.8484926246931
 30
0.0
 11
481.9416256114966
 21
334.6326081040063
 31
0.0
  0
ELLIPSE
  5
131
330
2
100
AcDbEntity
  8
0
100
AcDbEllipse
 10
493.2701866003991
 20
328.728709702728
 30
0.0
 11
0.3401927457347493
 21
0.0
 31
0.0
210
0.0
220
0.0
230
1.0
 40
0.4986323443
 41
5.499156671652543
 42
7.067213942706526
  0
ELLIPSE
  5
132
330
2
100
AcDbEntity
  8
0
100
AcDbEllipse
 10
457.8971612452129
 20
322.6110744254444
 30
0.0
 11
0.3401927457347686
 21
0.0
 31
0.0
210
0.0
220
0.0
230
1.0
 40
0.4986323443
 41
2.357564018062672
 42
3.925621289117053
  0
LINE
  5
133
330
2
100
AcDbEntity
  8
0
100
AcDbLine
 10
481.4624940568261
 20
334.6326085508485
 30
0.0
 11
457.658991649948
 21
322.7308573474095
 31
0.0
  0
LWPOLYLINE
  5
134
330
2
100
AcDbEntity
  8
0
100
AcDbPolyline
 90
       10
 70
   128
 43
0.0
 10
469.7502159893718
 20
320.5685526479228
 10
469.4674687414994
 20
320.7886833507743
 10
469.0622813679442
 20
321.1862961409419
 10
468.759957006847
 20
321.6061651206418
 10
468.5652634253294
 20
322.0416690364931
 10
468.4812716329812
 20
322.4859398126612
 10
468.5093058357635
 20
322.9319706858363
 10
468.6489241103449
 20
323.3727277472198
 10
468.8979242130507
 20
323.8012598648376
 10
469.1486095673127
 20
324.1046520583292
  0
ELLIPSE
  5
135
330
2
100
AcDbEntity
  8
0
100
AcDbEllipse
 10
494.2218011359377
 20
340.5012919655969
 30
0.0
 11
0.5102891186021239
 21
0.0
 31
0.0
210
0.0
220
0.0
230
1.0
 40
0.4986323442999999
 41
6.24053745602099
 42
7.067213942706632
  0
ELLIPSE
  5
136
330
2
100
AcDbEntity
  8
0
100
AcDbEllipse
 10
456.9476935917355
 20
334.3839793808561
 30
0.0
 11
0.5102891186021628
 21
0.0
 31
0.0
210
0.0
220
0.0
230
1.0
 40
0.4986323442999999
 41
2.357564018062709
 42
3.184240504748448
  0
LWPOLYLINE
  5
137
330
2
100
AcDbEntity
  8
0
100
AcDbPolyline
 90
       17
 70
   128
 43
0.0
 10
483.5062602289987
 20
298.832545472919
 10
482.8379189187345
 20
300.0087586805644
 10
482.0963514969301
 20
301.1269439847475
 10
481.2869298563883
 20
302.1789992199263
 10
480.4155156250256
 20
303.1573052211477
 10
479.4884212907995
 20
304.0547783183618
 10
478.5123619432194
 20
304.86491152679
 10
477.4944074615298
 20
305.5818435697537
 10
476.4419306815508
 20
306.2003789818606
 10
475.3625560092261
 20
306.7160333637686
 10
474.2641017783094
 20
307.1250798870611
 10
473.1545230552692
 20
307.4245500073778
 10
472.0418571248026
 20
307.6122730885094
 10
470.9341645072012
 20
307.6868949845704
 10
469.8394670712571
 20
307.6478710450562
 10
468.7656953072836
 20
307.4954880910624
 10
468.0692426029237
 20
307.3324965339523
  0
SPLINE
  5
138
330
2
100
AcDbEntity
  8
0
100
AcDbSpline
210
0.0
220
0.0
230
1.0
 70
     8
 71
     3
 72
     9
 73
     5
 74
     0
 42
0.000000001
 43
0.0000000001
 40
0.0
 40
0.0
 40
0.0
 40
0.0
 40
0.2243442490606291
 40
1.0
 40
1.0
 40
1.0
 40
1.0
 10
486.8705360360324
 20
294.0132942074164
 30
0.0
 10
486.8698433695616
 20
294.0574293780608
 30
0.0
 10
486.866755853507
 20
294.2541590505583
 30
0.0
 10
486.8594718579014
 20
294.4498874324894
 30
0.0
 10
486.8538219848202
 20
294.6017052775565
 30
0.0
  0
LWPOLYLINE
  5
139
330
2
100
AcDbEntity
  8
0
100
AcDbPolyline
 90
       12
 70
   128
 43
0.0
 10
498.7054591047028
 20
302.6293618496554
 10
498.1660543938783
 20
303.7319349786195
 10
497.5507800747538
 20
304.7848686682273
 10
496.8648873937396
 20
305.7791729942414
 10
496.1142263609213
 20
306.7063730744298
 10
495.305201959824
 20
307.5585511977738
 10
494.4447169521798
 20
308.3284420279941
 10
493.5401128950542
 20
309.0094746873309
 10
492.5991071367664
 20
309.5958369096035
 10
491.6297280252368
 20
310.082530838293
 10
490.6402465417649
 20
310.4654001866547
 10
490.5512742871092
 20
310.4943977303591
  0
LWPOLYLINE
  5
13A
330
2
100
AcDbEntity
  8
0
100
AcDbPolyline
 90
       14
 70
   128
 43
0.0
 10
498.2294522919032
 20
288.9804432327197
 10
498.3204724075729
 20
289.1233984514435
 10
498.8384185914589
 20
290.050841419933
 10
499.2747613349629
 20
291.0453639681552
 10
499.625775792046
 20
292.0984843695345
 10
499.8884690381844
 20
293.201212689723
 10
500.0605961566238
 20
294.3441453267666
 10
500.1406928574906
 20
295.5175252823934
 10
500.1280732436148
 20
296.7113488094981
 10
500.0228472373105
 20
297.9154274256097
 10
499.8259103029356
 20
299.1194873659471
 10
499.5389434470957
 20
300.3132576872714
 10
499.1643944513028
 20
301.4865509558051
 10
498.7054591047028
 20
302.6293618496554
  0
ELLIPSE
  5
13B
330
2
100
AcDbEntity
  8
0
100
AcDbEllipse
 10
485.3899108845086
 20
327.8627964355859
 30
0.0
 11
0.2352265506136291
 21
0.4513174476543626
 31
0.0
210
0.0
220
0.0
230
1.0
 40
0.6035352904
 41
5.485797430235781
 42
6.284276411430374
  0
ARC
  5
13C
330
2
100
AcDbEntity
  8
0
100
AcDbCircle
 10
462.670492270394
 20
316.5763008424944
 30
0.0
 40
0.0670145071073518
100
AcDbArc
 50
103.8851620846983
 51
166.6882370156984
  0
LWPOLYLINE
  5
13D
330
2
100
AcDbEntity
  8
0
100
AcDbPolyline
 90
       15
 70
   128
 43
0.0
 10
490.5747189275071
 20
296.4369327950801
 10
490.5538337503152
 20
296.4441793665971
 10
490.0654191530283
 20
296.6642808156822
 10
489.580172110366
 20
296.9790642738622
 10
489.1106602632349
 20
297.380380847653
 10
488.6690437079391
 20
297.8578336768153
 10
488.2667602262912
 20
298.3990579060503
 10
487.9142285289848
 20
298.9900354315829
 10
487.620578979445
 20
299.6154615785085
 10
487.39341721641
 20
300.2591391105296
 10
487.2386263159533
 20
300.9043923722243
 10
487.1602155368893
 20
301.5345150555239
 10
487.1602155368893
 20
302.1331859743423
 10
487.2386263159533
 20
302.6848935005006
 10
487.3054163887197
 20
302.9346042859917
  0
ARC
  5
13E
330
2
100
AcDbEntity
  8
0
100
AcDbCircle
 10
466.3857018670515
 20
339.1955835835667
 30
0.0
 40
0.0744488599859584
100
AcDbArc
 50
6.255743466698486
 51
70.89089710029764
  0
ARC
  5
13F
330
2
100
AcDbEntity
  8
0
100
AcDbCircle
 10
464.6326302637272
 20
339.0756489593995
 30
0.0
 40
0.0744319215194139
100
AcDbArc
 50
109.1013322537961
 51
173.7527059364007
  0
LINE
  5
140
330
2
100
AcDbEntity
  8
0
100
AcDbLine
 10
463.8696370102943
 20
339.0304189790092
 30
0.0
 11
464.6122558431842
 21
338.5765963589062
 31
0.0
  0
LINE
  5
141
330
2
100
AcDbEntity
  8
0
100
AcDbLine
 10
464.5231421641235
 20
340.3291320536311
 30
0.0
 11
463.9716813028655
 21
340.0534016230021
 31
0.0
  0
LINE
  5
142
330
2
100
AcDbEntity
  8
0
100
AcDbLine
 10
466.9318103115666
 20
340.2307771951468
 30
0.0
 11
466.4952052738609
 21
340.4490797140166
 31
0.0
  0
ELLIPSE
  5
143
330
2
100
AcDbEntity
  8
0
100
AcDbEllipse
 10
467.5316745564146
 20
339.5710944903931
 30
0.0
 11
0.8484139076986583
 21
0.0
 31
0.0
210
0.0
220
0.0
230
1.0
 40
0.4998477299000001
 41
2.436687733839447
 42
3.039518682652053
  0
ARC
  5
144
330
2
100
AcDbEntity
  8
0
100
AcDbCircle
 10
463.8275148293932
 20
339.1175861803436
 30
0.0
 40
0.0968111518036713
100
AcDbArc
 50
241.3974542516013
 51
295.7914263387985
  0
LINE
  5
145
330
2
100
AcDbEntity
  8
0
100
AcDbLine
 10
473.407906867414
 20
342.9744218656099
 30
0.0
 11
472.4679426897499
 21
343.3589527874341
 31
0.0
  0
ELLIPSE
  5
146
330
2
100
AcDbEntity
  8
0
100
AcDbEllipse
 10
469.6694968354384
 20
341.2770144732927
 30
0.0
 11
0.6786234904838514
 21
-0.0048331101914165
 31
0.0
210
0.0
220
0.0
230
1.0
 40
0.4999048225000001
 41
0.0218518981133739
 42
0.7888061431405113
  0
ELLIPSE
  5
147
330
2
100
AcDbEntity
  8
0
100
AcDbEllipse
 10
469.526204213998
 20
341.1570671677075
 30
0.0
 11
0.678623490483871
 21
0.0048331101913779
 31
0.0
210
0.0
220
0.0
230
1.0
 40
0.4999048225000001
 41
2.352786510449376
 42
3.180548220687211
  0
LINE
  5
148
330
2
100
AcDbEntity
  8
0
100
AcDbLine
 10
485.6360573411604
 20
345.883143511813
 30
0.0
 11
485.636058011407
 21
345.1544995323981
 31
0.0
  0
ARC
  5
149
330
2
100
AcDbEntity
  8
0
100
AcDbCircle
 10
485.5816572175617
 20
345.8841306443799
 30
0.0
 40
0.0544090789769618
100
AcDbArc
 50
358.9604376196017
 51
58.75423752790013
  0
LINE
  5
14A
330
2
100
AcDbEntity
  8
0
100
AcDbLine
 10
486.1137085197379
 20
345.6787335251207
 30
0.0
 11
486.1137084080189
 21
346.8442477105028
 31
0.0
  0
LINE
  5
14B
330
2
100
AcDbEntity
  8
0
100
AcDbLine
 10
484.5754470944594
 20
346.075117053723
 30
0.0
 11
484.5234022464914
 21
345.7108275335637
 31
0.0
  0
ELLIPSE
  5
14C
330
2
100
AcDbEntity
  8
0
100
AcDbEllipse
 10
486.3539708236335
 20
346.6997900050515
 30
0.0
 11
-0.1688146306399087
 21
0.2946945905900975
 31
0.0
210
0.0
220
0.0
230
1.0
 40
0.5805185719000001
 41
6.251963342302963
 42
7.049134881232045
  0
LWPOLYLINE
  5
14D
330
2
100
AcDbEntity
  8
0
100
AcDbPolyline
 90
       16
 70
   128
 43
0.0
 10
469.1486095673127
 20
324.1046520583292
 10
469.2523797736787
 20
324.2108088293264
 10
469.7067000602016
 20
324.5949160923736
 10
470.2537209104048
 20
324.9475236405347
 10
470.8848153244113
 20
325.263070847538
 10
471.5900304206993
 20
325.5365812726225
 10
472.3582449467937
 20
325.763741415884
 10
473.1773428757716
 20
325.940969196181
 10
474.0344071110412
 20
326.0654692475508
 10
474.9159212337741
 20
326.1352783848586
 10
475.8079829800904
 20
326.1492954862497
 10
476.6965245324604
 20
326.1072995900416
 10
477.567532364163
 20
326.0099527993168
 10
478.4072703235629
 20
325.8587906187512
 10
479.2024959038981
 20
325.6561969319566
 10
479.6996313650433
 20
325.4948377843455
  0
ARC
  5
14E
330
2
100
AcDbEntity
  8
0
100
AcDbCircle
 10
471.2320004142354
 20
341.1972458345641
 30
0.0
 40
0.7297321190293679
100
AcDbArc
 50
84.21291396697457
 51
109.9732944673661
  0
ELLIPSE
  5
14F
330
2
100
AcDbEntity
  8
0
100
AcDbEllipse
 10
490.3711211107697
 20
300.4088490953599
 30
0.0
 11
-1.331615750815672
 21
2.752120352794122
 31
0.0
210
0.0
220
0.0
230
1.0
 40
0.5197993012970861
 41
0.0
 42
6.283185307179585
  0
ARC
  5
150
330
2
100
AcDbEntity
  8
0
100
AcDbCircle
 10
488.303978085691
 20
298.8553981339277
 30
0.0
 40
4.922381245987146
100
AcDbArc
 50
352.6345387607677
 51
6.033539438605795
  0
INSERT
  5
151
330
2
100
AcDbEntity
  8
_U+56FE_U+5C42 1
100
AcDbBlockReference
  2
block 2
 10
244.3475555651221
 20
632.1097744859484
 30
0.0
 41
2.177931447778074
 42
2.177931447778074
 43
2.177931447778074
  0
INSERT
  5
15A
330
2
100
AcDbEntity
  8
_U+56FE_U+5C42 1
100
AcDbBlockReference
  2
block 3
 10
244.3475555651221
 20
632.1097744859484
 30
0.0
 41
2.177931447778074
 42
2.177931447778074
 43
2.177931447778074
  0
INSERT
  5
162
330
2
100
AcDbEntity
  8
_U+56FE_U+5C42 1
100
AcDbBlockReference
  2
block 7
 10
244.3475555651221
 20
632.1097744859484
 30
0.0
 41
2.177931447778074
 42
2.177931447778074
 43
2.177931447778074
  0
INSERT
  5
16A
330
2
100
AcDbEntity
  8
_U+56FE_U+5C42 1
100
AcDbBlockReference
  2
block 8
 10
244.3475555651221
 20
632.1097744859484
 30
0.0
 41
2.177931447778074
 42
2.177931447778074
 43
2.177931447778074
  0
INSERT
  5
172
330
2
100
AcDbEntity
  8
_U+56FE_U+5C42 1
100
AcDbBlockReference
  2
block 9
 10
244.3475555651221
 20
632.1097744859484
 30
0.0
 41
2.177931447778074
 42
2.177931447778074
 43
2.177931447778074
  0
INSERT
  5
177
330
2
100
AcDbEntity
  8
_U+56FE_U+5C42 1
100
AcDbBlockReference
  2
block 15
 10
244.3475555651221
 20
632.1097744859484
 30
0.0
 41
2.177931447778074
 42
2.177931447778074
 43
2.177931447778074
  0
INSERT
  5
17C
330
2
100
AcDbEntity
  8
_U+56FE_U+5C42 1
100
AcDbBlockReference
  2
block 28
 10
244.3475555651221
 20
632.1097744859484
 30
0.0
 41
2.177931447778074
 42
2.177931447778074
 43
2.177931447778074
  0
INSERT
  5
184
330
2
100
AcDbEntity
  8
_U+56FE_U+5C42 1
100
AcDbBlockReference
  2
block 225
 10
244.3475555651221
 20
632.1097744859484
 30
0.0
 41
2.177931447778074
 42
2.177931447778074
 43
2.177931447778074
  0
INSERT
  5
189
330
2
100
AcDbEntity
  8
_U+56FE_U+5C42 1
100
AcDbBlockReference
  2
block 226
 10
244.3475555651221
 20
632.1097744859484
 30
0.0
 41
2.177931447778074
 42
2.177931447778074
 43
2.177931447778074
  0
INSERT
  5
18E
330
2
100
AcDbEntity
  8
_U+56FE_U+5C42 1
100
AcDbBlockReference
  2
block 227
 10
244.3475555651221
 20
632.1097744859484
 30
0.0
 41
2.177931447778074
 42
2.177931447778074
 43
2.177931447778074
  0
INSERT
  5
193
330
2
100
AcDbEntity
  8
_U+56FE_U+5C42 1
100
AcDbBlockReference
  2
block 228
 10
244.3475555651221
 20
632.1097744859484
 30
0.0
 41
2.177931447778074
 42
2.177931447778074
 43
2.177931447778074
  0
INSERT
  5
198
330
2
100
AcDbEntity
  8
_U+56FE_U+5C42 1
100
AcDbBlockReference
  2
block 229
 10
244.3475555651221
 20
632.1097744859484
 30
0.0
 41
2.177931447778074
 42
2.177931447778074
 43
2.177931447778074
  0
INSERT
  5
19D
330
2
100
AcDbEntity
  8
_U+56FE_U+5C42 1
100
AcDbBlockReference
  2
block 230
 10
244.3475555651221
 20
632.1097744859484
 30
0.0
 41
2.177931447778074
 42
2.177931447778074
 43
2.177931447778074
  0
INSERT
  5
1A2
330
2
100
AcDbEntity
  8
_U+56FE_U+5C42 1
100
AcDbBlockReference
  2
block 231
 10
244.3475555651221
 20
632.1097744859484
 30
0.0
 41
2.177931447778074
 42
2.177931447778074
 43
2.177931447778074
  0
INSERT
  5
1A7
330
2
100
AcDbEntity
  8
_U+56FE_U+5C42 1
100
AcDbBlockReference
  2
block 232
 10
244.3475555651221
 20
632.1097744859484
 30
0.0
 41
2.177931447778074
 42
2.177931447778074
 43
2.177931447778074
  0
INSERT
  5
1AC
330
2
100
AcDbEntity
  8
_U+56FE_U+5C42 1
100
AcDbBlockReference
  2
block 233
 10
244.3475555651221
 20
632.1097744859484
 30
0.0
 41
2.177931447778074
 42
2.177931447778074
 43
2.177931447778074
  0
INSERT
  5
1B1
330
2
100
AcDbEntity
  8
_U+56FE_U+5C42 1
100
AcDbBlockReference
  2
block 242
 10
244.3475555651221
 20
632.1097744859484
 30
0.0
 41
2.177931447778074
 42
2.177931447778074
 43
2.177931447778074
  0
INSERT
  5
1B6
330
2
100
AcDbEntity
  8
_U+56FE_U+5C42 1
100
AcDbBlockReference
  2
block 243
 10
244.3475555651221
 20
632.1097744859484
 30
0.0
 41
2.177931447778074
 42
2.177931447778074
 43
2.177931447778074
  0
INSERT
  5
1BB
330
2
100
AcDbEntity
  8
_U+56FE_U+5C42 1
100
AcDbBlockReference
  2
block 244
 10
244.3475555651221
 20
632.1097744859484
 30
0.0
 41
2.177931447778074
 42
2.177931447778074
 43
2.177931447778074
  0
INSERT
  5
1C0
330
2
100
AcDbEntity
  8
_U+56FE_U+5C42 1
100
AcDbBlockReference
  2
block 253
 10
244.3475555651221
 20
632.1097744859484
 30
0.0
 41
2.177931447778074
 42
2.177931447778074
 43
2.177931447778074
  0
INSERT
  5
1C5
330
2
100
AcDbEntity
  8
_U+56FE_U+5C42 1
100
AcDbBlockReference
  2
block 254
 10
244.3475555651221
 20
632.1097744859484
 30
0.0
 41
2.177931447778074
 42
2.177931447778074
 43
2.177931447778074
  0
INSERT
  5
1CA
330
2
100
AcDbEntity
  8
_U+56FE_U+5C42 1
100
AcDbBlockReference
  2
block 255
 10
244.3475555651221
 20
632.1097744859484
 30
0.0
 41
2.177931447778074
 42
2.177931447778074
 43
2.177931447778074
  0
INSERT
  5
1CF
330
2
100
AcDbEntity
  8
_U+56FE_U+5C42 1
100
AcDbBlockReference
  2
block 256
 10
244.3475555651221
 20
632.1097744859484
 30
0.0
 41
2.177931447778074
 42
2.177931447778074
 43
2.177931447778074
  0
INSERT
  5
1D4
330
2
100
AcDbEntity
  8
_U+56FE_U+5C42 1
100
AcDbBlockReference
  2
block 257
 10
244.3475555651221
 20
632.1097744859484
 30
0.0
 41
2.177931447778074
 42
2.177931447778074
 43
2.177931447778074
  0
INSERT
  5
1D9
330
2
100
AcDbEntity
  8
_U+56FE_U+5C42 1
100
AcDbBlockReference
  2
block 258
 10
244.3475555651221
 20
632.1097744859484
 30
0.0
 41
2.177931447778074
 42
2.177931447778074
 43
2.177931447778074
  0
INSERT
  5
1DE
330
2
100
AcDbEntity
  8
_U+56FE_U+5C42 1
100
AcDbBlockReference
  2
block 259
 10
244.3475555651221
 20
632.1097744859484
 30
0.0
 41
2.177931447778074
 42
2.177931447778074
 43
2.177931447778074
  0
INSERT
  5
1E3
330
2
100
AcDbEntity
  8
_U+56FE_U+5C42 1
100
AcDbBlockReference
  2
block 260
 10
244.3475555651221
 20
632.1097744859484
 30
0.0
 41
2.177931447778074
 42
2.177931447778074
 43
2.177931447778074
  0
INSERT
  5
1E8
330
2
100
AcDbEntity
  8
_U+56FE_U+5C42 1
100
AcDbBlockReference
  2
block 261
 10
244.3475555651221
 20
632.1097744859484
 30
0.0
 41
2.177931447778074
 42
2.177931447778074
 43
2.177931447778074
  0
INSERT
  5
1ED
330
2
100
AcDbEntity
  8
_U+56FE_U+5C42 1
100
AcDbBlockReference
  2
block 262
 10
244.3475555651221
 20
632.1097744859484
 30
0.0
 41
2.177931447778074
 42
2.177931447778074
 43
2.177931447778074
  0
INSERT
  5
1F2
330
2
100
AcDbEntity
  8
_U+56FE_U+5C42 1
100
AcDbBlockReference
  2
block 263
 10
244.3475555651221
 20
632.1097744859484
 30
0.0
 41
2.177931447778074
 42
2.177931447778074
 43
2.177931447778074
  0
INSERT
  5
1F7
330
2
100
AcDbEntity
  8
_U+56FE_U+5C42 1
100
AcDbBlockReference
  2
block 264
 10
244.3475555651221
 20
632.1097744859484
 30
0.0
 41
2.177931447778074
 42
2.177931447778074
 43
2.177931447778074
  0
INSERT
  5
1FC
330
2
100
AcDbEntity
  8
_U+56FE_U+5C42 1
100
AcDbBlockReference
  2
block 266
 10
244.3475555651221
 20
632.1097744859484
 30
0.0
 41
2.177931447778074
 42
2.177931447778074
 43
2.177931447778074
  0
INSERT
  5
201
330
2
100
AcDbEntity
  8
_U+56FE_U+5C42 1
100
AcDbBlockReference
  2
block 267
 10
244.3475555651221
 20
632.1097744859484
 30
0.0
 41
2.177931447778074
 42
2.177931447778074
 43
2.177931447778074
  0
INSERT
  5
206
330
2
100
AcDbEntity
  8
_U+56FE_U+5C42 1
100
AcDbBlockReference
  2
block 601
 10
244.3475555651221
 20
632.1097744859484
 30
0.0
 41
2.177931447778074
 42
2.177931447778074
 43
2.177931447778074
  0
INSERT
  5
220
330
2
100
AcDbEntity
  8
_U+56FE_U+5C42 1
100
AcDbBlockReference
  2
block 602
 10
244.3475555651221
 20
632.1097744859484
 30
0.0
 41
2.177931447778074
 42
2.177931447778074
 43
2.177931447778074
  0
INSERT
  5
238
330
2
100
AcDbEntity
  8
_U+56FE_U+5C42 1
100
AcDbBlockReference
  2
block 619
 10
244.3475555651221
 20
632.1097744859484
 30
0.0
 41
2.177931447778074
 42
2.177931447778074
 43
2.177931447778074
  0
INSERT
  5
240
330
2
100
AcDbEntity
  8
_U+56FE_U+5C42 1
100
AcDbBlockReference
  2
block 622
 10
244.3475555651221
 20
632.1097744859484
 30
0.0
 41
2.177931447778074
 42
2.177931447778074
 43
2.177931447778074
  0
INSERT
  5
248
330
2
100
AcDbEntity
  8
_U+56FE_U+5C42 1
100
AcDbBlockReference
  2
block 695
 10
244.3475555651221
 20
632.1097744859484
 30
0.0
 41
2.177931447778074
 42
2.177931447778074
 43
2.177931447778074
  0
INSERT
  5
278
330
2
100
AcDbEntity
  8
_U+56FE_U+5C42 1
100
AcDbBlockReference
  2
block 698
 10
244.3475555651221
 20
632.1097744859484
 30
0.0
 41
2.177931447778074
 42
2.177931447778074
 43
2.177931447778074
  0
INSERT
  5
27D
330
2
100
AcDbEntity
  8
_U+56FE_U+5C42 1
100
AcDbBlockReference
  2
block 704
 10
244.3475555651221
 20
632.1097744859484
 30
0.0
 41
2.177931447778074
 42
2.177931447778074
 43
2.177931447778074
  0
INSERT
  5
282
330
2
100
AcDbEntity
  8
_U+56FE_U+5C42 1
100
AcDbBlockReference
  2
block 705
 10
244.3475555651221
 20
632.1097744859484
 30
0.0
 41
2.177931447778074
 42
2.177931447778074
 43
2.177931447778074
  0
INSERT
  5
28A
330
2
100
AcDbEntity
  8
_U+56FE_U+5C42 1
100
AcDbBlockReference
  2
block 964
 10
244.3475555651221
 20
632.1097744859484
 30
0.0
 41
2.177931447778074
 42
2.177931447778074
 43
2.177931447778074
  0
LINE
  5
2A3
330
2
100
AcDbEntity
  8
0
100
AcDbLine
 10
475.8926688244206
 20
275.8566735268384
 30
0.0
 11
471.9883115633647
 21
274.0185771320534
 31
0.0
  0
ARC
  5
2A4
330
2
100
AcDbEntity
  8
0
100
AcDbCircle
 10
477.3270755927614
 20
291.099505644386
 30
0.0
 40
24.55962984621424
100
AcDbArc
 50
168.2620216641819
 51
187.217186862287
  0
ARC
  5
2A5
330
2
100
AcDbEntity
  8
0
100
AcDbCircle
 10
463.4171802716781
 20
294.3288711818825
 30
0.0
 40
10.05320897490203
100
AcDbArc
 50
109.5773435932224
 51
154.1784037575567
  0
LINE
  5
2A6
330
2
100
AcDbEntity
  8
0
100
AcDbLine
 10
458.3603258493169
 20
278.0058995818062
 30
0.0
 11
459.1082743703183
 21
277.3447332349582
 31
0.0
  0
LINE
  5
2A7
330
2
100
AcDbEntity
  8
0
100
AcDbLine
 10
469.2085294786711
 20
274.5438876305897
 30
0.0
 11
470.4500972400493
 21
274.8365515846846
 31
0.0
  0
ARC
  5
2A8
330
2
100
AcDbEntity
  8
0
100
AcDbCircle
 10
463.0241973077258
 20
277.0992690201267
 30
0.0
 40
0.1117033976007061
100
AcDbArc
 50
161.6281956174439
 51
260.2495887111688
  0
ARC
  5
2A9
330
2
100
AcDbEntity
  8
0
100
AcDbCircle
 10
463.7670927224694
 20
279.2457432418317
 30
0.0
 40
0.1630884546640989
100
AcDbArc
 50
70.54812456649543
 51
124.4893161521597
  0
ARC
  5
2AA
330
2
100
AcDbEntity
  8
0
100
AcDbCircle
 10
463.6891330248426
 20
279.3142292908697
 30
0.0
 40
0.1573864609588859
100
AcDbArc
 50
338.2802143912055
 51
32.81560918555384
  0
ELLIPSE
  5
2AB
330
2
100
AcDbEntity
  8
0
100
AcDbEllipse
 10
460.8050436163668
 20
287.7756236542955
 30
0.0
 11
-5.38965992592567
 21
15.83328772837785
 31
0.0
210
0.0
220
0.0
230
1.0
 40
0.7789824945124511
 41
0.0
 42
6.283185307179586
  0
ELLIPSE
  5
2AC
330
2
100
AcDbEntity
  8
0
100
AcDbEllipse
 10
460.6729463071111
 20
287.6451554029373
 30
0.0
 11
-5.631444819035736
 21
16.21081558305357
 31
0.0
210
0.0
220
0.0
230
1.0
 40
0.7761148718699357
 41
0.0
 42
6.283185307179586
  0
LINE
  5
2AD
330
2
100
AcDbEntity
  8
0
100
AcDbLine
 10
464.9722532615276
 20
301.9593018326171
 30
0.0
 11
465.5990826531878
 21
302.0157687488737
 31
0.0
  0
LINE
  5
2AE
330
2
100
AcDbEntity
  8
0
100
AcDbLine
 10
460.0485607921893
 20
303.8009044111031
 30
0.0
 11
460.6293609113642
 21
303.996469288184
 31
0.0
  0
ENDSEC
  0
SECTION
  2
OBJECTS
  0
DICTIONARY
  5
9
330
0
100
AcDbDictionary
281
     1
  3
ACAD_COLOR
350
3E
  3
ACAD_GROUP
350
35
  3
ACAD_LAYOUT
350
16
  3
ACAD_MATERIAL
350
B
  3
ACAD_MLEADERSTYLE
350
41
  3
ACAD_MLINESTYLE
350
36
  3
ACAD_PLOTSETTINGS
350
37
  3
ACAD_PLOTSTYLENAME
350
8
  3
ACAD_SCALELIST
350
3F
  3
ACAD_TABLESTYLE
350
40
  3
ACAD_VISUALSTYLE
350
2B
  3
ACDB_RECOMPOSE_DATA
350
2B6
  3
AcDbVariableDictionary
350
2AF
  0
DICTIONARY
  5
1E
330
1D
100
AcDbDictionary
280
     1
281
     1
  3
ACAD_LAYERSTATES
360
1F
  0
DICTIONARY
  5
6
330
5
100
AcDbDictionary
280
     1
281
     1
  0
DICTIONARY
  5
3
330
2
100
AcDbDictionary
280
     1
281
     1
  0
DICTIONARY
  5
3E
102
{ACAD_REACTORS
330
9
102
}
330
9
100
AcDbDictionary
281
     1
  0
DICTIONARY
  5
35
102
{ACAD_REACTORS
330
9
102
}
330
9
100
AcDbDictionary
281
     1
  0
DICTIONARY
  5
16
102
{ACAD_REACTORS
330
9
102
}
330
9
100
AcDbDictionary
281
     1
  3
Model
350
15
  3
レイアウト1
350
1C
  0
DICTIONARY
  5
B
102
{ACAD_REACTORS
330
9
102
}
330
9
100
AcDbDictionary
281
     1
  3
ByBlock
350
3B
  3
ByLayer
350
38
  3
Global
350
A
  0
DICTIONARY
  5
41
102
{ACAD_REACTORS
330
9
102
}
330
9
100
AcDbDictionary
281
     1
  0
DICTIONARY
  5
36
102
{ACAD_REACTORS
330
9
102
}
330
9
100
AcDbDictionary
281
     1
  3
Standard
350
42
  0
DICTIONARY
  5
37
102
{ACAD_REACTORS
330
9
102
}
330
9
100
AcDbDictionary
281
     1
  0
ACDBDICTIONARYWDFLT
  5
8
102
{ACAD_REACTORS
330
9
102
}
330
9
100
AcDbDictionary
281
     1
  3
Normal
350
7
100
AcDbDictionaryWithDefault
340
7
  0
DICTIONARY
  5
3F
102
{ACAD_REACTORS
330
9
102
}
330
9
100
AcDbDictionary
281
     1
  3
A0
350
47
  3
A1
350
48
  3
A2
350
49
  3
A3
350
4A
  3
A4
350
4B
  3
A5
350
4C
  3
A6
350
4D
  3
A7
350
4E
  3
A8
350
4F
  3
A9
350
50
  3
B0
350
51
  3
B1
350
52
  3
B2
350
53
  3
B3
350
54
  3
B4
350
55
  3
B5
350
56
  3
B6
350
57
  0
DICTIONARY
  5
40
102
{ACAD_REACTORS
330
9
102
}
330
9
100
AcDbDictionary
281
     1
  3
Standard
350
43
  0
DICTIONARY
  5
2B
102
{ACAD_REACTORS
330
9
102
}
330
9
100
AcDbDictionary
281
     1
  3
2dWireframe
350
2A
  3
Realistic
350
45
  3
Wireframe
350
46
  0
XRECORD
  5
2B6
102
{ACAD_REACTORS
330
9
102
}
330
9
100
AcDbXrecord
280
     1
 90
        1
330
43
  0
DICTIONARY
  5
2AF
102
{ACAD_REACTORS
330
9
102
}
330
9
100
AcDbDictionary
281
     1
  3
CANNOSCALE
350
2B4
  3
CMLEADERSTYLE
350
2B1
  3
CTABLESTYLE
350
2B0
  3
CVIEWDETAILSTYLE
350
2B2
  3
CVIEWSECTIONSTYLE
350
2B3
  0
DICTIONARY
  5
1F
102
{ACAD_REACTORS
330
1E
102
}
330
1E
100
AcDbDictionary
281
     1
  0
LAYOUT
  5
15
102
{ACAD_XDICTIONARY
360
17
102
}
102
{ACAD_REACTORS
330
16
102
}
330
16
100
AcDbPlotSettings
  1

  2
none_device
  4
ISO_A4_(210.00_x_297.00_MM)
  6

 40
7.5
 41
20.0
 42
7.5
 43
20.0
 44
210.0
 45
297.0
 46
11.54999923706054
 47
-13.65000009536743
 48
0.0
 49
0.0
140
0.0
141
0.0
142
1.0
143
8.704084754739808
 70
 11952
 72
     1
 73
     0
 74
     0
  7

 75
     0
147
0.1148885871608098
 76
     0
 77
     2
 78
   300
148
0.0
149
0.0
100
AcDbLayout
  1
Model
 70
     1
 71
     0
 10
0.0
 20
0.0
 11
12.0
 21
9.0
 12
0.0
 22
0.0
 32
0.0
 14
0.0
 24
0.0
 34
0.0
 15
0.0
 25
0.0
 35
0.0
146
0.0
 13
0.0
 23
0.0
 33
0.0
 16
1.0
 26
0.0
 36
0.0
 17
0.0
 27
1.0
 37
0.0
 76
     0
330
2
331
29
1001
ACAD_PSEXT
1000
None
1000
None
1000
Not applicable
1000
The layout will not be plotted unless a new plotter configuration name is selected.
1070
     0
  0
LAYOUT
  5
1C
102
{ACAD_REACTORS
330
16
102
}
330
16
100
AcDbPlotSettings
  1

  2
C:\Documents and Settings\basas\Application Data\Autodesk\AutoCAD 2005\R16.1\enu\plotters\Default Windows System Printer.pc3
  4

  6

 40
0.0
 41
0.0
 42
0.0
 43
0.0
 44
0.0
 45
0.0
 46
0.0
 47
0.0
 48
0.0
 49
0.0
140
0.0
141
0.0
142
1.0
143
1.0
 70
   688
 72
     0
 73
     0
 74
     5
  7

 75
    16
147
1.0
 76
     0
 77
     2
 78
   300
148
0.0
149
0.0
100
AcDbLayout
  1
レイアウト1
 70
     1
 71
     1
 10
0.0
 20
0.0
 11
12.0
 21
9.0
 12
0.0
 22
0.0
 32
0.0
 14
0.0
 24
0.0
 34
0.0
 15
0.0
 25
0.0
 35
0.0
146
0.0
 13
0.0
 23
0.0
 33
0.0
 16
1.0
 26
0.0
 36
0.0
 17
0.0
 27
1.0
 37
0.0
 76
     0
330
19
  0
MATERIAL
  5
3B
102
{ACAD_XDICTIONARY
360
3C
102
}
102
{ACAD_REACTORS
330
B
102
}
330
B
100
AcDbMaterial
  1
ByBlock
 94
       63
  0
MATERIAL
  5
38
102
{ACAD_XDICTIONARY
360
39
102
}
102
{ACAD_REACTORS
330
B
102
}
330
B
100
AcDbMaterial
  1
ByLayer
 94
       63
  0
MATERIAL
  5
A
102
{ACAD_XDICTIONARY
360
C
102
}
102
{ACAD_REACTORS
330
B
102
}
330
B
100
AcDbMaterial
  1
Global
 43
0.0007999999797903
 43
0.0
 43
0.0
 43
0.0
 43
0.0
 43
0.0007999999797903
 43
0.0
 43
0.0
 43
0.0
 43
0.0
 43
1.0
 43
0.0
 43
0.0
 43
0.0
 43
0.0
 43
1.0
 49
0.0007999999797903
 49
0.0
 49
0.0
 49
0.0
 49
0.0
 49
0.0007999999797903
 49
0.0
 49
0.0
 49
0.0
 49
0.0
 49
1.0
 49
0.0
 49
0.0
 49
0.0
 49
0.0
 49
1.0
142
0.0007999999797903
142
0.0
142
0.0
142
0.0
142
0.0
142
0.0007999999797903
142
0.0
142
0.0
142
0.0
142
0.0
142
1.0
142
0.0
142
0.0
142
0.0
142
0.0
142
1.0
144
0.0007999999797903
144
0.0
144
0.0
144
0.0
144
0.0
144
0.0007999999797903
144
0.0
144
0.0
144
0.0
144
0.0
144
1.0
144
0.0
144
0.0
144
0.0
144
0.0
144
1.0
 94
       63
1001
ACAD
1070
    -1
1070
     3
1070
     0
1000

1071
        0
1070
     0
  0
MLINESTYLE
  5
42
102
{ACAD_REACTORS
330
36
102
}
330
36
100
AcDbMlineStyle
  2
STANDARD
 70
     0
  3

 62
   256
 51
90.0
 52
90.0
 71
     2
 49
0.5
 62
   256
  6
BYLAYER
 49
-0.5
 62
   256
  6
BYLAYER
  0
ACDBPLACEHOLDER
  5
7
102
{ACAD_REACTORS
330
8
102
}
330
8
  0
SCALE
  5
47
102
{ACAD_REACTORS
330
3F
102
}
330
3F
100
AcDbScale
 70
     0
300
1:1
140
1.0
141
1.0
290
     1
  0
SCALE
  5
48
102
{ACAD_REACTORS
330
3F
102
}
330
3F
100
AcDbScale
 70
     0
300
1:2
140
1.0
141
2.0
290
     0
  0
SCALE
  5
49
102
{ACAD_REACTORS
330
3F
102
}
330
3F
100
AcDbScale
 70
     0
300
1:4
140
1.0
141
4.0
290
     0
  0
SCALE
  5
4A
102
{ACAD_REACTORS
330
3F
102
}
330
3F
100
AcDbScale
 70
     0
300
1:5
140
1.0
141
5.0
290
     0
  0
SCALE
  5
4B
102
{ACAD_REACTORS
330
3F
102
}
330
3F
100
AcDbScale
 70
     0
300
1:8
140
1.0
141
8.0
290
     0
  0
SCALE
  5
4C
102
{ACAD_REACTORS
330
3F
102
}
330
3F
100
AcDbScale
 70
     0
300
1:10
140
1.0
141
10.0
290
     0
  0
SCALE
  5
4D
102
{ACAD_REACTORS
330
3F
102
}
330
3F
100
AcDbScale
 70
     0
300
1:16
140
1.0
141
16.0
290
     0
  0
SCALE
  5
4E
102
{ACAD_REACTORS
330
3F
102
}
330
3F
100
AcDbScale
 70
     0
300
1:20
140
1.0
141
20.0
290
     0
  0
SCALE
  5
4F
102
{ACAD_REACTORS
330
3F
102
}
330
3F
100
AcDbScale
 70
     0
300
1:30
140
1.0
141
30.0
290
     0
  0
SCALE
  5
50
102
{ACAD_REACTORS
330
3F
102
}
330
3F
100
AcDbScale
 70
     0
300
1:40
140
1.0
141
40.0
290
     0
  0
SCALE
  5
51
102
{ACAD_REACTORS
330
3F
102
}
330
3F
100
AcDbScale
 70
     0
300
1:50
140
1.0
141
50.0
290
     0
  0
SCALE
  5
52
102
{ACAD_REACTORS
330
3F
102
}
330
3F
100
AcDbScale
 70
     0
300
1:100
140
1.0
141
100.0
290
     0
  0
SCALE
  5
53
102
{ACAD_REACTORS
330
3F
102
}
330
3F
100
AcDbScale
 70
     0
300
2:1
140
2.0
141
1.0
290
     0
  0
SCALE
  5
54
102
{ACAD_REACTORS
330
3F
102
}
330
3F
100
AcDbScale
 70
     0
300
4:1
140
4.0
141
1.0
290
     0
  0
SCALE
  5
55
102
{ACAD_REACTORS
330
3F
102
}
330
3F
100
AcDbScale
 70
     0
300
8:1
140
8.0
141
1.0
290
     0
  0
SCALE
  5
56
102
{ACAD_REACTORS
330
3F
102
}
330
3F
100
AcDbScale
 70
     0
300
10:1
140
10.0
141
1.0
290
     0
  0
SCALE
  5
57
102
{ACAD_REACTORS
330
3F
102
}
330
3F
100
AcDbScale
 70
     0
300
100:1
140
100.0
141
1.0
290
     0
  0
TABLESTYLE
  5
43
102
{ACAD_XDICTIONARY
360
44
102
}
102
{ACAD_REACTORS
330
40
102
}
330
40
100
AcDbTableStyle
280
     0
  3
Standard
 70
     0
 71
     0
 40
1.5
 41
1.5
280
     0
281
     0
  7
Standard
140
4.5
170
     2
 62
     0
 63
     7
283
     0
 90
      512
 91
        0
  1

274
    -2
284
     1
 64
     0
275
    -2
285
     1
 65
     0
276
    -2
286
     1
 66
     0
277
    -2
287
     1
 67
     0
278
    -2
288
     1
 68
     0
279
    -2
289
     1
 69
     0
  7
Standard
140
6.0
170
     5
 62
     0
 63
     7
283
     0
 90
      512
 91
        0
  1

274
    -2
284
     1
 64
     0
275
    -2
285
     1
 65
     0
276
    -2
286
     1
 66
     0
277
    -2
287
     1
 67
     0
278
    -2
288
     1
 68
     0
279
    -2
289
     1
 69
     0
  7
Standard
140
4.5
170
     5
 62
     0
 63
     7
283
     0
 90
      512
 91
        0
  1

274
    -2
284
     1
 64
     0
275
    -2
285
     1
 65
     0
276
    -2
286
     1
 66
     0
277
    -2
287
     1
 67
     0
278
    -2
288
     1
 68
     0
279
    -2
289
     1
 69
     0
  0
VISUALSTYLE
  5
2A
102
{ACAD_REACTORS
330
2B
102
}
330
2B
100
AcDbVisualStyle
  2
2dWireframe
 70
     4
177
     3
291
     0
 70
    58
 90
        0
176
     1
 90
        2
176
     1
 90
        1
176
     1
 90
        0
176
     1
 40
0.6
176
     1
 40
30.0
176
     1
 62
     7
420
 16777215
176
     1
 90
        1
176
     1
 90
        4
176
     1
 62
     7
176
     1
 62
   257
176
     1
 90
        1
176
     1
 90
        1
176
     1
 40
1.0
176
     1
 90
        0
176
     1
 62
   257
176
     1
 40
1.0
176
     1
 90
        1
176
     1
 90
        6
176
     1
 90
        2
176
     1
 62
     7
176
     1
 90
        5
176
     1
 90
        0
176
     1
 90
        0
176
     1
290
     0
176
     1
 90
        1
176
     1
 40
0.0
176
     1
 90
        0
176
     1
290
     1
176
     1
290
     1
176
     1
290
     0
176
     1
290
     0
176
     1
290
     0
176
     1
290
     0
176
     1
290
     0
176
     1
290
     0
176
     1
290
     0
176
     1
 90
       50
176
     1
 40
0.0
176
     1
 40
1.0
176
     1
 90
        0
176
     1
 62
    18
420
        0
176
     1
 90
       50
176
     1
 90
        3
176
     1
 62
     5
420
      255
176
     1
290
     0
176
     1
 90
       50
176
     1
 90
       50
176
     1
 90
       50
176
     1
290
     0
176
     1
 90
       50
176
     1
 62
   256
176
     0
 40
1.0
176
     0
 90
        2
176
     1
  1
strokes_ogs.tif
176
     1
290
     0
176
     1
 40
1.0
176
     1
 40
1.0
176
     1
  0
VISUALSTYLE
  5
45
102
{ACAD_REACTORS
330
2B
102
}
330
2B
100
AcDbVisualStyle
  2
Realistic
 70
     8
177
     3
291
     0
 70
    58
 90
        2
176
     1
 90
        3
176
     1
 90
        0
176
     1
 90
        2
176
     1
 40
0.6
176
     1
 40
30.0
176
     1
 62
     7
420
 16777215
176
     1
 90
        0
176
     1
 90
        0
176
     1
 62
     7
176
     1
 62
   257
176
     1
 90
        1
176
     1
 90
        1
176
     1
 40
1.0
176
     1
 90
        8
176
     1
 62
   257
176
     1
 40
1.0
176
     1
 90
        1
176
     1
 90
        6
176
     1
 90
        2
176
     1
 62
     7
176
     1
 90
        3
176
     1
 90
        0
176
     1
 90
        0
176
     1
290
     0
176
     1
 90
       13
176
     1
 40
0.0
176
     1
 90
        0
176
     1
290
     0
176
     1
290
     1
176
     1
290
     1
176
     1
290
     0
176
     1
290
     0
176
     1
290
     0
176
     1
290
     0
176
     1
290
     0
176
     1
290
     0
176
     1
 90
       50
176
     1
 40
0.0
176
     1
 40
1.0
176
     1
 90
        0
176
     1
 62
    18
420
        0
176
     1
 90
       50
176
     1
 90
        3
176
     1
 62
     5
420
      255
176
     1
290
     0
176
     1
 90
       50
176
     1
 90
       50
176
     1
 90
       50
176
     1
290
     0
176
     1
 90
       50
176
     1
 62
   256
176
     0
 40
1.0
176
     0
 90
        2
176
     1
  1
strokes_ogs.tif
176
     1
290
     0
176
     1
 40
1.0
176
     1
 40
1.0
176
     1
  0
VISUALSTYLE
  5
46
102
{ACAD_REACTORS
330
2B
102
}
330
2B
100
AcDbVisualStyle
  2
Wireframe
 70
     5
177
     3
291
     0
 70
    58
 90
        0
176
     1
 90
        2
176
     1
 90
        0
176
     1
 90
        0
176
     1
 40
0.6
176
     1
 40
30.0
176
     1
 62
     7
420
 16777215
176
     1
 90
        1
176
     1
 90
        4
176
     1
 62
     7
176
     1
 62
   257
176
     1
 90
        1
176
     1
 90
        1
176
     1
 40
1.0
176
     1
 90
        0
176
     1
 62
   257
176
     1
 40
1.0
176
     1
 90
        1
176
     1
 90
        6
176
     1
 90
        2
176
     1
 62
     7
176
     1
 90
        3
176
     1
 90
        0
176
     1
 90
        0
176
     1
290
     0
176
     1
 90
        1
176
     1
 40
0.0
176
     1
 90
        0
176
     1
290
     0
176
     1
290
     1
176
     1
290
     1
176
     1
290
     0
176
     1
290
     0
176
     1
290
     0
176
     1
290
     0
176
     1
290
     0
176
     1
290
     0
176
     1
 90
       50
176
     1
 40
0.0
176
     1
 40
1.0
176
     1
 90
        0
176
     1
 62
    18
420
        0
176
     1
 90
       50
176
     1
 90
        3
176
     1
 62
     5
420
      255
176
     1
290
     0
176
     1
 90
       50
176
     1
 90
       50
176
     1
 90
       50
176
     1
290
     0
176
     1
 90
       50
176
     1
 62
   256
176
     0
 40
1.0
176
     0
 90
        2
176
     1
  1
strokes_ogs.tif
176
     1
290
     0
176
     1
 40
1.0
176
     1
 40
1.0
176
     1
  0
DICTIONARYVAR
  5
2B4
102
{ACAD_REACTORS
330
2AF
102
}
330
2AF
100
DictionaryVariables
280
     0
  1
1:1
  0
DICTIONARYVAR
  5
2B1
102
{ACAD_REACTORS
330
2AF
102
}
330
2AF
100
DictionaryVariables
280
     0
  1
STANDARD
  0
DICTIONARYVAR
  5
2B0
102
{ACAD_REACTORS
330
2AF
102
}
330
2AF
100
DictionaryVariables
280
     0
  1
STANDARD
  0
DICTIONARYVAR
  5
2B2
102
{ACAD_REACTORS
330
2AF
102
}
330
2AF
100
DictionaryVariables
280
     0
  1

  0
DICTIONARYVAR
  5
2B3
102
{ACAD_REACTORS
330
2AF
102
}
330
2AF
100
DictionaryVariables
280
     0
  1

  0
DICTIONARY
  5
17
330
15
100
AcDbDictionary
280
     1
281
     1
  0
DICTIONARY
  5
3C
330
3B
100
AcDbDictionary
280
     1
281
     1
  3
FBXASSET
360
3D
  0
DICTIONARY
  5
39
330
38
100
AcDbDictionary
280
     1
281
     1
  3
FBXASSET
360
3A
  0
DICTIONARY
  5
C
330
A
100
AcDbDictionary
280
     1
281
     1
  3
BUMPTILE
360
D
  3
DIFFUSETILE
360
E
  3
FBXASSET
360
F
  3
OPACITYTILE
360
10
  3
REFLECTIONTILE
360
11
  0
DICTIONARY
  5
44
330
43
100
AcDbDictionary
280
     1
281
     1
  3
ACAD_ROUNDTRIP_2008_TABLESTYLE_CELLSTYLEMAP
360
2B5
  0
XRECORD
  5
3D
102
{ACAD_REACTORS
330
3C
102
}
330
3C
100
AcDbXrecord
280
     1
 70
     1
 90
429727718
  1
D62C5603-E3A1-4AEA-B7FB-FE5D8D0755AF
310
504B03040A0000080000CC70623B3DEE336E79000000790000001B0000006175746F6465736B2D64657369676E2D7061636B6167652E786D6C3C3F786D6C2076657273696F6E3D22312E302220656E636F64696E673D227574662D3822203F3E3C666F726D6174733E3C666F726D61743E687474703A2F2F736368656D612E
310
6175746F6465736B2E636F6D2F64657369676E2D7061636B6167652F323030393C2F666F726D61743E3C2F666F726D6174733E504B0304140006080800CC70623BD486FD9CA0000000F4000000130000005B436F6E74656E745F54797065735D2E786D6C7D8EC10E82300C865F65E91D8A1E8C310C0EEA1BF002731658846E
310
D98AC1B77784ABF1D8FE5FBFBF75BBCE937A534CCEB38643598122B6FEE978D0B0485F9C41B54DDD7D022595594E1A469170414C76A4D9A4D207E29CF43ECE46F218070CC6BECC4078ACAA135ACF422C856C0E68EA1BF5669944DDD7BCDE7B1F8E415D77AECB980613C2E4AC91FC167A2B244592486606FC29C8FD7F045B9A
310
EF7053A7E60B504B0304140006080800CC70623B853B8169EB0000007C01000008000000636F72652E786D6C8D90416EC3201045AF62CDB6C206821CC7C244919D9CA01740401C94182C03558F5F9C3852BBEB6A467FFE9B197D7EFC9E1EC5975982F5AE035262288C535E5B377690E21535501C055FBC8FBF6C503839990E
310
5619041F179FE64D52DE45E362569DD7661365082642A11EB9E920A89B99642953CC8E702F67A9EE7234257977194EC9EAE275C4EABCCF5EAD5940D4AC6F0E35A568B8F43562CD7046CD199FD07E60174276A7BE677B5EADB0E0D14EEFFB6A31321A0D82627C4084204C3F096B71DD52F6819B16635EADF63F509AF53FA164
310
5DDCD1EDDD17164090FCC8732078B56691CB33A85CD7DCC40F504B0304140006080800CC70623B55019EA25F0000007C00000007000000636E782E786D6C4DCB3B0E80201045D1AD90E915ED2CF8AC45050C11660C8261F98AB1B07AC9C97D42D718D865D3E909258CFD00CCE24AC6E326A164D74DC0B4128928FF32603847
310
2BA13128B1252AC747C6BAB984FC68F0B87FE8960A5C09FE86CFB69FBA01504B0304140006080800CC70623BDBABAAF470010000D40300000C0000006662782F636F72652E786D6CC553D16E823014FD95A6AF4B694182CC941A83FA05FB810A9511A125A5257EFE2E82712ECEB8A7F100CD39F7F69E734AF9FADC366850B6
310
AF8DCE7018308C942E4C59EB2AC3DE1D498AD15A706B8CFB56869196ADCAF00863C12B6B7C374385D14E6907A836A59A41D9F7CA615434B0C8705F7CAA5606D23BA8E84F41278B93AC54100640439DE0BDB320004D43C63716C7C399D30917DCFBBA9CD9BA8469F5B156168B24CED3F7248AC8769F27244EB73B92EED8862C
310
B7F13E0C179B3C8F979C8ECD82BBBABDAA2BAC924E9558448CBD9330242CFA08E3154B5651FCC6D215639C8EE5774DBE2B5F6CF2B5768B68963BB5F5588420E442FC700B1139D4CB01F450C1E918227C2E09DF070D8140C84E1E9AAB8F1340832A9CB13130A5F1376A908D57309505ECF2A0DF179C4E9D30F5B239B87E3823
310
7A79C6F31DE1A8A5AEC08474B03C7837EAE4938639B44E5932B833D2C6B6B279CDC613877FA26EE21F4A2A4C63EC7F29A2F301D1F9F7A0E37D145F504B0304140006080800CC70623B9C113CC27E0000009D0000000B0000006662782F636E782E786D6C4DCCDF0A83201C86E15B91DFB94BFB330DD428C8FB886521330DA7
310
6397BF1A1DECE883878F57749FCDA1B7892F1BBC047A23808C7F84D9FA55424E0BE6803A256208E9EF06C84F9B91703228B1C690F78B66B34CD9A5439DF5CF0BFBF65E35BCA1B8D6A5C6F540381E886698B5741C695F9503EBA150A2F8958E3DC3EA0B504B0304140006080800CC70623B7DF2F77C2A010000120200003100
310
00006662782F41393633353835312D344632462D344230382D423046372D3739314545314133324237412F636F72652E786D6C8D51DB8EC22014FC15C2939B0D2DB4B45643319AE817EC0F6041255A68B86CFCFC856D4D76DF7CE190393373060EDB3DC707F856CE6B6B7A480A0C81328395DA5C7B18C3057510EC3873D686
310
3F34088C18550F330C39BB3A1BA7051AAC09CA84841A2BD5020AEF55806078A44B0FFD7053A328440C89E1EFC52486BBB8AA8214A99D789CF9E05200300FC927E4FB4D5B375D43103D5527440FB843077C5AA3F5861C8F645F5787F59E95B390B318B55CE45AA638FAA2957BD7248B390B7A7CC51F9C124149C82B8C378810
310
84AB2F42B7B8DD56F413775B8C5999E9FF4471926F8AA236A1AE96B8B3CC434E5839373893369E1FAF30EA395917409EB7F26AF8801C171837A4A6AC9C89E9F9C9B1A58BA30FD6A5EF5DDDCF894B9AD9B6A59C957943A9FCAE2FD5BC4DFE03504B0304140006080800CC70623BAD7543B64E01000033030000300000006662
310
782F41393633353835312D344632462D344230382D423046372D3739314545314133324237412F636E782E786D6CD593CD6EC32010845F0571AD6CE3D48AD20813A9873E410FBD12D82434182C7EAAE6EDBB2424CD25871E7B41D6EC30B3FA84F9E67BB2E40B4234DE8DB46F1925E094D7C6ED479AD3AE5951B2113C789FEE
310
6C943839C1488B4C05DF079FE72A69D8C96C13AAD6B8631503449F83828872B949AC57D26200B826A308D316B4064D6E46FCDA41C05550DC9E483A00797BFD207EFB092A45DE9514C1BBD22178396BD39D891265658C238DEA00936C654E5E433CB65A26D9F6EDB5EBC14EBF49A45CB856E66048291F6939A9A81BB5C89177
310
38143CA680F4AA299D66A042CEB3354A2684DC9D8D178FE0D9B8B41CAAD720F880EE7EF93C0C18769E099ECC04D5A102C8049A8A05632F4DDF376CF1DE0F6BB65C2F8627B65A33C6BB62177CEBBDAD973006829F89F22E814B54F4BC2BE347F8AA8F681390B50FA73F804400B5F542E796F19FF974E7F78DB802FE05E20750
310
4B0304140006080800CC70623BE75B7789680500003C100000340000006662782F41393633353835312D344632462D344230382D423046372D3739314545314133324237412F6F626A656374732E786D6CAD575B8F9B3818FD2B887D06C22499CB8AA1CA655245D5B455A356FB305264C061D8018C6C3393D95FBFC7600890
310
A4CD5EF210B0B1BFEBF98E3F7B1FF6596ABC522E1296DF9BAE3D320D9A872C4AF2F8DE2CE5CEBA358D0FBEC719939D65A691938CDE9B6ADAF4BD98B3B2D05311DD91329583D9D5FC0F438434A7A611A644887B5384CF34233629258BA878B12322891DEFF6B66BD70BFB62634E8AE781D082709A4B588AF91C528CDA28B73F
310
1C998EEF39EABBEFA97FBD6A7C7E9553F9D3D79FE442923C3C523610337627CB87ABE99D359D4CC6D6E4FACAB5E6ABF9D2726FC6A3C5F56271377BB88362213924694B38DD99FE47C48627A1E7D49F5A8BB5E1A74C0A599ED3B0F21F1E56366B89112D681E218F0915D0D6F17AD41FBA2A369DCF6335D62ABBD39779D5DDD1
310
11D4D8DE3CBB96B2E04FB8202E41051754A1AA8E8F76B4C6DFE810B580B1547F4B84911149794252234D024EF8BBE963A95AE27B3D310A9D5C215C7960FAEE415ED75694C6AFB17BCACA5D99A60A9AA65F217B0BFC53292ACB92BF283FAD0D3621576592CB5BED907C2FA8E9DF794E35E97BEA31BED21FEB401ABB94C44839
310
DCACBF0E1C5DA8DA5B2F4DFFD32AD86F543D9E565E7056502E157C00AD2671CD534549AB752FCA9CDA00677A313F04E51B22FF19E57B300579E3C97EB29F682D92935CEC18CF901B7B54FD8C51F362B56FC72FE0B3C1EAE335EDCCBF5AEC39ADB17DC238973F804BA5E6F6BFE7AF1FB32E523BE9F3BD571418E3631DCA4D48
310
5250CF639223210A9446CA30052EDF057BD35F8329C1ECD84552BF0DC8D18BE7BCE23BFE6BD960AB4A7DE79923A103BEBD80F911CBAA2C60DB19B01CF164A5583B772EE6D3FFA56666CBCDA74DC97724A48F9A58967497E489C4D979006FD7A05E227A1EBDD0F737C623387A9C844D3709995625106D157315F8B8392CD4E0
310
A0B9A720C4BE9829CEF37EA1E13111214D53925356365ADA634861B52519DD27A00AEB808EAF0628E6F435519D446F45CF2C9CF5214F0A15B2F6D06B79DA3EE3CBF7F56780D2F4E7EF73A0F5E5B02A38D07DC852C6B7C1FBB6664213E0C39E3EBA7FF4E1AD23EA2829407C85E586727488B751B2DB9502BC7B228A3FD68B6E
310
A65A22397E690AA8D158D7E404EC8CDA235CC3B7D1898680131CEC2CDF2638C65196279577750F15884AEE19F94199155B92B13297978469D4F8D358DF0AEF7631E28DC8F0D9F437D5D39A83B2231A1D52D543813A824EF8D44BCFF2FA6A31BD1E8DAD87F1CCB526B3879935BF59CDADD5C37479BB1CDD4CA7B3556B516589
310
EF352754B706114D9C885EC9131DE6EFEB43D99AFE2391C2F958179413D7CFEF6B1B6DB1E7600F00DE6E5C67454A339A4BA2E0FBA85ED26F045D454F463DBFCE484C2F90F2E5E3666003662ED8F755951A7D1BECD5B30B550B2785C8E7320B7292A4838DDA71BBC863ED7613CAF659337A3354231D4FF4A182A54904C2898C
310
98B28C4AD0CE056CCF332A80986E571EE9DBC305BB5FEB7E509220A58D25CF042D712A806AC0AD0C657FDEF80D2D9CEAA2EE4D1C76F60BFE74219A06527D6F82DF6412526107381E55E353090704D085B52408A8913C4ED159D79BDA71BB4BC506F4831350EB6F975CD22D69BF7AC49B91A2C0A9DDA3D5CA36AD20FC478E37
310
E61844E2352865EBCB61A275A65283CAAA9DD27703B4102F5AF51EF5F573B75CBB5AD38BC845F7A49F82A0966A49C2E3EA5EA0ECD326CD965F1DB402C6FA8B51A4658C5C5E2EC9E214602E55810345408596591009A82E7E7FFACA19EEA299B14A0081A705CB3296EBC14CDF658DCD336EA6D1136881AAEB87B81AB9EE53D5
310
F5EB8BC8362082DA24122F98680A4E7930C01A0079749CEA14382A0783E5EBA5A10F8C098456A03D6A4AEB6BB881E2513747552A5DB22C7EDAF83BD5528081A365F7FF06504B0304140006080000CC70623B000000000000000000000000350000006662782F41393633353835312D344632462D344230382D423046372D37
310
39314545314133324237412F76657274696365732E62696E504B0304140006080800CC70623BF270F1330600000004000000360000006662782F41393633353835312D344632462D344230382D423046372D3739314545314133324237412F747269616E676C65732E62696E636660600000504B0304140006080000CC7062
310
3B000000000000000000000000370000006662782F41393633353835312D344632462D344230382D423046372D3739314545314133324237412F617474726962757465732E62696E504B0304140006080800CC70623B08DA0BD19000000041010000360000006662782F41393633353835312D344632462D344230382D4230
310
46372D3739314545314133324237412F6469726563746F72792E786D6C858F410AC3201045AF22B36F53E9A60B35CBEEBAE80D244E44489C6234F4F835464A48035D0DF398FF9F8AF63D0E6CC63039F212F8F9020C7D47C6792B21C5FE7403D62A1188E2E60C98D7234A5830286103A55745067B9D86B8A3CF9C7F90C11DE6
310
07FB144396D7B6A82D282E9A152AD114D5EF2CB866EEE831B8EEA07A7BB5A8D7D61A2BAAEB7FD5F70921FF497D00504B0304140006080800CC70623BEDD1DC58FD000000A00100003B0000006662782F41393633353835312D344632462D344230382D423046372D3739314545314133324237412F7265736F75726365732F
310
636F72652E786D6C8D504B6E833010BD0A9A6D65B00922041947112427E8052C33A156828DFCA97AFC9A40A576D7CDCCE87D344F8F9FBFE667F689CE6B6B3A6039850C8DB2A336530731DC4903D95970676DF82583CCC8193B5861107C72362E3BA4AC096842428D1D7107A5F7182053CF7474E0D507CE32973124857FE48B
310
540F3961CEF244279DE03EB81420DB9EAC1384436FA353E879B1B182C7A8C75DA3C7F453DF353A1075D537A7BA6464B8F535A99AE14A9A2BBD90E350DD183B5CFABE3AF262350B1EF4FC9351399401471025A527C218A1E53BAB5A5AB765F5469B96525EACF23FA6B88CFF34456DC2A1DCE36E360F82A5202F42F062ED2BAD
310
579969AFDD8A6F504B010214000A0000080000CC70623B3DEE336E79000000790000001B00000000000000000000000000000000006175746F6465736B2D64657369676E2D7061636B6167652E786D6C504B01021400140006080800CC70623BD486FD9CA0000000F40000001300000000000000000000000000B20000005B
310
436F6E74656E745F54797065735D2E786D6C504B01021400140006080800CC70623B853B8169EB0000007C010000080000000000000000000000000083010000636F72652E786D6C504B01021400140006080800CC70623B55019EA25F0000007C000000070000000000000000000000000094020000636E782E786D6C504B
310
01021400140006080800CC70623BDBABAAF470010000D40300000C00000000000000000000000000180300006662782F636F72652E786D6C504B01021400140006080800CC70623B9C113CC27E0000009D0000000B00000000000000000000000000B20400006662782F636E782E786D6C504B01021400140006080800CC70
310
623B7DF2F77C2A010000120200003100000000000000000000000000590500006662782F41393633353835312D344632462D344230382D423046372D3739314545314133324237412F636F72652E786D6C504B01021400140006080800CC70623BAD7543B64E010000330300003000000000000000000000000000D2060000
310
6662782F41393633353835312D344632462D344230382D423046372D3739314545314133324237412F636E782E786D6C504B01021400140006080800CC70623BE75B7789680500003C10000034000000000000000000000000006E0800006662782F41393633353835312D344632462D344230382D423046372D3739314545
310
314133324237412F6F626A656374732E786D6C504B01021400140006080000CC70623B0000000000000000000000003500000000000000000000000000280E00006662782F41393633353835312D344632462D344230382D423046372D3739314545314133324237412F76657274696365732E62696E504B01021400140006
310
080800CC70623BF270F133060000000400000036000000000000000000000000007B0E00006662782F41393633353835312D344632462D344230382D423046372D3739314545314133324237412F747269616E676C65732E62696E504B01021400140006080000CC70623B0000000000000000000000003700000000000000
310
000000000000D50E00006662782F41393633353835312D344632462D344230382D423046372D3739314545314133324237412F617474726962757465732E62696E504B01021400140006080800CC70623B08DA0BD1900000004101000036000000000000000000000000002A0F00006662782F41393633353835312D344632
310
462D344230382D423046372D3739314545314133324237412F6469726563746F72792E786D6C504B01021400140006080800CC70623BEDD1DC58FD000000A00100003B000000000000000000000000000E1000006662782F41393633353835312D344632462D344230382D423046372D3739314545314133324237412F7265
310
736F75726365732F636F72652E786D6C504B0506000000000E000E0080040000641100000000
  0
XRECORD
  5
3A
102
{ACAD_REACTORS
330
39
102
}
330
39
100
AcDbXrecord
280
     1
 70
     1
 90
429727718
  1
30362254-06B7-45E0-A893-8CFA70E3D6BC
310
504B03040A0000080000CC70623B3DEE336E79000000790000001B0000006175746F6465736B2D64657369676E2D7061636B6167652E786D6C3C3F786D6C2076657273696F6E3D22312E302220656E636F64696E673D227574662D3822203F3E3C666F726D6174733E3C666F726D61743E687474703A2F2F736368656D612E
310
6175746F6465736B2E636F6D2F64657369676E2D7061636B6167652F323030393C2F666F726D61743E3C2F666F726D6174733E504B0304140006080800CC70623BD486FD9CA0000000F4000000130000005B436F6E74656E745F54797065735D2E786D6C7D8EC10E82300C865F65E91D8A1E8C310C0EEA1BF002731658846E
310
D98AC1B77784ABF1D8FE5FBFBF75BBCE937A534CCEB38643598122B6FEE978D0B0485F9C41B54DDD7D022595594E1A469170414C76A4D9A4D207E29CF43ECE46F218070CC6BECC4078ACAA135ACF422C856C0E68EA1BF5669944DDD7BCDE7B1F8E415D77AECB980613C2E4AC91FC167A2B244592486606FC29C8FD7F045B9A
310
EF7053A7E60B504B0304140006080800CC70623B1EC5D7A3EB0000007C01000008000000636F72652E786D6C8D90416EC3201045AF82665B6103C6756C6122AB4D4ED00B204C5C94182C03558F5F9C3852BBEB6A467FFE9B197D71FC9E6FE8CBACC17AD7032D0820E3B41FAD9B7A48F1820F808E52ACDEC75F36404ECDA687
310
4D0629A6D5A76597B477D1B89855E747B38B2A041301E95B6E7A08FAD3CCAA50296647B8168BD2573599823EBB0CA76447F43862C7BCCF5EAC59410E4DDD9C7973C2755553CCCFA4C603E3040F1565ED3B1FDE4E432BCA0D9622DAF9795FAF464533826484B498524CD807E51D79ED187F21878E10516EF63F505AC67F42C9
310
BA58B1FDDD071640D2FCC87D2045B96591CB3DA85CB7DCE40F504B0304140006080800CC70623B55019EA25F0000007C00000007000000636E782E786D6C4DCB3B0E80201045D1AD90E915ED2CF8AC45050C11660C8261F98AB1B07AC9C97D42D718D865D3E909258CFD00CCE24AC6E326A164D74DC0B4128928FF32603847
310
2BA13128B1252AC747C6BAB984FC68F0B87FE8960A5C09FE86CFB69FBA01504B0304140006080800CC70623B8C9102E971010000D40300000C0000006662782F636F72652E786D6CC5535B6E833010BC8AE5DF0A6C08340F1947A84D4ED00B38C6A128602363A31CBFCB234A53A551FA553EC09AD9F5CE8C31DB9E9B1AF5CA
310
7695D1198E428A91D2D214952E33ECDD315861B4E5CC1AE3BE9561A445A3323CC098B3D21ADFCE9034DA29ED00D5A6503328BA4E398C640D8B0C77F253352214DE4145770A5B214FA2546114020D759C75CE8200340D19DE981F0F6746269C33EFAB6266AB02A655C74A59CCF365BADC27CB5D902ED22848F6340DF238A141
310
BE88E2F57B92BFEDF23523433367AE6A2EEAA455C2A902F398D2751045018D3FA264435F3771F242571B4A1919CA6F9A7C5B3CD9E42BED16F12C776AEB308F40C848FC700B1139D4891EF410CEC810227CC6846F8386402064270EF5C5C709A05E49676C024C61FC95EA45ED154CA5211D1FF4FB8291A913A68E9B83EBBB33
310
E2A7673CDE118E5AE8124C0807CB8377834E366998436B950D7A7746DAD846D4CFD978E0F04FD455FC5D49D2D4C6FE9722321F10997F0F32DC47FE05504B0304140006080800CC70623BFFEA85907E0000009D0000000B0000006662782F636E782E786D6C4DCCD10A83201886E15B91FFDC95D95A811AB6F23E625948A6C3
310
E9D8E5AF46073BFAE0E1E365ED67B3E8ADC3CB78C7815C7240DA3DFC64DCC221C519D7805AC182F7F1EF06C88D9BE6703008B6049F9E274D7A1E938DBB5AE3D6131B2589BA0D3D965551E0B2EA732C9B9A624AAEB41E3A557677029960D9AFB4EF11165F504B0304140006080800CC70623B4FEEA4082C0100001202000031
310
0000006662782F39464131463745442D413632322D343644302D413938332D3331353338454246344243312F636F72652E786D6C8D515B6EC32010BC0AE2AB55850DD871ED0813254D72825EC00192A2C460F1A872FC42ED48ED5F7E00CDCECCCEB26C731F6FE05B39AFADE921293004CA082BB5B9F43086336A21D870E6AC
310
0D7F68109861543DCC30E4ECE26C9C164858139409093556AA051CBC570102714B8F1E7AF1A5C6A11862480C7F2DA6415C878B2A4891CA89C7990F2E050073937C42DE1DB7E4F87ED8A36D4329AA9B3D46DBAEAD504556557BD81DEBDD0761E52CE42C462D17B996298E3E6BE59E35C962CE821E1FF18553435012728A7187
310
0841987E927A8D9B35ADDF70BBC6989599FE4F1427F9A4286A132ABAC49D651EF234CD5CE04CDA78BA3DC2A8FB645D00B9DF8B57E215725C60BCA2A463E54C4CE327C7A65E1C7DB02E7DEFCBF594B864C5CA6CDBD49C957943E9FA5D5FBAF336F90F504B0304140006080800CC70623BAD7543B64E01000033030000300000
310
006662782F39464131463745442D413632322D343644302D413938332D3331353338454246344243312F636E782E786D6CD593CD6EC32010845F0571AD6CE3D48AD20813A9873E410FBD12D82434182C7EAAE6EDBB2424CD25871E7B41D6EC30B3FA84F9E67BB2E40B4234DE8DB46F1925E094D7C6ED479AD3AE5951B2113C
310
789FEE6C943839C1488B4C05DF079FE72A69D8C96C13AAD6B8631503449F83828872B949AC57D26200B826A308D316B4064D6E46FCDA41C05550DC9E483A00797BFD207EFB092A45DE9514C1BBD22178396BD39D891265658C238DEA00936C654E5E433CB65A26D9F6EDB5EBC14EBF49A45CB856E66048291F6939A9A81BB5
310
C8917738143CA680F4AA299D66A042CEB3354A2684DC9D8D178FE0D9B8B41CAAD720F880EE7EF93C0C18769E099ECC04D5A102C8049A8A05632F4DDF376CF1DE0F6BB65C2F8627B65A33C6BB62177CEBBDAD973006829F89F22E814B54F4BC2BE347F8AA8F681390B50FA73F804400B5F542E796F19FF974E7F78DB802FE05
310
E207504B0304140006080800CC70623B16AB87BA640500003C100000340000006662782F39464131463745442D413632322D343644302D413938332D3331353338454246344243312F6F626A656374732E786D6CAD575B6FA33818FD2B887DE6924B3BED8A326A92B68A663B534DD4D13E548A0C38942D60649B369D5FBFC7
310
600890A493BDE42160637FD7F31D7FF63E6FB3D478A55C242CBF3247B66B1A340F5994E4F19559CA8D75611A9F7D8F33263BCB4C232719BD32D5B4E97B316765A1A722BA21652A07B3B7B33F0D11D29C9A46981221AE4C113ED38CD8A4942CA2E2C58E882476BCD9DA23BB5ED8171B73523C0F841684D35CC252CCE79062D4
310
468DFA43D7747CCF51DF7D4FFDEB5593E3AB9CCA9FBEFE241792E4E19EB28198C968BAB8199F5D5A67D3E9C49A9E8F47D6EC76B6B0469F26EEFC7C3EBFBCBEB98462213924694B38DD98FE1D62C393D073EA4FADC5DAF04326852CCF6958F90F0F2B9BB5C48816348F90C7840A68EB78EDF68723159BCEE7891A6B95DDE9D3
310
BCEAEEE8086A6C6F9E5D4B59F0175C10A7A0820BAA5055C7473B5AE3CFDD452D602CD5DF12616444529E90D448938013FE6EFA58AA96F85E4F8C42275708571E98FE6827AF6B2B4AE3D7D83D64E5A64C53054DD3AF90BD06FEA9149565C94FCA0F6B834DC85599E4F2423B24DF0B6AFA979E534DFA9E7A4CC6FA631D486393
310
921829879BF5D781A373557BCB85E97FB90DB62B558F8795179C15944B051F40AB495CF35451D26A4727654E6D8033BD98EF82F21D91FF8AF2DD9982BCF1643BDD4EB516C9492E368C67C88DED563FC36D5EACF66DFF057C3658BDBFA69DF9578B3DA735B64F18C7F20770A9D45CFCF7FCF563D6456A277DBEF78A02637CA2
310
43B90A490AEAB94F72244481D24819A6C0E59B606BFA4B3025981DBB48EAB701D97BF19C577CC77F2D1B6C55A9EF3C732474C0B727303F625995056C3B02963D9EAC146BE78EC5FCEC7FA999EBC5EACBAAE41B12D27B4D2C0BBA49F244E2ECDC81B76B502F113D8F5EE8FB1BE3111CDD4FC2AA9B844CAB1288B68AB90A7CDC
310
1C166AB0D3DC5310625FCC14E779BFD0709F8890A629C9292B1B2DED31A4B0DA928CEE135085754027E3018A397D4D5427D15BD1330B677DC8934285AC3DF45A9EB68FF8F2B8FC0A509AFEECFD0FF2DE25CC6047F7214B195F07EFEB9A094D800F7BFAE8FED187B78EA8A3A400F115961BCAD1215E47C966530AF0EE8128FE
310
58CEBB996A8964FFA529A046635D9353B0336A8F700DDF46271A024E70B0B37C9DE01847591E54DED53D54202AB947E4076556AC49C6CA5C9E1226B7F1A7B1BE15DEED62C41B91E1B3E9AFAAA735036547343A925075041DF0A9979E893B391F8FCFA6967B3EFB644DCF6E5CEBFAE272625DCC6FAF3FB93793C5F90CE1EF57
310
407342756B10D1C489E8953CD1617E5CEECAD6F4EF8914CE5D5D504E5C3F1F9736DA62CFC11E00BCDDB8CC8A9466349744C1F75EBDA4DF09BA8A9E8C7A7E9991989E20E5DBDD6A6003664ED8F7A04A8DBE0DF6EAD9B9AA858342E47399053949D2C146EDB85DE4B176BB0965FBAC19BD19AA918E27FA50C1D22402E144464C
310
59462568E704B6E71915404CB72B8FF4EDE184DDAF753F284990D2C6926782963815403548A70C657FDEF80D2D9CEAA2AE4C1C76F60BFE74219A06527D6582DF6412526107381E55E353090704D085B52408D0933C4ED159D79BDA71BB4BC506F4831350EB6F979CD22D69BF7AC49B91A2C0A9DDA3D5CA36AD20FC478E37E6
310
1844E2352865EBCB6EA275A652E3836BE04EFB400BF1A2556F515F1FBB35B2AB35BD889C744FFA1004B5544B121E57F70215746DD2F5E2C1412B602CBF19455AC6C8E5E9922C4E01E65215385004546899059180EAFCF7A707CE7017CD8CDB0410789AB32C63B91E5CEBBBACB17AC6CD347A022D5075FD106377347AAABA7E
310
7D11590744509B44E205134DC1290F06580320F78E537D3D73540E06CB970B431F185308AD40BBD794D6D77003C5A36E8EAA54BA64597CD8F83BD552A080A365F7FF06504B0304140006080000CC70623B000000000000000000000000350000006662782F39464131463745442D413632322D343644302D413938332D3331
310
353338454246344243312F76657274696365732E62696E504B0304140006080800CC70623BF270F1330600000004000000360000006662782F39464131463745442D413632322D343644302D413938332D3331353338454246344243312F747269616E676C65732E62696E636660600000504B0304140006080000CC70623B
310
000000000000000000000000370000006662782F39464131463745442D413632322D343644302D413938332D3331353338454246344243312F617474726962757465732E62696E504B0304140006080800CC70623B08DA0BD19000000041010000360000006662782F39464131463745442D413632322D343644302D413938
310
332D3331353338454246344243312F6469726563746F72792E786D6C858F410AC3201045AF22B36F53E9A60B35CBEEBAE80D244E44489C6234F4F835464A48035D0DF398FF9F8AF63D0E6CC63039F212F8F9020C7D47C6792B21C5FE7403D62A1188E2E60C98D7234A5830286103A55745067B9D86B8A3CF9C7F90C11DE607
310
FB144396D7B6A82D282E9A152AD114D5EF2CB866EEE831B8EEA07A7BB5A8D7D61A2BAAEB7FD5F70921FF497D00504B0304140006080800CC70623B0D6EF93BFE000000A00100003B0000006662782F39464131463745442D413632322D343644302D413938332D3331353338454246344243312F7265736F75726365732F63
310
6F72652E786D6C8D50596E833010BD0A9ADFCA60B334011947A8694ED00B586642AC041B79A97AFC9A40A5F6AF3F33A3B7689E1E3F7DCD8FEC139DD7D6F4C0720A191A65476DA61E62B892236427C19DB5E1970C322367EC618541F0C9D9B8EC90B226A009093576C41D94DE63804C3DD2D18357379C652E63480A7FCF17A9
310
EE72C29CE5894E3AC17D702940B63D59270887DE46A7D0F36263058F518FBB468FE9A7BE6A7420864373B8D4873369AA8691FA421B3294352543C5CAF65C0F6FEF43CB8BD52C78D0F34F46E550061C419494B6843142CB0F5677F4B52BEB177AEC28E5C52AFF638ACBF84F53D42654E51E77B379102C05791282176B5F693D
310
CB4C7BED567C03504B010214000A0000080000CC70623B3DEE336E79000000790000001B00000000000000000000000000000000006175746F6465736B2D64657369676E2D7061636B6167652E786D6C504B01021400140006080800CC70623BD486FD9CA0000000F40000001300000000000000000000000000B20000005B
310
436F6E74656E745F54797065735D2E786D6C504B01021400140006080800CC70623B1EC5D7A3EB0000007C010000080000000000000000000000000083010000636F72652E786D6C504B01021400140006080800CC70623B55019EA25F0000007C000000070000000000000000000000000094020000636E782E786D6C504B
310
01021400140006080800CC70623B8C9102E971010000D40300000C00000000000000000000000000180300006662782F636F72652E786D6C504B01021400140006080800CC70623BFFEA85907E0000009D0000000B00000000000000000000000000B30400006662782F636E782E786D6C504B01021400140006080800CC70
310
623B4FEEA4082C0100001202000031000000000000000000000000005A0500006662782F39464131463745442D413632322D343644302D413938332D3331353338454246344243312F636F72652E786D6C504B01021400140006080800CC70623BAD7543B64E010000330300003000000000000000000000000000D5060000
310
6662782F39464131463745442D413632322D343644302D413938332D3331353338454246344243312F636E782E786D6C504B01021400140006080800CC70623B16AB87BA640500003C1000003400000000000000000000000000710800006662782F39464131463745442D413632322D343644302D413938332D3331353338
310
454246344243312F6F626A656374732E786D6C504B01021400140006080000CC70623B0000000000000000000000003500000000000000000000000000270E00006662782F39464131463745442D413632322D343644302D413938332D3331353338454246344243312F76657274696365732E62696E504B01021400140006
310
080800CC70623BF270F133060000000400000036000000000000000000000000007A0E00006662782F39464131463745442D413632322D343644302D413938332D3331353338454246344243312F747269616E676C65732E62696E504B01021400140006080000CC70623B0000000000000000000000003700000000000000
310
000000000000D40E00006662782F39464131463745442D413632322D343644302D413938332D3331353338454246344243312F617474726962757465732E62696E504B01021400140006080800CC70623B08DA0BD190000000410100003600000000000000000000000000290F00006662782F39464131463745442D413632
310
322D343644302D413938332D3331353338454246344243312F6469726563746F72792E786D6C504B01021400140006080800CC70623B0D6EF93BFE000000A00100003B000000000000000000000000000D1000006662782F39464131463745442D413632322D343644302D413938332D3331353338454246344243312F7265
310
736F75726365732F636F72652E786D6C504B0506000000000E000E0080040000641100000000
  0
XRECORD
  5
D
102
{ACAD_REACTORS
330
C
102
}
330
C
100
AcDbXrecord
280
     1
270
     1
271
     1
  0
XRECORD
  5
E
102
{ACAD_REACTORS
330
C
102
}
330
C
100
AcDbXrecord
280
     1
270
     1
271
     1
  0
XRECORD
  5
F
102
{ACAD_REACTORS
330
C
102
}
330
C
100
AcDbXrecord
280
     1
 70
     0
 90
1673772943
  1
ECE7A1D2-D628-4531-984C-D00F80459256
310
504B03040A0000080000CC70623B3DEE336E79000000790000001B0000006175746F6465736B2D64657369676E2D7061636B6167652E786D6C3C3F786D6C2076657273696F6E3D22312E302220656E636F64696E673D227574662D3822203F3E3C666F726D6174733E3C666F726D61743E687474703A2F2F736368656D612E
310
6175746F6465736B2E636F6D2F64657369676E2D7061636B6167652F323030393C2F666F726D61743E3C2F666F726D6174733E504B0304140006080800CC70623BD486FD9CA0000000F4000000130000005B436F6E74656E745F54797065735D2E786D6C7D8EC10E82300C865F65E91D8A1E8C310C0EEA1BF002731658846E
310
D98AC1B77784ABF1D8FE5FBFBF75BBCE937A534CCEB38643598122B6FEE978D0B0485F9C41B54DDD7D022595594E1A469170414C76A4D9A4D207E29CF43ECE46F218070CC6BECC4078ACAA135ACF422C856C0E68EA1BF5669944DDD7BCDE7B1F8E415D77AECB980613C2E4AC91FC167A2B244592486606FC29C8FD7F045B9A
310
EF7053A7E60B504B0304140006080800CC70623BD9DDAED0EC0000007C01000008000000636F72652E786D6C8D90416EC3201045AF82665B61836D9CD8C2444DD39CA01740405C94182C03558F5F9C3852BBEB6A467FFE9B197D7EF89E6EE8CB2CC17A37002D0820E394D7D68D03A478C17B4007C117EFE32F1B20272733C0
310
2A83E0E3E2D3BC49CABB685CCCAAF3DA6CA20CC14440EA969B0182FA34932C648AD911AEC52CD5558EA6A0CF2EC329598D1E47ACCEFBECC59A050463A7EA5833865FEBDD0E37353BE3EE8DBDE3F6786A48D375FBF6CC78B9C282473B3DEFABC5C86834888A900E538A49F5419B9EB47DD5BC907D4F082F57FB1F28CDFA9F50
310
B22ED6D5F6EE030B20687EE43E10BC5CB3C8E51E54AE6B6EE207504B0304140006080800CC70623B55019EA25F0000007C00000007000000636E782E786D6C4DCB3B0E80201045D1AD90E915ED2CF8AC45050C11660C8261F98AB1B07AC9C97D42D718D865D3E909258CFD00CCE24AC6E326A164D74DC0B4128928FF326038
310
472BA13128B1252AC747C6BAB984FC68F0B87FE8960A5C09FE86CFB69FBA01504B0304140006080800CC70623BA24EB22D72010000D40300000C0000006662782F636F72652E786D6CC5535B6E833010BC8AE5DF0A6C5E49888CA3A6694ED00B38E05014B091B1518EDFE511A5A9D228FD2A1F60CDEC7A67C6986DCE4D8D7A
310
69BA4AAB0C073EC548AA5C17952A33ECECD15B61B4E1CC686DBF9561A44423333CC098B3D268D7CE50AE9595CA02AA74216750749DB418E5352C32DCE59FB211BE70162ABA93DF8AFC244AE9073ED050C759670D0840D390E18DF9F1706664C23973AE2A66B62A605A75ACA4C13C4976E1364A12EF355A2EBD384AF65EFA96
310
BC7B8BED2EA6719AAE16FB8491A199335B351775B991C2CA02F390D2D40B028F861F41BCA68B7518BFD0D59A524686F29B26D7164F36B94AD9289CE54E6D1DE6010819891F6E21228B3AD1831EC219194284CF98F06DD01008846CC5A1BEF83801D4CBDC6A1303536877A57A513B0953A94FC707FDBE6064EA84A9E3E6E0FA
310
EE8CF0E9198F7784A316AA0413C2C2F2E0ECA0934D1AE6D05A69BCDE9E91D2A611F573361E38FC1375157F5752AE6B6DFE4B11990F88CCBF0719EE23FF02504B0304140006080800CC70623B408A7D3B7C0000009D0000000B0000006662782F636E782E786D6C4DCCD10A83201886E15B91FFDC552A92A0064DBC8F581632
310
D3703A76F9ABD1C18E3E78F878E5F0D9027ABBFCF2292AE86E2D20171F69F6715550CB827B40839639A5F2770314A7CD293819B45C73AAFB45B35BA61ACAA1C1C7E7855C58C15BC331339661262CC762340413D68D77DA5B42298546CBE6573AF60CEB2F504B0304140006080800CC70623B449FB9BD290100001202000031
310
0000006662782F36394639363044362D344446342D343946362D394244322D3234314243333846323333332F636F72652E786D6C8D515B6EC32010BC0AE22B55850D98B871848994463E412FE002495162B07854397EA176A4F62F3F2C9A9D991D587EB84F37F0AD7D30CEF6905418026DA553C65E7A98E219ED203808EE9D
310
8B7F6810D871D23D2C3014FCE25D9A57483A1BB58D19B54EE9151C43D0110279CB971E06F9A5A7B11A53CC8C70ADE6515EC78BAE4895DB992778883E0700CB907242D17643D7E2538BD869608875438BBAE38922CAC8F1BDD90DB4691A5E2F42C153326A951B95E398B3D1FE599322163C9AE9115F7A3D46ADA0A018778810
310
84E907617BDCEE297BC5BB3DC6BC2EF47FA234AB2745C9D8D8D035EE220B50105E2F0DC1954B9FB747187D9F9D8FA0CCDB042D5FA0C015C65B42DF78BD10F3F3B363CB56C7109DCFDFBBB97E662ED92EB62D13BC2E1BCAE5777DB9966D8A1F504B0304140006080800CC70623BAD7543B64E01000033030000300000006662
310
782F36394639363044362D344446342D343946362D394244322D3234314243333846323333332F636E782E786D6CD593CD6EC32010845F0571AD6CE3D48AD20813A9873E410FBD12D82434182C7EAAE6EDBB2424CD25871E7B41D6EC30B3FA84F9E67BB2E40B4234DE8DB46F1925E094D7C6ED479AD3AE5951B2113C789FEE
310
6C943839C1488B4C05DF079FE72A69D8C96C13AAD6B8631503449F83828872B949AC57D26200B826A308D316B4064D6E46FCDA41C05550DC9E483A00797BFD207EFB092A45DE9514C1BBD22178396BD39D891265658C238DEA00936C654E5E433CB65A26D9F6EDB5EBC14EBF49A45CB856E66048291F6939A9A81BB5C89177
310
38143CA680F4AA299D66A042CEB3354A2684DC9D8D178FE0D9B8B41CAAD720F880EE7EF93C0C18769E099ECC04D5A102C8049A8A05632F4DDF376CF1DE0F6BB65C2F8627B65A33C6BB62177CEBBDAD973006829F89F22E814B54F4BC2BE347F8AA8F681390B50FA73F804400B5F542E796F19FF974E7F78DB802FE05E20750
310
4B0304140006080800CC70623B8D05915C650500003B100000340000006662782F36394639363044362D344446342D343946362D394244322D3234314243333846323333332F6F626A656374732E786D6CAD575B6FA33814FE2B887D06429276DA1565D4266D158D3A339A6846FB502932E050B66023DB74D2FDF5FB190C01
310
9276B2973C046C8ECFF53B17071F77456EBD502133CEAE6CDF9DD81665314F32965ED995DA3A17B6F5310C04E7AA47665B8C14F4CAD6DB7618A48257A5D94AE89654B91AEDDEDDFC61C998326A5B714EA4BCB265FC440BE2924AF184CA6737218AB8E976E7FA6E4338649B0A523E8D98964450A6A029F619B8588D52FE7039
310
B1BD30F0F4F730D0FF866AF6369557DB33949F31A9088B0F848DD8CCFCF9F2767A76E99CCDE733677E3EF59D9BBB9BA5E37F984D16E78BC5E5F5ED25044B25C0C96822E8D60EEFE11B91C581D77CEA34368A1F5329E68CD1B8B61F16D63A1B8E092D294B10C78C4A48EB593D192E7DED9BDEE7995E1B91FDEDD3ACEA9FE831
310
6A756F9F7D4D79F4274C90A7A04248AA51D5F8C718DAE06FB2F75AC4796EBE65D22A88A22223B995679120E2D50E41AA49C260C046A35368846B0BECD0DFF3EBEB8AD4F835768F69B9ADF25C43D30E6B646F807FAA64AD59F61715C7A54127C4AACA98BA3006A9D792DAE165E0D59B61A01FB3A9F9D838D2DAE62445C86166
310
F37564E842E7DE6A69879FEEA2DD5AE7E371E1A5E025154AC307D06A03D73EB5978C58FFA4C8E9033066E0F3BD53BEC1F39F91BE7B55103791EDE6BBB991A2046172CB4581D8B893FA674DDA17A77B3B7C413D1B511FD2743BFF8A38F03A658705E3ADF8015C3A3417FF3D7E439FF591DA0B5F18BC20C1B8981957AE6392A3
310
F43C640C01D1A0B4728E2DD4F26DB4B3C3152A252A3B4E913CEC1C72F012782FF88EFF8637AA552DBEF76408E8A8DE9E50F9E1CB3A2DA0DB1B6039A893B56063DC5B3E3FFB5F72E67AB9FEB4AEC496C4F4C1149625DD662C53E89D7BF0F6151A046260D1337DFDC94502430F83B0EE07A130A224BCAD7DAE1D9FB6CD422FF6
310
920702629C4BB9AE79C12F243C6432A6794E18E5552BA56B431AAB5D91317302B2B071E86C3A42B1A02F999E24061403B5D0EB639195DA655DD3EBEAB4FB862DDF579F014AD0E73C22F99E28DA57FB98E75C6CA2D74D53086D600F4786E0FE3144B771A8A7B900F03594DB8A633CBC49B2EDB69228BB479CF863B5E807AAAB
310
23872F6DFEB4129B949CA33823F58830E86D65621E10047D9DB34D862E8EAC3C2ABC2F7B2C40D67CDFE01F5545B92105AF983AC54D93D69E56FB8E797F88913F898A9FEC705D3F9D1B54EC8426FB500D40A03BD0119B06E1B95DDC7EB8F6975367793EBD70E66733DFB9BC982F9CE564727731999F5D4ECFCE3B8D6A4DC2A0
310
6D50FD148437D110834A64C6CDDF57FBACB5C307A2A477DFE4939736CFEF2B175371E0E10CF0DD1D5C15654E0BCA14D1E87DD02FF93782A162C0A3D95F1524A52770F972BF1EE9809D13CE7DD599467F8ECE9ADD85CE85A34CD45355448C64F9E8A031DC2D596ACC6E5DD93D9B82DE2EF5CAF81363A8E47996A0DE24564A79
310
4115AACE09C55E14540231FDA13C319787134EBF34E3A022514E5B4D9E0826E25C02D5805B15ABE1BEF51B26383D445DD9E875EE33FE4C22DA16427D65A3BCA92CA6D28DD01DF5DC53330704308475351050232CCD31583787BA75774AFB06E5070DD0C8EF484E19968C5D83BA5B90B244D31E54D55A372320FE4786B7EA58
310
44E135AA5467CB7EA333A61683CC6A8C3257034C10CF46F40EF9F5BE59BE5BD30C3C72D235E95D10345C1D45445A5F0BB47E46A5EBE5570F9380B5FA629579952296A773720405982B9DE04011506178964401AA8BDF1FBF0A8EAB6861DD6580C0E38217056766716DAEB2D6FA0917D3E4116581EADB879C4E7CFFB11EFACD
310
3D641311495D92C8676CB409A72D18610D803CE8A626049E8EC1887CB5B44CC39883690DDA8399B4B9855B481E7D71D4A9D22F96E5BB73BF5793020C02137BF837504B0304140006080000CC70623B000000000000000000000000350000006662782F36394639363044362D344446342D343946362D394244322D32343142
310
43333846323333332F76657274696365732E62696E504B0304140006080800CC70623BF270F1330600000004000000360000006662782F36394639363044362D344446342D343946362D394244322D3234314243333846323333332F747269616E676C65732E62696E636660600000504B0304140006080000CC70623B0000
310
00000000000000000000370000006662782F36394639363044362D344446342D343946362D394244322D3234314243333846323333332F617474726962757465732E62696E504B0304140006080800CC70623B08DA0BD19000000041010000360000006662782F36394639363044362D344446342D343946362D394244322D
310
3234314243333846323333332F6469726563746F72792E786D6C858F410AC3201045AF22B36F53E9A60B35CBEEBAE80D244E44489C6234F4F835464A48035D0DF398FF9F8AF63D0E6CC63039F212F8F9020C7D47C6792B21C5FE7403D62A1188E2E60C98D7234A5830286103A55745067B9D86B8A3CF9C7F90C11DE607FB14
310
4396D7B6A82D282E9A152AD114D5EF2CB866EEE831B8EEA07A7BB5A8D7D61A2BAAEB7FD5F70921FF497D00504B0304140006080800CC70623BCA768048FE000000A00100003B0000006662782F36394639363044362D344446342D343946362D394244322D3234314243333846323333332F7265736F75726365732F636F72
310
652E786D6C8D50596E833010BD0A9ADFCA60D600328E9AA639412F609909B1126CE4A5EAF16B0295DABFFECC8CDEA2797AECF8353F924FB44E193D409E5248504B332A3D0D10FC95B4901C39B3C6F85F3248B49871801506CE266BC2B243D2688FDA47549B11775038871E12F988C7004EDE7016A9083E2ADC3D5D84BC8B09
310
D33C8D74D471E6BC8D0192EDC93A815B742658898E651BCB59086ADC356A8C3FD555A1055ED7E7E254D615792D0F075295F585746FF53B694EE78A565DD736979A65AB9933AFE69F8CD2A2F038022F28ED489E135A7CE4554F9BBEA85E68DB53CAB255FEC71496F19FA6A0B42F8B3DEE6673C0F318E4497096AD7DC5F52C33
310
EEB55BFE0D504B010214000A0000080000CC70623B3DEE336E79000000790000001B00000000000000000000000000000000006175746F6465736B2D64657369676E2D7061636B6167652E786D6C504B01021400140006080800CC70623BD486FD9CA0000000F40000001300000000000000000000000000B20000005B436F
310
6E74656E745F54797065735D2E786D6C504B01021400140006080800CC70623BD9DDAED0EC0000007C010000080000000000000000000000000083010000636F72652E786D6C504B01021400140006080800CC70623B55019EA25F0000007C000000070000000000000000000000000095020000636E782E786D6C504B0102
310
1400140006080800CC70623BA24EB22D72010000D40300000C00000000000000000000000000190300006662782F636F72652E786D6C504B01021400140006080800CC70623B408A7D3B7C0000009D0000000B00000000000000000000000000B50400006662782F636E782E786D6C504B01021400140006080800CC70623B
310
449FB9BD290100001202000031000000000000000000000000005A0500006662782F36394639363044362D344446342D343946362D394244322D3234314243333846323333332F636F72652E786D6C504B01021400140006080800CC70623BAD7543B64E010000330300003000000000000000000000000000D20600006662
310
782F36394639363044362D344446342D343946362D394244322D3234314243333846323333332F636E782E786D6C504B01021400140006080800CC70623B8D05915C650500003B10000034000000000000000000000000006E0800006662782F36394639363044362D344446342D343946362D394244322D32343142433338
310
46323333332F6F626A656374732E786D6C504B01021400140006080000CC70623B0000000000000000000000003500000000000000000000000000250E00006662782F36394639363044362D344446342D343946362D394244322D3234314243333846323333332F76657274696365732E62696E504B010214001400060808
310
00CC70623BF270F13306000000040000003600000000000000000000000000780E00006662782F36394639363044362D344446342D343946362D394244322D3234314243333846323333332F747269616E676C65732E62696E504B01021400140006080000CC70623B00000000000000000000000037000000000000000000
310
00000000D20E00006662782F36394639363044362D344446342D343946362D394244322D3234314243333846323333332F617474726962757465732E62696E504B01021400140006080800CC70623B08DA0BD190000000410100003600000000000000000000000000270F00006662782F36394639363044362D344446342D
310
343946362D394244322D3234314243333846323333332F6469726563746F72792E786D6C504B01021400140006080800CC70623BCA768048FE000000A00100003B000000000000000000000000000B1000006662782F36394639363044362D344446342D343946362D394244322D3234314243333846323333332F7265736F
310
75726365732F636F72652E786D6C504B0506000000000E000E0080040000621100000000
  0
XRECORD
  5
10
102
{ACAD_REACTORS
330
C
102
}
330
C
100
AcDbXrecord
280
     1
270
     1
271
     1
  0
XRECORD
  5
11
102
{ACAD_REACTORS
330
C
102
}
330
C
100
AcDbXrecord
280
     1
270
     1
271
     1
  0
CELLSTYLEMAP
  5
2B5
102
{ACAD_REACTORS
330
44
102
}
330
44
100
AcDbCellStyleMap
 90
        3
300
CELLSTYLE
  1
TABLEFORMAT_BEGIN
 90
        5
170
     1
 91
        0
 92
    32768
 62
   257
 93
        1
300
CONTENTFORMAT
  1
CONTENTFORMAT_BEGIN
 90
        0
 91
        0
 92
      512
 93
        0
300

 40
0.0
140
1.0
 94
        5
 62
     0
340
21
144
6.0
309
CONTENTFORMAT_END
171
     1
301
MARGIN
  1
CELLMARGIN_BEGIN
 40
1.5
 40
1.5
 40
1.5
 40
1.5
 40
4.5
 40
4.5
309
CELLMARGIN_END
 94
        6
 95
        1
302
GRIDFORMAT
  1
GRIDFORMAT_BEGIN
 90
        0
 91
        1
 62
     0
 92
       -2
340
24
 93
        0
 40
1.125
309
GRIDFORMAT_END
 95
        2
302
GRIDFORMAT
  1
GRIDFORMAT_BEGIN
 90
        0
 91
        1
 62
     0
 92
       -2
340
24
 93
        0
 40
1.125
309
GRIDFORMAT_END
 95
        4
302
GRIDFORMAT
  1
GRIDFORMAT_BEGIN
 90
        0
 91
        1
 62
     0
 92
       -2
340
24
 93
        0
 40
1.125
309
GRIDFORMAT_END
 95
        8
302
GRIDFORMAT
  1
GRIDFORMAT_BEGIN
 90
        0
 91
        1
 62
     0
 92
       -2
340
24
 93
        0
 40
1.125
309
GRIDFORMAT_END
 95
       16
302
GRIDFORMAT
  1
GRIDFORMAT_BEGIN
 90
        0
 91
        1
 62
     0
 92
       -2
340
24
 93
        0
 40
1.125
309
GRIDFORMAT_END
 95
       32
302
GRIDFORMAT
  1
GRIDFORMAT_BEGIN
 90
        0
 91
        1
 62
     0
 92
       -2
340
24
 93
        0
 40
1.125
309
GRIDFORMAT_END
309
TABLEFORMAT_END
  1
CELLSTYLE_BEGIN
 90
        1
 91
        1
300
_TITLE
309
CELLSTYLE_END
300
CELLSTYLE
  1
TABLEFORMAT_BEGIN
 90
        5
170
     1
 91
        0
 92
        0
 62
   257
 93
        1
300
CONTENTFORMAT
  1
CONTENTFORMAT_BEGIN
 90
        0
 91
        0
 92
      512
 93
        0
300

 40
0.0
140
1.0
 94
        5
 62
     0
340
21
144
4.5
309
CONTENTFORMAT_END
171
     1
301
MARGIN
  1
CELLMARGIN_BEGIN
 40
1.5
 40
1.5
 40
1.5
 40
1.5
 40
4.5
 40
4.5
309
CELLMARGIN_END
 94
        6
 95
        1
302
GRIDFORMAT
  1
GRIDFORMAT_BEGIN
 90
        0
 91
        1
 62
     0
 92
       -2
340
24
 93
        0
 40
1.125
309
GRIDFORMAT_END
 95
        2
302
GRIDFORMAT
  1
GRIDFORMAT_BEGIN
 90
        0
 91
        1
 62
     0
 92
       -2
340
24
 93
        0
 40
1.125
309
GRIDFORMAT_END
 95
        4
302
GRIDFORMAT
  1
GRIDFORMAT_BEGIN
 90
        0
 91
        1
 62
     0
 92
       -2
340
24
 93
        0
 40
1.125
309
GRIDFORMAT_END
 95
        8
302
GRIDFORMAT
  1
GRIDFORMAT_BEGIN
 90
        0
 91
        1
 62
     0
 92
       -2
340
24
 93
        0
 40
1.125
309
GRIDFORMAT_END
 95
       16
302
GRIDFORMAT
  1
GRIDFORMAT_BEGIN
 90
        0
 91
        1
 62
     0
 92
       -2
340
24
 93
        0
 40
1.125
309
GRIDFORMAT_END
 95
       32
302
GRIDFORMAT
  1
GRIDFORMAT_BEGIN
 90
        0
 91
        1
 62
     0
 92
       -2
340
24
 93
        0
 40
1.125
309
GRIDFORMAT_END
309
TABLEFORMAT_END
  1
CELLSTYLE_BEGIN
 90
        2
 91
        1
300
_HEADER
309
CELLSTYLE_END
300
CELLSTYLE
  1
TABLEFORMAT_BEGIN
 90
        5
170
     1
 91
        0
 92
        0
 62
   257
 93
        1
300
CONTENTFORMAT
  1
CONTENTFORMAT_BEGIN
 90
        0
 91
        0
 92
      512
 93
        0
300

 40
0.0
140
1.0
 94
        2
 62
     0
340
21
144
4.5
309
CONTENTFORMAT_END
171
     1
301
MARGIN
  1
CELLMARGIN_BEGIN
 40
1.5
 40
1.5
 40
1.5
 40
1.5
 40
4.5
 40
4.5
309
CELLMARGIN_END
 94
        6
 95
        1
302
GRIDFORMAT
  1
GRIDFORMAT_BEGIN
 90
        0
 91
        1
 62
     0
 92
       -2
340
24
 93
        0
 40
1.125
309
GRIDFORMAT_END
 95
        2
302
GRIDFORMAT
  1
GRIDFORMAT_BEGIN
 90
        0
 91
        1
 62
     0
 92
       -2
340
24
 93
        0
 40
1.125
309
GRIDFORMAT_END
 95
        4
302
GRIDFORMAT
  1
GRIDFORMAT_BEGIN
 90
        0
 91
        1
 62
     0
 92
       -2
340
24
 93
        0
 40
1.125
309
GRIDFORMAT_END
 95
        8
302
GRIDFORMAT
  1
GRIDFORMAT_BEGIN
 90
        0
 91
        1
 62
     0
 92
       -2
340
24
 93
        0
 40
1.125
309
GRIDFORMAT_END
 95
       16
302
GRIDFORMAT
  1
GRIDFORMAT_BEGIN
 90
        0
 91
        1
 62
     0
 92
       -2
340
24
 93
        0
 40
1.125
309
GRIDFORMAT_END
 95
       32
302
GRIDFORMAT
  1
GRIDFORMAT_BEGIN
 90
        0
 91
        1
 62
     0
 92
       -2
340
24
 93
        0
 40
1.125
309
GRIDFORMAT_END
309
TABLEFORMAT_END
  1
CELLSTYLE_BEGIN
 90
        3
 91
        2
300
_DATA
309
CELLSTYLE_END
  0
ENDSEC
  0
SECTION
  2
ACDSDATA
 70
     2
 71
     8
  0
ACDSSCHEMA
 90
        0
  1
AcDb_Thumbnail_Schema
  2
AcDbDs::ID
280
    10
 91
        8
  2
Thumbnail_Data
280
    15
 91
        0
101
ACDSRECORD
 95
        0
 90
        1
  2
AcDbDs::TreatedAsObjectData
280
     1
291
     1
101
ACDSRECORD
 95
        0
 90
        2
  2
AcDbDs::Legacy
280
     1
291
     1
101
ACDSRECORD
  1
AcDbDs::ID
 90
        3
  2
AcDs:Indexable
280
     1
291
     1
101
ACDSRECORD
  1
AcDbDs::ID
 90
        4
  2
AcDbDs::HandleAttribute
280
     7
282
     1
  0
ACDSSCHEMA
 90
        1
  1
AcDbDs::TreatedAsObjectDataSchema
  2
AcDbDs::TreatedAsObjectData
280
     1
 91
        0
  0
ACDSSCHEMA
 90
        2
  1
AcDbDs::LegacySchema
  2
AcDbDs::Legacy
280
     1
 91
        0
  0
ACDSSCHEMA
 90
        3
  1
AcDbDs::IndexedPropertySchema
  2
AcDs:Indexable
280
     1
 91
        0
  0
ACDSSCHEMA
 90
        4
  1
AcDbDs::HandleAttributeSchema
  2
AcDbDs::HandleAttribute
280
     7
 91
        1
284
     1
  0
ACDSRECORD
 90
        0
  2
AcDbDs::ID
280
    10
320
15
  2
Thumbnail_Data
280
    15
 94
      896
310
89504E470D0A1A0A0000000D49484452000001000000009108030000001BE1960600000300504C5445212830FFFFFF2128300000000000000000000000000000000000000000000000000000330000660000990000CC0000FF0033000033330033660033990033CC0033FF0066000066330066660066990066CC0066FF0099
310
000099330099660099990099CC0099FF00CC0000CC3300CC6600CC9900CCCC00CCFF00FF0000FF3300FF6600FF9900FFCC00FFFF3300003300333300663300993300CC3300FF3333003333333333663333993333CC3333FF3366003366333366663366993366CC3366FF3399003399333399663399993399CC3399FF33CC00
310
33CC3333CC6633CC9933CCCC33CCFF33FF0033FF3333FF6633FF9933FFCC33FFFF6600006600336600666600996600CC6600FF6633006633336633666633996633CC6633FF6666006666336666666666996666CC6666FF6699006699336699666699996699CC6699FF66CC0066CC3366CC6666CC9966CCCC66CCFF66FF0066
310
FF3366FF6666FF9966FFCC66FFFF9900009900339900669900999900CC9900FF9933009933339933669933999933CC9933FF9966009966339966669966999966CC9966FF9999009999339999669999999999CC9999FF99CC0099CC3399CC6699CC9999CCCC99CCFF99FF0099FF3399FF6699FF9999FFCC99FFFFCC0000CC00
310
33CC0066CC0099CC00CCCC00FFCC3300CC3333CC3366CC3399CC33CCCC33FFCC6600CC6633CC6666CC6699CC66CCCC66FFCC9900CC9933CC9966CC9999CC99CCCC99FFCCCC00CCCC33CCCC66CCCC99CCCCCCCCCCFFCCFF00CCFF33CCFF66CCFF99CCFFCCCCFFFFFF0000FF0033FF0066FF0099FF00CCFF00FFFF3300FF3333
310
FF3366FF3399FF33CCFF33FFFF6600FF6633FF6666FF6699FF66CCFF66FFFF9900FF9933FF9966FF9999FF99CCFF99FFFFCC00FFCC33FFCC66FFCC99FFCCCCFFCCFFFFFF00FFFF33FFFF66FFFF99FFFFCCFFFFFF0000000D0D0D1A1A1A2828283535354343435050505D5D5D6B6B6B787878868686939393A1A1A1AEAEAEBB
310
BBBBC9C9C9D6D6D6E4E4E4F1F1F1FFFFFF0000000000000000000000000000000000000000000000000000000000002E4550F10000003B4944415478DAEDC13101000000C2A0F54F6D0B2FA0000000000000000000000000000000000000000000000000000000000000000000000000CE06919100016C9A5B1B0000000049
310
454E44AE426082
  0
ENDSEC
  0
EOF
