  0
SECTION
  2
HEADER
  9
$ACADVER
  1
AC1018
  9
$ACADMAINTVER
 70
   104
  9
$DWGCODEPAGE
  3
ANSI_932
  9
$INSBASE
 10
0.0
 20
0.0
 30
0.0
  9
$EXTMIN
 10
7.456167646512042
 20
6.158185933944622
 30
-0.0000000349181948
  9
$EXTMAX
 10
57.46262417315046
 20
37.89010775212424
 30
0.0000000814935746
  9
$LIMMIN
 10
1.946716501484843
 20
2.100256267797703
  9
$LIMMAX
 10
62.24521025889043
 20
42.59058393416125
  9
$ORTHOMODE
 70
     0
  9
$REGENMODE
 70
     1
  9
$FILLMODE
 70
     1
  9
$QTEXTMODE
 70
     0
  9
$MIRRTEXT
 70
     0
  9
$LTSCALE
 40
1.0
  9
$ATTMODE
 70
     1
  9
$TEXTSIZE
 40
2.5
  9
$TRACEWID
 40
1.0
  9
$TEXTSTYLE
  7
Standard
  9
$CLAYER
  8
0
  9
$CELTYPE
  6
ByLayer
  9
$CECOLOR
 62
   256
  9
$CELTSCALE
 40
1.0
  9
$DISPSILH
 70
     0
  9
$DIMSCALE
 40
1.0
  9
$DIMASZ
 40
2.5
  9
$DIMEXO
 40
0.625
  9
$DIMDLI
 40
3.75
  9
$DIMRND
 40
0.0
  9
$DIMDLE
 40
0.0
  9
$DIMEXE
 40
1.25
  9
$DIMTP
 40
0.0
  9
$DIMTM
 40
0.0
  9
$DIMTXT
 40
2.5
  9
$DIMCEN
 40
2.5
  9
$DIMTSZ
 40
0.0
  9
$DIMTOL
 70
     0
  9
$DIMLIM
 70
     0
  9
$DIMTIH
 70
     0
  9
$DIMTOH
 70
     0
  9
$DIMSE1
 70
     0
  9
$DIMSE2
 70
     0
  9
$DIMTAD
 70
     1
  9
$DIMZIN
 70
     8
  9
$DIMBLK
  1

  9
$DIMASO
 70
     1
  9
$DIMSHO
 70
     1
  9
$DIMPOST
  1

  9
$DIMAPOST
  1

  9
$DIMALT
 70
     0
  9
$DIMALTD
 70
     3
  9
$DIMALTF
 40
0.03937007874016
  9
$DIMLFAC
 40
1.0
  9
$DIMTOFL
 70
     1
  9
$DIMTVP
 40
0.0
  9
$DIMTIX
 70
     0
  9
$DIMSOXD
 70
     0
  9
$DIMSAH
 70
     0
  9
$DIMBLK1
  1

  9
$DIMBLK2
  1

  9
$DIMSTYLE
  2
ISO-25
  9
$DIMCLRD
 70
     0
  9
$DIMCLRE
 70
     0
  9
$DIMCLRT
 70
     0
  9
$DIMTFAC
 40
1.0
  9
$DIMGAP
 40
0.625
  9
$DIMJUST
 70
     0
  9
$DIMSD1
 70
     0
  9
$DIMSD2
 70
     0
  9
$DIMTOLJ
 70
     0
  9
$DIMTZIN
 70
     8
  9
$DIMALTZ
 70
     0
  9
$DIMALTTZ
 70
     0
  9
$DIMUPT
 70
     0
  9
$DIMDEC
 70
     2
  9
$DIMTDEC
 70
     2
  9
$DIMALTU
 70
     2
  9
$DIMALTTD
 70
     3
  9
$DIMTXSTY
  7
Standard
  9
$DIMAUNIT
 70
     0
  9
$DIMADEC
 70
     0
  9
$DIMALTRND
 40
0.0
  9
$DIMAZIN
 70
     0
  9
$DIMDSEP
 70
    44
  9
$DIMATFIT
 70
     3
  9
$DIMFRAC
 70
     0
  9
$DIMLDRBLK
  1

  9
$DIMLUNIT
 70
     2
  9
$DIMLWD
 70
    -2
  9
$DIMLWE
 70
    -2
  9
$DIMTMOVE
 70
     0
  9
$LUNITS
 70
     2
  9
$LUPREC
 70
     4
  9
$SKETCHINC
 40
1.0
  9
$FILLETRAD
 40
0.0
  9
$AUNITS
 70
     0
  9
$AUPREC
 70
     0
  9
$MENU
  1
.
  9
$ELEVATION
 40
0.0
  9
$PELEVATION
 40
0.0
  9
$THICKNESS
 40
0.0
  9
$LIMCHECK
 70
     0
  9
$CHAMFERA
 40
0.0
  9
$CHAMFERB
 40
0.0
  9
$CHAMFERC
 40
0.0
  9
$CHAMFERD
 40
0.0
  9
$SKPOLY
 70
     0
  9
$TDCREATE
 40
2458227.461898148
  9
$TDUCREATE
 40
2458227.128564815
  9
$TDUPDATE
 40
2458227.463923611
  9
$TDUUPDATE
 40
2458227.130590278
  9
$TDINDWG
 40
0.0008796296
  9
$TDUSRTIMER
 40
0.0008796296
  9
$USRTIMER
 70
     1
  9
$ANGBASE
 50
0.0
  9
$ANGDIR
 70
     0
  9
$PDMODE
 70
     0
  9
$PDSIZE
 40
0.0
  9
$PLINEWID
 40
0.0
  9
$SPLFRAME
 70
     0
  9
$SPLINETYPE
 70
     6
  9
$SPLINESEGS
 70
     8
  9
$HANDSEED
  5
240
  9
$SURFTAB1
 70
     6
  9
$SURFTAB2
 70
     6
  9
$SURFTYPE
 70
     6
  9
$SURFU
 70
     6
  9
$SURFV
 70
     6
  9
$UCSBASE
  2

  9
$UCSNAME
  2

  9
$UCSORG
 10
0.0
 20
0.0
 30
0.0
  9
$UCSXDIR
 10
1.0
 20
0.0
 30
0.0
  9
$UCSYDIR
 10
0.0
 20
1.0
 30
0.0
  9
$UCSORTHOREF
  2

  9
$UCSORTHOVIEW
 70
     0
  9
$UCSORGTOP
 10
0.0
 20
0.0
 30
0.0
  9
$UCSORGBOTTOM
 10
0.0
 20
0.0
 30
0.0
  9
$UCSORGLEFT
 10
0.0
 20
0.0
 30
0.0
  9
$UCSORGRIGHT
 10
0.0
 20
0.0
 30
0.0
  9
$UCSORGFRONT
 10
0.0
 20
0.0
 30
0.0
  9
$UCSORGBACK
 10
0.0
 20
0.0
 30
0.0
  9
$PUCSBASE
  2

  9
$PUCSNAME
  2

  9
$PUCSORG
 10
0.0
 20
0.0
 30
0.0
  9
$PUCSXDIR
 10
1.0
 20
0.0
 30
0.0
  9
$PUCSYDIR
 10
0.0
 20
1.0
 30
0.0
  9
$PUCSORTHOREF
  2

  9
$PUCSORTHOVIEW
 70
     0
  9
$PUCSORGTOP
 10
0.0
 20
0.0
 30
0.0
  9
$PUCSORGBOTTOM
 10
0.0
 20
0.0
 30
0.0
  9
$PUCSORGLEFT
 10
0.0
 20
0.0
 30
0.0
  9
$PUCSORGRIGHT
 10
0.0
 20
0.0
 30
0.0
  9
$PUCSORGFRONT
 10
0.0
 20
0.0
 30
0.0
  9
$PUCSORGBACK
 10
0.0
 20
0.0
 30
0.0
  9
$USERI1
 70
     0
  9
$USERI2
 70
     0
  9
$USERI3
 70
     0
  9
$USERI4
 70
     0
  9
$USERI5
 70
     0
  9
$USERR1
 40
0.0
  9
$USERR2
 40
0.0
  9
$USERR3
 40
0.0
  9
$USERR4
 40
0.0
  9
$USERR5
 40
0.0
  9
$WORLDVIEW
 70
     1
  9
$SHADEDGE
 70
     3
  9
$SHADEDIF
 70
    70
  9
$TILEMODE
 70
     1
  9
$MAXACTVP
 70
    64
  9
$PINSBASE
 10
0.0
 20
0.0
 30
0.0
  9
$PLIMCHECK
 70
     0
  9
$PEXTMIN
 10
0.0
 20
0.0
 30
0.0
  9
$PEXTMAX
 10
0.0
 20
0.0
 30
0.0
  9
$PLIMMIN
 10
0.0
 20
0.0
  9
$PLIMMAX
 10
12.0
 20
9.0
  9
$UNITMODE
 70
     0
  9
$VISRETAIN
 70
     1
  9
$PLINEGEN
 70
     0
  9
$PSLTSCALE
 70
     1
  9
$TREEDEPTH
 70
  3020
  9
$CMLSTYLE
  2
Standard
  9
$CMLJUST
 70
     0
  9
$CMLSCALE
 40
20.0
  9
$PROXYGRAPHICS
 70
     1
  9
$MEASUREMENT
 70
     1
  9
$CELWEIGHT
370
    -1
  9
$ENDCAPS
280
     0
  9
$JOINSTYLE
280
     0
  9
$LWDISPLAY
290
     0
  9
$INSUNITS
 70
     4
  9
$HYPERLINKBASE
  1

  9
$STYLESHEET
  1

  9
$XEDIT
290
     1
  9
$CEPSNTYPE
380
     0
  9
$PSTYLEMODE
290
     1
  9
$FINGERPRINTGUID
  2
{86278AE2-6BF4-074C-984E-E7D5C190B6DA}
  9
$VERSIONGUID
  2
{B37FAB95-BB07-F340-AE2B-3BBF816FEC66}
  9
$EXTNAMES
290
     1
  9
$PSVPSCALE
 40
0.0
  9
$OLESTARTUP
290
     0
  9
$SORTENTS
280
   127
  9
$INDEXCTL
280
     0
  9
$HIDETEXT
280
     1
  9
$XCLIPFRAME
290
     0
  9
$HALOGAP
280
     0
  9
$OBSCOLOR
 70
   257
  9
$OBSLTYPE
280
     0
  9
$INTERSECTIONDISPLAY
280
     0
  9
$INTERSECTIONCOLOR
 70
   257
  9
$DIMASSOC
280
     2
  9
$PROJECTNAME
  1

  0
ENDSEC
  0
SECTION
  2
CLASSES
  0
CLASS
  1
ACDBDICTIONARYWDFLT
  2
AcDbDictionaryWithDefault
  3
ObjectDBX Classes
 90
        0
 91
        1
280
     0
281
     0
  0
CLASS
  1
DICTIONARYVAR
  2
AcDbDictionaryVar
  3
ObjectDBX Classes
 90
        0
 91
       12
280
     0
281
     0
  0
CLASS
  1
TABLESTYLE
  2
AcDbTableStyle
  3
ObjectDBX Classes
 90
     4095
 91
        1
280
     0
281
     0
  0
CLASS
  1
MATERIAL
  2
AcDbMaterial
  3
ObjectDBX Classes
 90
     1153
 91
        3
280
     0
281
     0
  0
CLASS
  1
VISUALSTYLE
  2
AcDbVisualStyle
  3
ObjectDBX Classes
 90
     4095
 91
        3
280
     0
281
     0
  0
CLASS
  1
SCALE
  2
AcDbScale
  3
ObjectDBX Classes
 90
     1153
 91
       17
280
     0
281
     0
  0
CLASS
  1
MLEADERSTYLE
  2
AcDbMLeaderStyle
  3
ACDB_MLEADERSTYLE_CLASS
 90
     4095
 91
        0
280
     0
281
     0
  0
CLASS
  1
CELLSTYLEMAP
  2
AcDbCellStyleMap
  3
ObjectDBX Classes
 90
     1152
 91
        1
280
     0
281
     0
  0
CLASS
  1
EXACXREFPANELOBJECT
  2
ExAcXREFPanelObject
  3
EXAC_ESW
 90
     1025
 91
        0
280
     1
281
     0
  0
CLASS
  1
NPOCOLLECTION
  2
AcDbImpNonPersistentObjectsCollection
  3
ObjectDBX Classes
 90
     1153
 91
        0
280
     0
281
     0
  0
CLASS
  1
LAYER_INDEX
  2
AcDbLayerIndex
  3
ObjectDBX Classes
 90
        0
 91
        0
280
     0
281
     0
  0
CLASS
  1
SPATIAL_INDEX
  2
AcDbSpatialIndex
  3
ObjectDBX Classes
 90
        0
 91
        0
280
     0
281
     0
  0
CLASS
  1
IDBUFFER
  2
AcDbIdBuffer
  3
ObjectDBX Classes
 90
        0
 91
        0
280
     0
281
     0
  0
CLASS
  1
ACDBSECTIONVIEWSTYLE
  2
AcDbSectionViewStyle
  3
ObjectDBX Classes
 90
     1025
 91
        0
280
     0
281
     0
  0
CLASS
  1
ACDBDETAILVIEWSTYLE
  2
AcDbDetailViewStyle
  3
ObjectDBX Classes
 90
     1025
 91
        0
280
     0
281
     0
  0
CLASS
  1
SORTENTSTABLE
  2
AcDbSortentsTable
  3
ObjectDBX Classes
 90
        0
 91
        2
280
     0
281
     0
  0
ENDSEC
  0
SECTION
  2
TABLES
  0
TABLE
  2
VPORT
  5
29
330
0
100
AcDbSymbolTable
 70
     1
  0
VPORT
  5
2A
330
29
100
AcDbSymbolTableRecord
100
AcDbViewportTableRecord
  2
*Active
 70
     0
 10
0.0
 20
0.0
 11
1.0
 21
1.0
 12
32.09596338018764
 22
22.34542010097948
 13
0.0
 23
0.0
 14
10.0
 24
10.0
 15
10.0
 25
10.0
 16
0.0
 26
0.0
 36
1.0
 17
0.0
 27
0.0
 37
0.0
 40
40.84498747074046
 41
2.326023391812865
 42
50.0
 43
0.0
 44
0.0
 50
0.0
 51
0.0
 71
     0
 72
  1000
 73
     1
 74
     3
 75
     0
 76
     1
 77
     0
 78
     0
281
     0
 65
     1
110
0.0
120
0.0
130
0.0
111
1.0
121
0.0
131
0.0
112
0.0
122
1.0
132
0.0
 79
     0
146
0.0
1001
ACAD_NAV_VCDISPLAY
1070
     3
  0
ENDTAB
  0
TABLE
  2
LTYPE
  5
24
330
0
100
AcDbSymbolTable
 70
     1
  0
LTYPE
  5
25
330
24
100
AcDbSymbolTableRecord
100
AcDbLinetypeTableRecord
  2
ByBlock
 70
     0
  3

 72
    65
 73
     0
 40
0.0
  0
LTYPE
  5
26
330
24
100
AcDbSymbolTableRecord
100
AcDbLinetypeTableRecord
  2
ByLayer
 70
     0
  3

 72
    65
 73
     0
 40
0.0
  0
LTYPE
  5
14
330
24
100
AcDbSymbolTableRecord
100
AcDbLinetypeTableRecord
  2
Continuous
 70
     0
  3
Solid line
 72
    65
 73
     0
 40
0.0
  0
ENDTAB
  0
TABLE
  2
LAYER
  5
1E
102
{ACAD_XDICTIONARY
360
1F
102
}
330
0
100
AcDbSymbolTable
 70
     1
  0
LAYER
  5
6
102
{ACAD_XDICTIONARY
360
7
102
}
330
1E
100
AcDbSymbolTableRecord
100
AcDbLayerTableRecord
  2
0
 70
     0
 62
     7
  6
Continuous
370
    -3
390
8
  0
ENDTAB
  0
TABLE
  2
STYLE
  5
21
330
0
100
AcDbSymbolTable
 70
     1
  0
STYLE
  5
22
330
21
100
AcDbSymbolTableRecord
100
AcDbTextStyleTableRecord
  2
Standard
 70
     0
 40
0.0
 41
1.0
 50
0.0
 71
     0
 42
2.5
  3
arial.ttf
  4

1001
ACAD
1000
Arial
1071
       34
  0
ENDTAB
  0
TABLE
  2
VIEW
  5
27
330
0
100
AcDbSymbolTable
 70
     0
  0
ENDTAB
  0
TABLE
  2
UCS
  5
28
330
0
100
AcDbSymbolTable
 70
     0
  0
ENDTAB
  0
TABLE
  2
APPID
  5
2E
330
0
100
AcDbSymbolTable
 70
     6
  0
APPID
  5
13
330
2E
100
AcDbSymbolTableRecord
100
AcDbRegAppTableRecord
  2
ACAD
 70
     0
  0
APPID
  5
19
330
2E
100
AcDbSymbolTableRecord
100
AcDbRegAppTableRecord
  2
ACAD_PSEXT
 70
     0
  0
APPID
  5
32
330
2E
100
AcDbSymbolTableRecord
100
AcDbRegAppTableRecord
  2
AcadAnnotative
 70
     0
  0
APPID
  5
33
330
2E
100
AcDbSymbolTableRecord
100
AcDbRegAppTableRecord
  2
ACAD_DSTYLE_DIMJAG
 70
     0
  0
APPID
  5
34
330
2E
100
AcDbSymbolTableRecord
100
AcDbRegAppTableRecord
  2
ACAD_DSTYLE_DIMTALN
 70
     0
  0
APPID
  5
2D
330
2E
100
AcDbSymbolTableRecord
100
AcDbRegAppTableRecord
  2
ACAD_NAV_VCDISPLAY
 70
     0
  0
ENDTAB
  0
TABLE
  2
DIMSTYLE
  5
2F
330
0
100
AcDbSymbolTable
 70
     2
100
AcDbDimStyleTable
 71
     2
340
30
340
31
  0
DIMSTYLE
105
31
330
2F
100
AcDbSymbolTableRecord
100
AcDbDimStyleTableRecord
  2
Annotative
 70
     0
 40
0.0
 41
2.5
 42
0.625
 43
3.75
 44
1.25
 73
     0
 74
     0
 77
     1
 78
     8
140
2.5
141
2.5
143
0.03937007874016
147
0.625
171
     3
172
     1
271
     2
272
     2
274
     3
278
    44
283
     0
284
     8
340
22
1001
AcadAnnotative
1000
AnnotativeData
1002
{
1070
     1
1070
     1
1002
}
1001
ACAD_DSTYLE_DIMJAG
1070
   388
1040
1.5
1001
ACAD_DSTYLE_DIMTALN
1070
   392
1070
     0
  0
DIMSTYLE
105
30
330
2F
100
AcDbSymbolTableRecord
100
AcDbDimStyleTableRecord
  2
ISO-25
 70
     0
 41
2.5
 42
0.625
 43
3.75
 44
1.25
 73
     0
 74
     0
 77
     1
 78
     8
140
2.5
141
2.5
143
0.03937007874016
147
0.625
171
     3
172
     1
271
     2
272
     2
274
     3
278
    44
283
     0
284
     8
340
22
  0
ENDTAB
  0
TABLE
  2
BLOCK_RECORD
  5
1
330
0
100
AcDbSymbolTable
 70
     0
  0
BLOCK_RECORD
  5
2
102
{ACAD_XDICTIONARY
360
3
102
}
330
1
100
AcDbSymbolTableRecord
100
AcDbBlockTableRecord
  2
*Model_Space
340
16
  0
BLOCK_RECORD
  5
1A
330
1
100
AcDbSymbolTableRecord
100
AcDbBlockTableRecord
  2
*Paper_Space
340
1D
  0
ENDTAB
  0
ENDSEC
  0
SECTION
  2
BLOCKS
  0
BLOCK
  5
5
330
2
100
AcDbEntity
  8
0
100
AcDbBlockBegin
  2
*Model_Space
 70
     0
 10
0.0
 20
0.0
 30
0.0
  3
*Model_Space
  1

  0
ENDBLK
  5
15
330
2
100
AcDbEntity
  8
0
100
AcDbBlockEnd
  0
BLOCK
  5
1B
330
1A
100
AcDbEntity
 67
     1
  8
0
100
AcDbBlockBegin
  2
*Paper_Space
 70
     0
 10
0.0
 20
0.0
 30
0.0
  3
*Paper_Space
  1

  0
ENDBLK
  5
1C
330
1A
100
AcDbEntity
 67
     1
  8
0
100
AcDbBlockEnd
  0
ENDSEC
  0
SECTION
  2
ENTITIES
  0
LINE
  5
59
330
2
100
AcDbEntity
  8
0
100
AcDbLine
 10
33.38490175627544
 20
27.13315992497508
 30
0.0
 11
32.33859827798841
 21
26.22703453269418
 31
0.0
  0
LINE
  5
5A
330
2
100
AcDbEntity
  8
0
100
AcDbLine
 10
32.3571815006938
 20
25.90097284147748
 30
0.0
 11
32.37406411602871
 21
25.89209341625315
 31
0.0
  0
LINE
  5
5B
330
2
100
AcDbEntity
  8
0
100
AcDbLine
 10
57.41651162850217
 20
26.22703453269418
 30
0.0
 11
56.37020815021514
 21
27.13315992497508
 31
0.0
  0
LINE
  5
5C
330
2
100
AcDbEntity
  8
0
100
AcDbLine
 10
57.38104579051423
 20
25.89209341625315
 30
0.0
 11
57.39792840579679
 21
25.90097284147748
 31
0.0
  0
LINE
  5
5D
330
2
100
AcDbEntity
  8
0
100
AcDbLine
 10
40.50117324014331
 20
35.80046915525077
 30
0.0
 11
40.50117324014331
 21
29.69305819994088
 31
0.0
  0
SPLINE
  5
5E
330
2
100
AcDbEntity
  8
0
100
AcDbSpline
210
0.0
220
0.0
230
1.0
 70
     8
 71
     3
 72
    12
 73
     8
 74
     0
 42
0.000000001
 43
0.0000000001
 40
0.0
 40
0.0
 40
0.0
 40
0.0
 40
0.1814292812455239
 40
0.4157921650614694
 40
0.6513173281689464
 40
0.8893818971947673
 40
1.0
 40
1.0
 40
1.0
 40
1.0
 10
45.71076237466513
 20
37.7735202971412
 30
0.0
 10
45.68456363184589
 20
37.79413196245639
 30
0.0
 10
45.61997508052184
 20
37.83870695045437
 30
0.0
 10
45.50307010647384
 20
37.87861803957219
 30
0.0
 10
45.36709003811188
 20
37.89509549467482
 30
0.0
 10
45.24916500795632
 20
37.88446076394382
 30
0.0
 10
45.17879312200022
 20
37.86612024477864
 30
0.0
 10
45.15646793883462
 20
37.86030179264896
 30
0.0
  0
LINE
  5
5F
330
2
100
AcDbEntity
  8
0
100
AcDbLine
 10
45.76544187741041
 20
37.7267318595392
 30
0.0
 11
45.72620549697467
 21
37.7607115617576
 31
0.0
  0
LINE
  5
60
330
2
100
AcDbEntity
  8
0
100
AcDbLine
 10
45.15646793883331
 20
37.86030179264708
 30
0.0
 11
42.62837809442408
 21
37.13050511654183
 31
0.0
  0
LINE
  5
61
330
2
100
AcDbEntity
  8
0
100
AcDbLine
 10
42.62837809442408
 20
37.13050511654183
 30
0.0
 11
41.21482248249515
 21
36.72244676000992
 31
0.0
  0
SPLINE
  5
62
330
2
100
AcDbEntity
  8
0
100
AcDbSpline
210
0.0
220
0.0
230
1.0
 70
     8
 71
     3
 72
    16
 73
    12
 74
     0
 42
0.000000001
 43
0.0000000001
 40
0.0
 40
0.0
 40
0.0
 40
0.0
 40
0.0698495378242815
 40
0.1990379081207495
 40
0.328518240316073
 40
0.4581529125746126
 40
0.5879251972799282
 40
0.7178828956211313
 40
0.8480723407691172
 40
0.9707891010511659
 40
1.0
 40
1.0
 40
1.0
 40
1.0
 10
41.21482248248361
 20
36.72244676001179
 30
0.0
 10
41.18846217719948
 20
36.71397048281438
 30
0.0
 10
41.11334786456985
 20
36.68981713070093
 30
0.0
 10
40.99226922589446
 20
36.62794607916032
 30
0.0
 10
40.85900195239219
 20
36.53124074053358
 30
0.0
 10
40.74046591586773
 20
36.41267118770401
 30
0.0
 10
40.64138677747087
 20
36.27738401167659
 30
0.0
 10
40.56567189101985
 20
36.13040054426893
 30
0.0
 10
40.51775554757847
 20
35.98044888343304
 30
0.0
 10
40.50216045882661
 20
35.86973173848969
 30
0.0
 10
40.50133244172951
 20
35.81163862871676
 30
0.0
 10
40.50117324014718
 20
35.80046915524639
 30
0.0
  0
SPLINE
  5
63
330
2
100
AcDbEntity
  8
0
100
AcDbSpline
210
0.0
220
0.0
230
1.0
 70
     8
 71
     3
 72
    12
 73
     8
 74
     0
 42
0.000000001
 43
0.0000000001
 40
0.0
 40
0.0
 40
0.0
 40
0.0
 40
0.1814292812455502
 40
0.4157921650615168
 40
0.6513173281689923
 40
0.8893818971948034
 40
0.9912690631277381
 40
0.9912690631277381
 40
0.9912690631277381
 40
0.9912690631277381
 10
48.11300109754035
 20
36.89636953717315
 30
0.0
 10
48.09309691630812
 20
36.91450708014083
 30
0.0
 10
48.02221380339933
 20
36.96155619051785
 30
0.0
 10
47.90530882935121
 20
37.00146727963568
 30
0.0
 10
47.76932876098931
 20
37.01794473473837
 30
0.0
 10
47.65316611047398
 20
37.0074689391621
 30
0.0
 10
47.58455604484407
 20
36.98988045028705
 30
0.0
 10
47.56399295158439
 20
36.98452816681117
 30
0.0
  0
LINE
  5
64
330
2
100
AcDbEntity
  8
0
100
AcDbLine
 10
48.16768060028568
 20
36.84958109962338
 30
0.0
 11
48.12844421984988
 21
36.88356080184178
 31
0.0
  0
SPLINE
  5
65
330
2
100
AcDbEntity
  8
0
100
AcDbSpline
210
0.0
220
0.0
230
1.0
 70
     8
 71
     3
 72
    13
 73
     9
 74
     0
 42
0.000000001
 43
0.0000000001
 40
0.0
 40
0.0
 40
0.0
 40
0.0
 40
0.3055623022646952
 40
0.7002751173768175
 40
1.0
 40
1.0
 40
1.0
 40
1.050022039267848
 40
1.050022039267848
 40
1.050022039267848
 40
1.050022039267848
 10
49.47319561931351
 20
35.71840652724984
 30
0.0
 10
49.47319561931351
 20
35.71840652724984
 30
0.0
 10
49.38230169324743
 20
35.78319146008841
 30
0.0
 10
49.27635135987492
 20
35.82192182310212
 30
0.0
 10
49.19644097880393
 20
35.82835800015426
 30
0.0
 10
49.16195101711981
 20
35.83113590581479
 30
0.0
 10
49.15619487768083
 20
35.83159951932868
 30
0.0
 10
49.15043873824186
 20
35.83206313284256
 30
0.0
 10
49.14468259880289
 20
35.83252674635651
 30
0.0
  0
LINE
  5
66
330
2
100
AcDbEntity
  8
0
100
AcDbLine
 10
49.52787512205884
 20
35.67161808970013
 30
0.0
 11
49.48863874162305
 21
35.70559779186619
 31
0.0
  0
LINE
  5
67
330
2
100
AcDbEntity
  8
0
100
AcDbLine
 10
48.72998156016945
 20
36.22659473161747
 30
0.0
 11
48.64648787993065
 21
36.2989023797777
 31
0.0
  0
LINE
  5
68
330
2
100
AcDbEntity
  8
0
100
AcDbLine
 10
39.32371344689591
 20
34.67525711766695
 30
0.0
 11
39.32371344689591
 21
29.14398921450981
 31
0.0
  0
SPLINE
  5
69
330
2
100
AcDbEntity
  8
0
100
AcDbSpline
210
0.0
220
0.0
230
1.0
 70
     8
 71
     3
 72
    12
 73
     8
 74
     0
 42
0.000000001
 43
0.0000000001
 40
0.0
 40
0.0
 40
0.0
 40
0.0
 40
0.1814292812455576
 40
0.4157921650615154
 40
0.6513173281689944
 40
0.8893818971948078
 40
1.0
 40
1.0
 40
1.0
 40
1.0
 10
47.11575994933451
 20
37.39379948778469
 30
0.0
 10
47.09211218927703
 20
37.41432184582198
 30
0.0
 10
47.02497265522015
 20
37.4589861411398
 30
0.0
 10
46.90806768117204
 20
37.49889723025751
 30
0.0
 10
46.77208761281008
 20
37.51537468536026
 30
0.0
 10
46.65416258265463
 20
37.50473995462915
 30
0.0
 10
46.58379069669848
 20
37.48639943546403
 30
0.0
 10
46.56146551353288
 20
37.48058098333434
 30
0.0
  0
LINE
  5
6A
330
2
100
AcDbEntity
  8
0
100
AcDbLine
 10
47.1704394520799
 20
37.34701105023493
 30
0.0
 11
47.13120307164411
 21
37.38099075245333
 31
0.0
  0
LINE
  5
6B
330
2
100
AcDbEntity
  8
0
100
AcDbLine
 10
46.56146551355504
 20
37.48058098334286
 30
0.0
 11
46.15890616970432
 21
37.36437211054925
 31
0.0
  0
LINE
  5
6C
330
2
100
AcDbEntity
  8
0
100
AcDbLine
 10
40.50117324014331
 20
35.73112529565344
 30
0.0
 11
40.03736268924774
 21
35.59723472242615
 31
0.0
  0
SPLINE
  5
6D
330
2
100
AcDbEntity
  8
0
100
AcDbSpline
210
0.0
220
0.0
230
1.0
 70
     8
 71
     3
 72
    16
 73
    12
 74
     0
 42
0.000000001
 43
0.0000000001
 40
0.0
 40
0.0
 40
0.0
 40
0.0
 40
0.069849537824281
 40
0.1990379081207497
 40
0.3285182403160725
 40
0.4581529125746114
 40
0.5879251972799257
 40
0.7178828956211265
 40
0.8480723407691126
 40
0.9707891010511616
 40
1.0
 40
1.0
 40
1.0
 40
1.0
 10
40.03736268922773
 20
35.59723472241768
 30
0.0
 10
40.01100238394366
 20
35.58875844522021
 30
0.0
 10
39.93588807131397
 20
35.56460509310682
 30
0.0
 10
39.81480943263859
 20
35.50273404156622
 30
0.0
 10
39.68154215913637
 20
35.40602870293947
 30
0.0
 10
39.56300612261191
 20
35.2874591501099
 30
0.0
 10
39.46392698421505
 20
35.15217197408242
 30
0.0
 10
39.38821209776398
 20
35.00518850667481
 30
0.0
 10
39.34029575432254
 20
34.85523684583899
 30
0.0
 10
39.32470066557073
 20
34.7445197008957
 30
0.0
 10
39.32387264847364
 20
34.68642659112266
 30
0.0
 10
39.3237134468913
 20
34.67525711765228
 30
0.0
  0
LINE
  5
6E
330
2
100
AcDbEntity
  8
0
100
AcDbLine
 10
50.24395591954806
 20
34.68526771047522
 30
0.0
 11
50.20471953911232
 21
34.71924741269368
 31
0.0
  0
LINE
  5
6F
330
2
100
AcDbEntity
  8
0
100
AcDbLine
 10
35.99532827157503
 20
20.81437969104343
 30
0.0
 11
36.00629901240814
 21
20.70592207296505
 31
0.0
  0
LINE
  5
70
330
2
100
AcDbEntity
  8
0
100
AcDbLine
 10
53.74881089408245
 20
20.70592207296505
 30
0.0
 11
53.75978163491556
 21
20.81437969104343
 31
0.0
  0
SPLINE
  5
71
330
2
100
AcDbEntity
  8
0
100
AcDbSpline
210
0.0
220
0.0
230
1.0
 70
     8
 71
     3
 72
     9
 73
     5
 74
     0
 42
0.000000001
 43
0.0000000001
 40
0.0
 40
0.0
 40
0.0
 40
0.0
 40
0.2500021910301879
 40
1.0
 40
1.0
 40
1.0
 40
1.0
 10
50.80938519560447
 20
25.4546197614286
 30
0.0
 10
50.78271508791982
 20
25.75850740260245
 30
0.0
 10
50.67603559213319
 20
26.97404731415918
 30
0.0
 10
50.56567740244514
 20
28.18835017847784
 30
0.0
 10
50.48290900197724
 20
29.09907466614254
 30
0.0
  0
SPLINE
  5
72
330
2
100
AcDbEntity
  8
0
100
AcDbSpline
210
0.0
220
0.0
230
1.0
 70
     8
 71
     3
 72
     9
 73
     5
 74
     0
 42
0.000000001
 43
0.0000000001
 40
0.0
 40
0.0
 40
0.0
 40
0.0
 40
0.2424905473061644
 40
1.0
 40
1.0
 40
1.0
 40
1.0
 10
39.2721679158285
 20
29.09908380510683
 30
0.0
 10
39.2452538849422
 20
28.80467935540378
 30
0.0
 10
39.13426386415472
 20
27.59059306225305
 30
0.0
 10
39.02700061502685
 20
26.37524946622165
 30
0.0
 10
38.94574768988594
 20
25.4546152039569
 30
0.0
  0
LINE
  5
73
330
2
100
AcDbEntity
  8
0
100
AcDbLine
 10
50.81393914764181
 20
25.31528877485011
 30
0.0
 11
50.80938519560447
 21
25.4546197614286
 31
0.0
  0
LINE
  5
74
330
2
100
AcDbEntity
  8
0
100
AcDbLine
 10
38.94574768988594
 20
25.4546152039569
 30
0.0
 11
38.94111289584646
 21
25.31525085892071
 31
0.0
  0
LINE
  5
75
330
2
100
AcDbEntity
  8
0
100
AcDbLine
 10
37.55479136701115
 20
26.82723386289842
 30
0.0
 11
37.46919140745865
 21
24.60722429507445
 31
0.0
  0
LINE
  5
76
330
2
100
AcDbEntity
  8
0
100
AcDbLine
 10
52.28591849908434
 20
24.60722429507445
 30
0.0
 11
52.20031853947944
 21
26.82723386289842
 31
0.0
  0
LINE
  5
77
330
2
100
AcDbEntity
  8
0
100
AcDbLine
 10
38.18527892504125
 20
24.52628321122893
 30
0.0
 11
38.06247630332933
 21
24.5617332745702
 31
0.0
  0
LINE
  5
78
330
2
100
AcDbEntity
  8
0
100
AcDbLine
 10
51.69262598240988
 20
24.56173107466481
 30
0.0
 11
51.5698309815017
 21
24.52628321122893
 31
0.0
  0
LINE
  5
79
330
2
100
AcDbEntity
  8
0
100
AcDbLine
 10
38.55116864191734
 20
27.83926129411901
 30
0.0
 11
37.99800154304785
 21
27.9989468808518
 31
0.0
  0
LINE
  5
7A
330
2
100
AcDbEntity
  8
0
100
AcDbLine
 10
51.75710836349509
 20
27.9989468808518
 30
0.0
 11
51.2039412645733
 21
27.83926129411901
 31
0.0
  0
LWPOLYLINE
  5
7B
330
2
100
AcDbEntity
  8
0
100
AcDbPolyline
 90
       17
 70
   128
 43
0.0
 10
34.28846229744249
 20
26.07726334612698
 10
34.32231584611804
 20
26.13120053736031
 10
34.31862184474562
 20
26.19811086880577
 10
34.27794267150495
 20
26.26780784902599
 10
34.20647136178968
 20
26.32968074463264
 10
34.11508877462211
 20
26.37430996812185
 10
34.01770708043443
 20
26.39490112478546
 10
33.92915175949031
 20
26.38831939769403
 10
33.86290455661754
 20
26.35556679512041
 10
33.82905100788958
 20
26.30162960388708
 10
33.832745009262
 20
26.23471927244157
 10
33.87342418250268
 20
26.16502229216906
 10
33.94489549221794
 20
26.1031493965624
 10
34.03627807943787
 20
26.05852017307325
 10
34.13365977357319
 20
26.03792901646193
 10
34.22221509456961
 20
26.04451074355336
 10
34.28846229744249
 20
26.07726334612698
  0
LWPOLYLINE
  5
7C
330
2
100
AcDbEntity
  8
0
100
AcDbPolyline
 90
        9
 70
   128
 43
0.0
 10
33.41158679104154
 20
26.09408359758942
 10
33.44544033976945
 20
26.14802078882269
 10
33.44174633839703
 20
26.21493112026821
 10
33.40106716515635
 20
26.28462810054072
 10
33.32959585544114
 20
26.34650099614737
 10
33.23821326822116
 20
26.39113021963652
 10
33.14083157408584
 20
26.41172137630014
 10
33.05227625308942
 20
26.40513964915641
 10
33.04797962778787
 20
26.4039999692659
  0
LWPOLYLINE
  5
7D
330
2
100
AcDbEntity
  8
0
100
AcDbPolyline
 90
        9
 70
   128
 43
0.0
 10
32.95299874807984
 20
26.32154066710877
 10
32.95217550154098
 20
26.31844985534946
 10
32.9558695029134
 20
26.251539523904
 10
32.99654867610172
 20
26.18184254368373
 10
33.06801998586934
 20
26.11996964807713
 10
33.15940257303697
 20
26.07534042458792
 10
33.25678426722459
 20
26.05474926792431
 10
33.34533958816872
 20
26.06133099501574
 10
33.41158679104154
 20
26.09408359758942
  0
LWPOLYLINE
  5
7E
330
2
100
AcDbEntity
  8
0
100
AcDbPolyline
 90
       17
 70
   128
 43
0.0
 10
34.43292536899014
 20
25.42615532007847
 10
34.46677891771805
 20
25.48009251131174
 10
34.46308491634568
 20
25.54700284275725
 10
34.42240574310495
 20
25.61669982297747
 10
34.35093443338968
 20
25.67857271858406
 10
34.25955184616976
 20
25.72320194207327
 10
34.16217015203449
 20
25.74379309873689
 10
34.07361483109025
 20
25.73721137164546
 10
34.00736762816519
 20
25.70445876907184
 10
33.97351407948958
 20
25.6505215778385
 10
33.97720808086194
 20
25.58361124639305
 10
34.01788725410268
 20
25.51391426612048
 10
34.08935856381794
 20
25.45204137051388
 10
34.18074115103787
 20
25.40741214702467
 10
34.27812284517319
 20
25.38682099036106
 10
34.36667816611731
 20
25.39340271750484
 10
34.43292536899014
 20
25.42615532007847
  0
LINE
  5
7F
330
2
100
AcDbEntity
  8
0
100
AcDbLine
 10
34.59795725673882
 20
26.39173538723407
 30
0.0
 11
33.5050384920952
 21
27.1064752038908
 31
0.0
  0
ARC
  5
80
330
2
100
AcDbEntity
  8
0
100
AcDbCircle
 10
33.26222855225933
 20
24.27938913091907
 30
0.0
 40
2.499235458812148
100
AcDbArc
 50
35.02348436029917
 51
57.69304655109994
  0
LINE
  5
81
330
2
100
AcDbEntity
  8
0
100
AcDbLine
 10
35.30889465238272
 20
25.71373070578625
 30
0.0
 11
35.32322040413675
 21
25.69238369247967
 31
0.0
  0
ARC
  5
82
330
2
100
AcDbEntity
  8
0
100
AcDbCircle
 10
35.83488692916763
 20
26.05096908619646
 30
0.0
 40
0.6248088647033124
100
AcDbArc
 50
215.0234843603989
 51
237.6930465510989
  0
LINE
  5
83
330
2
100
AcDbEntity
  8
0
100
AcDbLine
 10
35.50095475302157
 20
25.52288252214385
 30
0.0
 11
36.14300061919289
 21
25.10300159453681
 31
0.0
  0
LINE
  5
84
330
2
100
AcDbEntity
  8
0
100
AcDbLine
 10
35.46290335830633
 20
24.51402008957519
 30
0.0
 11
34.82085749213502
 21
24.93390101712993
 31
0.0
  0
ARC
  5
85
330
2
100
AcDbEntity
  8
0
100
AcDbCircle
 10
34.36592886979719
 20
24.23433138918426
 30
0.0
 40
0.8344805065492966
100
AcDbArc
 50
56.96413735989817
 51
75.62988647090108
  0
LINE
  5
86
330
2
100
AcDbEntity
  8
0
100
AcDbLine
 10
34.57303410024713
 20
25.04270329573524
 30
0.0
 11
34.54294734610789
 21
25.05040088058422
 31
0.0
  0
ARC
  5
87
330
2
100
AcDbEntity
  8
0
100
AcDbCircle
 10
35.37136826780301
 20
28.28388850689265
 30
0.0
 40
3.337922026199768
100
AcDbArc
 50
236.9641373599995
 51
255.6298864709011
  0
LINE
  5
88
330
2
100
AcDbEntity
  8
0
100
AcDbLine
 10
33.55165377845179
 20
25.48560999500546
 30
0.0
 11
32.66061286452611
 21
26.06832706424853
 31
0.0
  0
ARC
  5
89
330
2
100
AcDbEntity
  8
0
100
AcDbCircle
 10
32.12701138864606
 20
27.28866682259547
 30
0.0
 40
1.276151481319053
100
AcDbArc
 50
315.6185138917982
 51
349.0309109471986
  0
ARC
  5
8A
330
2
100
AcDbEntity
  8
0
100
AcDbCircle
 10
32.10024616094387
 20
27.30114506628467
 30
0.0
 40
1.276151481318692
100
AcDbArc
 50
315.6185138917982
 51
349.0309109471986
  0
LWPOLYLINE
  5
8B
330
2
100
AcDbEntity
  8
0
100
AcDbPolyline
 90
        9
 70
   128
 43
0.0
 10
32.30677885297956
 20
26.15219435889526
 10
32.29635449585101
 20
26.0739799784825
 10
32.29638295493947
 20
26.00747680546795
 10
32.30686313649142
 20
25.95524051953999
 10
32.3273922930822
 20
25.91927853187133
 10
32.3571815006938
 20
25.90097284147748
 10
32.39508597682277
 20
25.90102692579364
 10
32.43964907361828
 20
25.91943870639028
 10
32.48915825637323
 20
25.95550062880596
  0
LINE
  5
8C
330
2
100
AcDbEntity
  8
0
100
AcDbLine
 10
32.31166125818897
 20
26.1782858808906
 30
0.0
 11
32.30677885297956
 21
26.15219435889526
 31
0.0
  0
LINE
  5
8D
330
2
100
AcDbEntity
  8
0
100
AcDbLine
 10
33.357964736476
 20
27.0844112731192
 30
0.0
 11
33.35308233126659
 21
27.05831975117616
 31
0.0
  0
LINE
  5
8E
330
2
100
AcDbEntity
  8
0
100
AcDbLine
 10
32.48915825637323
 20
25.95550062880596
 30
0.0
 11
33.01230999551677
 21
26.40856332494639
 31
0.0
  0
LWPOLYLINE
  5
8F
330
2
100
AcDbEntity
  8
0
100
AcDbPolyline
 90
        9
 70
   128
 43
0.0
 10
33.5050384920952
 20
27.1064752038908
 10
33.48587999824019
 20
27.11671764734837
 10
33.46615580340716
 20
27.12286504753581
 10
33.44680099199673
 20
27.12462596875639
 10
33.42873313668952
 20
27.12191692912365
 10
33.41280879801337
 20
27.11486635888434
 10
33.39978291683417
 20
27.10380851129867
 10
33.39027302392338
 20
27.08926761663537
 10
33.38472996423053
 20
27.0719330294823
  0
LWPOLYLINE
  5
90
330
2
100
AcDbEntity
  8
0
100
AcDbPolyline
 90
        9
 70
   128
 43
0.0
 10
33.51436582278382
 20
27.1293160999025
 10
33.48945978073039
 20
27.14263127635547
 10
33.4638183274318
 20
27.1506228966515
 10
33.4386570726557
 20
27.15291209419638
 10
33.41516886069888
 20
27.14939034273135
 10
33.39446722040424
 20
27.14022460137324
 10
33.37753357491306
 20
27.12584939953803
 10
33.36517071411857
 20
27.10694623648095
 10
33.357964736476
 20
27.0844112731192
  0
LINE
  5
91
330
2
100
AcDbEntity
  8
0
100
AcDbLine
 10
33.38472996423053
 20
27.0719330294823
 30
0.0
 11
33.37984755896878
 21
27.04584150748696
 31
0.0
  0
LINE
  5
92
330
2
100
AcDbEntity
  8
0
100
AcDbLine
 10
34.60728458737515
 20
26.41457628329806
 30
0.0
 11
33.51436582278382
 21
27.1293160999025
 31
0.0
  0
ARC
  5
93
330
2
100
AcDbEntity
  8
0
100
AcDbCircle
 10
32.39363732084707
 20
26.16480502034619
 30
0.0
 40
0.0830771234993216
100
AcDbArc
 50
131.4912298235009
 51
170.6613651516
  0
LINE
  5
94
330
2
100
AcDbEntity
  8
0
100
AcDbLine
 10
32.51592348407541
 20
25.94302238511676
 30
0.0
 11
33.03907522321896
 21
26.39608508125718
 31
0.0
  0
ARC
  5
95
330
2
100
AcDbEntity
  8
0
100
AcDbCircle
 10
33.2715558828956
 20
24.30223002698312
 30
0.0
 40
2.499235458812361
100
AcDbArc
 50
35.02348436039888
 51
57.69304655109994
  0
ARC
  5
96
330
2
100
AcDbEntity
  8
0
100
AcDbCircle
 10
36.26370676895545
 20
25.29514987899307
 30
0.0
 40
0.202657921470898
100
AcDbArc
 50
236.6610925816971
 51
249.1503439898992
  0
LINE
  5
97
330
2
100
AcDbEntity
  8
0
100
AcDbLine
 10
36.19157736835723
 20
25.10576249111489
 30
0.0
 11
37.22975423096557
 21
24.7140115543113
 31
0.0
  0
ARC
  5
98
330
2
100
AcDbEntity
  8
0
100
AcDbCircle
 10
36.29779312114897
 20
22.3321438516025
 30
0.0
 40
2.557703122589408
100
AcDbArc
 50
40.8387921867016
 51
68.63092307740021
  0
ARC
  5
99
330
2
100
AcDbEntity
  8
0
100
AcDbCircle
 10
36.30928527173058
 20
22.34141357266464
 30
0.0
 40
2.519437813872595
100
AcDbArc
 50
40.75484759110118
 51
68.62970744749919
  0
LINE
  5
9A
330
2
100
AcDbEntity
  8
0
100
AcDbLine
 10
36.18917640566877
 20
25.07937806577286
 30
0.0
 11
37.22735326827717
 21
24.68762712896932
 31
0.0
  0
ARC
  5
9B
330
2
100
AcDbEntity
  8
0
100
AcDbCircle
 10
36.27403452402268
 20
25.30218675746198
 30
0.0
 40
0.2384210840897891
100
AcDbArc
 50
236.6610925819001
 51
249.1503439898009
  0
LINE
  5
9C
330
2
100
AcDbEntity
  8
0
100
AcDbLine
 10
35.5102820836579
 20
25.54572341815561
 30
0.0
 11
36.15232794982921
 21
25.12584249054851
 31
0.0
  0
LINE
  5
9D
330
2
100
AcDbEntity
  8
0
100
AcDbLine
 10
34.29778962807876
 20
26.10010424213868
 30
0.0
 11
34.32180411441516
 21
26.12923389278683
 31
0.0
  0
ARC
  5
9E
330
2
100
AcDbEntity
  8
0
100
AcDbCircle
 10
35.84421425980389
 20
26.07380998220822
 30
0.0
 40
0.6248088647021861
100
AcDbArc
 50
215.0234843602992
 51
237.6930465510989
  0
LWPOLYLINE
  5
9F
330
2
100
AcDbEntity
  8
0
100
AcDbPolyline
 90
        5
 70
   128
 43
0.0
 10
32.51592348407541
 20
25.94302238511676
 10
32.46641430137283
 20
25.90696046270102
 10
32.42185120452496
 20
25.88854868210444
 10
32.38394672844828
 20
25.88849459778828
 10
32.37406411602871
 20
25.89209341625315
  0
LINE
  5
A0
330
2
100
AcDbEntity
  8
0
100
AcDbLine
 10
35.31822198301899
 20
25.73657160179795
 30
0.0
 11
35.33254773477307
 21
25.71522458849142
 31
0.0
  0
LINE
  5
A1
330
2
100
AcDbEntity
  8
0
100
AcDbLine
 10
36.54725600739056
 20
24.09864562400765
 30
0.0
 11
35.50907914478216
 21
24.49039656081124
 31
0.0
  0
ARC
  5
A2
330
2
100
AcDbEntity
  8
0
100
AcDbCircle
 10
35.59393726313613
 20
24.71320525244801
 30
0.0
 40
0.2384210840901623
100
AcDbArc
 50
236.6610925819001
 51
249.1503439898009
  0
LINE
  5
A3
330
2
100
AcDbEntity
  8
0
100
AcDbLine
 10
34.44225269967876
 20
25.44899621609017
 30
0.0
 11
34.46626718601522
 21
25.47812586673831
 31
0.0
  0
ARC
  5
A4
330
2
100
AcDbEntity
  8
0
100
AcDbCircle
 10
35.63685589239276
 20
21.76705699403294
 30
0.0
 40
2.50302495168256
100
AcDbArc
 50
43.43807867209956
 51
68.67117243009912
  0
LWPOLYLINE
  5
A5
330
2
100
AcDbEntity
  8
0
100
AcDbPolyline
 90
       17
 70
   128
 43
0.0
 10
45.24376117064576
 20
16.48140777741582
 10
45.14366041904497
 20
16.47797320803715
 10
45.05879909947327
 20
16.46819238190329
 10
45.00209657857863
 20
16.45355434115328
 10
44.98218530107396
 20
16.43628759474831
 10
45.00209657857863
 20
16.41902084839563
 10
45.05879909947327
 20
16.40438280764562
 10
45.14366041904497
 20
16.3946019814594
 10
45.24376117064576
 20
16.39116741208073
 10
45.34386192224656
 20
16.3946019814594
 10
45.42872324181826
 20
16.40438280764562
 10
45.48542576276514
 20
16.41902084839563
 10
45.50533704021751
 20
16.43628759474831
 10
45.48542576276514
 20
16.45355434115328
 10
45.42872324181826
 20
16.46819238190329
 10
45.34386192224656
 20
16.47797320803715
 10
45.24376117064576
 20
16.48140777741582
  0
LINE
  5
A6
330
2
100
AcDbEntity
  8
0
100
AcDbLine
 10
43.83125147495826
 20
16.51988103986252
 30
0.0
 11
43.83125147495826
 21
16.35146165132494
 31
0.0
  0
LINE
  5
A7
330
2
100
AcDbEntity
  8
0
100
AcDbLine
 10
45.92385843153238
 20
16.51988103986252
 30
0.0
 11
45.92385843153238
 21
16.35146165132494
 31
0.0
  0
ARC
  5
A8
330
2
100
AcDbEntity
  8
0
100
AcDbCircle
 10
45.41590756724531
 20
16.19857897213006
 30
0.0
 40
0.5082081608304521
100
AcDbArc
 50
268.2859860206984
 51
358.1767252639003
  0
LINE
  5
A9
330
2
100
AcDbEntity
  8
0
100
AcDbLine
 10
45.40070669238883
 20
15.69059819674692
 30
0.0
 11
44.3544032141018
 21
15.69059819674692
 31
0.0
  0
ARC
  5
AA
330
2
100
AcDbEntity
  8
0
100
AcDbCircle
 10
44.33920233924527
 20
16.19857897213006
 30
0.0
 40
0.5082081608304265
100
AcDbArc
 50
181.8232747360997
 51
271.7140139793016
  0
LINE
  5
AB
330
2
100
AcDbEntity
  8
0
100
AcDbLine
 10
43.83125147495826
 20
16.21272923540596
 30
0.0
 11
43.83125147495826
 21
16.18240942647912
 31
0.0
  0
LINE
  5
AC
330
2
100
AcDbEntity
  8
0
100
AcDbLine
 10
45.92385843153238
 20
16.21272923540596
 30
0.0
 11
45.92385843153238
 21
16.18240942647912
 31
0.0
  0
LINE
  5
AD
330
2
100
AcDbEntity
  8
0
100
AcDbLine
 10
43.83125147495826
 20
16.35146165132494
 30
0.0
 11
43.83125147495826
 21
16.21272923540596
 31
0.0
  0
LINE
  5
AE
330
2
100
AcDbEntity
  8
0
100
AcDbLine
 10
45.92385843153238
 20
16.35146165132494
 30
0.0
 11
45.92385843153238
 21
16.21272923540596
 31
0.0
  0
LWPOLYLINE
  5
AF
330
2
100
AcDbEntity
  8
0
100
AcDbPolyline
 90
       17
 70
   128
 43
0.0
 10
55.83285382650092
 20
25.76011945886006
 10
55.8991010293737
 20
25.72736685623414
 10
55.98765635031788
 20
25.72078512914271
 10
56.08503804450549
 20
25.74137628580627
 10
56.17642063167318
 20
25.78600550929548
 10
56.24789194138839
 20
25.84787840490213
 10
56.28857111462906
 20
25.91757538512235
 10
56.29226511600148
 20
25.98448571656786
 10
56.25841156732588
 20
26.03842290780119
 10
56.19216436440075
 20
26.07117551042711
 10
56.10360904345663
 20
26.07775723751854
 10
56.0062273493213
 20
26.05716608085493
 10
55.91484476210138
 20
26.01253685736572
 10
55.84337345238612
 20
25.95066396175906
 10
55.80269427914538
 20
25.88096698153885
 10
55.79900027777302
 20
25.81405665009339
 10
55.83285382650092
 20
25.76011945886006
  0
LWPOLYLINE
  5
B0
330
2
100
AcDbEntity
  8
0
100
AcDbPolyline
 90
       17
 70
   128
 43
0.0
 10
55.97731689804863
 20
26.41122748490864
 10
56.04356410097375
 20
26.37847488233496
 10
56.13211942191788
 20
26.37189315519123
 10
56.22950111605314
 20
26.39248431185484
 10
56.32088370327313
 20
26.43711353534405
 10
56.39235501298839
 20
26.49898643095065
 10
56.43303418622906
 20
26.56868341122322
 10
56.43672818760149
 20
26.63559374266867
 10
56.40287463887358
 20
26.68953093384971
 10
56.33662743600075
 20
26.72228353647563
 10
56.24807211505663
 20
26.72886526356706
 10
56.15069042086895
 20
26.70827410690345
 10
56.05930783370138
 20
26.66364488341424
 10
55.98783652398612
 20
26.60177198780764
 10
55.94715735074538
 20
26.53207500758743
 10
55.94346334937302
 20
26.46516467614191
 10
55.97731689804863
 20
26.41122748490864
  0
LWPOLYLINE
  5
B1
330
2
100
AcDbEntity
  8
0
100
AcDbPolyline
 90
       17
 70
   128
 43
0.0
 10
54.95597832010003
 20
25.74329920734533
 10
55.0222255229728
 20
25.71054660477171
 10
55.11078084396928
 20
25.70396487768028
 10
55.2081625381046
 20
25.72455603434389
 10
55.29954512532452
 20
25.7691852578331
 10
55.37101643503979
 20
25.8310581534397
 10
55.41169560828047
 20
25.90075513365997
 10
55.41538960965289
 20
25.96766546510548
 10
55.38153606092499
 20
26.02160265633876
 10
55.31528885805221
 20
26.05435525891238
 10
55.22673353710797
 20
26.06093698605611
 10
55.12935184292041
 20
26.04034582939255
 10
55.03796925575278
 20
25.99571660590334
 10
54.96649794598517
 20
25.93384371029674
 10
54.92581877279679
 20
25.86414673002418
 10
54.92212477142442
 20
25.79723639857866
 10
54.95597832010003
 20
25.74329920734533
  0
LINE
  5
B2
330
2
100
AcDbEntity
  8
0
100
AcDbLine
 10
56.2034561280388
 20
25.48560999500546
 30
0.0
 11
57.09449704201682
 21
26.06832706424853
 31
0.0
  0
ARC
  5
B3
330
2
100
AcDbEntity
  8
0
100
AcDbCircle
 10
54.38374163868764
 20
28.28388850689265
 30
0.0
 40
3.33792202619911
100
AcDbArc
 50
284.3701135290988
 51
303.0358626401018
  0
LINE
  5
B4
330
2
100
AcDbEntity
  8
0
100
AcDbLine
 10
55.21216256038269
 20
25.05040088058422
 30
0.0
 11
55.18207580629582
 21
25.04270329573524
 31
0.0
  0
ARC
  5
B5
330
2
100
AcDbEntity
  8
0
100
AcDbCircle
 10
55.3891810366934
 20
24.23433138918426
 30
0.0
 40
0.8344805065505857
100
AcDbArc
 50
104.3701135290989
 51
123.0358626400005
  0
LINE
  5
B6
330
2
100
AcDbEntity
  8
0
100
AcDbLine
 10
54.93425241435563
 20
24.93390101712993
 30
0.0
 11
54.29220654818431
 21
24.51402008957519
 31
0.0
  0
LINE
  5
B7
330
2
100
AcDbEntity
  8
0
100
AcDbLine
 10
53.6121092872977
 20
25.10300159453681
 30
0.0
 11
54.25415515346902
 21
25.52288252214385
 31
0.0
  0
ARC
  5
B8
330
2
100
AcDbEntity
  8
0
100
AcDbCircle
 10
53.92022297737532
 20
26.05096908619646
 30
0.0
 40
0.6248088647025104
100
AcDbArc
 50
302.3069534489001
 51
324.9765156397008
  0
LINE
  5
B9
330
2
100
AcDbEntity
  8
0
100
AcDbLine
 10
54.43188950240619
 20
25.69238369247967
 30
0.0
 11
54.44621525416028
 21
25.71373070578625
 31
0.0
  0
ARC
  5
BA
330
2
100
AcDbEntity
  8
0
100
AcDbCircle
 10
56.49288135428355
 20
24.27938913091907
 30
0.0
 40
2.499235458811782
100
AcDbArc
 50
122.3069534489
 51
144.9765156397008
  0
LINE
  5
BB
330
2
100
AcDbEntity
  8
0
100
AcDbLine
 10
55.15715264975177
 20
26.39173538723407
 30
0.0
 11
56.25007141439539
 21
27.1064752038908
 31
0.0
  0
ARC
  5
BC
330
2
100
AcDbEntity
  8
0
100
AcDbCircle
 10
57.62809851784459
 20
27.28866682259547
 30
0.0
 40
1.276151481318497
100
AcDbArc
 50
190.9690890528014
 51
224.3814861082013
  0
ARC
  5
BD
330
2
100
AcDbEntity
  8
0
100
AcDbCircle
 10
57.65486374554672
 20
27.30114506628467
 30
0.0
 40
1.276151481319045
100
AcDbArc
 50
190.9690890528014
 51
224.3814861082013
  0
LINE
  5
BE
330
2
100
AcDbEntity
  8
0
100
AcDbLine
 10
56.39714517001459
 20
27.0844112731192
 30
0.0
 11
56.40202757527629
 21
27.05831975117616
 31
0.0
  0
LINE
  5
BF
330
2
100
AcDbEntity
  8
0
100
AcDbLine
 10
57.44344864830168
 20
26.1782858808906
 30
0.0
 11
57.44833105356338
 21
26.15219435889526
 31
0.0
  0
LWPOLYLINE
  5
C0
330
2
100
AcDbEntity
  8
0
100
AcDbPolyline
 90
        9
 70
   128
 43
0.0
 10
57.26595165016965
 20
25.95550062880596
 10
57.31546083287231
 20
25.91943870639028
 10
57.36002392972011
 20
25.90102692579364
 10
57.39792840579679
 20
25.90097284147748
 10
57.42771761340839
 20
25.91927853187133
 10
57.44824676999923
 20
25.95524051953999
 10
57.45872695160347
 20
26.00747680546795
 10
57.45875541063958
 20
26.0739799784825
 10
57.44833105356338
 20
26.15219435889526
  0
LINE
  5
C1
330
2
100
AcDbEntity
  8
0
100
AcDbLine
 10
56.74279991102617
 20
26.40856332494639
 30
0.0
 11
57.26595165016965
 21
25.95550062880596
 31
0.0
  0
LWPOLYLINE
  5
C2
330
2
100
AcDbEntity
  8
0
100
AcDbPolyline
 90
        9
 70
   128
 43
0.0
 10
56.24074408375907
 20
27.1293160999025
 10
56.2656501258125
 20
27.14263127635547
 10
56.29129157905879
 20
27.1506228966515
 10
56.31645283388718
 20
27.15291209419638
 10
56.33994104584406
 20
27.14939034273135
 10
56.36064268608641
 20
27.14022460137324
 10
56.37757633162994
 20
27.12584939953803
 10
56.38993919237202
 20
27.10694623648095
 10
56.39714517001459
 20
27.0844112731192
  0
LWPOLYLINE
  5
C3
330
2
100
AcDbEntity
  8
0
100
AcDbPolyline
 90
        9
 70
   128
 43
0.0
 10
56.25007141439539
 20
27.1064752038908
 10
56.26922990830275
 20
27.11671764734837
 10
56.28895410308342
 20
27.12286504753581
 10
56.30830891449398
 20
27.12462596875639
 10
56.32637676985337
 20
27.12191692912365
 10
56.34230110852951
 20
27.11486635888434
 10
56.35532698970883
 20
27.10380851129867
 10
56.36483688256726
 20
27.08926761663537
 10
56.37037994231241
 20
27.0719330294823
  0
LINE
  5
C4
330
2
100
AcDbEntity
  8
0
100
AcDbLine
 10
55.14782531911544
 20
26.41457628329806
 30
0.0
 11
55.15715264975177
 21
26.39173538723407
 31
0.0
  0
LINE
  5
C5
330
2
100
AcDbEntity
  8
0
100
AcDbLine
 10
56.37037994231241
 20
27.0719330294823
 30
0.0
 11
56.37526234752181
 21
27.04584150748696
 31
0.0
  0
LINE
  5
C6
330
2
100
AcDbEntity
  8
0
100
AcDbLine
 10
55.14782531911544
 20
26.41457628329806
 30
0.0
 11
56.24074408375907
 21
27.1293160999025
 31
0.0
  0
ARC
  5
C7
330
2
100
AcDbEntity
  8
0
100
AcDbCircle
 10
57.36147258569587
 20
26.16480502034619
 30
0.0
 40
0.08307712349847
100
AcDbArc
 50
9.338634848198697
 51
48.50877017670016
  0
LINE
  5
C8
330
2
100
AcDbEntity
  8
0
100
AcDbLine
 10
56.71603468327169
 20
26.39608508125718
 30
0.0
 11
57.23918642241518
 21
25.94302238511676
 31
0.0
  0
ARC
  5
C9
330
2
100
AcDbEntity
  8
0
100
AcDbCircle
 10
56.48355402359493
 20
24.30223002698312
 30
0.0
 40
2.499235458812717
100
AcDbArc
 50
122.3069534489
 51
144.9765156396011
  0
ARC
  5
CA
330
2
100
AcDbEntity
  8
0
100
AcDbCircle
 10
53.4810753824679
 20
25.30218675740969
 30
0.0
 40
0.2384210840861403
100
AcDbArc
 50
290.8496560100995
 51
303.3389074182009
  0
LINE
  5
CB
330
2
100
AcDbEntity
  8
0
100
AcDbLine
 10
52.52775663826582
 20
24.68762712896932
 30
0.0
 11
53.56593350082182
 21
25.07937806577286
 31
0.0
  0
ARC
  5
CC
330
2
100
AcDbEntity
  8
0
100
AcDbCircle
 10
53.44582463481242
 20
22.34141357266464
 30
0.0
 40
2.519437813872449
100
AcDbArc
 50
111.3702925525008
 51
139.2451524088988
  0
ARC
  5
CD
330
2
100
AcDbEntity
  8
0
100
AcDbCircle
 10
53.45731678534161
 20
22.3321438516025
 30
0.0
 40
2.557703122589447
100
AcDbArc
 50
111.3690769225998
 51
139.425193879765
  0
LINE
  5
CE
330
2
100
AcDbEntity
  8
0
100
AcDbLine
 10
52.52535567557732
 20
24.7140115543113
 30
0.0
 11
53.56353253813336
 21
25.10576249111489
 31
0.0
  0
ARC
  5
CF
330
2
100
AcDbEntity
  8
0
100
AcDbCircle
 10
53.49140313753514
 20
25.29514987904537
 30
0.0
 40
0.2026579214753073
100
AcDbArc
 50
290.8496560101991
 51
303.3389074182009
  0
LINE
  5
D0
330
2
100
AcDbEntity
  8
0
100
AcDbLine
 10
53.60278195666137
 20
25.12584249054851
 30
0.0
 11
54.24482782283274
 21
25.54572341815561
 31
0.0
  0
ARC
  5
D1
330
2
100
AcDbEntity
  8
0
100
AcDbCircle
 10
53.91089564673904
 20
26.07380998220822
 30
0.0
 40
0.6248088647039182
100
AcDbArc
 50
302.3069534489001
 51
324.9765156396011
  0
LWPOLYLINE
  5
D2
330
2
100
AcDbEntity
  8
0
100
AcDbPolyline
 90
        5
 70
   128
 43
0.0
 10
57.38104579051423
 20
25.89209341625315
 10
57.3711631780946
 20
25.88849459778828
 10
57.33325870196563
 20
25.88854868210444
 10
57.28869560517011
 20
25.90696046270102
 10
57.23918642241518
 20
25.94302238511676
  0
LINE
  5
D3
330
2
100
AcDbEntity
  8
0
100
AcDbLine
 10
54.42256217176987
 20
25.71522458849142
 30
0.0
 11
54.43688792352395
 21
25.73657160179795
 31
0.0
  0
LINE
  5
D4
330
2
100
AcDbEntity
  8
0
100
AcDbLine
 10
54.24603076170843
 20
24.49039656081124
 30
0.0
 11
53.20785389915238
 21
24.09864562400765
 31
0.0
  0
ARC
  5
D5
330
2
100
AcDbEntity
  8
0
100
AcDbCircle
 10
54.16117264335446
 20
24.71320525244801
 30
0.0
 40
0.2384210840880971
100
AcDbArc
 50
290.8496560101991
 51
303.3389074180999
  0
ARC
  5
D6
330
2
100
AcDbEntity
  8
0
100
AcDbCircle
 10
54.11825401409783
 20
21.76705699403294
 30
0.0
 40
2.503024951681181
100
AcDbArc
 50
111.3288275699008
 51
136.5619213279004
  0
LINE
  5
D7
330
2
100
AcDbEntity
  8
0
100
AcDbLine
 10
45.94236906102231
 20
37.3032476867665
 30
0.0
 11
45.94236906102231
 21
30.37979901017241
 31
0.0
  0
LINE
  5
D8
330
2
100
AcDbEntity
  8
0
100
AcDbLine
 10
46.25626010450844
 20
30.35323995327479
 30
0.0
 11
46.25626010450844
 21
37.03141006907174
 31
0.0
  0
ARC
  5
D9
330
2
100
AcDbEntity
  8
0
100
AcDbCircle
 10
45.74088455496593
 20
37.06143426388894
 30
0.0
 40
0.5162493673872035
100
AcDbArc
 50
356.6658924962008
 51
73.0311807425005
  0
LINE
  5
DA
330
2
100
AcDbEntity
  8
0
100
AcDbLine
 10
45.71076237466513
 20
37.7735202971412
 30
0.0
 11
45.72620549697467
 21
37.7607115617576
 31
0.0
  0
ARC
  5
DB
330
2
100
AcDbEntity
  8
0
100
AcDbCircle
 10
45.39823675261442
 20
37.32461622944118
 30
0.0
 40
0.5445517272336198
100
AcDbArc
 50
357.7511011825993
 51
47.59820542879986
  0
LINE
  5
DC
330
2
100
AcDbEntity
  8
0
100
AcDbLine
 10
48.34460778389757
 20
36.42609692685068
 30
0.0
 11
48.34460778389757
 21
29.98241438161313
 31
0.0
  0
LINE
  5
DD
330
2
100
AcDbEntity
  8
0
100
AcDbLine
 10
48.65849882738365
 20
29.8930151503165
 30
0.0
 11
48.65849882738365
 21
36.15425930915592
 31
0.0
  0
ARC
  5
DE
330
2
100
AcDbEntity
  8
0
100
AcDbCircle
 10
48.14312327784126
 20
36.18428350397312
 30
0.0
 40
0.5162493673868874
100
AcDbArc
 50
356.6658924962008
 51
73.03118074370122
  0
LINE
  5
DF
330
2
100
AcDbEntity
  8
0
100
AcDbLine
 10
48.11300109754035
 20
36.89636953717315
 30
0.0
 11
48.12844421984988
 21
36.88356080184178
 31
0.0
  0
ARC
  5
E0
330
2
100
AcDbEntity
  8
0
100
AcDbCircle
 10
47.80047547548963
 20
36.44746546947312
 30
0.0
 40
0.5445517272337128
100
AcDbArc
 50
357.7511011825993
 51
47.5982054286991
  0
LINE
  5
E1
330
2
100
AcDbEntity
  8
0
100
AcDbLine
 10
49.70480230567068
 20
35.24813391687508
 30
0.0
 11
49.70480230567068
 21
29.51075507583744
 31
0.0
  0
LINE
  5
E2
330
2
100
AcDbEntity
  8
0
100
AcDbLine
 10
50.01869334915681
 20
29.36487724478002
 30
0.0
 11
50.01869334915681
 21
34.97629629923267
 31
0.0
  0
ARC
  5
E3
330
2
100
AcDbEntity
  8
0
100
AcDbCircle
 10
49.50331779961437
 20
35.00632049399752
 30
0.0
 40
0.5162493673870228
100
AcDbArc
 50
356.6658924962008
 51
73.0311807425005
  0
LINE
  5
E4
330
2
100
AcDbEntity
  8
0
100
AcDbLine
 10
49.47319561931351
 20
35.71840652724984
 30
0.0
 11
49.48863874162305
 21
35.70559779186619
 31
0.0
  0
ARC
  5
E5
330
2
100
AcDbEntity
  8
0
100
AcDbCircle
 10
49.1606699972628
 20
35.26950245954976
 30
0.0
 40
0.5445517272335968
100
AcDbArc
 50
357.7511011825993
 51
47.5982054286991
  0
LINE
  5
E6
330
2
100
AcDbEntity
  8
0
100
AcDbLine
 10
48.90690874378134
 20
35.80311055879241
 30
0.0
 11
48.90690874378134
 21
29.81471282302181
 31
0.0
  0
LINE
  5
E7
330
2
100
AcDbEntity
  8
0
100
AcDbLine
 10
49.22079978726742
 20
29.70533246959201
 30
0.0
 11
49.22079978726742
 21
35.53127294114995
 31
0.0
  0
ARC
  5
E8
330
2
100
AcDbEntity
  8
0
100
AcDbCircle
 10
48.70542423772497
 20
35.56129713596715
 30
0.0
 40
0.5162493673882512
100
AcDbArc
 50
356.6658924962008
 51
73.03118073830056
  0
ARC
  5
E9
330
2
100
AcDbEntity
  8
0
100
AcDbCircle
 10
48.36277643542576
 20
35.82447910146709
 30
0.0
 40
0.5445517272337427
100
AcDbArc
 50
357.7511011825993
 51
47.5982054286991
  0
LINE
  5
EA
330
2
100
AcDbEntity
  8
0
100
AcDbLine
 10
47.34736663569174
 20
36.92352687746222
 30
0.0
 11
47.34736663569174
 21
30.20421076092805
 31
0.0
  0
LINE
  5
EB
330
2
100
AcDbEntity
  8
0
100
AcDbLine
 10
47.66125767917787
 20
30.14389341840916
 30
0.0
 11
47.66125767917787
 21
36.65168925976753
 31
0.0
  0
ARC
  5
EC
330
2
100
AcDbEntity
  8
0
100
AcDbCircle
 10
47.14588212968772
 20
36.68171345458461
 30
0.0
 40
0.5162493673874513
100
AcDbArc
 50
356.6658924962008
 51
73.03118074139984
  0
LINE
  5
ED
330
2
100
AcDbEntity
  8
0
100
AcDbLine
 10
47.11575994933451
 20
37.39379948778469
 30
0.0
 11
47.13120307164411
 21
37.38099075245333
 31
0.0
  0
ARC
  5
EE
330
2
100
AcDbEntity
  8
0
100
AcDbCircle
 10
46.80323432733615
 20
36.94489542013696
 30
0.0
 40
0.5445517272338459
100
AcDbArc
 50
357.7511011825993
 51
47.5982054286991
  0
LINE
  5
EF
330
2
100
AcDbEntity
  8
0
100
AcDbLine
 10
50.38164672272421
 20
29.17262197406671
 30
0.0
 11
50.38164672272421
 21
34.29576323986856
 31
0.0
  0
ARC
  5
F0
330
2
100
AcDbEntity
  8
0
100
AcDbCircle
 10
49.86352022846682
 20
34.32520521859209
 30
0.0
 40
0.5189623244514941
100
AcDbArc
 50
356.7477266561999
 51
72.60205757269654
  0
LWPOLYLINE
  5
F1
330
2
100
AcDbEntity
  8
0
100
AcDbPolyline
 90
       89
 70
   128
 43
0.0
 10
47.00448914602794
 20
17.3502423360664
 10
46.50637884290978
 20
17.28317371601173
 10
45.99996842659334
 20
17.2340433702405
 10
45.48783844855165
 20
17.20310165563319
 10
44.97259860561666
 20
17.19050624416013
 10
44.45687444208959
 20
17.19632131911089
 10
43.94329396997853
 20
17.22051724817703
 10
43.43447427772628
 20
17.2629707345381
 10
42.93300819376475
 20
17.32346544490548
 10
42.44145107436986
 20
17.40169311206455
 10
41.96230778194421
 20
17.4972551057948
 10
41.49801992089931
 20
17.60966446405876
 10
41.05095339569436
 20
17.73834837457218
 10
40.6233863548573
 20
17.8826510936247
 10
40.2174975820904
 20
18.04183728760688
 10
39.83535539352562
 20
18.21509578013678
 10
39.47890709810042
 20
18.40154368569114
 10
39.14996907467719
 20
18.60023090850109
 10
38.85021751602403
 20
18.81014498400782
 10
38.58117988736876
 20
19.03021623813208
 10
38.34422714273802
 20
19.25932323830705
 10
38.14056673910295
 20
19.49629850770668
 10
37.97123648317273
 20
19.73993447473754
 10
37.83709924306339
 20
19.98898962629664
 10
37.73883855141622
 20
20.24219483445484
 10
37.67695512225396
 20
20.49825982350183
 10
37.65176429930785
 20
20.75587974491702
 10
37.66339444920936
 20
21.01374182673288
 10
37.71178630739394
 20
21.27053206276224
 10
37.79669328006378
 20
21.52494190888837
 10
37.91768270074618
 20
21.77567495089528
 10
38.07413803511668
 20
22.02145351056657
 10
38.26526202257719
 20
22.2610251567794
 10
38.49008073915735
 20
22.49316908732806
 10
38.74744856018424
 20
22.71670234993047
 10
39.03605399823698
 20
22.93048587034906
 10
39.3544263862014
 20
23.13343025670633
 10
39.70094337131343
 20
23.32450135101487
 10
40.07383918242214
 20
23.5027254987275
 10
40.47121362804216
 20
23.66719451041291
 10
40.8910417790031
 20
23.8170702897657
 10
41.33118428730415
 20
23.95158910409327
 10
41.78939828765396
 20
24.07006547635638
 10
42.26334882645324
 20
24.17189567820009
 10
42.75062076046265
 20
24.25656080619132
 10
43.24873106358086
 20
24.32362942624604
 10
43.75514147989725
 20
24.37275977201728
 10
44.26727145799122
 20
24.40370148662453
 10
44.78251130087392
 20
24.41629689809764
 10
45.29823546445334
 20
24.41048182314683
 10
45.81181593651211
 20
24.38628589408074
 10
46.3206356288166
 20
24.34383240771968
 10
46.82210171277819
 20
24.2833376973523
 10
47.31365883212072
 20
24.20511003019317
 10
47.79280212454631
 20
24.10954803646297
 10
48.25708998564363
 20
23.99713867819901
 10
48.70415651084863
 20
23.86845476768559
 10
49.13172355163329
 20
23.72415204863302
 10
49.53761232440024
 20
23.56496585465084
 10
49.91975451301732
 20
23.391707362121
 10
50.27620280839022
 20
23.20525945656664
 10
50.60514083181345
 20
23.00657223375663
 10
50.9048923905189
 20
22.79665815824996
 10
51.17393001917418
 20
22.57658690412563
 10
51.41088276375262
 20
22.34747990395073
 10
51.61454316738769
 20
22.11050463455103
 10
51.78387342337015
 20
21.86686866752018
 10
51.91801066347955
 20
21.61781351596113
 10
52.01627135507436
 20
21.36460830780288
 10
52.07815478428893
 20
21.10854331875589
 10
52.10334560723509
 20
20.85092339734069
 10
52.09171545733358
 20
20.59306131552483
 10
52.04332359909665
 20
20.33627107949548
 10
51.95841662642687
 20
20.08186123336935
 10
51.8374272057444
 20
19.83112819136244
 10
51.68097187142627
 20
19.58534963169114
 10
51.48984788391345
 20
19.34577798547832
 10
51.26502916733329
 20
19.11363405492972
 10
51.00766134630635
 20
18.89010079232724
 10
50.71905590825361
 20
18.67631727190871
 10
50.40068352034154
 20
18.47337288555144
 10
50.05416653522946
 20
18.2823017912429
 10
49.68127072406844
 20
18.10407764353027
 10
49.28389627850077
 20
17.9396086318448
 10
48.86406812753978
 20
17.78973285249208
 10
48.42392561918649
 20
17.65521403816444
 10
47.96571161888903
 20
17.5367376659014
 10
47.49176108008964
 20
17.43490746405768
 10
47.00448914602794
 20
17.3502423360664
  0
LWPOLYLINE
  5
F2
330
2
100
AcDbEntity
  8
0
100
AcDbPolyline
 90
       98
 70
   128
 43
0.0
 10
37.1850022029418
 20
18.70961042546361
 10
36.91365044861357
 20
18.96323628282818
 10
36.67570207742887
 20
19.22511251761676
 10
36.47215512756651
 20
19.49414072985462
 10
36.30386334562564
 20
19.76919252168
 10
36.17153260586127
 20
20.04911423040267
 10
36.07571794940691
 20
20.33273176697747
 10
36.01682125619698
 20
20.61885554100684
 10
35.9950895594244
 20
20.90628544988226
 10
36.01061400938625
 20
21.19381591265488
 10
36.0633294911118
 20
21.4802409267154
 10
36.15301489765744
 20
21.76435912593934
 10
36.27929405713144
 20
22.04497881989334
 10
36.44163731093789
 20
22.32092299207983
 10
36.63936373502685
 20
22.59103423671013
 10
36.87164399604137
 20
22.85417961339596
 10
37.13750382985785
 20
23.10925539888438
 10
37.43582812792431
 20
23.35519171679363
 10
37.76536561455078
 20
23.59095702468562
 10
38.12473409485392
 20
23.81556244094935
 10
38.51242625263814
 20
24.02806589240026
 10
38.92681597226613
 20
24.22757606564528
 10
39.36616515914477
 20
24.41325614583883
 10
39.82863103021112
 20
24.58432732603757
 10
40.31227384281891
 20
24.74007207433459
 10
40.81506503095164
 20
24.8798371431335
 10
41.33489571360541
 20
25.00303630915528
 10
41.86958554029081
 20
25.10915283230384
 10
42.41689183603909
 20
25.19774162292686
 10
42.97451900803707
 20
25.26843110894402
 10
43.5401281741822
 20
25.32092479405503
 10
44.11134697296228
 20
25.35500250142758
 10
44.68577951432519
 20
25.37052129742699
 10
45.26101642853393
 20
25.36741609078132
 10
45.83464497204613
 20
25.34569990577171
 10
46.4042591474132
 20
25.30546382766738
 10
46.96746979482549
 20
25.24687662056334
 10
47.52191461308348
 20
25.17018401955602
 10
48.06526806793499
 20
25.07570770008215
 10
48.59525114618708
 20
24.9638439286581
 10
49.10964091457731
 20
24.83506190077446
 10
49.60627984375083
 20
24.68990177300828
 10
50.08308485737245
 20
24.52897239746244
 10
50.53805606949334
 20
24.35294876779114
 10
50.96928517281833
 20
24.1625691882686
 10
51.37496344256106
 20
23.95863217709734
 10
51.75338932308648
 20
23.74199311687653
 10
52.10297556469368
 20
23.51356066714158
 10
52.42225588129804
 20
23.27429295299419
 10
52.70989110023652
 20
23.02519354640771
 10
52.96467477945225
 20
22.76730725679147
 10
53.18553826762808
 20
22.50171574886218
 10
53.37155518654999
 20
22.2295330057679
 10
53.52194531666021
 20
21.95190065650558
 10
53.63607786942321
 20
21.66998318756561
 10
53.71347413327078
 20
21.38496305889191
 10
53.75380948135324
 20
21.09803574388025
 10
53.75691473325151
 20
20.81040471543957
 10
53.72277686442294
 20
20.52327639804872
 10
53.65153906097532
 20
20.23785510767556
 10
53.54350011903654
 20
19.95533800032882
 10
53.39911319143971
 20
19.67691005105672
 10
53.21898388711327
 20
19.40373908332543
 10
53.00386773096954
 20
19.1369708711677
 10
52.75466699496575
 20
18.87772433314507
 10
52.472426913572
 20
18.6270868394148
 10
52.15833129975948
 20
18.38610965057955
 10
51.81369757971521
 20
18.15580350887819
 10
51.43997126699929
 20
17.93713439814553
 10
51.03871989968741
 20
17.73101949278685
 10
50.61162646539947
 20
17.53832331020635
 10
50.16048234251775
 20
17.35985408526056
 10
49.68717978615882
 20
17.19636037981695
 10
49.19370399180451
 20
17.04852794337245
 10
48.68212476845258
 20
16.91697683645134
 10
48.15458785707062
 20
16.802258830227
 10
47.61330593081658
 20
16.7048550917853
 10
47.0605493142749
 20
16.62517416632766
 10
46.4986364607343
 20
16.56355026332647
 10
45.92992422794805
 20
16.52024185479195
 10
45.3567979927111
 20
16.49543059130212
 10
44.78166164563532
 20
16.48922053987485
 10
44.20692750844574
 20
16.50163774765997
 10
43.63500621575565
 20
16.53263013259976
 10
43.06829660432174
 20
16.58206770179328
 10
42.50917565116231
 20
16.64974309688142
 10
41.95998850385445
 20
16.73537246383955
 10
41.42303864418273
 20
16.83859664325177
 10
40.90057822641603
 20
16.95898267709293
 10
40.39479863117503
 20
17.09602562448361
 10
39.90782127376082
 20
17.24915067966998
 10
39.44168870654698
 20
17.41771558291612
 10
38.99835605148076
 20
17.60101331452631
 10
38.57968279973142
 20
17.79827506001692
 10
38.18742501249221
 20
18.00867343513727
 10
37.82322795521305
 20
18.2313259559877
 10
37.48861919686266
 20
18.46529874047508
 10
37.1850022029418
 20
18.70961042546361
  0
LWPOLYLINE
  5
F3
330
2
100
AcDbEntity
  8
0
100
AcDbPolyline
 90
       52
 70
   128
 43
0.0
 10
35.99532827157503
 20
20.81437969104343
 10
35.98410495627348
 20
21.01499084962677
 10
35.99964860475314
 20
21.30287689026602
 10
36.0524292777248
 20
21.58965611509308
 10
36.14222559468874
 20
21.87412567238943
 10
36.26866091877583
 20
22.15509239795102
 10
36.43120493624735
 20
22.43137781966277
 10
36.62917588093615
 20
22.70182310044515
 10
36.86174339405528
 20
22.96529389885734
 10
37.12793200650583
 20
23.22068512679573
 10
37.42662523076012
 20
23.46692558467089
 10
37.75657024369787
 20
23.70298245449618
 10
38.11638314119409
 20
23.9278656315841
 10
38.50455474295916
 20
24.14063187784814
 10
38.91945692236033
 20
24.34038877771906
 10
39.35934943548796
 20
24.52629848124349
 10
39.82238722027296
 20
24.69758121861702
 10
40.30662813531404
 20
24.85351857045833
 10
40.81004110597723
 20
24.99345648137239
 10
41.33051464324274
 20
25.11680800304413
 10
41.86586570029703
 20
25.22305575639996
 10
42.41384882868243
 20
25.31175410137957
 10
42.97216559675513
 20
25.38253100636627
 10
43.53847422995886
 20
25.43508960838256
 10
44.11039943305127
 20
25.46920945834813
 10
44.68554235305788
 20
25.48474744585514
 10
45.26149064057881
 20
25.48163839911877
 10
45.83582856843253
 20
25.45989535853323
 10
46.40614716374511
 20
25.41960952205443
 10
46.97005431205025
 20
25.36094986241045
 10
47.52518479086939
 20
25.28416241859657
 10
48.06921019008047
 20
25.18956926390638
 10
48.59984867795822
 20
25.07756715478786
 10
49.11487457244414
 20
24.9486258671684
 10
49.61212767584777
 20
24.80328622548069
 10
50.08952233588712
 20
24.64215783474754
 10
50.54505619341364
 20
24.46591652341624
 10
50.9768185811422
 20
24.27530150881791
 10
51.38299853755132
 20
24.07111229655163
 10
51.76189240283719
 20
23.85420532718626
 10
52.11191096432907
 20
23.62549038383031
 10
52.43158612259367
 20
23.38592677652406
 10
52.71957704893111
 20
23.13651931826149
 10
52.97467580930834
 20
22.87831411058437
 10
53.19581243087418
 20
22.61239415585618
 10
53.382059389765
 20
22.3398748148403
 10
53.53263550152167
 20
22.0618991283111
 10
53.646909197642
 20
21.7796330229433
 10
53.72440117445439
 20
21.49426042083769
 10
53.76478640374728
 20
21.20697827386914
 10
53.76789549578865
 20
20.91899154320856
 10
53.75978163491556
 20
20.81437969104343
  0
SPLINE
  5
F4
330
2
100
AcDbEntity
  8
0
100
AcDbSpline
210
0.0
220
0.0
230
1.0
 70
     8
 71
     3
 72
     8
 73
     4
 74
     0
 42
0.000000001
 43
0.0000000001
 40
0.0
 40
0.0
 40
0.0
 40
0.0
 40
1.0
 40
1.0
 40
1.0
 40
1.0
 10
39.28794370714541
 20
29.12302679098388
 30
0.0
 10
39.28538191890175
 20
29.12151399591824
 30
0.0
 10
39.28285898833099
 20
29.11965958015242
 30
0.0
 10
39.28037323104917
 20
29.11747697964211
 30
0.0
  0
LWPOLYLINE
  5
F5
330
2
100
AcDbEntity
  8
0
100
AcDbPolyline
 90
       25
 70
   128
 43
0.0
 10
39.28794370713303
 20
29.1230267909728
 10
39.64469085764523
 20
29.31886761846369
 10
40.02881868767866
 20
29.50130175618961
 10
40.43831726902062
 20
29.66937462737781
 10
40.87104392244907
 20
29.82220679977741
 10
41.32473442903131
 20
29.95899858724965
 10
41.79701487757523
 20
30.07903423419725
 10
42.28541408618724
 20
30.18168566049372
 10
42.78737653222902
 20
30.26641574813181
 10
43.30027572428543
 20
30.33278115143776
 10
43.82142794499424
 20
30.38043461703995
 10
44.34810629332827
 20
30.40912680077509
 10
44.87755495324529
 20
30.41870757232374
 10
45.40700361321467
 20
30.40912680077509
 10
45.9336819615487
 20
30.38043461703995
 10
46.45483418220521
 20
30.33278115143776
 10
46.96773337426157
 20
30.26641574813181
 10
47.4696958203034
 20
30.18168566049372
 10
47.95809502891541
 20
30.07903423419725
 10
48.43037547751163
 20
29.95899858724965
 10
48.88406598409381
 20
29.82220679977741
 10
49.31679263747003
 20
29.66937462737781
 10
49.72629121886427
 20
29.50130175618961
 10
50.11041904884542
 20
29.31886761846369
 10
50.46716619935756
 20
29.1230267909728
  0
SPLINE
  5
F6
330
2
100
AcDbEntity
  8
0
100
AcDbSpline
210
0.0
220
0.0
230
1.0
 70
     8
 71
     3
 72
     8
 73
     4
 74
     0
 42
0.000000001
 43
0.0000000001
 40
0.0
 40
0.0
 40
0.0
 40
0.0
 40
1.0
 40
1.0
 40
1.0
 40
1.0
 10
50.47473667546933
 20
29.11747697964211
 30
0.0
 10
50.47226096540635
 20
29.11965075826737
 30
0.0
 10
50.46970858495012
 20
29.12152545364051
 30
0.0
 10
50.46716619937303
 20
29.12302679098388
 30
0.0
  0
ARC
  5
F7
330
2
100
AcDbEntity
  8
0
100
AcDbCircle
 10
47.74546960385174
 20
20.63247067357202
 30
0.0
 40
5.59859720919667
100
AcDbArc
 50
55.78013499239937
 51
56.76472523459747
  0
SPLINE
  5
F8
330
2
100
AcDbEntity
  8
0
100
AcDbSpline
210
0.0
220
0.0
230
1.0
 70
     8
 71
     3
 72
    12
 73
     8
 74
     0
 42
0.000000001
 43
0.0000000001
 40
0.0
 40
0.0
 40
0.0
 40
0.0
 40
0.2499999999999991
 40
0.2499999999999991
 40
0.4999999999999983
 40
0.4999999999999983
 40
1.0
 40
1.0
 40
1.0
 40
1.0
 10
50.95866741394218
 20
25.13032383246997
 30
0.0
 10
50.95819668021056
 20
25.14219846809397
 30
0.0
 10
50.95615757097681
 20
25.15492626405694
 30
0.0
 10
50.94920513583218
 20
25.18084995739122
 30
0.0
 10
50.94430442465887
 20
25.19388987534728
 30
0.0
 10
50.92648637043442
 20
25.23023360191644
 30
0.0
 10
50.9102942094068
 20
25.2507553232175
 30
0.0
 10
50.89395328178785
 20
25.26187033666548
 30
0.0
  0
LINE
  5
F9
330
2
100
AcDbEntity
  8
0
100
AcDbLine
 10
50.99321813500665
 20
24.25848419438171
 30
0.0
 11
50.95866741392057
 21
25.13032383246332
 31
0.0
  0
LINE
  5
FA
330
2
100
AcDbEntity
  8
0
100
AcDbLine
 10
38.79644249257001
 20
25.13032383246332
 30
0.0
 11
38.76213595171208
 21
24.26464574492343
 31
0.0
  0
SPLINE
  5
FB
330
2
100
AcDbEntity
  8
0
100
AcDbSpline
210
0.0
220
0.0
230
1.0
 70
     8
 71
     3
 72
    12
 73
     8
 74
     0
 42
0.000000001
 43
0.0000000001
 40
0.0
 40
0.0
 40
0.0
 40
0.0
 40
0.2500000000000007
 40
0.2500000000000007
 40
0.5000000000000015
 40
0.5000000000000015
 40
1.0
 40
1.0
 40
1.0
 40
1.0
 10
38.86115662473065
 20
25.26187033666554
 30
0.0
 10
38.85298535052527
 20
25.25631227871452
 30
0.0
 10
38.84493182682092
 20
25.24856248283811
 30
0.0
 10
38.82974018574919
 20
25.22944798705783
 30
0.0
 10
38.8227226312215
 20
25.21818667154952
 30
0.0
 10
38.80488492867391
 20
25.18183510588301
 30
0.0
 10
38.79738403854253
 20
25.154075084017
 30
0.0
 10
38.79644249257632
 20
25.13032383246997
 30
0.0
  0
ARC
  5
FC
330
2
100
AcDbEntity
  8
0
100
AcDbCircle
 10
42.00964030331891
 20
20.63247067263035
 30
0.0
 40
5.598597210330753
100
AcDbArc
 50
123.2359827413535
 51
124.2198650074981
  0
LINE
  5
FD
330
2
100
AcDbEntity
  8
0
100
AcDbLine
 10
51.46694270856142
 20
24.56184265288624
 30
0.0
 11
51.47374491208643
 21
24.01916233672193
 31
0.0
  0
LINE
  5
FE
330
2
100
AcDbEntity
  8
0
100
AcDbLine
 10
51.46694270856142
 20
24.56184265288624
 30
0.0
 11
51.55011903098284
 21
27.35726186999727
 31
0.0
  0
LINE
  5
FF
330
2
100
AcDbEntity
  8
0
100
AcDbLine
 10
38.28816719792917
 20
24.56184265288624
 30
0.0
 11
38.28135406245264
 21
24.01829018479532
 31
0.0
  0
LINE
  5
100
330
2
100
AcDbEntity
  8
0
100
AcDbLine
 10
38.20499087556004
 20
27.35726186999727
 30
0.0
 11
38.28816719792917
 21
24.56184265288624
 31
0.0
  0
SPLINE
  5
101
330
2
100
AcDbEntity
  8
0
100
AcDbSpline
210
0.0
220
0.0
230
1.0
 70
     8
 71
     3
 72
    10
 73
     6
 74
     0
 42
0.000000001
 43
0.0000000001
 40
0.0
 40
0.0
 40
0.0
 40
0.0
 40
0.4606811165303391
 40
0.918853867887876
 40
1.0
 40
1.0
 40
1.0
 40
1.0
 10
50.47473667546933
 20
29.11747697964211
 30
0.0
 10
50.47671438400368
 20
29.11513801620572
 30
0.0
 10
50.48065903263637
 20
29.11047282476807
 30
0.0
 10
50.48292035704912
 20
29.10368970384991
 30
0.0
 10
50.48273967640074
 20
29.09967462729037
 30
0.0
 10
50.48271249111905
 20
29.09907051728618
 30
0.0
  0
SPLINE
  5
102
330
2
100
AcDbEntity
  8
0
100
AcDbSpline
210
0.0
220
0.0
230
1.0
 70
     8
 71
     3
 72
    10
 73
     6
 74
     0
 42
0.000000001
 43
0.0000000001
 40
0.0
 40
0.0
 40
0.0
 40
0.0
 40
0.0931642053585279
 40
0.5453960097135929
 40
1.0
 40
1.0
 40
1.0
 40
1.0
 10
39.27242845949939
 20
29.09907717316662
 30
0.0
 10
39.27239993556964
 20
29.09976993889069
 30
0.0
 10
39.27223295258051
 20
29.1038254842598
 30
0.0
 10
39.27451410147177
 20
29.11058242275078
 30
0.0
 10
39.27841678485521
 20
29.11517478963066
 30
0.0
 10
39.28037323104917
 20
29.11747697964211
 30
0.0
  0
LINE
  5
103
330
2
100
AcDbEntity
  8
0
100
AcDbLine
 10
38.23282976898907
 20
24.00471027325171
 30
0.0
 11
38.23095833541641
 21
24.37451927879249
 31
0.0
  0
LINE
  5
104
330
2
100
AcDbEntity
  8
0
100
AcDbLine
 10
38.06907887126892
 20
24.16831642152966
 30
0.0
 11
38.07922253399988
 21
24.50919312824863
 31
0.0
  0
LINE
  5
105
330
2
100
AcDbEntity
  8
0
100
AcDbLine
 10
38.23095833541641
 20
24.37451927879249
 30
0.0
 11
38.21842593934901
 21
24.4690085665178
 31
0.0
  0
LINE
  5
106
330
2
100
AcDbEntity
  8
0
100
AcDbLine
 10
51.52228013755387
 20
24.00471027325171
 30
0.0
 11
51.52415157112653
 21
24.37451927879249
 31
0.0
  0
LINE
  5
107
330
2
100
AcDbEntity
  8
0
100
AcDbLine
 10
51.52415157112653
 20
24.37451927879249
 30
0.0
 11
51.53668396719393
 21
24.4690085665178
 31
0.0
  0
LINE
  5
108
330
2
100
AcDbEntity
  8
0
100
AcDbLine
 10
51.67588737249076
 20
24.50919312824863
 30
0.0
 11
51.68577277130271
 21
24.17699535501043
 31
0.0
  0
SPLINE
  5
109
330
2
100
AcDbEntity
  8
0
100
AcDbSpline
210
0.0
220
0.0
230
1.0
 70
     8
 71
     3
 72
     8
 73
     4
 74
     0
 42
0.000000001
 43
0.0000000001
 40
0.0
 40
0.0
 40
0.0
 40
0.0
 40
1.0
 40
1.0
 40
1.0
 40
1.0
 10
37.98796987417495
 20
27.99822284065283
 30
0.0
 10
37.98670506114388
 20
27.99715723125507
 30
0.0
 10
37.98538572777057
 20
27.99567892409573
 30
0.0
 10
37.98405652800113
 20
27.99382737017606
 30
0.0
  0
SPLINE
  5
10A
330
2
100
AcDbEntity
  8
0
100
AcDbSpline
210
0.0
220
0.0
230
1.0
 70
     8
 71
     3
 72
     8
 73
     4
 74
     0
 42
0.000000001
 43
0.0000000001
 40
0.0
 40
0.0
 40
0.0
 40
0.0
 40
1.0
 40
1.0
 40
1.0
 40
1.0
 10
37.98783596584411
 20
24.62779411418654
 30
0.0
 10
37.98544978224533
 20
25.75208237016767
 30
0.0
 10
37.98543054757147
 20
26.87558204197563
 30
0.0
 10
37.98796987417495
 20
27.99822284065283
 30
0.0
  0
LWPOLYLINE
  5
10B
330
2
100
AcDbEntity
  8
0
100
AcDbPolyline
 90
        3
 70
   128
 43
0.0
 10
37.98352233006722
 20
24.48484853086296
 10
37.98513816797015
 20
24.53839650609592
 10
37.98783596585673
 20
24.62779411420962
  0
ARC
  5
10C
330
2
100
AcDbEntity
  8
0
100
AcDbCircle
 10
40.52290813148959
 20
22.37124694751878
 30
0.0
 40
3.303905552759556
100
AcDbArc
 50
138.7392205193999
 51
140.2284442542999
  0
SPLINE
  5
10D
330
2
100
AcDbEntity
  8
0
100
AcDbSpline
210
0.0
220
0.0
230
1.0
 70
     8
 71
     3
 72
    12
 73
     8
 74
     0
 42
0.000000001
 43
0.0000000001
 40
0.0
 40
0.0
 40
0.0
 40
0.0
 40
0.2499999999999984
 40
0.2499999999999984
 40
0.4999999999999968
 40
0.4999999999999968
 40
1.0
 40
1.0
 40
1.0
 40
1.0
 10
38.07922253402592
 20
24.5091931282642
 30
0.0
 10
38.07957293873693
 20
24.52096355589947
 30
0.0
 10
38.0787873291647
 20
24.53124507361804
 30
0.0
 10
38.07509569795235
 20
24.54795073508746
 30
0.0
 10
38.07219126487212
 20
24.55423119983988
 30
0.0
 10
38.06108211910606
 20
24.56552323635686
 30
0.0
 10
38.05039160656389
 20
24.56276387942478
 30
0.0
 10
38.03931030235458
 20
24.55013054348109
 30
0.0
  0
ARC
  5
10E
330
2
100
AcDbEntity
  8
0
100
AcDbCircle
 10
39.69214897022693
 20
26.70303579403253
 30
0.0
 40
2.140963027320459
100
AcDbArc
 50
142.9219549761017
 51
176.6743833122004
  0
SPLINE
  5
10F
330
2
100
AcDbEntity
  8
0
100
AcDbSpline
210
0.0
220
0.0
230
1.0
 70
     8
 71
     3
 72
    12
 73
     8
 74
     0
 42
0.000000001
 43
0.0000000001
 40
0.0
 40
0.0
 40
0.0
 40
0.0
 40
0.25
 40
0.25
 40
0.5
 40
0.5
 40
1.0
 40
1.0
 40
1.0
 40
1.0
 10
51.71579960416386
 20
24.55013054348103
 30
0.0
 10
51.71025840250388
 20
24.55644783797811
 30
0.0
 10
51.70487012774469
 20
24.56033898104375
 30
0.0
 10
51.69487444457843
 20
24.56303734790691
 30
0.0
 10
51.69034924145478
 20
24.56177235375452
 30
0.0
 10
51.67922625339395
 20
24.55050148186586
 30
0.0
 10
51.67518650463455
 20
24.53273594645537
 30
0.0
 10
51.67588737249264
 20
24.50919312826414
 30
0.0
  0
ARC
  5
110
330
2
100
AcDbEntity
  8
0
100
AcDbCircle
 10
49.23220177515793
 20
22.37124694757108
 30
0.0
 40
3.303905552640852
100
AcDbArc
 50
39.77155574570004
 51
41.26077948059999
  0
LWPOLYLINE
  5
111
330
2
100
AcDbEntity
  8
0
100
AcDbPolyline
 90
        3
 70
   128
 43
0.0
 10
51.7672739406862
 20
24.62779411420962
 10
51.76888991115572
 20
24.57424618381077
 10
51.77158757642337
 20
24.48484853086296
  0
SPLINE
  5
112
330
2
100
AcDbEntity
  8
0
100
AcDbSpline
210
0.0
220
0.0
230
1.0
 70
     8
 71
     3
 72
     8
 73
     4
 74
     0
 42
0.000000001
 43
0.0000000001
 40
0.0
 40
0.0
 40
0.0
 40
0.0
 40
1.0
 40
1.0
 40
1.0
 40
1.0
 10
51.76714003234349
 20
27.99822284065277
 30
0.0
 10
51.76967935886603
 20
26.87558207780393
 30
0.0
 10
51.7696601242036
 20
25.75208233738079
 30
0.0
 10
51.76727394067438
 20
24.62779411418643
 30
0.0
  0
SPLINE
  5
113
330
2
100
AcDbEntity
  8
0
100
AcDbSpline
210
0.0
220
0.0
230
1.0
 70
     8
 71
     3
 72
     8
 73
     4
 74
     0
 42
0.000000001
 43
0.0000000001
 40
0.0
 40
0.0
 40
0.0
 40
0.0
 40
1.0
 40
1.0
 40
1.0
 40
1.0
 10
51.77105337851731
 20
27.99382737017606
 30
0.0
 10
51.76971403472407
 20
27.99569305455799
 30
0.0
 10
51.76840997838815
 20
27.99715290667325
 30
0.0
 10
51.76714003234349
 20
27.99822284065277
 30
0.0
  0
ARC
  5
114
330
2
100
AcDbEntity
  8
0
100
AcDbCircle
 10
50.08503023718782
 20
26.71115651640685
 30
0.0
 40
2.118470805143799
100
AcDbArc
 50
3.140980006699501
 51
37.26268170499874
  0
ELLIPSE
  5
115
330
2
100
AcDbEntity
  8
0
100
AcDbEllipse
 10
38.16621719160543
 20
24.42288314093025
 30
0.0
 11
0.015782597803888
 21
0.1041194064414565
 31
0.0
210
0.0
220
0.0
230
1.0
 40
0.4926395442000001
 41
5.244502075587099
 42
6.218569152574726
  0
ELLIPSE
  5
116
330
2
100
AcDbEntity
  8
0
100
AcDbEllipse
 10
51.58889271488516
 20
24.42288314093025
 30
0.0
 11
-0.0157825978038285
 21
0.1041194064414565
 31
0.0
210
0.0
220
0.0
230
1.0
 40
0.4926395442
 41
0.0646161546053534
 42
1.038683231592493
  0
LINE
  5
117
330
2
100
AcDbEntity
  8
0
100
AcDbLine
 10
38.56761955029219
 20
27.6816418082845
 30
0.0
 11
38.56243675841665
 21
27.81525519960735
 31
0.0
  0
LINE
  5
118
330
2
100
AcDbEntity
  8
0
100
AcDbLine
 10
38.20499087556004
 20
27.35726186999727
 30
0.0
 11
38.56761955029219
 21
27.6816418082845
 31
0.0
  0
SPLINE
  5
119
330
2
100
AcDbEntity
  8
0
100
AcDbSpline
210
0.0
220
0.0
230
1.0
 70
     8
 71
     3
 72
     8
 73
     4
 74
     0
 42
0.000000001
 43
0.0000000001
 40
0.0
 40
0.0
 40
0.0
 40
0.0
 40
1.0
 40
1.0
 40
1.0
 40
1.0
 10
51.76714003234349
 20
27.99822284065277
 30
0.0
 10
51.76510536574636
 20
27.99993705436947
 30
0.0
 10
51.76165992050119
 20
28.00016470193521
 30
0.0
 10
51.75710836349509
 20
27.9989468808518
 30
0.0
  0
SPLINE
  5
11A
330
2
100
AcDbEntity
  8
0
100
AcDbSpline
210
0.0
220
0.0
230
1.0
 70
     8
 71
     3
 72
     8
 73
     4
 74
     0
 42
0.000000001
 43
0.0000000001
 40
0.0
 40
0.0
 40
0.0
 40
0.0
 40
1.0
 40
1.0
 40
1.0
 40
1.0
 10
37.98796987417495
 20
27.99822284065283
 30
0.0
 10
37.99000454077213
 20
27.99993705436947
 30
0.0
 10
37.9934499860172
 20
28.00016470193521
 30
0.0
 10
37.99800154304785
 20
27.9989468808518
 30
0.0
  0
LINE
  5
11B
330
2
100
AcDbEntity
  8
0
100
AcDbLine
 10
51.55011903098284
 20
27.35726186999727
 30
0.0
 11
51.18749035619839
 21
27.6816418082845
 31
0.0
  0
LINE
  5
11C
330
2
100
AcDbEntity
  8
0
100
AcDbLine
 10
51.18749035619839
 20
27.6816418082845
 30
0.0
 11
51.19267314807394
 21
27.81525519960735
 31
0.0
  0
LINE
  5
11D
330
2
100
AcDbEntity
  8
0
100
AcDbLine
 10
38.56761955029219
 20
27.6816418082845
 30
0.0
 11
39.19226526652199
 21
28.2226008669436
 31
0.0
  0
LINE
  5
11E
330
2
100
AcDbEntity
  8
0
100
AcDbLine
 10
50.56179912869902
 20
28.22350630621838
 30
0.0
 11
51.18749035619839
 21
27.6816418082845
 31
0.0
  0
ELLIPSE
  5
11F
330
2
100
AcDbEntity
  8
0
100
AcDbEllipse
 10
51.21877986077402
 20
27.78909346850367
 30
0.0
 11
-0.0149125562411956
 21
0.0501461536244199
 31
0.0
210
0.0
220
0.0
230
0.9999999999999998
 40
0.4286267729999997
 41
6.279748432445777
 42
7.183246669445687
  0
LINE
  5
120
330
2
100
AcDbEntity
  8
0
100
AcDbLine
 10
50.54426695806796
 20
28.41808849941936
 30
0.0
 11
51.2104645988801
 21
27.8411444185636
 31
0.0
  0
ELLIPSE
  5
121
330
2
100
AcDbEntity
  8
0
100
AcDbEllipse
 10
38.53633004571657
 20
27.78909346850367
 30
0.0
 11
0.0149125562411956
 21
0.0501461536244199
 31
0.0
210
0.0
220
0.0
230
0.9999999999999998
 40
0.4286267729999997
 41
5.3831239449135
 42
6.286622181913805
  0
LINE
  5
122
330
2
100
AcDbEntity
  8
0
100
AcDbLine
 10
38.54464530766285
 20
27.8411444185636
 30
0.0
 11
39.21002162598359
 21
28.41737721331657
 31
0.0
  0
SPLINE
  5
123
330
2
100
AcDbEntity
  8
0
100
AcDbSpline
210
0.0
220
0.0
230
1.0
 70
     8
 71
     3
 72
    10
 73
     6
 74
     0
 42
0.000000001
 43
0.0000000001
 40
0.0
 40
0.0
 40
0.0
 40
0.0
 40
0.3852248288516202
 40
0.9303658622867883
 40
1.0
 40
1.0
 40
1.0
 40
1.0
 10
23.41997623720488
 20
15.12165561060226
 30
0.0
 10
23.40140416881133
 20
15.10680211474863
 30
0.0
 10
23.35655031430528
 20
15.07092907531097
 30
0.0
 10
23.31590336443685
 20
15.01967365117281
 30
0.0
 10
23.30519461094525
 20
14.9833211521053
 30
0.0
 10
23.30398165562386
 20
14.97920359003529
 30
0.0
  0
SPLINE
  5
124
330
2
100
AcDbEntity
  8
0
100
AcDbSpline
210
0.0
220
0.0
230
1.0
 70
     8
 71
     3
 72
    10
 73
     6
 74
     0
 42
0.000000001
 43
0.0000000001
 40
0.0
 40
0.0
 40
0.0
 40
0.0
 40
0.178406816138169
 40
0.5961940725780118
 40
1.0
 40
1.0
 40
1.0
 40
1.0
 10
23.69404384137732
 20
15.13557203004149
 30
0.0
 10
23.68502475627594
 20
15.14259117226436
 30
0.0
 10
23.65488507218811
 20
15.16604751254596
 30
0.0
 10
23.58808043540631
 20
15.1776990113068
 30
0.0
 10
23.53492670870165
 20
15.16781174498663
 30
0.0
 10
23.50880211281947
 20
15.16295223930365
 30
0.0
  0
SPLINE
  5
125
330
2
100
AcDbEntity
  8
0
100
AcDbSpline
210
0.0
220
0.0
230
1.0
 70
     8
 71
     3
 72
    12
 73
     8
 74
     0
 42
0.000000001
 43
0.0000000001
 40
0.0
 40
0.0
 40
0.0
 40
0.0
 40
0.0291081485275992
 40
0.324446051290663
 40
0.5915218762100177
 40
0.8482103367107132
 40
1.0
 40
1.0
 40
1.0
 40
1.0
 10
23.32307111396915
 20
15.01694797702566
 30
0.0
 10
23.32103579353347
 20
15.01437644514959
 30
0.0
 10
23.2983496485237
 20
14.98571356533176
 30
0.0
 10
23.27971447398062
 20
14.91996401405976
 30
0.0
 10
23.27525467188928
 20
14.83303776391614
 30
0.0
 10
23.29453993296283
 20
14.76189732435159
 30
0.0
 10
23.32323304552622
 20
14.73048537956112
 30
0.0
 10
23.333895349432
 20
14.71881276297455
 30
0.0
  0
LINE
  5
126
330
2
100
AcDbEntity
  8
0
100
AcDbLine
 10
23.758631334028
 20
15.09638428736241
 30
0.0
 11
23.69404384137732
 21
15.13557203004149
 31
0.0
  0
LINE
  5
127
330
2
100
AcDbEntity
  8
0
100
AcDbLine
 10
23.333895349432
 20
14.71881276297455
 30
0.0
 11
23.38189923936545
 21
14.6613723395418
 31
0.0
  0
SPLINE
  5
128
330
2
100
AcDbEntity
  8
0
100
AcDbSpline
210
0.0
220
0.0
230
1.0
 70
     8
 71
     3
 72
     9
 73
     5
 74
     0
 42
0.000000001
 43
0.0000000001
 40
0.0
 40
0.0
 40
0.0
 40
0.0
 40
0.0304439907759075
 40
1.0
 40
1.0
 40
1.0
 40
1.0
 10
14.48315295653969
 20
12.55178097932133
 30
0.0
 10
14.48227173125906
 20
12.55147057720484
 30
0.0
 10
14.45332594399147
 20
12.54127473531463
 30
0.0
 10
14.43007723720069
 20
12.5194250032286
 30
0.0
 10
14.40753631382495
 20
12.49824046418467
 30
0.0
  0
SPLINE
  5
129
330
2
100
AcDbEntity
  8
0
100
AcDbSpline
210
0.0
220
0.0
230
1.0
 70
     8
 71
     3
 72
     9
 73
     5
 74
     0
 42
0.000000001
 43
0.0000000001
 40
0.0
 40
0.0
 40
0.0
 40
0.0
 40
0.558387413646741
 40
1.0
 40
1.0
 40
1.0
 40
1.0
 10
14.40753631382495
 20
12.49824046418467
 30
0.0
 10
14.39068269546831
 20
12.4810545556299
 30
0.0
 10
14.36050003385253
 20
12.45027680503108
 30
0.0
 10
14.34466862146348
 20
12.41061448960568
 30
0.0
 10
14.33767727049263
 20
12.39309911190986
 30
0.0
  0
SPLINE
  5
12A
330
2
100
AcDbEntity
  8
0
100
AcDbSpline
210
0.0
220
0.0
230
1.0
 70
     8
 71
     3
 72
    10
 73
     6
 74
     0
 42
0.000000001
 43
0.0000000001
 40
0.0
 40
0.0
 40
0.0
 40
0.0
 40
0.3341848966245098
 40
0.6760545672849795
 40
1.0
 40
1.0
 40
1.0
 40
1.0
 10
14.71781092892672
 20
12.55359169308121
 30
0.0
 10
14.69396009923528
 20
12.56438749996874
 30
0.0
 10
14.64570997629641
 20
12.58622736953668
 30
0.0
 10
14.56383665521108
 20
12.58485370180096
 30
0.0
 10
14.51326861289595
 20
12.56399158341344
 30
0.0
 10
14.48866525639914
 20
12.5538413360938
 30
0.0
  0
SPLINE
  5
12B
330
2
100
AcDbEntity
  8
0
100
AcDbSpline
210
0.0
220
0.0
230
1.0
 70
     8
 71
     3
 72
    11
 73
     7
 74
     0
 42
0.000000001
 43
0.0000000001
 40
0.0
 40
0.0
 40
0.0
 40
0.0
 40
0.1174437488512791
 40
0.4532904660140817
 40
0.7450588621110571
 40
1.0
 40
1.0
 40
1.0
 40
1.0
 10
14.34060773961391
 20
12.40119704544321
 30
0.0
 10
14.33464661564011
 20
12.39102764821712
 30
0.0
 10
14.31163882944076
 20
12.35177744671404
 30
0.0
 10
14.30320617964628
 20
12.2781092900284
 30
0.0
 10
14.3143656216431
 20
12.19413323013657
 30
0.0
 10
14.34369673878004
 20
12.15222161793849
 30
0.0
 10
14.3573744010734
 20
12.13267742958931
 30
0.0
  0
LINE
  5
12C
330
2
100
AcDbEntity
  8
0
100
AcDbLine
 10
14.75832213517384
 20
12.52798331746362
 30
0.0
 11
14.7271185412136
 21
12.54849662353973
 31
0.0
  0
LINE
  5
12D
330
2
100
AcDbEntity
  8
0
100
AcDbLine
 10
14.3612814631673
 20
12.12606420000418
 30
0.0
 11
14.38604310345573
 21
12.09811176864588
 31
0.0
  0
LINE
  5
12E
330
2
100
AcDbEntity
  8
0
100
AcDbLine
 10
23.38189923936545
 20
14.6613723395418
 30
0.0
 11
23.41851987678746
 21
14.62965793723197
 31
0.0
  0
LINE
  5
12F
330
2
100
AcDbEntity
  8
0
100
AcDbLine
 10
23.79525197142897
 20
15.06466988505247
 30
0.0
 11
23.758631334028
 21
15.09638428736241
 31
0.0
  0
LINE
  5
130
330
2
100
AcDbEntity
  8
0
100
AcDbLine
 10
26.94454648261706
 20
15.70813713774532
 30
0.0
 11
26.89924014538613
 21
15.69505832473834
 31
0.0
  0
LINE
  5
131
330
2
100
AcDbEntity
  8
0
100
AcDbLine
 10
29.85089877584091
 20
16.1681769056816
 30
0.0
 11
27.56167548796952
 21
18.15070242791444
 31
0.0
  0
LINE
  5
132
330
2
100
AcDbEntity
  8
0
100
AcDbLine
 10
27.3930211338232
 20
18.29676138306411
 30
0.0
 11
27.05415278367965
 21
18.59022998282711
 31
0.0
  0
LINE
  5
133
330
2
100
AcDbEntity
  8
0
100
AcDbLine
 10
26.9861712380667
 20
18.6491037283165
 30
0.0
 11
26.91019211620432
 21
18.71490357800661
 31
0.0
  0
LINE
  5
134
330
2
100
AcDbEntity
  8
0
100
AcDbLine
 10
26.81612824498157
 20
18.71254116228493
 30
0.0
 11
10.68710392057937
 21
14.05649289456568
 31
0.0
  0
LINE
  5
135
330
2
100
AcDbEntity
  8
0
100
AcDbLine
 10
26.86785318183803
 20
14.26375818222971
 30
0.0
 11
29.74518619486838
 21
11.77191469778046
 31
0.0
  0
LINE
  5
136
330
2
100
AcDbEntity
  8
0
100
AcDbLine
 10
30.64726207345825
 20
12.04687920507695
 30
0.0
 11
30.64726207345825
 21
12.09218554230784
 31
0.0
  0
LINE
  5
137
330
2
100
AcDbEntity
  8
0
100
AcDbLine
 10
11.24918002126799
 20
7.313911198044479
 30
0.0
 11
28.9819294582872
 21
12.43291502852224
 31
0.0
  0
LINE
  5
138
330
2
100
AcDbEntity
  8
0
100
AcDbLine
 10
7.458713404682725
 20
8.660277888937002
 30
0.0
 11
7.458713404682725
 21
8.614971551706105
 31
0.0
  0
LINE
  5
139
330
2
100
AcDbEntity
  8
0
100
AcDbLine
 10
23.42059657691777
 20
15.12204453570581
 30
0.0
 11
23.50564089736511
 21
15.16208490774829
 31
0.0
  0
LINE
  5
13A
330
2
100
AcDbEntity
  8
0
100
AcDbLine
 10
14.48245672553116
 20
12.55182866234395
 30
0.0
 11
14.48777393652301
 21
12.55449881592699
 31
0.0
  0
LINE
  5
13B
330
2
100
AcDbEntity
  8
0
100
AcDbLine
 10
14.72004872995413
 20
12.55288622155768
 30
0.0
 11
14.7271185412136
 21
12.54849662353973
 31
0.0
  0
LINE
  5
13C
330
2
100
AcDbEntity
  8
0
100
AcDbLine
 10
14.3612814631673
 20
12.12606420000418
 30
0.0
 11
14.35744680617967
 21
12.13055731433621
 31
0.0
  0
LWPOLYLINE
  5
13D
330
2
100
AcDbEntity
  8
0
100
AcDbPolyline
 90
        6
 70
   128
 43
0.0
 10
14.7251077946413
 20
12.13246191716035
 10
14.79034422146054
 20
12.21465365671617
 10
14.82828842234502
 20
12.3082552014161
 10
14.83381356896643
 20
12.40062352584641
 10
14.80617568382524
 20
12.47928511196528
 10
14.75832213517384
 20
12.52798331746362
  0
ARC
  5
13E
330
2
100
AcDbEntity
  8
0
100
AcDbCircle
 10
14.53914498558657
 20
12.27746925724165
 30
0.0
 40
0.2358162314770565
100
AcDbArc
 50
229.515498049501
 51
322.0541318141965
  0
LWPOLYLINE
  5
13F
330
2
100
AcDbEntity
  8
0
100
AcDbPolyline
 90
       11
 70
   128
 43
0.0
 10
23.41851987678746
 20
14.62965793723197
 10
23.42360079727769
 20
14.62543581048021
 10
23.49696156602536
 20
14.5918032998145
 10
23.58516812824669
 20
14.59265837501351
 10
23.67630874315944
 20
14.62788600712469
 10
23.75807200147602
 20
14.69272812962453
 10
23.81941706158477
 20
14.77842782182716
 10
23.85205890404029
 20
14.87341081891679
 10
23.85158902354519
 20
14.96484887772328
 10
23.81806953071237
 20
15.0403928216927
 10
23.79525197142897
 20
15.06466988505247
  0
LWPOLYLINE
  5
140
330
2
100
AcDbEntity
  8
0
100
AcDbPolyline
 90
       14
 70
   128
 43
0.0
 10
23.31175033418657
 20
14.64588233545635
 10
23.36543418171794
 20
14.57183893658606
 10
23.44528281201724
 20
14.52763119000758
 10
23.54264259245099
 20
14.51804955590796
 10
23.64696551586348
 20
14.54413286153999
 10
23.74694474507834
 20
14.60305424158469
 10
23.83174602388013
 20
14.68842868257292
 10
23.89218102808252
 20
14.79100448811482
 10
23.92169843522515
 20
14.89966567390621
 10
23.91710224777188
 20
15.00263782566946
 10
23.87888935083606
 20
15.08876227046426
 10
23.81119955370542
 20
15.14870530186203
 10
23.72137001341622
 20
15.17597184903297
 10
23.62803797303673
 20
15.16970766501043
  0
LWPOLYLINE
  5
141
330
2
100
AcDbEntity
  8
0
100
AcDbPolyline
 90
        3
 70
   128
 43
0.0
 10
23.29051119534515
 20
14.77791759595419
 10
23.29004941622708
 20
14.74173784103493
 10
23.31175033418657
 20
14.64588233545635
  0
LWPOLYLINE
  5
142
330
2
100
AcDbEntity
  8
0
100
AcDbPolyline
 90
       14
 70
   128
 43
0.0
 10
14.372017209858
 20
12.00589611153009
 10
14.44328376978873
 20
11.95017619923948
 10
14.53546136236252
 20
11.92776677989468
 10
14.63855962595829
 20
11.94109569458078
 10
14.74140809676464
 20
11.98871926329758
 10
14.83286061512172
 20
12.06547587130438
 10
14.90300783328354
 20
12.16304865153671
 10
14.94424794886163
 20
12.27086361699059
 10
14.95211034590366
 20
12.37723714389716
 10
14.92574437869203
 20
12.47064215164261
 10
14.86800848691257
 20
12.54095713771846
 10
14.78515694214397
 20
12.58056192745226
 10
14.68616878273124
 20
12.58516506662579
 10
14.65526468800135
 20
12.57962648997397
  0
ARC
  5
143
330
2
100
AcDbEntity
  8
0
100
AcDbCircle
 10
14.58852391986582
 20
12.16661356688155
 30
0.0
 40
0.2696391216699255
100
AcDbArc
 50
173.769377047998
 51
216.5872708829993
  0
LWPOLYLINE
  5
144
330
2
100
AcDbEntity
  8
0
100
AcDbPolyline
 90
        4
 70
   128
 43
0.0
 10
26.9735656653578
 20
15.69822424562727
 10
26.96335951778025
 20
15.70532190541075
 10
26.95354558453189
 20
15.70866448745369
 10
26.94450097601532
 20
15.70812388859986
  0
LINE
  5
145
330
2
100
AcDbEntity
  8
0
100
AcDbLine
 10
26.9735656653578
 20
15.69822424562727
 30
0.0
 11
27.07819597446706
 21
15.60761173995507
 31
0.0
  0
LWPOLYLINE
  5
146
330
2
100
AcDbEntity
  8
0
100
AcDbPolyline
 90
        3
 70
   128
 43
0.0
 10
27.07819597446706
 20
15.60761173995507
 10
27.15189036646382
 20
15.56214253106844
 10
27.20461649303292
 20
15.55818668783786
  0
LINE
  5
147
330
2
100
AcDbEntity
  8
0
100
AcDbLine
 10
29.85089877584091
 20
16.1681769056816
 30
0.0
 11
29.85089877584085
 21
12.79587457072455
 31
0.0
  0
ARC
  5
148
330
2
100
AcDbEntity
  8
0
100
AcDbCircle
 10
27.07429669098917
 20
15.1397889649146
 30
0.0
 40
0.1983596433180804
100
AcDbArc
 50
179.5143398835012
 51
222.5891566898016
  0
LINE
  5
149
330
2
100
AcDbEntity
  8
0
100
AcDbLine
 10
26.87594417357235
 20
15.63983901101545
 30
0.0
 11
26.87594417357235
 21
15.14147031412983
 31
0.0
  0
LINE
  5
14A
330
2
100
AcDbEntity
  8
0
100
AcDbLine
 10
26.92825932812707
 20
15.0055517243693
 30
0.0
 11
27.24215025543364
 21
14.73371420731104
 31
0.0
  0
LINE
  5
14B
330
2
100
AcDbEntity
  8
0
100
AcDbLine
 10
10.67545598339887
 20
10.7215276662306
 30
0.0
 11
10.67545598339887
 21
14.02888319550681
 31
0.0
  0
LINE
  5
14C
330
2
100
AcDbEntity
  8
0
100
AcDbLine
 10
23.99549347541051
 20
16.06179737271549
 30
0.0
 11
23.27059342990782
 21
15.85253675449712
 31
0.0
  0
LINE
  5
14D
330
2
100
AcDbEntity
  8
0
100
AcDbLine
 10
23.99549347541051
 20
16.33363472098415
 30
0.0
 11
23.99549347541051
 21
16.06179737271549
 31
0.0
  0
LINE
  5
14E
330
2
100
AcDbEntity
  8
0
100
AcDbLine
 10
23.99549347541051
 20
16.33363472098415
 30
0.0
 11
23.27059342990782
 21
16.1243741027867
 31
0.0
  0
LINE
  5
14F
330
2
100
AcDbEntity
  8
0
100
AcDbLine
 10
23.27059342990782
 20
16.1243741027867
 30
0.0
 11
23.27059342990782
 21
15.85253675449712
 31
0.0
  0
LINE
  5
150
330
2
100
AcDbEntity
  8
0
100
AcDbLine
 10
15.02485625633102
 20
13.47219746609335
 30
0.0
 11
14.29995621084936
 21
13.26293684789584
 31
0.0
  0
LINE
  5
151
330
2
100
AcDbEntity
  8
0
100
AcDbLine
 10
15.02485625633102
 20
13.74403481436195
 30
0.0
 11
15.02485625633102
 21
13.47219746609335
 31
0.0
  0
LINE
  5
152
330
2
100
AcDbEntity
  8
0
100
AcDbLine
 10
15.02485625633102
 20
13.74403481436195
 30
0.0
 11
14.29995621084936
 21
13.5347741961645
 31
0.0
  0
LINE
  5
153
330
2
100
AcDbEntity
  8
0
100
AcDbLine
 10
14.29995621084936
 20
13.5347741961645
 30
0.0
 11
14.29995621084936
 21
13.26293684789584
 31
0.0
  0
LWPOLYLINE
  5
154
330
2
100
AcDbEntity
  8
0
100
AcDbPolyline
 90
        7
 70
   128
 43
0.0
 10
26.89924014538613
 20
15.69505832473834
 10
26.89919463878442
 20
15.6950450755927
 10
26.8912669397381
 20
15.69064197122713
 10
26.88476095672218
 20
15.68254514026449
 10
26.87992644013002
 20
15.67106623298576
 10
26.87694941159248
 20
15.65664601552379
 10
26.87594417357235
 20
15.63983901101545
  0
ARC
  5
155
330
2
100
AcDbEntity
  8
0
100
AcDbCircle
 10
26.79987204814657
 20
14.30694968127489
 30
0.0
 40
0.61460391580014
100
AcDbArc
 50
13.13109163540021
 51
43.97729533529893
  0
ARC
  5
156
330
2
100
AcDbEntity
  8
0
100
AcDbCircle
 10
25.88637468463776
 20
15.12587202060081
 30
0.0
 40
0.1289084520592562
100
AcDbArc
 50
287.2089174333016
 51
357.1688175609007
  0
LINE
  5
157
330
2
100
AcDbEntity
  8
0
100
AcDbLine
 10
25.92451311703189
 20
15.00273449995768
 30
0.0
 11
10.79222753663407
 21
10.6344199233207
 31
0.0
  0
LINE
  5
158
330
2
100
AcDbEntity
  8
0
100
AcDbLine
 10
26.01512579149366
 20
16.29746720557
 30
0.0
 11
26.01512579149366
 21
15.1195048004335
 31
0.0
  0
LWPOLYLINE
  5
159
330
2
100
AcDbEntity
  8
0
100
AcDbPolyline
 90
        8
 70
   128
 43
0.0
 10
27.20461649303292
 20
15.55818668783786
 10
27.23057540165399
 20
15.57970164843721
 10
27.27082731034506
 20
15.65332613423641
 10
27.29180293246006
 20
15.75889219875347
 10
27.29180293246006
 20
15.88784739235086
 10
27.27082731034506
 20
16.02974396254683
 10
27.23057540165399
 20
16.1730874744041
 10
27.20048827388499
 20
16.24429935347223
  0
LWPOLYLINE
  5
15A
330
2
100
AcDbEntity
  8
0
100
AcDbPolyline
 90
        2
 70
   128
 43
0.0
 10
27.20048827388499
 20
16.24429935347223
 10
27.12480728799318
 20
16.36660482271981
  0
ARC
  5
15B
330
2
100
AcDbEntity
  8
0
100
AcDbCircle
 10
27.07429457032151
 20
16.72550690960633
 30
0.0
 40
0.1983575268290837
100
AcDbArc
 50
179.5141952210007
 51
222.5893967578021
  0
ARC
  5
15C
330
2
100
AcDbEntity
  8
0
100
AcDbCircle
 10
26.70188913893293
 20
16.7204759910536
 30
0.0
 40
0.1289059883591469
100
AcDbArc
 50
287.2081354590015
 51
357.1692786496004
  0
LINE
  5
15D
330
2
100
AcDbEntity
  8
0
100
AcDbLine
 10
26.7400251618798
 20
16.59734030334482
 30
0.0
 11
26.72576101764884
 21
16.59322259958901
 31
0.0
  0
LINE
  5
15E
330
2
100
AcDbEntity
  8
0
100
AcDbLine
 10
26.64306566103662
 20
16.56935050638816
 30
0.0
 11
26.10573779085977
 21
16.41423731114054
 31
0.0
  0
LINE
  5
15F
330
2
100
AcDbEntity
  8
0
100
AcDbLine
 10
26.87594417357235
 20
18.72066352923593
 30
0.0
 11
26.87594417357235
 21
18.15998707030735
 31
0.0
  0
LINE
  5
160
330
2
100
AcDbEntity
  8
0
100
AcDbLine
 10
26.87594417357235
 20
17.72752275287979
 30
0.0
 11
26.87594417357235
 21
16.72718874169027
 31
0.0
  0
LINE
  5
161
330
2
100
AcDbEntity
  8
0
100
AcDbLine
 10
26.83063783634157
 20
16.71410992870415
 30
0.0
 11
26.83063783634157
 21
17.44421672138219
 31
0.0
  0
LINE
  5
162
330
2
100
AcDbEntity
  8
0
100
AcDbLine
 10
26.83063783634157
 20
17.92859029533781
 30
0.0
 11
26.83063783634157
 21
18.66227837901596
 31
0.0
  0
LINE
  5
163
330
2
100
AcDbEntity
  8
0
100
AcDbLine
 10
26.96476922628841
 20
16.55875172778974
 30
0.0
 11
26.92825932812707
 21
16.59127048950893
 31
0.0
  0
ARC
  5
164
330
2
100
AcDbEntity
  8
0
100
AcDbCircle
 10
26.14387505670993
 20
16.29110142948906
 30
0.0
 40
0.1289065413344767
100
AcDbArc
 50
107.2086376752012
 51
177.1694182046975
  0
LWPOLYLINE
  5
165
330
2
100
AcDbEntity
  8
0
100
AcDbPolyline
 90
        7
 70
   128
 43
0.0
 10
10.67545598339887
 20
14.02888319550681
 10
10.67595860239845
 20
14.03728720409839
 10
10.67744706793041
 20
14.04449718623721
 10
10.67986437496324
 20
14.05023642891046
 10
10.6831173664608
 20
14.05428518195009
 10
10.68708121599439
 20
14.05648622779551
 10
10.68710392057937
 20
14.05649289456568
  0
LWPOLYLINE
  5
166
330
2
100
AcDbEntity
  8
0
100
AcDbPolyline
 90
        4
 70
   128
 43
0.0
 10
26.83063783634157
 20
18.7075847162468
 10
26.82553476256314
 20
18.71113388368639
 10
26.82062784465484
 20
18.71280513252094
 10
26.81610554039654
 20
18.71253449551477
  0
LINE
  5
167
330
2
100
AcDbEntity
  8
0
100
AcDbLine
 10
26.83063783634157
 20
18.66227837901596
 30
0.0
 11
26.83063783634157
 21
18.7075847162468
 31
0.0
  0
LINE
  5
168
330
2
100
AcDbEntity
  8
0
100
AcDbLine
 10
26.83063783634157
 20
18.7075847162468
 30
0.0
 11
26.87594417357235
 21
18.72066352923292
 31
0.0
  0
ARC
  5
169
330
2
100
AcDbEntity
  8
0
100
AcDbCircle
 10
10.82516732418344
 20
12.30581135423995
 30
0.0
 40
0.2141751359216568
100
AcDbArc
 50
180.5536595746979
 51
216.0803568636988
  0
LINE
  5
16A
330
2
100
AcDbEntity
  8
0
100
AcDbLine
 10
10.61100218771059
 20
13.98007287505135
 30
0.0
 11
10.61100218771059
 21
12.30374177302911
 31
0.0
  0
LINE
  5
16B
330
2
100
AcDbEntity
  8
0
100
AcDbLine
 10
10.65630784982499
 20
14.03845783040486
 30
0.0
 11
10.67746867525755
 21
14.04456643454034
 31
0.0
  0
ARC
  5
16C
330
2
100
AcDbEntity
  8
0
100
AcDbCircle
 10
10.67537621677985
 20
13.97689046283801
 30
0.0
 40
0.0644526443614012
100
AcDbArc
 50
107.2085625796018
 51
177.1698141882998
  0
ARC
  5
16D
330
2
100
AcDbEntity
  8
0
100
AcDbCircle
 10
27.76876159542104
 20
14.33219968799199
 30
0.0
 40
0.1691358770470512
100
AcDbArc
 50
57.13638854680034
 51
107.6021872117999
  0
LINE
  5
16E
330
2
100
AcDbEntity
  8
0
100
AcDbLine
 10
27.86054167342974
 20
14.47426784835119
 30
0.0
 11
30.63324437737183
 21
12.07303686959494
 31
0.0
  0
LWPOLYLINE
  5
16F
330
2
100
AcDbEntity
  8
0
100
AcDbPolyline
 90
        9
 70
   128
 43
0.0
 10
30.5949468574438
 20
12.00157299076568
 10
30.61161952314433
 20
12.00754672365082
 10
30.62564055685328
 20
12.01503182388092
 10
30.63647219672541
 20
12.02374095539261
 10
30.643697293798
 20
12.03333923587871
 10
30.64703804778236
 20
12.04345763432025
 10
30.64636689888818
 20
12.05370770462719
 10
30.64170940164127
 20
12.06369546752467
 10
30.63324437737183
 20
12.07303686959494
  0
LINE
  5
170
330
2
100
AcDbEntity
  8
0
100
AcDbLine
 10
29.77943481259592
 20
11.76615494143857
 30
0.0
 11
30.5949468574438
 21
12.00157299076568
 31
0.0
  0
LINE
  5
171
330
2
100
AcDbEntity
  8
0
100
AcDbLine
 10
27.71761384441345
 20
14.49341647519406
 30
0.0
 11
26.90210179956549
 21
14.25799842588782
 31
0.0
  0
LWPOLYLINE
  5
172
330
2
100
AcDbEntity
  8
0
100
AcDbPolyline
 90
        9
 70
   128
 43
0.0
 10
28.64389436914314
 20
13.22039830090483
 10
28.58250694596612
 20
13.19348065574695
 10
28.5463941471933
 20
13.15686602665676
 10
28.54105435022535
 20
13.11612881779064
 10
28.56729931712905
 20
13.07747055377217
 10
28.62113491108187
 20
13.04677701773238
 10
28.69436372510657
 20
13.02872061319817
 10
28.77583852235392
 20
13.02605059923371
 10
28.85315496298273
 20
13.03917331063314
  0
LINE
  5
173
330
2
100
AcDbEntity
  8
0
100
AcDbLine
 10
28.85315496298273
 20
13.03917331063314
 30
0.0
 11
29.03437963681057
 21
13.09148836773505
 31
0.0
  0
LWPOLYLINE
  5
174
330
2
100
AcDbEntity
  8
0
100
AcDbPolyline
 90
        9
 70
   128
 43
0.0
 10
29.03437963681057
 20
13.09148836773505
 10
29.09576705998757
 20
13.11840601289288
 10
29.13187985876039
 20
13.15502064196221
 10
29.13721965572836
 20
13.19575785084925
 10
29.11097468882474
 20
13.23441611486771
 10
29.05713909487185
 20
13.2651096509075
 10
28.98391028084708
 20
13.28316605542079
 10
28.90243548359979
 20
13.28583606940617
 10
28.8251190429711
 20
13.2727133580068
  0
LINE
  5
175
330
2
100
AcDbEntity
  8
0
100
AcDbLine
 10
28.8251190429711
 20
13.2727133580068
 30
0.0
 11
28.64389436914314
 21
13.22039830090483
 31
0.0
  0
ARC
  5
176
330
2
100
AcDbEntity
  8
0
100
AcDbCircle
 10
27.76876159542104
 20
14.37750602522288
 30
0.0
 40
0.169135877047013
100
AcDbArc
 50
57.13638854680034
 51
107.6021872117999
  0
LINE
  5
177
330
2
100
AcDbEntity
  8
0
100
AcDbLine
 10
26.87594444309997
 20
15.15657250434316
 30
0.0
 11
26.85679546233473
 21
15.15104466974867
 31
0.0
  0
LINE
  5
178
330
2
100
AcDbEntity
  8
0
100
AcDbLine
 10
26.90210179956549
 20
15.04034440094898
 30
0.0
 11
26.90210179956549
 21
14.30330476311872
 31
0.0
  0
ARC
  5
179
330
2
100
AcDbEntity
  8
0
100
AcDbCircle
 10
26.88998914273716
 20
14.28893032848248
 30
0.0
 40
0.0332189562418188
100
AcDbArc
 50
177.7647556206002
 51
291.3848674344991
  0
LINE
  5
17A
330
2
100
AcDbEntity
  8
0
100
AcDbLine
 10
26.85679546233473
 20
14.29022595011167
 30
0.0
 11
26.85679546233473
 21
15.15104466974867
 31
0.0
  0
LINE
  5
17B
330
2
100
AcDbEntity
  8
0
100
AcDbLine
 10
27.71761384441345
 20
14.53872281242491
 30
0.0
 11
26.90210179956549
 21
14.30330476311872
 31
0.0
  0
LINE
  5
17C
330
2
100
AcDbEntity
  8
0
100
AcDbLine
 10
30.63324437737183
 20
12.11834320682584
 30
0.0
 11
27.86054167342974
 21
14.51957418558203
 31
0.0
  0
ARC
  5
17D
330
2
100
AcDbEntity
  8
0
100
AcDbCircle
 10
29.76745735940739
 20
11.79963901229291
 30
0.0
 40
0.0355618107665518
100
AcDbArc
 50
231.224807159
 51
289.682434911299
  0
LWPOLYLINE
  5
17E
330
2
100
AcDbEntity
  8
0
100
AcDbPolyline
 90
       10
 70
   128
 43
0.0
 10
27.35482899738278
 20
14.43399584786095
 10
27.33463127512164
 20
14.49666126545537
 10
27.29220060367751
 20
14.58251319301689
 10
27.24215025543364
 20
14.6431015328493
 10
27.19209990716882
 20
14.66920293912415
 10
27.14966923574565
 20
14.65684309028052
 10
27.1213180354097
 20
14.60790387126917
 10
27.11136241778394
 20
14.52983611171475
 10
27.1213180354097
 20
14.43452437905455
 10
27.13839860385207
 20
14.36849730740755
  0
LINE
  5
17F
330
2
100
AcDbEntity
  8
0
100
AcDbLine
 10
26.87594417357246
 20
16.72382507749319
 30
0.0
 11
26.87594417357235
 21
15.63983901101545
 31
0.0
  0
LINE
  5
180
330
2
100
AcDbEntity
  8
0
100
AcDbLine
 10
8.326541340640687
 20
9.801821067096739
 30
0.0
 11
8.371847002755032
 21
9.81489968519844
 31
0.0
  0
ARC
  5
181
330
2
100
AcDbEntity
  8
0
100
AcDbCircle
 10
8.399560629241364
 20
9.86893999476274
 30
0.0
 40
0.0991804767082931
100
AcDbArc
 50
179.5143988047016
 51
222.5890500659983
  0
LINE
  5
182
330
2
100
AcDbEntity
  8
0
100
AcDbLine
 10
26.85679546233473
 20
15.15104466974867
 30
0.0
 11
26.64440614844153
 21
15.08973315597404
 31
0.0
  0
LINE
  5
183
330
2
100
AcDbEntity
  8
0
100
AcDbLine
 10
26.56440552048625
 20
15.06663896393132
 30
0.0
 11
8.371847002755032
 21
9.81489968519844
 31
0.0
  0
LINE
  5
184
330
2
100
AcDbEntity
  8
0
100
AcDbLine
 10
8.300383714647523
 20
11.41019266326219
 30
0.0
 11
8.300383714647523
 21
9.86978057293254
 31
0.0
  0
ARC
  5
185
330
2
100
AcDbEntity
  8
0
100
AcDbCircle
 10
8.429134542726387
 20
11.40382568941544
 30
0.0
 40
0.1289081614510237
100
AcDbArc
 50
107.2094559850985
 51
177.1689207830007
  0
LINE
  5
186
330
2
100
AcDbEntity
  8
0
100
AcDbLine
 10
8.390995038876241
 20
11.52696257394831
 30
0.0
 11
10.67545683056946
 21
12.18642988914928
 31
0.0
  0
LINE
  5
187
330
2
100
AcDbEntity
  8
0
100
AcDbLine
 10
26.33226947701411
 20
16.47963137613391
 30
0.0
 11
26.33226947701411
 21
16.25309968997959
 31
0.0
  0
LINE
  5
188
330
2
100
AcDbEntity
  8
0
100
AcDbLine
 10
26.33226947701411
 20
16.25309968997959
 30
0.0
 11
26.62227451318705
 21
16.33681693282869
 31
0.0
  0
LINE
  5
189
330
2
100
AcDbEntity
  8
0
100
AcDbLine
 10
26.59029936935639
 20
15.87452414422512
 30
0.0
 11
26.33226947701411
 21
15.80003733032481
 31
0.0
  0
LINE
  5
18A
330
2
100
AcDbEntity
  8
0
100
AcDbLine
 10
26.33226947701411
 20
15.80003733032481
 30
0.0
 11
26.33226947701411
 21
15.61881231893869
 31
0.0
  0
LINE
  5
18B
330
2
100
AcDbEntity
  8
0
100
AcDbLine
 10
26.33226947701411
 20
15.61881231893869
 30
0.0
 11
26.58102978911683
 21
15.69062323551566
 31
0.0
  0
LINE
  5
18C
330
2
100
AcDbEntity
  8
0
100
AcDbLine
 10
8.371847002755032
 20
9.81489968519844
 30
0.0
 11
11.24918001578538
 21
7.32305620077011
 31
0.0
  0
ARC
  5
18D
330
2
100
AcDbEntity
  8
0
100
AcDbCircle
 10
30.61250271204239
 20
12.09039308273281
 30
0.0
 40
0.0348055472132352
100
AcDbArc
 50
2.951995516898983
 51
53.4210509663033
  0
LINE
  5
18E
330
2
100
AcDbEntity
  8
0
100
AcDbLine
 10
7.511028620697175
 20
8.705584103269075
 30
0.0
 11
8.326541340640687
 21
8.941002347459743
 31
0.0
  0
LINE
  5
18F
330
2
100
AcDbEntity
  8
0
100
AcDbLine
 10
8.326541340640687
 20
8.941002347459743
 30
0.0
 11
8.326541340640687
 21
9.801821067096739
 31
0.0
  0
LINE
  5
190
330
2
100
AcDbEntity
  8
0
100
AcDbLine
 10
8.371847002755032
 20
8.954080965561445
 30
0.0
 11
8.371847002755032
 21
9.81489968519844
 31
0.0
  0
ARC
  5
191
330
2
100
AcDbEntity
  8
0
100
AcDbCircle
 10
8.307471588715543
 20
8.95726445249528
 30
0.0
 40
0.0644540807255685
100
AcDbArc
 50
287.2094559850999
 51
357.1689207828996
  0
LINE
  5
192
330
2
100
AcDbEntity
  8
0
100
AcDbLine
 10
7.511028620697175
 20
8.660277766017316
 30
0.0
 11
8.326541340640687
 21
8.895696010228846
 31
0.0
  0
LINE
  5
193
330
2
100
AcDbEntity
  8
0
100
AcDbLine
 10
8.371847002755032
 20
8.954080965561445
 30
0.0
 11
11.24918001578538
 21
6.462237481133172
 31
0.0
  0
ARC
  5
194
330
2
100
AcDbEntity
  8
0
100
AcDbCircle
 10
11.18480460174595
 20
6.46542096806695
 30
0.0
 40
0.0644540807255353
100
AcDbArc
 50
287.2094559850999
 51
357.1689207828996
  0
ARC
  5
195
330
2
100
AcDbEntity
  8
0
100
AcDbCircle
 10
10.33721414854369
 20
6.329643689530485
 30
0.0
 40
0.1691287629182438
100
AcDbArc
 50
237.1352689343999
 51
287.6028573528983
  0
LINE
  5
196
330
2
100
AcDbEntity
  8
0
100
AcDbLine
 10
10.24543515494423
 20
6.187583298221568
 30
0.0
 11
7.472732451002173
 21
8.588814276956895
 31
0.0
  0
LWPOLYLINE
  5
197
330
2
100
AcDbEntity
  8
0
100
AcDbPolyline
 90
        9
 70
   128
 43
0.0
 10
7.511028620697175
 20
8.660277766017316
 10
7.494356630092283
 20
8.654304228037574
 10
7.480334246171139
 20
8.646818737996795
 10
7.469503281394679
 20
8.638109801390328
 10
7.462277509226566
 20
8.628511326019975
 10
7.458938780591665
 20
8.618393512252396
 10
7.459609254369297
 20
8.608143247040231
 10
7.464265401383158
 20
8.598155094374078
 10
7.472732451002173
 20
8.588814276956895
  0
LINE
  5
198
330
2
100
AcDbEntity
  8
0
100
AcDbLine
 10
11.20387435367101
 20
6.403852525800516
 30
0.0
 11
10.38836163372758
 21
6.168434281588986
 31
0.0
  0
LINE
  5
199
330
2
100
AcDbEntity
  8
0
100
AcDbLine
 10
9.462081784093413
 20
7.441452650762585
 30
0.0
 11
9.280856435169994
 21
7.389137398776256
 31
0.0
  0
LWPOLYLINE
  5
19A
330
2
100
AcDbEntity
  8
0
100
AcDbPolyline
 90
        9
 70
   128
 43
0.0
 10
9.252821190253882
 20
7.622677641055304
 10
9.330136280670501
 20
7.635799962664918
 10
9.411611753034407
 20
7.633130143584878
 10
9.484839891942641
 20
7.615073544166307
 10
9.538676836107526
 20
7.584380397895245
 10
9.564920452799128
 20
7.545721744107993
 10
9.559581330947708
 20
7.504984730126238
 10
9.523467857058392
 20
7.468369906151679
 10
9.462081784093413
 20
7.441452650762585
  0
LINE
  5
19B
330
2
100
AcDbEntity
  8
0
100
AcDbLine
 10
9.071595841330406
 20
7.570362389048
 30
0.0
 11
9.252821190253882
 21
7.622677641055304
 31
0.0
  0
LWPOLYLINE
  5
19C
330
2
100
AcDbEntity
  8
0
100
AcDbPolyline
 90
        9
 70
   128
 43
0.0
 10
9.280856435169994
 20
7.389137398776256
 10
9.20354134477418
 20
7.376015077166584
 10
9.122065872410416
 20
7.378684896246625
 10
9.048837733502125
 20
7.39674149566531
 10
8.995000789316293
 20
7.42743464191534
 10
8.968757172645609
 20
7.466093295702535
 10
8.974096294497087
 20
7.506830309705264
 10
9.010209768386403
 20
7.543445133658906
 10
9.071595841330406
 20
7.570362389048
  0
LINE
  5
19D
330
2
100
AcDbEntity
  8
0
100
AcDbLine
 10
11.24918001578538
 20
6.462237481133172
 30
0.0
 11
11.24918001578538
 21
7.32305620077011
 31
0.0
  0
LWPOLYLINE
  5
19E
330
2
100
AcDbEntity
  8
0
100
AcDbPolyline
 90
        7
 70
   128
 43
0.0
 10
7.458713404682725
 20
8.660277888937002
 10
7.458938780591665
 20
8.66369984948335
 10
7.462277509226566
 20
8.673817663250872
 10
7.469503281394679
 20
8.683416138621282
 10
7.480334246171139
 20
8.692125075248611
 10
7.494356630092283
 20
8.699610565268358
 10
7.511028620697175
 20
8.705584103269075
  0
LWPOLYLINE
  5
19F
330
2
100
AcDbEntity
  8
0
100
AcDbPolyline
 90
       10
 70
   128
 43
0.0
 10
23.69404384137732
 20
15.13557203004149
 10
23.74775482651046
 20
15.08539246481217
 10
23.77265174202682
 20
15.00675010528374
 10
23.76486360771574
 20
14.91547436166723
 10
23.72544090350516
 20
14.82389161632636
 10
23.65970759157284
 20
14.74437065805171
 10
23.57654144289393
 20
14.68765161708285
 10
23.48717503195581
 20
14.66139467773252
 10
23.4036767263795
 20
14.66914578828005
 10
23.34564526999338
 20
14.70475306045284
  0
LWPOLYLINE
  5
1A0
330
2
100
AcDbEntity
  8
0
100
AcDbPolyline
 90
       16
 70
   128
 43
0.0
 10
14.48777393652301
 20
12.55449881592699
 10
14.48884196950101
 20
12.55501877925985
 10
14.57606421310606
 20
12.57993201415127
 10
14.65654610188323
 20
12.5695406609334
 10
14.71803293628861
 20
12.52542649462077
 10
14.7511662629463
 20
12.45430616355861
 10
14.7509002673608
 20
12.36700679610737
 10
14.71727680673402
 20
12.27681898786636
 10
14.65541190757235
 20
12.19747228267948
 10
14.5747274840767
 20
12.14104770678
 10
14.48750524049251
 20
12.11613480944686
 10
14.40702335171539
 20
12.12652582510651
 10
14.34553516707697
 20
12.17063960165035
 10
14.31240184041937
 20
12.24175993271251
 10
14.31266783598391
 20
12.3290593001638
 10
14.33358561979185
 20
12.39421087194182
  0
ARC
  5
1A1
330
2
100
AcDbEntity
  8
0
100
AcDbCircle
 10
10.77018288744386
 20
10.72669058795901
 30
0.0
 40
0.0948674976518985
100
AcDbArc
 50
183.1197180373412
 51
283.4368231249487
  0
ARC
  5
1A2
330
2
100
AcDbEntity
  8
0
100
AcDbCircle
 10
26.88066370834036
 20
18.64402834032211
 30
0.0
 40
0.0767803763198359
100
AcDbArc
 50
67.38216101075017
 51
93.52407748584591
  0
LINE
  5
1A3
330
2
100
AcDbEntity
  8
0
100
AcDbLine
 10
27.04565655109673
 20
14.04063782068397
 30
0.0
 11
27.18206622804206
 21
13.9225035751204
 31
0.0
  0
LINE
  5
1A4
330
2
100
AcDbEntity
  8
0
100
AcDbLine
 10
27.07602790991024
 20
14.03334886594109
 30
0.0
 11
27.1194371721316
 21
14.04588004054727
 31
0.0
  0
ARC
  5
1A5
330
2
100
AcDbEntity
  8
0
100
AcDbCircle
 10
27.10604832519334
 20
14.15182217659264
 30
0.0
 40
0.122217636485055
100
AcDbArc
 50
174.8069247138071
 51
197.7982758284769
  0
ARC
  5
1A6
330
2
100
AcDbEntity
  8
0
100
AcDbCircle
 10
27.10604832519334
 20
14.15182217659264
 30
0.0
 40
0.122217636485055
100
AcDbArc
 50
243.6760031272357
 51
255.7808851649024
  0
LWPOLYLINE
  5
1A7
330
2
100
AcDbEntity
  8
0
100
AcDbPolyline
 90
        3
 70
   128
 43
0.0
 10
27.18206622804206
 20
13.9225035751204
 10
27.20198551576644
 20
13.90878681795624
 10
27.23297332483725
 20
13.89743014959885
  0
LINE
  5
1A8
330
2
100
AcDbEntity
  8
0
100
AcDbLine
 10
27.23297332483725
 20
13.89743014959885
 30
0.0
 11
27.27638258705866
 21
13.90996132422595
 31
0.0
  0
ELLIPSE
  5
1A9
330
2
100
AcDbEntity
  8
0
100
AcDbEllipse
 10
27.20021394353276
 20
14.19991319873378
 30
0.0
 11
0.0181477154907184
 21
0.2774096236133642
 31
0.0
210
0.0
220
0.0
230
1.0
 40
0.6128168285279183
 41
1.901834973623701
 42
6.870853096261244
  0
ELLIPSE
  5
1AA
330
2
100
AcDbEntity
  8
0
100
AcDbEllipse
 10
27.41798468225267
 20
14.05801394923674
 30
0.0
 11
-0.0852843374520714
 21
-0.0550970992628292
 31
0.0
210
0.0
220
0.0
230
1.0
 40
0.8108083480216546
 41
-1.570796326794896
 42
4.712388980384689
  0
POLYLINE
  5
1AB
330
2
100
AcDbEntity
  8
0
100
AcDb2dPolyline
 66
     1
 10
0.0
 20
0.0
 30
0.0
 70
     2
  0
VERTEX
  5
1AC
330
1AB
100
AcDbEntity
  8
0
100
AcDbVertex
100
AcDb2dVertex
 10
27.0335443626735
 20
14.12026541044213
 30
0.0
 42
-0.0407001063012493
  0
VERTEX
  5
1AD
330
1AB
100
AcDbEntity
  8
0
100
AcDbVertex
100
AcDb2dVertex
 10
27.00891525274068
 20
14.11494264302956
 30
0.0
 42
-0.0533636094325774
 70
     1
  0
VERTEX
  5
1AE
330
1AB
100
AcDbEntity
  8
0
100
AcDbVertex
100
AcDb2dVertex
 10
26.98968019694161
 20
14.11446432072296
 30
0.0
 42
-0.0721016312397558
  0
VERTEX
  5
1AF
330
1AB
100
AcDbEntity
  8
0
100
AcDbVertex
100
AcDb2dVertex
 10
26.95352361237357
 20
14.12276700264596
 30
0.0
 42
-0.049181819659195
 70
     1
  0
VERTEX
  5
1B0
330
1AB
100
AcDbEntity
  8
0
100
AcDbVertex
100
AcDb2dVertex
 10
26.90511885323383
 20
14.14723067481975
 30
0.0
 42
-0.1299918264744689
  0
VERTEX
  5
1B1
330
1AB
100
AcDbEntity
  8
0
100
AcDbVertex
100
AcDb2dVertex
 10
26.88532707745319
 20
14.16864589576687
 30
0.0
 42
-0.0183988239051425
 70
     1
  0
VERTEX
  5
1B2
330
1AB
100
AcDbEntity
  8
0
100
AcDbVertex
100
AcDb2dVertex
 10
26.79704624376848
 20
14.35107785079333
 30
0.0
 42
-0.1065909250173949
  0
VERTEX
  5
1B3
330
1AB
100
AcDbEntity
  8
0
100
AcDbVertex
100
AcDb2dVertex
 10
26.64447636576336
 20
15.09789554418051
 30
0.0
 42
-0.0341714829428452
 70
     1
  0
VERTEX
  5
1B4
330
1AB
100
AcDbEntity
  8
0
100
AcDbVertex
100
AcDb2dVertex
 10
26.83063783634157
 20
17.44421672138213
 30
0.0
 42
-0.0351584512428674
  0
VERTEX
  5
1B5
330
1AB
100
AcDbEntity
  8
0
100
AcDbVertex
100
AcDb2dVertex
 10
27.22338733659723
 20
19.21903562128051
 30
0.0
 42
-0.0163892026655929
 70
     1
  0
VERTEX
  5
1B6
330
1AB
100
AcDbEntity
  8
0
100
AcDbVertex
100
AcDb2dVertex
 10
28.45196949504441
 20
22.91595337797764
 30
0.0
 42
-0.0510981219346352
  0
VERTEX
  5
1B7
330
1AB
100
AcDbEntity
  8
0
100
AcDbVertex
100
AcDb2dVertex
 10
30.09259511148625
 20
26.26322854194109
 30
0.0
 42
-0.0960405987144896
 70
     1
  0
VERTEX
  5
1B8
330
1AB
100
AcDbEntity
  8
0
100
AcDbVertex
100
AcDb2dVertex
 10
31.45243963723158
 20
27.72488949380977
 30
0.0
 42
-0.1610809047953647
  0
VERTEX
  5
1B9
330
1AB
100
AcDbEntity
  8
0
100
AcDbVertex
100
AcDb2dVertex
 10
32.98355523112264
 20
28.21628755234775
 30
0.0
 42
-0.255790732332755
 70
     1
  0
VERTEX
  5
1BA
330
1AB
100
AcDbEntity
  8
0
100
AcDbVertex
100
AcDb2dVertex
 10
33.90149487344968
 20
27.70318651862306
 30
0.0
 42
-0.098011211948385
  0
VERTEX
  5
1BB
330
1AB
100
AcDbEntity
  8
0
100
AcDbVertex
100
AcDb2dVertex
 10
34.06146637802783
 20
27.28435989788113
 30
0.0
 42
-0.0855608966021421
 70
     1
  0
VERTEX
  5
1BC
330
1AB
100
AcDbEntity
  8
0
100
AcDbVertex
100
AcDb2dVertex
 10
34.06082426279122
 20
26.77194587181697
 30
0.0
  0
SEQEND
  5
1BD
330
1AB
100
AcDbEntity
  8
0
  0
POLYLINE
  5
1BE
330
2
100
AcDbEntity
  8
0
100
AcDb2dPolyline
 66
     1
 10
0.0
 20
0.0
 30
0.0
  0
VERTEX
  5
1BF
330
1BE
100
AcDbEntity
  8
0
100
AcDbVertex
100
AcDb2dVertex
 10
27.10072885631621
 20
14.06208193220675
 30
0.0
 42
-0.0917287563956366
  0
VERTEX
  5
1C0
330
1BE
100
AcDbEntity
  8
0
100
AcDbVertex
100
AcDb2dVertex
 10
27.0194040221586
 20
14.03563321284565
 30
0.0
 42
-0.0533636094325817
  0
VERTEX
  5
1C1
330
1BE
100
AcDbEntity
  8
0
100
AcDbVertex
100
AcDb2dVertex
 10
26.98314636355616
 20
14.03473158578123
 30
0.0
 42
-0.0721016312397559
  0
VERTEX
  5
1C2
330
1BE
100
AcDbEntity
  8
0
100
AcDbVertex
100
AcDb2dVertex
 10
26.92461882170784
 20
14.04817133871989
 30
0.0
 42
-0.0491818196591948
  0
VERTEX
  5
1C3
330
1BE
100
AcDbEntity
  8
0
100
AcDbVertex
100
AcDb2dVertex
 10
26.86220175774781
 20
14.07971680280042
 30
0.0
 42
-0.129991826474462
  0
VERTEX
  5
1C4
330
1BE
100
AcDbEntity
  8
0
100
AcDbVertex
100
AcDb2dVertex
 10
26.81464606749571
 20
14.13117330803402
 30
0.0
 42
-0.0183988239051426
  0
VERTEX
  5
1C5
330
1BE
100
AcDbEntity
  8
0
100
AcDbVertex
100
AcDb2dVertex
 10
26.7238015108525
 20
14.31890318529292
 30
0.0
 42
-0.1065909250173949
  0
VERTEX
  5
1C6
330
1BE
100
AcDbEntity
  8
0
100
AcDbVertex
100
AcDb2dVertex
 10
26.56448108295945
 20
15.09876429565276
 30
0.0
 42
-0.0341714829428451
  0
VERTEX
  5
1C7
330
1BE
100
AcDbEntity
  8
0
100
AcDbVertex
100
AcDb2dVertex
 10
26.75150642004053
 20
17.4559733771224
 30
0.0
 42
-0.0351584512428675
  0
VERTEX
  5
1C8
330
1BE
100
AcDbEntity
  8
0
100
AcDbVertex
100
AcDb2dVertex
 10
27.14668377912625
 20
19.24176367159941
 30
0.0
 42
-0.0163892026655928
  0
VERTEX
  5
1C9
330
1BE
100
AcDbEntity
  8
0
100
AcDbVertex
100
AcDb2dVertex
 10
28.37691945170496
 20
22.94365700580414
 30
0.0
 42
-0.0510981219346353
  0
VERTEX
  5
1CA
330
1BE
100
AcDbEntity
  8
0
100
AcDbVertex
100
AcDb2dVertex
 10
30.0247228216239
 20
26.30557653208041
 30
0.0
 42
-0.0960405987144895
  0
VERTEX
  5
1CB
330
1BE
100
AcDbEntity
  8
0
100
AcDbVertex
100
AcDb2dVertex
 10
31.40530970555409
 20
27.789532896722
 30
0.0
 42
-0.1610809047953648
  0
VERTEX
  5
1CC
330
1BE
100
AcDbEntity
  8
0
100
AcDbVertex
100
AcDb2dVertex
 10
32.98426414524551
 20
28.29628441129086
 30
0.0
 42
-0.2557907323327542
  0
VERTEX
  5
1CD
330
1BE
100
AcDbEntity
  8
0
100
AcDbVertex
100
AcDb2dVertex
 10
33.96926467324488
 20
27.74569833151918
 30
0.0
 42
-0.0980112119483848
  0
VERTEX
  5
1CE
330
1BE
100
AcDbEntity
  8
0
100
AcDbVertex
100
AcDb2dVertex
 10
34.14032055201227
 20
27.2978513487011
 30
0.0
 42
-0.0910097670417274
  0
VERTEX
  5
1CF
330
1BE
100
AcDbEntity
  8
0
100
AcDbVertex
100
AcDb2dVertex
 10
34.13340162923055
 20
26.72448220364425
 30
0.0
 42
-0.0855608966021423
  0
SEQEND
  5
1D0
330
1BE
100
AcDbEntity
  8
0
  0
POLYLINE
  5
1D1
330
2
100
AcDbEntity
  8
0
100
AcDb2dPolyline
 66
     1
 10
0.0
 20
0.0
 30
0.0
 70
     2
  0
VERTEX
  5
1D2
330
1D1
100
AcDbEntity
  8
0
100
AcDbVertex
100
AcDb2dVertex
 10
26.87594417357241
 20
16.18183204425429
 30
0.0
 42
-0.0040113403305492
  0
VERTEX
  5
1D3
330
1D1
100
AcDbEntity
  8
0
100
AcDbVertex
100
AcDb2dVertex
 10
27.31058153921828
 20
17.97517457101048
 30
0.0
 42
-0.0075768084471684
 70
     1
  0
VERTEX
  5
1D4
330
1D1
100
AcDbEntity
  8
0
100
AcDbVertex
100
AcDb2dVertex
 10
27.56263954971519
 20
18.91906376560359
 30
0.0
 42
-0.0018925756175435
  0
VERTEX
  5
1D5
330
1D1
100
AcDbEntity
  8
0
100
AcDbVertex
100
AcDb2dVertex
 10
28.29990467248985
 20
21.48403041821485
 30
0.0
 42
-0.0043139102797093
 70
     1
  0
VERTEX
  5
1D6
330
1D1
100
AcDbEntity
  8
0
100
AcDbVertex
100
AcDb2dVertex
 10
28.63730158083513
 20
22.60523416926361
 30
0.0
 42
-0.0418767819269687
  0
VERTEX
  5
1D7
330
1D1
100
AcDbEntity
  8
0
100
AcDbVertex
100
AcDb2dVertex
 10
29.37364264727103
 20
24.42426329768239
 30
0.0
 42
-0.0330546918914628
 70
     1
  0
VERTEX
  5
1D8
330
1D1
100
AcDbEntity
  8
0
100
AcDbVertex
100
AcDb2dVertex
 10
30.63913115358059
 20
26.56235108088208
 30
0.0
 42
-0.0475351096181545
  0
VERTEX
  5
1D9
330
1D1
100
AcDbEntity
  8
0
100
AcDbVertex
100
AcDb2dVertex
 10
31.13176549997479
 20
27.15258486277162
 30
0.0
 42
-0.0420582397227134
 70
     1
  0
VERTEX
  5
1DA
330
1D1
100
AcDbEntity
  8
0
100
AcDbVertex
100
AcDb2dVertex
 10
31.79813850850965
 20
27.70957098644994
 30
0.0
 42
-0.1586308766120422
  0
VERTEX
  5
1DB
330
1D1
100
AcDbEntity
  8
0
100
AcDbVertex
100
AcDb2dVertex
 10
32.88195878777293
 20
28.04188493234847
 30
0.0
 42
-0.2054227055945032
 70
     1
  0
VERTEX
  5
1DC
330
1D1
100
AcDbEntity
  8
0
100
AcDbVertex
100
AcDb2dVertex
 10
33.69371102184471
 20
27.67710249954201
 30
0.0
 42
-0.1178316098490597
  0
VERTEX
  5
1DD
330
1D1
100
AcDbEntity
  8
0
100
AcDbVertex
100
AcDb2dVertex
 10
33.87764253856204
 20
27.3472486367325
 30
0.0
 42
-0.0908404211066918
 70
     1
  0
VERTEX
  5
1DE
330
1D1
100
AcDbEntity
  8
0
100
AcDbVertex
100
AcDb2dVertex
 10
33.92283788357651
 20
26.86218529543777
 30
0.0
  0
SEQEND
  5
1DF
330
1D1
100
AcDbEntity
  8
0
  0
POLYLINE
  5
1E0
330
2
100
AcDbEntity
  8
0
100
AcDb2dPolyline
 66
     1
 10
0.0
 20
0.0
 30
0.0
  0
VERTEX
  5
1E1
330
1E0
100
AcDbEntity
  8
0
100
AcDbVertex
100
AcDb2dVertex
 10
26.96974785648416
 20
15.70087926391875
 30
0.0
 42
-0.0049846506989399
  0
VERTEX
  5
1E2
330
1E0
100
AcDbEntity
  8
0
100
AcDbVertex
100
AcDb2dVertex
 10
27.50457016232923
 20
17.92650821606662
 30
0.0
 42
-0.0075768084471685
  0
VERTEX
  5
1E3
330
1E0
100
AcDbEntity
  8
0
100
AcDbVertex
100
AcDb2dVertex
 10
27.75506440242214
 20
18.86454151270891
 30
0.0
 42
-0.0018925756175435
  0
VERTEX
  5
1E4
330
1E0
100
AcDbEntity
  8
0
100
AcDbVertex
100
AcDb2dVertex
 10
28.49191126584162
 20
21.42805302894521
 30
0.0
 42
-0.0043139102797093
  0
VERTEX
  5
1E5
330
1E0
100
AcDbEntity
  8
0
100
AcDbVertex
100
AcDb2dVertex
 10
28.82831371776823
 20
22.5459521016187
 30
0.0
 42
-0.0418767819269687
  0
VERTEX
  5
1E6
330
1E0
100
AcDbEntity
  8
0
100
AcDbVertex
100
AcDb2dVertex
 10
29.55210630955966
 20
24.33398195275151
 30
0.0
 42
-0.0330546918914628
  0
VERTEX
  5
1E7
330
1E0
100
AcDbEntity
  8
0
100
AcDbVertex
100
AcDb2dVertex
 10
30.80414045372939
 20
26.44933811319964
 30
0.0
 42
-0.0475351096181543
  0
VERTEX
  5
1E8
330
1E0
100
AcDbEntity
  8
0
100
AcDbVertex
100
AcDb2dVertex
 10
31.27246219417464
 20
27.01044253888028
 30
0.0
 42
-0.0420582397227135
  0
VERTEX
  5
1E9
330
1E0
100
AcDbEntity
  8
0
100
AcDbVertex
100
AcDb2dVertex
 10
31.91306470785423
 20
27.54588846232406
 30
0.0
 42
-0.1586308766120425
  0
VERTEX
  5
1EA
330
1E0
100
AcDbEntity
  8
0
100
AcDbVertex
100
AcDb2dVertex
 10
32.87853357193077
 20
27.84191426475838
 30
0.0
 42
-0.2054227055945034
  0
VERTEX
  5
1EB
330
1E0
100
AcDbEntity
  8
0
100
AcDbVertex
100
AcDb2dVertex
 10
33.54645671840192
 20
27.54176525367973
 30
0.0
 42
-0.1178316098490587
  0
VERTEX
  5
1EC
330
1E0
100
AcDbEntity
  8
0
100
AcDbVertex
100
AcDb2dVertex
 10
33.68510812675277
 20
27.29311454147592
 30
0.0
 42
-0.0668429697767973
  0
VERTEX
  5
1ED
330
1E0
100
AcDbEntity
  8
0
100
AcDbVertex
100
AcDb2dVertex
 10
33.72807248223742
 20
26.98955669005028
 30
0.0
 42
-0.090840421106692
  0
SEQEND
  5
1EE
330
1E0
100
AcDbEntity
  8
0
  0
POLYLINE
  5
1EF
330
2
100
AcDbEntity
  8
0
100
AcDb2dPolyline
 66
     1
 10
0.0
 20
0.0
 30
0.0
  0
VERTEX
  5
1F0
330
1EF
100
AcDbEntity
  8
0
100
AcDbVertex
100
AcDb2dVertex
 10
34.1813365226974
 20
26.6931340576723
 30
0.0
 42
-0.0745402614561629
  0
VERTEX
  5
1F1
330
1EF
100
AcDbEntity
  8
0
100
AcDbVertex
100
AcDb2dVertex
 10
34.46936579141141
 20
29.40200935760447
 30
0.0
 42
-0.0819365762137526
  0
VERTEX
  5
1F2
330
1EF
100
AcDbEntity
  8
0
100
AcDbVertex
100
AcDb2dVertex
 10
35.47707556060539
 20
31.66924098739992
 30
0.0
 42
-0.0382246655931619
  0
VERTEX
  5
1F3
330
1EF
100
AcDbEntity
  8
0
100
AcDbVertex
100
AcDb2dVertex
 10
36.73424233986711
 20
33.29523955172596
 30
0.0
 42
-0.0691838780396303
  0
VERTEX
  5
1F4
330
1EF
100
AcDbEntity
  8
0
100
AcDbVertex
100
AcDb2dVertex
 10
37.60707924123187
 20
34.02754986210255
 30
0.0
 42
-0.1505247027418366
  0
VERTEX
  5
1F5
330
1EF
100
AcDbEntity
  8
0
100
AcDbVertex
100
AcDb2dVertex
 10
38.86799709999147
 20
34.36449322249428
 30
0.0
 42
-0.0265704236833233
  0
VERTEX
  5
1F6
330
1EF
100
AcDbEntity
  8
0
100
AcDbVertex
100
AcDb2dVertex
 10
39.32371344689591
 20
34.32299323715214
 30
0.0
  0
SEQEND
  5
1F7
330
1EF
100
AcDbEntity
  8
0
  0
POLYLINE
  5
1F8
330
2
100
AcDbEntity
  8
0
100
AcDb2dPolyline
 66
     1
 10
0.0
 20
0.0
 30
0.0
  0
VERTEX
  5
1F9
330
1F8
100
AcDbEntity
  8
0
100
AcDbVertex
100
AcDb2dVertex
 10
34.3884909582327
 20
26.55766056405952
 30
0.0
 42
-0.078575973028044
  0
VERTEX
  5
1FA
330
1F8
100
AcDbEntity
  8
0
100
AcDbVertex
100
AcDb2dVertex
 10
34.66291179685712
 20
29.35161150272944
 30
0.0
 42
-0.0819365762137527
  0
VERTEX
  5
1FB
330
1F8
100
AcDbEntity
  8
0
100
AcDbVertex
100
AcDb2dVertex
 10
35.64417590437853
 20
31.55934342095327
 30
0.0
 42
-0.0382246655931619
  0
VERTEX
  5
1FC
330
1F8
100
AcDbEntity
  8
0
100
AcDbVertex
100
AcDb2dVertex
 10
36.88266542778464
 20
33.16118513377182
 30
0.0
 42
-0.0691838780396306
  0
VERTEX
  5
1FD
330
1F8
100
AcDbEntity
  8
0
100
AcDbVertex
100
AcDb2dVertex
 10
37.71330389142091
 20
33.8580909476359
 30
0.0
 42
-0.1505247027418365
  0
VERTEX
  5
1FE
330
1F8
100
AcDbEntity
  8
0
100
AcDbVertex
100
AcDb2dVertex
 10
38.86046157352385
 20
34.16463523330981
 30
0.0
 42
-0.0283366032989949
  0
VERTEX
  5
1FF
330
1F8
100
AcDbEntity
  8
0
100
AcDbVertex
100
AcDb2dVertex
 10
39.32371344689591
 20
34.12079978610329
 30
0.0
 42
-0.1067816705428748
  0
SEQEND
  5
200
330
1F8
100
AcDbEntity
  8
0
  0
POLYLINE
  5
201
330
2
100
AcDbEntity
  8
0
100
AcDb2dPolyline
 66
     1
 10
0.0
 20
0.0
 30
0.0
  0
VERTEX
  5
202
330
201
100
AcDbEntity
  8
0
100
AcDbVertex
100
AcDb2dVertex
 10
34.49175725740824
 20
26.49012714974651
 30
0.0
 42
-0.0864966475812235
  0
VERTEX
  5
203
330
201
100
AcDbEntity
  8
0
100
AcDbVertex
100
AcDb2dVertex
 10
35.1277185957278
 20
27.74655884483002
 30
0.0
 42
-0.1260793531573543
  0
VERTEX
  5
204
330
201
100
AcDbEntity
  8
0
100
AcDbVertex
100
AcDb2dVertex
 10
35.88592511278068
 20
28.35822554081335
 30
0.0
 42
-0.0665074896870642
  0
VERTEX
  5
205
330
201
100
AcDbEntity
  8
0
100
AcDbVertex
100
AcDb2dVertex
 10
37.43479401644882
 20
28.82917154449035
 30
0.0
 42
-0.0872984471678328
  0
VERTEX
  5
206
330
201
100
AcDbEntity
  8
0
100
AcDbVertex
100
AcDb2dVertex
 10
38.67196568677093
 20
28.81457325338863
 30
0.0
 42
-0.0298303408717098
  0
VERTEX
  5
207
330
201
100
AcDbEntity
  8
0
100
AcDbVertex
100
AcDb2dVertex
 10
38.9564762643987
 20
28.7432584942897
 30
0.0
 42
-0.0166425548949878
  0
VERTEX
  5
208
330
201
100
AcDbEntity
  8
0
100
AcDbVertex
100
AcDb2dVertex
 10
39.23083855130187
 20
28.64666226552104
 30
0.0
  0
SEQEND
  5
209
330
201
100
AcDbEntity
  8
0
  0
POLYLINE
  5
20A
330
2
100
AcDbEntity
  8
0
100
AcDb2dPolyline
 66
     1
 10
0.0
 20
0.0
 30
0.0
  0
VERTEX
  5
20B
330
20A
100
AcDbEntity
  8
0
100
AcDbVertex
100
AcDb2dVertex
 10
34.56827805242858
 20
26.46679117045579
 30
0.0
 42
-0.0864966475812234
  0
VERTEX
  5
20C
330
20A
100
AcDbEntity
  8
0
100
AcDbVertex
100
AcDb2dVertex
 10
35.19183218242373
 20
27.69871066826096
 30
0.0
 42
-0.1260793531573541
  0
VERTEX
  5
20D
330
20A
100
AcDbEntity
  8
0
100
AcDbVertex
100
AcDb2dVertex
 10
35.91912890843287
 20
28.28544155937311
 30
0.0
 42
-0.0665074896870643
  0
VERTEX
  5
20E
330
20A
100
AcDbEntity
  8
0
100
AcDbVertex
100
AcDb2dVertex
 10
37.44772552535642
 20
28.7502236117918
 30
0.0
 42
-0.0872984471678326
  0
VERTEX
  5
20F
330
20A
100
AcDbEntity
  8
0
100
AcDbVertex
100
AcDb2dVertex
 10
38.65717490923072
 20
28.73595243617234
 30
0.0
 42
-0.0298303408717098
  0
VERTEX
  5
210
330
20A
100
AcDbEntity
  8
0
100
AcDbVertex
100
AcDb2dVertex
 10
38.9324344554214
 20
28.66695651907873
 30
0.0
 42
-0.0179888392241807
  0
VERTEX
  5
211
330
20A
100
AcDbEntity
  8
0
100
AcDbVertex
100
AcDb2dVertex
 10
39.22327228935809
 20
28.56367890986338
 30
0.0
 42
-0.0223727101742846
  0
SEQEND
  5
212
330
20A
100
AcDbEntity
  8
0
  0
ELLIPSE
  5
213
330
2
100
AcDbEntity
  8
0
100
AcDbEllipse
 10
27.34125241769834
 20
18.68878632033505
 30
0.0
 11
-0.3830741409384471
 21
0.0861019405737693
 31
0.0
210
0.0
220
0.0
230
1.0
 40
0.5809397374563459
 41
5.714265006057349
 42
9.85740178862858
  0
ELLIPSE
  5
214
330
2
100
AcDbEntity
  8
0
100
AcDbEllipse
 10
27.34125241769834
 20
18.68878632033505
 30
0.0
 11
-0.3830741409384471
 21
0.0861019405737693
 31
0.0
210
0.0
220
0.0
230
1.0
 40
0.5809397374563459
 41
10.57037100166608
 42
11.68104088359399
  0
ELLIPSE
  5
215
330
2
100
AcDbEntity
  8
0
100
AcDbEllipse
 10
28.52960084036079
 20
22.53419801080781
 30
0.0
 11
-0.3517167519848954
 21
0.1221050215827973
 31
0.0
210
0.0
220
0.0
230
1.0
 40
0.6455762318861252
 41
5.57074265611684
 42
10.15760111439395
  0
ELLIPSE
  5
216
330
2
100
AcDbEntity
  8
0
100
AcDbEllipse
 10
28.52960084036079
 20
22.53419801080781
 30
0.0
 11
-0.3517167519848954
 21
0.1221050215827973
 31
0.0
210
0.0
220
0.0
230
1.0
 40
0.6455762318861252
 41
10.79334250496275
 42
11.56579345218613
  0
ELLIPSE
  5
217
330
2
100
AcDbEntity
  8
0
100
AcDbEllipse
 10
33.18294921770769
 20
28.03255674705929
 30
0.0
 11
-0.0976200672032519
 21
-0.2757344610830614
 31
0.0
210
0.0
220
0.0
230
0.9999999999999998
 40
0.6893643018305377
 41
2.571438519388913
 42
6.923706853574568
  0
ELLIPSE
  5
218
330
2
100
AcDbEntity
  8
0
100
AcDbEllipse
 10
33.18294921770769
 20
28.03255674705929
 30
0.0
 11
-0.0976200672032519
 21
-0.2757344610830614
 31
0.0
210
0.0
220
0.0
230
0.9999999999999998
 40
0.6893643018305377
 41
7.714972198776042
 42
8.451705391672668
  0
ELLIPSE
  5
219
330
2
100
AcDbEntity
  8
0
100
AcDbEllipse
 10
30.4643539554146
 20
26.44233761157324
 30
0.0
 11
0.2750620245872142
 21
-0.2687932199876855
 31
0.0
210
0.0
220
0.0
230
1.0
 40
0.5997093324209701
 41
2.503148074535857
 42
7.146244927074576
  0
ELLIPSE
  5
21A
330
2
100
AcDbEntity
  8
0
100
AcDbEllipse
 10
30.4643539554146
 20
26.44233761157324
 30
0.0
 11
0.2750620245872142
 21
-0.2687932199876855
 31
0.0
210
0.0
220
0.0
230
1.0
 40
0.5997093324209701
 41
7.756559642359725
 42
8.506058199430404
  0
ELLIPSE
  5
21B
330
2
100
AcDbEntity
  8
0
100
AcDbEllipse
 10
33.2012689530311
 20
25.86891401890409
 30
0.0
 11
0.0391924985307242
 21
0.2721633586079406
 31
0.0
210
0.0
220
0.0
230
1.0
 40
0.6734409848838056
 41
1.783251316079798
 42
6.966804327811712
  0
ELLIPSE
  5
21C
330
2
100
AcDbEntity
  8
0
100
AcDbEllipse
 10
33.1164837836684
 20
25.47477344836165
 30
0.0
 11
0.0503870955143384
 21
0.1494871175883077
 31
0.0
210
0.0
220
0.0
230
1.0
 40
0.5668852251311926
 41
0.0
 42
6.283185307179586
  0
ARC
  5
21D
330
2
100
AcDbEntity
  8
0
100
AcDbCircle
 10
19.57502685523852
 20
25.00681712025733
 30
0.0
 40
13.49610138121925
100
AcDbArc
 50
306.0237860935812
 51
1.350384722851418
  0
ENDSEC
  0
SECTION
  2
OBJECTS
  0
DICTIONARY
  5
A
330
0
100
AcDbDictionary
281
     1
  3
ACAD_COLOR
350
3F
  3
ACAD_GROUP
350
36
  3
ACAD_LAYOUT
350
17
  3
ACAD_MATERIAL
350
C
  3
ACAD_MLEADERSTYLE
350
42
  3
ACAD_MLINESTYLE
350
37
  3
ACAD_PLOTSETTINGS
350
38
  3
ACAD_PLOTSTYLENAME
350
9
  3
ACAD_SCALELIST
350
40
  3
ACAD_TABLESTYLE
350
41
  3
ACAD_VISUALSTYLE
350
2C
  3
ACDB_RECOMPOSE_DATA
350
22D
  3
AcDbVariableDictionary
350
21F
  3
AcDsDecomposeData
350
233
  0
DICTIONARY
  5
1F
330
1E
100
AcDbDictionary
280
     1
281
     1
  3
ACAD_LAYERSTATES
360
20
  0
DICTIONARY
  5
7
330
6
100
AcDbDictionary
280
     1
281
     1
  0
DICTIONARY
  5
3
330
2
100
AcDbDictionary
280
     1
281
     1
  3
ACAD_SORTENTS
360
21E
  0
DICTIONARY
  5
3F
102
{ACAD_REACTORS
330
A
102
}
330
A
100
AcDbDictionary
281
     1
  0
DICTIONARY
  5
36
102
{ACAD_REACTORS
330
A
102
}
330
A
100
AcDbDictionary
281
     1
  0
DICTIONARY
  5
17
102
{ACAD_REACTORS
330
A
102
}
330
A
100
AcDbDictionary
281
     1
  3
Model
350
16
  3
レイアウト1
350
1D
  0
DICTIONARY
  5
C
102
{ACAD_REACTORS
330
A
102
}
330
A
100
AcDbDictionary
281
     1
  3
ByBlock
350
3C
  3
ByLayer
350
39
  3
Global
350
B
  0
DICTIONARY
  5
42
102
{ACAD_REACTORS
330
A
102
}
330
A
100
AcDbDictionary
281
     1
  0
DICTIONARY
  5
37
102
{ACAD_REACTORS
330
A
102
}
330
A
100
AcDbDictionary
281
     1
  3
Standard
350
43
  0
DICTIONARY
  5
38
102
{ACAD_REACTORS
330
A
102
}
330
A
100
AcDbDictionary
281
     1
  0
ACDBDICTIONARYWDFLT
  5
9
102
{ACAD_REACTORS
330
A
102
}
330
A
100
AcDbDictionary
281
     1
  3
Normal
350
8
100
AcDbDictionaryWithDefault
340
8
  0
DICTIONARY
  5
40
102
{ACAD_REACTORS
330
A
102
}
330
A
100
AcDbDictionary
281
     1
  3
A0
350
48
  3
A1
350
49
  3
A2
350
4A
  3
A3
350
4B
  3
A4
350
4C
  3
A5
350
4D
  3
A6
350
4E
  3
A7
350
4F
  3
A8
350
50
  3
A9
350
51
  3
B0
350
52
  3
B1
350
53
  3
B2
350
54
  3
B3
350
55
  3
B4
350
56
  3
B5
350
57
  3
B6
350
58
  0
DICTIONARY
  5
41
102
{ACAD_REACTORS
330
A
102
}
330
A
100
AcDbDictionary
281
     1
  3
Standard
350
44
  0
DICTIONARY
  5
2C
102
{ACAD_REACTORS
330
A
102
}
330
A
100
AcDbDictionary
281
     1
  3
2dWireframe
350
2B
  3
Realistic
350
46
  3
Wireframe
350
47
  0
XRECORD
  5
22D
102
{ACAD_REACTORS
330
A
102
}
330
A
100
AcDbXrecord
280
     1
 90
        1
330
44
  0
DICTIONARY
  5
21F
102
{ACAD_REACTORS
330
A
102
}
330
A
100
AcDbDictionary
281
     1
  3
CANNOSCALE
350
225
  3
CMLEADERSTYLE
350
221
  3
CTABLESTYLE
350
220
  3
CVIEWDETAILSTYLE
350
222
  3
CVIEWSECTIONSTYLE
350
223
  3
LAYEREVAL
350
227
  3
LAYERNOTIFY
350
228
  3
LIGHTINGUNITS
350
226
  3
MSLTSCALE
350
224
  3
PSOLHEIGHT
350
22A
  3
PSOLWIDTH
350
229
  3
XCLIPFRAME
350
22B
  0
DICTIONARY
  5
233
102
{ACAD_REACTORS
330
A
102
}
330
A
100
AcDbDictionary
281
     1
  3
AcDsRecords
350
235
  3
AcDsSchemas
350
234
1001
ACAD
1070
     2
  0
DICTIONARY
  5
20
102
{ACAD_REACTORS
330
1F
102
}
330
1F
100
AcDbDictionary
281
     1
  0
SORTENTSTABLE
  5
21E
102
{ACAD_REACTORS
330
3
102
}
330
3
100
AcDbSortentsTable
330
2
  0
LAYOUT
  5
16
102
{ACAD_XDICTIONARY
360
18
102
}
102
{ACAD_REACTORS
330
17
102
}
330
17
100
AcDbPlotSettings
  1

  2
none_device
  4
ISO_A4_(210.00_x_297.00_MM)
  6

 40
7.5
 41
20.0
 42
7.5
 43
20.0
 44
210.0
 45
297.0
 46
11.54999923706054
 47
-13.65000009536743
 48
0.0
 49
0.0
140
0.0
141
0.0
142
1.0
143
8.704084754739808
 70
 11952
 72
     1
 73
     0
 74
     0
  7

 75
     0
147
0.1148885871608098
 76
     0
 77
     2
 78
   300
148
0.0
149
0.0
100
AcDbLayout
  1
Model
 70
     1
 71
     0
 10
0.0
 20
0.0
 11
12.0
 21
9.0
 12
0.0
 22
0.0
 32
0.0
 14
0.0
 24
0.0
 34
0.0
 15
0.0
 25
0.0
 35
0.0
146
0.0
 13
0.0
 23
0.0
 33
0.0
 16
1.0
 26
0.0
 36
0.0
 17
0.0
 27
1.0
 37
0.0
 76
     0
330
2
331
2A
1001
ACAD_PSEXT
1000
None
1000
None
1000
Not applicable
1000
The layout will not be plotted unless a new plotter configuration name is selected.
1070
     0
  0
LAYOUT
  5
1D
102
{ACAD_REACTORS
330
17
102
}
330
17
100
AcDbPlotSettings
  1

  2
C:\Documents and Settings\basas\Application Data\Autodesk\AutoCAD 2005\R16.1\enu\plotters\Default Windows System Printer.pc3
  4

  6

 40
0.0
 41
0.0
 42
0.0
 43
0.0
 44
0.0
 45
0.0
 46
0.0
 47
0.0
 48
0.0
 49
0.0
140
0.0
141
0.0
142
1.0
143
1.0
 70
   688
 72
     0
 73
     0
 74
     5
  7

 75
    16
147
1.0
 76
     0
 77
     2
 78
   300
148
0.0
149
0.0
100
AcDbLayout
  1
レイアウト1
 70
     1
 71
     1
 10
0.0
 20
0.0
 11
12.0
 21
9.0
 12
0.0
 22
0.0
 32
0.0
 14
0.0
 24
0.0
 34
0.0
 15
0.0
 25
0.0
 35
0.0
146
0.0
 13
0.0
 23
0.0
 33
0.0
 16
1.0
 26
0.0
 36
0.0
 17
0.0
 27
1.0
 37
0.0
 76
     0
330
1A
  0
MATERIAL
  5
3C
102
{ACAD_XDICTIONARY
360
3D
102
}
102
{ACAD_REACTORS
330
C
102
}
330
C
100
AcDbMaterial
  1
ByBlock
  0
MATERIAL
  5
39
102
{ACAD_XDICTIONARY
360
3A
102
}
102
{ACAD_REACTORS
330
C
102
}
330
C
100
AcDbMaterial
  1
ByLayer
  0
MATERIAL
  5
B
102
{ACAD_XDICTIONARY
360
D
102
}
102
{ACAD_REACTORS
330
C
102
}
330
C
100
AcDbMaterial
  1
Global
 43
0.0007999999797903
 43
0.0
 43
0.0
 43
0.0
 43
0.0
 43
0.0007999999797903
 43
0.0
 43
0.0
 43
0.0
 43
0.0
 43
1.0
 43
0.0
 43
0.0
 43
0.0
 43
0.0
 43
1.0
 49
0.0007999999797903
 49
0.0
 49
0.0
 49
0.0
 49
0.0
 49
0.0007999999797903
 49
0.0
 49
0.0
 49
0.0
 49
0.0
 49
1.0
 49
0.0
 49
0.0
 49
0.0
 49
0.0
 49
1.0
142
0.0007999999797903
142
0.0
142
0.0
142
0.0
142
0.0
142
0.0007999999797903
142
0.0
142
0.0
142
0.0
142
0.0
142
1.0
142
0.0
142
0.0
142
0.0
142
0.0
142
1.0
144
0.0007999999797903
144
0.0
144
0.0
144
0.0
144
0.0
144
0.0007999999797903
144
0.0
144
0.0
144
0.0
144
0.0
144
1.0
144
0.0
144
0.0
144
0.0
144
0.0
144
1.0
1001
ACAD
1070
    -1
1070
     3
1070
     0
1000

1071
        0
1070
     0
  0
MLINESTYLE
  5
43
102
{ACAD_REACTORS
330
37
102
}
330
37
100
AcDbMlineStyle
  2
STANDARD
 70
     0
  3

 62
   256
 51
90.0
 52
90.0
 71
     2
 49
0.5
 62
   256
  6
BYLAYER
 49
-0.5
 62
   256
  6
BYLAYER
  0
ACDBPLACEHOLDER
  5
8
102
{ACAD_REACTORS
330
9
102
}
330
9
  0
SCALE
  5
48
102
{ACAD_REACTORS
330
40
102
}
330
40
100
AcDbScale
 70
     0
300
1:1
140
1.0
141
1.0
290
     1
  0
SCALE
  5
49
102
{ACAD_REACTORS
330
40
102
}
330
40
100
AcDbScale
 70
     0
300
1:2
140
1.0
141
2.0
290
     0
  0
SCALE
  5
4A
102
{ACAD_REACTORS
330
40
102
}
330
40
100
AcDbScale
 70
     0
300
1:4
140
1.0
141
4.0
290
     0
  0
SCALE
  5
4B
102
{ACAD_REACTORS
330
40
102
}
330
40
100
AcDbScale
 70
     0
300
1:5
140
1.0
141
5.0
290
     0
  0
SCALE
  5
4C
102
{ACAD_REACTORS
330
40
102
}
330
40
100
AcDbScale
 70
     0
300
1:8
140
1.0
141
8.0
290
     0
  0
SCALE
  5
4D
102
{ACAD_REACTORS
330
40
102
}
330
40
100
AcDbScale
 70
     0
300
1:10
140
1.0
141
10.0
290
     0
  0
SCALE
  5
4E
102
{ACAD_REACTORS
330
40
102
}
330
40
100
AcDbScale
 70
     0
300
1:16
140
1.0
141
16.0
290
     0
  0
SCALE
  5
4F
102
{ACAD_REACTORS
330
40
102
}
330
40
100
AcDbScale
 70
     0
300
1:20
140
1.0
141
20.0
290
     0
  0
SCALE
  5
50
102
{ACAD_REACTORS
330
40
102
}
330
40
100
AcDbScale
 70
     0
300
1:30
140
1.0
141
30.0
290
     0
  0
SCALE
  5
51
102
{ACAD_REACTORS
330
40
102
}
330
40
100
AcDbScale
 70
     0
300
1:40
140
1.0
141
40.0
290
     0
  0
SCALE
  5
52
102
{ACAD_REACTORS
330
40
102
}
330
40
100
AcDbScale
 70
     0
300
1:50
140
1.0
141
50.0
290
     0
  0
SCALE
  5
53
102
{ACAD_REACTORS
330
40
102
}
330
40
100
AcDbScale
 70
     0
300
1:100
140
1.0
141
100.0
290
     0
  0
SCALE
  5
54
102
{ACAD_REACTORS
330
40
102
}
330
40
100
AcDbScale
 70
     0
300
2:1
140
2.0
141
1.0
290
     0
  0
SCALE
  5
55
102
{ACAD_REACTORS
330
40
102
}
330
40
100
AcDbScale
 70
     0
300
4:1
140
4.0
141
1.0
290
     0
  0
SCALE
  5
56
102
{ACAD_REACTORS
330
40
102
}
330
40
100
AcDbScale
 70
     0
300
8:1
140
8.0
141
1.0
290
     0
  0
SCALE
  5
57
102
{ACAD_REACTORS
330
40
102
}
330
40
100
AcDbScale
 70
     0
300
10:1
140
10.0
141
1.0
290
     0
  0
SCALE
  5
58
102
{ACAD_REACTORS
330
40
102
}
330
40
100
AcDbScale
 70
     0
300
100:1
140
100.0
141
1.0
290
     0
  0
TABLESTYLE
  5
44
102
{ACAD_XDICTIONARY
360
45
102
}
102
{ACAD_REACTORS
330
41
102
}
330
41
100
AcDbTableStyle
  3
Standard
 70
     0
 71
     0
 40
1.5
 41
1.5
280
     0
281
     0
  7
Standard
140
4.5
170
     2
 62
     0
 63
     7
283
     0
274
    -2
284
     1
 64
     0
275
    -2
285
     1
 65
     0
276
    -2
286
     1
 66
     0
277
    -2
287
     1
 67
     0
278
    -2
288
     1
 68
     0
279
    -2
289
     1
 69
     0
  7
Standard
140
6.0
170
     5
 62
     0
 63
     7
283
     0
274
    -2
284
     1
 64
     0
275
    -2
285
     1
 65
     0
276
    -2
286
     1
 66
     0
277
    -2
287
     1
 67
     0
278
    -2
288
     1
 68
     0
279
    -2
289
     1
 69
     0
  7
Standard
140
4.5
170
     5
 62
     0
 63
     7
283
     0
274
    -2
284
     1
 64
     0
275
    -2
285
     1
 65
     0
276
    -2
286
     1
 66
     0
277
    -2
287
     1
 67
     0
278
    -2
288
     1
 68
     0
279
    -2
289
     1
 69
     0
  0
VISUALSTYLE
  5
2B
102
{ACAD_XDICTIONARY
360
237
102
}
102
{ACAD_REACTORS
330
2C
102
}
330
2C
100
AcDbVisualStyle
  2
2dWireframe
 70
     4
 71
     0
 72
     2
 73
     1
 90
        0
 40
-0.6
 41
-30.0
 62
     5
 63
     7
421
 16777215
 74
     1
 91
        4
 64
     7
 65
   257
 75
     1
175
     1
 42
1.0
 92
        0
 66
   257
 43
1.0
 76
     1
 77
     6
 78
     2
 67
     7
 79
     5
170
     0
171
     0
290
     0
174
     0
 93
        1
 44
0.0
173
     0
291
     0
 45
0.0
1001
ACAD
1000
AcDbSavedByObjectVersion
1070
     0
  0
VISUALSTYLE
  5
46
102
{ACAD_XDICTIONARY
360
23C
102
}
102
{ACAD_REACTORS
330
2C
102
}
330
2C
100
AcDbVisualStyle
  2
Realistic
 70
     8
 71
     2
 72
     3
 73
     0
 90
        2
 40
-0.6
 41
30.0
 62
     5
 63
     7
421
 16777215
 74
     0
 91
        0
 64
     7
 65
   257
 75
     1
175
     1
 42
1.0
 92
        8
 66
   257
 43
1.0
 76
     1
 77
     6
 78
     2
 67
     7
 79
     3
170
     0
171
     0
290
     0
174
     0
 93
       13
 44
0.0
173
     0
291
     0
 45
0.0
1001
ACAD
1000
AcDbSavedByObjectVersion
1070
     0
  0
VISUALSTYLE
  5
47
102
{ACAD_XDICTIONARY
360
23E
102
}
102
{ACAD_REACTORS
330
2C
102
}
330
2C
100
AcDbVisualStyle
  2
Wireframe
 70
     5
 71
     0
 72
     2
 73
     0
 90
        0
 40
-0.6
 41
-30.0
 62
     5
 63
     7
421
 16777215
 74
     1
 91
        4
 64
     7
 65
   257
 75
     1
175
     1
 42
1.0
 92
        0
 66
   257
 43
1.0
 76
     1
 77
     6
 78
     2
 67
     7
 79
     3
170
     0
171
     0
290
     0
174
     0
 93
        1
 44
0.0
173
     0
291
     0
 45
0.0
1001
ACAD
1000
AcDbSavedByObjectVersion
1070
     0
  0
DICTIONARYVAR
  5
225
102
{ACAD_REACTORS
330
21F
102
}
330
21F
100
DictionaryVariables
280
     0
  1
1:1
  0
DICTIONARYVAR
  5
221
102
{ACAD_REACTORS
330
21F
102
}
330
21F
100
DictionaryVariables
280
     0
  1
STANDARD
  0
DICTIONARYVAR
  5
220
102
{ACAD_REACTORS
330
21F
102
}
330
21F
100
DictionaryVariables
280
     0
  1
STANDARD
  0
DICTIONARYVAR
  5
222
102
{ACAD_REACTORS
330
21F
102
}
330
21F
100
DictionaryVariables
280
     0
  1

  0
DICTIONARYVAR
  5
223
102
{ACAD_REACTORS
330
21F
102
}
330
21F
100
DictionaryVariables
280
     0
  1

  0
DICTIONARYVAR
  5
227
102
{ACAD_REACTORS
330
21F
102
}
330
21F
100
DictionaryVariables
280
     0
  1
0
  0
DICTIONARYVAR
  5
228
102
{ACAD_REACTORS
330
21F
102
}
330
21F
100
DictionaryVariables
280
     0
  1
0
  0
DICTIONARYVAR
  5
226
102
{ACAD_REACTORS
330
21F
102
}
330
21F
100
DictionaryVariables
280
     0
  1
2
  0
DICTIONARYVAR
  5
224
102
{ACAD_REACTORS
330
21F
102
}
330
21F
100
DictionaryVariables
280
     0
  1
1
  0
DICTIONARYVAR
  5
22A
102
{ACAD_REACTORS
330
21F
102
}
330
21F
100
DictionaryVariables
280
     0
  1
80.000000
  0
DICTIONARYVAR
  5
229
102
{ACAD_REACTORS
330
21F
102
}
330
21F
100
DictionaryVariables
280
     0
  1
5.000000
  0
DICTIONARYVAR
  5
22B
102
{ACAD_REACTORS
330
21F
102
}
330
21F
100
DictionaryVariables
280
     0
  1
2
  0
DICTIONARY
  5
235
102
{ACAD_REACTORS
330
233
102
}
330
233
100
AcDbDictionary
281
     1
  0
DICTIONARY
  5
234
102
{ACAD_REACTORS
330
233
102
}
330
233
100
AcDbDictionary
281
     1
  3
1344685280
350
22E
  3
1344685296
350
22F
  3
1344685312
350
230
  3
1344685328
350
231
  3
1344685344
350
232
  0
DICTIONARY
  5
18
330
16
100
AcDbDictionary
280
     1
281
     1
  0
DICTIONARY
  5
3D
330
3C
100
AcDbDictionary
280
     1
281
     1
  3
ACAD_XREC_ROUNDTRIP
360
23A
  3
FBXASSET
360
3E
  0
DICTIONARY
  5
3A
330
39
100
AcDbDictionary
280
     1
281
     1
  3
ACAD_XREC_ROUNDTRIP
360
239
  3
FBXASSET
360
3B
  0
DICTIONARY
  5
D
330
B
100
AcDbDictionary
280
     1
281
     1
  3
ACAD_XREC_ROUNDTRIP
360
236
  3
BUMPTILE
360
E
  3
DIFFUSETILE
360
F
  3
FBXASSET
360
10
  3
OPACITYTILE
360
11
  3
REFLECTIONTILE
360
12
  0
DICTIONARY
  5
45
330
44
100
AcDbDictionary
280
     1
281
     1
  3
ACAD_ROUNDTRIP_2008_TABLESTYLE_CELLSTYLEMAP
360
22C
  3
ACAD_XREC_ROUNDTRIP
360
23B
  0
DICTIONARY
  5
237
330
2B
100
AcDbDictionary
280
     1
281
     1
  3
ACAD_XREC_ROUNDTRIP
360
238
  0
DICTIONARY
  5
23C
330
46
100
AcDbDictionary
280
     1
281
     1
  3
ACAD_XREC_ROUNDTRIP
360
23D
  0
DICTIONARY
  5
23E
330
47
100
AcDbDictionary
280
     1
281
     1
  3
ACAD_XREC_ROUNDTRIP
360
23F
  0
XRECORD
  5
22E
102
{ACAD_REACTORS
330
234
102
}
330
234
100
AcDbXrecord
280
     1
  1
AcDb_Thumbnail_Schema
102
{ATTRRECORD
341
22F
  2
AcDbDs::TreatedAsObjectData
280
     1
291
     1
102
ATTRRECORD}
102
{ATTRRECORD
341
230
  2
AcDbDs::Legacy
280
     1
291
     1
102
ATTRRECORD}
  2
AcDbDs::ID
280
    10
 91
        8
102
{ATTRRECORD
341
231
  2
AcDs:Indexable
280
     1
291
     1
102
ATTRRECORD}
102
{ATTRRECORD
341
232
  2
AcDbDs::HandleAttribute
280
     7
282
     1
102
ATTRRECORD}
  2
Thumbnail_Data
280
    15
 91
        0
  0
XRECORD
  5
22F
102
{ACAD_REACTORS
330
234
102
}
330
234
100
AcDbXrecord
280
     1
  1
AcDbDs::TreatedAsObjectDataSchema
  2
AcDbDs::TreatedAsObjectData
280
     1
 91
        0
  0
XRECORD
  5
230
102
{ACAD_REACTORS
330
234
102
}
330
234
100
AcDbXrecord
280
     1
  1
AcDbDs::LegacySchema
  2
AcDbDs::Legacy
280
     1
 91
        0
  0
XRECORD
  5
231
102
{ACAD_REACTORS
330
234
102
}
330
234
100
AcDbXrecord
280
     1
  1
AcDbDs::IndexedPropertySchema
  2
AcDs:Indexable
280
     1
 91
        0
  0
XRECORD
  5
232
102
{ACAD_REACTORS
330
234
102
}
330
234
100
AcDbXrecord
280
     1
  1
AcDbDs::HandleAttributeSchema
  2
AcDbDs::HandleAttribute
280
     7
 91
        1
284
     1
  0
XRECORD
  5
23A
102
{ACAD_REACTORS
330
3D
102
}
330
3D
100
AcDbXrecord
280
     1
102
MATERIAL
148
0.0
149
0.0
149
0.0
 93
        0
 94
       63
282
     0
 72
     1
 77
     1
171
     1
175
     1
179
     1
273
     0
  0
XRECORD
  5
3E
102
{ACAD_REACTORS
330
3D
102
}
330
3D
100
AcDbXrecord
280
     1
 70
     1
 90
429727718
  1
D62C5603-E3A1-4AEA-B7FB-FE5D8D0755AF
310
504B03040A0000080000CC70623B3DEE336E79000000790000001B0000006175746F6465736B2D64657369676E2D7061636B6167652E786D6C3C3F786D6C2076657273696F6E3D22312E302220656E636F64696E673D227574662D3822203F3E3C666F726D6174733E3C666F726D61743E687474703A2F2F736368656D612E
310
6175746F6465736B2E636F6D2F64657369676E2D7061636B6167652F323030393C2F666F726D61743E3C2F666F726D6174733E504B0304140006080800CC70623BD486FD9CA0000000F4000000130000005B436F6E74656E745F54797065735D2E786D6C7D8EC10E82300C865F65E91D8A1E8C310C0EEA1BF002731658846E
310
D98AC1B77784ABF1D8FE5FBFBF75BBCE937A534CCEB38643598122B6FEE978D0B0485F9C41B54DDD7D022595594E1A469170414C76A4D9A4D207E29CF43ECE46F218070CC6BECC4078ACAA135ACF422C856C0E68EA1BF5669944DDD7BCDE7B1F8E415D77AECB980613C2E4AC91FC167A2B244592486606FC29C8FD7F045B9A
310
EF7053A7E60B504B0304140006080800CC70623B853B8169EB0000007C01000008000000636F72652E786D6C8D90416EC3201045AF62CDB6C206821CC7C244919D9CA01740401C94182C03558F5F9C3852BBEB6A467FFE9B197D7EFC9E1EC5975982F5AE035262288C535E5B377690E21535501C055FBC8FBF6C503839990E
310
5619041F179FE64D52DE45E362569DD7661365082642A11EB9E920A89B99642953CC8E702F67A9EE7234257977194EC9EAE275C4EABCCF5EAD5940D4AC6F0E35A568B8F43562CD7046CD199FD07E60174276A7BE677B5EADB0E0D14EEFFB6A31321A0D82627C4084204C3F096B71DD52F6819B16635EADF63F509AF53FA164
310
5DDCD1EDDD17164090FCC8732078B56691CB33A85CD7DCC40F504B0304140006080800CC70623B55019EA25F0000007C00000007000000636E782E786D6C4DCB3B0E80201045D1AD90E915ED2CF8AC45050C11660C8261F98AB1B07AC9C97D42D718D865D3E909258CFD00CCE24AC6E326A164D74DC0B4128928FF32603847
310
2BA13128B1252AC747C6BAB984FC68F0B87FE8960A5C09FE86CFB69FBA01504B0304140006080800CC70623BDBABAAF470010000D40300000C0000006662782F636F72652E786D6CC553D16E823014FD95A6AF4B694182CC941A83FA05FB810A9511A125A5257EFE2E82712ECEB8A7F100CD39F7F69E734AF9FADC366850B6
310
AF8DCE7018308C942E4C59EB2AC3DE1D498AD15A706B8CFB56869196ADCAF00863C12B6B7C374385D14E6907A836A59A41D9F7CA615434B0C8705F7CAA5606D23BA8E84F41278B93AC54100640439DE0BDB320004D43C63716C7C399D30917DCFBBA9CD9BA8469F5B156168B24CED3F7248AC8769F27244EB73B92EED8862C
310
B7F13E0C179B3C8F979C8ECD82BBBABDAA2BAC924E9558448CBD9330242CFA08E3154B5651FCC6D215639C8EE5774DBE2B5F6CF2B5768B68963BB5F5588420E442FC700B1139D4CB01F450C1E918227C2E09DF070D8140C84E1E9AAB8F1340832A9CB13130A5F1376A908D57309505ECF2A0DF179C4E9D30F5B239B87E3823
310
7A79C6F31DE1A8A5AEC08474B03C7837EAE4938639B44E5932B833D2C6B6B279CDC613877FA26EE21F4A2A4C63EC7F29A2F301D1F9F7A0E37D145F504B0304140006080800CC70623B9C113CC27E0000009D0000000B0000006662782F636E782E786D6C4DCCDF0A83201C86E15B91DFB94BFB330DD428C8FB886521330DA7
310
6397BF1A1DECE883878F57749FCDA1B7892F1BBC047A23808C7F84D9FA55424E0BE6803A256208E9EF06C84F9B91703228B1C690F78B66B34CD9A5439DF5CF0BFBF65E35BCA1B8D6A5C6F540381E886698B5741C695F9503EBA150A2F8958E3DC3EA0B504B0304140006080800CC70623B7DF2F77C2A010000120200003100
310
00006662782F41393633353835312D344632462D344230382D423046372D3739314545314133324237412F636F72652E786D6C8D51DB8EC22014FC15C2939B0D2DB4B45643319AE817EC0F6041255A68B86CFCFC856D4D76DF7CE190393373060EDB3DC707F856CE6B6B7A480A0C81328395DA5C7B18C3057510EC3873D686
310
3F34088C18550F330C39BB3A1BA7051AAC09CA84841A2BD5020AEF55806078A44B0FFD7053A328440C89E1EFC52486BBB8AA8214A99D789CF9E05200300FC927E4FB4D5B375D43103D5527440FB843077C5AA3F5861C8F645F5787F59E95B390B318B55CE45AA638FAA2957BD7248B390B7A7CC51F9C124149C82B8C378810
310
84AB2F42B7B8DD56F413775B8C5999E9FF4471926F8AA236A1AE96B8B3CC434E5839373893369E1FAF30EA395917409EB7F26AF8801C171837A4A6AC9C89E9F9C9B1A58BA30FD6A5EF5DDDCF894B9AD9B6A59C957943A9FCAE2FD5BC4DFE03504B0304140006080800CC70623BAD7543B64E01000033030000300000006662
310
782F41393633353835312D344632462D344230382D423046372D3739314545314133324237412F636E782E786D6CD593CD6EC32010845F0571AD6CE3D48AD20813A9873E410FBD12D82434182C7EAAE6EDBB2424CD25871E7B41D6EC30B3FA84F9E67BB2E40B4234DE8DB46F1925E094D7C6ED479AD3AE5951B2113C789FEE
310
6C943839C1488B4C05DF079FE72A69D8C96C13AAD6B8631503449F83828872B949AC57D26200B826A308D316B4064D6E46FCDA41C05550DC9E483A00797BFD207EFB092A45DE9514C1BBD22178396BD39D891265658C238DEA00936C654E5E433CB65A26D9F6EDB5EBC14EBF49A45CB856E66048291F6939A9A81BB5C89177
310
38143CA680F4AA299D66A042CEB3354A2684DC9D8D178FE0D9B8B41CAAD720F880EE7EF93C0C18769E099ECC04D5A102C8049A8A05632F4DDF376CF1DE0F6BB65C2F8627B65A33C6BB62177CEBBDAD973006829F89F22E814B54F4BC2BE347F8AA8F681390B50FA73F804400B5F542E796F19FF974E7F78DB802FE05E20750
310
4B0304140006080800CC70623BE75B7789680500003C100000340000006662782F41393633353835312D344632462D344230382D423046372D3739314545314133324237412F6F626A656374732E786D6CAD575B8F9B3818FD2B887D06C22499CB8AA1CA655245D5B455A356FB305264C061D8018C6C3393D95FBFC7600890
310
A4CD5EF210B0B1BFEBF98E3F7B1FF6596ABC522E1296DF9BAE3D320D9A872C4AF2F8DE2CE5CEBA358D0FBEC719939D65A691938CDE9B6ADAF4BD98B3B2D05311DD91329583D9D5FC0F438434A7A611A644887B5384CF34233629258BA878B12322891DEFF6B66BD70BFB62634E8AE781D082709A4B588AF91C528CDA28B73F
310
1C998EEF39EABBEFA97FBD6A7C7E9553F9D3D79FE442923C3C523610337627CB87ABE99D359D4CC6D6E4FACAB5E6ABF9D2726FC6A3C5F56271377BB88362213924694B38DD99FE47C48627A1E7D49F5A8BB5E1A74C0A599ED3B0F21F1E56366B89112D681E218F0915D0D6F17AD41FBA2A369DCF6335D62ABBD39779D5DDD1
310
11D4D8DE3CBB96B2E04FB8202E41051754A1AA8E8F76B4C6DFE810B580B1547F4B84911149794252234D024EF8BBE963A95AE27B3D310A9D5C215C7960FAEE415ED75694C6AFB17BCACA5D99A60A9AA65F217B0BFC53292ACB92BF283FAD0D3621576592CB5BED907C2FA8E9DF794E35E97BEA31BED21FEB401ABB94C44839
310
DCACBF0E1C5DA8DA5B2F4DFFD32AD86F543D9E565E7056502E157C00AD2671CD534549AB752FCA9CDA00677A313F04E51B22FF19E57B300579E3C97EB29F682D92935CEC18CF901B7B54FD8C51F362B56FC72FE0B3C1EAE335EDCCBF5AEC39ADB17DC238973F804BA5E6F6BFE7AF1FB32E523BE9F3BD571418E3631DCA4D48
310
5250CF639223210A9446CA30052EDF057BD35F8329C1ECD84552BF0DC8D18BE7BCE23BFE6BD960AB4A7DE79923A103BEBD80F911CBAA2C60DB19B01CF164A5583B772EE6D3FFA56666CBCDA74DC97724A48F9A58967497E489C4D979006FD7A05E227A1EBDD0F737C623387A9C844D3709995625106D157315F8B8392CD4E0
310
A0B9A720C4BE9829CEF37EA1E13111214D53925356365ADA634861B52519DD27A00AEB808EAF0628E6F435519D446F45CF2C9CF5214F0A15B2F6D06B79DA3EE3CBF7F56780D2F4E7EF73A0F5E5B02A38D07DC852C6B7C1FBB6664213E0C39E3EBA7FF4E1AD23EA2829407C85E586727488B751B2DB9502BC7B228A3FD68B6E
310
A65A22397E690AA8D158D7E404EC8CDA235CC3B7D1898680131CEC2CDF2638C65196279577750F15884AEE19F94199155B92B13297978469D4F8D358DF0AEF7631E28DC8F0D9F437D5D39A83B2231A1D52D543813A824EF8D44BCFF2FA6A31BD1E8DAD87F1CCB526B3879935BF59CDADD5C37479BB1CDD4CA7B3556B516589
310
EF352754B706114D9C885EC9131DE6EFEB43D99AFE2391C2F958179413D7CFEF6B1B6DB1E7600F00DE6E5C67454A339A4BA2E0FBA85ED26F045D454F463DBFCE484C2F90F2E5E3666003662ED8F755951A7D1BECD5B30B550B2785C8E7320B7292A4838DDA71BBC863ED7613CAF659337A3354231D4FF4A182A54904C2898C
310
98B28C4AD0CE056CCF332A80986E571EE9DBC305BB5FEB7E509220A58D25CF042D712A806AC0AD0C657FDEF80D2D9CEAA2EE4D1C76F60BFE74219A06527D6F82DF6412526107381E55E353090704D085B52408A8913C4ED159D79BDA71BB4BC506F4831350EB6F975CD22D69BF7AC49B91A2C0A9DDA3D5CA36AD20FC478E37
310
E61844E2352865EBCB61A275A65283CAAA9DD27703B4102F5AF51EF5F573B75CBB5AD38BC845F7A49F82A0966A49C2E3EA5EA0ECD326CD965F1DB402C6FA8B51A4658C5C5E2EC9E214602E55810345408596591009A82E7E7FFACA19EEA299B14A0081A705CB3296EBC14CDF658DCD336EA6D1136881AAEB87B81AB9EE53D5
310
F5EB8BC8362082DA24122F98680A4E7930C01A0079749CEA14382A0783E5EBA5A10F8C098456A03D6A4AEB6BB881E2513747552A5DB22C7EDAF83BD5528081A365F7FF06504B0304140006080000CC70623B000000000000000000000000350000006662782F41393633353835312D344632462D344230382D423046372D37
310
39314545314133324237412F76657274696365732E62696E504B0304140006080800CC70623BF270F1330600000004000000360000006662782F41393633353835312D344632462D344230382D423046372D3739314545314133324237412F747269616E676C65732E62696E636660600000504B0304140006080000CC7062
310
3B000000000000000000000000370000006662782F41393633353835312D344632462D344230382D423046372D3739314545314133324237412F617474726962757465732E62696E504B0304140006080800CC70623B08DA0BD19000000041010000360000006662782F41393633353835312D344632462D344230382D4230
310
46372D3739314545314133324237412F6469726563746F72792E786D6C858F410AC3201045AF22B36F53E9A60B35CBEEBAE80D244E44489C6234F4F835464A48035D0DF398FF9F8AF63D0E6CC63039F212F8F9020C7D47C6792B21C5FE7403D62A1188E2E60C98D7234A5830286103A55745067B9D86B8A3CF9C7F90C11DE6
310
07FB144396D7B6A82D282E9A152AD114D5EF2CB866EEE831B8EEA07A7BB5A8D7D61A2BAAEB7FD5F70921FF497D00504B0304140006080800CC70623BEDD1DC58FD000000A00100003B0000006662782F41393633353835312D344632462D344230382D423046372D3739314545314133324237412F7265736F75726365732F
310
636F72652E786D6C8D504B6E833010BD0A9A6D65B00922041947112427E8052C33A156828DFCA97AFC9A40A576D7CDCCE87D344F8F9FBFE667F689CE6B6B3A6039850C8DB2A336530731DC4903D95970676DF82583CCC8193B5861107C72362E3BA4AC096842428D1D7107A5F7182053CF7474E0D507CE32973124857FE48B
310
540F3961CEF244279DE03EB81420DB9EAC1384436FA353E879B1B182C7A8C75DA3C7F453DF353A1075D537A7BA6464B8F535A99AE14A9A2BBD90E350DD183B5CFABE3AF262350B1EF4FC9351399401471025A527C218A1E53BAB5A5AB765F5469B96525EACF23FA6B88CFF34456DC2A1DCE36E360F82A5202F42F062ED2BAD
310
579969AFDD8A6F504B010214000A0000080000CC70623B3DEE336E79000000790000001B00000000000000000000000000000000006175746F6465736B2D64657369676E2D7061636B6167652E786D6C504B01021400140006080800CC70623BD486FD9CA0000000F40000001300000000000000000000000000B20000005B
310
436F6E74656E745F54797065735D2E786D6C504B01021400140006080800CC70623B853B8169EB0000007C010000080000000000000000000000000083010000636F72652E786D6C504B01021400140006080800CC70623B55019EA25F0000007C000000070000000000000000000000000094020000636E782E786D6C504B
310
01021400140006080800CC70623BDBABAAF470010000D40300000C00000000000000000000000000180300006662782F636F72652E786D6C504B01021400140006080800CC70623B9C113CC27E0000009D0000000B00000000000000000000000000B20400006662782F636E782E786D6C504B01021400140006080800CC70
310
623B7DF2F77C2A010000120200003100000000000000000000000000590500006662782F41393633353835312D344632462D344230382D423046372D3739314545314133324237412F636F72652E786D6C504B01021400140006080800CC70623BAD7543B64E010000330300003000000000000000000000000000D2060000
310
6662782F41393633353835312D344632462D344230382D423046372D3739314545314133324237412F636E782E786D6C504B01021400140006080800CC70623BE75B7789680500003C10000034000000000000000000000000006E0800006662782F41393633353835312D344632462D344230382D423046372D3739314545
310
314133324237412F6F626A656374732E786D6C504B01021400140006080000CC70623B0000000000000000000000003500000000000000000000000000280E00006662782F41393633353835312D344632462D344230382D423046372D3739314545314133324237412F76657274696365732E62696E504B01021400140006
310
080800CC70623BF270F133060000000400000036000000000000000000000000007B0E00006662782F41393633353835312D344632462D344230382D423046372D3739314545314133324237412F747269616E676C65732E62696E504B01021400140006080000CC70623B0000000000000000000000003700000000000000
310
000000000000D50E00006662782F41393633353835312D344632462D344230382D423046372D3739314545314133324237412F617474726962757465732E62696E504B01021400140006080800CC70623B08DA0BD1900000004101000036000000000000000000000000002A0F00006662782F41393633353835312D344632
310
462D344230382D423046372D3739314545314133324237412F6469726563746F72792E786D6C504B01021400140006080800CC70623BEDD1DC58FD000000A00100003B000000000000000000000000000E1000006662782F41393633353835312D344632462D344230382D423046372D3739314545314133324237412F7265
310
736F75726365732F636F72652E786D6C504B0506000000000E000E0080040000641100000000
  0
XRECORD
  5
239
102
{ACAD_REACTORS
330
3A
102
}
330
3A
100
AcDbXrecord
280
     1
102
MATERIAL
148
0.0
149
0.0
149
0.0
 93
        0
 94
       63
282
     0
 72
     1
 77
     1
171
     1
175
     1
179
     1
273
     0
  0
XRECORD
  5
3B
102
{ACAD_REACTORS
330
3A
102
}
330
3A
100
AcDbXrecord
280
     1
 70
     1
 90
429727718
  1
30362254-06B7-45E0-A893-8CFA70E3D6BC
310
504B03040A0000080000CC70623B3DEE336E79000000790000001B0000006175746F6465736B2D64657369676E2D7061636B6167652E786D6C3C3F786D6C2076657273696F6E3D22312E302220656E636F64696E673D227574662D3822203F3E3C666F726D6174733E3C666F726D61743E687474703A2F2F736368656D612E
310
6175746F6465736B2E636F6D2F64657369676E2D7061636B6167652F323030393C2F666F726D61743E3C2F666F726D6174733E504B0304140006080800CC70623BD486FD9CA0000000F4000000130000005B436F6E74656E745F54797065735D2E786D6C7D8EC10E82300C865F65E91D8A1E8C310C0EEA1BF002731658846E
310
D98AC1B77784ABF1D8FE5FBFBF75BBCE937A534CCEB38643598122B6FEE978D0B0485F9C41B54DDD7D022595594E1A469170414C76A4D9A4D207E29CF43ECE46F218070CC6BECC4078ACAA135ACF422C856C0E68EA1BF5669944DDD7BCDE7B1F8E415D77AECB980613C2E4AC91FC167A2B244592486606FC29C8FD7F045B9A
310
EF7053A7E60B504B0304140006080800CC70623B1EC5D7A3EB0000007C01000008000000636F72652E786D6C8D90416EC3201045AF82665B6103C6756C6122AB4D4ED00B204C5C94182C03558F5F9C3852BBEB6A467FFE9B197D71FC9E6FE8CBACC17AD7032D0820E3B41FAD9B7A48F1820F808E52ACDEC75F36404ECDA687
310
4D0629A6D5A76597B477D1B89855E747B38B2A041301E95B6E7A08FAD3CCAA50296647B8168BD2573599823EBB0CA76447F43862C7BCCF5EAC59410E4DDD9C7973C2755553CCCFA4C603E3040F1565ED3B1FDE4E432BCA0D9622DAF9795FAF464533826484B498524CD807E51D79ED187F21878E10516EF63F505AC67F42C9
310
BA58B1FDDD071640D2FCC87D2045B96591CB3DA85CB7DCE40F504B0304140006080800CC70623B55019EA25F0000007C00000007000000636E782E786D6C4DCB3B0E80201045D1AD90E915ED2CF8AC45050C11660C8261F98AB1B07AC9C97D42D718D865D3E909258CFD00CCE24AC6E326A164D74DC0B4128928FF32603847
310
2BA13128B1252AC747C6BAB984FC68F0B87FE8960A5C09FE86CFB69FBA01504B0304140006080800CC70623B8C9102E971010000D40300000C0000006662782F636F72652E786D6CC5535B6E833010BC8AE5DF0A6C08340F1947A84D4ED00B38C6A128602363A31CBFCB234A53A551FA553EC09AD9F5CE8C31DB9E9B1AF5CA
310
7695D1198E428A91D2D214952E33ECDD315861B4E5CC1AE3BE9561A445A3323CC098B3D21ADFCE9034DA29ED00D5A6503328BA4E398C640D8B0C77F253352214DE4145770A5B214FA2546114020D759C75CE8200340D19DE981F0F6746269C33EFAB6266AB02A655C74A59CCF365BADC27CB5D902ED22848F6340DF238A141
310
BE88E2F57B92BFEDF23523433367AE6A2EEAA455C2A902F398D2751045018D3FA264435F3771F242571B4A1919CA6F9A7C5B3CD9E42BED16F12C776AEB308F40C848FC700B1139D4891EF410CEC810227CC6846F8386402064270EF5C5C709A05E49676C024C61FC95EA45ED154CA5211D1FF4FB8291A913A68E9B83EBBB33
310
E2A7673CDE118E5AE8124C0807CB8377834E366998436B950D7A7746DAD846D4CFD978E0F04FD455FC5D49D2D4C6FE9722321F10997F0F32DC47FE05504B0304140006080800CC70623BFFEA85907E0000009D0000000B0000006662782F636E782E786D6C4DCCD10A83201886E15B91FFDC95D95A811AB6F23E625948A6C3
310
E9D8E5AF46073BFAE0E1E365ED67B3E8ADC3CB78C7815C7240DA3DFC64DCC221C519D7805AC182F7F1EF06C88D9BE6703008B6049F9E274D7A1E938DBB5AE3D6131B2589BA0D3D965551E0B2EA732C9B9A624AAEB41E3A557677029960D9AFB4EF11165F504B0304140006080800CC70623B4FEEA4082C0100001202000031
310
0000006662782F39464131463745442D413632322D343644302D413938332D3331353338454246344243312F636F72652E786D6C8D515B6EC32010BC0AE2AB55850DD871ED0813254D72825EC00192A2C460F1A872FC42ED48ED5F7E00CDCECCCEB26C731F6FE05B39AFADE921293004CA082BB5B9F43086336A21D870E6AC
310
0D7F68109861543DCC30E4ECE26C9C164858139409093556AA051CBC570102714B8F1E7AF1A5C6A11862480C7F2DA6415C878B2A4891CA89C7990F2E050073937C42DE1DB7E4F87ED8A36D4329AA9B3D46DBAEAD504556557BD81DEBDD0761E52CE42C462D17B996298E3E6BE59E35C962CE821E1FF18553435012728A7187
310
0841987E927A8D9B35ADDF70BBC6989599FE4F1427F9A4286A132ABAC49D651EF234CD5CE04CDA78BA3DC2A8FB645D00B9DF8B57E215725C60BCA2A463E54C4CE327C7A65E1C7DB02E7DEFCBF594B864C5CA6CDBD49C957943E9FA5D5FBAF336F90F504B0304140006080800CC70623BAD7543B64E01000033030000300000
310
006662782F39464131463745442D413632322D343644302D413938332D3331353338454246344243312F636E782E786D6CD593CD6EC32010845F0571AD6CE3D48AD20813A9873E410FBD12D82434182C7EAAE6EDBB2424CD25871E7B41D6EC30B3FA84F9E67BB2E40B4234DE8DB46F1925E094D7C6ED479AD3AE5951B2113C
310
789FEE6C943839C1488B4C05DF079FE72A69D8C96C13AAD6B8631503449F83828872B949AC57D26200B826A308D316B4064D6E46FCDA41C05550DC9E483A00797BFD207EFB092A45DE9514C1BBD22178396BD39D891265658C238DEA00936C654E5E433CB65A26D9F6EDB5EBC14EBF49A45CB856E66048291F6939A9A81BB5
310
C8917738143CA680F4AA299D66A042CEB3354A2684DC9D8D178FE0D9B8B41CAAD720F880EE7EF93C0C18769E099ECC04D5A102C8049A8A05632F4DDF376CF1DE0F6BB65C2F8627B65A33C6BB62177CEBBDAD973006829F89F22E814B54F4BC2BE347F8AA8F681390B50FA73F804400B5F542E796F19FF974E7F78DB802FE05
310
E207504B0304140006080800CC70623B16AB87BA640500003C100000340000006662782F39464131463745442D413632322D343644302D413938332D3331353338454246344243312F6F626A656374732E786D6CAD575B6FA33818FD2B887DE6924B3BED8A326A92B68A663B534DD4D13E548A0C38942D60649B369D5FBFC7
310
600890A493BDE42160637FD7F31D7FF63E6FB3D478A55C242CBF3247B66B1A340F5994E4F19559CA8D75611A9F7D8F33263BCB4C232719BD32D5B4E97B316765A1A722BA21652A07B3B7B33F0D11D29C9A46981221AE4C113ED38CD8A4942CA2E2C58E882476BCD9DA23BB5ED8171B73523C0F841684D35CC252CCE79062D4
310
468DFA43D7747CCF51DF7D4FFDEB5593E3AB9CCA9FBEFE241792E4E19EB28198C968BAB8199F5D5A67D3E9C49A9E8F47D6EC76B6B0469F26EEFC7C3EBFBCBEB98462213924694B38DD98FE1D62C393D073EA4FADC5DAF04326852CCF6958F90F0F2B9BB5C48816348F90C7840A68EB78EDF68723159BCEE7891A6B95DDE9D3
310
BCEAEEE8086A6C6F9E5D4B59F0175C10A7A0820BAA5055C7473B5AE3CFDD452D602CD5DF12616444529E90D448938013FE6EFA58AA96F85E4F8C42275708571E98FE6827AF6B2B4AE3D7D83D64E5A64C53054DD3AF90BD06FEA9149565C94FCA0F6B834DC85599E4F2423B24DF0B6AFA979E534DFA9E7A4CC6FA631D486393
310
921829879BF5D781A373557BCB85E97FB90DB62B558F8795179C15944B051F40AB495CF35451D26A4727654E6D8033BD98EF82F21D91FF8AF2DD9982BCF1643BDD4EB516C9492E368C67C88DED563FC36D5EACF66DFF057C3658BDBFA69DF9578B3DA735B64F18C7F20770A9D45CFCF7FCF563D6456A277DBEF78A02637CA2
310
43B90A490AEAB94F72244481D24819A6C0E59B606BFA4B3025981DBB48EAB701D97BF19C577CC77F2D1B6C55A9EF3C732474C0B727303F625995056C3B02963D9EAC146BE78EC5FCEC7FA999EBC5EACBAAE41B12D27B4D2C0BBA49F244E2ECDC81B76B502F113D8F5EE8FB1BE3111CDD4FC2AA9B844CAB1288B68AB90A7CDC
310
1C166AB0D3DC5310625FCC14E779BFD0709F8890A629C9292B1B2DED31A4B0DA928CEE135085754027E3018A397D4D5427D15BD1330B677DC8934285AC3DF45A9EB68FF8F2B8FC0A509AFEECFD0FF2DE25CC6047F7214B195F07EFEB9A094D800F7BFAE8FED187B78EA8A3A400F115961BCAD1215E47C966530AF0EE8128FE
310
58CEBB996A8964FFA529A046635D9353B0336A8F700DDF46271A024E70B0B37C9DE01847591E54DED53D54202AB947E4076556AC49C6CA5C9E1226B7F1A7B1BE15DEED62C41B91E1B3E9AFAAA735036547343A925075041DF0A9979E893B391F8FCFA6967B3EFB644DCF6E5CEBFAE272625DCC6FAF3FB93793C5F90CE1EF57
310
407342756B10D1C489E8953CD1617E5CEECAD6F4EF8914CE5D5D504E5C3F1F9736DA62CFC11E00BCDDB8CC8A9466349744C1F75EBDA4DF09BA8A9E8C7A7E9991989E20E5DBDD6A6003664ED8F7A04A8DBE0DF6EAD9B9AA858342E47399053949D2C146EDB85DE4B176BB0965FBAC19BD19AA918E27FA50C1D22402E144464C
310
59462568E704B6E71915404CB72B8FF4EDE184DDAF753F284990D2C6926782963815403548A70C657FDEF80D2D9CEAA2AE4C1C76F60BFE74219A06527D6582DF6412526107381E55E353090704D085B52408D0933C4ED159D79BDA71BB4BC506F4831350EB6F979CD22D69BF7AC49B91A2C0A9DDA3D5CA36AD20FC478E37E6
310
1844E2352865EBCB6EA275A652E3836BE04EFB400BF1A2556F515F1FBB35B2AB35BD889C744FFA1004B5544B121E57F70215746DD2F5E2C1412B602CBF19455AC6C8E5E9922C4E01E65215385004546899059180EAFCF7A707CE7017CD8CDB0410789AB32C63B91E5CEBBBACB17AC6CD347A022D5075FD106377347AAABA7E
310
7D11590744509B44E205134DC1290F06580320F78E537D3D73540E06CB970B431F185308AD40BBD794D6D77003C5A36E8EAA54BA64597CD8F83BD552A080A365F7FF06504B0304140006080000CC70623B000000000000000000000000350000006662782F39464131463745442D413632322D343644302D413938332D3331
310
353338454246344243312F76657274696365732E62696E504B0304140006080800CC70623BF270F1330600000004000000360000006662782F39464131463745442D413632322D343644302D413938332D3331353338454246344243312F747269616E676C65732E62696E636660600000504B0304140006080000CC70623B
310
000000000000000000000000370000006662782F39464131463745442D413632322D343644302D413938332D3331353338454246344243312F617474726962757465732E62696E504B0304140006080800CC70623B08DA0BD19000000041010000360000006662782F39464131463745442D413632322D343644302D413938
310
332D3331353338454246344243312F6469726563746F72792E786D6C858F410AC3201045AF22B36F53E9A60B35CBEEBAE80D244E44489C6234F4F835464A48035D0DF398FF9F8AF63D0E6CC63039F212F8F9020C7D47C6792B21C5FE7403D62A1188E2E60C98D7234A5830286103A55745067B9D86B8A3CF9C7F90C11DE607
310
FB144396D7B6A82D282E9A152AD114D5EF2CB866EEE831B8EEA07A7BB5A8D7D61A2BAAEB7FD5F70921FF497D00504B0304140006080800CC70623B0D6EF93BFE000000A00100003B0000006662782F39464131463745442D413632322D343644302D413938332D3331353338454246344243312F7265736F75726365732F63
310
6F72652E786D6C8D50596E833010BD0A9ADFCA60B334011947A8694ED00B586642AC041B79A97AFC9A40A5F6AF3F33A3B7689E1E3F7DCD8FEC139DD7D6F4C0720A191A65476DA61E62B892236427C19DB5E1970C322367EC618541F0C9D9B8EC90B226A009093576C41D94DE63804C3DD2D18357379C652E63480A7FCF17A9
310
EE72C29CE5894E3AC17D702940B63D59270887DE46A7D0F36263058F518FBB468FE9A7BE6A7420864373B8D4873369AA8691FA421B3294352543C5CAF65C0F6FEF43CB8BD52C78D0F34F46E550061C419494B6843142CB0F5677F4B52BEB177AEC28E5C52AFF638ACBF84F53D42654E51E77B379102C05791282176B5F693D
310
CB4C7BED567C03504B010214000A0000080000CC70623B3DEE336E79000000790000001B00000000000000000000000000000000006175746F6465736B2D64657369676E2D7061636B6167652E786D6C504B01021400140006080800CC70623BD486FD9CA0000000F40000001300000000000000000000000000B20000005B
310
436F6E74656E745F54797065735D2E786D6C504B01021400140006080800CC70623B1EC5D7A3EB0000007C010000080000000000000000000000000083010000636F72652E786D6C504B01021400140006080800CC70623B55019EA25F0000007C000000070000000000000000000000000094020000636E782E786D6C504B
310
01021400140006080800CC70623B8C9102E971010000D40300000C00000000000000000000000000180300006662782F636F72652E786D6C504B01021400140006080800CC70623BFFEA85907E0000009D0000000B00000000000000000000000000B30400006662782F636E782E786D6C504B01021400140006080800CC70
310
623B4FEEA4082C0100001202000031000000000000000000000000005A0500006662782F39464131463745442D413632322D343644302D413938332D3331353338454246344243312F636F72652E786D6C504B01021400140006080800CC70623BAD7543B64E010000330300003000000000000000000000000000D5060000
310
6662782F39464131463745442D413632322D343644302D413938332D3331353338454246344243312F636E782E786D6C504B01021400140006080800CC70623B16AB87BA640500003C1000003400000000000000000000000000710800006662782F39464131463745442D413632322D343644302D413938332D3331353338
310
454246344243312F6F626A656374732E786D6C504B01021400140006080000CC70623B0000000000000000000000003500000000000000000000000000270E00006662782F39464131463745442D413632322D343644302D413938332D3331353338454246344243312F76657274696365732E62696E504B01021400140006
310
080800CC70623BF270F133060000000400000036000000000000000000000000007A0E00006662782F39464131463745442D413632322D343644302D413938332D3331353338454246344243312F747269616E676C65732E62696E504B01021400140006080000CC70623B0000000000000000000000003700000000000000
310
000000000000D40E00006662782F39464131463745442D413632322D343644302D413938332D3331353338454246344243312F617474726962757465732E62696E504B01021400140006080800CC70623B08DA0BD190000000410100003600000000000000000000000000290F00006662782F39464131463745442D413632
310
322D343644302D413938332D3331353338454246344243312F6469726563746F72792E786D6C504B01021400140006080800CC70623B0D6EF93BFE000000A00100003B000000000000000000000000000D1000006662782F39464131463745442D413632322D343644302D413938332D3331353338454246344243312F7265
310
736F75726365732F636F72652E786D6C504B0506000000000E000E0080040000641100000000
  0
XRECORD
  5
236
102
{ACAD_REACTORS
330
D
102
}
330
D
100
AcDbXrecord
280
     1
102
MATERIAL
148
0.0
149
0.0
149
0.0
 93
        0
 94
       63
282
     0
 72
     1
 77
     1
171
     1
175
     1
179
     1
273
     0
  0
XRECORD
  5
E
102
{ACAD_REACTORS
330
D
102
}
330
D
100
AcDbXrecord
280
     1
270
     1
271
     1
  0
XRECORD
  5
F
102
{ACAD_REACTORS
330
D
102
}
330
D
100
AcDbXrecord
280
     1
270
     1
271
     1
  0
XRECORD
  5
10
102
{ACAD_REACTORS
330
D
102
}
330
D
100
AcDbXrecord
280
     1
 70
     0
 90
1673772943
  1
ECE7A1D2-D628-4531-984C-D00F80459256
310
504B03040A0000080000CC70623B3DEE336E79000000790000001B0000006175746F6465736B2D64657369676E2D7061636B6167652E786D6C3C3F786D6C2076657273696F6E3D22312E302220656E636F64696E673D227574662D3822203F3E3C666F726D6174733E3C666F726D61743E687474703A2F2F736368656D612E
310
6175746F6465736B2E636F6D2F64657369676E2D7061636B6167652F323030393C2F666F726D61743E3C2F666F726D6174733E504B0304140006080800CC70623BD486FD9CA0000000F4000000130000005B436F6E74656E745F54797065735D2E786D6C7D8EC10E82300C865F65E91D8A1E8C310C0EEA1BF002731658846E
310
D98AC1B77784ABF1D8FE5FBFBF75BBCE937A534CCEB38643598122B6FEE978D0B0485F9C41B54DDD7D022595594E1A469170414C76A4D9A4D207E29CF43ECE46F218070CC6BECC4078ACAA135ACF422C856C0E68EA1BF5669944DDD7BCDE7B1F8E415D77AECB980613C2E4AC91FC167A2B244592486606FC29C8FD7F045B9A
310
EF7053A7E60B504B0304140006080800CC70623BD9DDAED0EC0000007C01000008000000636F72652E786D6C8D90416EC3201045AF82665B61836D9CD8C2444DD39CA01740405C94182C03558F5F9C3852BBEB6A467FFE9B197D7EF89E6EE8CB2CC17A37002D0820E394D7D68D03A478C17B4007C117EFE32F1B20272733C0
310
2A83E0E3E2D3BC49CABB685CCCAAF3DA6CA20CC14440EA969B0182FA34932C648AD911AEC52CD5558EA6A0CF2EC329598D1E47ACCEFBECC59A050463A7EA5833865FEBDD0E37353BE3EE8DBDE3F6786A48D375FBF6CC78B9C282473B3DEFABC5C86834888A900E538A49F5419B9EB47DD5BC907D4F082F57FB1F28CDFA9F50
310
B22ED6D5F6EE030B20687EE43E10BC5CB3C8E51E54AE6B6EE207504B0304140006080800CC70623B55019EA25F0000007C00000007000000636E782E786D6C4DCB3B0E80201045D1AD90E915ED2CF8AC45050C11660C8261F98AB1B07AC9C97D42D718D865D3E909258CFD00CCE24AC6E326A164D74DC0B4128928FF326038
310
472BA13128B1252AC747C6BAB984FC68F0B87FE8960A5C09FE86CFB69FBA01504B0304140006080800CC70623BA24EB22D72010000D40300000C0000006662782F636F72652E786D6CC5535B6E833010BC8AE5DF0A6C5E49888CA3A6694ED00B38E05014B091B1518EDFE511A5A9D228FD2A1F60CDEC7A67C6986DCE4D8D7A
310
69BA4AAB0C073EC548AA5C17952A33ECECD15B61B4E1CC686DBF9561A44423333CC098B3D268D7CE50AE9595CA02AA74216750749DB418E5352C32DCE59FB211BE70162ABA93DF8AFC244AE9073ED050C759670D0840D390E18DF9F1706664C23973AE2A66B62A605A75ACA4C13C4976E1364A12EF355A2EBD384AF65EFA96
310
BC7B8BED2EA6719AAE16FB8491A199335B351775B991C2CA02F390D2D40B028F861F41BCA68B7518BFD0D59A524686F29B26D7164F36B94AD9289CE54E6D1DE6010819891F6E21228B3AD1831EC219194284CF98F06DD01008846CC5A1BEF83801D4CBDC6A1303536877A57A513B0953A94FC707FDBE6064EA84A9E3E6E0FA
310
EE8CF0E9198F7784A316AA0413C2C2F2E0ECA0934D1AE6D05A69BCDE9E91D2A611F573361E38FC1375157F5752AE6B6DFE4B11990F88CCBF0719EE23FF02504B0304140006080800CC70623B408A7D3B7C0000009D0000000B0000006662782F636E782E786D6C4DCCD10A83201886E15B91FFDC552A92A0064DBC8F581632
310
D3703A76F9ABD1C18E3E78F878E5F0D9027ABBFCF2292AE86E2D20171F69F6715550CB827B40839639A5F2770314A7CD293819B45C73AAFB45B35BA61ACAA1C1C7E7855C58C15BC331339661262CC762340413D68D77DA5B42298546CBE6573AF60CEB2F504B0304140006080800CC70623B449FB9BD290100001202000031
310
0000006662782F36394639363044362D344446342D343946362D394244322D3234314243333846323333332F636F72652E786D6C8D515B6EC32010BC0AE22B55850D98B871848994463E412FE002495162B07854397EA176A4F62F3F2C9A9D991D587EB84F37F0AD7D30CEF6905418026DA553C65E7A98E219ED203808EE9D
310
8B7F6810D871D23D2C3014FCE25D9A57483A1BB58D19B54EE9151C43D0110279CB971E06F9A5A7B11A53CC8C70ADE6515EC78BAE4895DB992778883E0700CB907242D17643D7E2538BD869608875438BBAE38922CAC8F1BDD90DB4691A5E2F42C153326A951B95E398B3D1FE599322163C9AE9115F7A3D46ADA0A018778810
310
84E907617BDCEE297BC5BB3DC6BC2EF47FA234AB2745C9D8D8D035EE220B50105E2F0DC1954B9FB747187D9F9D8FA0CCDB042D5FA0C015C65B42DF78BD10F3F3B363CB56C7109DCFDFBBB97E662ED92EB62D13BC2E1BCAE5777DB9966D8A1F504B0304140006080800CC70623BAD7543B64E01000033030000300000006662
310
782F36394639363044362D344446342D343946362D394244322D3234314243333846323333332F636E782E786D6CD593CD6EC32010845F0571AD6CE3D48AD20813A9873E410FBD12D82434182C7EAAE6EDBB2424CD25871E7B41D6EC30B3FA84F9E67BB2E40B4234DE8DB46F1925E094D7C6ED479AD3AE5951B2113C789FEE
310
6C943839C1488B4C05DF079FE72A69D8C96C13AAD6B8631503449F83828872B949AC57D26200B826A308D316B4064D6E46FCDA41C05550DC9E483A00797BFD207EFB092A45DE9514C1BBD22178396BD39D891265658C238DEA00936C654E5E433CB65A26D9F6EDB5EBC14EBF49A45CB856E66048291F6939A9A81BB5C89177
310
38143CA680F4AA299D66A042CEB3354A2684DC9D8D178FE0D9B8B41CAAD720F880EE7EF93C0C18769E099ECC04D5A102C8049A8A05632F4DDF376CF1DE0F6BB65C2F8627B65A33C6BB62177CEBBDAD973006829F89F22E814B54F4BC2BE347F8AA8F681390B50FA73F804400B5F542E796F19FF974E7F78DB802FE05E20750
310
4B0304140006080800CC70623B8D05915C650500003B100000340000006662782F36394639363044362D344446342D343946362D394244322D3234314243333846323333332F6F626A656374732E786D6CAD575B6FA33814FE2B887D06429276DA1565D4266D158D3A339A6846FB502932E050B66023DB74D2FDF5FB190C01
310
9276B2973C046C8ECFF53B17071F77456EBD502133CEAE6CDF9DD81665314F32965ED995DA3A17B6F5310C04E7AA47665B8C14F4CAD6DB7618A48257A5D94AE89654B91AEDDEDDFC61C998326A5B714EA4BCB265FC440BE2924AF184CA6737218AB8E976E7FA6E4338649B0A523E8D98964450A6A029F619B8588D52FE7039
310
B1BD30F0F4F730D0FF866AF6369557DB33949F31A9088B0F848DD8CCFCF9F2767A76E99CCDE733677E3EF59D9BBB9BA5E37F984D16E78BC5E5F5ED25044B25C0C96822E8D60EEFE11B91C581D77CEA34368A1F5329E68CD1B8B61F16D63A1B8E092D294B10C78C4A48EB593D192E7DED9BDEE7995E1B91FDEDD3ACEA9FE831
310
6A756F9F7D4D79F4274C90A7A04248AA51D5F8C718DAE06FB2F75AC4796EBE65D22A88A22223B995679120E2D50E41AA49C260C046A35368846B0BECD0DFF3EBEB8AD4F835768F69B9ADF25C43D30E6B646F807FAA64AD59F61715C7A54127C4AACA98BA3006A9D792DAE165E0D59B61A01FB3A9F9D838D2DAE62445C86166
310
F37564E842E7DE6A69879FEEA2DD5AE7E371E1A5E025154AC307D06A03D73EB5978C58FFA4C8E9033066E0F3BD53BEC1F39F91BE7B55103791EDE6BBB991A2046172CB4581D8B893FA674DDA17A77B3B7C413D1B511FD2743BFF8A38F03A658705E3ADF8015C3A3417FF3D7E439FF591DA0B5F18BC20C1B8981957AE6392A3
310
F43C640C01D1A0B4728E2DD4F26DB4B3C3152A252A3B4E913CEC1C72F012782FF88EFF8637AA552DBEF76408E8A8DE9E50F9E1CB3A2DA0DB1B6039A893B56063DC5B3E3FFB5F72E67AB9FEB4AEC496C4F4C1149625DD662C53E89D7BF0F6151A046260D1337DFDC94502430F83B0EE07A130A224BCAD7DAE1D9FB6CD422FF6
310
920702629C4BB9AE79C12F243C6432A6794E18E5552BA56B431AAB5D91317302B2B071E86C3A42B1A02F999E24061403B5D0EB639195DA655DD3EBEAB4FB862DDF579F014AD0E73C22F99E28DA57FB98E75C6CA2D74D53086D600F4786E0FE3144B771A8A7B900F03594DB8A633CBC49B2EDB69228BB479CF863B5E807AAAB
310
23872F6DFEB4129B949CA33823F58830E86D65621E10047D9DB34D862E8EAC3C2ABC2F7B2C40D67CDFE01F5545B92105AF983AC54D93D69E56FB8E797F88913F898A9FEC705D3F9D1B54EC8426FB500D40A03BD0119B06E1B95DDC7EB8F6975367793EBD70E66733DFB9BC982F9CE564727731999F5D4ECFCE3B8D6A4DC2A0
310
6D50FD148437D110834A64C6CDDF57FBACB5C307A2A477DFE4939736CFEF2B175371E0E10CF0DD1D5C15654E0BCA14D1E87DD02FF93782A162C0A3D95F1524A52770F972BF1EE9809D13CE7DD599467F8ECE9ADD85CE85A34CD45355448C64F9E8A031DC2D596ACC6E5DD93D9B82DE2EF5CAF81363A8E47996A0DE24564A79
310
4115AACE09C55E14540231FDA13C319787134EBF34E3A022514E5B4D9E0826E25C02D5805B15ABE1BEF51B26383D445DD9E875EE33FE4C22DA16427D65A3BCA92CA6D28DD01DF5DC53330704308475351050232CCD31583787BA75774AFB06E5070DD0C8EF484E19968C5D83BA5B90B244D31E54D55A372320FE4786B7EA58
310
44E135AA5467CB7EA333A61683CC6A8C3257034C10CF46F40EF9F5BE59BE5BD30C3C72D235E95D10345C1D45445A5F0BB47E46A5EBE5570F9380B5FA629579952296A773720405982B9DE04011506178964401AA8BDF1FBF0A8EAB6861DD6580C0E38217056766716DAEB2D6FA0917D3E4116581EADB879C4E7CFFB11EFACD
310
3D641311495D92C8676CB409A72D18610D803CE8A626049E8EC1887CB5B44CC39883690DDA8399B4B9855B481E7D71D4A9D22F96E5BB73BF5793020C02137BF837504B0304140006080000CC70623B000000000000000000000000350000006662782F36394639363044362D344446342D343946362D394244322D32343142
310
43333846323333332F76657274696365732E62696E504B0304140006080800CC70623BF270F1330600000004000000360000006662782F36394639363044362D344446342D343946362D394244322D3234314243333846323333332F747269616E676C65732E62696E636660600000504B0304140006080000CC70623B0000
310
00000000000000000000370000006662782F36394639363044362D344446342D343946362D394244322D3234314243333846323333332F617474726962757465732E62696E504B0304140006080800CC70623B08DA0BD19000000041010000360000006662782F36394639363044362D344446342D343946362D394244322D
310
3234314243333846323333332F6469726563746F72792E786D6C858F410AC3201045AF22B36F53E9A60B35CBEEBAE80D244E44489C6234F4F835464A48035D0DF398FF9F8AF63D0E6CC63039F212F8F9020C7D47C6792B21C5FE7403D62A1188E2E60C98D7234A5830286103A55745067B9D86B8A3CF9C7F90C11DE607FB14
310
4396D7B6A82D282E9A152AD114D5EF2CB866EEE831B8EEA07A7BB5A8D7D61A2BAAEB7FD5F70921FF497D00504B0304140006080800CC70623BCA768048FE000000A00100003B0000006662782F36394639363044362D344446342D343946362D394244322D3234314243333846323333332F7265736F75726365732F636F72
310
652E786D6C8D50596E833010BD0A9ADFCA60D600328E9AA639412F609909B1126CE4A5EAF16B0295DABFFECC8CDEA2797AECF8353F924FB44E193D409E5248504B332A3D0D10FC95B4901C39B3C6F85F3248B49871801506CE266BC2B243D2688FDA47549B11775038871E12F988C7004EDE7016A9083E2ADC3D5D84BC8B09
310
D33C8D74D471E6BC8D0192EDC93A815B742658898E651BCB59086ADC356A8C3FD555A1055ED7E7E254D615792D0F075295F585746FF53B694EE78A565DD736979A65AB9933AFE69F8CD2A2F038022F28ED489E135A7CE4554F9BBEA85E68DB53CAB255FEC71496F19FA6A0B42F8B3DEE6673C0F318E4497096AD7DC5F52C33
310
EEB55BFE0D504B010214000A0000080000CC70623B3DEE336E79000000790000001B00000000000000000000000000000000006175746F6465736B2D64657369676E2D7061636B6167652E786D6C504B01021400140006080800CC70623BD486FD9CA0000000F40000001300000000000000000000000000B20000005B436F
310
6E74656E745F54797065735D2E786D6C504B01021400140006080800CC70623BD9DDAED0EC0000007C010000080000000000000000000000000083010000636F72652E786D6C504B01021400140006080800CC70623B55019EA25F0000007C000000070000000000000000000000000095020000636E782E786D6C504B0102
310
1400140006080800CC70623BA24EB22D72010000D40300000C00000000000000000000000000190300006662782F636F72652E786D6C504B01021400140006080800CC70623B408A7D3B7C0000009D0000000B00000000000000000000000000B50400006662782F636E782E786D6C504B01021400140006080800CC70623B
310
449FB9BD290100001202000031000000000000000000000000005A0500006662782F36394639363044362D344446342D343946362D394244322D3234314243333846323333332F636F72652E786D6C504B01021400140006080800CC70623BAD7543B64E010000330300003000000000000000000000000000D20600006662
310
782F36394639363044362D344446342D343946362D394244322D3234314243333846323333332F636E782E786D6C504B01021400140006080800CC70623B8D05915C650500003B10000034000000000000000000000000006E0800006662782F36394639363044362D344446342D343946362D394244322D32343142433338
310
46323333332F6F626A656374732E786D6C504B01021400140006080000CC70623B0000000000000000000000003500000000000000000000000000250E00006662782F36394639363044362D344446342D343946362D394244322D3234314243333846323333332F76657274696365732E62696E504B010214001400060808
310
00CC70623BF270F13306000000040000003600000000000000000000000000780E00006662782F36394639363044362D344446342D343946362D394244322D3234314243333846323333332F747269616E676C65732E62696E504B01021400140006080000CC70623B00000000000000000000000037000000000000000000
310
00000000D20E00006662782F36394639363044362D344446342D343946362D394244322D3234314243333846323333332F617474726962757465732E62696E504B01021400140006080800CC70623B08DA0BD190000000410100003600000000000000000000000000270F00006662782F36394639363044362D344446342D
310
343946362D394244322D3234314243333846323333332F6469726563746F72792E786D6C504B01021400140006080800CC70623BCA768048FE000000A00100003B000000000000000000000000000B1000006662782F36394639363044362D344446342D343946362D394244322D3234314243333846323333332F7265736F
310
75726365732F636F72652E786D6C504B0506000000000E000E0080040000621100000000
  0
XRECORD
  5
11
102
{ACAD_REACTORS
330
D
102
}
330
D
100
AcDbXrecord
280
     1
270
     1
271
     1
  0
XRECORD
  5
12
102
{ACAD_REACTORS
330
D
102
}
330
D
100
AcDbXrecord
280
     1
270
     1
271
     1
  0
CELLSTYLEMAP
  5
22C
102
{ACAD_REACTORS
330
45
102
}
330
45
100
AcDbCellStyleMap
 90
        3
300
CELLSTYLE
  1
TABLEFORMAT_BEGIN
 90
        5
170
     1
 91
        0
 92
    32768
 62
   257
 93
        1
300
CONTENTFORMAT
  1
CONTENTFORMAT_BEGIN
 90
        0
 91
        0
 92
      512
 93
        0
300

 40
0.0
140
1.0
 94
        5
 62
     0
340
22
144
6.0
309
CONTENTFORMAT_END
171
     1
301
MARGIN
  1
CELLMARGIN_BEGIN
 40
1.5
 40
1.5
 40
1.5
 40
1.5
 40
4.5
 40
4.5
309
CELLMARGIN_END
 94
        6
 95
        1
302
GRIDFORMAT
  1
GRIDFORMAT_BEGIN
 90
        0
 91
        1
 62
     0
 92
       -2
340
25
 93
        0
 40
1.125
309
GRIDFORMAT_END
 95
        2
302
GRIDFORMAT
  1
GRIDFORMAT_BEGIN
 90
        0
 91
        1
 62
     0
 92
       -2
340
25
 93
        0
 40
1.125
309
GRIDFORMAT_END
 95
        4
302
GRIDFORMAT
  1
GRIDFORMAT_BEGIN
 90
        0
 91
        1
 62
     0
 92
       -2
340
25
 93
        0
 40
1.125
309
GRIDFORMAT_END
 95
        8
302
GRIDFORMAT
  1
GRIDFORMAT_BEGIN
 90
        0
 91
        1
 62
     0
 92
       -2
340
25
 93
        0
 40
1.125
309
GRIDFORMAT_END
 95
       16
302
GRIDFORMAT
  1
GRIDFORMAT_BEGIN
 90
        0
 91
        1
 62
     0
 92
       -2
340
25
 93
        0
 40
1.125
309
GRIDFORMAT_END
 95
       32
302
GRIDFORMAT
  1
GRIDFORMAT_BEGIN
 90
        0
 91
        1
 62
     0
 92
       -2
340
25
 93
        0
 40
1.125
309
GRIDFORMAT_END
309
TABLEFORMAT_END
  1
CELLSTYLE_BEGIN
 90
        1
 91
        1
300
_TITLE
309
CELLSTYLE_END
300
CELLSTYLE
  1
TABLEFORMAT_BEGIN
 90
        5
170
     1
 91
        0
 92
        0
 62
   257
 93
        1
300
CONTENTFORMAT
  1
CONTENTFORMAT_BEGIN
 90
        0
 91
        0
 92
      512
 93
        0
300

 40
0.0
140
1.0
 94
        5
 62
     0
340
22
144
4.5
309
CONTENTFORMAT_END
171
     1
301
MARGIN
  1
CELLMARGIN_BEGIN
 40
1.5
 40
1.5
 40
1.5
 40
1.5
 40
4.5
 40
4.5
309
CELLMARGIN_END
 94
        6
 95
        1
302
GRIDFORMAT
  1
GRIDFORMAT_BEGIN
 90
        0
 91
        1
 62
     0
 92
       -2
340
25
 93
        0
 40
1.125
309
GRIDFORMAT_END
 95
        2
302
GRIDFORMAT
  1
GRIDFORMAT_BEGIN
 90
        0
 91
        1
 62
     0
 92
       -2
340
25
 93
        0
 40
1.125
309
GRIDFORMAT_END
 95
        4
302
GRIDFORMAT
  1
GRIDFORMAT_BEGIN
 90
        0
 91
        1
 62
     0
 92
       -2
340
25
 93
        0
 40
1.125
309
GRIDFORMAT_END
 95
        8
302
GRIDFORMAT
  1
GRIDFORMAT_BEGIN
 90
        0
 91
        1
 62
     0
 92
       -2
340
25
 93
        0
 40
1.125
309
GRIDFORMAT_END
 95
       16
302
GRIDFORMAT
  1
GRIDFORMAT_BEGIN
 90
        0
 91
        1
 62
     0
 92
       -2
340
25
 93
        0
 40
1.125
309
GRIDFORMAT_END
 95
       32
302
GRIDFORMAT
  1
GRIDFORMAT_BEGIN
 90
        0
 91
        1
 62
     0
 92
       -2
340
25
 93
        0
 40
1.125
309
GRIDFORMAT_END
309
TABLEFORMAT_END
  1
CELLSTYLE_BEGIN
 90
        2
 91
        1
300
_HEADER
309
CELLSTYLE_END
300
CELLSTYLE
  1
TABLEFORMAT_BEGIN
 90
        5
170
     1
 91
        0
 92
        0
 62
   257
 93
        1
300
CONTENTFORMAT
  1
CONTENTFORMAT_BEGIN
 90
        0
 91
        0
 92
      512
 93
        0
300

 40
0.0
140
1.0
 94
        2
 62
     0
340
22
144
4.5
309
CONTENTFORMAT_END
171
     1
301
MARGIN
  1
CELLMARGIN_BEGIN
 40
1.5
 40
1.5
 40
1.5
 40
1.5
 40
4.5
 40
4.5
309
CELLMARGIN_END
 94
        6
 95
        1
302
GRIDFORMAT
  1
GRIDFORMAT_BEGIN
 90
        0
 91
        1
 62
     0
 92
       -2
340
25
 93
        0
 40
1.125
309
GRIDFORMAT_END
 95
        2
302
GRIDFORMAT
  1
GRIDFORMAT_BEGIN
 90
        0
 91
        1
 62
     0
 92
       -2
340
25
 93
        0
 40
1.125
309
GRIDFORMAT_END
 95
        4
302
GRIDFORMAT
  1
GRIDFORMAT_BEGIN
 90
        0
 91
        1
 62
     0
 92
       -2
340
25
 93
        0
 40
1.125
309
GRIDFORMAT_END
 95
        8
302
GRIDFORMAT
  1
GRIDFORMAT_BEGIN
 90
        0
 91
        1
 62
     0
 92
       -2
340
25
 93
        0
 40
1.125
309
GRIDFORMAT_END
 95
       16
302
GRIDFORMAT
  1
GRIDFORMAT_BEGIN
 90
        0
 91
        1
 62
     0
 92
       -2
340
25
 93
        0
 40
1.125
309
GRIDFORMAT_END
 95
       32
302
GRIDFORMAT
  1
GRIDFORMAT_BEGIN
 90
        0
 91
        1
 62
     0
 92
       -2
340
25
 93
        0
 40
1.125
309
GRIDFORMAT_END
309
TABLEFORMAT_END
  1
CELLSTYLE_BEGIN
 90
        3
 91
        2
300
_DATA
309
CELLSTYLE_END
  0
XRECORD
  5
23B
102
{ACAD_REACTORS
330
45
102
}
330
45
100
AcDbXrecord
280
     1
102
ACAD_ROUNDTRIP_PRE2007_TABLESTYLE
 90
      512
 91
        0
  1

 92
      512
 93
        0
  2

 94
      512
 95
        0
  3

  0
XRECORD
  5
238
102
{ACAD_REACTORS
330
237
102
}
330
237
100
AcDbXrecord
280
     1
102
RTVSPost2010Prop28
280
     1
102
RTVSPost2010PropOp28
 70
     1
102
RTVSPost2010Prop29
280
     1
102
RTVSPost2010PropOp29
 70
     1
102
RTVSPost2010Prop30
280
     0
102
RTVSPost2010PropOp30
 70
     1
102
RTVSPost2010Prop31
280
     0
102
RTVSPost2010PropOp31
 70
     1
102
RTVSPost2010Prop32
280
     0
102
RTVSPost2010PropOp32
 70
     1
102
RTVSPost2010Prop33
280
     0
102
RTVSPost2010PropOp33
 70
     1
102
RTVSPost2010Prop34
280
     0
102
RTVSPost2010PropOp34
 70
     1
102
RTVSPost2010Prop35
280
     0
102
RTVSPost2010PropOp35
 70
     1
102
RTVSPost2010Prop36
280
     0
102
RTVSPost2010PropOp36
 70
     1
102
RTVSPost2010Prop37
 90
       50
102
RTVSPost2010PropOp37
 70
     1
102
RTVSPost2010Prop38
140
0.0
102
RTVSPost2010PropOp38
 70
     1
102
RTVSPost2010Prop39
140
1.0
102
RTVSPost2010PropOp39
 70
     1
102
RTVSPost2010Prop40
 90
        0
102
RTVSPost2010PropOp40
 70
     1
102
RTVSPost2010Prop41ColorIndex
 90
       18
102
RTVSPost2010Prop41ColorRGB
 90
        0
102
RTVSPost2010PropOp41
 70
     1
102
RTVSPost2010Prop42
 90
       50
102
RTVSPost2010PropOp42
 70
     1
102
RTVSPost2010Prop43
 90
        3
102
RTVSPost2010PropOp43
 70
     1
102
RTVSPost2010Prop44ColorIndex
 90
        5
102
RTVSPost2010Prop44ColorRGB
 90
      255
102
RTVSPost2010PropOp44
 70
     1
102
RTVSPost2010Prop45
280
     0
102
RTVSPost2010PropOp45
 70
     1
102
RTVSPost2010Prop46
 90
       50
102
RTVSPost2010PropOp46
 70
     1
102
RTVSPost2010Prop47
 90
       50
102
RTVSPost2010PropOp47
 70
     1
102
RTVSPost2010Prop48
 90
       50
102
RTVSPost2010PropOp48
 70
     1
102
RTVSPost2010Prop49
280
     0
102
RTVSPost2010PropOp49
 70
     1
102
RTVSPost2010Prop50
 90
       50
102
RTVSPost2010PropOp50
 70
     1
102
RTVSPost2010Prop51ColorIndex
 90
      256
102
RTVSPost2010Prop51ColorRGB
 90
-16777216
102
RTVSPost2010PropOp51
 70
     0
102
RTVSPost2010Prop52
140
1.0
102
RTVSPost2010PropOp52
 70
     0
102
RTVSPost2010Prop53
 90
        2
102
RTVSPost2010PropOp53
 70
     1
102
RTVSPost2010Prop54
  1
strokes_ogs.tif
102
RTVSPost2010PropOp54
 70
     1
102
RTVSPost2010Prop55
280
     0
102
RTVSPost2010PropOp55
 70
     1
102
RTVSPost2010Prop56
140
1.0
102
RTVSPost2010PropOp56
 70
     1
102
RTVSPost2010Prop57
140
1.0
102
RTVSPost2010PropOp57
 70
     1
102
RTVSPropertyOp0
 70
     1
102
RTVSPropertyOp1
 70
     1
102
RTVSPropertyOp2
 70
     1
102
RTVSPropertyOp3
 70
     1
102
RTVSPropertyOp4
 70
     1
102
RTVSPropertyOp5
 70
     1
102
RTVSPropertyOp6
 70
     1
102
RTVSPropertyOp7
 70
     1
102
RTVSPropertyOp8
 70
     1
102
RTVSPropertyOp9
 70
     1
102
RTVSPropertyOp10
 70
     1
102
RTVSPropertyOp11
 70
     1
102
RTVSPropertyOp12
 70
     1
102
RTVSPropertyOp13
 70
     1
102
RTVSPropertyOp14
 70
     1
102
RTVSPropertyOp15
 70
     1
102
RTVSPropertyOp16
 70
     1
102
RTVSPropertyOp17
 70
     1
102
RTVSPropertyOp18
 70
     1
102
RTVSPropertyOp19
 70
     1
102
RTVSPropertyOp20
 70
     1
102
RTVSPropertyOp21
 70
     1
102
RTVSPropertyOp22
 70
     1
102
RTVSPropertyOp23
 70
     1
102
RTVSPropertyOp24
 70
     1
102
RTVSPropertyOp25
 70
     1
102
RTVSPropertyOp26
 70
     1
102
RTVSPropertyOp27
 70
     1
102
RTVSPropertyOp28
 70
     1
102
RTVSPropertyOp29
 70
     1
102
RTVSPropertyOp30
 70
     1
102
RTVSPropertyOp31
 70
     1
102
RTVSPropertyOp32
 70
     1
102
RTVSPropertyOp33
 70
     1
102
RTVSPropertyOp34
 70
     1
102
RTVSPropertyOp35
 70
     1
102
RTVSPropertyOp36
 70
     1
102
RTVSPropertyOp37
 70
     1
102
RTVSPropertyOp38
 70
     1
102
RTVSPropertyOp39
 70
     1
102
RTVSPropertyOp40
 70
     1
102
RTVSPropertyOp41
 70
     1
102
RTVSPropertyOp42
 70
     1
102
RTVSPropertyOp43
 70
     1
102
RTVSPropertyOp44
 70
     1
102
RTVSPropertyOp45
 70
     1
102
RTVSPropertyOp46
 70
     1
102
RTVSPropertyOp47
 70
     1
102
RTVSPropertyOp48
 70
     1
102
RTVSPropertyOp49
 70
     1
102
RTVSPropertyOp50
 70
     1
102
RTVSPropertyOp51
 70
     0
102
RTVSPropertyOp52
 70
     0
102
RTVSPropertyOp53
 70
     1
102
RTVSPropertyOp54
 70
     1
102
RTVSPropertyOp55
 70
     1
102
RTVSPropertyOp56
 70
     1
102
RTVSPropertyOp57
 70
     1
102
RTVSPropertyOp58
 70
     1
102
RTVSPropertyOp59
 70
     1
102
RTVSPropertyOp60
 70
     1
102
RTVSPropertyOp61
 70
     1
102
RTVSPropertyOp62
 70
     1
  0
XRECORD
  5
23D
102
{ACAD_REACTORS
330
23C
102
}
330
23C
100
AcDbXrecord
280
     1
102
RTVSPost2010Prop28
280
     0
102
RTVSPost2010PropOp28
 70
     1
102
RTVSPost2010Prop29
280
     1
102
RTVSPost2010PropOp29
 70
     1
102
RTVSPost2010Prop30
280
     1
102
RTVSPost2010PropOp30
 70
     1
102
RTVSPost2010Prop31
280
     0
102
RTVSPost2010PropOp31
 70
     1
102
RTVSPost2010Prop32
280
     0
102
RTVSPost2010PropOp32
 70
     1
102
RTVSPost2010Prop33
280
     0
102
RTVSPost2010PropOp33
 70
     1
102
RTVSPost2010Prop34
280
     0
102
RTVSPost2010PropOp34
 70
     1
102
RTVSPost2010Prop35
280
     0
102
RTVSPost2010PropOp35
 70
     1
102
RTVSPost2010Prop36
280
     0
102
RTVSPost2010PropOp36
 70
     1
102
RTVSPost2010Prop37
 90
       50
102
RTVSPost2010PropOp37
 70
     1
102
RTVSPost2010Prop38
140
0.0
102
RTVSPost2010PropOp38
 70
     1
102
RTVSPost2010Prop39
140
1.0
102
RTVSPost2010PropOp39
 70
     1
102
RTVSPost2010Prop40
 90
        0
102
RTVSPost2010PropOp40
 70
     1
102
RTVSPost2010Prop41ColorIndex
 90
       18
102
RTVSPost2010Prop41ColorRGB
 90
        0
102
RTVSPost2010PropOp41
 70
     1
102
RTVSPost2010Prop42
 90
       50
102
RTVSPost2010PropOp42
 70
     1
102
RTVSPost2010Prop43
 90
        3
102
RTVSPost2010PropOp43
 70
     1
102
RTVSPost2010Prop44ColorIndex
 90
        5
102
RTVSPost2010Prop44ColorRGB
 90
      255
102
RTVSPost2010PropOp44
 70
     1
102
RTVSPost2010Prop45
280
     0
102
RTVSPost2010PropOp45
 70
     1
102
RTVSPost2010Prop46
 90
       50
102
RTVSPost2010PropOp46
 70
     1
102
RTVSPost2010Prop47
 90
       50
102
RTVSPost2010PropOp47
 70
     1
102
RTVSPost2010Prop48
 90
       50
102
RTVSPost2010PropOp48
 70
     1
102
RTVSPost2010Prop49
280
     0
102
RTVSPost2010PropOp49
 70
     1
102
RTVSPost2010Prop50
 90
       50
102
RTVSPost2010PropOp50
 70
     1
102
RTVSPost2010Prop51ColorIndex
 90
      256
102
RTVSPost2010Prop51ColorRGB
 90
-16777216
102
RTVSPost2010PropOp51
 70
     0
102
RTVSPost2010Prop52
140
1.0
102
RTVSPost2010PropOp52
 70
     0
102
RTVSPost2010Prop53
 90
        2
102
RTVSPost2010PropOp53
 70
     1
102
RTVSPost2010Prop54
  1
strokes_ogs.tif
102
RTVSPost2010PropOp54
 70
     1
102
RTVSPost2010Prop55
280
     0
102
RTVSPost2010PropOp55
 70
     1
102
RTVSPost2010Prop56
140
1.0
102
RTVSPost2010PropOp56
 70
     1
102
RTVSPost2010Prop57
140
1.0
102
RTVSPost2010PropOp57
 70
     1
102
RTVSPropertyOp0
 70
     1
102
RTVSPropertyOp1
 70
     1
102
RTVSPropertyOp2
 70
     1
102
RTVSPropertyOp3
 70
     1
102
RTVSPropertyOp4
 70
     1
102
RTVSPropertyOp5
 70
     1
102
RTVSPropertyOp6
 70
     1
102
RTVSPropertyOp7
 70
     1
102
RTVSPropertyOp8
 70
     1
102
RTVSPropertyOp9
 70
     1
102
RTVSPropertyOp10
 70
     1
102
RTVSPropertyOp11
 70
     1
102
RTVSPropertyOp12
 70
     1
102
RTVSPropertyOp13
 70
     1
102
RTVSPropertyOp14
 70
     1
102
RTVSPropertyOp15
 70
     1
102
RTVSPropertyOp16
 70
     1
102
RTVSPropertyOp17
 70
     1
102
RTVSPropertyOp18
 70
     1
102
RTVSPropertyOp19
 70
     1
102
RTVSPropertyOp20
 70
     1
102
RTVSPropertyOp21
 70
     1
102
RTVSPropertyOp22
 70
     1
102
RTVSPropertyOp23
 70
     1
102
RTVSPropertyOp24
 70
     1
102
RTVSPropertyOp25
 70
     1
102
RTVSPropertyOp26
 70
     1
102
RTVSPropertyOp27
 70
     1
102
RTVSPropertyOp28
 70
     1
102
RTVSPropertyOp29
 70
     1
102
RTVSPropertyOp30
 70
     1
102
RTVSPropertyOp31
 70
     1
102
RTVSPropertyOp32
 70
     1
102
RTVSPropertyOp33
 70
     1
102
RTVSPropertyOp34
 70
     1
102
RTVSPropertyOp35
 70
     1
102
RTVSPropertyOp36
 70
     1
102
RTVSPropertyOp37
 70
     1
102
RTVSPropertyOp38
 70
     1
102
RTVSPropertyOp39
 70
     1
102
RTVSPropertyOp40
 70
     1
102
RTVSPropertyOp41
 70
     1
102
RTVSPropertyOp42
 70
     1
102
RTVSPropertyOp43
 70
     1
102
RTVSPropertyOp44
 70
     1
102
RTVSPropertyOp45
 70
     1
102
RTVSPropertyOp46
 70
     1
102
RTVSPropertyOp47
 70
     1
102
RTVSPropertyOp48
 70
     1
102
RTVSPropertyOp49
 70
     1
102
RTVSPropertyOp50
 70
     1
102
RTVSPropertyOp51
 70
     0
102
RTVSPropertyOp52
 70
     0
102
RTVSPropertyOp53
 70
     1
102
RTVSPropertyOp54
 70
     1
102
RTVSPropertyOp55
 70
     1
102
RTVSPropertyOp56
 70
     1
102
RTVSPropertyOp57
 70
     1
102
RTVSPropertyOp58
 70
     1
102
RTVSPropertyOp59
 70
     1
102
RTVSPropertyOp60
 70
     1
102
RTVSPropertyOp61
 70
     1
102
RTVSPropertyOp62
 70
     1
  0
XRECORD
  5
23F
102
{ACAD_REACTORS
330
23E
102
}
330
23E
100
AcDbXrecord
280
     1
102
RTVSPost2010Prop28
280
     0
102
RTVSPost2010PropOp28
 70
     1
102
RTVSPost2010Prop29
280
     1
102
RTVSPost2010PropOp29
 70
     1
102
RTVSPost2010Prop30
280
     1
102
RTVSPost2010PropOp30
 70
     1
102
RTVSPost2010Prop31
280
     0
102
RTVSPost2010PropOp31
 70
     1
102
RTVSPost2010Prop32
280
     0
102
RTVSPost2010PropOp32
 70
     1
102
RTVSPost2010Prop33
280
     0
102
RTVSPost2010PropOp33
 70
     1
102
RTVSPost2010Prop34
280
     0
102
RTVSPost2010PropOp34
 70
     1
102
RTVSPost2010Prop35
280
     0
102
RTVSPost2010PropOp35
 70
     1
102
RTVSPost2010Prop36
280
     0
102
RTVSPost2010PropOp36
 70
     1
102
RTVSPost2010Prop37
 90
       50
102
RTVSPost2010PropOp37
 70
     1
102
RTVSPost2010Prop38
140
0.0
102
RTVSPost2010PropOp38
 70
     1
102
RTVSPost2010Prop39
140
1.0
102
RTVSPost2010PropOp39
 70
     1
102
RTVSPost2010Prop40
 90
        0
102
RTVSPost2010PropOp40
 70
     1
102
RTVSPost2010Prop41ColorIndex
 90
       18
102
RTVSPost2010Prop41ColorRGB
 90
        0
102
RTVSPost2010PropOp41
 70
     1
102
RTVSPost2010Prop42
 90
       50
102
RTVSPost2010PropOp42
 70
     1
102
RTVSPost2010Prop43
 90
        3
102
RTVSPost2010PropOp43
 70
     1
102
RTVSPost2010Prop44ColorIndex
 90
        5
102
RTVSPost2010Prop44ColorRGB
 90
      255
102
RTVSPost2010PropOp44
 70
     1
102
RTVSPost2010Prop45
280
     0
102
RTVSPost2010PropOp45
 70
     1
102
RTVSPost2010Prop46
 90
       50
102
RTVSPost2010PropOp46
 70
     1
102
RTVSPost2010Prop47
 90
       50
102
RTVSPost2010PropOp47
 70
     1
102
RTVSPost2010Prop48
 90
       50
102
RTVSPost2010PropOp48
 70
     1
102
RTVSPost2010Prop49
280
     0
102
RTVSPost2010PropOp49
 70
     1
102
RTVSPost2010Prop50
 90
       50
102
RTVSPost2010PropOp50
 70
     1
102
RTVSPost2010Prop51ColorIndex
 90
      256
102
RTVSPost2010Prop51ColorRGB
 90
-16777216
102
RTVSPost2010PropOp51
 70
     0
102
RTVSPost2010Prop52
140
1.0
102
RTVSPost2010PropOp52
 70
     0
102
RTVSPost2010Prop53
 90
        2
102
RTVSPost2010PropOp53
 70
     1
102
RTVSPost2010Prop54
  1
strokes_ogs.tif
102
RTVSPost2010PropOp54
 70
     1
102
RTVSPost2010Prop55
280
     0
102
RTVSPost2010PropOp55
 70
     1
102
RTVSPost2010Prop56
140
1.0
102
RTVSPost2010PropOp56
 70
     1
102
RTVSPost2010Prop57
140
1.0
102
RTVSPost2010PropOp57
 70
     1
102
RTVSPropertyOp0
 70
     1
102
RTVSPropertyOp1
 70
     1
102
RTVSPropertyOp2
 70
     1
102
RTVSPropertyOp3
 70
     1
102
RTVSPropertyOp4
 70
     1
102
RTVSPropertyOp5
 70
     1
102
RTVSPropertyOp6
 70
     1
102
RTVSPropertyOp7
 70
     1
102
RTVSPropertyOp8
 70
     1
102
RTVSPropertyOp9
 70
     1
102
RTVSPropertyOp10
 70
     1
102
RTVSPropertyOp11
 70
     1
102
RTVSPropertyOp12
 70
     1
102
RTVSPropertyOp13
 70
     1
102
RTVSPropertyOp14
 70
     1
102
RTVSPropertyOp15
 70
     1
102
RTVSPropertyOp16
 70
     1
102
RTVSPropertyOp17
 70
     1
102
RTVSPropertyOp18
 70
     1
102
RTVSPropertyOp19
 70
     1
102
RTVSPropertyOp20
 70
     1
102
RTVSPropertyOp21
 70
     1
102
RTVSPropertyOp22
 70
     1
102
RTVSPropertyOp23
 70
     1
102
RTVSPropertyOp24
 70
     1
102
RTVSPropertyOp25
 70
     1
102
RTVSPropertyOp26
 70
     1
102
RTVSPropertyOp27
 70
     1
102
RTVSPropertyOp28
 70
     1
102
RTVSPropertyOp29
 70
     1
102
RTVSPropertyOp30
 70
     1
102
RTVSPropertyOp31
 70
     1
102
RTVSPropertyOp32
 70
     1
102
RTVSPropertyOp33
 70
     1
102
RTVSPropertyOp34
 70
     1
102
RTVSPropertyOp35
 70
     1
102
RTVSPropertyOp36
 70
     1
102
RTVSPropertyOp37
 70
     1
102
RTVSPropertyOp38
 70
     1
102
RTVSPropertyOp39
 70
     1
102
RTVSPropertyOp40
 70
     1
102
RTVSPropertyOp41
 70
     1
102
RTVSPropertyOp42
 70
     1
102
RTVSPropertyOp43
 70
     1
102
RTVSPropertyOp44
 70
     1
102
RTVSPropertyOp45
 70
     1
102
RTVSPropertyOp46
 70
     1
102
RTVSPropertyOp47
 70
     1
102
RTVSPropertyOp48
 70
     1
102
RTVSPropertyOp49
 70
     1
102
RTVSPropertyOp50
 70
     1
102
RTVSPropertyOp51
 70
     0
102
RTVSPropertyOp52
 70
     0
102
RTVSPropertyOp53
 70
     1
102
RTVSPropertyOp54
 70
     1
102
RTVSPropertyOp55
 70
     1
102
RTVSPropertyOp56
 70
     1
102
RTVSPropertyOp57
 70
     1
102
RTVSPropertyOp58
 70
     1
102
RTVSPropertyOp59
 70
     1
102
RTVSPropertyOp60
 70
     1
102
RTVSPropertyOp61
 70
     1
102
RTVSPropertyOp62
 70
     1
  0
ENDSEC
  0
EOF
