  0
SECTION
  2
HEADER
  9
$ACADVER
  1
AC1015
  9
$ACADMAINTVER
 70
    18
  9
$DWGCODEPAGE
  3
ANSI_932
  9
$INSBASE
 10
0.0
 20
0.0
 30
0.0
  9
$EXTMIN
 10
-0.0000010000013669
 20
14.04518791121451
 30
0.0
  9
$EXTMAX
 10
50.0017993658951
 20
63.01654205916182
 30
0.0
  9
$LIMMIN
 10
-14.44572611199828
 20
-5.77098142015825
  9
$LIMMAX
 10
71.43293543854316
 20
72.72084924473052
  9
$ORTHOMODE
 70
     0
  9
$REGENMODE
 70
     1
  9
$FILLMODE
 70
     1
  9
$QTEXTMODE
 70
     0
  9
$MIRRTEXT
 70
     1
  9
$LTSCALE
 40
1.0
  9
$ATTMODE
 70
     1
  9
$TEXTSIZE
 40
3.5
  9
$TRACEWID
 40
1.0
  9
$TEXTSTYLE
  7
Standard
  9
$CLAYER
  8
0
  9
$CELTYPE
  6
ByLayer
  9
$CECOLOR
 62
   256
  9
$CELTSCALE
 40
1.0
  9
$DISPSILH
 70
     0
  9
$DIMSCALE
 40
1.0
  9
$DIMASZ
 40
2.5
  9
$DIMEXO
 40
0.625
  9
$DIMDLI
 40
3.75
  9
$DIMRND
 40
0.0
  9
$DIMDLE
 40
0.0
  9
$DIMEXE
 40
1.25
  9
$DIMTP
 40
0.0
  9
$DIMTM
 40
0.0
  9
$DIMTXT
 40
2.5
  9
$DIMCEN
 40
2.5
  9
$DIMTSZ
 40
0.0
  9
$DIMTOL
 70
     0
  9
$DIMLIM
 70
     0
  9
$DIMTIH
 70
     0
  9
$DIMTOH
 70
     0
  9
$DIMSE1
 70
     0
  9
$DIMSE2
 70
     0
  9
$DIMTAD
 70
     1
  9
$DIMZIN
 70
     8
  9
$DIMBLK
  1

  9
$DIMASO
 70
     1
  9
$DIMSHO
 70
     1
  9
$DIMPOST
  1

  9
$DIMAPOST
  1

  9
$DIMALT
 70
     0
  9
$DIMALTD
 70
     3
  9
$DIMALTF
 40
0.0393700787
  9
$DIMLFAC
 40
1.0
  9
$DIMTOFL
 70
     1
  9
$DIMTVP
 40
0.0
  9
$DIMTIX
 70
     0
  9
$DIMSOXD
 70
     0
  9
$DIMSAH
 70
     0
  9
$DIMBLK1
  1

  9
$DIMBLK2
  1

  9
$DIMSTYLE
  2
ISO-25
  9
$DIMCLRD
 70
     0
  9
$DIMCLRE
 70
     0
  9
$DIMCLRT
 70
     0
  9
$DIMTFAC
 40
1.0
  9
$DIMGAP
 40
0.625
  9
$DIMJUST
 70
     0
  9
$DIMSD1
 70
     0
  9
$DIMSD2
 70
     0
  9
$DIMTOLJ
 70
     0
  9
$DIMTZIN
 70
     8
  9
$DIMALTZ
 70
     0
  9
$DIMALTTZ
 70
     0
  9
$DIMUPT
 70
     0
  9
$DIMDEC
 70
     2
  9
$DIMTDEC
 70
     2
  9
$DIMALTU
 70
     2
  9
$DIMALTTD
 70
     3
  9
$DIMTXSTY
  7
Standard
  9
$DIMAUNIT
 70
     0
  9
$DIMADEC
 70
     0
  9
$DIMALTRND
 40
0.0
  9
$DIMAZIN
 70
     0
  9
$DIMDSEP
 70
    44
  9
$DIMATFIT
 70
     3
  9
$DIMFRAC
 70
     0
  9
$DIMLDRBLK
  1

  9
$DIMLUNIT
 70
     2
  9
$DIMLWD
 70
    -2
  9
$DIMLWE
 70
    -2
  9
$DIMTMOVE
 70
     0
  9
$LUNITS
 70
     2
  9
$LUPREC
 70
     2
  9
$SKETCHINC
 40
1.0
  9
$FILLETRAD
 40
10.0
  9
$AUNITS
 70
     0
  9
$AUPREC
 70
     2
  9
$MENU
  1
.
  9
$ELEVATION
 40
0.0
  9
$PELEVATION
 40
0.0
  9
$THICKNESS
 40
0.0
  9
$LIMCHECK
 70
     0
  9
$CHAMFERA
 40
0.0
  9
$CHAMFERB
 40
0.0
  9
$CHAMFERC
 40
0.0
  9
$CHAMFERD
 40
0.0
  9
$SKPOLY
 70
     0
  9
$TDCREATE
 40
2458184.553472222
  9
$TDUCREATE
 40
2458184.220149780
  9
$TDUPDATE
 40
2458185.592418981
  9
$TDUUPDATE
 40
2458185.259085648
  9
$TDINDWG
 40
0.0535532523
  9
$TDUSRTIMER
 40
0.0535532523
  9
$USRTIMER
 70
     1
  9
$ANGBASE
 50
0.0
  9
$ANGDIR
 70
     0
  9
$PDMODE
 70
     0
  9
$PDSIZE
 40
-1.0
  9
$PLINEWID
 40
0.0
  9
$SPLFRAME
 70
     0
  9
$SPLINETYPE
 70
     6
  9
$SPLINESEGS
 70
     8
  9
$HANDSEED
  5
387
  9
$SURFTAB1
 70
     6
  9
$SURFTAB2
 70
     6
  9
$SURFTYPE
 70
     6
  9
$SURFU
 70
     6
  9
$SURFV
 70
     6
  9
$UCSBASE
  2

  9
$UCSNAME
  2

  9
$UCSORG
 10
0.0
 20
0.0
 30
0.0
  9
$UCSXDIR
 10
1.0
 20
0.0
 30
0.0
  9
$UCSYDIR
 10
0.0
 20
1.0
 30
0.0
  9
$UCSORTHOREF
  2

  9
$UCSORTHOVIEW
 70
     0
  9
$UCSORGTOP
 10
0.0
 20
0.0
 30
0.0
  9
$UCSORGBOTTOM
 10
0.0
 20
0.0
 30
0.0
  9
$UCSORGLEFT
 10
0.0
 20
0.0
 30
0.0
  9
$UCSORGRIGHT
 10
0.0
 20
0.0
 30
0.0
  9
$UCSORGFRONT
 10
0.0
 20
0.0
 30
0.0
  9
$UCSORGBACK
 10
0.0
 20
0.0
 30
0.0
  9
$PUCSBASE
  2

  9
$PUCSNAME
  2

  9
$PUCSORG
 10
0.0
 20
0.0
 30
0.0
  9
$PUCSXDIR
 10
1.0
 20
0.0
 30
0.0
  9
$PUCSYDIR
 10
0.0
 20
1.0
 30
0.0
  9
$PUCSORTHOREF
  2

  9
$PUCSORTHOVIEW
 70
     0
  9
$PUCSORGTOP
 10
0.0
 20
0.0
 30
0.0
  9
$PUCSORGBOTTOM
 10
0.0
 20
0.0
 30
0.0
  9
$PUCSORGLEFT
 10
0.0
 20
0.0
 30
0.0
  9
$PUCSORGRIGHT
 10
0.0
 20
0.0
 30
0.0
  9
$PUCSORGFRONT
 10
0.0
 20
0.0
 30
0.0
  9
$PUCSORGBACK
 10
0.0
 20
0.0
 30
0.0
  9
$USERI1
 70
     0
  9
$USERI2
 70
     0
  9
$USERI3
 70
     0
  9
$USERI4
 70
     0
  9
$USERI5
 70
     0
  9
$USERR1
 40
0.0
  9
$USERR2
 40
0.0
  9
$USERR3
 40
0.0
  9
$USERR4
 40
0.0
  9
$USERR5
 40
0.0
  9
$WORLDVIEW
 70
     1
  9
$SHADEDGE
 70
     3
  9
$SHADEDIF
 70
    70
  9
$TILEMODE
 70
     1
  9
$MAXACTVP
 70
    64
  9
$PINSBASE
 10
0.0
 20
0.0
 30
0.0
  9
$PLIMCHECK
 70
     0
  9
$PEXTMIN
 10
1.000000000000000E+20
 20
1.000000000000000E+20
 30
1.000000000000000E+20
  9
$PEXTMAX
 10
-1.000000000000000E+20
 20
-1.000000000000000E+20
 30
-1.000000000000000E+20
  9
$PLIMMIN
 10
0.0
 20
0.0
  9
$PLIMMAX
 10
420.0
 20
297.0
  9
$UNITMODE
 70
     0
  9
$VISRETAIN
 70
     1
  9
$PLINEGEN
 70
     0
  9
$PSLTSCALE
 70
     1
  9
$TREEDEPTH
 70
  3020
  9
$CMLSTYLE
  2
Standard
  9
$CMLJUST
 70
     0
  9
$CMLSCALE
 40
20.0
  9
$PROXYGRAPHICS
 70
     1
  9
$MEASUREMENT
 70
     1
  9
$CELWEIGHT
370
    -1
  9
$ENDCAPS
280
     0
  9
$JOINSTYLE
280
     0
  9
$LWDISPLAY
290
     0
  9
$INSUNITS
 70
     4
  9
$HYPERLINKBASE
  1

  9
$STYLESHEET
  1

  9
$XEDIT
290
     1
  9
$CEPSNTYPE
380
     0
  9
$PSTYLEMODE
290
     1
  9
$FINGERPRINTGUID
  2
{E031932C-BA62-5044-B31C-33C01BEC06CD}
  9
$VERSIONGUID
  2
{BCF1F6C0-6666-7B47-BC4C-DD875A8D6169}
  9
$EXTNAMES
290
     1
  9
$PSVPSCALE
 40
0.0
  9
$OLESTARTUP
290
     0
  0
ENDSEC
  0
SECTION
  2
CLASSES
  0
CLASS
  1
ACDBDICTIONARYWDFLT
  2
AcDbDictionaryWithDefault
  3
ObjectDBX Classes
 90
        0
280
     0
281
     0
  0
CLASS
  1
VISUALSTYLE
  2
AcDbVisualStyle
  3
ObjectDBX Classes
 90
     4095
280
     0
281
     0
  0
CLASS
  1
MATERIAL
  2
AcDbMaterial
  3
ObjectDBX Classes
 90
     1153
280
     0
281
     0
  0
CLASS
  1
SCALE
  2
AcDbScale
  3
ObjectDBX Classes
 90
     1153
280
     0
281
     0
  0
CLASS
  1
TABLESTYLE
  2
AcDbTableStyle
  3
ObjectDBX Classes
 90
     4095
280
     0
281
     0
  0
CLASS
  1
MLEADERSTYLE
  2
AcDbMLeaderStyle
  3
ACDB_MLEADERSTYLE_CLASS
 90
    36863
280
     0
281
     0
  0
CLASS
  1
SUN
  2
AcDbSun
  3
SCENEOE
 90
    33921
280
     0
281
     0
  0
CLASS
  1
ACDBPLACEHOLDER
  2
AcDbPlaceHolder
  3
ObjectDBX Classes
 90
        0
280
     0
281
     0
  0
CLASS
  1
LAYOUT
  2
AcDbLayout
  3
ObjectDBX Classes
 90
        0
280
     0
281
     0
  0
CLASS
  1
ACDBSECTIONVIEWSTYLE
  2
AcDbSectionViewStyle
  3
ObjectDBX Classes
 90
    33793
280
     0
281
     0
  0
CLASS
  1
ACDBDETAILVIEWSTYLE
  2
AcDbDetailViewStyle
  3
ObjectDBX Classes
 90
    33793
280
     0
281
     0
  0
CLASS
  1
DICTIONARYVAR
  2
AcDbDictionaryVar
  3
ObjectDBX Classes
 90
        0
280
     0
281
     0
  0
CLASS
  1
SORTENTSTABLE
  2
AcDbSortentsTable
  3
ObjectDBX Classes
 90
        0
280
     0
281
     0
  0
CLASS
  1
CELLSTYLEMAP
  2
AcDbCellStyleMap
  3
ObjectDBX Classes
 90
     1152
280
     0
281
     0
  0
CLASS
  1
SOLID_BACKGROUND
  2
AcDbSolidBackground
  3
SCENEOE
 90
    36863
280
     0
281
     0
  0
CLASS
  1
NPOCOLLECTION
  2
AcDbImpNonPersistentObjectsCollection
  3
ObjectDBX Classes
 90
    33921
280
     0
281
     0
  0
ENDSEC
  0
SECTION
  2
TABLES
  0
TABLE
  2
VPORT
  5
2A
330
0
100
AcDbSymbolTable
 70
     1
  0
VPORT
  5
2B
330
2A
100
AcDbSymbolTableRecord
100
AcDbViewportTableRecord
  2
*Active
 70
     0
 10
0.0
 20
0.0
 11
1.0
 21
1.0
 12
28.49360466327244
 22
42.21475986461161
 13
0.0
 23
0.0
 14
10.0
 24
10.0
 15
10.0
 25
10.0
 16
0.0
 26
0.0
 36
1.0
 17
0.0
 27
0.0
 37
0.0
 40
79.20025902407184
 41
2.326023391812865
 42
50.0
 43
0.0
 44
0.0
 50
0.0
 51
0.0
 71
     0
 72
  2000
 73
     1
 74
     3
 75
     0
 76
     0
 77
     0
 78
     0
281
     0
 65
     1
110
0.0
120
0.0
130
0.0
111
1.0
121
0.0
131
0.0
112
0.0
122
1.0
132
0.0
 79
     0
146
0.0
1001
ACAD_NAV_VCDISPLAY
1070
     3
  0
ENDTAB
  0
TABLE
  2
LTYPE
  5
25
330
0
100
AcDbSymbolTable
 70
     1
  0
LTYPE
  5
26
330
25
100
AcDbSymbolTableRecord
100
AcDbLinetypeTableRecord
  2
ByBlock
 70
     0
  3

 72
    65
 73
     0
 40
0.0
  0
LTYPE
  5
27
330
25
100
AcDbSymbolTableRecord
100
AcDbLinetypeTableRecord
  2
ByLayer
 70
     0
  3

 72
    65
 73
     0
 40
0.0
  0
LTYPE
  5
17
330
25
100
AcDbSymbolTableRecord
100
AcDbLinetypeTableRecord
  2
Continuous
 70
     0
  3
Solid line
 72
    65
 73
     0
 40
0.0
  0
ENDTAB
  0
TABLE
  2
LAYER
  5
1F
102
{ACAD_XDICTIONARY
360
20
102
}
330
0
100
AcDbSymbolTable
 70
     1
  0
LAYER
  5
6
102
{ACAD_XDICTIONARY
360
7
102
}
330
1F
100
AcDbSymbolTableRecord
100
AcDbLayerTableRecord
  2
0
 70
     0
 62
     7
  6
Continuous
370
    -3
390
9
  0
ENDTAB
  0
TABLE
  2
STYLE
  5
22
330
0
100
AcDbSymbolTable
 70
     1
  0
STYLE
  5
23
330
22
100
AcDbSymbolTableRecord
100
AcDbTextStyleTableRecord
  2
Standard
 70
     0
 40
0.0
 41
1.0
 50
0.0
 71
     0
 42
3.5
  3
txt
  4
bigfont
  0
ENDTAB
  0
TABLE
  2
VIEW
  5
28
330
0
100
AcDbSymbolTable
 70
     0
  0
ENDTAB
  0
TABLE
  2
UCS
  5
29
330
0
100
AcDbSymbolTable
 70
     0
  0
ENDTAB
  0
TABLE
  2
APPID
  5
2F
330
0
100
AcDbSymbolTable
 70
     2
  0
APPID
  5
30
330
2F
100
AcDbSymbolTableRecord
100
AcDbRegAppTableRecord
  2
ACAD
 70
     0
  0
APPID
  5
2E
330
2F
100
AcDbSymbolTableRecord
100
AcDbRegAppTableRecord
  2
ACAD_NAV_VCDISPLAY
 70
     0
  0
ENDTAB
  0
TABLE
  2
DIMSTYLE
  5
31
330
0
100
AcDbSymbolTable
 70
     1
100
AcDbDimStyleTable
 71
     1
340
32
  0
DIMSTYLE
105
32
330
31
100
AcDbSymbolTableRecord
100
AcDbDimStyleTableRecord
  2
ISO-25
 70
     0
 41
2.5
 42
0.625
 43
3.75
 44
1.25
 73
     0
 74
     0
 77
     1
 78
     8
140
2.5
141
2.5
143
0.0393700787
147
0.625
171
     3
172
     1
271
     2
272
     2
274
     3
278
    44
283
     0
284
     8
340
23
  0
ENDTAB
  0
TABLE
  2
BLOCK_RECORD
  5
1
330
0
100
AcDbSymbolTable
 70
     0
  0
BLOCK_RECORD
  5
2
102
{ACAD_XDICTIONARY
360
3
102
}
330
1
100
AcDbSymbolTableRecord
100
AcDbBlockTableRecord
  2
*Model_Space
340
19
  0
BLOCK_RECORD
  5
1B
330
1
100
AcDbSymbolTableRecord
100
AcDbBlockTableRecord
  2
*Paper_Space
340
1E
  0
ENDTAB
  0
ENDSEC
  0
SECTION
  2
BLOCKS
  0
BLOCK
  5
5
330
2
100
AcDbEntity
  8
0
100
AcDbBlockBegin
  2
*Model_Space
 70
     0
 10
0.0
 20
0.0
 30
0.0
  3
*Model_Space
  1

  0
ENDBLK
  5
18
330
2
100
AcDbEntity
  8
0
100
AcDbBlockEnd
  0
BLOCK
  5
1C
330
1B
100
AcDbEntity
 67
     1
  8
0
100
AcDbBlockBegin
  2
*Paper_Space
 70
     0
 10
0.0
 20
0.0
 30
0.0
  3
*Paper_Space
  1

  0
ENDBLK
  5
1D
330
1B
100
AcDbEntity
 67
     1
  8
0
100
AcDbBlockEnd
  0
ENDSEC
  0
SECTION
  2
ENTITIES
  0
SPLINE
  5
73
330
2
100
AcDbEntity
  8
0
100
AcDbSpline
210
0.0
220
0.0
230
1.0
 70
     8
 71
     3
 72
    10
 73
     6
 74
     0
 42
0.000000001
 43
0.0000000001
 40
0.0
 40
0.0
 40
0.0
 40
0.0
 40
0.3231893454518329
 40
0.7600493827613243
 40
1.0
 40
1.0
 40
1.0
 40
1.0
 10
13.24325784560316
 20
46.49095129807351
 30
0.0
 10
13.21869243660414
 20
46.50392797119582
 30
0.0
 10
13.16217432772537
 20
46.5231834873263
 30
0.0
 10
13.07775257622898
 20
46.51168138825755
 30
0.0
 10
13.02452595955759
 20
46.48861253579805
 30
0.0
 10
13.00565545354829
 20
46.48043390363644
 30
0.0
  0
LINE
  5
74
330
2
100
AcDbEntity
  8
0
100
AcDbLine
 10
13.30017963491959
 20
46.46249040339919
 30
0.0
 11
13.24325784560316
 21
46.49095129807351
 31
0.0
  0
LINE
  5
75
330
2
100
AcDbEntity
  8
0
100
AcDbLine
 10
13.0056554535365
 20
46.48043390365019
 30
0.0
 11
10.52387023105161
 21
45.23954129237551
 31
0.0
  0
LINE
  5
76
330
2
100
AcDbEntity
  8
0
100
AcDbLine
 10
10.21753169731945
 20
44.71593411117114
 30
0.0
 11
10.21753169731945
 21
44.34333787922369
 31
0.0
  0
SPLINE
  5
77
330
2
100
AcDbEntity
  8
0
100
AcDbSpline
210
0.0
220
0.0
230
1.0
 70
     8
 71
     3
 72
    12
 73
     8
 74
     0
 42
0.000000001
 43
0.0000000001
 40
0.0
 40
0.0
 40
0.0
 40
0.0
 40
0.1244798482739428
 40
0.3513957599118384
 40
0.5795666731816042
 40
0.8086278379537152
 40
1.0
 40
1.0
 40
1.0
 40
1.0
 10
10.5238702310474
 20
45.23954129238604
 30
0.0
 10
10.50312381488486
 20
45.2277044398892
 30
0.0
 10
10.44455849066592
 20
45.19429003719073
 30
0.0
 10
10.35699633470819
 20
45.1071522382201
 30
0.0
 10
10.27605179303407
 20
44.97823962334004
 30
0.0
 10
10.2261956179576
 20
44.84101586898828
 30
0.0
 10
10.22024176326023
 20
44.75505956339351
 30
0.0
 10
10.21753169730386
 20
44.71593411116624
 30
0.0
  0
LINE
  5
78
330
2
100
AcDbEntity
  8
0
100
AcDbLine
 10
6.583556504618917
 20
41.08658651257999
 30
0.0
 11
6.381386567184213
 21
40.98550154387873
 31
0.0
  0
SPLINE
  5
79
330
2
100
AcDbEntity
  8
0
100
AcDbSpline
210
0.0
220
0.0
230
1.0
 70
     8
 71
     3
 72
    11
 73
     7
 74
     0
 42
0.000000001
 43
0.0000000001
 40
0.0
 40
0.0
 40
0.0
 40
0.0
 40
0.2013386930625068
 40
0.5769596642866853
 40
0.9536586380576988
 40
1.0
 40
1.0
 40
1.0
 40
1.0
 10
6.381386567189704
 20
40.98550154387017
 30
0.0
 10
6.362014325889159
 20
40.97647487234637
 30
0.0
 10
6.306500893934158
 20
40.95060788526716
 30
0.0
 10
6.186015650659525
 20
40.91356030329824
 30
0.0
 10
6.070417178797599
 20
40.8931961736909
 30
0.0
 10
6.006712734503566
 20
40.88653980220767
 30
0.0
 10
5.999734320245807
 20
40.88581063930265
 30
0.0
  0
LINE
  5
7A
330
2
100
AcDbEntity
  8
0
100
AcDbLine
 10
5.99973432025177
 20
40.88581063930808
 30
0.0
 11
5.812916785436164
 21
40.86712905545165
 31
0.0
  0
SPLINE
  5
7B
330
2
100
AcDbEntity
  8
0
100
AcDbSpline
210
0.0
220
0.0
230
1.0
 70
     8
 71
     3
 72
    18
 73
    14
 74
     0
 42
0.000000001
 43
0.0000000001
 40
0.0
 40
0.0
 40
0.0
 40
0.0
 40
0.0599560185408302
 40
0.1590995533621265
 40
0.2597728539693921
 40
0.360844437081252
 40
0.462533384176774
 40
0.5657062911478004
 40
0.6714941458079763
 40
0.7653109046696828
 40
0.8537758144436351
 40
0.9385748340551387
 40
1.0
 40
1.0
 40
1.0
 40
1.0
 10
4.877389717603881
 20
40.46119027640074
 30
0.0
 10
4.842485359772047
 20
40.4418687373205
 30
0.0
 10
4.749863002974617
 20
40.39059701660351
 30
0.0
 10
4.612435299111205
 20
40.27276283269726
 30
0.0
 10
4.474137189092058
 20
40.10585529676953
 30
0.0
 10
4.362314715313387
 20
39.91195115920137
 30
0.0
 10
4.282910326834099
 20
39.70166003170322
 30
0.0
 10
4.241210638601049
 20
39.48353019744029
 30
0.0
 10
4.243008027773611
 20
39.27618747637176
 30
0.0
 10
4.286465283137182
 20
39.09075572190486
 30
0.0
 10
4.366571501884529
 20
38.93799315975794
 30
0.0
 10
4.466870665903508
 20
38.82139669761642
 30
0.0
 10
4.550658764759107
 20
38.7783155281012
 30
0.0
 10
4.585856073992478
 20
38.76021819367936
 30
0.0
  0
SPLINE
  5
7C
330
2
100
AcDbEntity
  8
0
100
AcDbSpline
210
0.0
220
0.0
230
1.0
 70
     8
 71
     3
 72
    10
 73
     6
 74
     0
 42
0.000000001
 43
0.0000000001
 40
0.0
 40
0.0
 40
0.0
 40
0.0
 40
0.3358887114458647
 40
0.9285171920864897
 40
1.0
 40
1.0
 40
1.0
 40
1.0
 10
5.812916785433823
 20
40.86712905546128
 30
0.0
 10
5.78008976049568
 20
40.86277592262946
 30
0.0
 10
5.689344058180028
 20
40.85074229799126
 30
0.0
 10
5.597902424609603
 20
40.82065167300154
 30
0.0
 10
5.542392391610492
 20
40.79361436189831
 30
0.0
 10
5.536417469794597
 20
40.79070415249607
 30
0.0
  0
LINE
  5
7D
330
2
100
AcDbEntity
  8
0
100
AcDbLine
 10
4.589387126593801
 20
38.75146009153228
 30
0.0
 11
4.930917014382765
 21
38.58069514762168
 31
0.0
  0
LINE
  5
7E
330
2
100
AcDbEntity
  8
0
100
AcDbLine
 10
5.536417469784383
 20
40.79070415250889
 30
0.0
 11
4.877389717594801
 21
40.46119027641409
 31
0.0
  0
LINE
  5
7F
330
2
100
AcDbEntity
  8
0
100
AcDbLine
 10
41.67595137729871
 20
43.38533938877501
 30
0.0
 11
41.87643573119058
 21
43.48718713797665
 31
0.0
  0
LINE
  5
80
330
2
100
AcDbEntity
  8
0
100
AcDbLine
 10
36.55666940086199
 20
61.46549716288152
 30
0.0
 11
36.55666940086199
 21
47.59189563325838
 31
0.0
  0
LINE
  5
81
330
2
100
AcDbEntity
  8
0
100
AcDbLine
 10
41.3397914376535
 20
60.15460723689828
 30
0.0
 11
35.64762395524873
 21
63.00069097808453
 31
0.0
  0
LINE
  5
82
330
2
100
AcDbEntity
  8
0
100
AcDbLine
 10
34.78938966101839
 20
62.7443759368943
 30
0.0
 11
9.17463705048682
 21
49.93699963164459
 31
0.0
  0
LINE
  5
83
330
2
100
AcDbEntity
  8
0
100
AcDbLine
 10
43.68998260813343
 20
58.81070846080286
 30
0.0
 11
43.55098842941428
 21
58.87848070667327
 31
0.0
  0
LINE
  5
84
330
2
100
AcDbEntity
  8
0
100
AcDbLine
 10
46.51144991681383
 20
45.38204797100691
 30
0.0
 11
43.77366740972146
 21
46.75093922455307
 31
0.0
  0
LINE
  5
85
330
2
100
AcDbEntity
  8
0
100
AcDbLine
 10
28.18851261982006
 20
54.23332191240528
 30
0.0
 11
3.718034798069983
 21
41.99808300154645
 31
0.0
  0
LINE
  5
86
330
2
100
AcDbEntity
  8
0
100
AcDbLine
 10
36.55666924182737
 20
50.04924360138531
 30
0.0
 11
28.18851261982006
 21
54.23332191240528
 31
0.0
  0
LINE
  5
87
330
2
100
AcDbEntity
  8
0
100
AcDbLine
 10
28.90572343331871
 20
49.02574580796851
 30
0.0
 11
0.0762158847694079
 21
34.61247384206141
 31
0.0
  0
LINE
  5
88
330
2
100
AcDbEntity
  8
0
100
AcDbLine
 10
36.12207638677437
 20
45.53289726287553
 30
0.0
 11
29.14917097699504
 21
49.01934996776512
 31
0.0
  0
LINE
  5
89
330
2
100
AcDbEntity
  8
0
100
AcDbLine
 10
49.92558252099048
 20
38.63114419575134
 30
0.0
 11
42.95267711121113
 21
42.11759690067323
 31
0.0
  0
LINE
  5
8A
330
2
100
AcDbEntity
  8
0
100
AcDbLine
 10
0.2746266040416454
 20
32.95706146387201
 30
0.0
 11
0.2746266040416454
 21
24.43446002437546
 31
0.0
  0
LINE
  5
8B
330
2
100
AcDbEntity
  8
0
100
AcDbLine
 10
2.797073004143622
 20
29.96558531277813
 30
0.0
 11
4.338331661652564
 21
29.19495598403975
 31
0.0
  0
LINE
  5
8C
330
2
100
AcDbEntity
  8
0
100
AcDbLine
 10
29.76668277898942
 20
38.17468321658669
 30
0.0
 11
30.8411177070942
 21
37.63746575255043
 31
0.0
  0
LINE
  5
8D
330
2
100
AcDbEntity
  8
0
100
AcDbLine
 10
36.23022685350357
 20
45.12366528663887
 30
0.0
 11
36.1973922204899
 21
45.14008260314572
 31
0.0
  0
LINE
  5
8E
330
2
100
AcDbEntity
  8
0
100
AcDbLine
 10
42.89138094738466
 20
41.79308823968224
 30
0.0
 11
42.41227297866705
 21
42.03264222402279
 31
0.0
  0
LINE
  5
8F
330
2
100
AcDbEntity
  8
0
100
AcDbLine
 10
49.72717180171821
 20
28.43605443498577
 30
0.0
 11
49.72717180171821
 21
36.97573263907448
 31
0.0
  0
SPLINE
  5
90
330
2
100
AcDbEntity
  8
0
100
AcDbSpline
210
0.0
220
0.0
230
1.0
 70
     8
 71
     3
 72
    10
 73
     6
 74
     0
 42
0.000000001
 43
0.0000000001
 40
0.0
 40
0.0
 40
0.0
 40
0.0
 40
0.2688389113376225
 40
0.733478683075738
 40
1.0
 40
1.0
 40
1.0
 40
1.0
 10
31.07660405459331
 20
47.60218806954081
 30
0.0
 10
31.07344812893336
 20
47.62332678073578
 30
0.0
 10
31.06483775261009
 20
47.68099995747956
 30
0.0
 10
31.03872515784806
 20
47.76051605475365
 30
0.0
 10
31.01286803207719
 20
47.81582105762881
 30
0.0
 10
31.00344264645533
 20
47.83598072206849
 30
0.0
  0
SPLINE
  5
91
330
2
100
AcDbEntity
  8
0
100
AcDbSpline
210
0.0
220
0.0
230
1.0
 70
     8
 71
     3
 72
    10
 73
     6
 74
     0
 42
0.000000001
 43
0.0000000001
 40
0.0
 40
0.0
 40
0.0
 40
0.0
 40
0.1389593516793772
 40
0.5536386419536661
 40
1.0
 40
1.0
 40
1.0
 40
1.0
 10
28.21989259148078
 20
36.64935570983103
 30
0.0
 10
28.23335905488141
 20
36.64333541873597
 30
0.0
 10
28.2870118275731
 20
36.61934951389562
 30
0.0
 10
28.3914939211242
 20
36.59496623927331
 30
0.0
 10
28.48274106200546
 20
36.58998096837847
 30
0.0
 10
28.53004335580658
 20
36.58739661618653
 30
0.0
  0
SPLINE
  5
92
330
2
100
AcDbEntity
  8
0
100
AcDbSpline
210
0.0
220
0.0
230
1.0
 70
     8
 71
     3
 72
    10
 73
     6
 74
     0
 42
0.000000001
 43
0.0000000001
 40
0.0
 40
0.0
 40
0.0
 40
0.0
 40
0.6701676622269247
 40
0.9692557451728724
 40
1.0
 40
1.0
 40
1.0
 40
1.0
 10
28.53004335580658
 20
36.58739661618653
 30
0.0
 10
28.59888918118551
 20
36.59306009269702
 30
0.0
 10
28.6984601028231
 20
36.60125111332487
 30
0.0
 10
28.79902719161206
 20
36.62833034722285
 30
0.0
 10
28.82950330560453
 20
36.64337774709177
 30
0.0
 10
28.83234403802347
 20
36.64478034181364
 30
0.0
  0
SPLINE
  5
93
330
2
100
AcDbEntity
  8
0
100
AcDbSpline
210
0.0
220
0.0
230
1.0
 70
     8
 71
     3
 72
    10
 73
     6
 74
     0
 42
0.000000001
 43
0.0000000001
 40
0.0830622031801519
 40
0.0830622031801519
 40
0.0830622031801519
 40
0.0830622031801519
 40
0.1157955670171304
 40
0.5416305928569141
 40
1.0
 40
1.0
 40
1.0
 40
1.0
 10
2.408724642721833
 20
23.71456717688793
 30
0.0
 10
2.411843309375618
 20
23.71326021695685
 30
0.0
 10
2.455680664718456
 20
23.69531921541286
 30
0.0
 10
2.549089274415724
 20
23.67383420494195
 30
0.0
 10
2.640313284884959
 20
23.66879107726017
 30
0.0
 10
2.687603587937325
 20
23.66617673225188
 30
0.0
  0
SPLINE
  5
94
330
2
100
AcDbEntity
  8
0
100
AcDbSpline
210
0.0
220
0.0
230
1.0
 70
     8
 71
     3
 72
    10
 73
     6
 74
     0
 42
0.000000001
 43
0.0000000001
 40
0.0
 40
0.0
 40
0.0
 40
0.0
 40
0.67319131605877
 40
0.9736288207674055
 40
1.0
 40
1.0
 40
1.0
 40
1.0
 10
2.687603587937325
 20
23.66617673225188
 30
0.0
 10
2.756440774636556
 20
23.67185978907964
 30
0.0
 10
2.855999202251581
 20
23.68007912849405
 30
0.0
 10
2.956157437466854
 20
23.70693962179293
 30
0.0
 10
2.986229144362444
 20
23.72175795289784
 30
0.0
 10
2.988655721168185
 20
23.72295368876624
 30
0.0
  0
SPLINE
  5
95
330
2
100
AcDbEntity
  8
0
100
AcDbSpline
210
0.0
220
0.0
230
1.0
 70
     8
 71
     3
 72
    10
 73
     6
 74
     0
 42
0.000000001
 43
0.0000000001
 40
0.0
 40
0.0
 40
0.0
 40
0.0
 40
0.1347533962089646
 40
0.5514611410490009
 40
1.0
 40
1.0
 40
1.0
 40
1.0
 10
47.00546733149622
 20
27.25667080326438
 30
0.0
 10
47.0184649072418
 20
27.25086657686346
 30
0.0
 10
47.07165583343116
 20
27.22711351828379
 30
0.0
 10
47.1756526877124
 20
27.20290516794273
 30
0.0
 10
47.26689577486063
 20
27.19790995217449
 30
0.0
 10
47.31419566603308
 20
27.19532046107325
 30
0.0
  0
SPLINE
  5
96
330
2
100
AcDbEntity
  8
0
100
AcDbSpline
210
0.0
220
0.0
230
1.0
 70
     8
 71
     3
 72
    10
 73
     6
 74
     0
 42
0.000000001
 43
0.0000000001
 40
0.0
 40
0.0
 40
0.0
 40
0.0
 40
0.6657228307144917
 40
0.9628272367225607
 40
1.0
 40
1.0
 40
1.0
 40
1.0
 10
47.31419566603308
 20
27.19532046107325
 30
0.0
 10
47.38305369487989
 20
27.20095623945849
 30
0.0
 10
47.48264226625233
 20
27.20910720060787
 30
0.0
 10
47.58381960605022
 20
27.23650615155996
 30
0.0
 10
47.61435281817308
 20
27.24870302832071
 30
0.0
 10
47.62151429376198
 20
27.25377716842632
 30
0.0
  0
SPLINE
  5
97
330
2
100
AcDbEntity
  8
0
100
AcDbSpline
210
0.0
220
0.0
230
1.0
 70
     8
 71
     3
 72
    14
 73
    10
 74
     0
 42
0.000000001
 43
0.0000000001
 40
0.0
 40
0.0
 40
0.0
 40
0.0
 40
0.1578411540741462
 40
0.337341907915834
 40
0.512242909803784
 40
0.6463790644947353
 40
0.7666682177913514
 40
0.9149463848133605
 40
1.0
 40
1.0
 40
1.0
 40
1.0
 10
49.51688035849088
 20
37.95134985504262
 30
0.0
 10
49.54409090355358
 20
37.97150856096508
 30
0.0
 10
49.60224593441819
 20
38.01459223174084
 30
0.0
 10
49.6507351443432
 20
38.11836977850362
 30
0.0
 10
49.67126541747383
 20
38.22786328985336
 30
0.0
 10
49.66858144335227
 20
38.3316744853067
 30
0.0
 10
49.65132861928617
 20
38.43131412272724
 30
0.0
 10
49.62383060832168
 20
38.51926197554534
 30
0.0
 10
49.59784231622207
 20
38.57458190600179
 30
0.0
 10
49.58836911812325
 20
38.59474701181232
 30
0.0
  0
SPLINE
  5
98
330
2
100
AcDbEntity
  8
0
100
AcDbSpline
210
0.0
220
0.0
230
1.0
 70
     8
 71
     3
 72
    14
 73
    10
 74
     0
 42
0.000000001
 43
0.0000000001
 40
0.0
 40
0.0
 40
0.0
 40
0.0
 40
0.1318508187033087
 40
0.2274660651250228
 40
0.3841284028542973
 40
0.5425902308379587
 40
0.7109282978616559
 40
0.8863648271356343
 40
1.0
 40
1.0
 40
1.0
 40
1.0
 10
49.58836911812325
 20
38.59474701181232
 30
0.0
 10
49.52865178348393
 20
38.68987656392448
 30
0.0
 10
49.50138058000438
 20
38.73626508343787
 30
0.0
 10
49.4419859056541
 20
38.80033390866275
 30
0.0
 10
49.37421449510001
 20
38.86026857371423
 30
0.0
 10
49.28695429689088
 20
38.91244597730409
 30
0.0
 10
49.19176490184989
 20
38.94299366144873
 30
0.0
 10
49.10096142704791
 20
38.95035087734099
 30
0.0
 10
49.04918942606514
 20
38.93012635248978
 30
0.0
 10
49.02883765784395
 20
38.92217601573745
 30
0.0
  0
SPLINE
  5
99
330
2
100
AcDbEntity
  8
0
100
AcDbSpline
210
0.0
220
0.0
230
1.0
 70
     8
 71
     3
 72
    14
 73
    10
 74
     0
 42
0.000000001
 43
0.0000000001
 40
0.0
 40
0.0
 40
0.0
 40
0.0
 40
0.1559262429789133
 40
0.3358353217608436
 40
0.511133689158601
 40
0.6455747062586501
 40
0.7661373700731186
 40
0.9147538795311795
 40
1.0
 40
1.0
 40
1.0
 40
1.0
 10
49.33012983140296
 20
29.91092154412909
 30
0.0
 10
49.356935468932
 20
29.93080350212539
 30
0.0
 10
49.41466968821794
 20
29.97362543917314
 30
0.0
 10
49.46287774789023
 20
30.07700593022152
 30
0.0
 10
49.4834293177073
 20
30.18648446118407
 30
0.0
 10
49.48073742519149
 20
30.29029690478652
 30
0.0
 10
49.46348914003287
 20
30.38993772310227
 30
0.0
 10
49.43599037743927
 20
30.47788543979798
 30
0.0
 10
49.41000183404142
 20
30.5332053142828
 30
0.0
 10
49.40052865526981
 20
30.5533701635626
 30
0.0
  0
SPLINE
  5
9A
330
2
100
AcDbEntity
  8
0
100
AcDbSpline
210
0.0
220
0.0
230
1.0
 70
     8
 71
     3
 72
    13
 73
     9
 74
     0
 42
0.000000001
 43
0.0000000001
 40
0.0
 40
0.0
 40
0.0
 40
0.0
 40
0.0990580354264364
 40
0.2843472339706086
 40
0.4717640211465606
 40
0.6708628693648083
 40
0.8783566377429028
 40
1.0
 40
1.0
 40
1.0
 40
1.0
 10
49.40052865526981
 20
30.5533701635626
 30
0.0
 10
49.28869239218514
 20
30.71993786584358
 30
0.0
 10
49.25288810438456
 20
30.76147908808351
 30
0.0
 10
49.18613681647073
 20
30.81861837036221
 30
0.0
 10
49.09917721745575
 20
30.87117083096984
 30
0.0
 10
49.00392479480062
 20
30.90149397193189
 30
0.0
 10
48.91519088575392
 20
30.90912384461023
 30
0.0
 10
48.8653083776489
 20
30.88982858470787
 30
0.0
 10
48.84687266973596
 20
30.88269739204779
 30
0.0
  0
SPLINE
  5
9B
330
2
100
AcDbEntity
  8
0
100
AcDbSpline
210
0.0
220
0.0
230
1.0
 70
     8
 71
     3
 72
    10
 73
     6
 74
     0
 42
0.000000001
 43
0.0000000001
 40
0.0
 40
0.0
 40
0.0
 40
0.0
 40
0.2000500185565074
 40
0.6164902283437601
 40
1.0
 40
1.0
 40
1.0
 40
1.0
 10
29.0688431351665
 20
38.50949482618775
 30
0.0
 10
29.04403235339985
 20
38.51093632042789
 30
0.0
 10
28.96757345263547
 20
38.51537854502583
 30
0.0
 10
28.84366025056658
 20
38.49506469731999
 30
0.0
 10
28.7632626149905
 20
38.46225282275379
 30
0.0
 10
28.72471860651906
 20
38.44652224607478
 30
0.0
  0
SPLINE
  5
9C
330
2
100
AcDbEntity
  8
0
100
AcDbSpline
210
0.0
220
0.0
230
1.0
 70
     8
 71
     3
 72
    10
 73
     6
 74
     0
 42
0.000000001
 43
0.0000000001
 40
0.0
 40
0.0
 40
0.0
 40
0.0
 40
0.2587487109460882
 40
0.7482458352475688
 40
1.0
 40
1.0
 40
1.0
 40
1.0
 10
29.35995776845254
 20
38.44652182197527
 30
0.0
 10
29.33832660407927
 20
38.45609164036442
 30
0.0
 10
29.27577391118026
 20
38.48376550481601
 30
0.0
 10
29.17503004523677
 20
38.50858357842539
 30
0.0
 10
29.09576443428921
 20
38.50926379984401
 30
0.0
 10
29.0688431351665
 20
38.50949482618775
 30
0.0
  0
LINE
  5
9D
330
2
100
AcDbEntity
  8
0
100
AcDbLine
 10
29.698507084828
 20
38.27724716379562
 30
0.0
 11
29.35995776846191
 21
38.44652182196258
 31
0.0
  0
LINE
  5
9E
330
2
100
AcDbEntity
  8
0
100
AcDbLine
 10
28.72471860653483
 20
38.44652224606564
 30
0.0
 11
22.64089818638749
 21
35.40461203602411
 31
0.0
  0
LINE
  5
9F
330
2
100
AcDbEntity
  8
0
100
AcDbLine
 10
29.77255146814164
 20
37.96879298090546
 30
0.0
 11
29.76654112975996
 21
38.17965680083456
 31
0.0
  0
SPLINE
  5
A0
330
2
100
AcDbEntity
  8
0
100
AcDbSpline
210
0.0
220
0.0
230
1.0
 70
     8
 71
     3
 72
    11
 73
     7
 74
     0
 42
0.000000001
 43
0.0000000001
 40
0.0
 40
0.0
 40
0.0
 40
0.0
 40
0.3126160308006949
 40
0.6037412538840588
 40
0.9126801497286658
 40
1.0
 40
1.0
 40
1.0
 40
1.0
 10
29.76621542132853
 20
38.18223732300578
 30
0.0
 10
29.76413196316817
 20
38.195106730164
 30
0.0
 10
29.76010827430311
 20
38.21996083631639
 30
0.0
 10
29.73772245167428
 20
38.25081911907073
 30
0.0
 10
29.71589746182484
 20
38.26810063175353
 30
0.0
 10
29.7016472674612
 20
38.27559557330985
 30
0.0
 10
29.69850708481441
 20
38.27724716379433
 30
0.0
  0
LINE
  5
A1
330
2
100
AcDbEntity
  8
0
100
AcDbLine
 10
30.67217087785292
 20
37.27812001151268
 30
0.0
 11
29.56617936932906
 21
37.83111576577464
 31
0.0
  0
SPLINE
  5
A2
330
2
100
AcDbEntity
  8
0
100
AcDbSpline
210
0.0
220
0.0
230
1.0
 70
     8
 71
     3
 72
    21
 73
    17
 74
     0
 42
0.000000001
 43
0.0000000001
 40
0.0
 40
0.0
 40
0.0
 40
0.0
 40
0.0406865720533464
 40
0.1180914079917245
 40
0.195686389514043
 40
0.2734535553168222
 40
0.3513565078967213
 40
0.4293554337152682
 40
0.5074121742264479
 40
0.5854891094772256
 40
0.6635423734598218
 40
0.7415296274450253
 40
0.8194113426392455
 40
0.8971455863323706
 40
0.9746891550354309
 40
1.0
 40
1.0
 40
1.0
 40
1.0
 10
26.49769569082661
 20
33.94141963601827
 30
0.0
 10
26.5541459227461
 20
33.96593271944534
 30
0.0
 10
26.71799082371494
 20
34.03708112025732
 30
0.0
 10
27.01471300547826
 20
34.14124840248788
 30
0.0
 10
27.39333557097094
 20
34.24562241127816
 30
0.0
 10
27.79560942485494
 20
34.32794340571049
 30
0.0
 10
28.21533167072751
 20
34.3871037235519
 30
0.0
 10
28.64680660957207
 20
34.4220316729572
 30
0.0
 10
29.08394860952533
 20
34.43215754264119
 30
0.0
 10
29.52062996868719
 20
34.41728663624933
 30
0.0
 10
29.95070981717728
 20
34.37764831488501
 30
0.0
 10
30.36809194683722
 20
34.31386130449585
 30
0.0
 10
30.76702022783689
 20
34.2270237474228
 30
0.0
 10
31.14139560925843
 20
34.11839793296853
 30
0.0
 10
31.41027133666829
 20
34.01916654290994
 30
0.0
 10
31.55208272064059
 20
33.95677339192336
 30
0.0
 10
31.58698026004549
 20
33.94141942396848
 30
0.0
  0
SPLINE
  5
A3
330
2
100
AcDbEntity
  8
0
100
AcDbSpline
210
0.0
220
0.0
230
1.0
 70
     8
 71
     3
 72
    11
 73
     7
 74
     0
 42
0.000000001
 43
0.0000000001
 40
0.0
 40
0.0
 40
0.0
 40
0.0
 40
0.2499739473132628
 40
0.5614849813166779
 40
0.8757846639281645
 40
1.0
 40
1.0
 40
1.0
 40
1.0
 10
31.41211851479251
 20
37.4204414488053
 30
0.0
 10
31.3977119910996
 20
37.42622899135156
 30
0.0
 10
31.36535243213964
 20
37.43922881894716
 30
0.0
 10
31.30651225773862
 20
37.4427466018926
 30
0.0
 10
31.25786313851754
 20
37.4345700597428
 30
0.0
 10
31.23326066211343
 20
37.42356015413373
 30
0.0
 10
31.22629167645837
 20
37.4204414488053
 30
0.0
  0
LINE
  5
A4
330
2
100
AcDbEntity
  8
0
100
AcDbLine
 10
34.81763893003853
 20
35.71768124117426
 30
0.0
 11
31.41211851479259
 21
37.42044144881332
 31
0.0
  0
LINE
  5
A5
330
2
100
AcDbEntity
  8
0
100
AcDbLine
 10
31.22629167647381
 20
37.42044144881332
 30
0.0
 11
30.94164880184045
 21
37.27812001151268
 31
0.0
  0
SPLINE
  5
A6
330
2
100
AcDbEntity
  8
0
100
AcDbSpline
210
0.0
220
0.0
230
1.0
 70
     8
 71
     3
 72
    11
 73
     7
 74
     0
 42
0.000000001
 43
0.0000000001
 40
0.0
 40
0.0
 40
0.0
 40
0.0
 40
0.1349018921697479
 40
0.5250124529464346
 40
0.8685783126632863
 40
1.0
 40
1.0
 40
1.0
 40
1.0
 10
30.81817307489007
 20
37.25254907808338
 30
0.0
 10
30.81072413471011
 20
37.25203265432354
 30
0.0
 10
30.78173427924664
 20
37.25002283147702
 30
0.0
 10
30.73360778292654
 20
37.25690869028148
 30
0.0
 10
30.69305447452526
 20
37.26832956484347
 30
0.0
 10
30.67669679427329
 20
37.27599821495128
 30
0.0
 10
30.67217087785097
 20
37.27812001149739
 30
0.0
  0
SPLINE
  5
A7
330
2
100
AcDbEntity
  8
0
100
AcDbSpline
210
0.0
220
0.0
230
1.0
 70
     8
 71
     3
 72
    10
 73
     6
 74
     0
 42
0.000000001
 43
0.0000000001
 40
0.0
 40
0.0
 40
0.0
 40
0.0
 40
0.3181891581889105
 40
0.7194916272485316
 40
1.0
 40
1.0
 40
1.0
 40
1.0
 10
30.94164880184246
 20
37.27812001149739
 30
0.0
 10
30.93158592169222
 20
37.2737799897326
 30
0.0
 10
30.90883166427083
 20
37.26396630110907
 30
0.0
 10
30.86453870097905
 20
37.25369044757991
 30
0.0
 10
30.83168828494617
 20
37.25288177818471
 30
0.0
 10
30.81817307489007
 20
37.25254907808338
 30
0.0
  0
ARC
  5
A8
330
2
100
AcDbEntity
  8
0
100
AcDbCircle
 10
26.35938806270982
 20
34.14706993753073
 30
0.0
 40
0.1931985679908979
100
AcDbArc
 50
190.7670085056001
 51
243.4349488228987
  0
ARC
  5
A9
330
2
100
AcDbEntity
  8
0
100
AcDbCircle
 10
31.72528804760489
 20
34.14706993753073
 30
0.0
 40
0.1931985679908979
100
AcDbArc
 50
296.5650511771013
 51
349.2329914943998
  0
LINE
  5
AA
330
2
100
AcDbEntity
  8
0
100
AcDbLine
 10
26.13282506186959
 20
34.30555797320949
 30
0.0
 11
26.16959024923156
 21
34.11097731450484
 31
0.0
  0
SPLINE
  5
AB
330
2
100
AcDbEntity
  8
0
100
AcDbSpline
210
0.0
220
0.0
230
1.0
 70
     8
 71
     3
 72
     9
 73
     5
 74
     0
 42
0.000000001
 43
0.0000000001
 40
0.0
 40
0.0
 40
0.0
 40
0.0
 40
0.550453997682895
 40
1.0
 40
1.0
 40
1.0
 40
1.0
 10
31.91508527753653
 20
34.11097731449145
 30
0.0
 10
31.92188882509813
 20
34.14674773897367
 30
0.0
 10
31.93424870910342
 20
34.21173123374863
 30
0.0
 10
31.94643641683495
 20
34.2766361785848
 30
0.0
 10
31.95191535212308
 20
34.30581393706653
 30
0.0
  0
LINE
  5
AC
330
2
100
AcDbEntity
  8
0
100
AcDbLine
 10
26.27298740854139
 20
33.97426784558047
 30
0.0
 11
26.33196608051938
 21
33.94477850955929
 31
0.0
  0
LINE
  5
AD
330
2
100
AcDbEntity
  8
0
100
AcDbLine
 10
31.75270987034211
 20
33.94477829752389
 30
0.0
 11
31.8116893905262
 21
33.97426805761593
 31
0.0
  0
ARC
  5
AE
330
2
100
AcDbEntity
  8
0
100
AcDbCircle
 10
26.41836734902704
 20
34.11758029435602
 30
0.0
 40
0.1931985679909185
100
AcDbArc
 50
243.4349488228029
 51
294.242971197797
  0
ARC
  5
AF
330
2
100
AcDbEntity
  8
0
100
AcDbCircle
 10
31.66630876128765
 20
34.11758029435602
 30
0.0
 40
0.1931985679915472
100
AcDbArc
 50
245.757028802203
 51
296.5650511771013
  0
SPLINE
  5
B0
330
2
100
AcDbEntity
  8
0
100
AcDbSpline
210
0.0
220
0.0
230
1.0
 70
     8
 71
     3
 72
    10
 73
     6
 74
     0
 42
0.000000001
 43
0.0000000001
 40
0.0
 40
0.0
 40
0.0
 40
0.0
 40
0.3345811029542693
 40
0.7811407540207461
 40
1.0
 40
1.0
 40
1.0
 40
1.0
 10
35.44410983439284
 20
37.37478649396381
 30
0.0
 10
35.4247323341677
 20
37.38272004140777
 30
0.0
 10
35.3794920172364
 20
37.40124235835186
 30
0.0
 10
35.31561852235583
 20
37.40486851142156
 30
0.0
 10
35.28036800004101
 20
37.38566686495186
 30
0.0
 10
35.26877394587683
 20
37.3793513577029
 30
0.0
  0
LINE
  5
B1
330
2
100
AcDbEntity
  8
0
100
AcDbLine
 10
35.26877394587683
 20
37.3793513577029
 30
0.0
 11
35.18752156709184
 21
37.34335235115401
 31
0.0
  0
LINE
  5
B2
330
2
100
AcDbEntity
  8
0
100
AcDbLine
 10
36.73448711977324
 20
36.72959785127525
 30
0.0
 11
35.44410983439806
 21
37.37478649396288
 31
0.0
  0
LINE
  5
B3
330
2
100
AcDbEntity
  8
0
100
AcDbLine
 10
37.09690200044656
 20
34.64477685955928
 30
0.0
 11
36.95154485877657
 21
36.38966725070281
 31
0.0
  0
SPLINE
  5
B4
330
2
100
AcDbEntity
  8
0
100
AcDbSpline
210
0.0
220
0.0
230
1.0
 70
     8
 71
     3
 72
    10
 73
     6
 74
     0
 42
0.000000001
 43
0.0000000001
 40
0.0
 40
0.0
 40
0.0
 40
0.0
 40
0.4158507492893003
 40
0.8768627796049386
 40
1.0
 40
1.0
 40
1.0
 40
1.0
 10
22.18133631309908
 20
37.07240807966852
 30
0.0
 10
22.15888207513422
 20
37.07887080383997
 30
0.0
 10
22.11153507491974
 20
37.09249810231308
 30
0.0
 10
22.05433297797414
 20
37.07815512129212
 30
0.0
 10
22.02325535796056
 20
37.06363914888992
 30
0.0
 10
22.01670427235988
 20
37.06057921773238
 30
0.0
  0
LINE
  5
B5
330
2
100
AcDbEntity
  8
0
100
AcDbLine
 10
22.2732921155436
 20
37.02914486286699
 30
0.0
 11
22.196033906058
 21
37.06777396764196
 31
0.0
  0
LINE
  5
B6
330
2
100
AcDbEntity
  8
0
100
AcDbLine
 10
22.01670427237262
 20
37.06057921774345
 30
0.0
 11
20.72632677492981
 21
36.41539046902208
 31
0.0
  0
LINE
  5
B7
330
2
100
AcDbEntity
  8
0
100
AcDbLine
 10
41.64823965444308
 20
32.30238087897197
 30
0.0
 11
37.04851585011925
 21
34.60224278114996
 31
0.0
  0
LINE
  5
B8
330
2
100
AcDbEntity
  8
0
100
AcDbLine
 10
20.50926924796193
 20
36.0754599744834
 30
0.0
 11
20.36391295449803
 21
34.33056915923685
 31
0.0
  0
SPLINE
  5
B9
330
2
100
AcDbEntity
  8
0
100
AcDbSpline
210
0.0
220
0.0
230
1.0
 70
     8
 71
     3
 72
     9
 73
     5
 74
     0
 42
0.000000001
 43
0.0000000001
 40
0.0
 40
0.0
 40
0.0
 40
0.0
 40
0.4260291908534084
 40
1.0
 40
1.0
 40
1.0
 40
1.0
 10
36.87640184564093
 20
36.59236745207469
 30
0.0
 10
36.85973054422721
 20
36.61762089170109
 30
0.0
 10
36.82059871530178
 20
36.67689720461239
 30
0.0
 10
36.7658889360422
 20
36.71037981201236
 30
0.0
 10
36.73448711977238
 20
36.72959785127409
 30
0.0
  0
SPLINE
  5
BA
330
2
100
AcDbEntity
  8
0
100
AcDbSpline
210
0.0
220
0.0
230
1.0
 70
     8
 71
     3
 72
    10
 73
     6
 74
     0
 42
0.000000001
 43
0.0000000001
 40
0.0
 40
0.0
 40
0.0
 40
0.0
 40
0.3090621743902315
 40
0.8527649032141923
 40
1.0
 40
1.0
 40
1.0
 40
1.0
 10
36.95154485878458
 20
36.38966725071246
 30
0.0
 10
36.94847581578816
 20
36.41106107806388
 30
0.0
 10
36.94000770687458
 20
36.47009096467711
 30
0.0
 10
36.91422589458342
 20
36.54400354133393
 30
0.0
 10
36.883046092142
 20
36.58387175281194
 30
0.0
 10
36.87640184564093
 20
36.59236745207469
 30
0.0
  0
LINE
  5
BB
330
2
100
AcDbEntity
  8
0
100
AcDbLine
 10
20.41002166173588
 20
34.28917377368225
 30
0.0
 11
15.81029767401832
 21
31.98931177982347
 31
0.0
  0
SPLINE
  5
BC
330
2
100
AcDbEntity
  8
0
100
AcDbSpline
210
0.0
220
0.0
230
1.0
 70
     8
 71
     3
 72
     9
 73
     5
 74
     0
 42
0.000000001
 43
0.0000000001
 40
0.0
 40
0.0
 40
0.0
 40
0.0
 40
0.3115063257518588
 40
1.0
 40
1.0
 40
1.0
 40
1.0
 10
20.56100133147685
 20
36.2362650735988
 30
0.0
 10
20.55177375440354
 20
36.22047447294811
 30
0.0
 10
20.52215131559427
 20
36.16978336543186
 30
0.0
 10
20.51452199022425
 20
36.11392091691374
 30
0.0
 10
20.50926924796816
 20
36.07545997448099
 30
0.0
  0
SPLINE
  5
BD
330
2
100
AcDbEntity
  8
0
100
AcDbSpline
210
0.0
220
0.0
230
1.0
 70
     8
 71
     3
 72
    10
 73
     6
 74
     0
 42
0.000000001
 43
0.0000000001
 40
0.0
 40
0.0
 40
0.0
 40
0.0
 40
0.271993701092575
 40
0.7363489820283334
 40
1.0
 40
1.0
 40
1.0
 40
1.0
 10
20.72632677493062
 20
36.41539046901772
 30
0.0
 10
20.7083031668514
 20
36.40473439966728
 30
0.0
 10
20.65950914916514
 20
36.37588598962275
 30
0.0
 10
20.59872176671937
 20
36.31402992860993
 30
0.0
 10
20.57103002887135
 20
36.25694034401442
 30
0.0
 10
20.56100133147685
 20
36.2362650735988
 30
0.0
  0
SPLINE
  5
BE
330
2
100
AcDbEntity
  8
0
100
AcDbSpline
210
0.0
220
0.0
230
1.0
 70
     8
 71
     3
 72
    10
 73
     6
 74
     0
 42
0.000000001
 43
0.0000000001
 40
0.0
 40
0.0
 40
0.0
 40
0.0
 40
0.3345811029542693
 40
0.7811407540207461
 40
1.0
 40
1.0
 40
1.0
 40
1.0
 10
42.27471077086145
 20
33.95948602572952
 30
0.0
 10
42.25533327063634
 20
33.96741957317345
 30
0.0
 10
42.21009295370499
 20
33.98594189011754
 30
0.0
 10
42.1462194588244
 20
33.98956804318727
 30
0.0
 10
42.11096893650959
 20
33.97036639671758
 30
0.0
 10
42.09937488234545
 20
33.96405088946854
 30
0.0
  0
LINE
  5
BF
330
2
100
AcDbEntity
  8
0
100
AcDbLine
 10
42.09538156125574
 20
33.96668141176379
 30
0.0
 11
42.01812250356399
 21
33.92805188291788
 31
0.0
  0
LINE
  5
C0
330
2
100
AcDbEntity
  8
0
100
AcDbLine
 10
43.56508805624543
 20
33.31429738303916
 30
0.0
 11
42.27471077087025
 21
33.95948602572679
 31
0.0
  0
LINE
  5
C1
330
2
100
AcDbEntity
  8
0
100
AcDbLine
 10
43.92750272488332
 20
31.22947649735702
 30
0.0
 11
43.7821455832133
 21
32.97436688850049
 31
0.0
  0
SPLINE
  5
C2
330
2
100
AcDbEntity
  8
0
100
AcDbSpline
210
0.0
220
0.0
230
1.0
 70
     8
 71
     3
 72
    10
 73
     6
 74
     0
 42
0.000000001
 43
0.0000000001
 40
0.0
 40
0.0
 40
0.0
 40
0.0
 40
0.4158522061823073
 40
0.876863375736881
 40
1.0
 40
1.0
 40
1.0
 40
1.0
 10
15.35073564169256
 20
33.6571077439653
 30
0.0
 10
15.32828128057228
 20
33.66357039886429
 30
0.0
 10
15.28093415435951
 20
33.67719751279243
 30
0.0
 10
15.2237319624984
 20
33.66285461276053
 30
0.0
 10
15.19265435125441
 20
33.64833864581664
 30
0.0
 10
15.1861032828788
 20
33.64527872299185
 30
0.0
  0
LINE
  5
C3
330
2
100
AcDbEntity
  8
0
100
AcDbLine
 10
15.44269155017367
 20
33.61384458019808
 30
0.0
 11
15.36543334065584
 21
33.65247368494093
 31
0.0
  0
LINE
  5
C4
330
2
100
AcDbEntity
  8
0
100
AcDbLine
 10
15.18610328286741
 20
33.64527872300698
 30
0.0
 11
13.89572589145841
 21
33.00009002728638
 31
0.0
  0
LINE
  5
C5
330
2
100
AcDbEntity
  8
0
100
AcDbLine
 10
47.00269541703097
 20
29.62515299767801
 30
0.0
 11
43.87911660318314
 21
31.18694240460195
 31
0.0
  0
LINE
  5
C6
330
2
100
AcDbEntity
  8
0
100
AcDbLine
 10
13.67866825848895
 20
32.6601594797469
 30
0.0
 11
13.53331191199202
 21
30.91526863799994
 31
0.0
  0
SPLINE
  5
C7
330
2
100
AcDbEntity
  8
0
100
AcDbSpline
210
0.0
220
0.0
230
1.0
 70
     8
 71
     3
 72
     9
 73
     5
 74
     0
 42
0.000000001
 43
0.0000000001
 40
0.0
 40
0.0
 40
0.0
 40
0.0
 40
0.426030423157879
 40
1.0
 40
1.0
 40
1.0
 40
1.0
 10
43.70700278210951
 20
33.17706698384033
 30
0.0
 10
43.69033141016418
 20
33.20232045886854
 30
0.0
 10
43.65119952887329
 20
33.26159668341843
 30
0.0
 10
43.59648978486081
 20
33.29507935068003
 30
0.0
 10
43.56508805624095
 20
33.31429738303977
 30
0.0
  0
SPLINE
  5
C8
330
2
100
AcDbEntity
  8
0
100
AcDbSpline
210
0.0
220
0.0
230
1.0
 70
     8
 71
     3
 72
    10
 73
     6
 74
     0
 42
0.000000001
 43
0.0000000001
 40
0.0
 40
0.0
 40
0.0
 40
0.0
 40
0.3090619368264589
 40
0.8527648525906432
 40
1.0
 40
1.0
 40
1.0
 40
1.0
 10
43.78214558320345
 20
32.97436688850303
 30
0.0
 10
43.77907662364804
 20
32.99576067847072
 30
0.0
 10
43.77060873895866
 20
33.0547905038045
 30
0.0
 10
43.7448268238975
 20
33.12870307433572
 30
0.0
 10
43.71364702735376
 20
33.16857128479474
 30
0.0
 10
43.70700278210951
 20
33.17706698384033
 30
0.0
  0
LINE
  5
C9
330
2
100
AcDbEntity
  8
0
100
AcDbLine
 10
13.5794206192635
 20
30.87387325242997
 30
0.0
 11
8.979696737578324
 21
28.57401131158737
 31
0.0
  0
SPLINE
  5
CA
330
2
100
AcDbEntity
  8
0
100
AcDbSpline
210
0.0
220
0.0
230
1.0
 70
     8
 71
     3
 72
     9
 73
     5
 74
     0
 42
0.000000001
 43
0.0000000001
 40
0.0
 40
0.0
 40
0.0
 40
0.0
 40
0.3115061929805552
 40
1.0
 40
1.0
 40
1.0
 40
1.0
 10
13.73040050103312
 20
32.82096465837693
 30
0.0
 10
13.72117292761801
 20
32.80517405788058
 30
0.0
 10
13.69155048792662
 20
32.75448292925418
 30
0.0
 10
13.68392106732348
 20
32.69862045044518
 30
0.0
 10
13.67866825848712
 20
32.6601594797405
 30
0.0
  0
SPLINE
  5
CB
330
2
100
AcDbEntity
  8
0
100
AcDbSpline
210
0.0
220
0.0
230
1.0
 70
     8
 71
     3
 72
    10
 73
     6
 74
     0
 42
0.000000001
 43
0.0000000001
 40
0.0
 40
0.0
 40
0.0
 40
0.0
 40
0.2719946104194167
 40
0.7363487306523359
 40
1.0
 40
1.0
 40
1.0
 40
1.0
 10
13.89572589147445
 20
33.00009002728959
 30
0.0
 10
13.8777022261583
 20
32.98943394408013
 30
0.0
 10
13.82890823330388
 20
32.96058560280993
 30
0.0
 10
13.76812094960531
 20
32.8987294035592
 30
0.0
 10
13.74042921818726
 20
32.84163993302281
 30
0.0
 10
13.73040050103312
 20
32.82096465837693
 30
0.0
  0
LINE
  5
CC
330
2
100
AcDbEntity
  8
0
100
AcDbLine
 10
45.07846853178537
 20
26.69284832863997
 30
0.0
 11
45.12124236114899
 21
27.75337860881453
 31
0.0
  0
SPLINE
  5
CD
330
2
100
AcDbEntity
  8
0
100
AcDbSpline
210
0.0
220
0.0
230
1.0
 70
     8
 71
     3
 72
    14
 73
    10
 74
     0
 42
0.000000001
 43
0.0000000001
 40
0.0
 40
0.0
 40
0.0
 40
0.0
 40
0.0821065063943706
 40
0.2386787838020727
 40
0.3955172161042786
 40
0.5518346604172903
 40
0.7065141407757915
 40
0.8583081237955799
 40
1.0
 40
1.0
 40
1.0
 40
1.0
 10
43.94809742164773
 20
25.2305235280927
 30
0.0
 10
44.00289384841671
 20
25.2619899066242
 30
0.0
 10
44.1621838373869
 20
25.35346081786327
 30
0.0
 10
44.39669149037942
 20
25.51958296603753
 30
0.0
 10
44.6344086573355
 20
25.73337073173392
 30
0.0
 10
44.82546318587909
 20
25.96277088089242
 30
0.0
 10
44.96515059880506
 20
26.20415509485577
 30
0.0
 10
45.05492241184635
 20
26.4492872709083
 30
0.0
 10
45.07007268567353
 20
26.61456473722241
 30
0.0
 10
45.07738707802378
 20
26.69435895408267
 30
0.0
  0
ARC
  5
CE
330
2
100
AcDbEntity
  8
0
100
AcDbCircle
 10
43.79550009677216
 20
28.05298462662984
 30
0.0
 40
0.1931985679909259
100
AcDbArc
 50
195.6202624266994
 51
240.9626613517021
  0
SPLINE
  5
CF
330
2
100
AcDbEntity
  8
0
100
AcDbSpline
210
0.0
220
0.0
230
1.0
 70
     8
 71
     3
 72
    13
 73
     9
 74
     0
 42
0.000000001
 43
0.0000000001
 40
0.0
 40
0.0
 40
0.0
 40
0.0
 40
0.0969559005103781
 40
0.2806502125117299
 40
0.4640738636450653
 40
0.6476320563864306
 40
0.8325074637376021
 40
1.0
 40
1.0
 40
1.0
 40
1.0
 10
43.70172528768679
 20
27.88407041550239
 30
0.0
 10
43.75008039954765
 20
27.85623111761027
 30
0.0
 10
43.89004993568047
 20
27.77564700845879
 30
0.0
 10
44.09095064361174
 20
27.63237496784335
 30
0.0
 10
44.28780636672353
 20
27.45389921538015
 30
0.0
 10
44.43744286890992
 20
27.26970775709213
 30
0.0
 10
44.54138227795228
 20
27.0896769901926
 30
0.0
 10
44.57277452015851
 20
26.97298376014247
 30
0.0
 10
44.5876963266434
 20
26.91751547643503
 30
0.0
  0
LINE
  5
D0
330
2
100
AcDbEntity
  8
0
100
AcDbLine
 10
47.07673980037684
 20
29.31669881482005
 30
0.0
 11
47.07072946199513
 21
29.52756263474915
 31
0.0
  0
SPLINE
  5
D1
330
2
100
AcDbEntity
  8
0
100
AcDbSpline
210
0.0
220
0.0
230
1.0
 70
     8
 71
     3
 72
    11
 73
     7
 74
     0
 42
0.000000001
 43
0.0000000001
 40
0.0
 40
0.0
 40
0.0
 40
0.0
 40
0.3126091866227516
 40
0.6037418424323118
 40
0.912671503402384
 40
1.0
 40
1.0
 40
1.0
 40
1.0
 10
47.07040375354975
 20
29.53014315689514
 30
0.0
 10
47.06832063220131
 20
29.54301249090741
 30
0.0
 10
47.06429750180491
 20
29.56786702417109
 30
0.0
 10
47.04191109687237
 20
29.59872416911281
 30
0.0
 10
47.0200859508704
 20
29.61600653115681
 30
0.0
 10
47.00583588661169
 20
29.62350128301351
 30
0.0
 10
47.00269541703568
 20
29.62515299768368
 30
0.0
  0
LINE
  5
D2
330
2
100
AcDbEntity
  8
0
100
AcDbLine
 10
47.97636005826203
 20
28.62602542129206
 30
0.0
 11
46.87036873309776
 21
29.17902108387418
 31
0.0
  0
SPLINE
  5
D3
330
2
100
AcDbEntity
  8
0
100
AcDbSpline
210
0.0
220
0.0
230
1.0
 70
     8
 71
     3
 72
    11
 73
     7
 74
     0
 42
0.000000001
 43
0.0000000001
 40
0.0
 40
0.0
 40
0.0
 40
0.0
 40
0.2499688203012929
 40
0.5614853341507155
 40
0.8757826669259936
 40
1.0
 40
1.0
 40
1.0
 40
1.0
 10
48.71630684701372
 20
28.76834728269464
 30
0.0
 10
48.70190058692354
 20
28.77413459531755
 30
0.0
 10
48.66954093602473
 20
28.7871341812578
 30
0.0
 10
48.61070088728148
 20
28.79065295928029
 30
0.0
 10
48.56205248180224
 20
28.78247488920349
 30
0.0
 10
48.53744930919456
 20
28.77146580733266
 30
0.0
 10
48.53048000867961
 20
28.76834728269464
 30
0.0
  0
LINE
  5
D4
330
2
100
AcDbEntity
  8
0
100
AcDbLine
 10
49.0548561633617
 20
28.59907262452875
 30
0.0
 11
48.71630684702779
 21
28.76834728269572
 31
0.0
  0
LINE
  5
D5
330
2
100
AcDbEntity
  8
0
100
AcDbLine
 10
48.53048000867683
 20
28.76834728269572
 30
0.0
 11
48.24583713407561
 21
28.62602584539509
 31
0.0
  0
SPLINE
  5
D6
330
2
100
AcDbEntity
  8
0
100
AcDbSpline
210
0.0
220
0.0
230
1.0
 70
     8
 71
     3
 72
    11
 73
     7
 74
     0
 42
0.000000001
 43
0.0000000001
 40
0.0
 40
0.0
 40
0.0
 40
0.0
 40
0.1349018980114444
 40
0.5250124756812041
 40
0.8685854258913845
 40
1.0
 40
1.0
 40
1.0
 40
1.0
 10
48.12236225531037
 20
28.60045448787321
 30
0.0
 10
48.11491331490103
 20
28.59993806540472
 30
0.0
 10
48.08592345854497
 20
28.59792824758408
 30
0.0
 10
48.03779658594147
 20
28.60481407371778
 30
0.0
 10
47.99724330185588
 20
28.61623526699096
 30
0.0
 10
47.9808857064654
 20
28.62390377797387
 30
0.0
 10
47.97636005827127
 20
28.62602542128719
 30
0.0
  0
SPLINE
  5
D7
330
2
100
AcDbEntity
  8
0
100
AcDbSpline
210
0.0
220
0.0
230
1.0
 70
     8
 71
     3
 72
    10
 73
     6
 74
     0
 42
0.000000001
 43
0.0000000001
 40
0.0
 40
0.0
 40
0.0
 40
0.0
 40
0.3181900306118763
 40
0.7194960799213109
 40
1.0
 40
1.0
 40
1.0
 40
1.0
 10
48.2458371340638
 20
28.6260258453867
 30
0.0
 10
48.23577464869917
 20
28.62168559717454
 30
0.0
 10
48.21302120554397
 20
28.61187136267906
 30
0.0
 10
48.16872717185205
 20
28.60159665112549
 30
0.0
 10
48.13587711879353
 20
28.60078741590546
 30
0.0
 10
48.12236225531037
 20
28.60045448787321
 30
0.0
  0
LINE
  5
D8
330
2
100
AcDbEntity
  8
0
100
AcDbLine
 10
49.22020917331234
 20
28.17955186663591
 30
0.0
 11
49.21131665456975
 21
28.39340925075289
 31
0.0
  0
SPLINE
  5
D9
330
2
100
AcDbEntity
  8
0
100
AcDbSpline
210
0.0
220
0.0
230
1.0
 70
     8
 71
     3
 72
    10
 73
     6
 74
     0
 42
0.000000001
 43
0.0000000001
 40
0.0
 40
0.0
 40
0.0
 40
0.0
 40
0.2948538363718562
 40
0.6521804077349933
 40
1.0
 40
1.0
 40
1.0
 40
1.0
 10
49.21131665456975
 20
28.39340925075289
 30
0.0
 10
49.20867233202626
 20
28.41916728066502
 30
0.0
 10
49.20282341591303
 20
28.47614087360609
 30
0.0
 10
49.14343412677179
 20
28.54664546154751
 30
0.0
 10
49.08411556800455
 20
28.58175468768198
 30
0.0
 10
49.05485616337561
 20
28.59907262451368
 30
0.0
  0
SPLINE
  5
DA
330
2
100
AcDbEntity
  8
0
100
AcDbSpline
210
0.0
220
0.0
230
1.0
 70
     8
 71
     3
 72
    10
 73
     6
 74
     0
 42
0.000000001
 43
0.0000000001
 40
0.0
 40
0.0
 40
0.0
 40
0.0
 40
0.4158522402596115
 40
0.8768630938978006
 40
1.0
 40
1.0
 40
1.0
 40
1.0
 10
8.520134864261295
 20
30.2418073552497
 30
0.0
 10
8.497680486236243
 20
30.24827000046832
 30
0.0
 10
8.450333343476428
 20
30.26189708848798
 30
0.0
 10
8.393131105291425
 20
30.24755419125941
 30
0.0
 10
8.362053485067612
 20
30.23303821354181
 30
0.0
 10
8.355502399422666
 20
30.22997828126373
 30
0.0
  0
LINE
  5
DB
330
2
100
AcDbEntity
  8
0
100
AcDbLine
 10
8.612090666702272
 20
30.19854413846241
 30
0.0
 11
8.534832457216655
 21
30.23717324320523
 31
0.0
  0
LINE
  5
DC
330
2
100
AcDbEntity
  8
0
100
AcDbLine
 10
8.355502399428235
 20
30.22997828127128
 30
0.0
 11
7.065124901985424
 21
29.58478953254987
 31
0.0
  0
LINE
  5
DD
330
2
100
AcDbEntity
  8
0
100
AcDbLine
 10
6.84806737501755
 20
29.24485903801121
 30
0.0
 11
6.702710657450595
 21
27.49996801072921
 31
0.0
  0
ARC
  5
DE
330
2
100
AcDbEntity
  8
0
100
AcDbCircle
 10
43.79550009677216
 20
25.42901392048344
 30
0.0
 40
0.1931985679908977
100
AcDbArc
 50
195.7295090276993
 51
243.4349488230002
  0
LINE
  5
DF
330
2
100
AcDbEntity
  8
0
100
AcDbLine
 10
43.70909953012269
 20
25.25621178477374
 30
0.0
 11
43.76807820213287
 21
25.22672244875256
 31
0.0
  0
ARC
  5
E0
330
2
100
AcDbEntity
  8
0
100
AcDbCircle
 10
43.85447938308939
 20
25.39952427734094
 30
0.0
 40
0.1931985679909104
100
AcDbArc
 50
243.4349488228987
 51
298.9842022872993
  0
LINE
  5
E1
330
2
100
AcDbEntity
  8
0
100
AcDbLine
 10
33.77622566281754
 20
20.46872860184253
 30
0.0
 11
43.60915057191074
 21
25.38519105638912
 31
0.0
  0
LINE
  5
E2
330
2
100
AcDbEntity
  8
0
100
AcDbLine
 10
6.748819788822332
 20
27.45857283722549
 30
0.0
 11
0.9469413941920389
 21
24.55763363992642
 31
0.0
  0
SPLINE
  5
E3
330
2
100
AcDbEntity
  8
0
100
AcDbSpline
210
0.0
220
0.0
230
1.0
 70
     8
 71
     3
 72
     9
 73
     5
 74
     0
 42
0.000000001
 43
0.0000000001
 40
0.0
 40
0.0
 40
0.0
 40
0.0
 40
0.3115059716938075
 40
1.0
 40
1.0
 40
1.0
 40
1.0
 10
6.899799882639063
 20
29.40566434917992
 30
0.0
 10
6.890572315321052
 20
29.38987374894089
 30
0.0
 10
6.860949874159311
 20
29.33918258513043
 30
0.0
 10
6.853320294834515
 20
29.28332005583702
 30
0.0
 10
6.848067375030984
 20
29.24485903801239
 30
0.0
  0
SPLINE
  5
E4
330
2
100
AcDbEntity
  8
0
100
AcDbSpline
210
0.0
220
0.0
230
1.0
 70
     8
 71
     3
 72
    10
 73
     6
 74
     0
 42
0.000000001
 43
0.0000000001
 40
0.0
 40
0.0
 40
0.0
 40
0.0
 40
0.2719941098886617
 40
0.7363500887325736
 40
1.0
 40
1.0
 40
1.0
 40
1.0
 10
7.065124901993403
 20
29.5847895325491
 30
0.0
 10
7.047101299881364
 20
29.57413345980832
 30
0.0
 10
6.998307298349799
 20
29.54528504058539
 30
0.0
 10
6.937519851023368
 20
29.48342916130974
 30
0.0
 10
6.909828429140482
 20
29.42633955300493
 30
0.0
 10
6.899799882639063
 20
29.40566434917992
 30
0.0
  0
LINE
  5
E5
330
2
100
AcDbEntity
  8
0
100
AcDbLine
 10
4.880556892816942
 20
23.71193962424439
 30
0.0
 11
4.923329025768364
 21
22.65140934403764
 31
0.0
  0
SPLINE
  5
E6
330
2
100
AcDbEntity
  8
0
100
AcDbSpline
210
0.0
220
0.0
230
1.0
 70
     8
 71
     3
 72
    14
 73
    10
 74
     0
 42
0.000000001
 43
0.0000000001
 40
0.0
 40
0.0
 40
0.0
 40
0.0
 40
0.092108347457243
 40
0.2386412830364049
 40
0.3864557998921617
 40
0.5370420679302386
 40
0.6905789019353814
 40
0.8462408747542575
 40
1.0
 40
1.0
 40
1.0
 40
1.0
 10
4.929687973971349
 20
22.64273677570174
 30
0.0
 10
4.931743484120585
 20
22.59110701861692
 30
0.0
 10
4.937069055502944
 20
22.4573407334353
 30
0.0
 10
5.002802504083078
 20
22.24503810381953
 30
0.0
 10
5.118542296873735
 20
22.01005800836117
 30
0.0
 10
5.284089450846198
 20
21.78407726510421
 30
0.0
 10
5.496856958077725
 20
21.56928004664977
 30
0.0
 10
5.750880654963952
 20
21.36795216466115
 30
0.0
 10
5.953175558868101
 20
21.24846185788608
 30
0.0
 10
6.053700984123627
 20
21.18908411939314
 30
0.0
  0
ARC
  5
E7
330
2
100
AcDbEntity
  8
0
100
AcDbCircle
 10
6.206298308987684
 20
24.01154577433635
 30
0.0
 40
0.1931985679908899
100
AcDbArc
 50
299.0373386482001
 51
344.3797375737998
  0
SPLINE
  5
E8
330
2
100
AcDbEntity
  8
0
100
AcDbSpline
210
0.0
220
0.0
230
1.0
 70
     8
 71
     3
 72
    13
 73
     9
 74
     0
 42
0.000000001
 43
0.0000000001
 40
0.0
 40
0.0
 40
0.0
 40
0.0
 40
0.1116507773825453
 40
0.3005940166443044
 40
0.4824849359197709
 40
0.6595191453375695
 40
0.8344332011417881
 40
1.0
 40
1.0
 40
1.0
 40
1.0
 10
5.407321576007491
 20
22.81917497602506
 30
0.0
 10
5.412469113991271
 20
22.85803148431308
 30
0.0
 10
5.426327675074567
 20
22.96264368830195
 30
0.0
 10
5.505113444144263
 20
23.13336733056989
 30
0.0
 10
5.637908066220177
 20
23.3278511446359
 30
0.0
 10
5.819436645745568
 20
23.51369130346334
 30
0.0
 10
6.03739872810578
 20
23.68725857309433
 30
0.0
 10
6.214132283089583
 20
23.79179739952211
 30
0.0
 10
6.300073118084658
 20
23.84263185500187
 30
0.0
  0
LINE
  5
E9
330
2
100
AcDbEntity
  8
0
100
AcDbLine
 10
43.29907926631253
 20
24.81627727685966
 30
0.0
 11
43.27371472226176
 21
25.10382754519094
 31
0.0
  0
LINE
  5
EA
330
2
100
AcDbEntity
  8
0
100
AcDbLine
 10
0.7858285312771711
 20
24.34845241440416
 30
0.0
 11
0.7815646346956163
 21
24.13567939898122
 31
0.0
  0
SPLINE
  5
EB
330
2
100
AcDbEntity
  8
0
100
AcDbSpline
210
0.0
220
0.0
230
1.0
 70
     8
 71
     3
 72
    11
 73
     7
 74
     0
 42
0.000000001
 43
0.0000000001
 40
0.0
 40
0.0
 40
0.0
 40
0.0
 40
0.2288306334159262
 40
0.6123700718989799
 40
0.9602772302669519
 40
1.0
 40
1.0
 40
1.0
 40
1.0
 10
0.946941394196761
 20
24.55763363991369
 30
0.0
 10
0.9266678443182351
 20
24.54637660557537
 30
0.0
 10
0.8724141152112007
 20
24.51625183240059
 30
0.0
 10
0.8146713041427954
 20
24.45259003452834
 30
0.0
 10
0.7802211917661041
 20
24.38543951283844
 30
0.0
 10
0.7875923187142048
 20
24.35202282848204
 30
0.0
 10
0.7883476824186355
 20
24.34859841988583
 30
0.0
  0
ARC
  5
EC
330
2
100
AcDbEntity
  8
0
100
AcDbCircle
 10
6.206298308987684
 20
21.38757506818993
 30
0.0
 40
0.1931985679908859
100
AcDbArc
 50
296.5650511771013
 51
344.2704909718004
  0
LINE
  5
ED
330
2
100
AcDbEntity
  8
0
100
AcDbLine
 10
6.233719779523909
 20
21.18528325211479
 30
0.0
 11
6.292699299740246
 21
21.21477301220684
 31
0.0
  0
ARC
  5
EE
330
2
100
AcDbEntity
  8
0
100
AcDbCircle
 10
6.147319022670457
 20
21.35808542504743
 30
0.0
 40
0.193198567990899
100
AcDbArc
 50
241.0157977127005
 51
296.5650511771013
  0
LINE
  5
EF
330
2
100
AcDbEntity
  8
0
100
AcDbLine
 10
6.393038277379629
 20
21.34355727410849
 30
0.0
 11
18.04726034731617
 21
15.51644623914022
 31
0.0
  0
LINE
  5
F0
330
2
100
AcDbEntity
  8
0
100
AcDbLine
 10
3.13142967266208
 20
23.37301044690744
 30
0.0
 11
2.999102988728891
 21
23.30684710494083
 31
0.0
  0
LINE
  5
F1
330
2
100
AcDbEntity
  8
0
100
AcDbLine
 10
2.931068943796929
 20
23.20925674197977
 30
0.0
 11
2.925057757209099
 21
22.99839334618593
 31
0.0
  0
SPLINE
  5
F2
330
2
100
AcDbEntity
  8
0
100
AcDbSpline
210
0.0
220
0.0
230
1.0
 70
     8
 71
     3
 72
    10
 73
     6
 74
     0
 42
0.000000001
 43
0.0000000001
 40
0.0
 40
0.0
 40
0.0
 40
0.0
 40
0.4344791951706203
 40
0.7577257201162701
 40
1.0
 40
1.0
 40
1.0
 40
1.0
 10
2.999102988735736
 20
23.30684710494402
 30
0.0
 10
2.984065953308503
 20
23.29734539664872
 30
0.0
 10
2.957841571049864
 20
23.28077454851509
 30
0.0
 10
2.935181097823282
 20
23.24425369895891
 30
0.0
 10
2.933233945800658
 20
23.22064953663937
 30
0.0
 10
2.932399768083231
 20
23.21053729783331
 30
0.0
  0
LINE
  5
F3
330
2
100
AcDbEntity
  8
0
100
AcDbLine
 10
23.87078424884439
 20
15.51600756684047
 30
0.0
 11
33.77622566281754
 21
20.46872860184253
 31
0.0
  0
LINE
  5
F4
330
2
100
AcDbEntity
  8
0
100
AcDbLine
 10
36.46847843587416
 20
21.40097686162436
 30
0.0
 11
36.44311399782497
 21
21.68852718295645
 31
0.0
  0
LINE
  5
F5
330
2
100
AcDbEntity
  8
0
100
AcDbLine
 10
6.082191989869235
 20
21.17619494025397
 30
0.0
 11
6.074304586976338
 21
21.08676942637034
 31
0.0
  0
SPLINE
  5
F6
330
2
100
AcDbEntity
  8
0
100
AcDbSpline
210
0.0
220
0.0
230
1.0
 70
     8
 71
     3
 72
    21
 73
    17
 74
     0
 42
0.000000001
 43
0.0000000001
 40
0.0
 40
0.0
 40
0.0
 40
0.0
 40
0.0404670547567068
 40
0.1173812119424343
 40
0.1941635188527986
 40
0.2708090230546624
 40
0.3473473212799637
 40
0.4238116937988034
 40
0.5002348181037221
 40
0.5766488065438356
 40
0.6530805959543847
 40
0.7295577535501796
 40
0.8061141759940269
 40
0.8827867272026455
 40
0.9596134266502236
 40
1.0
 40
1.0
 40
1.0
 40
1.0
 10
18.19703710498284
 20
15.11739375444642
 30
0.0
 10
18.25921564992817
 20
15.0903245680939
 30
0.0
 10
18.43957453708668
 20
15.01180603197965
 30
0.0
 10
18.76215659953461
 20
14.89808371145173
 30
0.0
 10
19.16976659564081
 20
14.78485194981873
 30
0.0
 10
19.59894345884053
 20
14.69588787897156
 30
0.0
 10
20.0439639762637
 20
14.63169655036504
 30
0.0
 10
20.49973969530131
 20
14.59298108696013
 30
0.0
 10
20.96086249520612
 20
14.58008713206556
 30
0.0
 10
21.42190246579567
 20
14.59313699869986
 30
0.0
 10
21.87742403602545
 20
14.63198444220227
 30
0.0
 10
22.32201694215058
 20
14.69625405016986
 30
0.0
 10
22.75062543825065
 20
14.78522003739614
 30
0.0
 10
23.15765574170237
 20
14.89837811011856
 30
0.0
 10
23.47973515242042
 20
15.01196769787024
 30
0.0
 10
23.65983006726951
 20
15.09037740629672
 30
0.0
 10
23.72188290748878
 20
15.11739396649617
 30
0.0
  0
LINE
  5
F7
330
2
100
AcDbEntity
  8
0
100
AcDbLine
 10
29.63787739336814
 20
17.98567634038746
 30
0.0
 11
29.61251327342043
 21
18.27322682075417
 31
0.0
  0
LINE
  5
F8
330
2
100
AcDbEntity
  8
0
100
AcDbLine
 10
12.93046070026154
 20
17.96119930261255
 30
0.0
 11
12.9049053114131
 21
17.67146906413585
 31
0.0
  0
ARC
  5
F9
330
2
100
AcDbEntity
  8
0
100
AcDbCircle
 10
18.27651035815497
 20
15.29348975728906
 30
0.0
 40
0.1931985679908997
100
AcDbArc
 50
189.6853145418998
 51
245.7100885026992
  0
ARC
  5
FA
330
2
100
AcDbEntity
  8
0
100
AcDbCircle
 10
23.64241034305007
 20
15.29348975728906
 30
0.0
 40
0.1931985679909357
100
AcDbArc
 50
294.2899114972009
 51
350.3146854581002
  0
LINE
  5
FB
330
2
100
AcDbEntity
  8
0
100
AcDbLine
 10
18.04238794283299
 20
15.51888214375942
 30
0.0
 11
18.08606552827527
 21
15.26098654225088
 31
0.0
  0
SPLINE
  5
FC
330
2
100
AcDbEntity
  8
0
100
AcDbSpline
210
0.0
220
0.0
230
1.0
 70
     8
 71
     3
 72
     9
 73
     5
 74
     0
 42
0.000000001
 43
0.0000000001
 40
0.0
 40
0.0
 40
0.0
 40
0.0
 40
0.4639451249084764
 40
1.0
 40
1.0
 40
1.0
 40
1.0
 10
23.83285533240239
 20
15.26098633019632
 30
0.0
 10
23.83965587582244
 20
15.30084113143223
 30
0.0
 10
23.85431395294187
 20
15.38674525908906
 30
0.0
 10
23.86876758814161
 20
15.47276313858897
 30
0.0
 10
23.87651552975314
 20
15.51887344223995
 30
0.0
  0
LINE
  5
FD
330
2
100
AcDbEntity
  8
0
100
AcDbLine
 10
20.23525727599993
 20
14.55716257589437
 30
0.0
 11
20.22924693761821
 21
14.34629875596527
 31
0.0
  0
SPLINE
  5
FE
330
2
100
AcDbEntity
  8
0
100
AcDbSpline
210
0.0
220
0.0
230
1.0
 70
     8
 71
     3
 72
     9
 73
     5
 74
     0
 42
0.000000001
 43
0.0000000001
 40
0.0
 40
0.0
 40
0.0
 40
0.0
 40
0.53501944449783
 40
1.0
 40
1.0
 40
1.0
 40
1.0
 10
20.25839529760585
 20
14.61786900539648
 30
0.0
 10
20.25154360627953
 20
14.60840671905538
 30
0.0
 10
20.23873717205222
 20
14.59072084532048
 30
0.0
 10
20.23727020940916
 20
14.56868798387626
 30
0.0
 10
20.2365881003045
 20
14.55844313172263
 30
0.0
  0
SPLINE
  5
FF
330
2
100
AcDbEntity
  8
0
100
AcDbSpline
210
0.0
220
0.0
230
1.0
 70
     8
 71
     3
 72
    11
 73
     7
 74
     0
 42
0.000000001
 43
0.0000000001
 40
0.0
 40
0.0
 40
0.0
 40
0.0
 40
0.1535235955646846
 40
0.5300288124191165
 40
0.9107647237220096
 40
1.0
 40
1.0
 40
1.0
 40
1.0
 10
9.219423232053168
 20
41.43292962671498
 30
0.0
 10
9.219147225517062
 20
41.42973274226832
 30
0.0
 10
9.218194333448572
 20
41.41869573612923
 30
0.0
 10
9.22603708161783
 20
41.40068019640807
 30
0.0
 10
9.236678060534812
 20
41.38583643674277
 30
0.0
 10
9.245374162195103
 20
41.38123952036151
 30
0.0
 10
9.247025325191211
 20
41.38036668578324
 30
0.0
  0
LINE
  5
100
330
2
100
AcDbEntity
  8
0
100
AcDbLine
 10
9.218358742260612
 20
41.53702319953194
 30
0.0
 11
9.218358742260612
 21
41.43294619645376
 31
0.0
  0
ARC
  5
101
330
2
100
AcDbEntity
  8
0
100
AcDbCircle
 10
9.341759618993737
 20
42.19147748856654
 30
0.0
 40
0.0482996419977273
100
AcDbArc
 50
180.0
 51
242.599565224002
  0
LINE
  5
102
330
2
100
AcDbEntity
  8
0
100
AcDbLine
 10
9.319530227277008
 20
42.14841212790894
 30
0.0
 11
9.43172847500535
 21
42.09018565909411
 31
0.0
  0
LINE
  5
103
330
2
100
AcDbEntity
  8
0
100
AcDbLine
 10
9.293460405703632
 20
42.44024273550108
 30
0.0
 11
9.293460405703632
 21
42.19147681008539
 31
0.0
  0
SPLINE
  5
104
330
2
100
AcDbEntity
  8
0
100
AcDbSpline
210
0.0
220
0.0
230
1.0
 70
     8
 71
     3
 72
    10
 73
     6
 74
     0
 42
0.000000001
 43
0.0000000001
 40
0.0
 40
0.0
 40
0.0
 40
0.0
 40
0.5051808842010788
 40
0.9899146128238143
 40
1.0
 40
1.0
 40
1.0
 40
1.0
 10
9.455335375461027
 20
42.54576885960028
 30
0.0
 10
9.447635744040658
 20
42.54694073502908
 30
0.0
 10
9.43254812316117
 20
42.54923705432328
 30
0.0
 10
9.415911381531817
 20
42.54621194538311
 30
0.0
 10
9.409843333973606
 20
42.54144688254331
 30
0.0
 10
9.409719655225005
 20
42.54134976118696
 30
0.0
  0
LINE
  5
105
330
2
100
AcDbEntity
  8
0
100
AcDbLine
 10
9.410293461859099
 20
42.54174157266134
 30
0.0
 11
9.328454977552167
 21
42.50082233050783
 31
0.0
  0
LINE
  5
106
330
2
100
AcDbEntity
  8
0
100
AcDbLine
 10
9.772340012135128
 20
42.45787578841858
 30
0.0
 11
9.455335375467688
 21
42.54576885960063
 31
0.0
  0
SPLINE
  5
107
330
2
100
AcDbEntity
  8
0
100
AcDbSpline
210
0.0
220
0.0
230
1.0
 70
     8
 71
     3
 72
    11
 73
     7
 74
     0
 42
0.000000001
 43
0.0000000001
 40
0.0
 40
0.0
 40
0.0
 40
0.0
 40
0.0626533765872299
 40
0.4655661463251377
 40
0.8571158111480647
 40
1.0
 40
1.0
 40
1.0
 40
1.0
 10
9.513932357894571
 20
41.08394063144443
 30
0.0
 10
9.513623171956082
 20
41.08217884039193
 30
0.0
 10
9.511325665999825
 20
41.06908728307096
 30
0.0
 10
9.521802462742451
 20
41.04488158281004
 30
0.0
 10
9.537814785765556
 20
41.02420878051344
 30
0.0
 10
9.549977947212932
 20
41.01483375982648
 30
0.0
 10
9.553229843486576
 20
41.01232729019113
 30
0.0
  0
LINE
  5
108
330
2
100
AcDbEntity
  8
0
100
AcDbLine
 10
9.512951415691647
 20
41.20337026973796
 30
0.0
 11
9.512951415691647
 21
41.08416755863954
 31
0.0
  0
SPLINE
  5
109
330
2
100
AcDbEntity
  8
0
100
AcDbSpline
210
0.0
220
0.0
230
1.0
 70
     8
 71
     3
 72
    11
 73
     7
 74
     0
 42
0.000000001
 43
0.0000000001
 40
0.0
 40
0.0
 40
0.0
 40
0.0
 40
0.3114148593139019
 40
0.6013751365931447
 40
0.8953280608590933
 40
1.0
 40
1.0
 40
1.0
 40
1.0
 10
9.328405357920884
 20
42.50065038844617
 30
0.0
 10
9.321902203849699
 20
42.49648061816604
 30
0.0
 10
9.309343923308766
 20
42.48842834931381
 30
0.0
 10
9.297963076088541
 20
42.46905361901744
 30
0.0
 10
9.293810664890436
 20
42.45260655728526
 30
0.0
 10
9.293533250010158
 20
42.44281407151799
 30
0.0
 10
9.293460405699281
 20
42.44024273548662
 30
0.0
  0
LINE
  5
10A
330
2
100
AcDbEntity
  8
0
100
AcDbLine
 10
9.553229843471862
 20
41.01232729020473
 30
0.0
 11
9.75582048762887
 21
40.86503343084228
 31
0.0
  0
LINE
  5
10B
330
2
100
AcDbEntity
  8
0
100
AcDbLine
 10
10.12031027523095
 20
42.49933155925623
 30
0.0
 11
9.809827865051818
 21
42.64859655151261
 31
0.0
  0
LINE
  5
10C
330
2
100
AcDbEntity
  8
0
100
AcDbLine
 10
9.610753005931437
 20
42.63729873620725
 30
0.0
 11
9.431954768932305
 21
42.54789961769161
 31
0.0
  0
LINE
  5
10D
330
2
100
AcDbEntity
  8
0
100
AcDbLine
 10
7.244268780109822
 20
40.44877899242808
 30
0.0
 11
8.000922121219778
 21
40.05577059214393
 31
0.0
  0
LINE
  5
10E
330
2
100
AcDbEntity
  8
0
100
AcDbLine
 10
8.212227314016645
 20
40.40536262815043
 30
0.0
 11
8.076567904344104
 21
40.45162480958857
 31
0.0
  0
SPLINE
  5
10F
330
2
100
AcDbEntity
  8
0
100
AcDbSpline
210
0.0
220
0.0
230
1.0
 70
     8
 71
     3
 72
    13
 73
     9
 74
     0
 42
0.000000001
 43
0.0000000001
 40
0.0359339636629503
 40
0.0359339636629503
 40
0.0359339636629503
 40
0.0359339636629503
 40
0.1031699199487469
 40
0.2989625282344021
 40
0.4963947135873151
 40
0.6964505151761246
 40
0.8762342117867717
 40
1.0
 40
1.0
 40
1.0
 40
1.0
 10
7.128409032322473
 20
41.19947279277343
 30
0.0
 10
7.118788355435346
 20
41.18791467120265
 30
0.0
 10
7.081867599080907
 20
41.14185396314877
 30
0.0
 10
7.031303156626165
 20
41.04460321572399
 30
0.0
 10
6.998608630269482
 20
40.91276600674245
 30
0.0
 10
7.005702863123364
 20
40.79492220995451
 30
0.0
 10
7.042552346415133
 20
40.70719445006484
 30
0.0
 10
7.086462241033096
 20
40.67882857892595
 30
0.0
 10
7.10436555824975
 20
40.66726300370545
 30
0.0
  0
LINE
  5
110
330
2
100
AcDbEntity
  8
0
100
AcDbLine
 10
7.895046100216921
 20
40.44209313982578
 30
0.0
 11
7.887678398796087
 21
40.43840928911534
 31
0.0
  0
SPLINE
  5
111
330
2
100
AcDbEntity
  8
0
100
AcDbSpline
210
0.0
220
0.0
230
1.0
 70
     8
 71
     3
 72
    10
 73
     6
 74
     0
 42
0.000000001
 43
0.0000000001
 40
0.0
 40
0.0
 40
0.0
 40
0.0
 40
0.3010625406476163
 40
0.6836749462116771
 40
1.0
 40
1.0
 40
1.0
 40
1.0
 10
12.03637027600254
 20
44.92512715579363
 30
0.0
 10
12.01630452704648
 20
44.93407673312479
 30
0.0
 10
11.9707377494304
 20
44.95440009114636
 30
0.0
 10
11.89573342184039
 20
44.94917064881885
 30
0.0
 10
11.84908441599099
 20
44.93005138908283
 30
0.0
 10
11.82797201303269
 20
44.92139839619568
 30
0.0
  0
LINE
  5
112
330
2
100
AcDbEntity
  8
0
100
AcDbLine
 10
12.33000533273498
 20
44.78849004586635
 30
0.0
 11
12.04088863227803
 21
44.92748397915078
 31
0.0
  0
LINE
  5
113
330
2
100
AcDbEntity
  8
0
100
AcDbLine
 10
7.128409032322473
 20
41.35771704881051
 30
0.0
 11
7.128409032322473
 21
41.19947279277343
 31
0.0
  0
SPLINE
  5
114
330
2
100
AcDbEntity
  8
0
100
AcDbSpline
210
0.0
220
0.0
230
1.0
 70
     8
 71
     3
 72
    10
 73
     6
 74
     0
 42
0.000000001
 43
0.0000000001
 40
0.0
 40
0.0
 40
0.0
 40
0.0
 40
0.5051808842010788
 40
0.9899146128238143
 40
1.0
 40
1.0
 40
1.0
 40
1.0
 10
7.290284002080048
 20
41.46324317290981
 30
0.0
 10
7.282584370659681
 20
41.46441504833862
 30
0.0
 10
7.267496749780156
 20
41.46671136763276
 30
0.0
 10
7.250860008150875
 20
41.46368625869263
 30
0.0
 10
7.244791960592704
 20
41.45892119585283
 30
0.0
 10
7.244668281844066
 20
41.45882407449656
 30
0.0
  0
LINE
  5
115
330
2
100
AcDbEntity
  8
0
100
AcDbLine
 10
11.82797201303572
 20
44.9213983962058
 30
0.0
 11
7.405964355762183
 21
42.71039456755292
 31
0.0
  0
LINE
  5
116
330
2
100
AcDbEntity
  8
0
100
AcDbLine
 10
7.245242088510157
 20
41.45921588597075
 30
0.0
 11
7.16340360417105
 21
41.41829664381726
 31
0.0
  0
LINE
  5
117
330
2
100
AcDbEntity
  8
0
100
AcDbLine
 10
7.458351673033226
 20
41.4166454401528
 30
0.0
 11
7.290284002086529
 21
41.46324317291006
 31
0.0
  0
SPLINE
  5
118
330
2
100
AcDbEntity
  8
0
100
AcDbSpline
210
0.0
220
0.0
230
1.0
 70
     8
 71
     3
 72
    11
 73
     7
 74
     0
 42
0.000000001
 43
0.0000000001
 40
0.0
 40
0.0
 40
0.0
 40
0.0
 40
0.311411359127245
 40
0.6013727589849874
 40
0.8953294374252045
 40
1.0
 40
1.0
 40
1.0
 40
1.0
 10
7.163353560440405
 20
41.41812448970594
 30
0.0
 10
7.156850545058086
 20
41.4139547776367
 30
0.0
 10
7.144292440841308
 20
41.40590256252736
 30
0.0
 10
7.132911944849881
 20
41.38652790595861
 30
0.0
 10
7.128758488843718
 20
41.37008069526889
 30
0.0
 10
7.128481708596309
 20
41.36028830943458
 30
0.0
 10
7.128409032318264
 20
41.35771704879612
 30
0.0
  0
SPLINE
  5
119
330
2
100
AcDbEntity
  8
0
100
AcDbSpline
210
0.0
220
0.0
230
1.0
 70
     8
 71
     3
 72
    11
 73
     7
 74
     0
 42
0.000000001
 43
0.0000000001
 40
0.0
 40
0.0
 40
0.0
 40
0.0
 40
0.2813243826608673
 40
0.6144643185621898
 40
0.923190130112038
 40
1.0
 40
1.0
 40
1.0
 40
1.0
 10
6.58245299766353
 20
39.29843321841899
 30
0.0
 10
6.584269500423154
 20
39.27180782962516
 30
0.0
 10
6.58823707735259
 20
39.21365307166593
 30
0.0
 10
6.627095710316118
 20
39.13663463174552
 30
0.0
 10
6.674099539473467
 20
39.08350053248149
 30
0.0
 10
6.708424607669488
 20
39.07244180120616
 30
0.0
 10
6.715263155043895
 20
39.07023858176039
 30
0.0
  0
LINE
  5
11A
330
2
100
AcDbEntity
  8
0
100
AcDbLine
 10
6.710224852744931
 20
39.06891667071909
 30
0.0
 11
7.698016249001348
 21
38.55567432910015
 31
0.0
  0
LINE
  5
11B
330
2
100
AcDbEntity
  8
0
100
AcDbLine
 10
6.582452997675064
 20
41.06619026232402
 30
0.0
 11
6.582452997675064
 21
39.29843321843091
 31
0.0
  0
SPLINE
  5
11C
330
2
100
AcDbEntity
  8
0
100
AcDbSpline
210
0.0
220
0.0
230
1.0
 70
     8
 71
     3
 72
    11
 73
     7
 74
     0
 42
0.000000001
 43
0.0000000001
 40
0.0
 40
0.0
 40
0.0
 40
0.0
 40
0.2046305329084833
 40
0.5122023124655205
 40
0.8318262470078654
 40
1.0
 40
1.0
 40
1.0
 40
1.0
 10
6.758616304342419
 20
41.50601959291228
 30
0.0
 10
6.735731340301478
 20
41.48398800713372
 30
0.0
 10
6.678448923372504
 20
41.42884164640888
 30
0.0
 10
6.617128942684399
 20
41.31002653404834
 30
0.0
 10
6.586092093301941
 20
41.1811587558278
 30
0.0
 10
6.583385965675834
 20
41.09566514770874
 30
0.0
 10
6.58245299766353
 20
41.06619026231742
 30
0.0
  0
LINE
  5
11D
330
2
100
AcDbEntity
  8
0
100
AcDbLine
 10
7.082669899117166
 20
41.77791425346127
 30
0.0
 11
6.758616304344362
 21
41.50601959290552
 31
0.0
  0
SPLINE
  5
11E
330
2
100
AcDbEntity
  8
0
100
AcDbSpline
210
0.0
220
0.0
230
1.0
 70
     8
 71
     3
 72
    11
 73
     7
 74
     0
 42
0.000000001
 43
0.0000000001
 40
0.0
 40
0.0
 40
0.0
 40
0.0
 40
0.1639339606518973
 40
0.4786969576863382
 40
0.7932447693756091
 40
1.0
 40
1.0
 40
1.0
 40
1.0
 10
7.203126885693464
 20
42.12931939239518
 30
0.0
 10
7.202309833052069
 20
42.10177828339955
 30
0.0
 10
7.199923990532554
 20
42.02135659996627
 30
0.0
 10
7.173820732899412
 20
41.9090032131733
 30
0.0
 10
7.129175366865157
 20
41.82270805896873
 30
0.0
 10
7.095876601203359
 20
41.79063487478807
 30
0.0
 10
7.082669899122069
 20
41.77791425347204
 30
0.0
  0
LINE
  5
11F
330
2
100
AcDbEntity
  8
0
100
AcDbLine
 10
7.203126885687098
 20
42.37004894886121
 30
0.0
 11
7.203126885687098
 21
42.12931939238401
 31
0.0
  0
SPLINE
  5
120
330
2
100
AcDbEntity
  8
0
100
AcDbSpline
210
0.0
220
0.0
230
1.0
 70
     8
 71
     3
 72
    11
 73
     7
 74
     0
 42
0.000000001
 43
0.0000000001
 40
0.0
 40
0.0
 40
0.0
 40
0.0
 40
0.1923191347590169
 40
0.465469980072329
 40
0.7589216844942494
 40
1.0
 40
1.0
 40
1.0
 40
1.0
 10
7.405964355761488
 20
42.71039456756003
 30
0.0
 10
7.383830961392074
 20
42.69709990676477
 30
0.0
 10
7.330261509506912
 20
42.66492284074801
 30
0.0
 10
7.261938707977845
 20
42.58203841657038
 30
0.0
 10
7.212112137689227
 20
42.476068620266
 30
0.0
 10
7.205919724961126
 20
42.40300249335733
 30
0.0
 10
7.203126885693464
 20
42.37004894886227
 30
0.0
  0
LINE
  5
121
330
2
100
AcDbEntity
  8
0
100
AcDbLine
 10
9.034531109070748
 20
39.37997307957526
 30
0.0
 11
9.034531522389906
 21
39.19858164280724
 31
0.0
  0
LINE
  5
122
330
2
100
AcDbEntity
  8
0
100
AcDbLine
 10
9.034531109070748
 20
43.68443761442218
 30
0.0
 11
9.034531109070748
 21
43.52467842264735
 31
0.0
  0
ARC
  5
123
330
2
100
AcDbEntity
  8
0
100
AcDbCircle
 10
9.322339947088245
 20
42.36904247216291
 30
0.0
 40
0.1609988066590954
100
AcDbArc
 50
72.21786388209905
 51
116.5650511771012
  0
LINE
  5
124
330
2
100
AcDbEntity
  8
0
100
AcDbLine
 10
9.250338814731582
 20
42.51304451875506
 30
0.0
 11
7.547348957235528
 21
41.66154959000702
 31
0.0
  0
LINE
  5
125
330
2
100
AcDbEntity
  8
0
100
AcDbLine
 10
8.05447019886434
 20
40.67508300205501
 30
0.0
 11
8.181458318054572
 21
40.44748268207167
 31
0.0
  0
SPLINE
  5
126
330
2
100
AcDbEntity
  8
0
100
AcDbSpline
210
0.0
220
0.0
230
1.0
 70
     8
 71
     3
 72
    10
 73
     6
 74
     0
 42
0.000000001
 43
0.0000000001
 40
0.0
 40
0.0
 40
0.0
 40
0.0
 40
0.2380859899558715
 40
0.8329334044036079
 40
1.0
 40
1.0
 40
1.0
 40
1.0
 10
8.181458318043548
 20
40.4474826820808
 30
0.0
 10
8.185616359525338
 20
40.44060668840857
 30
0.0
 10
8.200163085469926
 20
40.41655132580985
 30
0.0
 10
8.223639928730134
 20
40.39237994958098
 30
0.0
 10
8.244355439012924
 20
40.379659886098
 30
0.0
 10
8.248897775462197
 20
40.37687072921961
 30
0.0
  0
LINE
  5
127
330
2
100
AcDbEntity
  8
0
100
AcDbLine
 10
8.248897775460072
 20
40.37687072920626
 30
0.0
 11
8.450606716704147
 21
40.26258528867235
 31
0.0
  0
LINE
  5
128
330
2
100
AcDbEntity
  8
0
100
AcDbLine
 10
7.515586023694081
 20
40.87032649313652
 30
0.0
 11
7.647279102941642
 21
40.64759607935371
 31
0.0
  0
SPLINE
  5
129
330
2
100
AcDbEntity
  8
0
100
AcDbSpline
210
0.0
220
0.0
230
1.0
 70
     8
 71
     3
 72
    10
 73
     6
 74
     0
 42
0.000000001
 43
0.0000000001
 40
0.0
 40
0.0
 40
0.0
 40
0.0
 40
0.2601003838009769
 40
0.8260676014728113
 40
1.0
 40
1.0
 40
1.0
 40
1.0
 10
7.458351673028025
 20
41.07071548256693
 30
0.0
 10
7.459214469181293
 20
41.05293710165747
 30
0.0
 10
7.461954672553834
 20
40.99647373062618
 30
0.0
 10
7.484166740025479
 20
40.92702595220031
 30
0.0
 10
7.509605896851914
 20
40.88111827188345
 30
0.0
 10
7.515586023704881
 20
40.87032649314276
 30
0.0
  0
SPLINE
  5
12A
330
2
100
AcDbEntity
  8
0
100
AcDbSpline
210
0.0
220
0.0
230
1.0
 70
     8
 71
     3
 72
    10
 73
     6
 74
     0
 42
0.000000001
 43
0.0000000001
 40
0.0
 40
0.0
 40
0.0
 40
0.0
 40
0.2423029745174585
 40
0.8021398265499326
 40
1.0
 40
1.0
 40
1.0
 40
1.0
 10
7.647279102950427
 20
40.64759607936387
 30
0.0
 10
7.658801011807108
 20
40.62963245093487
 30
0.0
 10
7.696944092758823
 20
40.5701641682161
 30
0.0
 10
7.75945192324226
 20
40.50875161856247
 30
0.0
 10
7.813170842720846
 20
40.4778913944643
 30
0.0
 10
7.827198659075032
 20
40.46983275217402
 30
0.0
  0
LINE
  5
12B
330
2
100
AcDbEntity
  8
0
100
AcDbLine
 10
7.458351673033226
 20
41.51754736100323
 30
0.0
 11
7.458351673033226
 21
41.07071548257298
 31
0.0
  0
LINE
  5
12C
330
2
100
AcDbEntity
  8
0
100
AcDbLine
 10
7.827198659084254
 20
40.46983275218271
 30
0.0
 11
7.887678398796087
 21
40.43840928911534
 31
0.0
  0
ARC
  5
12D
330
2
100
AcDbEntity
  8
0
100
AcDbCircle
 10
7.61935021352906
 20
41.51754760536722
 30
0.0
 40
0.1609988066590838
100
AcDbArc
 50
116.5650511771012
 51
180.0
  0
LINE
  5
12E
330
2
100
AcDbEntity
  8
0
100
AcDbLine
 10
39.78884995198315
 20
38.02533309637225
 30
0.0
 11
39.73192816263451
 21
38.05379399104656
 31
0.0
  0
LINE
  5
12F
330
2
100
AcDbEntity
  8
0
100
AcDbLine
 10
40.98420498333154
 20
37.42765558071415
 30
0.0
 11
40.92728319398292
 21
37.45611647538846
 31
0.0
  0
LINE
  5
130
330
2
100
AcDbEntity
  8
0
100
AcDbLine
 10
42.06571686011797
 20
36.88689964230486
 30
0.0
 11
42.00879507076935
 21
36.91536053697916
 31
0.0
  0
LINE
  5
131
330
2
100
AcDbEntity
  8
0
100
AcDbLine
 10
43.26107189146639
 20
36.28922212664674
 30
0.0
 11
43.20415052622083
 21
36.31768280925343
 31
0.0
  0
LINE
  5
132
330
2
100
AcDbEntity
  8
0
100
AcDbLine
 10
35.00742919041878
 20
40.41604347717056
 30
0.0
 11
34.95050761313779
 21
40.44450426581105
 31
0.0
  0
LINE
  5
133
330
2
100
AcDbEntity
  8
0
100
AcDbLine
 10
36.20278443383485
 20
39.81836585547863
 30
0.0
 11
36.14586275052002
 21
39.84682669711994
 31
0.0
  0
LINE
  5
134
330
2
100
AcDbEntity
  8
0
100
AcDbLine
 10
32.73056249431935
 20
41.55447682520414
 30
0.0
 11
32.67364070500292
 21
41.58293771987845
 31
0.0
  0
LINE
  5
135
330
2
100
AcDbEntity
  8
0
100
AcDbLine
 10
33.92591752569997
 20
40.95679930954603
 30
0.0
 11
33.86899573635135
 21
40.98526020418817
 31
0.0
  0
LINE
  5
136
330
2
100
AcDbEntity
  8
0
100
AcDbLine
 10
31.64905061753293
 20
42.09523276361348
 30
0.0
 11
31.59174756275648
 21
42.12128253191613
 31
0.0
  0
LINE
  5
137
330
2
100
AcDbEntity
  8
0
100
AcDbLine
 10
37.51198293781445
 20
39.16376660347271
 30
0.0
 11
37.45506125449965
 21
39.19222744511402
 31
0.0
  0
LINE
  5
138
330
2
100
AcDbEntity
  8
0
100
AcDbLine
 10
38.70733807519672
 20
38.56608903478161
 30
0.0
 11
38.65041649791569
 21
38.5945498234221
 31
0.0
  0
LINE
  5
139
330
2
100
AcDbEntity
  8
0
100
AcDbLine
 10
44.34258376825282
 20
35.74846618823742
 30
0.0
 11
44.28566197893641
 21
35.7769270829117
 31
0.0
  0
LINE
  5
13A
330
2
100
AcDbEntity
  8
0
100
AcDbLine
 10
45.53793879960124
 20
35.15078867257932
 30
0.0
 11
45.48101701028482
 21
35.17924956725359
 31
0.0
  0
ARC
  5
13B
330
2
100
AcDbEntity
  8
0
100
AcDbCircle
 10
12.7648274837374
 20
42.24201878334532
 30
0.0
 40
0.6526042380168287
100
AcDbArc
 50
300.7579519441981
 51
359.0321313802001
  0
LWPOLYLINE
  5
13C
330
2
100
AcDbEntity
  8
0
100
AcDbPolyline
 90
        9
 70
   128
 43
0.0
 10
12.04552616052898
 20
44.98431574057486
 10
12.10105054193052
 20
45.00538061088935
 10
12.15444085459045
 20
45.01223935756637
 10
12.20364594109353
 20
45.00463097890391
 10
12.24677452968548
 20
44.98284500481971
 10
12.28216923946735
 20
44.9477211017282
 10
12.30846998323917
 20
44.90060805593666
 10
12.32466570771825
 20
44.84331588719114
 10
12.33013447103698
 20
44.77804758688857
  0
LINE
  5
13D
330
2
100
AcDbEntity
  8
0
100
AcDbLine
 10
11.97129008421158
 20
44.94719770243229
 30
0.0
 11
12.04552616052898
 21
44.98431574057486
 31
0.0
  0
LINE
  5
13E
330
2
100
AcDbEntity
  8
0
100
AcDbLine
 10
12.33013447103698
 20
44.77804758688857
 30
0.0
 11
12.33013447103698
 21
41.4805496383314
 31
0.0
  0
LINE
  5
13F
330
2
100
AcDbEntity
  8
0
100
AcDbLine
 10
13.41733861158531
 20
42.23099519434497
 30
0.0
 11
13.41733861158531
 21
44.12981509228078
 31
0.0
  0
LINE
  5
140
330
2
100
AcDbEntity
  8
0
100
AcDbLine
 10
13.41733861158531
 20
44.76192784363893
 30
0.0
 11
13.41733861158531
 21
46.21866618997373
 31
0.0
  0
ARC
  5
141
330
2
100
AcDbEntity
  8
0
100
AcDbCircle
 10
12.44665852607903
 20
41.48252051530165
 30
0.0
 40
0.1165407214781819
100
AcDbArc
 50
180.9690030600999
 51
239.2409605931028
  0
LINE
  5
142
330
2
100
AcDbEntity
  8
0
100
AcDbLine
 10
12.3870562603534
 20
41.38237407410655
 30
0.0
 11
12.443978049702
 21
41.35391317946445
 31
0.0
  0
LINE
  5
143
330
2
100
AcDbEntity
  8
0
100
AcDbLine
 10
12.443978049702
 20
41.35391317946445
 30
0.0
 11
13.09857735470874
 21
41.6812128319517
 31
0.0
  0
ARC
  5
144
330
2
100
AcDbEntity
  8
0
100
AcDbCircle
 10
13.16795077476287
 20
46.24889375668886
 30
0.0
 40
0.2512130548890664
100
AcDbArc
 50
353.0890586172999
 51
58.24006136160154
  0
LINE
  5
145
330
2
100
AcDbEntity
  8
0
100
AcDbLine
 10
6.592141127076354
 20
39.22274132775993
 30
0.0
 11
5.362921749090409
 21
38.60813163876699
 31
0.0
  0
ARC
  5
146
330
2
100
AcDbEntity
  8
0
100
AcDbCircle
 10
5.120357486920299
 20
39.01264706119681
 30
0.0
 40
0.4716674127829263
100
AcDbArc
 50
246.3192606942981
 51
300.9486536698014
  0
LWPOLYLINE
  5
147
330
2
100
AcDbEntity
  8
0
100
AcDbPolyline
 90
       16
 70
   128
 43
0.0
 10
38.81009738879032
 20
45.58848584094125
 10
38.83107080643745
 20
45.32539681701372
 10
38.89313236387152
 20
45.05210628904406
 10
38.9937413339015
 20
44.7798012671951
 10
39.12877875593386
 20
44.51962993287136
 10
39.29271617466779
 20
44.28224536916331
 10
39.47884195016123
 20
44.07736413641266
 10
39.67953607426044
 20
43.91337538990673
 10
39.88658211580234
 20
43.79699272446746
 10
40.09150359100975
 20
43.73298002861345
 10
40.28591096988661
 20
43.72395824384232
 10
40.46184520980442
 20
43.77029800495946
 10
40.61210356360311
 20
43.87010009437219
 10
40.73053441470938
 20
44.0192807217405
 10
40.81228913935493
 20
44.21173023164232
 10
40.83686114746011
 20
44.31404974659896
  0
LWPOLYLINE
  5
148
330
2
100
AcDbEntity
  8
0
100
AcDbPolyline
 90
        9
 70
   128
 43
0.0
 10
39.82627884266109
 20
46.33521449639482
 10
39.67953607426044
 20
46.39415656767693
 10
39.47884195016123
 20
46.43086194530241
 10
39.29271617466779
 20
46.41210752684163
 10
39.12877875593386
 20
46.33865934307108
 10
38.9937413339015
 20
46.2135264696083
 10
38.89313236387152
 20
46.04183041775723
 10
38.83107080643745
 20
45.83060040836076
 10
38.81009738879032
 20
45.58848584094125
  0
LWPOLYLINE
  5
149
330
2
100
AcDbEntity
  8
0
100
AcDbPolyline
 90
       16
 70
   128
 43
0.0
 10
38.91255643996372
 20
48.42829591567544
 10
38.93352985761087
 20
48.16520793060882
 10
38.99559141504496
 20
47.89191636381046
 10
39.09620038504274
 20
47.61961134192929
 10
39.23123780707506
 20
47.35944104643421
 10
39.39517522580903
 20
47.12205544389747
 10
39.58130100130244
 20
46.91717524997555
 10
39.78199512540165
 20
46.75318546467305
 10
39.98904116694355
 20
46.63680279923389
 10
40.19396264218316
 20
46.57279010337985
 10
40.38837002102782
 20
46.56376935743741
 10
40.56430426094562
 20
46.6101080797259
 10
40.71456261474432
 20
46.70991120796729
 10
40.83299346585059
 20
46.85909079647472
 10
40.91474819052835
 20
47.05154134523742
 10
40.93932019860131
 20
47.15385982136535
  0
LWPOLYLINE
  5
14A
330
2
100
AcDbEntity
  8
0
100
AcDbPolyline
 90
        9
 70
   128
 43
0.0
 10
39.92873789380226
 20
49.17502457112899
 10
39.78199512540165
 20
49.23396768127198
 10
39.58130100130244
 20
49.27067305886531
 10
39.39517522580903
 20
49.25191760160799
 10
39.23123780707506
 20
49.17847045663397
 10
39.09620038504274
 20
49.0533365443425
 10
38.99559141504496
 20
48.88164049249138
 10
38.93352985761087
 20
48.67041152195579
 10
38.91255643996372
 20
48.42829591567544
  0
LINE
  5
14B
330
2
100
AcDbEntity
  8
0
100
AcDbLine
 10
36.80645468777489
 20
62.02462225730299
 30
0.0
 11
36.80645468777489
 21
61.67041534843253
 31
0.0
  0
LINE
  5
14C
330
2
100
AcDbEntity
  8
0
100
AcDbLine
 10
42.49862217014748
 20
59.17853851611674
 30
0.0
 11
42.49862217014748
 21
58.71842315142379
 31
0.0
  0
LINE
  5
14D
330
2
100
AcDbEntity
  8
0
100
AcDbLine
 10
42.49862217014748
 20
44.56509097626833
 30
0.0
 11
42.49862217014748
 21
44.25921902082795
 31
0.0
  0
ARC
  5
14E
330
2
100
AcDbEntity
  8
0
100
AcDbCircle
 10
41.95683537634294
 20
44.23128672661259
 30
0.0
 40
0.5425063529762913
100
AcDbArc
 50
322.0759877406007
 51
2.95132123090032
  0
LWPOLYLINE
  5
14F
330
2
100
AcDbEntity
  8
0
100
AcDbPolyline
 90
        3
 70
   128
 43
0.0
 10
41.87643573119058
 20
43.48718713797665
 10
42.14542700099402
 20
43.66811379011557
 10
42.38477880355005
 20
43.89785372563579
  0
LWPOLYLINE
  5
150
330
2
100
AcDbEntity
  8
0
100
AcDbPolyline
 90
       16
 70
   128
 43
0.0
 10
36.78368542069181
 20
46.56178778341666
 10
37.02303722324784
 20
46.09269604530811
 10
37.29202849305127
 20
45.64277812339802
 10
37.58746109561442
 20
45.21738429068108
 10
37.9058223205915
 20
44.82157229588186
 10
38.24332707985558
 20
44.46004678897398
 10
38.5959624376434
 20
44.13710796871091
 10
38.95953585220553
 20
43.85659421962063
 10
39.32972453008721
 20
43.62184081333198
 10
39.70212706047416
 20
43.43563954813851
 10
40.07231573838804
 20
43.30020427651328
 10
40.43588915291797
 20
43.21714461107365
 10
40.78852451073802
 20
43.1874480735489
 10
41.12602926996988
 20
43.21146882122486
 10
41.44439049497915
 20
43.28891959098259
 10
41.67595137729871
 20
43.38533938877501
  0
LINE
  5
151
330
2
100
AcDbEntity
  8
0
100
AcDbLine
 10
37.30736499195064
 20
61.92087041730011
 30
0.0
 11
36.66984162999135
 21
61.60210873632043
 31
0.0
  0
LWPOLYLINE
  5
152
330
2
100
AcDbEntity
  8
0
100
AcDbPolyline
 90
        9
 70
   128
 43
0.0
 10
37.53505214924852
 20
61.755857395388
 10
37.53067713859998
 20
61.80807120456712
 10
37.51772005008014
 20
61.85390385402588
 10
37.49667962472969
 20
61.89159562207411
 10
37.46836334800626
 20
61.91969490563629
 10
37.43386030747861
 20
61.93712152240633
 10
37.39449708646295
 20
61.94321114262176
 10
37.35178517563034
 20
61.93772223728977
 10
37.30736499195064
 20
61.92087041730011
  0
LINE
  5
153
330
2
100
AcDbEntity
  8
0
100
AcDbLine
 10
37.53505214924852
 20
48.43997114454435
 30
0.0
 11
37.53505214924852
 21
61.755857395388
 31
0.0
  0
ARC
  5
154
330
2
100
AcDbEntity
  8
0
100
AcDbCircle
 10
37.0689696981491
 20
48.4478466691707
 30
0.0
 40
0.4661489838301979
100
AcDbArc
 50
300.7580869202026
 51
359.0319494266001
  0
LINE
  5
155
330
2
100
AcDbEntity
  8
0
100
AcDbLine
 10
36.66984162999135
 20
47.72850720669736
 30
0.0
 11
37.30736499195064
 21
48.04726888767701
 31
0.0
  0
ARC
  5
156
330
2
100
AcDbEntity
  8
0
100
AcDbCircle
 10
37.81132237496495
 20
47.05921441241541
 30
0.0
 40
1.141696527540954
100
AcDbArc
 50
181.1150739997
 51
205.8292562242013
  0
ARC
  5
157
330
2
100
AcDbEntity
  8
0
100
AcDbCircle
 10
36.73145746213257
 20
61.43588168671029
 30
0.0
 40
0.1772792790836979
100
AcDbArc
 50
110.3383688766012
 51
170.3833372823998
  0
LWPOLYLINE
  5
158
330
2
100
AcDbEntity
  8
0
100
AcDbPolyline
 90
        9
 70
   128
 43
0.0
 10
36.66984162999135
 20
47.72850720669736
 10
36.62178903390049
 20
47.69923098070711
 10
36.58608197484176
 20
47.66582953867575
 10
36.56409453525505
 20
47.62958705396781
 10
36.55666940086199
 20
47.59189563325838
 10
36.56409389911659
 20
47.55420453061823
 10
36.58608155077089
 20
47.51796151580566
 10
36.62178903390049
 20
47.48456028584182
 10
36.6698420540944
 20
47.45528342368095
  0
LINE
  5
159
330
2
100
AcDbEntity
  8
0
100
AcDbLine
 10
36.6698420540944
 20
47.45528342368095
 30
0.0
 11
36.6698420540944
 21
47.03699644520622
 31
0.0
  0
ARC
  5
15A
330
2
100
AcDbEntity
  8
0
100
AcDbCircle
 10
43.30758517062523
 20
45.32853893290034
 30
0.0
 40
0.4661489838301502
100
AcDbArc
 50
300.7580869202026
 51
359.0319494266001
  0
LINE
  5
15B
330
2
100
AcDbEntity
  8
0
100
AcDbLine
 10
43.409368466917
 20
58.86986867980079
 30
0.0
 11
42.77184510495771
 21
58.55110699882114
 31
0.0
  0
LWPOLYLINE
  5
15C
330
2
100
AcDbEntity
  8
0
100
AcDbPolyline
 90
        5
 70
   128
 43
0.0
 10
43.409368466917
 20
58.86986867980079
 10
43.45378865059671
 20
58.88672049979049
 10
43.49650056142934
 20
58.8922094051547
 10
43.53586378244497
 20
58.88611978493917
 10
43.55098842941412
 20
58.87848070667338
  0
LINE
  5
15D
330
2
100
AcDbEntity
  8
0
100
AcDbLine
 10
43.77366762175688
 20
45.32066340830627
 30
0.0
 11
43.77366762175688
 21
58.63654965914991
 31
0.0
  0
LINE
  5
15E
330
2
100
AcDbEntity
  8
0
100
AcDbLine
 10
42.9084571024997
 20
44.60919947045923
 30
0.0
 11
43.54598046442684
 21
44.92796115140669
 31
0.0
  0
SPLINE
  5
15F
330
2
100
AcDbEntity
  8
0
100
AcDbSpline
210
0.0
220
0.0
230
1.0
 70
     8
 71
     3
 72
    13
 73
     9
 74
     0
 42
0.000000001
 43
0.0000000001
 40
0.0
 40
0.0
 40
0.0
 40
0.0
 40
0.1469603414355742
 40
0.2756653110385628
 40
0.3899484864391982
 40
0.4952423145366009
 40
0.7124071581740551
 40
1.0
 40
1.0
 40
1.0
 40
1.0
 10
42.61234827325607
 20
58.52349377307518
 30
0.0
 10
42.60078555786903
 20
58.52799926103393
 30
0.0
 10
42.579096444313
 20
58.53645056651811
 30
0.0
 10
42.55230057307329
 20
58.55590541269213
 30
0.0
 10
42.53244219671676
 20
58.57781458124314
 30
0.0
 10
42.51494838994484
 20
58.6102852336177
 30
0.0
 10
42.50364612034325
 20
58.65857461986596
 30
0.0
 10
42.50044567132682
 20
58.69670043062743
 30
0.0
 10
42.49862217016127
 20
58.7184231514092
 30
0.0
  0
ARC
  5
160
330
2
100
AcDbEntity
  8
0
100
AcDbCircle
 10
42.63824004847893
 20
58.84838188087974
 30
0.0
 40
0.3259181900572802
100
AcDbArc
 50
265.4434752290022
 51
294.2007098906985
  0
ARC
  5
161
330
2
100
AcDbEntity
  8
0
100
AcDbCircle
 10
42.63428401226991
 20
45.23063520240946
 30
0.0
 40
0.6792298965430216
100
AcDbArc
 50
258.4788387663029
 51
293.8067359182004
  0
ARC
  5
162
330
2
100
AcDbEntity
  8
0
100
AcDbCircle
 10
36.57135471336204
 20
62.0435185661373
 30
0.0
 40
0.2358581532515741
100
AcDbArc
 50
355.4046941596002
 51
48.89136642379845
  0
ARC
  5
163
330
2
100
AcDbEntity
  8
0
100
AcDbCircle
 10
42.2635221957668
 20
59.19743482495101
 30
0.0
 40
0.2358581532516325
100
AcDbArc
 50
355.4046941596002
 51
48.89136642370111
  0
LINE
  5
164
330
2
100
AcDbEntity
  8
0
100
AcDbLine
 10
35.66802059753678
 20
62.98830519106099
 30
0.0
 11
36.72642880479753
 21
62.22122927100935
 31
0.0
  0
LINE
  5
165
330
2
100
AcDbEntity
  8
0
100
AcDbLine
 10
41.3430982217795
 20
60.15460723689828
 30
0.0
 11
42.41859628720233
 21
59.37514552979083
 31
0.0
  0
LWPOLYLINE
  5
166
330
2
100
AcDbEntity
  8
0
100
AcDbPolyline
 90
        9
 70
   128
 43
0.0
 10
9.301901470483903
 20
48.78218959888822
 10
9.257482135010297
 20
48.76533820300163
 10
9.21476937597159
 20
48.75984887356654
 10
9.1754053067498
 20
48.7659359920215
 10
9.140903114428297
 20
48.78336511055195
 10
9.112586837704846
 20
48.8114643941142
 10
9.091546412322204
 20
48.84915408447282
 10
9.078590172008462
 20
48.89498923572426
 10
9.074215161359921
 20
48.94720304490331
  0
LINE
  5
167
330
2
100
AcDbEntity
  8
0
100
AcDbLine
 10
9.074215161359921
 20
48.94720304490331
 30
0.0
 11
9.074215161359921
 21
49.72800651281329
 31
0.0
  0
LINE
  5
168
330
2
100
AcDbEntity
  8
0
100
AcDbLine
 10
34.68896777192377
 20
61.75457935015301
 30
0.0
 11
34.68896777192377
 21
62.53538281809515
 31
0.0
  0
ARC
  5
169
330
2
100
AcDbEntity
  8
0
100
AcDbCircle
 10
34.22289673229091
 20
61.76245029542593
 30
0.0
 40
0.4661374966134769
100
AcDbArc
 50
300.7574162861996
 51
359.0324885227001
  0
LINE
  5
16A
330
2
100
AcDbEntity
  8
0
100
AcDbLine
 10
9.301901470483903
 20
48.78218959888822
 30
0.0
 11
34.46128146279979
 21
61.36187959504616
 31
0.0
  0
ARC
  5
16B
330
2
100
AcDbEntity
  8
0
100
AcDbCircle
 10
35.57028481159861
 20
62.83327802765419
 30
0.0
 40
0.1832640315076301
100
AcDbArc
 50
57.77090670999935
 51
121.3928301640985
  0
SPLINE
  5
16C
330
2
100
AcDbEntity
  8
0
100
AcDbSpline
210
0.0
220
0.0
230
1.0
 70
     8
 71
     3
 72
    12
 73
     8
 74
     0
 42
0.000000001
 43
0.0000000001
 40
0.0
 40
0.0
 40
0.0
 40
0.0
 40
0.2907095738593555
 40
0.5017138595339624
 40
0.618029282120335
 40
0.7361001424971221
 40
1.0
 40
1.0
 40
1.0
 40
1.0
 10
34.79323836416444
 20
62.74622876184881
 30
0.0
 10
34.81656765480273
 20
62.75438962290917
 30
0.0
 10
34.8568299285591
 20
62.76847384120763
 30
0.0
 10
34.922174897454
 20
62.77121627256055
 30
0.0
 10
34.97410902132077
 20
62.77511656212079
 30
0.0
 10
35.03275832010728
 20
62.78208279306209
 30
0.0
 10
35.07181826454988
 20
62.79368822471415
 30
0.0
 10
35.09880440063288
 20
62.80170630467655
 30
0.0
  0
ARC
  5
16D
330
2
100
AcDbEntity
  8
0
100
AcDbCircle
 10
34.90658175761807
 20
62.55897086982192
 30
0.0
 40
0.2188886542665009
100
AcDbArc
 50
121.1856667045021
 51
186.1863661206994
  0
ARC
  5
16E
330
2
100
AcDbEntity
  8
0
100
AcDbCircle
 10
9.291829147086485
 20
49.75159456457221
 30
0.0
 40
0.218888654266634
100
AcDbArc
 50
121.1856667045021
 51
186.1863661206994
  0
LINE
  5
16F
330
2
100
AcDbEntity
  8
0
100
AcDbLine
 10
9.074214737256873
 20
49.6220979281918
 30
0.0
 11
8.834808862028038
 21
49.50239499057734
 31
0.0
  0
LWPOLYLINE
  5
170
330
2
100
AcDbEntity
  8
0
100
AcDbPolyline
 90
       28
 70
   128
 43
0.0
 10
24.2609174259179
 20
55.10934730828195
 10
24.45151526458771
 20
55.1846999259744
 10
24.67173054380733
 20
55.23604396505355
 10
24.9096914059638
 20
55.26061141409105
 10
25.15256927796701
 20
55.25707792292094
 10
25.38727053770818
 20
55.22563389897131
 10
25.60114252064923
 20
55.16797456082309
 10
25.78265515029157
 20
55.08720828126703
 10
25.92202312212162
 20
54.98768921223619
 10
26.01173309230321
 20
54.87478247603157
 10
26.04694877904347
 20
54.75457488646625
 10
26.02577158160038
 20
54.63354684991244
 10
25.94934325533998
 20
54.51822307114515
 10
25.82178409276675
 20
54.41482061391204
 10
25.64997081462553
 20
54.32891397485754
 10
25.44316590019136
 20
54.26513439358696
 10
25.21251834265691
 20
54.22692023045678
 10
24.97046226951704
 20
54.21633163170309
 10
24.73004709041866
 20
54.23393947510541
 10
24.50423361804166
 20
54.2787944601801
 10
24.3051954799477
 20
54.34847844609507
 10
24.14366292086782
 20
54.43923476091629
 10
24.02834424453919
 20
54.54617075237069
 10
23.96545619667213
 20
54.66352138227347
 10
23.95838921433179
 20
54.78496031827511
 10
24.00752411237472
 20
54.90394074933724
 10
24.11021219053295
 20
55.01404838894702
 10
24.2609174259179
 20
55.10934730828195
  0
LWPOLYLINE
  5
171
330
2
100
AcDbEntity
  8
0
100
AcDbPolyline
 90
       14
 70
   128
 43
0.0
 10
15.77958793864248
 20
49.27487569713969
 10
15.93517451977279
 20
49.17557971272425
 10
16.03871407048439
 20
49.06055210121156
 10
16.08418920174268
 20
48.9364776517747
 10
16.06895671325659
 20
48.81056701043267
 10
15.99390276100496
 20
48.69013812044066
 10
15.86338772419362
 20
48.58218915402198
 10
15.68499789505692
 20
48.49299423943748
 10
15.46909996218722
 20
48.42773672106401
 10
15.22824218223546
 20
48.39020974492214
 10
14.97642089958357
 20
48.38259350069514
 10
14.7282720006776
 20
48.4053310663082
 10
14.49821592944619
 20
48.45710041757706
 10
14.29962480885366
 20
48.5348941322131
  0
LINE
  5
172
330
2
100
AcDbEntity
  8
0
100
AcDbLine
 10
14.07193775755744
 20
50.12870078769831
 30
0.0
 11
15.77958793864248
 21
49.27487569713969
 31
0.0
  0
LWPOLYLINE
  5
173
330
2
100
AcDbEntity
  8
0
100
AcDbPolyline
 90
       14
 70
   128
 43
0.0
 10
12.59197462773645
 20
49.38871922277169
 10
12.43638719843221
 20
49.48801478308404
 10
12.33284849592671
 20
49.60304281869977
 10
12.28737336466841
 20
49.72711726813668
 10
12.30260585315455
 20
49.85302790947866
 10
12.37765980537397
 20
49.97345679947065
 10
12.5081748421853
 20
50.08140576588939
 10
12.68656467135418
 20
50.17060068047385
 10
12.90246260419171
 20
50.23585819884736
 10
13.14332038414347
 20
50.27338517498923
 10
13.39514166682753
 20
50.28100141921619
 10
13.6432905657335
 20
50.25826385360318
 10
13.87334578872659
 20
50.20649407823122
 10
14.07193775755744
 20
50.12870078769831
  0
LINE
  5
174
330
2
100
AcDbEntity
  8
0
100
AcDbLine
 10
14.29962480885366
 20
48.5348941322131
 30
0.0
 11
12.59197462773645
 21
49.38871922277169
 31
0.0
  0
LWPOLYLINE
  5
175
330
2
100
AcDbEntity
  8
0
100
AcDbPolyline
 90
       14
 70
   128
 43
0.0
 10
35.702173755973
 20
59.3500119193693
 10
35.50358252931445
 20
59.27221884087185
 10
35.27352709425374
 20
59.22044906553211
 10
35.02537787727853
 20
59.19771144688599
 10
34.77355704523015
 20
59.20532778388054
 10
34.53269852310606
 20
59.24285491905701
 10
34.3168007559041
 20
59.30811224861114
 10
34.13841086046812
 20
59.39730719629691
 10
34.00789620139217
 20
59.50525607989792
 10
33.93284193107131
 20
59.62568534095994
 10
33.91760925705017
 20
59.75159575700025
 10
33.96308449434229
 20
59.87567036547176
 10
34.06662404502174
 20
59.99069808301818
 10
34.22221020204896
 20
60.08999369633134
  0
LINE
  5
176
330
2
100
AcDbEntity
  8
0
100
AcDbLine
 10
36.55666897675894
 20
59.77725952979453
 30
0.0
 11
35.702173755973
 21
59.3500119193693
 31
0.0
  0
ARC
  5
177
330
2
100
AcDbEntity
  8
0
100
AcDbCircle
 10
36.61846211643521
 20
59.45301256782355
 30
0.0
 40
1.642155760553025
100
AcDbArc
 50
92.15650067960027
 51
114.7921584645977
  0
LINE
  5
178
330
2
100
AcDbEntity
  8
0
100
AcDbLine
 10
34.22221020204896
 20
60.08999369633134
 30
0.0
 11
35.9298604892
 21
60.94381883989074
 31
0.0
  0
LINE
  5
179
330
2
100
AcDbEntity
  8
0
100
AcDbLine
 10
35.09880440062381
 20
62.80170630466752
 30
0.0
 11
35.47482206135924
 21
62.98971513505133
 31
0.0
  0
ARC
  5
17A
330
2
100
AcDbEntity
  8
0
100
AcDbCircle
 10
43.59553022957208
 20
58.65813802977093
 30
0.0
 40
0.1794407652737318
100
AcDbArc
 50
353.0900536563
 51
58.23942947020264
  0
LINE
  5
17B
330
2
100
AcDbEntity
  8
0
100
AcDbLine
 10
30.43495590072453
 20
53.11010134151621
 30
0.0
 11
36.55666940086199
 21
56.17095809160111
 31
0.0
  0
LINE
  5
17C
330
2
100
AcDbEntity
  8
0
100
AcDbLine
 10
7.639788869292901
 20
47.44128934806203
 30
0.0
 11
7.639788869292901
 21
46.98117398336907
 31
0.0
  0
ARC
  5
17D
330
2
100
AcDbEntity
  8
0
100
AcDbCircle
 10
7.360547309975343
 20
46.21933147841958
 30
0.0
 40
0.6518140195981238
100
AcDbArc
 50
85.4429377956999
 51
114.201197541198
  0
SPLINE
  5
17E
330
2
100
AcDbEntity
  8
0
100
AcDbSpline
210
0.0
220
0.0
230
1.0
 70
     8
 71
     3
 72
    12
 73
     8
 74
     0
 42
0.000000001
 43
0.0000000001
 40
0.0
 40
0.0
 40
0.0
 40
0.0
 40
0.3658251292975428
 40
0.5010234273611207
 40
0.6081486147273884
 40
0.7877035295573217
 40
1.0
 40
1.0
 40
1.0
 40
1.0
 10
7.412335178745893
 20
46.86908491843595
 30
0.0
 10
7.454174735330711
 20
46.87120116100443
 30
0.0
 10
7.511476971728812
 20
46.87409950510331
 30
0.0
 10
7.569564278926632
 20
46.88106295795142
 30
0.0
 10
7.603755950488767
 20
46.89344924978611
 30
0.0
 10
7.62931920083986
 20
46.92603375015675
 30
0.0
 10
7.636109846613527
 20
46.96179780454211
 30
0.0
 10
7.639788869283784
 20
46.98117398336926
 30
0.0
  0
LINE
  5
17F
330
2
100
AcDbEntity
  8
0
100
AcDbLine
 10
6.228130784002964
 20
43.25313202083203
 30
0.0
 11
6.228130784002964
 21
46.10239671278132
 31
0.0
  0
ARC
  5
180
330
2
100
AcDbEntity
  8
0
100
AcDbCircle
 10
6.694207575672398
 20
46.09452235018001
 30
0.0
 40
0.4661433055612389
100
AcDbArc
 50
120.7576927895996
 51
179.0320804819996
  0
LINE
  5
181
330
2
100
AcDbEntity
  8
0
100
AcDbLine
 10
6.455817941333049
 20
46.49509689199127
 30
0.0
 11
7.093341303292343
 21
46.81385857297091
 31
0.0
  0
LINE
  5
182
330
2
100
AcDbEntity
  8
0
100
AcDbLine
 10
8.738209169836238
 20
49.40508949961322
 30
0.0
 11
7.679801810749345
 21
47.5796057964038
 31
0.0
  0
ARC
  5
183
330
2
100
AcDbEntity
  8
0
100
AcDbCircle
 10
8.953700893732992
 20
49.28776308219217
 30
0.0
 40
0.2453613076485967
100
AcDbArc
 50
118.9835838228003
 51
151.4335180992009
  0
ARC
  5
184
330
2
100
AcDbEntity
  8
0
100
AcDbCircle
 10
7.923179118760691
 20
47.43425446682294
 30
0.0
 40
0.2834775529964488
100
AcDbArc
 50
149.1532403031987
 51
178.5779812794996
  0
LINE
  5
185
330
2
100
AcDbEntity
  8
0
100
AcDbLine
 10
46.57421325294445
 20
40.30682827632487
 30
0.0
 11
46.57421325294445
 21
45.25142761888695
 31
0.0
  0
ARC
  5
186
330
2
100
AcDbEntity
  8
0
100
AcDbCircle
 10
46.44061180000537
 20
45.26762098724511
 30
0.0
 40
0.1345792457999082
100
AcDbArc
 50
353.0890886472997
 51
58.23966381990278
  0
LINE
  5
187
330
2
100
AcDbEntity
  8
0
100
AcDbLine
 10
3.655271461971543
 20
41.8674626493943
 30
0.0
 11
3.655271461971543
 21
36.40200146974418
 31
0.0
  0
ARC
  5
188
330
2
100
AcDbEntity
  8
0
100
AcDbCircle
 10
7.60012809453313
 20
38.7113847817785
 30
0.0
 40
0.1837874342581498
100
AcDbArc
 50
182.9578255869001
 51
301.7025068327975
  0
LINE
  5
189
330
2
100
AcDbEntity
  8
0
100
AcDbLine
 10
7.696710022470816
 20
38.55502061650071
 30
0.0
 11
9.034531533173801
 21
39.22393137185222
 31
0.0
  0
LWPOLYLINE
  5
18A
330
2
100
AcDbEntity
  8
0
100
AcDbPolyline
 90
        3
 70
   128
 43
0.0
 10
9.062830421800677
 20
39.13350933125416
 10
9.06501792714106
 20
39.10740242666459
 10
9.065104443424012
 20
39.1069179604865
  0
LWPOLYLINE
  5
18B
330
2
100
AcDbEntity
  8
0
100
AcDbPolyline
 90
        3
 70
   128
 43
0.0
 10
10.76817615213376
 20
39.95826890355822
 10
10.76829320361137
 20
39.95904006491588
 10
10.77048070895175
 20
39.98733447481359
  0
LINE
  5
18C
330
2
100
AcDbEntity
  8
0
100
AcDbLine
 10
10.77048070895175
 20
39.98733447481359
 30
0.0
 11
10.77048070895175
 21
40.0919059597412
 31
0.0
  0
LINE
  5
18D
330
2
100
AcDbEntity
  8
0
100
AcDbLine
 10
10.77048070895175
 20
40.0919059597412
 30
0.0
 11
12.13660110828162
 21
40.77496615942223
 31
0.0
  0
ARC
  5
18E
330
2
100
AcDbEntity
  8
0
100
AcDbCircle
 10
11.83861023065568
 20
41.27568575932008
 30
0.0
 40
0.5826823155793447
100
AcDbArc
 50
300.7579452794999
 51
359.0321699896002
  0
LINE
  5
18F
330
2
100
AcDbEntity
  8
0
100
AcDbLine
 10
12.42120941878961
 20
41.26584366244522
 30
0.0
 11
12.42120941878961
 21
41.36529788347513
 31
0.0
  0
ARC
  5
190
330
2
100
AcDbEntity
  8
0
100
AcDbCircle
 10
3.792648163563283
 20
41.88184200336851
 30
0.0
 40
0.1381272021217006
100
AcDbArc
 50
122.6958011166008
 51
185.9754464161999
  0
LWPOLYLINE
  5
191
330
2
100
AcDbEntity
  8
0
100
AcDbPolyline
 90
       18
 70
   128
 43
0.0
 10
13.28155466835429
 20
44.35372595467213
 10
13.30902868345927
 20
44.22799310882026
 10
13.37578449243705
 20
44.14347345020649
 10
13.47280658776336
 20
44.11158341061882
 10
13.58699135448768
 20
44.13663004562096
 10
13.70291789794294
 20
44.21522962410245
 10
13.80492920602546
 20
44.33676646605436
 10
13.87924840583357
 20
44.48482816520807
 10
13.91583822804677
 20
44.63941723427907
 10
13.90975695903258
 20
44.7796547944414
 10
13.86182597348694
 20
44.88660233356742
 10
13.77851851446205
 20
44.94581563039436
 10
13.6710858361829
 20
44.94929609036076
 10
13.55403733744568
 20
44.89657576979123
 10
13.4431809037526
 20
44.79477429676635
 10
13.35348830840124
 20
44.6576396096434
 10
13.29707310595153
 20
44.50369337589928
 10
13.28155466835429
 20
44.35372595467213
  0
LWPOLYLINE
  5
192
330
2
100
AcDbEntity
  8
0
100
AcDbPolyline
 90
       17
 70
   128
 43
0.0
 10
7.998394912164725
 20
35.15199981756155
 10
8.042020333381898
 20
35.11935475703637
 10
8.0573396562202
 20
35.0808477929434
 10
8.042020757484952
 20
35.04234061681508
 10
7.998395336267778
 20
35.00969555628984
 10
7.933105215217375
 20
34.98788284568126
 10
7.856090862960651
 20
34.98022339629753
 10
7.779076934774765
 20
34.98788305774892
 10
7.71378681372436
 20
35.0096957683253
 10
7.670162240745505
 20
35.04234040474745
 10
7.654842069668922
 20
35.0808477929434
 10
7.670161392539401
 20
35.11935475703637
 10
7.71378681372436
 20
35.15199981756155
 10
7.779076934774765
 20
35.17381252813797
 10
7.856090862960651
 20
35.18147218958927
 10
7.933105639320428
 20
35.17381210406711
 10
7.998394912164725
 20
35.15199981756155
  0
LINE
  5
193
330
2
100
AcDbEntity
  8
0
100
AcDbLine
 10
0.0008992028799457
 20
33.1450966721393
 30
0.0
 11
0.2285863602100287
 21
32.9800820920164
 31
0.0
  0
LINE
  5
194
330
2
100
AcDbEntity
  8
0
100
AcDbLine
 10
0.0008992028799457
 20
34.455730174325
 30
0.0
 11
0.0008992028799457
 21
33.1450966721393
 31
0.0
  0
LINE
  5
195
330
2
100
AcDbEntity
  8
0
100
AcDbLine
 10
36.19739306869601
 20
44.06552009292121
 30
0.0
 11
36.19739306869601
 21
45.37615359510688
 31
0.0
  0
LINE
  5
196
330
2
100
AcDbEntity
  8
0
100
AcDbLine
 10
35.9697061234014
 20
43.90050540676447
 30
0.0
 11
36.19739306869601
 21
44.06552009292121
 31
0.0
  0
LINE
  5
197
330
2
100
AcDbEntity
  8
0
100
AcDbLine
 10
0.2285863602100287
 20
32.9800820920164
 30
0.0
 11
0.3651989938583131
 21
32.91177577517616
 31
0.0
  0
LINE
  5
198
330
2
100
AcDbEntity
  8
0
100
AcDbLine
 10
29.01956955657132
 20
47.23896105653262
 30
0.0
 11
0.3651989938583131
 21
32.91177577517616
 31
0.0
  0
LINE
  5
199
330
2
100
AcDbEntity
  8
0
100
AcDbLine
 10
35.83309348972088
 20
43.83219908992422
 30
0.0
 11
35.9697061234014
 21
43.90050540676447
 31
0.0
  0
LINE
  5
19A
330
2
100
AcDbEntity
  8
0
100
AcDbLine
 10
29.01956955657132
 20
47.23896105653262
 30
0.0
 11
35.83309348972088
 21
43.83219908992422
 31
0.0
  0
LWPOLYLINE
  5
19B
330
2
100
AcDbEntity
  8
0
100
AcDbPolyline
 90
        4
 70
   128
 43
0.0
 10
29.01956955656986
 20
49.01111964372519
 10
28.97959223944817
 20
49.026286065385
 10
28.9411510107816
 20
49.0312248802984
 10
28.90572343331871
 20
49.02574580796851
  0
ARC
  5
19C
330
2
100
AcDbEntity
  8
0
100
AcDbCircle
 10
0.165756429466824
 20
34.47298184847146
 30
0.0
 40
0.1657574294681908
100
AcDbArc
 50
122.6965898753998
 51
185.9740392156
  0
LWPOLYLINE
  5
19D
330
2
100
AcDbEntity
  8
0
100
AcDbPolyline
 90
        4
 70
   128
 43
0.0
 10
29.14917097699504
 20
49.01934996776512
 10
29.09798725415206
 20
49.0312244561953
 10
29.0595468736916
 20
49.026286065385
 10
29.01956955656986
 20
49.01111964372519
  0
ARC
  5
19E
330
2
100
AcDbEntity
  8
0
100
AcDbCircle
 10
36.03706655280387
 20
45.39558231479107
 30
0.0
 40
0.1614994329358333
100
AcDbArc
 50
353.0904625094998
 51
58.23890839960168
  0
LINE
  5
19F
330
2
100
AcDbEntity
  8
0
100
AcDbLine
 10
42.70826516523427
 20
41.8846456913595
 30
0.0
 11
42.82307569078598
 21
41.94205095416757
 31
0.0
  0
LINE
  5
1A0
330
2
100
AcDbEntity
  8
0
100
AcDbLine
 10
50.00089920287994
 20
37.16376702582923
 30
0.0
 11
50.00089920287994
 21
38.4744005280149
 31
0.0
  0
LINE
  5
1A1
330
2
100
AcDbEntity
  8
0
100
AcDbLine
 10
49.77321204558204
 20
36.9987524457063
 30
0.0
 11
50.00089920287994
 21
37.16376702582923
 31
0.0
  0
LINE
  5
1A2
330
2
100
AcDbEntity
  8
0
100
AcDbLine
 10
43.11906810471473
 20
40.18921178245947
 30
0.0
 11
42.89138115942008
 21
40.58191341387868
 31
0.0
  0
LWPOLYLINE
  5
1A3
330
2
100
AcDbEntity
  8
0
100
AcDbPolyline
 90
        9
 70
   128
 43
0.0
 10
42.82307569078598
 20
41.94205095416757
 10
42.83640089769985
 20
41.94710649157356
 10
42.8492154887841
 20
41.94875284105964
 10
42.86102411582245
 20
41.94692723972039
 10
42.87137553689796
 20
41.94169909359395
 10
42.8798694020741
 20
41.93326817631085
 10
42.88618169932045
 20
41.92196176956179
 10
42.89006814730508
 20
41.90821142765343
 10
42.89138115942008
 20
41.89254691606435
  0
LWPOLYLINE
  5
1A4
330
2
100
AcDbEntity
  8
0
100
AcDbPolyline
 90
        4
 70
   128
 43
0.0
 10
42.82307569078598
 20
42.10936657660111
 10
42.86305300790767
 20
42.12453299829311
 10
42.90149338836816
 20
42.12947138910342
 10
42.95267711121113
 20
42.11759690067323
  0
LINE
  5
1A5
330
2
100
AcDbEntity
  8
0
100
AcDbLine
 10
42.89138115942008
 20
40.58191341387868
 30
0.0
 11
42.89138115942008
 21
41.89254691606435
 31
0.0
  0
LINE
  5
1A6
330
2
100
AcDbEntity
  8
0
100
AcDbLine
 10
42.5409502709339
 20
41.96830386667508
 30
0.0
 11
42.82307569078598
 21
42.10936657660111
 31
0.0
  0
LINE
  5
1A7
330
2
100
AcDbEntity
  8
0
100
AcDbLine
 10
49.63659941190155
 20
36.93044612886606
 30
0.0
 11
49.77321204558204
 21
36.9987524457063
 31
0.0
  0
LINE
  5
1A8
330
2
100
AcDbEntity
  8
0
100
AcDbLine
 10
43.11906810471473
 20
40.18921178245947
 30
0.0
 11
49.63659941190155
 21
36.93044612886606
 31
0.0
  0
ARC
  5
1A9
330
2
100
AcDbEntity
  8
0
100
AcDbCircle
 10
49.83604125730458
 20
38.49165185669018
 30
0.0
 40
0.1657581085905195
100
AcDbArc
 50
354.0261054191
 51
57.30326549000174
  0
LINE
  5
1AA
330
2
100
AcDbEntity
  8
0
100
AcDbLine
 10
50.00089920287994
 20
36.95884892351462
 30
0.0
 11
49.77321204558204
 21
36.56614718606166
 31
0.0
  0
LINE
  5
1AB
330
2
100
AcDbEntity
  8
0
100
AcDbLine
 10
50.00089920287994
 20
37.16376698223076
 30
0.0
 11
50.00089920287994
 21
36.95884892351462
 31
0.0
  0
LINE
  5
1AC
330
2
100
AcDbEntity
  8
0
100
AcDbLine
 10
49.77321204558204
 20
36.56614718606166
 30
0.0
 11
49.72717180171821
 21
36.54312706412973
 31
0.0
  0
LINE
  5
1AD
330
2
100
AcDbEntity
  8
0
100
AcDbLine
 10
0.2285863602100287
 20
32.54747683237172
 30
0.0
 11
0.0008992028799457
 21
32.94017856982468
 31
0.0
  0
LINE
  5
1AE
330
2
100
AcDbEntity
  8
0
100
AcDbLine
 10
0.0008992028799457
 20
33.14509662854085
 30
0.0
 11
0.0008992028799457
 21
32.94017856982468
 31
0.0
  0
LINE
  5
1AF
330
2
100
AcDbEntity
  8
0
100
AcDbLine
 10
0.2285863602100287
 20
32.54747683237172
 30
0.0
 11
0.2746266040416454
 21
32.52445671043981
 31
0.0
  0
LWPOLYLINE
  5
1B0
330
2
100
AcDbEntity
  8
0
100
AcDbPolyline
 90
       17
 70
   128
 43
0.0
 10
18.52890473341484
 20
40.41725472818662
 10
18.57253026063364
 20
40.3846097206622
 10
18.58784921240187
 20
40.34610257103426
 10
18.5725301545998
 20
40.30759531537246
 10
18.5289050514841
 20
40.27495041388191
 10
18.46361524850291
 20
40.25313786234014
 10
18.38660073721157
 20
40.24547833342302
 10
18.30958641142302
 20
40.25313779607301
 10
18.24429639640642
 20
40.27495055968243
 10
18.20067171739376
 20
40.30759514307154
 10
18.18535194391981
 20
40.34610273006889
 10
18.20067142582493
 20
40.38460977366304
 10
18.24429652894067
 20
40.41725467515361
 10
18.30958633192182
 20
40.43906722672757
 10
18.3866004191101
 20
40.44672696764791
 10
18.46361556657216
 20
40.43906706769297
 10
18.52890473341484
 20
40.41725472818662
  0
LINE
  5
1B1
330
2
100
AcDbEntity
  8
0
100
AcDbLine
 10
1.771164391283267
 20
25.24274833021315
 30
0.0
 11
1.99885070040721
 21
25.63544961110573
 31
0.0
  0
LINE
  5
1B2
330
2
100
AcDbEntity
  8
0
100
AcDbLine
 10
1.771164391283267
 20
25.24274833021315
 30
0.0
 11
0.3595067301285957
 21
24.53691949961973
 31
0.0
  0
LINE
  5
1B3
330
2
100
AcDbEntity
  8
0
100
AcDbLine
 10
1.99885070040721
 20
33.72860190388737
 30
0.0
 11
1.99885070040721
 21
25.63544961110573
 31
0.0
  0
LWPOLYLINE
  5
1B4
330
2
100
AcDbEntity
  8
0
100
AcDbPolyline
 90
        9
 70
   128
 43
0.0
 10
0.3595067301285957
 20
24.53691949961973
 10
0.323466752939652
 20
24.51496217109247
 10
0.2966857164652946
 20
24.48991061245699
 10
0.2801950307414495
 20
24.4627283778399
 10
0.2746266040416454
 20
24.43446002437546
 10
0.2801958789475903
 20
24.40619209498188
 10
0.2966865646713988
 20
24.37900986036479
 10
0.323466752939652
 20
24.35395872583236
 10
0.3595067301285957
 20
24.3320013973051
  0
LINE
  5
1B5
330
2
100
AcDbEntity
  8
0
100
AcDbLine
 10
2.585144536779802
 20
27.42528829395692
 30
0.0
 11
2.585144536779802
 21
30.39696269589718
 31
0.0
  0
LINE
  5
1B6
330
2
100
AcDbEntity
  8
0
100
AcDbLine
 10
20.25363265999335
 20
14.60971472628743
 30
0.0
 11
20.25363265999335
 21
14.61827395005613
 31
0.0
  0
LINE
  5
1B7
330
2
100
AcDbEntity
  8
0
100
AcDbLine
 10
2.858368955934659
 20
30.26035048631974
 30
0.0
 11
2.858368955934659
 21
30.19063581676916
 31
0.0
  0
LWPOLYLINE
  5
1B8
330
2
100
AcDbEntity
  8
0
100
AcDbPolyline
 90
        9
 70
   128
 43
0.0
 10
2.585144536779802
 20
30.39696269589718
 10
2.595543457011238
 20
30.45579188344554
 10
2.625157478268461
 20
30.49526568333599
 10
2.669477574464007
 20
30.50937473647813
 10
2.72175632225416
 20
30.49597138679704
 10
2.774035918250453
 20
30.45709556458492
 10
2.818356014445999
 20
30.39866641524721
 10
2.847970035703184
 20
30.32957859409957
 10
2.858368955934659
 20
30.26035048631974
  0
LINE
  5
1B9
330
2
100
AcDbEntity
  8
0
100
AcDbLine
 10
0.3595067301285957
 20
24.3320013973051
 30
0.0
 11
0.7825205550316675
 21
24.12049448486968
 31
0.0
  0
LINE
  5
1BA
330
2
100
AcDbEntity
  8
0
100
AcDbLine
 10
3.470531166603215
 20
34.46444251079237
 30
0.0
 11
6.305573688840209
 21
33.04692124965779
 31
0.0
  0
LINE
  5
1BB
330
2
100
AcDbEntity
  8
0
100
AcDbLine
 10
3.19989799551752
 20
30.27774304475818
 30
0.0
 11
3.655271461971543
 21
30.27774346886124
 31
0.0
  0
LINE
  5
1BC
330
2
100
AcDbEntity
  8
0
100
AcDbLine
 10
4.338331661652564
 20
29.93621336903683
 30
0.0
 11
3.655271461971543
 21
30.27774346886124
 31
0.0
  0
LWPOLYLINE
  5
1BD
330
2
100
AcDbEntity
  8
0
100
AcDbPolyline
 90
        5
 70
   128
 43
0.0
 10
2.797073004143622
 20
29.96558531277813
 10
2.756291594356527
 20
30.00016416097849
 10
2.737354702585263
 20
30.0340854589153
 10
2.725693662186983
 20
30.07533563636983
 10
2.72175632225416
 20
30.12232949992894
  0
LWPOLYLINE
  5
1BE
330
2
100
AcDbEntity
  8
0
100
AcDbPolyline
 90
        9
 70
   128
 43
0.0
 10
2.926674424568804
 20
30.14113125928381
 10
2.913349217654891
 20
30.13607572184561
 10
2.900534626570657
 20
30.13442937239173
 10
2.888725999532285
 20
30.13625549314533
 10
2.878374578456776
 20
30.14148363927173
 10
2.869879016900607
 20
30.14991318893438
 10
2.863568416034289
 20
30.1612209633039
 10
2.859680271637424
 20
30.17497045700614
 10
2.858368955934659
 20
30.19063581676916
  0
LINE
  5
1BF
330
2
100
AcDbEntity
  8
0
100
AcDbLine
 10
2.926674424568804
 20
30.14113125928381
 30
0.0
 11
3.19989799551752
 21
30.27774304475818
 31
0.0
  0
LINE
  5
1C0
330
2
100
AcDbEntity
  8
0
100
AcDbLine
 10
2.72175632225416
 20
30.12232949992894
 30
0.0
 11
2.72175632225416
 21
30.19204416951171
 31
0.0
  0
ARC
  5
1C1
330
2
100
AcDbEntity
  8
0
100
AcDbCircle
 10
2.441267202600297
 20
30.18705303713453
 30
0.0
 40
0.2805335232281136
100
AcDbArc
 50
1.019435768000326
 51
58.59228288569959
  0
ARC
  5
1C2
330
2
100
AcDbEntity
  8
0
100
AcDbCircle
 10
29.0024918626604
 20
38.53349427170039
 30
0.0
 40
0.1686086297041534
100
AcDbArc
 50
66.10148543040248
 51
113.8981588300025
  0
LWPOLYLINE
  5
1C3
330
2
100
AcDbEntity
  8
0
100
AcDbPolyline
 90
        9
 70
   128
 43
0.0
 10
48.00863996911454
 20
34.7233575307917
 10
48.01082747442277
 20
34.7494649547956
 10
48.01730517050871
 20
34.77238222302628
 10
48.02782538318396
 20
34.79122758761992
 10
48.04198352154571
 20
34.80527722940103
 10
48.05923504180951
 20
34.81399105723261
 10
48.07891750050738
 20
34.81703440440858
 10
48.10027345592366
 20
34.81429099053904
 10
48.1224826995735
 20
34.80586550464727
  0
LINE
  5
1C4
330
2
100
AcDbEntity
  8
0
100
AcDbLine
 10
48.00863996911454
 20
34.16564121318355
 30
0.0
 11
48.00863996911454
 21
34.7233575307917
 31
0.0
  0
ARC
  5
1C5
330
2
100
AcDbEntity
  8
0
100
AcDbCircle
 10
48.24167696361565
 20
34.16957696988633
 30
0.0
 40
0.2330702276002184
100
AcDbArc
 50
180.9675751757996
 51
239.2422569397006
  0
LINE
  5
1C6
330
2
100
AcDbEntity
  8
0
100
AcDbLine
 10
49.2609167897794
 20
33.40007398313214
 30
0.0
 11
48.1224826995735
 21
33.96929102825122
 31
0.0
  0
LWPOLYLINE
  5
1C7
330
2
100
AcDbEntity
  8
0
100
AcDbPolyline
 90
        9
 70
   128
 43
0.0
 10
49.37475952027049
 20
33.48258143760561
 10
49.37257201493015
 20
33.45647401360172
 10
49.36609431887635
 20
33.43355726475319
 10
49.35557410616896
 20
33.41471190015951
 10
49.34141596780722
 20
33.40066225837837
 10
49.32416444754338
 20
33.39194791116468
 10
49.30448283705166
 20
33.38890413988568
 10
49.28312603342924
 20
33.39164849724039
 10
49.2609167897794
 20
33.40007398313214
  0
LINE
  5
1C8
330
2
100
AcDbEntity
  8
0
100
AcDbLine
 10
49.37475952027049
 20
34.04029775521369
 30
0.0
 11
49.37475952027049
 21
33.48258143760561
 31
0.0
  0
ARC
  5
1C9
330
2
100
AcDbEntity
  8
0
100
AcDbCircle
 10
49.14172226527337
 20
34.03636237730895
 30
0.0
 40
0.2330704816351487
100
AcDbArc
 50
0.9674809855996524
 51
59.24221959250012
  0
LINE
  5
1CA
330
2
100
AcDbEntity
  8
0
100
AcDbLine
 10
48.1224826995735
 20
34.80586550464727
 30
0.0
 11
49.2609167897794
 21
34.23664845952825
 31
0.0
  0
LWPOLYLINE
  5
1CB
330
2
100
AcDbEntity
  8
0
100
AcDbPolyline
 90
        9
 70
   128
 43
0.0
 10
30.84106257417981
 20
42.74942991063482
 10
30.83887506883949
 20
42.72332248663096
 10
30.83239737278566
 20
42.70040573781463
 10
30.82187716011045
 20
42.68156037322095
 10
30.80771902171655
 20
42.66751073143981
 10
30.79046750148489
 20
42.65879638419391
 10
30.77078504275487
 20
42.65575303701798
 10
30.74942908733856
 20
42.65849697030184
 10
30.72721984368872
 20
42.6669224561936
  0
LINE
  5
1CC
330
2
100
AcDbEntity
  8
0
100
AcDbLine
 10
30.84106257417981
 20
42.74942991063482
 30
0.0
 11
30.84106257417981
 21
43.30714622824297
 31
0.0
  0
ARC
  5
1CD
330
2
100
AcDbEntity
  8
0
100
AcDbCircle
 10
30.60802447818931
 20
43.30321036276941
 30
0.0
 40
0.2330713307494378
100
AcDbArc
 50
0.9675973456002784
 51
59.24210323250053
  0
LINE
  5
1CE
330
2
100
AcDbEntity
  8
0
100
AcDbLine
 10
30.72721984368872
 20
43.50349693258968
 30
0.0
 11
29.58878575348281
 21
44.07271397770871
 31
0.0
  0
LWPOLYLINE
  5
1CF
330
2
100
AcDbEntity
  8
0
100
AcDbPolyline
 90
        9
 70
   128
 43
0.0
 10
29.47494302302388
 20
43.99020600382092
 10
29.47713052833206
 20
44.0163134278248
 10
29.48360822441808
 20
44.03923069608771
 10
29.49412843709329
 20
44.05807606068137
 10
29.50828657545499
 20
44.0721257024625
 10
29.52553809571883
 20
44.08083953026184
 10
29.54521970621055
 20
44.08388330154084
 10
29.56657650983297
 20
44.0811394636005
 10
29.58878575348281
 20
44.07271397770871
  0
LINE
  5
1D0
330
2
100
AcDbEntity
  8
0
100
AcDbLine
 10
29.47494302302388
 20
43.99020600382092
 30
0.0
 11
29.47494302302388
 21
43.43248968621284
 31
0.0
  0
ARC
  5
1D1
330
2
100
AcDbEntity
  8
0
100
AcDbCircle
 10
29.7079791765638
 20
43.43642495534675
 30
0.0
 40
0.2330693785256793
100
AcDbArc
 50
180.9674588202996
 51
239.2423732952005
  0
LINE
  5
1D2
330
2
100
AcDbEntity
  8
0
100
AcDbLine
 10
29.58878575348281
 20
43.23613950131266
 30
0.0
 11
30.72721984368872
 21
42.6669224561936
 31
0.0
  0
LWPOLYLINE
  5
1D3
330
2
100
AcDbEntity
  8
0
100
AcDbPolyline
 90
       17
 70
   128
 43
0.0
 10
30.34584410963074
 20
45.54859095829968
 10
30.3315460184518
 20
45.64377958920164
 10
30.29082652716355
 20
45.73877544934162
 10
30.22988681897759
 20
45.81911577210095
 10
30.15800279860186
 20
45.87256981559109
 10
30.08611877819395
 20
45.89099979250883
 10
30.02517907004019
 20
45.87159917790332
 10
29.98445957875195
 20
45.8173228090516
 10
29.9701614875408
 20
45.7364322693608
 10
29.98445957875195
 20
45.64124415787318
 10
30.02517907004019
 20
45.54624777835099
 10
30.08611877819395
 20
45.46590797497392
 10
30.15800279860186
 20
45.41245393148375
 10
30.22988681897759
 20
45.39402395459816
 10
30.29082652716355
 20
45.41342404978936
 10
30.3315460184518
 20
45.46770093802328
 10
30.34584410963074
 20
45.54859095829968
  0
LWPOLYLINE
  5
1D4
330
2
100
AcDbEntity
  8
0
100
AcDbPolyline
 90
       17
 70
   128
 43
0.0
 10
30.34584410963074
 20
41.811892357573
 10
30.3315460184518
 20
41.90708072878392
 10
30.29082652716355
 20
42.0020765888917
 10
30.22988681897759
 20
42.0824169116832
 10
30.15800279860186
 20
42.13587095514113
 10
30.08611877819395
 20
42.15430093205891
 10
30.02517907004019
 20
42.1349003174534
 10
29.98445957875195
 20
42.08062394860163
 10
29.9701614875408
 20
41.99973366863412
 10
29.98445957875195
 20
41.9045452974232
 10
30.02517907004019
 20
41.80954943731542
 10
30.08611877819395
 20
41.72920911452396
 10
30.15800279860186
 20
41.67575507103382
 10
30.22988681897759
 20
41.65732509414825
 10
30.29082652716355
 20
41.67672570875375
 10
30.3315460184518
 20
41.73100207757328
 10
30.34584410963074
 20
41.811892357573
  0
LINE
  5
1D5
330
2
100
AcDbEntity
  8
0
100
AcDbLine
 10
31.29643604060167
 20
43.7260925528264
 30
0.0
 11
31.29643604060168
 21
38.12972806906682
 31
0.0
  0
LINE
  5
1D6
330
2
100
AcDbEntity
  8
0
100
AcDbLine
 10
36.30554353539305
 20
44.96692161887024
 30
0.0
 11
36.30554353539305
 21
44.89720694931963
 31
0.0
  0
ARC
  5
1D7
330
2
100
AcDbEntity
  8
0
100
AcDbCircle
 10
36.58519052911824
 20
44.9019303753283
 30
0.0
 40
0.2796868818093519
100
AcDbArc
 50
180.9676722709
 51
239.2421269610021
  0
LWPOLYLINE
  5
1D8
330
2
100
AcDbEntity
  8
0
100
AcDbPolyline
 90
        9
 70
   128
 43
0.0
 10
36.57876753044482
 20
44.76059495180986
 10
36.57614256645634
 20
44.72926539849477
 10
36.56836861021336
 20
44.70176524484713
 10
36.55574422775608
 20
44.67915128648646
 10
36.53875480099161
 20
44.66229133892289
 10
36.51805323114971
 20
44.65183441056376
 10
36.49443470479603
 20
44.64818176636639
 10
36.46880721903976
 20
44.65147465592891
 10
36.44215553290282
 20
44.66158532811511
  0
LINE
  5
1D9
330
2
100
AcDbEntity
  8
0
100
AcDbLine
 10
36.57876753044482
 20
44.76059495180986
 30
0.0
 11
36.57876753044482
 21
47.5274962114766
 31
0.0
  0
LINE
  5
1DA
330
2
100
AcDbEntity
  8
0
100
AcDbLine
 10
42.27093501284959
 20
43.77890517555737
 30
0.0
 11
42.27093501284959
 21
41.96197324114751
 31
0.0
  0
LINE
  5
1DB
330
2
100
AcDbEntity
  8
0
100
AcDbLine
 10
47.55326650266055
 20
36.62419321681084
 30
0.0
 11
47.55326650266055
 21
30.00131283803738
 31
0.0
  0
LWPOLYLINE
  5
1DC
330
2
100
AcDbEntity
  8
0
100
AcDbPolyline
 90
       17
 70
   128
 43
0.0
 10
48.87954105572142
 20
32.54504388451156
 10
48.86524296454249
 20
32.64023225572246
 10
48.82452347325422
 20
32.73522811583026
 10
48.76358376506826
 20
32.81556843862173
 10
48.69169974469254
 20
32.86902248211188
 10
48.61981572428463
 20
32.88745245899747
 10
48.55887601613087
 20
32.86805184439197
 10
48.51815652484267
 20
32.81377547557236
 10
48.50385843363147
 20
32.73288519557267
 10
48.51815652484267
 20
32.63769682439399
 10
48.55887601613087
 20
32.54270096425396
 10
48.61981572428463
 20
32.46236064149472
 10
48.69169974469254
 20
32.40890659800456
 10
48.76358376506826
 20
32.39047662108681
 10
48.82452347325422
 20
32.40987723569231
 10
48.86524296454249
 20
32.46415360454405
 10
48.87954105572142
 20
32.54504388451156
  0
LWPOLYLINE
  5
1DD
330
2
100
AcDbEntity
  8
0
100
AcDbPolyline
 90
       17
 70
   128
 43
0.0
 10
48.87954105572142
 20
36.28174248527047
 10
48.86524296454249
 20
36.37693111617244
 10
48.82452347325422
 20
36.47192697628025
 10
48.76358376506826
 20
36.55226729907167
 10
48.69169974469254
 20
36.60572134256181
 10
48.61981572428463
 20
36.62415131944739
 10
48.55887601613087
 20
36.60475070484188
 10
48.51815652484267
 20
36.55047433602235
 10
48.50385843363147
 20
36.46958379633155
 10
48.51815652484267
 20
36.37439568481171
 10
48.55887601613087
 20
36.27939930528958
 10
48.61981572428463
 20
36.19905950191247
 10
48.69169974469254
 20
36.14560545845453
 10
48.76358376506826
 20
36.12717548153676
 10
48.82452347325422
 20
36.14657557672791
 10
48.86524296454249
 20
36.20085246499403
 10
48.87954105572142
 20
36.28174248527047
  0
LINE
  5
1DE
330
2
100
AcDbEntity
  8
0
100
AcDbLine
 10
27.52252878732143
 20
37.98181874272565
 30
0.0
 11
28.93418644847607
 21
38.68764757331908
 31
0.0
  0
LINE
  5
1DF
330
2
100
AcDbEntity
  8
0
100
AcDbLine
 10
27.38591700184704
 20
38.05012463546286
 30
0.0
 11
27.52252878732143
 21
37.98181874272565
 31
0.0
  0
LINE
  5
1E0
330
2
100
AcDbEntity
  8
0
100
AcDbLine
 10
29.07079823395046
 20
38.68764714921604
 30
0.0
 11
29.74816574576653
 21
38.34896339330802
 31
0.0
  0
LINE
  5
1E1
330
2
100
AcDbEntity
  8
0
100
AcDbLine
 10
29.74816574576653
 20
38.34896339330802
 30
0.0
 11
29.65162018578264
 21
38.30069061331606
 31
0.0
  0
LINE
  5
1E2
330
2
100
AcDbEntity
  8
0
100
AcDbLine
 10
27.1582306927231
 20
38.21513960726368
 30
0.0
 11
27.38591700184704
 21
38.05012463546286
 31
0.0
  0
LINE
  5
1E3
330
2
100
AcDbEntity
  8
0
100
AcDbLine
 10
27.1582306927231
 20
46.30829190004532
 30
0.0
 11
27.1582306927231
 21
38.21513960726368
 31
0.0
  0
LWPOLYLINE
  5
1E4
330
2
100
AcDbEntity
  8
0
100
AcDbPolyline
 90
        7
 70
   128
 43
0.0
 10
31.29643604060168
 20
38.12972806906682
 10
31.27520561865971
 20
37.98838773627614
 10
31.21474429472874
 20
37.84733367031167
 10
31.12425672481495
 20
37.72804005912224
 10
31.01752020592321
 20
37.64866895912883
 10
30.91078368699923
 20
37.62130354019833
 10
30.8411177070942
 20
37.63746575255043
  0
LINE
  5
1E5
330
2
100
AcDbEntity
  8
0
100
AcDbLine
 10
30.7044270391275
 20
42.6783182639378
 30
0.0
 11
30.70444994049936
 21
42.68112359382681
 31
0.0
  0
ARC
  5
1E6
330
2
100
AcDbEntity
  8
0
100
AcDbCircle
 10
29.65255806713837
 20
45.38978869432702
 30
0.0
 40
0.4223826629732468
100
AcDbArc
 50
14.06378778460012
 51
39.06640985359844
  0
ARC
  5
1E7
330
2
100
AcDbEntity
  8
0
100
AcDbCircle
 10
36.14069306116052
 20
44.98417653762561
 30
0.0
 40
0.1657510514872224
100
AcDbArc
 50
354.0246023789996
 51
57.30476853010038
  0
LINE
  5
1E8
330
2
100
AcDbEntity
  8
0
100
AcDbLine
 10
43.31260167950552
 20
37.71800973339053
 30
0.0
 11
46.34652694382051
 21
36.20104710121696
 31
0.0
  0
LINE
  5
1E9
330
2
100
AcDbEntity
  8
0
100
AcDbLine
 10
34.20513362286304
 20
42.27174376169569
 30
0.0
 11
43.31260167950552
 21
37.71800973339053
 31
0.0
  0
ARC
  5
1EA
330
2
100
AcDbEntity
  8
0
100
AcDbCircle
 10
34.07990977370806
 20
42.1209090887119
 30
0.0
 40
0.1960410951195553
100
AcDbArc
 50
50.30033933590109
 51
76.56955830990018
  0
LINE
  5
1EB
330
2
100
AcDbEntity
  8
0
100
AcDbLine
 10
31.29643604060168
 20
43.72609255282639
 30
0.0
 11
34.12544320260203
 21
42.31158897182617
 31
0.0
  0
LWPOLYLINE
  5
1EC
330
2
100
AcDbEntity
  8
0
100
AcDbPolyline
 90
        8
 70
   128
 43
0.0
 10
47.07075321762517
 20
29.52672920365475
 10
47.07712657914439
 20
29.52169435047673
 10
47.16761414905814
 20
29.49288830920108
 10
47.27435066794988
 20
29.52025372809938
 10
47.38108718687387
 20
29.59962482809282
 10
47.47157475678759
 20
29.71891843931441
 10
47.53203608071858
 20
29.85997250524672
 10
47.55326650266055
 20
30.00131283803738
  0
LINE
  5
1ED
330
2
100
AcDbEntity
  8
0
100
AcDbLine
 10
42.27093543695261
 20
41.96197345319901
 30
0.0
 11
42.41227297866705
 21
42.03264222402279
 31
0.0
  0
LWPOLYLINE
  5
1EE
330
2
100
AcDbEntity
  8
0
100
AcDbPolyline
 90
        5
 70
   128
 43
0.0
 10
49.64229167566351
 20
28.33359495974151
 10
49.67833165282018
 20
28.35555228826877
 10
49.70511268929459
 20
28.38060384690424
 10
49.7216033750184
 20
28.40778608152133
 10
49.72717180171821
 20
28.43605443498577
  0
LINE
  5
1EF
330
2
100
AcDbEntity
  8
0
100
AcDbLine
 10
49.20357259732853
 20
28.11423542057402
 30
0.0
 11
49.64229167566351
 21
28.33359495974151
 31
0.0
  0
LINE
  5
1F0
330
2
100
AcDbEntity
  8
0
100
AcDbLine
 10
49.23812398521818
 20
33.41146979090858
 30
0.0
 11
49.23814688659003
 21
33.41427512076537
 31
0.0
  0
LWPOLYLINE
  5
1F1
330
2
100
AcDbEntity
  8
0
100
AcDbPolyline
 90
       17
 70
   128
 43
0.0
 10
30.76990546035724
 20
39.2140470225149
 10
30.66399084633044
 20
39.19158036183365
 10
30.54340069249555
 20
39.22536647824946
 10
30.4226807642202
 20
39.3113298700273
 10
30.31639039800868
 20
39.43910269466423
 10
30.23735012232374
 20
39.59327347556918
 10
30.19509454258038
 20
39.7552463964598
 10
30.19471963860179
 20
39.90548545767494
 10
30.23626951675172
 20
40.02587015462144
 10
30.3147338652837
 20
40.10187965130906
 10
30.42064932751661
 20
40.12434585539771
 10
30.54123948135148
 20
40.09055983638618
 10
30.66195940962684
 20
40.004596412151
 10
30.76824977583832
 20
39.87682355505668
 10
30.84728920331718
 20
39.72265326316953
 10
30.88954563126669
 20
39.56067985326111
 10
30.89000365873591
 20
39.4109881156036
  0
LWPOLYLINE
  5
1F2
330
2
100
AcDbEntity
  8
0
100
AcDbPolyline
 90
       19
 70
   128
 43
0.0
 10
30.95144889354704
 20
47.92518021687347
 10
31.03206936401864
 20
47.77188191693423
 10
31.07627580156107
 20
47.60983513948322
 10
31.07873473057141
 20
47.45858341261466
 10
31.03915097780175
 20
47.33637017732426
 10
30.96229905566327
 20
47.25793636389037
 10
30.85744638680282
 20
47.23274307146876
 10
30.73724216356158
 20
47.26382761667116
 10
30.6161838038485
 20
47.34744110013472
 10
30.50887220600991
 20
47.47349953454956
 10
30.42825173550614
 20
47.62679679569235
 10
30.38404529796371
 20
47.78884461193982
 10
30.38158636895337
 20
47.9400963388083
 10
30.42117012172303
 20
48.06230905471664
 10
30.49802204389369
 20
48.14074286815055
 10
30.60287386454804
 20
48.16593710405726
 10
30.72307893599538
 20
48.13485213475193
 10
30.84413729567625
 20
48.05123813190614
 10
30.95144889354704
 20
47.92518021687347
  0
LWPOLYLINE
  5
1F3
330
2
100
AcDbEntity
  8
0
100
AcDbPolyline
 90
       16
 70
   128
 43
0.0
 10
28.2176669171955
 20
36.64785719377163
 10
28.10346030934089
 20
36.71300651379871
 10
28.04070545523921
 20
36.79375675874298
 10
28.03697168306691
 20
36.88036975542889
 10
28.09271023474101
 20
36.96239738812124
 10
28.20119658825742
 20
37.02994626321369
 10
28.34934727344799
 20
37.07486985303552
 10
28.5192924329767
 20
37.09174816573297
 10
28.69053364062699
 20
37.07854679588118
 10
28.84241894622814
 20
37.03685696491403
 10
28.95662555405057
 20
36.97170764488698
 10
29.01938040818447
 20
36.89095739994271
 10
29.02311418035672
 20
36.80434440325679
 10
28.96737647688874
 20
36.72231719463529
 10
28.85888927516623
 20
36.65476789543978
 10
28.83561045252725
 20
36.64517179562893
  0
LINE
  5
1F4
330
2
100
AcDbEntity
  8
0
100
AcDbLine
 10
3.056939984842093
 20
23.75343955129094
 30
0.0
 11
2.992301280644692
 21
23.72361644896567
 31
0.0
  0
LWPOLYLINE
  5
1F5
330
2
100
AcDbEntity
  8
0
100
AcDbPolyline
 90
       15
 70
   128
 43
0.0
 10
2.408724642721833
 20
23.71456717688793
 10
2.241405691065779
 20
23.791820548071
 10
2.18908647736142
 20
23.93089805790792
 10
2.225827915145465
 20
24.01556062089787
 10
2.318265494652124
 20
24.08883441543001
 10
2.455251335898927
 20
24.14188163155079
 10
2.620262521619628
 20
24.16830345573091
 10
2.793395213124018
 20
24.16491320416863
 10
2.953767598284579
 20
24.1321201329003
 10
3.082036498015166
 20
24.07387981816134
 10
3.162731610012861
 20
23.99721577209909
 10
3.186119002132761
 20
23.91137590881304
 10
3.149377564348751
 20
23.82671334579089
 10
3.056939984842093
 20
23.75343955129094
 10
3.056939984842093
 20
23.75343955129094
  0
LINE
  5
1F6
330
2
100
AcDbEntity
  8
0
100
AcDbLine
 10
47.00337821725255
 20
27.25515761237991
 30
0.0
 11
46.92519547079953
 21
27.29409291698574
 31
0.0
  0
ELLIPSE
  5
1F7
330
2
100
AcDbEntity
  8
0
100
AcDbEllipse
 10
46.9157090004857
 20
29.3155520354863
 30
0.0
 11
0.1610478521909853
 21
0.0
 31
0.0
210
0.0
220
0.0
230
1.0
 40
0.4998477299000001
 41
5.497939437029726
 42
6.300400300955143
  0
LINE
  5
1F8
330
2
100
AcDbEntity
  8
0
100
AcDbLine
 10
47.02960453156585
 20
29.25863916646978
 30
0.0
 11
46.87036873309776
 21
29.17902108387418
 31
0.0
  0
LWPOLYLINE
  5
1F9
330
2
100
AcDbEntity
  8
0
100
AcDbPolyline
 90
        5
 70
   128
 43
0.0
 10
49.07876774248024
 20
28.00635343970515
 10
49.13883465385307
 20
28.04294941136438
 10
49.18346858370225
 20
28.0847011608626
 10
49.210952777184
 20
28.13000474383525
 10
49.22023377106422
 20
28.17711880768661
  0
LINE
  5
1FA
330
2
100
AcDbEntity
  8
0
100
AcDbLine
 10
43.01374510949298
 20
24.97384212319543
 30
0.0
 11
43.65624824800403
 21
25.29509369245095
 31
0.0
  0
LINE
  5
1FB
330
2
100
AcDbEntity
  8
0
100
AcDbLine
 10
44.68964391378854
 20
25.8117915253432
 30
0.0
 11
47.50013203167346
 21
27.21703558430149
 31
0.0
  0
LINE
  5
1FC
330
2
100
AcDbEntity
  8
0
100
AcDbLine
 10
47.78955015723703
 20
27.36174464706744
 30
0.0
 11
49.07876774248024
 21
28.00635343970515
 31
0.0
  0
LINE
  5
1FD
330
2
100
AcDbEntity
  8
0
100
AcDbLine
 10
43.27566218723628
 20
24.84288358432376
 30
0.0
 11
43.01374510949298
 21
24.97384212319543
 31
0.0
  0
ELLIPSE
  5
1FE
330
2
100
AcDbEntity
  8
0
100
AcDbEllipse
 10
43.21843678836668
 20
24.81435725139469
 30
0.0
 11
0.0807206781837363
 21
0.0001964714641139
 31
0.0
210
0.0
220
0.0
230
1.0
 40
0.4992344792
 41
5.495505226860244
 42
7.064780475623009
  0
LINE
  5
1FF
330
2
100
AcDbEntity
  8
0
100
AcDbLine
 10
43.27545353027129
 20
24.78593550081104
 30
0.0
 11
42.76244324270455
 21
24.52943035702768
 31
0.0
  0
LINE
  5
200
330
2
100
AcDbEntity
  8
0
100
AcDbLine
 10
42.76244324270455
 20
24.52943035702768
 30
0.0
 11
42.33003646164813
 21
24.74563374755588
 31
0.0
  0
LINE
  5
201
330
2
100
AcDbEntity
  8
0
100
AcDbLine
 10
41.48363221148342
 20
24.32243162247353
 30
0.0
 11
41.91603899253987
 21
24.10622823194532
 31
0.0
  0
LINE
  5
202
330
2
100
AcDbEntity
  8
0
100
AcDbLine
 10
41.91603899253987
 20
24.10622823194532
 30
0.0
 11
41.40302785676698
 21
23.8497226640589
 31
0.0
  0
ELLIPSE
  5
203
330
2
100
AcDbEntity
  8
0
100
AcDbEllipse
 10
41.34618471395083
 20
23.87823121418676
 30
0.0
 11
0.0805979888675839
 21
0.0001971699986911
 31
0.0
210
0.0
220
0.0
230
1.0
 40
0.5007555131000001
 41
3.924693435102529
 42
5.49396868386538
  0
LINE
  5
204
330
2
100
AcDbEntity
  8
0
100
AcDbLine
 10
41.2891321138768
 20
23.84961854764401
 30
0.0
 11
41.02721503610128
 21
23.98057708651567
 31
0.0
  0
LINE
  5
205
330
2
100
AcDbEntity
  8
0
100
AcDbLine
 10
36.18314427905461
 20
21.55854170796014
 30
0.0
 11
41.02721503610128
 21
23.98057708651567
 31
0.0
  0
LINE
  5
206
330
2
100
AcDbEntity
  8
0
100
AcDbLine
 10
36.44506135679791
 20
21.42758316908848
 30
0.0
 11
36.18314427905461
 21
21.55854170796014
 31
0.0
  0
ELLIPSE
  5
207
330
2
100
AcDbEntity
  8
0
100
AcDbEllipse
 10
36.38783591127085
 20
21.39905681284678
 30
0.0
 11
0.0807206781837729
 21
0.0001964714641139
 31
0.0
210
0.0
220
0.0
230
0.9999999999999998
 40
0.4992344792000002
 41
5.495505226860131
 42
7.064780475622642
  0
LINE
  5
208
330
2
100
AcDbEntity
  8
0
100
AcDbLine
 10
36.44485291190055
 20
21.37063519160957
 30
0.0
 11
35.93184204116393
 21
21.11412975625736
 31
0.0
  0
LINE
  5
209
330
2
100
AcDbEntity
  8
0
100
AcDbLine
 10
35.93184204116393
 20
21.11412975625736
 30
0.0
 11
35.4994352601075
 21
21.33033314678558
 31
0.0
  0
LINE
  5
20A
330
2
100
AcDbEntity
  8
0
100
AcDbLine
 10
34.6530311159766
 20
20.90713107473622
 30
0.0
 11
35.08543789703303
 21
20.69092768420802
 31
0.0
  0
LINE
  5
20B
330
2
100
AcDbEntity
  8
0
100
AcDbLine
 10
35.08543789703303
 20
20.69092768420802
 30
0.0
 11
34.57242702632861
 21
20.4344222488558
 31
0.0
  0
ELLIPSE
  5
20C
330
2
100
AcDbEntity
  8
0
100
AcDbEllipse
 10
34.515583836855
 20
20.46293077563886
 30
0.0
 11
0.0805979888676205
 21
0.0001971699986911
 31
0.0
210
0.0
220
0.0
230
0.9999999999999998
 40
0.5007555131000001
 41
3.92469343510308
 42
5.493968683865313
  0
LINE
  5
20D
330
2
100
AcDbEntity
  8
0
100
AcDbLine
 10
34.45853107137079
 20
20.43431802637492
 30
0.0
 11
34.19661399362747
 21
20.56527656524657
 31
0.0
  0
LINE
  5
20E
330
2
100
AcDbEntity
  8
0
100
AcDbLine
 10
29.35254323654861
 20
18.14324118672323
 30
0.0
 11
34.19661399362747
 21
20.56527656524657
 31
0.0
  0
LINE
  5
20F
330
2
100
AcDbEntity
  8
0
100
AcDbLine
 10
29.61446031429194
 20
18.01228264785157
 30
0.0
 11
29.35254323654861
 21
18.14324118672323
 31
0.0
  0
ELLIPSE
  5
210
330
2
100
AcDbEntity
  8
0
100
AcDbEllipse
 10
29.55723503417502
 20
17.98375637429886
 30
0.0
 11
0.0807206781837729
 21
0.000196471464123
 31
0.0
210
0.0
220
0.0
230
1.0
 40
0.4992344792
 41
5.495505226860035
 42
7.064780475622776
  0
LINE
  5
211
330
2
100
AcDbEntity
  8
0
100
AcDbLine
 10
29.61425208142998
 20
17.95533477640647
 30
0.0
 11
29.10124094565711
 21
17.69882920852005
 31
0.0
  0
LINE
  5
212
330
2
100
AcDbEntity
  8
0
100
AcDbLine
 10
29.10124094565711
 20
17.69882920852005
 30
0.0
 11
28.66883416460069
 21
17.91503259904827
 31
0.0
  0
LINE
  5
213
330
2
100
AcDbEntity
  8
0
100
AcDbLine
 10
27.82242991443597
 20
17.49183047396591
 30
0.0
 11
28.25483669549244
 21
17.2756270834377
 31
0.0
  0
LINE
  5
214
330
2
100
AcDbEntity
  8
0
100
AcDbLine
 10
28.25483669549244
 20
17.2756270834377
 30
0.0
 11
27.74182640792567
 21
17.01912193965432
 31
0.0
  0
ELLIPSE
  5
215
330
2
100
AcDbEntity
  8
0
100
AcDbEllipse
 10
27.68498295975919
 20
17.04763033709093
 30
0.0
 11
0.0805979888676205
 21
0.0001971699987003
 31
0.0
210
0.0
220
0.0
230
1.0
 40
0.5007555131000001
 41
3.924693435102663
 42
5.493968683865606
  0
LINE
  5
216
330
2
100
AcDbEntity
  8
0
100
AcDbLine
 10
27.62793024093241
 20
17.01901761117181
 30
0.0
 11
27.36601316318912
 21
17.14997615004347
 31
0.0
  0
LINE
  5
217
330
2
100
AcDbEntity
  8
0
100
AcDbLine
 10
21.30099053016966
 20
14.11746483353375
 30
0.0
 11
21.94710954116925
 21
14.44052433904965
 31
0.0
  0
LINE
  5
218
330
2
100
AcDbEntity
  8
0
100
AcDbLine
 10
21.94710954116925
 20
14.44052433904965
 30
0.0
 11
22.57166733261199
 21
14.75280323477102
 31
0.0
  0
LINE
  5
219
330
2
100
AcDbEntity
  8
0
100
AcDbLine
 10
23.85560572702495
 20
15.3947724319775
 30
0.0
 11
27.36601316318912
 21
17.14997615004347
 31
0.0
  0
ARC
  5
21A
330
2
100
AcDbEntity
  8
0
100
AcDbCircle
 10
20.95946069683048
 20
14.88824110614058
 30
0.0
 40
0.8430531949260641
100
AcDbArc
 50
246.1018672161006
 51
293.8980616360971
  0
LINE
  5
21B
330
2
100
AcDbEntity
  8
0
100
AcDbLine
 10
20.27638305463531
 20
14.28823868351192
 30
0.0
 11
20.61792990638555
 21
14.11746525763681
 31
0.0
  0
ELLIPSE
  5
21C
330
2
100
AcDbEntity
  8
0
100
AcDbEllipse
 10
20.39027829392123
 20
14.34515177985877
 30
0.0
 11
0.1610478521910219
 21
0.0
 31
0.0
210
0.0
220
0.0
230
1.0
 40
0.4998477299000001
 41
2.35634678343972
 42
3.9268385237398
  0
LINE
  5
21D
330
2
100
AcDbEntity
  8
0
100
AcDbLine
 10
20.56102592923649
 20
14.54438588731019
 30
0.0
 11
20.27638305463531
 21
14.4020644500096
 31
0.0
  0
LINE
  5
21E
330
2
100
AcDbEntity
  8
0
100
AcDbLine
 10
15.17904610783381
 20
16.8369071569288
 30
0.0
 11
18.06341564522052
 21
15.39472238823543
 31
0.0
  0
LINE
  5
21F
330
2
100
AcDbEntity
  8
0
100
AcDbLine
 10
14.91485246384883
 20
16.70481033492022
 30
0.0
 11
15.17904610783381
 21
16.8369071569288
 31
0.0
  0
ELLIPSE
  5
220
330
2
100
AcDbEntity
  8
0
100
AcDbEllipse
 10
14.85779928820405
 20
16.73342269672443
 30
0.0
 11
0.0805979888676572
 21
-0.0001971699987003
 31
0.0
210
0.0
220
0.0
230
1.0
 40
0.5007555131000001
 41
3.93080927690474
 42
5.500084525666938
  0
LINE
  5
221
330
2
100
AcDbEntity
  8
0
100
AcDbLine
 10
14.28794516108275
 20
16.96141938308304
 30
0.0
 11
14.80095587275251
 21
16.70491402726424
 31
0.0
  0
LINE
  5
222
330
2
100
AcDbEntity
  8
0
100
AcDbLine
 10
14.72262935655471
 20
17.17876148085122
 30
0.0
 11
14.28794516108275
 21
16.96141938308304
 31
0.0
  0
LINE
  5
223
330
2
100
AcDbEntity
  8
0
100
AcDbLine
 10
13.44154091091802
 20
17.38462150819759
 30
0.0
 11
13.87622510638999
 21
17.60196360593359
 31
0.0
  0
LINE
  5
224
330
2
100
AcDbEntity
  8
0
100
AcDbLine
 10
12.92852998721279
 20
17.64112697005021
 30
0.0
 11
13.44154091091802
 21
17.38462150819759
 31
0.0
  0
ELLIPSE
  5
225
330
2
100
AcDbEntity
  8
0
100
AcDbEllipse
 10
12.98554721378821
 20
17.66954873393236
 30
0.0
 11
0.0807206781837363
 21
-0.000196471464123
 31
0.0
210
0.0
220
0.0
230
1.0
 40
0.4992344792
 41
2.35999748514635
 42
3.929272733909152
  0
LINE
  5
226
330
2
100
AcDbEntity
  8
0
100
AcDbLine
 10
12.92832239048929
 20
17.69807537163217
 30
0.0
 11
13.19251603447428
 21
17.83017219360855
 31
0.0
  0
LINE
  5
227
330
2
100
AcDbEntity
  8
0
100
AcDbLine
 10
8.348445383429231
 20
20.25220751913108
 30
0.0
 11
13.19251603447428
 21
17.83017219360855
 31
0.0
  0
LINE
  5
228
330
2
100
AcDbEntity
  8
0
100
AcDbLine
 10
8.084251739444253
 20
20.12011069715471
 30
0.0
 11
8.348445383429231
 21
20.25220751913108
 31
0.0
  0
ELLIPSE
  5
229
330
2
100
AcDbEntity
  8
0
100
AcDbEllipse
 10
8.027198411108223
 20
20.14872313527236
 30
0.0
 11
0.0805979888675839
 21
-0.0001971699987003
 31
0.0
210
0.0
220
0.0
230
1.0
 40
0.5007555131000001
 41
3.930809276903968
 42
5.500084525667073
  0
LINE
  5
22A
330
2
100
AcDbEntity
  8
0
100
AcDbLine
 10
7.457344012575115
 20
20.37671995735295
 30
0.0
 11
7.970354936280309
 21
20.12021449550034
 31
0.0
  0
LINE
  5
22B
330
2
100
AcDbEntity
  8
0
100
AcDbLine
 10
7.89202820804708
 20
20.59406205508894
 30
0.0
 11
7.457344012575115
 21
20.37671995735295
 31
0.0
  0
LINE
  5
22C
330
2
100
AcDbEntity
  8
0
100
AcDbLine
 10
6.610939762410391
 20
20.7999220824353
 30
0.0
 11
7.045623957882395
 21
21.0172641801713
 31
0.0
  0
LINE
  5
22D
330
2
100
AcDbEntity
  8
0
100
AcDbLine
 10
6.09792905074058
 20
21.05642743828631
 30
0.0
 11
6.610939762410391
 21
20.7999220824353
 31
0.0
  0
ELLIPSE
  5
22E
330
2
100
AcDbEntity
  8
0
100
AcDbEllipse
 10
6.154946336692382
 20
21.08484917248028
 30
0.0
 11
0.0807206781837363
 21
-0.000196471464123
 31
0.0
210
0.0
220
0.0
230
1.0
 40
0.4992344792
 41
2.359997485146833
 42
3.929272733909312
  0
LINE
  5
22F
330
2
100
AcDbEntity
  8
0
100
AcDbLine
 10
6.097721666052545
 20
21.11337573383445
 30
0.0
 11
6.361915310037522
 21
21.24547255581084
 31
0.0
  0
LINE
  5
230
330
2
100
AcDbEntity
  8
0
100
AcDbLine
 10
2.972193874226202
 20
22.94033327373258
 30
0.0
 11
5.303172912369569
 21
21.7748437546609
 31
0.0
  0
LINE
  5
231
330
2
100
AcDbEntity
  8
0
100
AcDbLine
 10
6.345550157788013
 20
21.25365513195168
 30
0.0
 11
6.361915310037522
 21
21.24547255581084
 31
0.0
  0
ELLIPSE
  5
232
330
2
100
AcDbEntity
  8
0
100
AcDbEllipse
 10
3.086089405274164
 20
22.99724622418232
 30
0.0
 11
0.1610478521909853
 21
0.0
 31
0.0
210
0.0
220
0.0
230
1.0
 40
0.4998477299000001
 41
2.356346783440076
 42
3.926838523739606
  0
LINE
  5
233
330
2
100
AcDbEntity
  8
0
100
AcDbLine
 10
2.972193874226202
 20
23.05415904019804
 30
0.0
 11
3.256836748827428
 21
23.19648047753085
 31
0.0
  0
ELLIPSE
  5
234
330
2
100
AcDbEntity
  8
0
100
AcDbEllipse
 10
3.142941713108398
 20
23.25339375706214
 30
0.0
 11
0.1610478521910219
 21
0.0
 31
0.0
210
0.0
220
0.0
230
1.0
 40
0.4998477299000001
 41
5.497939437029693
 42
7.068431177329416
  0
LINE
  5
235
330
2
100
AcDbEntity
  8
0
100
AcDbLine
 10
3.256837597033531
 20
23.31030666809938
 30
0.0
 11
2.507857988364639
 21
23.68479647241892
 31
0.0
  0
LINE
  5
236
330
2
100
AcDbEntity
  8
0
100
AcDbLine
 10
2.229265261407718
 20
23.82409283592942
 30
0.0
 11
2.004526000175656
 21
23.9364624665283
 31
0.0
  0
ELLIPSE
  5
237
330
2
100
AcDbEntity
  8
0
100
AcDbEllipse
 10
1.890699568720726
 20
23.87951482927207
 30
0.0
 11
0.1609988066590444
 21
0.0
 31
0.0
210
0.0
220
0.0
230
1.0
 40
0.5001523164
 41
0.7855504566450105
 42
2.356042196944783
  0
LINE
  5
238
330
2
100
AcDbEntity
  8
0
100
AcDbLine
 10
1.776872770832506
 20
23.9364624665283
 30
0.0
 11
1.492229896199104
 21
23.7941410292277
 31
0.0
  0
ELLIPSE
  5
239
330
2
100
AcDbEntity
  8
0
100
AcDbEllipse
 10
1.378404502928874
 20
23.85108867533886
 30
0.0
 11
0.1609988066591176
 21
0.0
 31
0.0
210
0.0
220
0.0
230
1.0
 40
0.5001523164
 41
3.927143110234911
 42
5.497634850534503
  0
LINE
  5
23A
330
2
100
AcDbEntity
  8
0
100
AcDbLine
 10
0.9230315114857493
 20
23.96491445510283
 30
0.0
 11
1.264578363235985
 21
23.7941410292277
 31
0.0
  0
LWPOLYLINE
  5
23B
330
2
100
AcDbEntity
  8
0
100
AcDbPolyline
 90
        5
 70
   128
 43
0.0
 10
0.7815646346956163
 20
24.13567939898122
 10
0.7908447804019584
 20
24.08856575926512
 10
0.8183306702636949
 20
24.04326217626027
 10
0.8629646001129035
 20
24.00151042676204
 10
0.9230315114857493
 20
23.96491445510283
  0
LINE
  5
23C
330
2
100
AcDbEntity
  8
0
100
AcDbLine
 10
6.726136218523558
 20
27.46991462237626
 30
0.0
 11
6.748819788822332
 21
27.45857283722549
 31
0.0
  0
ELLIPSE
  5
23D
330
2
100
AcDbEntity
  8
0
100
AcDbEllipse
 10
6.783361617393197
 20
27.49844100827393
 30
0.0
 11
0.0807206781837729
 21
0.0001964714641139
 31
0.0
210
0.0
220
0.0
230
0.9999999999999998
 40
0.4992344792000002
 41
2.353912573270368
 42
3.923187822033142
  0
LINE
  5
23E
330
2
100
AcDbEntity
  8
0
100
AcDbLine
 10
7.23935516305533
 20
27.78336784964015
 30
0.0
 11
6.726344875488572
 21
27.52686270585677
 31
0.0
  0
LINE
  5
23F
330
2
100
AcDbEntity
  8
0
100
AcDbLine
 10
7.676469448787373
 20
27.56481070679022
 30
0.0
 11
7.23935516305533
 21
27.78336784964015
 31
0.0
  0
ELLIPSE
  5
240
330
2
100
AcDbEntity
  8
0
100
AcDbEllipse
 10
7.789879864928677
 20
27.6223840695149
 30
0.0
 11
0.1609988066591176
 21
0.0
 31
0.0
210
0.0
220
0.0
230
1.0
 40
0.5038125972
 41
3.930788915260556
 42
5.493989045508695
  0
LINE
  5
241
330
2
100
AcDbEntity
  8
0
100
AcDbLine
 10
8.522874123055146
 20
27.87460289496032
 30
0.0
 11
7.903289746682744
 21
27.56481070679022
 31
0.0
  0
ELLIPSE
  5
242
330
2
100
AcDbEntity
  8
0
100
AcDbEllipse
 10
8.407727569294909
 20
27.93130792173022
 30
0.0
 11
0.1622264538661362
 21
0.0
 31
0.0
210
0.0
220
0.0
230
1.0
 40
0.4962162546
 41
5.501585242055443
 42
7.064785372303906
  0
LINE
  5
243
330
2
100
AcDbEntity
  8
0
100
AcDbLine
 10
8.085759413220017
 20
28.2065699747225
 30
0.0
 11
8.522873698952095
 21
27.98801283187256
 31
0.0
  0
LINE
  5
244
330
2
100
AcDbEntity
  8
0
100
AcDbLine
 10
8.598770548992881
 20
28.46307554260893
 30
0.0
 11
8.085759413220017
 21
28.2065699747225
 31
0.0
  0
ELLIPSE
  5
245
330
2
100
AcDbEntity
  8
0
100
AcDbEllipse
 10
8.655613691809033
 20
28.43456704548187
 30
0.0
 11
0.0805979888676205
 21
0.000197169998682
 31
0.0
210
0.0
220
0.0
230
1.0
 40
0.5007555131000001
 41
0.7831007815132525
 42
2.352376030275963
  0
LINE
  5
246
330
2
100
AcDbEntity
  8
0
100
AcDbLine
 10
8.712666291915263
 20
28.46317965905601
 30
0.0
 11
8.974583369658601
 21
28.33222112018435
 31
0.0
  0
LINE
  5
247
330
2
100
AcDbEntity
  8
0
100
AcDbLine
 10
13.55673704896193
 20
30.88521503757935
 30
0.0
 11
13.5794206192635
 21
30.87387325242997
 31
0.0
  0
ELLIPSE
  5
248
330
2
100
AcDbEntity
  8
0
100
AcDbEllipse
 10
13.61396249448903
 20
30.91374144682185
 30
0.0
 11
0.0807206781837363
 21
0.000196471464123
 31
0.0
210
0.0
220
0.0
230
1.0
 40
0.4992344792
 41
2.353912573270565
 42
3.923187822032656
  0
LINE
  5
249
330
2
100
AcDbEntity
  8
0
100
AcDbLine
 10
14.06995636459595
 20
31.19866845041047
 30
0.0
 11
13.55694549389153
 21
30.94216301505826
 31
0.0
  0
LINE
  5
24A
330
2
100
AcDbEntity
  8
0
100
AcDbLine
 10
14.50707065032802
 20
30.98011130756053
 30
0.0
 11
14.06995636459595
 21
31.19866845041047
 31
0.0
  0
ELLIPSE
  5
24B
330
2
100
AcDbEntity
  8
0
100
AcDbEllipse
 10
14.62048074202451
 20
31.0376845080628
 30
0.0
 11
0.160998806659081
 21
0.0
 31
0.0
210
0.0
220
0.0
230
1.0
 40
0.5038125972
 41
3.930788915260417
 42
5.493989045508913
  0
LINE
  5
24C
330
2
100
AcDbEntity
  8
0
100
AcDbLine
 10
15.35347479445892
 20
31.28990323066221
 30
0.0
 11
14.73389094822336
 21
30.98011130756053
 31
0.0
  0
ELLIPSE
  5
24D
330
2
100
AcDbEntity
  8
0
100
AcDbEllipse
 10
15.23832844639074
 20
31.34660836027812
 30
0.0
 11
0.1622264538661362
 21
0.0
 31
0.0
210
0.0
220
0.0
230
1.0
 40
0.4962162546
 41
5.50158524205558
 42
7.064785372303767
  0
LINE
  5
24E
330
2
100
AcDbEntity
  8
0
100
AcDbLine
 10
14.91636050872683
 20
31.62187052249202
 30
0.0
 11
15.35347479445892
 21
31.40331337960987
 31
0.0
  0
LINE
  5
24F
330
2
100
AcDbEntity
  8
0
100
AcDbLine
 10
15.42937137943125
 20
31.87837595784422
 30
0.0
 11
14.91636050872683
 21
31.62187052249202
 31
0.0
  0
ELLIPSE
  5
250
330
2
100
AcDbEntity
  8
0
100
AcDbEllipse
 10
15.48621456890484
 20
31.84986748402977
 30
0.0
 11
0.0805979888675839
 21
0.000197169998682
 31
0.0
210
0.0
220
0.0
230
1.0
 40
0.5007555131000001
 41
0.7831007815131362
 42
2.352376030275754
  0
LINE
  5
251
330
2
100
AcDbEntity
  8
0
100
AcDbLine
 10
15.54326733438906
 20
31.87848018029291
 30
0.0
 11
15.80518441216461
 21
31.74752164142126
 31
0.0
  0
LINE
  5
252
330
2
100
AcDbEntity
  8
0
100
AcDbLine
 10
20.38733809146794
 20
34.30051555881622
 30
0.0
 11
20.41002166173588
 21
34.28917377368225
 31
0.0
  0
ELLIPSE
  5
253
330
2
100
AcDbEntity
  8
0
100
AcDbEllipse
 10
20.44456337158483
 20
34.32904188536978
 30
0.0
 11
0.0807206781837729
 21
0.0001964714641139
 31
0.0
210
0.0
220
0.0
230
0.9999999999999998
 40
0.4992344792000002
 41
2.353912573270318
 42
3.923187822033187
  0
LINE
  5
254
330
2
100
AcDbEntity
  8
0
100
AcDbLine
 10
20.90055746010277
 20
34.61396899817994
 30
0.0
 11
20.3875463243299
 21
34.35746343029354
 31
0.0
  0
LINE
  5
255
330
2
100
AcDbEntity
  8
0
100
AcDbLine
 10
21.33767174583485
 20
34.3954118552978
 30
0.0
 11
20.90055746010277
 21
34.61396899817994
 31
0.0
  0
ELLIPSE
  5
256
330
2
100
AcDbEntity
  8
0
100
AcDbEllipse
 10
21.45108161912036
 20
34.4529849466107
 30
0.0
 11
0.1609988066590444
 21
0.0
 31
0.0
210
0.0
220
0.0
230
1.0
 40
0.5038125972
 41
3.930788915260406
 42
5.493989045508841
  0
LINE
  5
257
330
2
100
AcDbEntity
  8
0
100
AcDbLine
 10
22.18407599599954
 20
34.70520383143249
 30
0.0
 11
21.5644916196271
 21
34.39541164326241
 31
0.0
  0
ELLIPSE
  5
258
330
2
100
AcDbEntity
  8
0
100
AcDbEllipse
 10
22.06892932348657
 20
34.76190879882606
 30
0.0
 11
0.1622264538661362
 21
0.0
 31
0.0
210
0.0
220
0.0
230
1.0
 40
0.4962162546
 41
5.501585242055337
 42
7.064785372303767
  0
LINE
  5
259
330
2
100
AcDbEntity
  8
0
100
AcDbLine
 10
21.74696171026746
 20
35.03717112326234
 30
0.0
 11
22.18407599599954
 21
34.81861398038019
 31
0.0
  0
LINE
  5
25A
330
2
100
AcDbEntity
  8
0
100
AcDbLine
 10
22.25997199783422
 20
35.2936762670457
 30
0.0
 11
21.74696171026746
 21
35.03717112326234
 31
0.0
  0
ELLIPSE
  5
25B
330
2
100
AcDbEntity
  8
0
100
AcDbEllipse
 10
22.31681544600071
 20
35.2651679225777
 30
0.0
 11
0.0805979888676205
 21
0.0001971699986911
 31
0.0
210
0.0
220
0.0
230
0.9999999999999998
 40
0.5007555131000001
 41
0.7831007815132698
 42
2.352376030275665
  0
LINE
  5
25C
330
2
100
AcDbEntity
  8
0
100
AcDbLine
 10
22.37386816482744
 20
35.29378059552821
 30
0.0
 11
22.63578524260299
 21
35.16282205665655
 31
0.0
  0
ELLIPSE
  5
25D
330
2
100
AcDbEntity
  8
0
100
AcDbEllipse
 10
29.61152011187083
 20
37.96764647980982
 30
0.0
 11
0.1610478521910219
 21
0.0
 31
0.0
210
0.0
220
0.0
230
1.0
 40
0.4998477299000001
 41
5.497939437029772
 42
6.298846706256929
  0
LINE
  5
25E
330
2
100
AcDbEntity
  8
0
100
AcDbLine
 10
29.56617936932907
 20
37.83111576577465
 30
0.0
 11
29.72541535112457
 21
37.91073375669041
 31
0.0
  0
LINE
  5
25F
330
2
100
AcDbEntity
  8
0
100
AcDbLine
 10
35.08694594191104
 20
35.60798787174758
 30
0.0
 11
34.82275229792608
 21
35.47589104977123
 31
0.0
  0
ELLIPSE
  5
260
330
2
100
AcDbEntity
  8
0
100
AcDbEllipse
 10
35.14399911755584
 20
35.579375562912
 30
0.0
 11
0.0805979888676205
 21
-0.0001971699986911
 31
0.0
210
0.0
220
0.0
230
0.9999999999999998
 40
0.5007555131000001
 41
0.7892166233146105
 42
2.358491872077002
  0
LINE
  5
261
330
2
100
AcDbEntity
  8
0
100
AcDbLine
 10
35.20084253300733
 20
35.60788417940359
 30
0.0
 11
35.71385324467714
 21
35.35137882358479
 31
0.0
  0
LINE
  5
262
330
2
100
AcDbEntity
  8
0
100
AcDbLine
 10
35.71385324467714
 20
35.35137882358479
 30
0.0
 11
35.27673895894505
 21
35.13282168073482
 31
0.0
  0
ELLIPSE
  5
263
330
2
100
AcDbEntity
  8
0
100
AcDbEllipse
 10
35.39188524006991
 20
35.07611643916035
 30
0.0
 11
0.1622264538661728
 21
0.0
 31
0.0
210
0.0
220
0.0
230
1.0
 40
0.4962162546
 41
2.359992588465416
 42
3.923192718714265
  0
LINE
  5
264
330
2
100
AcDbEntity
  8
0
100
AcDbLine
 10
35.27673895894505
 20
35.01941153175496
 30
0.0
 11
35.89632291121443
 21
34.70961955562029
 31
0.0
  0
ELLIPSE
  5
265
330
2
100
AcDbEntity
  8
0
100
AcDbEllipse
 10
36.00973294443616
 20
34.7671925869772
 30
0.0
 11
0.1609988066591176
 21
0.0
 31
0.0
210
0.0
220
0.0
230
1.0
 40
0.5038125972
 41
3.930788915260823
 42
5.493989045508834
  0
LINE
  5
266
330
2
100
AcDbEntity
  8
0
100
AcDbLine
 10
36.12314320910979
 20
34.70961955562029
 30
0.0
 11
36.56025749484185
 21
34.92817669850241
 31
0.0
  0
LINE
  5
267
330
2
100
AcDbEntity
  8
0
100
AcDbLine
 10
36.56025749484185
 20
34.92817669850241
 30
0.0
 11
37.07326841857927
 21
34.67167123664979
 31
0.0
  0
ELLIPSE
  5
268
330
2
100
AcDbEntity
  8
0
100
AcDbEllipse
 10
37.01625119197162
 20
34.64324952570404
 30
0.0
 11
0.0807206781837363
 21
-0.0001964714641139
 31
0.0
210
0.0
220
0.0
230
1.0
 40
0.4992344792
 41
5.501590138736612
 42
7.07086538749883
  0
LINE
  5
269
330
2
100
AcDbEntity
  8
0
100
AcDbLine
 10
37.07347601527054
 20
34.61472283506783
 30
0.0
 11
37.04851587878008
 21
34.60224276681955
 31
0.0
  0
LINE
  5
26A
330
2
100
AcDbEntity
  8
0
100
AcDbLine
 10
41.91754666634779
 20
32.19268750954532
 30
0.0
 11
41.65335302236283
 21
32.06059068753674
 31
0.0
  0
ELLIPSE
  5
26B
330
2
100
AcDbEntity
  8
0
100
AcDbEllipse
 10
41.9745999946516
 20
32.16407512436408
 30
0.0
 11
0.0805979888676205
 21
-0.0001971699987003
 31
0.0
210
0.0
220
0.0
230
1.0
 40
0.5007555131000001
 41
0.7892166233143844
 42
2.358491872076549
  0
LINE
  5
26C
330
2
100
AcDbEntity
  8
0
100
AcDbLine
 10
42.03144346947953
 20
32.19258371116748
 30
0.0
 11
42.54445439321698
 21
31.93607824931488
 31
0.0
  0
LINE
  5
26D
330
2
100
AcDbEntity
  8
0
100
AcDbLine
 10
42.54445439321698
 20
31.93607824931488
 30
0.0
 11
42.10734010748487
 21
31.71752110646493
 31
0.0
  0
ELLIPSE
  5
26E
330
2
100
AcDbEntity
  8
0
100
AcDbEllipse
 10
42.22248611716575
 20
31.66081600061243
 30
0.0
 11
0.1622264538661362
 21
0.0
 31
0.0
210
0.0
220
0.0
230
1.0
 40
0.4962162546
 41
2.35999258846569
 42
3.923192718714071
  0
LINE
  5
26F
330
2
100
AcDbEntity
  8
0
100
AcDbLine
 10
42.10734010748487
 20
31.60411095751727
 30
0.0
 11
42.72692405975425
 21
31.29431898138257
 31
0.0
  0
ELLIPSE
  5
270
330
2
100
AcDbEntity
  8
0
100
AcDbEllipse
 10
42.84033382153199
 20
31.35189214842931
 30
0.0
 11
0.160998806659081
 21
0.0
 31
0.0
210
0.0
220
0.0
230
1.0
 40
0.5038125972
 41
3.930788915260443
 42
5.493989045508969
  0
LINE
  5
271
330
2
100
AcDbEntity
  8
0
100
AcDbLine
 10
42.95374435764959
 20
31.29431898138257
 30
0.0
 11
43.39085864338166
 21
31.51287612423251
 31
0.0
  0
LINE
  5
272
330
2
100
AcDbEntity
  8
0
100
AcDbLine
 10
43.39085864338166
 20
31.51287612423251
 30
0.0
 11
43.90386935505147
 21
31.25637076841372
 31
0.0
  0
ELLIPSE
  5
273
330
2
100
AcDbEntity
  8
0
100
AcDbEllipse
 10
43.84685206906751
 20
31.22794908715615
 30
0.0
 11
0.0807206781838095
 21
-0.0001964714641139
 31
0.0
210
0.0
220
0.0
230
1.0
 40
0.4992344792
 41
5.501590138736478
 42
7.070865387498963
  0
LINE
  5
274
330
2
100
AcDbEntity
  8
0
100
AcDbLine
 10
43.90407673970734
 20
31.19942247286557
 30
0.0
 11
43.87911660318314
 21
31.18694240460194
 31
0.0
  0
LINE
  5
275
330
2
100
AcDbEntity
  8
0
100
AcDbLine
 10
22.63578524260299
 20
35.16282205665655
 30
0.0
 11
22.62375693201674
 21
35.36416983101643
 31
0.0
  0
ELLIPSE
  5
276
330
2
100
AcDbEntity
  8
0
100
AcDbEllipse
 10
22.68075663677004
 20
35.33454001397307
 30
0.0
 11
-0.0416480677996025
 21
0.069087086000949
 31
0.0
210
0.0
220
0.0
230
1.0
 40
0.566231023
 41
6.238473137809692
 42
7.107096969082392
  0
LINE
  5
277
330
2
100
AcDbEntity
  8
0
100
AcDbLine
 10
34.82275229792608
 20
35.47589104977123
 30
0.0
 11
34.83478060851231
 21
35.67723882413108
 31
0.0
  0
ELLIPSE
  5
278
330
2
100
AcDbEntity
  8
0
100
AcDbEllipse
 10
34.77778105983126
 20
35.64760922082977
 30
0.0
 11
0.0416480677996024
 21
0.0690870860009398
 31
0.0
210
0.0
220
0.0
230
1.0
 40
0.566231023
 41
5.459273645276859
 42
6.327897476549532
  0
LINE
  5
279
330
2
100
AcDbEntity
  8
0
100
AcDbLine
 10
26.12214199497307
 20
34.40868954109554
 30
0.0
 11
26.13282506186959
 21
34.30555797320949
 31
0.0
  0
LINE
  5
27A
330
2
100
AcDbEntity
  8
0
100
AcDbLine
 10
31.95191535212308
 20
34.30581393706653
 30
0.0
 11
31.96253395588845
 21
34.40868932906013
 31
0.0
  0
ELLIPSE
  5
27B
330
2
100
AcDbEntity
  8
0
100
AcDbEllipse
 10
34.73209489787376
 20
35.94843877531916
 30
0.0
 11
0.1665922711985561
 21
0.276348344003796
 31
0.0
210
0.0
220
0.0
230
0.9999999999999998
 40
0.566231023
 41
4.207701317706107
 42
5.406913767717255
  0
LINE
  5
27C
330
2
100
AcDbEntity
  8
0
100
AcDbLine
 10
34.9589480417796
 20
36.05282835638903
 30
0.0
 11
35.07383363296052
 21
37.17762850205823
 31
0.0
  0
LINE
  5
27D
330
2
100
AcDbEntity
  8
0
100
AcDbLine
 10
36.56025749484185
 20
34.92817669850241
 30
0.0
 11
36.46229156606834
 21
36.10418402863015
 31
0.0
  0
LINE
  5
27E
330
2
100
AcDbEntity
  8
0
100
AcDbLine
 10
36.46229156606834
 20
36.10418402863015
 30
0.0
 11
35.77923157842274
 21
36.44571402245295
 31
0.0
  0
LINE
  5
27F
330
2
100
AcDbEntity
  8
0
100
AcDbLine
 10
35.77923157842274
 20
36.44571402245295
 30
0.0
 11
35.71385324467714
 21
35.35137882358479
 31
0.0
  0
LINE
  5
280
330
2
100
AcDbEntity
  8
0
100
AcDbLine
 10
22.50186733726805
 20
35.73862086810203
 30
0.0
 11
22.38698132198406
 21
36.86342080173581
 31
0.0
  0
ELLIPSE
  5
281
330
2
100
AcDbEntity
  8
0
100
AcDbEllipse
 10
22.72871966568278
 20
35.63423113498482
 30
0.0
 11
-0.1665922711985927
 21
0.2763483440038051
 31
0.0
210
0.0
220
0.0
230
1.0
 40
0.5662310229999999
 41
0.8762715394624599
 42
2.068084790110165
  0
LINE
  5
282
330
2
100
AcDbEntity
  8
0
100
AcDbLine
 10
21.74696171026746
 20
35.03717112326234
 30
0.0
 11
21.6815833765219
 21
36.13150632209829
 31
0.0
  0
LINE
  5
283
330
2
100
AcDbEntity
  8
0
100
AcDbLine
 10
21.6815833765219
 20
36.13150632209829
 30
0.0
 11
20.99852317684083
 21
35.78997622227388
 31
0.0
  0
LINE
  5
284
330
2
100
AcDbEntity
  8
0
100
AcDbLine
 10
20.99852317684083
 20
35.78997622227388
 30
0.0
 11
20.90055746010277
 21
34.61396899817994
 31
0.0
  0
ELLIPSE
  5
285
330
2
100
AcDbEntity
  8
0
100
AcDbEllipse
 10
35.26733227680619
 20
37.02325347616736
 30
0.0
 11
0.0037222596874714
 21
0.339913703277504
 31
0.0
210
0.0
220
0.0
230
1.0
 40
0.7127412801999999
 41
0.3510162069867535
 42
0.7864881117965
  0
ELLIPSE
  5
286
330
2
100
AcDbEntity
  8
0
100
AcDbEllipse
 10
35.29996079840702
 20
37.0395677369517
 30
0.0
 11
-0.133765180161036
 21
0.2930322332480928
 31
0.0
210
0.0
220
0.0
230
1.0
 40
0.6293560183000002
 41
0.4577648159460856
 42
0.8211035723292784
  0
ELLIPSE
  5
287
330
2
100
AcDbEntity
  8
0
100
AcDbEllipse
 10
22.19348228675026
 20
36.7090458358331
 30
0.0
 11
-0.0037222596874714
 21
0.3399137032774953
 31
0.0
210
0.0
220
0.0
230
1.0
 40
0.7127412802
 41
5.496697195383063
 42
5.932169100192905
  0
ELLIPSE
  5
288
330
2
100
AcDbEntity
  8
0
100
AcDbEllipse
 10
22.16085376514949
 20
36.72536009661739
 30
0.0
 11
0.1337651801609996
 21
0.2930322332480928
 31
0.0
210
0.0
220
0.0
230
1.0
 40
0.6293560183000002
 41
5.462081734850148
 42
5.825420491233217
  0
LINE
  5
289
330
2
100
AcDbEntity
  8
0
100
AcDbLine
 10
41.65335302236283
 20
32.06059068753674
 30
0.0
 11
41.6653815449845
 21
32.26193835589501
 31
0.0
  0
ELLIPSE
  5
28A
330
2
100
AcDbEntity
  8
0
100
AcDbEllipse
 10
41.60838193689489
 20
32.23230878228188
 30
0.0
 11
0.041648067799639
 21
0.0690870860009581
 31
0.0
210
0.0
220
0.0
230
1.0
 40
0.566231023
 41
5.459273645276793
 42
6.327897476549507
  0
LINE
  5
28B
330
2
100
AcDbEntity
  8
0
100
AcDbLine
 10
15.80518441216461
 20
31.74752164142126
 30
0.0
 11
15.79315588951073
 21
31.94886930974732
 31
0.0
  0
ELLIPSE
  5
28C
330
2
100
AcDbEntity
  8
0
100
AcDbEllipse
 10
15.85015575967419
 20
31.91923957542518
 30
0.0
 11
-0.0416480677996757
 21
0.0690870860009398
 31
0.0
210
0.0
220
0.0
230
0.9999999999999998
 40
0.566231023
 41
6.238473137808991
 42
7.107096969081987
  0
ELLIPSE
  5
28D
330
2
100
AcDbEntity
  8
0
100
AcDbEllipse
 10
41.56269577496953
 20
32.53313833677121
 30
0.0
 11
0.1665922711985561
 21
0.276348344003796
 31
0.0
210
0.0
220
0.0
230
0.9999999999999998
 40
0.566231023
 41
4.207701317706201
 42
5.406913767717158
  0
LINE
  5
28E
330
2
100
AcDbEntity
  8
0
100
AcDbLine
 10
41.78954876621635
 20
32.63752799418674
 30
0.0
 11
41.9044345694327
 21
33.76232803382214
 31
0.0
  0
LINE
  5
28F
330
2
100
AcDbEntity
  8
0
100
AcDbLine
 10
43.39085864338166
 20
31.51287612423251
 30
0.0
 11
43.29289250254051
 21
32.68888356039405
 31
0.0
  0
LINE
  5
290
330
2
100
AcDbEntity
  8
0
100
AcDbLine
 10
43.29289250254051
 20
32.68888356039405
 30
0.0
 11
42.6098325148949
 21
33.03041355421685
 31
0.0
  0
LINE
  5
291
330
2
100
AcDbEntity
  8
0
100
AcDbLine
 10
42.6098325148949
 20
33.03041355421685
 30
0.0
 11
42.54445439321698
 21
31.93607824931488
 31
0.0
  0
LINE
  5
292
330
2
100
AcDbEntity
  8
0
100
AcDbLine
 10
15.67126608272662
 20
32.32332024083127
 30
0.0
 11
15.55638033251107
 21
33.44812030699928
 31
0.0
  0
ELLIPSE
  5
293
330
2
100
AcDbEntity
  8
0
100
AcDbEllipse
 10
15.89811878858695
 20
32.2189306964369
 30
0.0
 11
-0.1665922711985195
 21
0.2763483440038051
 31
0.0
210
0.0
220
0.0
230
1.0
 40
0.566231023
 41
0.876271539462478
 42
2.068084790110643
  0
LINE
  5
294
330
2
100
AcDbEntity
  8
0
100
AcDbLine
 10
14.91636050872683
 20
31.62187052249202
 30
0.0
 11
14.85098238704886
 21
32.71620582736176
 31
0.0
  0
LINE
  5
295
330
2
100
AcDbEntity
  8
0
100
AcDbLine
 10
14.85098238704886
 20
32.71620582736176
 30
0.0
 11
14.16792229340168
 21
32.37467578053819
 31
0.0
  0
LINE
  5
296
330
2
100
AcDbEntity
  8
0
100
AcDbLine
 10
14.16792229340168
 20
32.37467578053819
 30
0.0
 11
14.06995636459595
 21
31.19866845041047
 31
0.0
  0
ELLIPSE
  5
297
330
2
100
AcDbEntity
  8
0
100
AcDbEllipse
 10
42.09793315390204
 20
33.60795303761948
 30
0.0
 11
0.0037222596874348
 21
0.339913703277504
 31
0.0
210
0.0
220
0.0
230
1.0
 40
0.7127412802
 41
0.3510162069866957
 42
0.7864881117963102
  0
ELLIPSE
  5
298
330
2
100
AcDbEntity
  8
0
100
AcDbEllipse
 10
42.13056167550288
 20
33.62426729840374
 30
0.0
 11
-0.133765180161036
 21
0.2930322332480928
 31
0.0
210
0.0
220
0.0
230
1.0
 40
0.6293560183000002
 41
0.4577648159460413
 42
0.8211035723291873
  0
ELLIPSE
  5
299
330
2
100
AcDbEntity
  8
0
100
AcDbEllipse
 10
15.36288140965446
 20
33.29374539728517
 30
0.0
 11
-0.0037222596874348
 21
0.3399137032774953
 31
0.0
210
0.0
220
0.0
230
1.0
 40
0.7127412802000002
 41
5.496697195383303
 42
5.932169100192909
  0
ELLIPSE
  5
29A
330
2
100
AcDbEntity
  8
0
100
AcDbEllipse
 10
15.33025288808587
 20
33.31005965806944
 30
0.0
 11
0.1337651801609996
 21
0.2930322332480928
 31
0.0
210
0.0
220
0.0
230
1.0
 40
0.6293560183000002
 41
5.462081734850181
 42
5.825420491233344
  0
LINE
  5
29B
330
2
100
AcDbEntity
  8
0
100
AcDbLine
 10
8.974583369658601
 20
28.33222112018435
 30
0.0
 11
8.962555059072354
 21
28.53356889454424
 31
0.0
  0
ELLIPSE
  5
29C
330
2
100
AcDbEntity
  8
0
100
AcDbEllipse
 10
9.019554882610577
 20
28.50393913687727
 30
0.0
 11
-0.041648067799639
 21
0.069087086000949
 31
0.0
210
0.0
220
0.0
230
1.0
 40
0.566231023
 41
6.238473137809753
 42
7.107096969082762
  0
ARC
  5
29D
330
2
100
AcDbEntity
  8
0
100
AcDbCircle
 10
43.85190211921559
 20
27.76481838085707
 30
0.0
 40
1.269391790658297
100
AcDbArc
 50
359.4836428494001
 51
43.31793475140133
  0
LINE
  5
29E
330
2
100
AcDbEntity
  8
0
100
AcDbLine
 10
43.60943699122347
 20
28.00096399341454
 30
0.0
 11
43.60816978185213
 21
28.00714654957934
 31
0.0
  0
LINE
  5
29F
330
2
100
AcDbEntity
  8
0
100
AcDbLine
 10
44.59329868130543
 20
26.90183916582841
 30
0.0
 11
44.58940035849963
 21
26.9200033482385
 31
0.0
  0
LINE
  5
2A0
330
2
100
AcDbEntity
  8
0
100
AcDbLine
 10
8.84066504022061
 20
28.9080197195944
 30
0.0
 11
8.72577944903967
 21
30.03281986526362
 31
0.0
  0
ELLIPSE
  5
2A1
330
2
100
AcDbEntity
  8
0
100
AcDbEllipse
 10
9.067517911491112
 20
28.80363025788901
 30
0.0
 11
-0.1665922711985556
 21
0.2763483440038049
 31
0.0
210
0.0
220
0.0
230
1.0
 40
0.566231023
 41
0.8762715394624564
 42
2.068084790110289
  0
LINE
  5
2A2
330
2
100
AcDbEntity
  8
0
100
AcDbLine
 10
8.085759413220017
 20
28.2065699747225
 30
0.0
 11
8.020381503577503
 21
29.3009053856583
 31
0.0
  0
LINE
  5
2A3
330
2
100
AcDbEntity
  8
0
100
AcDbLine
 10
8.020381503577503
 20
29.3009053856583
 30
0.0
 11
7.337321303896446
 21
28.95937528580166
 31
0.0
  0
LINE
  5
2A4
330
2
100
AcDbEntity
  8
0
100
AcDbLine
 10
7.337321303896446
 20
28.95937528580166
 30
0.0
 11
7.23935516305533
 21
27.78336784964015
 31
0.0
  0
ELLIPSE
  5
2A5
330
2
100
AcDbEntity
  8
0
100
AcDbEllipse
 10
8.532280532558628
 20
29.87844495873725
 30
0.0
 11
-0.003722259687508
 21
0.3399137032775133
 31
0.0
210
0.0
220
0.0
230
0.9999999999999998
 40
0.7127412802000002
 41
5.496697195382973
 42
5.9321691001927
  0
ELLIPSE
  5
2A6
330
2
100
AcDbEntity
  8
0
100
AcDbEllipse
 10
8.499652010989997
 20
29.89475921952156
 30
0.0
 11
0.133765180161036
 21
0.2930322332480928
 31
0.0
210
0.0
220
0.0
230
1.0
 40
0.6293560183000002
 41
5.462081734850195
 42
5.825420491233312
  0
ARC
  5
2A7
330
2
100
AcDbEntity
  8
0
100
AcDbCircle
 10
6.131101333864758
 20
23.72659471066747
 30
0.0
 40
1.250630309319904
100
AcDbArc
 50
139.2288116179993
 51
180.6714164955995
  0
LINE
  5
2A8
330
2
100
AcDbEntity
  8
0
100
AcDbLine
 10
6.393436930936176
 20
23.96441114752419
 30
0.0
 11
6.392361414568629
 21
23.95952543291524
 31
0.0
  0
LINE
  5
2A9
330
2
100
AcDbEntity
  8
0
100
AcDbLine
 10
5.408500572660523
 20
22.86040018122609
 30
0.0
 11
5.399820951891265
 21
22.81169871286834
 31
0.0
  0
LINE
  5
2AA
330
2
100
AcDbEntity
  8
0
100
AcDbLine
 10
41.91603899253987
 20
24.10622823194532
 30
0.0
 11
41.94041792933051
 21
24.55082461045372
 31
0.0
  0
LINE
  5
2AB
330
2
100
AcDbEntity
  8
0
100
AcDbLine
 10
35.08543789703303
 20
20.69092768420802
 30
0.0
 11
35.10981688682447
 21
21.1355240891846
 31
0.0
  0
LINE
  5
2AC
330
2
100
AcDbEntity
  8
0
100
AcDbLine
 10
7.43283784593012
 20
20.82365790414758
 30
0.0
 11
7.457344012575115
 21
20.37671995735295
 31
0.0
  0
LINE
  5
2AD
330
2
100
AcDbEntity
  8
0
100
AcDbLine
 10
28.25483669549244
 20
17.2756270834377
 30
0.0
 11
28.27921563228306
 21
17.72022346191388
 31
0.0
  0
LINE
  5
2AE
330
2
100
AcDbEntity
  8
0
100
AcDbLine
 10
14.26343857033466
 20
17.40835754194529
 30
0.0
 11
14.28794516108275
 21
16.96141938308304
 31
0.0
  0
ELLIPSE
  5
2AF
330
2
100
AcDbEntity
  8
0
100
AcDbEllipse
 10
9.780570446910044
 20
40.90675510621418
 30
0.0
 11
0.0224025805369904
 21
0.0431734689587676
 31
0.0
210
0.0
220
0.0
230
0.9999999999999996
 40
0.6131766335000001
 41
3.049183917234383
 42
3.842386662680893
  0
LINE
  5
2B0
330
2
100
AcDbEntity
  8
0
100
AcDbLine
 10
9.780517923174556
 20
40.86489855943717
 30
0.0
 11
9.942645232132051
 21
40.94596221393198
 31
0.0
  0
SPLINE
  5
2B1
330
2
100
AcDbEntity
  8
0
100
AcDbSpline
210
0.0
220
0.0
230
1.0
 70
     8
 71
     3
 72
    12
 73
     8
 74
     0
 42
0.000000001
 43
0.0000000001
 40
0.0
 40
0.0
 40
0.0
 40
0.0
 40
0.2203311093792269
 40
0.4406652574206
 40
0.660988356586599
 40
0.8813104238237217
 40
1.0
 40
1.0
 40
1.0
 40
1.0
 10
10.22701286616556
 20
41.4226941696723
 30
0.0
 10
10.22258322860999
 20
41.38147816830941
 30
0.0
 10
10.21372389240815
 20
41.2990455971596
 30
0.0
 10
10.16126973526234
 20
41.17087717414096
 30
0.0
 10
10.08651993144744
 20
41.0582423071833
 30
0.0
 10
10.00885457168702
 20
40.98347884952322
 30
0.0
 10
9.959814420494145
 20
40.95569090458871
 30
0.0
 10
9.942645232137943
 20
40.94596221393411
 30
0.0
  0
LWPOLYLINE
  5
2B2
330
2
100
AcDbEntity
  8
0
100
AcDbPolyline
 90
        9
 70
   128
 43
0.0
 10
10.22701286616798
 20
41.42269416966592
 10
10.27906302431044
 20
41.50049856283756
 10
10.31882574708878
 20
41.58651063917341
 10
10.3437509240438
 20
41.67521588873511
 10
10.35224054822156
 20
41.76092658618833
 10
10.3437509240438
 20
41.83814765946381
 10
10.31882574708878
 20
41.90192877089922
 10
10.27906302431044
 20
41.9481781244567
 10
10.22701286616798
 20
41.9807747718066
  0
LINE
  5
2B3
330
2
100
AcDbEntity
  8
0
100
AcDbLine
 10
10.22701286616798
 20
41.9807747718066
 30
0.0
 11
10.22701286616798
 21
42.28060668076554
 31
0.0
  0
ELLIPSE
  5
2B4
330
2
100
AcDbEntity
  8
0
100
AcDbEllipse
 10
9.942393919016204
 20
42.13827091376617
 30
0.0
 11
0.1800210794140696
 21
0.3600287293711981
 31
0.0
210
0.0
220
0.0
230
0.9999999999999998
 40
0.6123267458000001
 41
5.397163010665068
 42
6.292695714860378
  0
SPLINE
  5
2B5
330
2
100
AcDbEntity
  8
0
100
AcDbSpline
210
0.0
220
0.0
230
1.0
 70
     8
 71
     3
 72
    10
 73
     6
 74
     0
 42
0.000000001
 43
0.0000000001
 40
0.0
 40
0.0
 40
0.0
 40
0.0
 40
0.4861007902352349
 40
0.9722038459796403
 40
1.0
 40
1.0
 40
1.0
 40
1.0
 10
8.183015187380203
 20
40.06614719155522
 30
0.0
 10
8.151505658179884
 20
40.05480886567837
 30
0.0
 10
8.088486452926675
 20
40.03213216108153
 30
0.0
 10
8.0249959058649
 20
40.03580053081754
 30
0.0
 10
8.002793118937288
 20
40.05573702044151
 30
0.0
 10
8.001592198458377
 20
40.05681535978445
 30
0.0
  0
LINE
  5
2B6
330
2
100
AcDbEntity
  8
0
100
AcDbLine
 10
8.183015187366294
 20
40.06614719156523
 30
0.0
 11
8.34514292045905
 21
40.14721105809551
 31
0.0
  0
ELLIPSE
  5
2B7
330
2
100
AcDbEntity
  8
0
100
AcDbEllipse
 10
8.345090532413337
 20
40.18901514898198
 30
0.0
 11
0.0223475644766461
 21
0.0431202052968897
 31
0.0
210
0.0
220
0.0
230
1.0
 40
0.6150114833000001
 41
3.843340982430881
 42
5.41262196165964
  0
LINE
  5
2B8
330
2
100
AcDbEntity
  8
0
100
AcDbLine
 10
8.379770222151874
 20
40.2062918043151
 30
0.0
 11
8.379770222151874
 21
40.30271992107686
 31
0.0
  0
ELLIPSE
  5
2B9
330
2
100
AcDbEntity
  8
0
100
AcDbEllipse
 10
9.159604626813612
 20
41.68629534853952
 30
0.0
 11
0.0935983897290652
 21
0.1872037645475815
 31
0.0
210
0.0
220
0.0
230
1.0
 40
0.6124181287
 41
4.416167596515302
 42
5.397053351176781
  0
SPLINE
  5
2BA
330
2
100
AcDbEntity
  8
0
100
AcDbSpline
210
0.0
220
0.0
230
1.0
 70
     8
 71
     3
 72
    11
 73
     7
 74
     0
 42
0.000000001
 43
0.0000000001
 40
0.0
 40
0.0
 40
0.0
 40
0.0
 40
0.4379099577015188
 40
0.5650656570395866
 40
0.9870520609594636
 40
1.0
 40
1.0
 40
1.0
 40
1.0
 10
9.241936130955206
 20
41.57682393433658
 30
0.0
 10
9.236016375627801
 20
41.57124107730806
 30
0.0
 10
9.228377703853436
 20
41.56403712882625
 30
0.0
 10
9.220801406721523
 20
41.55071735273698
 30
0.0
 10
9.216877843677837
 20
41.54263415347144
 30
0.0
 10
9.218452661186127
 20
41.53719693946113
 30
0.0
 10
9.218499543299349
 20
41.5370350743045
 30
0.0
  0
ELLIPSE
  5
2BB
330
2
100
AcDbEntity
  8
0
100
AcDbEllipse
 10
9.632334440756068
 20
42.287332910967
 30
0.0
 11
0.1793456771654321
 21
0.3603579998550939
 31
0.0
210
0.0
220
0.0
230
0.9999999999999998
 40
0.6122187413
 41
5.786053116329424
 42
6.966738575659742
  0
ARC
  5
2BC
330
2
100
AcDbEntity
  8
0
100
AcDbCircle
 10
9.620203212713084
 20
42.61579915401316
 30
0.0
 40
0.0234848555905572
100
AcDbArc
 50
59.6899577921001
 51
113.7280359166019
  0
ARC
  5
2BD
330
2
100
AcDbEntity
  8
0
100
AcDbCircle
 10
8.072064638568591
 20
40.4351362064165
 30
0.0
 40
0.0170924965127316
100
AcDbArc
 50
74.72426787120051
 51
131.7605429071019
  0
ARC
  5
2BE
330
2
100
AcDbEntity
  8
0
100
AcDbCircle
 10
7.904496306998572
 20
40.42059355766386
 30
0.0
 40
0.0234848555907679
100
AcDbArc
 50
59.68995779219866
 51
113.7280359163029
  0
ELLIPSE
  5
2BF
330
2
100
AcDbEntity
  8
0
100
AcDbEllipse
 10
7.996038795929726
 20
40.40187504052014
 30
0.0
 11
0.1126984745155394
 21
0.0007973671361274
 31
0.0
210
0.0
220
0.0
230
1.0
 40
0.4946372042000001
 41
0.9564314330567928
 42
2.352694834652234
  0
LINE
  5
2C0
330
2
100
AcDbEntity
  8
0
100
AcDbLine
 10
7.142258426235057
 20
40.64794236112544
 30
0.0
 11
7.103891839094617
 21
40.66726300370545
 31
0.0
  0
LINE
  5
2C1
330
2
100
AcDbEntity
  8
0
100
AcDbLine
 10
6.778180015184595
 20
41.51885990905525
 30
0.0
 11
6.758616304344362
 21
41.50601959290552
 31
0.0
  0
LINE
  5
2C2
330
2
100
AcDbEntity
  8
0
100
AcDbLine
 10
7.102233609957399
 20
41.79075456961106
 30
0.0
 11
7.082669899117166
 21
41.77791425346127
 31
0.0
  0
ELLIPSE
  5
2C3
330
2
100
AcDbEntity
  8
0
100
AcDbEllipse
 10
9.356529135705009
 20
39.20030173516409
 30
0.0
 11
0.3219956414729645
 21
0.0022781918175161
 31
0.0
210
0.0
220
0.0
230
1.0
 40
0.4946372042000001
 41
3.138088647907505
 42
3.689038751443959
  0
ELLIPSE
  5
2C4
330
2
100
AcDbEntity
  8
0
100
AcDbEllipse
 10
10.47678206289233
 20
39.97139854477082
 30
0.0
 11
0.3216557591728574
 21
0.0372409727929968
 31
0.0
210
0.0
220
0.0
230
0.9999999999999998
 40
0.398313873
 41
1.230796826273194
 42
2.310110770404389
  0
LINE
  5
2C5
330
2
100
AcDbEntity
  8
0
100
AcDbLine
 10
10.57006527124307
 20
40.10460325430765
 30
0.0
 11
10.67062817342878
 21
40.06832868211895
 31
0.0
  0
LINE
  5
2C6
330
2
100
AcDbEntity
  8
0
100
AcDbLine
 10
10.67062817342878
 20
40.06832868211895
 30
0.0
 11
10.77048070895175
 21
40.02741636056362
 31
0.0
  0
LINE
  5
2C7
330
2
100
AcDbEntity
  8
0
100
AcDbLine
 10
10.24909487996344
 20
40.04097835186782
 30
0.0
 11
9.128841936128893
 21
39.48085187996663
 31
0.0
  0
ELLIPSE
  5
2C8
330
2
100
AcDbEntity
  8
0
100
AcDbEllipse
 10
9.356529135705009
 20
39.41127208117718
 30
0.0
 11
0.3216557591728575
 21
0.0372409727929877
 31
0.0
210
0.0
220
0.0
230
1.0
 40
0.398313873
 41
2.310110770404514
 42
3.095508933802018
  0
ELLIPSE
  5
2C9
330
2
100
AcDbEntity
  8
0
100
AcDbEllipse
 10
10.47678206289233
 20
44.24284325025637
 30
0.0
 11
0.3219954958440188
 21
-0.0023108892525808
 31
0.0
210
0.0
220
0.0
230
1.0
 40
0.5053247124000002
 41
0.8018886865955268
 42
2.359821076099634
  0
LINE
  5
2CA
330
2
100
AcDbEntity
  8
0
100
AcDbLine
 10
10.24909487996344
 20
44.35912008853964
 30
0.0
 11
9.128841936128893
 21
43.79899361663843
 31
0.0
  0
ELLIPSE
  5
2CB
330
2
100
AcDbEntity
  8
0
100
AcDbEllipse
 10
9.356529135705009
 20
43.68271678666275
 30
0.0
 11
0.3219954958439821
 21
-0.0023108892525808
 31
0.0
210
0.0
220
0.0
230
1.0
 40
0.5053247124000003
 41
2.359821076099724
 42
3.145219239497166
  0
ELLIPSE
  5
2CC
330
2
100
AcDbEntity
  8
0
100
AcDbEllipse
 10
9.637580804509257
 20
40.90862621199858
 30
0.0
 11
0.0360988291447274
 21
0.0719829547498802
 31
0.0
210
0.0
220
0.0
230
1.0
 40
0.6128089208
 41
3.827878798762462
 42
5.055025791778306
  0
LINE
  5
2CD
330
2
100
AcDbEntity
  8
0
100
AcDbLine
 10
9.523581046053816
 20
40.78190894667133
 30
0.0
 11
9.637606563416705
 21
40.83892170533666
 31
0.0
  0
LINE
  5
2CE
330
2
100
AcDbEntity
  8
0
100
AcDbLine
 10
9.343867178219243
 20
40.86464175230144
 30
0.0
 11
9.523581046053816
 21
40.78190894667133
 31
0.0
  0
LINE
  5
2CF
330
2
100
AcDbEntity
  8
0
100
AcDbLine
 10
8.440264625831465
 20
40.41284047610755
 30
0.0
 11
9.343867178219243
 21
40.86464175230144
 31
0.0
  0
LINE
  5
2D0
330
2
100
AcDbEntity
  8
0
100
AcDbLine
 10
8.602079373444489
 20
40.32115811035056
 30
0.0
 11
8.440264625831465
 21
40.41284047610755
 31
0.0
  0
LINE
  5
2D1
330
2
100
AcDbEntity
  8
0
100
AcDbLine
 10
8.488053856081638
 20
40.26414535168522
 30
0.0
 11
8.602079373444489
 21
40.32115811035056
 31
0.0
  0
SPLINE
  5
2D2
330
2
100
AcDbEntity
  8
0
100
AcDbSpline
210
0.0
220
0.0
230
1.0
 70
     8
 71
     3
 72
    10
 73
     6
 74
     0
 42
0.000000001
 43
0.0000000001
 40
0.0
 40
0.0
 40
0.0
 40
0.0
 40
0.6349194879388202
 40
0.9906673965248899
 40
1.0
 40
1.0
 40
1.0
 40
1.0
 10
8.05447019886434
 20
40.67508300205501
 30
0.0
 10
8.043310277468338
 20
40.70401104018156
 30
0.0
 10
8.022515335622292
 20
40.74712683848368
 30
0.0
 10
8.012903610921963
 20
40.79954167530874
 30
0.0
 10
8.009726637643399
 20
40.81891770702489
 30
0.0
 10
8.009645424237334
 20
40.81941301919565
 30
0.0
  0
LINE
  5
2D3
330
2
100
AcDbEntity
  8
0
100
AcDbLine
 10
8.602079373444489
 20
40.32115811035056
 30
0.0
 11
8.602079373444489
 21
40.49374889848317
 31
0.0
  0
ELLIPSE
  5
2D4
330
2
100
AcDbEntity
  8
0
100
AcDbEllipse
 10
8.488080174814124
 20
40.33387589713492
 30
0.0
 11
0.0361277113089404
 21
0.0720088138655953
 31
0.0
210
0.0
220
0.0
230
0.9999999999999998
 40
0.6122604022
 41
3.110674807787447
 42
3.827620300335297
  0
LWPOLYLINE
  5
2D5
330
2
100
AcDbEntity
  8
0
100
AcDbPolyline
 90
        4
 70
   128
 43
0.0
 10
39.73192816263451
 20
38.05379399104656
 10
39.64662393706524
 20
38.07358527527778
 10
39.58255522261022
 20
38.06535357080188
 10
39.51592579528065
 20
38.04007626488829
  0
LINE
  5
2D6
330
2
100
AcDbEntity
  8
0
100
AcDbLine
 10
39.51592579528065
 20
38.04007626488829
 30
0.0
 11
38.83286601970271
 21
37.69854637713151
 31
0.0
  0
LINE
  5
2D7
330
2
100
AcDbEntity
  8
0
100
AcDbLine
 10
39.91437747241826
 20
35.21786473165715
 30
0.0
 11
39.91437747241826
 21
37.76409281623546
 31
0.0
  0
LINE
  5
2D8
330
2
100
AcDbEntity
  8
0
100
AcDbLine
 10
41.10973250376673
 20
37.16641530054516
 30
0.0
 11
41.10973250376673
 21
34.62018721599903
 31
0.0
  0
LWPOLYLINE
  5
2D9
330
2
100
AcDbEntity
  8
0
100
AcDbPolyline
 90
        4
 70
   128
 43
0.0
 10
40.92728319398292
 20
37.45611647538846
 10
40.84197896841366
 20
37.4759077595875
 10
40.77791025399079
 20
37.4676760551116
 10
40.71128082662911
 20
37.44239874923019
  0
LINE
  5
2DA
330
2
100
AcDbEntity
  8
0
100
AcDbLine
 10
40.71128082662911
 20
37.44239874923019
 30
0.0
 11
39.91437747241826
 21
37.04394707212474
 31
0.0
  0
ARC
  5
2DB
330
2
100
AcDbEntity
  8
0
100
AcDbCircle
 10
39.63962435365532
 20
37.7928507989165
 30
0.0
 40
0.2762540458080887
100
AcDbArc
 50
354.0246970381001
 51
57.30443031809734
  0
ARC
  5
2DC
330
2
100
AcDbEntity
  8
0
100
AcDbCircle
 10
40.83497938500374
 20
37.19517328325839
 30
0.0
 40
0.2762540458079481
100
AcDbArc
 50
354.0246970381001
 51
57.30443031809734
  0
LINE
  5
2DD
330
2
100
AcDbEntity
  8
0
100
AcDbLine
 10
42.19124438055317
 20
34.07943127758974
 30
0.0
 11
42.19124438055317
 21
36.62565936216801
 31
0.0
  0
LWPOLYLINE
  5
2DE
330
2
100
AcDbEntity
  8
0
100
AcDbPolyline
 90
        4
 70
   128
 43
0.0
 10
42.00879507076935
 20
36.91536053697916
 10
41.92349084520009
 20
36.93515182117818
 10
41.85942213077724
 20
36.92692011673446
 10
41.79279270341553
 20
36.90164281082087
  0
LINE
  5
2DF
330
2
100
AcDbEntity
  8
0
100
AcDbLine
 10
41.79279270341553
 20
36.90164281082087
 30
0.0
 11
41.10973292786975
 21
36.56011292303185
 31
0.0
  0
LINE
  5
2E0
330
2
100
AcDbEntity
  8
0
100
AcDbLine
 10
43.38659941190156
 20
36.02798184647773
 30
0.0
 11
43.38659941190156
 21
33.48175376193164
 31
0.0
  0
POLYLINE
  5
2E1
330
2
100
AcDbEntity
  8
0
100
AcDb2dPolyline
 66
     1
 10
0.0
 20
0.0
 30
0.0
 70
   130
  0
VERTEX
  5
2E2
330
2E1
100
AcDbEntity
  8
0
100
AcDbVertex
100
AcDb2dVertex
 10
43.20415052622083
 20
36.31768280925343
 30
0.0
 42
0.0749336761301521
  0
VERTEX
  5
2E3
330
2E1
100
AcDbEntity
  8
0
100
AcDbVertex
100
AcDb2dVertex
 10
43.1303351492664
 20
36.33471886721264
 30
0.0
 42
0.0749336761301561
 70
     1
  0
VERTEX
  5
2E4
330
2E1
100
AcDbEntity
  8
0
100
AcDbVertex
100
AcDb2dVertex
 10
43.05477758622874
 20
36.32924238900872
 30
0.0
 42
0.0351783917271891
  0
VERTEX
  5
2E5
330
2E1
100
AcDbEntity
  8
0
100
AcDbVertex
100
AcDb2dVertex
 10
43.0205725557945
 20
36.31895055638354
 30
0.0
 42
0.0351783917272174
 70
     1
  0
VERTEX
  5
2E6
330
2E1
100
AcDbEntity
  8
0
100
AcDbVertex
100
AcDb2dVertex
 10
42.98814815886701
 20
36.30396508309509
 30
0.0
  0
SEQEND
  5
2E7
330
2E1
100
AcDbEntity
  8
0
  0
LINE
  5
2E8
330
2
100
AcDbEntity
  8
0
100
AcDbLine
 10
42.98814815886701
 20
36.30396508309509
 30
0.0
 11
42.19124480465623
 21
35.90551340598969
 31
0.0
  0
ARC
  5
2E9
330
2
100
AcDbEntity
  8
0
100
AcDbCircle
 10
41.91649126182233
 20
36.6544173448491
 30
0.0
 40
0.2762540458079485
100
AcDbArc
 50
354.0246970381001
 51
57.30443031809734
  0
ARC
  5
2EA
330
2
100
AcDbEntity
  8
0
100
AcDbCircle
 10
43.11184629317079
 20
36.05673982919099
 30
0.0
 40
0.2762540458083031
100
AcDbArc
 50
354.0246970381001
 51
57.30443031809734
  0
LINE
  5
2EB
330
2
100
AcDbEntity
  8
0
100
AcDbLine
 10
35.13295671085391
 20
37.60857511242321
 30
0.0
 11
35.13295671085391
 21
40.15480319700153
 31
0.0
  0
LWPOLYLINE
  5
2EC
330
2
100
AcDbEntity
  8
0
100
AcDbPolyline
 90
        4
 70
   128
 43
0.0
 10
34.95050761313779
 20
40.44450426581105
 10
34.86520338756851
 20
40.46429555001006
 10
34.8011346731135
 20
40.45606384553416
 10
34.73450524578396
 20
40.43078653965276
  0
LINE
  5
2ED
330
2
100
AcDbEntity
  8
0
100
AcDbLine
 10
34.73450524578396
 20
40.43078653965276
 30
0.0
 11
34.05144547020599
 21
40.08925665186373
 31
0.0
  0
LWPOLYLINE
  5
2EE
330
2
100
AcDbEntity
  8
0
100
AcDbPolyline
 90
        4
 70
   128
 43
0.0
 10
36.14586275052002
 20
39.84682669711994
 10
36.06055852491855
 20
39.86661798131896
 10
35.99648981049573
 20
39.85838627687522
 10
35.92986038316619
 20
39.83310897096163
  0
LINE
  5
2EF
330
2
100
AcDbEntity
  8
0
100
AcDbLine
 10
35.92986038316619
 20
39.83310897096163
 30
0.0
 11
35.13295702892321
 21
39.43465729385623
 31
0.0
  0
LINE
  5
2F0
330
2
100
AcDbEntity
  8
0
100
AcDbLine
 10
36.32831195423779
 20
39.55712557530962
 30
0.0
 11
36.32831195423779
 21
37.01089749073129
 31
0.0
  0
ARC
  5
2F1
330
2
100
AcDbEntity
  8
0
100
AcDbCircle
 10
34.85820359212314
 20
40.1835611797148
 30
0.0
 40
0.2762540458080156
100
AcDbArc
 50
354.0246970381001
 51
57.30443031809734
  0
ARC
  5
2F2
330
2
100
AcDbEntity
  8
0
100
AcDbCircle
 10
36.05355883550701
 20
39.58588355799064
 30
0.0
 40
0.2762540458083318
100
AcDbArc
 50
354.0246970381001
 51
57.30443031809734
  0
LWPOLYLINE
  5
2F3
330
2
100
AcDbEntity
  8
0
100
AcDbPolyline
 90
        4
 70
   128
 43
0.0
 10
32.67364070500292
 20
41.58293771987845
 10
32.58833647943367
 20
41.6027290040775
 10
32.52426776497864
 20
41.59449729963377
 10
32.45763833764907
 20
41.56921999372017
  0
LINE
  5
2F4
330
2
100
AcDbEntity
  8
0
100
AcDbLine
 10
32.45763833764907
 20
41.56921999372017
 30
0.0
 11
31.77457856207113
 21
41.2276901059312
 31
0.0
  0
LINE
  5
2F5
330
2
100
AcDbEntity
  8
0
100
AcDbLine
 10
32.85609001475452
 20
38.74700846048906
 30
0.0
 11
32.85609001475452
 21
41.29323654503514
 31
0.0
  0
LWPOLYLINE
  5
2F6
330
2
100
AcDbEntity
  8
0
100
AcDbPolyline
 90
        4
 70
   128
 43
0.0
 10
33.86899573635135
 20
40.98526020418817
 10
33.78369151078208
 20
41.00505148841938
 10
33.71962279632706
 20
40.99681978394349
 10
33.65299336899756
 20
40.97154247806207
  0
LINE
  5
2F7
330
2
100
AcDbEntity
  8
0
100
AcDbLine
 10
33.65299336899756
 20
40.97154247806207
 30
0.0
 11
32.85609001475452
 21
40.57309080092446
 31
0.0
  0
LINE
  5
2F8
330
2
100
AcDbEntity
  8
0
100
AcDbLine
 10
34.05144504610293
 20
40.69555902937703
 30
0.0
 11
34.05144504610293
 21
38.14933094479876
 31
0.0
  0
ARC
  5
2F9
330
2
100
AcDbEntity
  8
0
100
AcDbCircle
 10
32.58133689602374
 20
41.32199452774841
 30
0.0
 40
0.276254045808258
100
AcDbArc
 50
354.0246970381001
 51
57.30443031809734
  0
ARC
  5
2FA
330
2
100
AcDbEntity
  8
0
100
AcDbCircle
 10
33.77669192737216
 20
40.7243170120581
 30
0.0
 40
0.2762540458079997
100
AcDbArc
 50
354.0246970381001
 51
57.30443031809734
  0
LWPOLYLINE
  5
2FB
330
2
100
AcDbEntity
  8
0
100
AcDbPolyline
 90
        5
 70
   128
 43
0.0
 10
31.59174756275638
 20
42.12128253191617
 10
31.56587028236075
 20
42.1343535333384
 10
31.50682460261504
 20
42.14348494248678
 10
31.44275588819221
 20
42.13525323801092
 10
31.37612646086266
 20
42.10997593212947
  0
LINE
  5
2FC
330
2
100
AcDbEntity
  8
0
100
AcDbLine
 10
31.37612646086266
 20
42.10997593212947
 30
0.0
 11
31.29643646470472
 21
42.07013093403442
 31
0.0
  0
LINE
  5
2FD
330
2
100
AcDbEntity
  8
0
100
AcDbLine
 10
31.77457813796808
 20
41.83399248344444
 30
0.0
 11
31.77457813796808
 21
39.28776439886615
 31
0.0
  0
ARC
  5
2FE
330
2
100
AcDbEntity
  8
0
100
AcDbCircle
 10
31.49982501923731
 20
41.8627504661255
 30
0.0
 40
0.2762540458081899
100
AcDbArc
 50
354.0246970381001
 51
57.30443031809734
  0
LWPOLYLINE
  5
2FF
330
2
100
AcDbEntity
  8
0
100
AcDbPolyline
 90
        4
 70
   128
 43
0.0
 10
37.45506125449965
 20
39.19222744511402
 10
37.36975702893035
 20
39.21201872934521
 10
37.30568831447536
 20
39.20378702486934
 10
37.23905888714583
 20
39.17850971898792
  0
LINE
  5
300
330
2
100
AcDbEntity
  8
0
100
AcDbLine
 10
37.23905888714583
 20
39.17850971898792
 30
0.0
 11
36.32831195423779
 21
38.72313625253386
 31
0.0
  0
LINE
  5
301
330
2
100
AcDbEntity
  8
0
100
AcDbLine
 10
37.63751045824963
 20
36.35629823875758
 30
0.0
 11
37.63751045824963
 21
38.90252632330371
 31
0.0
  0
LINE
  5
302
330
2
100
AcDbEntity
  8
0
100
AcDbLine
 10
38.83286559563183
 20
38.30484875461255
 30
0.0
 11
38.83286559563183
 21
35.75862067006648
 31
0.0
  0
LWPOLYLINE
  5
303
330
2
100
AcDbEntity
  8
0
100
AcDbPolyline
 90
        4
 70
   128
 43
0.0
 10
38.65041649791569
 20
38.5945498234221
 10
38.56511227231423
 20
38.61434110762109
 10
38.50104355789141
 20
38.60610940317741
 10
38.43441413056184
 20
38.58083209726379
  0
LINE
  5
304
330
2
100
AcDbEntity
  8
0
100
AcDbLine
 10
38.43441413056184
 20
38.58083209726379
 30
0.0
 11
37.63751077631886
 21
38.18238042015839
 31
0.0
  0
ARC
  5
305
330
2
100
AcDbEntity
  8
0
100
AcDbCircle
 10
37.36275733948666
 20
38.93128430601693
 30
0.0
 40
0.2762540458081943
100
AcDbArc
 50
354.0246970381001
 51
57.30443031809734
  0
ARC
  5
306
330
2
100
AcDbEntity
  8
0
100
AcDbCircle
 10
38.55811247686889
 20
38.33360673732585
 30
0.0
 40
0.2762540458080887
100
AcDbArc
 50
354.0246970381001
 51
57.30443031809734
  0
LWPOLYLINE
  5
307
330
2
100
AcDbEntity
  8
0
100
AcDbPolyline
 90
        4
 70
   128
 43
0.0
 10
44.28566197893641
 20
35.7769270829117
 10
44.20035775333494
 20
35.79671836711073
 10
44.1362890389121
 20
35.78848666266706
 10
44.0696596115826
 20
35.76320935675341
  0
LINE
  5
308
330
2
100
AcDbEntity
  8
0
100
AcDbLine
 10
44.0696596115826
 20
35.76320935675341
 30
0.0
 11
43.38659983600458
 21
35.42167946896442
 31
0.0
  0
LINE
  5
309
330
2
100
AcDbEntity
  8
0
100
AcDbLine
 10
44.468111288688
 20
32.94099782352228
 30
0.0
 11
44.468111288688
 21
35.48722590810061
 31
0.0
  0
LWPOLYLINE
  5
30A
330
2
100
AcDbEntity
  8
0
100
AcDbPolyline
 90
        4
 70
   128
 43
0.0
 10
45.48101701028482
 20
35.17924956725359
 10
45.39571278468335
 20
35.19904085145262
 10
45.33164407026051
 20
35.19080914697671
 10
45.26501464293101
 20
35.16553184109529
  0
LINE
  5
30B
330
2
100
AcDbEntity
  8
0
100
AcDbLine
 10
45.26501464293101
 20
35.16553184109529
 30
0.0
 11
44.468111288688
 21
34.76708016395769
 31
0.0
  0
LINE
  5
30C
330
2
100
AcDbEntity
  8
0
100
AcDbLine
 10
45.66346632003645
 20
34.88954839241027
 30
0.0
 11
45.66346632003645
 21
32.343320307832
 31
0.0
  0
ARC
  5
30D
330
2
100
AcDbEntity
  8
0
100
AcDbCircle
 10
44.19335816995726
 20
35.51598389078164
 30
0.0
 40
0.2762540458080855
100
AcDbArc
 50
354.0246970381001
 51
57.30443031809734
  0
ARC
  5
30E
330
2
100
AcDbEntity
  8
0
100
AcDbCircle
 10
45.38871320130564
 20
34.91830637512356
 30
0.0
 40
0.2762540458081908
100
AcDbArc
 50
354.0246970381001
 51
57.30443031809734
  0
LINE
  5
30F
330
2
100
AcDbEntity
  8
0
100
AcDbLine
 10
4.338332085723439
 20
28.30188162651923
 30
0.0
 11
4.338332085723439
 21
31.64501318615404
 31
0.0
  0
ARC
  5
310
330
2
100
AcDbEntity
  8
0
100
AcDbCircle
 10
5.037447897162294
 20
31.63320401194515
 30
0.0
 40
0.6992155421459506
100
AcDbArc
 50
120.7578046951021
 51
179.0322754973999
  0
LINE
  5
311
330
2
100
AcDbEntity
  8
0
100
AcDbLine
 10
27.1582306927231
 20
43.47324998754298
 30
0.0
 11
4.679861973512441
 21
32.23406562795372
 31
0.0
  0
LINE
  5
312
330
2
100
AcDbEntity
  8
0
100
AcDbLine
 10
47.55326650266055
 20
31.3984198342764
 30
0.0
 11
31.29643519242775
 21
39.52683548940907
 31
0.0
  0
LINE
  5
313
330
2
100
AcDbEntity
  8
0
100
AcDbLine
 10
27.15822984451699
 20
39.71183109269226
 30
0.0
 11
1.99885070040721
 21
27.13214152063737
 31
0.0
  0
LINE
  5
314
330
2
100
AcDbEntity
  8
0
100
AcDbLine
 10
5.680419613491024
 20
39.10841045874017
 30
0.0
 11
5.021391861301407
 21
38.77889658264535
 31
0.0
  0
ARC
  5
315
330
2
100
AcDbEntity
  8
0
100
AcDbCircle
 10
5.88495320274209
 20
38.67352032373761
 30
0.0
 40
0.4805865360721205
100
AcDbArc
 50
94.77393114410181
 51
115.1881150351985
  0
LINE
  5
316
330
2
100
AcDbEntity
  8
0
100
AcDbLine
 10
6.031774190770728
 20
39.17112120651036
 30
0.0
 11
5.844956655955119
 21
39.15243962268615
 31
0.0
  0
ARC
  5
317
330
2
100
AcDbEntity
  8
0
100
AcDbCircle
 10
5.911792001498953
 20
40.60786726810825
 30
0.0
 40
1.441747193932401
100
AcDbArc
 50
274.773675204702
 51
295.1881315880005
  0
LINE
  5
318
330
2
100
AcDbEntity
  8
0
100
AcDbLine
 10
6.582452997675064
 20
39.33174084169213
 30
0.0
 11
6.525387862684715
 21
39.30320827421307
 31
0.0
  0
ARC
  5
319
330
2
100
AcDbEntity
  8
0
100
AcDbCircle
 10
4.77915781376953
 20
39.18217351380164
 30
0.0
 40
0.4704355609363895
100
AcDbArc
 50
245.6625916716991
 51
300.9917339541997
  0
LWPOLYLINE
  5
31A
330
2
100
AcDbEntity
  8
0
100
AcDbPolyline
 90
       18
 70
   128
 43
0.0
 10
5.357748583154879
 20
38.04840932175156
 10
5.383990165017181
 20
37.92831503925023
 10
5.447751831403081
 20
37.84758594091958
 10
5.540422665658858
 20
37.81712707958366
 10
5.649485794534276
 20
37.84104959399874
 10
5.76021308992536
 20
37.91612395323547
 10
5.857649106357256
 20
38.03220991983431
 10
5.928634883961831
 20
38.17363100218824
 10
5.963584077201951
 20
38.321286257343
 10
5.957775610168583
 20
38.45523507093901
 10
5.91199406701183
 20
38.55738587865932
 10
5.832422818743681
 20
38.61394214858544
 10
5.729808547171766
 20
38.61726798581317
 10
5.61800997637934
 20
38.56691188355032
 10
5.512125049308885
 20
38.46967589635059
 10
5.426456098137813
 20
38.33869171973919
 10
5.37257086136471
 20
38.19165026293929
 10
5.357748583154879
 20
38.04840932175156
  0
ARC
  5
31B
330
2
100
AcDbEntity
  8
0
100
AcDbCircle
 10
30.6157941304512
 20
39.44311642627678
 30
0.0
 40
0.2760853015722504
100
AcDbArc
 50
303.9315356339001
 51
353.3172939521
  0
LWPOLYLINE
  5
31C
330
2
100
AcDbEntity
  8
0
100
AcDbPolyline
 90
       15
 70
   128
 43
0.0
 10
46.92519547079953
 20
27.29409291698574
 10
46.84181665703913
 20
27.37003514566715
 10
46.81541306916163
 20
27.45565617357925
 10
46.84917054273049
 20
27.54062917746277
 10
46.93901687416794
 20
27.6147040959389
 10
47.07411547255905
 20
27.66894769683235
 10
47.23816988973761
 20
27.69681654856634
 10
47.41139588314163
 20
27.69494966246411
 10
47.57289637303018
 20
27.66357223541326
 10
47.70319501305208
 20
27.60646893146985
 10
47.78657467501863
 20
27.53052627868538
 10
47.81297741472221
 20
27.44490567487633
 10
47.77922078935945
 20
27.35993309509587
 10
47.68937360971586
 20
27.28585775251668
 10
47.62151429376198
 20
27.25377716842632
  0
LWPOLYLINE
  5
31D
330
2
100
AcDbEntity
  8
0
100
AcDbPolyline
 90
       12
 70
   128
 43
0.0
 10
49.51894572315808
 20
37.94777412034697
 10
49.49958982107676
 20
37.93639400071285
 10
49.38914497597077
 20
37.91278967896188
 10
49.26378624713527
 20
37.94483402263947
 10
49.13709754222353
 20
38.02905568985001
 10
49.02280865908434
 20
38.15632669605067
 10
48.93330330363854
 20
38.31285616569397
 10
48.87828232834685
 20
38.48168042538453
 10
48.8637060278812
 20
38.64450701156787
 10
48.89115629337597
 20
38.78368896492588
 10
48.95765679447112
 20
38.88414515320633
 10
49.02731683696563
 20
38.92673478451152
  0
LWPOLYLINE
  5
31E
330
2
100
AcDbEntity
  8
0
100
AcDbPolyline
 90
        7
 70
   128
 43
0.0
 10
48.82637085074465
 20
30.12714795902518
 10
48.73942620823776
 20
30.28538798621744
 10
48.68761821091193
 20
30.45441708240353
 10
48.67656278462296
 20
30.61591739644917
 10
48.70745758642049
 20
30.75238811792474
 10
48.77695392651975
 20
30.8490408390985
 10
48.84344000823975
 20
30.88676464439589
  0
LWPOLYLINE
  5
31F
330
2
100
AcDbEntity
  8
0
100
AcDbPolyline
 90
        6
 70
   128
 43
0.0
 10
49.33143945071027
 20
29.90661993196005
 10
49.30338696389842
 20
29.89093071172307
 10
49.1912033107506
 20
29.87196926966238
 10
49.06519995064661
 20
29.90859684200637
 10
48.93903203994129
 20
29.99684389199109
 10
48.82637085074465
 20
30.12714795902518
  0
ARC
  5
320
330
2
100
AcDbEntity
  8
0
100
AcDbCircle
 10
29.0423377633792
 20
28.47601176787301
 30
0.0
 40
7.37589622919149
100
AcDbArc
 50
66.01593401790051
 51
113.9840659820995
  0
SPLINE
  5
321
330
2
100
AcDbEntity
  8
0
100
AcDbSpline
210
0.0
220
0.0
230
1.0
 70
     8
 71
     3
 72
    10
 73
     6
 74
     0
 42
0.000000001
 43
0.0000000001
 40
0.0
 40
0.0
 40
0.0
 40
0.0
 40
0.4238951073812486
 40
0.8476257263837874
 40
1.0
 40
1.0
 40
1.0
 40
1.0
 10
6.479730156606523
 20
24.06084807356212
 30
0.0
 10
6.478396831995111
 20
24.04576449447809
 30
0.0
 10
6.47573070015592
 20
24.01560318934636
 30
0.0
 10
6.443188194907943
 20
23.98289552189162
 30
0.0
 10
6.417091254815803
 20
23.96729250508204
 30
0.0
 10
6.410188861968391
 20
23.96316565529641
 30
0.0
  0
LINE
  5
322
330
2
100
AcDbEntity
  8
0
100
AcDbLine
 10
6.480282334197282
 20
24.06112416236466
 30
0.0
 11
6.479730156622267
 21
24.06084807356105
 31
0.0
  0
LINE
  5
323
330
2
100
AcDbEntity
  8
0
100
AcDbLine
 10
26.28977835671761
 20
33.96587217360873
 30
0.0
 11
6.480282334197282
 21
24.06112416236466
 31
0.0
  0
LINE
  5
324
330
2
100
AcDbEntity
  8
0
100
AcDbLine
 10
43.52151607159476
 20
28.10256272286393
 30
0.0
 11
31.79489759417604
 21
33.96587196157332
 31
0.0
  0
LINE
  5
325
330
2
100
AcDbEntity
  8
0
100
AcDbLine
 10
43.52206740096367
 20
28.10228705816339
 30
0.0
 11
43.52151607159476
 21
28.10256272286393
 31
0.0
  0
SPLINE
  5
326
330
2
100
AcDbEntity
  8
0
100
AcDbSpline
210
0.0
220
0.0
230
1.0
 70
     8
 71
     3
 72
    10
 73
     6
 74
     0
 42
0.000000001
 43
0.0000000001
 40
0.0
 40
0.0
 40
0.0
 40
0.0
 40
0.4299147839932629
 40
0.8601225083953057
 40
1.0
 40
1.0
 40
1.0
 40
1.0
 10
43.59160911970336
 20
28.00460442784669
 30
0.0
 10
43.573398309477
 20
28.01691011806863
 30
0.0
 10
43.53696428032737
 20
28.04152988350898
 30
0.0
 10
43.52108094096551
 20
28.07722761872967
 30
0.0
 10
43.52187304772876
 20
28.09734982485223
 30
0.0
 10
43.52206740096577
 20
28.10228705816216
 30
0.0
  0
LINE
  5
327
330
2
100
AcDbEntity
  8
0
100
AcDbLine
 10
43.61173518649556
 20
27.99335306758994
 30
0.0
 11
43.59160911970358
 21
28.00460442784882
 31
0.0
  0
LINE
  5
328
330
2
100
AcDbEntity
  8
0
100
AcDbLine
 10
6.410188861953234
 20
23.96316565528192
 30
0.0
 11
6.390063643367373
 21
23.95191387095219
 31
0.0
  0
SPLINE
  5
329
330
2
100
AcDbEntity
  8
0
100
AcDbSpline
210
0.0
220
0.0
230
1.0
 70
     8
 71
     3
 72
    10
 73
     6
 74
     0
 42
0.000000001
 43
0.0000000001
 40
0.0
 40
0.0
 40
0.0
 40
0.0
 40
0.0082470991635651
 40
0.1683458898192571
 40
1.0
 40
1.0
 40
1.0
 40
1.0
 10
26.14630633740721
 20
34.6379752775982
 30
0.0
 10
26.14616653606739
 20
34.63736865635802
 30
0.0
 10
26.14331280768588
 20
34.62498585478786
 30
0.0
 10
26.12733567873459
 20
34.5508120384118
 30
0.0
 10
26.12451082893263
 20
34.47351146968329
 30
0.0
 10
26.12214199497553
 20
34.40868954110796
 30
0.0
  0
SPLINE
  5
32A
330
2
100
AcDbEntity
  8
0
100
AcDbSpline
210
0.0
220
0.0
230
1.0
 70
     8
 71
     3
 72
    10
 73
     6
 74
     0
 42
0.000000001
 43
0.0000000001
 40
0.0
 40
0.0
 40
0.0
 40
0.0
 40
0.8316544917457491
 40
0.9917537568556536
 40
1.0
 40
1.0
 40
1.0
 40
1.0
 10
31.96253395589654
 20
34.40868932905817
 30
0.0
 10
31.96016957430509
 20
34.47351164023338
 30
0.0
 10
31.95735003283773
 20
34.55081269647021
 30
0.0
 10
31.94136032306065
 20
34.62498589962622
 30
0.0
 10
31.93850926958305
 20
34.63736851501826
 30
0.0
 10
31.9383696134649
 20
34.63797506554845
 30
0.0
  0
LINE
  5
32B
330
2
100
AcDbEntity
  8
0
100
AcDbLine
 10
43.52204704417796
 20
28.10282872856986
 30
0.0
 11
43.52151607159476
 21
28.10256272286393
 31
0.0
  0
ARC
  5
32C
330
2
100
AcDbEntity
  8
0
100
AcDbCircle
 10
6.535181224802231
 20
24.17136908398253
 30
0.0
 40
0.123157748186298
100
AcDbArc
 50
243.2521336116972
 51
243.5279781696002
  0
LINE
  5
32D
330
2
100
AcDbEntity
  8
0
100
AcDbLine
 10
26.04416451269277
 20
35.21506231990376
 30
0.0
 11
6.121578960430633
 21
25.2537695437727
 31
0.0
  0
LINE
  5
32E
330
2
100
AcDbEntity
  8
0
100
AcDbLine
 10
43.88021944532921
 20
29.29520810427197
 30
0.0
 11
32.04051101406566
 21
35.21506231990376
 31
0.0
  0
ARC
  5
32F
330
2
100
AcDbEntity
  8
0
100
AcDbCircle
 10
43.89061164894805
 20
27.70358466930489
 30
0.0
 40
0.4506703313602813
100
AcDbArc
 50
76.23965430279709
 51
112.253165478499
  0
LWPOLYLINE
  5
330
330
2
100
AcDbEntity
  8
0
100
AcDbPolyline
 90
        8
 70
   128
 43
0.0
 10
43.99780867095549
 20
28.14132037272474
 10
44.31780957073015
 20
27.9406326631078
 10
44.5864206352829
 20
27.72191436241657
 10
44.79962479401471
 20
27.48843697435575
 10
44.95423281850558
 20
27.24369253435173
 10
45.04793336638519
 20
26.99134229356596
 10
45.0793218200189
 20
26.73515988950381
 10
45.07846853178537
 20
26.69284832863997
  0
ARC
  5
331
330
2
100
AcDbEntity
  8
0
100
AcDbCircle
 10
42.72091865653339
 20
26.78422248208105
 30
0.0
 40
2.765687457712127
100
AcDbArc
 50
42.02373040110154
 51
65.21762989640196
  0
LINE
  5
332
330
2
100
AcDbEntity
  8
0
100
AcDbLine
 10
43.6609633864381
 20
28.09119912634416
 30
0.0
 11
43.7199429066544
 21
28.12068888646841
 31
0.0
  0
ARC
  5
333
330
2
100
AcDbEntity
  8
0
100
AcDbCircle
 10
43.70922609151001
 20
28.00227904049005
 30
0.0
 40
0.1011734667216816
100
AcDbArc
 50
118.4915580859001
 51
177.2424051956
  0
LWPOLYLINE
  5
334
330
2
100
AcDbEntity
  8
0
100
AcDbPolyline
 90
        8
 70
   128
 43
0.0
 10
43.65412266119472
 20
25.46362481681646
 10
43.96135646904103
 20
25.65891628412555
 10
44.21395014295265
 20
25.87289230398028
 10
44.40742604021076
 20
26.10175591336817
 10
44.53834980292161
 20
26.34144635939732
 10
44.60439651751364
 20
26.58771119620439
 10
44.60439651751364
 20
26.83618007817782
 10
44.59329868130543
 20
26.90183916582841
  0
LINE
  5
335
330
2
100
AcDbEntity
  8
0
100
AcDbLine
 10
43.52206740096367
 20
28.10228705816339
 30
0.0
 11
43.52204704417796
 21
28.10282872856986
 31
0.0
  0
ARC
  5
336
330
2
100
AcDbEntity
  8
0
100
AcDbCircle
 10
43.70033498831104
 20
25.38501789218486
 30
0.0
 40
0.0911845808243262
100
AcDbArc
 50
120.4508999935995
 51
185.2725928726997
  0
ARC
  5
337
330
2
100
AcDbEntity
  8
0
100
AcDbCircle
 10
6.111185087093184
 20
23.66214076899039
 30
0.0
 40
0.4506751207414089
100
AcDbArc
 50
67.74685430359865
 51
103.7599780365987
  0
LWPOLYLINE
  5
338
330
2
100
AcDbEntity
  8
0
100
AcDbPolyline
 90
        8
 70
   128
 43
0.0
 10
4.923329025768364
 20
22.65140934403764
 10
4.92247658574093
 20
22.69372132900453
 10
4.953865887580771
 20
22.94990330896363
 10
5.047565587254271
 20
23.20225397385247
 10
5.202173611745158
 20
23.44699841385647
 10
5.415377770476992
 20
23.6804758019173
 10
5.683988835061954
 20
23.89919410260853
 10
6.003989734836569
 20
24.09988181222548
  0
ARC
  5
339
330
2
100
AcDbEntity
  8
0
100
AcDbCircle
 10
7.252606703967027
 20
22.78721451946929
 30
0.0
 40
2.713506485062807
100
AcDbArc
 50
114.6336105962993
 51
139.6716612221001
  0
LINE
  5
33A
330
2
100
AcDbEntity
  8
0
100
AcDbLine
 10
6.281855499105451
 20
24.07924947776303
 30
0.0
 11
6.340834171115642
 21
24.04976014174184
 31
0.0
  0
ARC
  5
33B
330
2
100
AcDbEntity
  8
0
100
AcDbCircle
 10
6.297417161630082
 20
23.96411642484752
 30
0.0
 40
0.096020221631049
100
AcDbArc
 50
0.1758628799996825
 51
63.11730944120078
  0
LWPOLYLINE
  5
33C
330
2
100
AcDbEntity
  8
0
100
AcDbPolyline
 90
        8
 70
   128
 43
0.0
 10
5.399820951891265
 20
22.81169871286834
 10
5.397401888246225
 20
22.79474066947243
 10
5.397401888246225
 20
22.54627178749901
 10
5.463449451044382
 20
22.30000737479501
 10
5.594372365549085
 20
22.0603173528689
 10
5.787847414633294
 20
21.83145331937796
 10
6.040442360854072
 20
21.61747751159087
 10
6.347674896359042
 20
21.42218583221414
  0
LINE
  5
33D
330
2
100
AcDbEntity
  8
0
100
AcDbLine
 10
6.479752209787986
 20
24.06138974396754
 30
0.0
 11
6.479730156622267
 21
24.06084807356105
 31
0.0
  0
ARC
  5
33E
330
2
100
AcDbEntity
  8
0
100
AcDbCircle
 10
6.305130453007516
 20
21.34545770028712
 30
0.0
 40
0.087733892471491
100
AcDbArc
 50
353.2855704678996
 51
60.99237739029942
  0
ARC
  5
33F
330
2
100
AcDbEntity
  8
0
100
AcDbCircle
 10
20.95946068952111
 20
21.48297193121326
 30
0.0
 40
6.594168466834549
100
AcDbArc
 50
247.7521335447974
 51
292.2478615889005
  0
LINE
  5
340
330
2
100
AcDbEntity
  8
0
100
AcDbLine
 10
12.95064147589697
 20
17.9511096611531
 30
0.0
 11
12.92832239048929
 21
17.69807537163217
 31
0.0
  0
SPLINE
  5
341
330
2
100
AcDbEntity
  8
0
100
AcDbSpline
210
0.0
220
0.0
230
1.0
 70
     8
 71
     3
 72
    10
 73
     6
 74
     0
 42
0.000000001
 43
0.0000000001
 40
0.0
 40
0.0
 40
0.0
 40
0.0
 40
0.1392486892704611
 40
0.5682749063827534
 40
1.0
 40
1.0
 40
1.0
 40
1.0
 10
23.5940415000809
 20
15.40923088787268
 30
0.0
 10
23.587070935687
 20
15.40929625237811
 30
0.0
 10
23.55862401206326
 20
15.40956300539668
 30
0.0
 10
23.50802442949391
 20
15.40270284749422
 30
0.0
 10
23.47344806504183
 20
15.38738944751536
 30
0.0
 10
23.45610567590586
 20
15.37970874002521
 30
0.0
  0
SPLINE
  5
342
330
2
100
AcDbEntity
  8
0
100
AcDbSpline
210
0.0
220
0.0
230
1.0
 70
     8
 71
     3
 72
    10
 73
     6
 74
     0
 42
0.000000001
 43
0.0000000001
 40
0.0
 40
0.0
 40
0.0
 40
0.0
 40
0.153457494638946
 40
0.5777748746484633
 40
1.0
 40
1.0
 40
1.0
 40
1.0
 10
18.46281518476481
 20
15.37970895207497
 30
0.0
 10
18.45699040727906
 20
15.3826185664348
 30
0.0
 10
18.43505983888535
 20
15.39357340494545
 30
0.0
 10
18.38892833617413
 20
15.40738211816899
 30
0.0
 10
18.34619296367624
 20
15.40861564753947
 30
0.0
 10
18.32487808829123
 20
15.40923088787268
 30
0.0
  0
SPLINE
  5
343
330
2
100
AcDbEntity
  8
0
100
AcDbSpline
210
0.0
220
0.0
230
1.0
 70
     8
 71
     3
 72
    10
 73
     6
 74
     0
 42
0.000000001
 43
0.0000000001
 40
0.0
 40
0.0
 40
0.0
 40
0.0
 40
0.0722717810845638
 40
0.5372401044794493
 40
1.0
 40
1.0
 40
1.0
 40
1.0
 10
23.71823819621673
 20
15.40401413578065
 30
0.0
 10
23.7158716257626
 20
15.40397410836933
 30
0.0
 10
23.69827946822921
 20
15.40367656027622
 30
0.0
 10
23.65849674306461
 20
15.40581878506104
 30
0.0
 10
23.61604422482246
 20
15.40807807181103
 30
0.0
 10
23.59486849414423
 20
15.40920502610549
 30
0.0
  0
SPLINE
  5
344
330
2
100
AcDbEntity
  8
0
100
AcDbSpline
210
0.0
220
0.0
230
1.0
 70
     8
 71
     3
 72
    10
 73
     6
 74
     0
 42
0.000000001
 43
0.0000000001
 40
0.0
 40
0.0
 40
0.0
 40
0.0
 40
0.0832069484657647
 40
0.5402830859296186
 40
1.0
 40
1.0
 40
1.0
 40
1.0
 10
18.3240523665264
 20
15.40920523815527
 30
0.0
 10
18.32024704225592
 20
15.40906928655101
 30
0.0
 10
18.29553814020209
 20
15.40818651950282
 30
0.0
 10
18.24971043604985
 20
15.40460092088343
 30
0.0
 10
18.21705660756008
 20
15.40421024728668
 30
0.0
 10
18.20068266445394
 20
15.4040143478304
 30
0.0
  0
LINE
  5
345
330
2
100
AcDbEntity
  8
0
100
AcDbLine
 10
23.59486849413169
 20
15.40920502609971
 30
0.0
 11
23.59404150009448
 21
15.40923088788543
 31
0.0
  0
LINE
  5
346
330
2
100
AcDbEntity
  8
0
100
AcDbLine
 10
18.32487808828683
 20
15.40923088788543
 30
0.0
 11
18.32405236652659
 21
15.40920523816734
 31
0.0
  0
ELLIPSE
  5
347
330
2
100
AcDbEntity
  8
0
100
AcDbEllipse
 10
18.25802670394529
 20
15.96317503001833
 30
0.0
 11
0.1458796082297569
 21
0.5507866968676041
 31
0.0
210
0.0
220
0.0
230
1.0
 40
0.6851736105000003
 41
3.185583418668587
 42
3.368244714244383
  0
ELLIPSE
  5
348
330
2
100
AcDbEntity
  8
0
100
AcDbEllipse
 10
23.66089399725979
 20
15.96317503001833
 30
0.0
 11
-0.1458796082297204
 21
0.5507866968675948
 31
0.0
210
0.0
220
0.0
230
0.9999999999999998
 40
0.6851736105000003
 41
2.914940592935311
 42
3.097601888511194
  0
SPLINE
  5
349
330
2
100
AcDbEntity
  8
0
100
AcDbSpline
210
0.0
220
0.0
230
1.0
 70
     8
 71
     3
 72
    10
 73
     6
 74
     0
 42
0.000000001
 43
0.0000000001
 40
0.0
 40
0.0
 40
0.0
 40
0.0
 40
0.1127391947967621
 40
0.5236025521809318
 40
0.9447572538001868
 40
0.9447572538001868
 40
0.9447572538001868
 40
0.9447572538001868
 10
18.12888473627162
 20
15.40852556819684
 30
0.0
 10
18.12287466069783
 20
15.41155000854002
 30
0.0
 10
18.09496164504335
 20
15.42559662902064
 30
0.0
 10
18.05955375717807
 20
15.45787214543186
 30
0.0
 10
18.05094647510928
 20
15.4965587573115
 30
0.0
 10
18.04726034731617
 20
15.51644623914022
 30
0.0
  0
SPLINE
  5
34A
330
2
100
AcDbEntity
  8
0
100
AcDbSpline
210
0.0
220
0.0
230
1.0
 70
     8
 71
     3
 72
    10
 73
     6
 74
     0
 42
0.000000001
 43
0.0000000001
 40
0.0
 40
0.0
 40
0.0
 40
0.0
 40
0.4270370147629356
 40
0.8669636094511727
 40
1.0
 40
1.0
 40
1.0
 40
1.0
 10
23.87078424884439
 20
15.51600756684047
 30
0.0
 10
23.86727029712209
 20
15.49706909303384
 30
0.0
 10
23.86013632942542
 20
15.45862051119828
 30
0.0
 10
23.82520289651904
 20
15.42640690597009
 30
0.0
 10
23.79666318893173
 20
15.41189507349264
 30
0.0
 10
23.79003654849854
 20
15.40852556819684
 30
0.0
  0
LINE
  5
34B
330
2
100
AcDbEntity
  8
0
100
AcDbLine
 10
20.56102592923649
 20
14.54438588731019
 30
0.0
 11
20.56248398340546
 21
14.59555106167387
 31
0.0
  0
ELLIPSE
  5
34C
330
2
100
AcDbEntity
  8
0
100
AcDbEllipse
 10
11.26836141499202
 20
41.56089848066455
 30
0.0
 11
0.1442255033754474
 21
0.2878914841892344
 31
0.0
210
0.0
220
0.0
230
1.0
 40
0.607518812
 41
3.826822038703575
 42
5.397542213076498
  0
LINE
  5
34D
330
2
100
AcDbEntity
  8
0
100
AcDbLine
 10
11.49505495034814
 20
43.44298530171574
 30
0.0
 11
11.49505495034814
 21
41.67522825779042
 31
0.0
  0
LINE
  5
34E
330
2
100
AcDbEntity
  8
0
100
AcDbLine
 10
11.26737691115328
 20
41.28254094827769
 30
0.0
 11
6.856297450314336
 21
39.0770012178421
 31
0.0
  0
ELLIPSE
  5
34F
330
2
100
AcDbEntity
  8
0
100
AcDbEllipse
 10
11.95440202825269
 20
43.2172853794787
 30
0.0
 11
-0.2920647046217897
 21
0.5739693618423225
 31
0.0
210
0.0
220
0.0
230
0.9999999999999998
 40
0.6176975121999999
 41
0.1397716743084613
 42
0.8817189423142988
  0
LINE
  5
350
330
2
100
AcDbEntity
  8
0
100
AcDbLine
 10
11.94555127232067
 20
44.03527126277165
 30
0.0
 11
11.61579226668781
 21
43.76052389681806
 31
0.0
  0
ELLIPSE
  5
351
330
2
100
AcDbEntity
  8
0
100
AcDbEllipse
 10
11.43763623116321
 20
44.8501281758271
 30
0.0
 11
-0.4380970569326847
 21
0.8609540427634792
 31
0.0
210
0.0
220
0.0
230
1.0
 40
0.6176975121999999
 41
3.281364327898253
 42
4.023311595904154
  0
LINE
  5
352
330
2
100
AcDbEntity
  8
0
100
AcDbLine
 10
12.12665703479476
 20
44.75230808647022
 30
0.0
 11
12.12665703479476
 21
44.51157852999306
 31
0.0
  0
LWPOLYLINE
  5
353
330
2
100
AcDbEntity
  8
0
100
AcDbPolyline
 90
        9
 70
   128
 43
0.0
 10
9.307606669276321
 20
42.20855360133893
 10
9.356611792878739
 20
42.21438012371227
 10
9.397021267408689
 20
42.19583452044614
 10
9.423580075716861
 20
42.15532655708583
 10
9.432834351329946
 20
42.09812684196946
 10
9.423580075716861
 20
42.03167285123995
 10
9.397021267408689
 20
41.96460711840018
 10
9.356611792878739
 20
41.90565100177543
 10
9.307606669276321
 20
41.86247240054639
  0
LINE
  5
354
330
2
100
AcDbEntity
  8
0
100
AcDbLine
 10
9.307606669276321
 20
41.86247240054639
 30
0.0
 11
9.307606669276321
 21
41.76028294693008
 31
0.0
  0
ARC
  5
355
330
2
100
AcDbEntity
  8
0
100
AcDbCircle
 10
9.3141239312699
 20
42.18875704310881
 30
0.0
 40
0.0208417470782591
100
AcDbArc
 50
108.2221585916972
 51
172.5017383339992
  0
ELLIPSE
  5
356
330
2
100
AcDbEntity
  8
0
100
AcDbEllipse
 10
9.76736511278465
 20
42.61979901860533
 30
0.0
 11
-0.0949210290020726
 21
0.1865400425987569
 31
0.0
210
0.0
220
0.0
230
1.0
 40
0.6176975122000002
 41
2.627048194308785
 42
3.321598791349511
  0
ARC
  5
357
330
2
100
AcDbEntity
  8
0
100
AcDbCircle
 10
9.761095391350695
 20
42.42769774693274
 30
0.0
 40
0.0322049015619503
100
AcDbArc
 50
1.528619753600251
 51
69.56413544170246
  0
SPLINE
  5
358
330
2
100
AcDbEntity
  8
0
100
AcDbSpline
210
0.0
220
0.0
230
1.0
 70
     8
 71
     3
 72
    10
 73
     6
 74
     0
 42
0.000000001
 43
0.0000000001
 40
0.0
 40
0.0
 40
0.0
 40
0.0
 40
0.1567168579513128
 40
0.5840240246534992
 40
1.0
 40
1.0
 40
1.0
 40
1.0
 10
9.895185527190438
 20
42.5517074702589
 30
0.0
 10
9.897251381047567
 20
42.54585819633011
 30
0.0
 10
9.904950031338112
 20
42.52406018081449
 30
0.0
 10
9.906106390250245
 20
42.48508691444017
 30
0.0
 10
9.88954926141381
 20
42.45942762861566
 30
0.0
 10
9.881381936024279
 20
42.44677037755089
 30
0.0
  0
LINE
  5
359
330
2
100
AcDbEntity
  8
0
100
AcDbLine
 10
7.102233609957399
 20
41.79075456961106
 30
0.0
 11
6.778180015184595
 21
41.51885990905525
 31
0.0
  0
ELLIPSE
  5
35A
330
2
100
AcDbEntity
  8
0
100
AcDbEllipse
 10
11.89996405588275
 20
44.63795773063787
 30
0.0
 11
0.1417658395781259
 21
0.2891173016704531
 31
0.0
210
0.0
220
0.0
230
1.0
 40
0.6118591041000002
 41
5.392399612363131
 42
6.296404822486362
  0
ELLIPSE
  5
35B
330
2
100
AcDbEntity
  8
0
100
AcDbEllipse
 10
6.857299564331354
 20
39.35536755531813
 30
0.0
 11
0.1462386232546796
 21
0.2868808811583189
 31
0.0
210
0.0
220
0.0
230
1.0
 40
0.6128396075000003
 41
3.147881683918933
 42
3.831037178683208
  0
LINE
  5
35C
330
2
100
AcDbEntity
  8
0
100
AcDbLine
 10
9.225846285644873
 20
41.40279566532669
 30
0.0
 11
8.009645424237334
 21
40.81941301919568
 31
0.0
  0
ARC
  5
35D
330
2
100
AcDbEntity
  8
0
100
AcDbCircle
 10
7.307379129399821
 20
40.60681000553233
 30
0.0
 40
0.1701667337944224
100
AcDbArc
 50
166.0120420986146
 51
248.230495409717
  0
LINE
  5
35E
330
2
100
AcDbEntity
  8
0
100
AcDbLine
 10
28.18851261982006
 20
54.23332191240528
 30
0.0
 11
28.18851261982006
 21
48.66862220960245
 31
0.0
  0
LINE
  5
35F
330
2
100
AcDbEntity
  8
0
100
AcDbLine
 10
42.69383825257325
 20
58.52724093625932
 30
0.0
 11
42.49862153402257
 21
44.56509110593378
 31
0.0
  0
LINE
  5
360
330
2
100
AcDbEntity
  8
0
100
AcDbLine
 10
29.01956955657132
 20
47.23896105653262
 30
0.0
 11
29.01956955656986
 21
49.01111964372519
 31
0.0
  0
LINE
  5
361
330
2
100
AcDbEntity
  8
0
100
AcDbLine
 10
46.34652694382051
 20
36.20104710121696
 30
0.0
 11
47.55326650266055
 21
36.62419321681084
 31
0.0
  0
LINE
  5
362
330
2
100
AcDbEntity
  8
0
100
AcDbLine
 10
9.247025325191211
 20
41.38036668578324
 30
0.0
 11
9.512951415691647
 21
41.20337026973796
 31
0.0
  0
ARC
  5
363
330
2
100
AcDbEntity
  8
0
100
AcDbCircle
 10
29.04233771258477
 20
27.4582864770675
 30
0.0
 40
7.741765237882047
100
AcDbArc
 50
68.03259833026811
 51
111.9673974744889
  0
ARC
  5
364
330
2
100
AcDbEntity
  8
0
100
AcDbCircle
 10
38.58857376139431
 20
47.24171461783355
 30
0.0
 40
2.352387569535245
100
AcDbArc
 50
357.8596724362674
 51
55.27042673917065
  0
ARC
  5
365
330
2
100
AcDbEntity
  8
0
100
AcDbCircle
 10
38.67945406887292
 20
44.49857421570245
 30
0.0
 40
2.165283949609393
100
AcDbArc
 50
355.1113514856422
 51
58.01874768906284
  0
ENDSEC
  0
SECTION
  2
OBJECTS
  0
DICTIONARY
  5
B
330
0
100
AcDbDictionary
281
     1
  3
ACAD_COLOR
350
49
  3
ACAD_GROUP
350
34
  3
ACAD_LAYOUT
350
1A
  3
ACAD_MATERIAL
350
D
  3
ACAD_MLEADERSTYLE
350
4C
  3
ACAD_MLINESTYLE
350
35
  3
ACAD_PLOTSETTINGS
350
36
  3
ACAD_PLOTSTYLENAME
350
A
  3
ACAD_SCALELIST
350
4A
  3
ACAD_TABLESTYLE
350
4B
  3
ACAD_VISUALSTYLE
350
2D
  3
ACDB_RECOMPOSE_DATA
350
373
  3
AcDbVariableDictionary
350
367
  3
AcDsDecomposeData
350
379
  0
DICTIONARY
  5
20
330
1F
100
AcDbDictionary
280
     1
281
     1
  3
ACAD_LAYERSTATES
360
21
  0
DICTIONARY
  5
7
330
6
100
AcDbDictionary
280
     1
281
     1
  3
ADSK_XREC_LAYER_RECONCILED
360
8
  0
DICTIONARY
  5
3
330
2
100
AcDbDictionary
280
     1
281
     1
  3
ACAD_SORTENTS
360
366
  0
DICTIONARY
  5
49
102
{ACAD_REACTORS
330
B
102
}
330
B
100
AcDbDictionary
281
     1
  0
DICTIONARY
  5
34
102
{ACAD_REACTORS
330
B
102
}
330
B
100
AcDbDictionary
281
     1
  0
DICTIONARY
  5
1A
102
{ACAD_REACTORS
330
B
102
}
330
B
100
AcDbDictionary
281
     1
  3
Layout1
350
1E
  3
Model
350
19
  0
DICTIONARY
  5
D
102
{ACAD_REACTORS
330
B
102
}
330
B
100
AcDbDictionary
281
     1
  3
ByBlock
350
40
  3
ByLayer
350
37
  3
Global
350
C
  0
DICTIONARY
  5
4C
102
{ACAD_REACTORS
330
B
102
}
330
B
100
AcDbDictionary
281
     1
  0
DICTIONARY
  5
35
102
{ACAD_REACTORS
330
B
102
}
330
B
100
AcDbDictionary
281
     1
  3
Standard
350
4D
  0
DICTIONARY
  5
36
102
{ACAD_REACTORS
330
B
102
}
330
B
100
AcDbDictionary
281
     1
  0
ACDBDICTIONARYWDFLT
  5
A
102
{ACAD_REACTORS
330
B
102
}
330
B
100
AcDbDictionary
281
     1
  3
Normal
350
9
100
AcDbDictionaryWithDefault
340
9
  0
DICTIONARY
  5
4A
102
{ACAD_REACTORS
330
B
102
}
330
B
100
AcDbDictionary
281
     1
  3
A0
350
52
  3
A1
350
53
  3
A2
350
54
  3
A3
350
55
  3
A4
350
56
  3
A5
350
57
  3
A6
350
58
  3
A7
350
59
  3
A8
350
5A
  3
A9
350
5B
  3
B0
350
5C
  3
B1
350
5D
  3
B2
350
5E
  3
B3
350
5F
  3
B4
350
60
  3
B5
350
61
  3
B6
350
62
  3
B7
350
63
  3
B8
350
64
  3
B9
350
65
  3
C0
350
66
  3
C1
350
67
  3
C2
350
68
  3
C3
350
69
  3
C4
350
6A
  3
C5
350
6B
  3
C6
350
6C
  3
C7
350
6D
  3
C8
350
6E
  3
C9
350
6F
  3
D0
350
70
  3
D1
350
71
  3
D2
350
72
  0
DICTIONARY
  5
4B
102
{ACAD_REACTORS
330
B
102
}
330
B
100
AcDbDictionary
281
     1
  3
Standard
350
4E
  0
DICTIONARY
  5
2D
102
{ACAD_REACTORS
330
B
102
}
330
B
100
AcDbDictionary
281
     1
  3
2dWireframe
350
2C
  3
Realistic
350
50
  3
Wireframe
350
51
  0
XRECORD
  5
373
102
{ACAD_REACTORS
330
B
102
}
330
B
100
AcDbXrecord
280
     1
 90
        1
330
4E
  0
DICTIONARY
  5
367
102
{ACAD_REACTORS
330
B
102
}
330
B
100
AcDbDictionary
281
     1
  3
CANNOSCALE
350
36C
  3
CMLEADERSTYLE
350
369
  3
CTABLESTYLE
350
368
  3
CVIEWDETAILSTYLE
350
36A
  3
CVIEWSECTIONSTYLE
350
36B
  3
DIMASSOC
350
370
  3
HIDETEXT
350
36F
  3
INDEXCTL
350
36E
  3
SORTENTS
350
36D
  3
XCLIPFRAME
350
371
  0
DICTIONARY
  5
379
102
{ACAD_REACTORS
330
B
102
}
330
B
100
AcDbDictionary
281
     1
  3
AcDsRecords
350
37B
  3
AcDsSchemas
350
37A
1001
ACAD
1070
     2
  0
DICTIONARY
  5
21
102
{ACAD_REACTORS
330
20
102
}
330
20
100
AcDbDictionary
281
     1
  0
XRECORD
  5
8
102
{ACAD_REACTORS
330
7
102
}
330
7
100
AcDbXrecord
280
     1
290
     1
  0
SORTENTSTABLE
  5
366
102
{ACAD_REACTORS
330
3
102
}
330
3
100
AcDbSortentsTable
330
2
  0
LAYOUT
  5
1E
102
{ACAD_XDICTIONARY
360
37E
102
}
102
{ACAD_REACTORS
330
1A
102
}
330
1A
100
AcDbPlotSettings
  1

  2
none_device
  4

  6

 40
0.0
 41
0.0
 42
0.0
 43
0.0
 44
0.0
 45
0.0
 46
0.0
 47
0.0
 48
0.0
 49
0.0
140
0.0
141
0.0
142
1.0
143
1.0
 70
   688
 72
     1
 73
     0
 74
     5
  7

 75
    16
147
1.0
148
0.0
149
0.0
100
AcDbLayout
  1
Layout1
 70
     1
 71
     1
 10
0.0
 20
0.0
 11
420.0
 21
297.0
 12
0.0
 22
0.0
 32
0.0
 14
1.000000000000000E+20
 24
1.000000000000000E+20
 34
1.000000000000000E+20
 15
-1.000000000000000E+20
 25
-1.000000000000000E+20
 35
-1.000000000000000E+20
146
0.0
 13
0.0
 23
0.0
 33
0.0
 16
1.0
 26
0.0
 36
0.0
 17
0.0
 27
1.0
 37
0.0
 76
     0
330
1B
  0
LAYOUT
  5
19
102
{ACAD_XDICTIONARY
360
37C
102
}
102
{ACAD_REACTORS
330
1A
102
}
330
1A
100
AcDbPlotSettings
  1

  2
none_device
  4
Letter_(8.50_x_11.00_Inches)
  6

 40
6.349999999999997
 41
6.349999999999997
 42
6.350005079999997
 43
6.350005079999997
 44
215.9
 45
279.4
 46
0.0
 47
0.0
 48
0.0
 49
0.0
140
0.0
141
0.0
142
1.0
143
1.0
 70
  1712
 72
     1
 73
     0
 74
     0
  7

 75
     0
147
1.0
148
0.0
149
0.0
100
AcDbLayout
  1
Model
 70
     1
 71
     0
 10
0.0
 20
0.0
 11
841.0
 21
594.0
 12
0.0
 22
0.0
 32
0.0
 14
0.0
 24
0.0
 34
0.0
 15
841.0
 25
594.0
 35
0.0
146
0.0
 13
0.0
 23
0.0
 33
0.0
 16
1.0
 26
0.0
 36
0.0
 17
0.0
 27
1.0
 37
0.0
 76
     0
330
2
331
2B
  0
MATERIAL
  5
40
102
{ACAD_XDICTIONARY
360
41
102
}
102
{ACAD_REACTORS
330
D
102
}
330
D
100
AcDbMaterial
  1
ByBlock
 72
     0
 43
0.0008202099737533
 43
0.0
 43
0.0
 43
0.0
 43
0.0
 43
0.0008202099737533
 43
0.0
 43
0.0
 43
0.0
 43
0.0
 43
1.0
 43
0.0
 43
0.0
 43
0.0
 43
0.0
 43
1.0
 77
     0
 47
0.0008202099737533
 47
0.0
 47
0.0
 47
0.0
 47
0.0
 47
0.0008202099737533
 47
0.0
 47
0.0
 47
0.0
 47
0.0
 47
1.0
 47
0.0
 47
0.0
 47
0.0
 47
0.0
 47
1.0
171
     0
 49
0.0008202099737533
 49
0.0
 49
0.0
 49
0.0
 49
0.0
 49
0.0008202099737533
 49
0.0
 49
0.0
 49
0.0
 49
0.0
 49
1.0
 49
0.0
 49
0.0
 49
0.0
 49
0.0
 49
1.0
175
     0
142
0.0008202099737533
142
0.0
142
0.0
142
0.0
142
0.0
142
0.0008202099737533
142
0.0
142
0.0
142
0.0
142
0.0
142
1.0
142
0.0
142
0.0
142
0.0
142
0.0
142
1.0
179
     0
144
0.0008202099737533
144
0.0
144
0.0
144
0.0
144
0.0
144
0.0008202099737533
144
0.0
144
0.0
144
0.0
144
0.0
144
1.0
144
0.0
144
0.0
144
0.0
144
0.0
144
1.0
147
0.0008202099737533
147
0.0
147
0.0
147
0.0
147
0.0
147
0.0008202099737533
147
0.0
147
0.0
147
0.0
147
0.0
147
1.0
147
0.0
147
0.0
147
0.0
147
0.0
147
1.0
  0
MATERIAL
  5
37
102
{ACAD_XDICTIONARY
360
38
102
}
102
{ACAD_REACTORS
330
D
102
}
330
D
100
AcDbMaterial
  1
ByLayer
 72
     0
 43
0.0008202099737533
 43
0.0
 43
0.0
 43
0.0
 43
0.0
 43
0.0008202099737533
 43
0.0
 43
0.0
 43
0.0
 43
0.0
 43
1.0
 43
0.0
 43
0.0
 43
0.0
 43
0.0
 43
1.0
 77
     0
 47
0.0008202099737533
 47
0.0
 47
0.0
 47
0.0
 47
0.0
 47
0.0008202099737533
 47
0.0
 47
0.0
 47
0.0
 47
0.0
 47
1.0
 47
0.0
 47
0.0
 47
0.0
 47
0.0
 47
1.0
171
     0
 49
0.0008202099737533
 49
0.0
 49
0.0
 49
0.0
 49
0.0
 49
0.0008202099737533
 49
0.0
 49
0.0
 49
0.0
 49
0.0
 49
1.0
 49
0.0
 49
0.0
 49
0.0
 49
0.0
 49
1.0
175
     0
142
0.0008202099737533
142
0.0
142
0.0
142
0.0
142
0.0
142
0.0008202099737533
142
0.0
142
0.0
142
0.0
142
0.0
142
1.0
142
0.0
142
0.0
142
0.0
142
0.0
142
1.0
179
     0
144
0.0008202099737533
144
0.0
144
0.0
144
0.0
144
0.0
144
0.0008202099737533
144
0.0
144
0.0
144
0.0
144
0.0
144
1.0
144
0.0
144
0.0
144
0.0
144
0.0
144
1.0
147
0.0008202099737533
147
0.0
147
0.0
147
0.0
147
0.0
147
0.0008202099737533
147
0.0
147
0.0
147
0.0
147
0.0
147
1.0
147
0.0
147
0.0
147
0.0
147
0.0
147
1.0
  0
MATERIAL
  5
C
102
{ACAD_XDICTIONARY
360
E
102
}
102
{ACAD_REACTORS
330
D
102
}
330
D
100
AcDbMaterial
  1
Global
 72
     0
 43
0.0008202099737533
 43
0.0
 43
0.0
 43
0.0
 43
0.0
 43
0.0008202099737533
 43
0.0
 43
0.0
 43
0.0
 43
0.0
 43
1.0
 43
0.0
 43
0.0
 43
0.0
 43
0.0
 43
1.0
 77
     0
 47
0.0008202099737533
 47
0.0
 47
0.0
 47
0.0
 47
0.0
 47
0.0008202099737533
 47
0.0
 47
0.0
 47
0.0
 47
0.0
 47
1.0
 47
0.0
 47
0.0
 47
0.0
 47
0.0
 47
1.0
171
     0
 49
0.0008202099737533
 49
0.0
 49
0.0
 49
0.0
 49
0.0
 49
0.0008202099737533
 49
0.0
 49
0.0
 49
0.0
 49
0.0
 49
1.0
 49
0.0
 49
0.0
 49
0.0
 49
0.0
 49
1.0
175
     0
142
0.0008202099737533
142
0.0
142
0.0
142
0.0
142
0.0
142
0.0008202099737533
142
0.0
142
0.0
142
0.0
142
0.0
142
1.0
142
0.0
142
0.0
142
0.0
142
0.0
142
1.0
179
     0
144
0.0008202099737533
144
0.0
144
0.0
144
0.0
144
0.0
144
0.0008202099737533
144
0.0
144
0.0
144
0.0
144
0.0
144
1.0
144
0.0
144
0.0
144
0.0
144
0.0
144
1.0
147
0.0008202099737533
147
0.0
147
0.0
147
0.0
147
0.0
147
0.0008202099737533
147
0.0
147
0.0
147
0.0
147
0.0
147
1.0
147
0.0
147
0.0
147
0.0
147
0.0
147
1.0
  0
MLINESTYLE
  5
4D
102
{ACAD_REACTORS
330
35
102
}
330
35
100
AcDbMlineStyle
  2
STANDARD
 70
     0
  3

 62
   256
 51
90.0
 52
90.0
 71
     2
 49
0.5
 62
   256
  6
BYLAYER
 49
-0.5
 62
   256
  6
BYLAYER
  0
ACDBPLACEHOLDER
  5
9
102
{ACAD_REACTORS
330
A
102
}
330
A
  0
SCALE
  5
52
102
{ACAD_REACTORS
330
4A
102
}
330
4A
100
AcDbScale
 70
     0
300
1:1
140
1.0
141
1.0
290
     1
  0
SCALE
  5
53
102
{ACAD_REACTORS
330
4A
102
}
330
4A
100
AcDbScale
 70
     0
300
1:2
140
1.0
141
2.0
290
     0
  0
SCALE
  5
54
102
{ACAD_REACTORS
330
4A
102
}
330
4A
100
AcDbScale
 70
     0
300
1:4
140
1.0
141
4.0
290
     0
  0
SCALE
  5
55
102
{ACAD_REACTORS
330
4A
102
}
330
4A
100
AcDbScale
 70
     0
300
1:5
140
1.0
141
5.0
290
     0
  0
SCALE
  5
56
102
{ACAD_REACTORS
330
4A
102
}
330
4A
100
AcDbScale
 70
     0
300
1:8
140
1.0
141
8.0
290
     0
  0
SCALE
  5
57
102
{ACAD_REACTORS
330
4A
102
}
330
4A
100
AcDbScale
 70
     0
300
1:10
140
1.0
141
10.0
290
     0
  0
SCALE
  5
58
102
{ACAD_REACTORS
330
4A
102
}
330
4A
100
AcDbScale
 70
     0
300
1:16
140
1.0
141
16.0
290
     0
  0
SCALE
  5
59
102
{ACAD_REACTORS
330
4A
102
}
330
4A
100
AcDbScale
 70
     0
300
1:20
140
1.0
141
20.0
290
     0
  0
SCALE
  5
5A
102
{ACAD_REACTORS
330
4A
102
}
330
4A
100
AcDbScale
 70
     0
300
1:30
140
1.0
141
30.0
290
     0
  0
SCALE
  5
5B
102
{ACAD_REACTORS
330
4A
102
}
330
4A
100
AcDbScale
 70
     0
300
1:40
140
1.0
141
40.0
290
     0
  0
SCALE
  5
5C
102
{ACAD_REACTORS
330
4A
102
}
330
4A
100
AcDbScale
 70
     0
300
1:50
140
1.0
141
50.0
290
     0
  0
SCALE
  5
5D
102
{ACAD_REACTORS
330
4A
102
}
330
4A
100
AcDbScale
 70
     0
300
1:100
140
1.0
141
100.0
290
     0
  0
SCALE
  5
5E
102
{ACAD_REACTORS
330
4A
102
}
330
4A
100
AcDbScale
 70
     0
300
2:1
140
2.0
141
1.0
290
     0
  0
SCALE
  5
5F
102
{ACAD_REACTORS
330
4A
102
}
330
4A
100
AcDbScale
 70
     0
300
4:1
140
4.0
141
1.0
290
     0
  0
SCALE
  5
60
102
{ACAD_REACTORS
330
4A
102
}
330
4A
100
AcDbScale
 70
     0
300
8:1
140
8.0
141
1.0
290
     0
  0
SCALE
  5
61
102
{ACAD_REACTORS
330
4A
102
}
330
4A
100
AcDbScale
 70
     0
300
10:1
140
10.0
141
1.0
290
     0
  0
SCALE
  5
62
102
{ACAD_REACTORS
330
4A
102
}
330
4A
100
AcDbScale
 70
     0
300
100:1
140
100.0
141
1.0
290
     0
  0
SCALE
  5
63
102
{ACAD_REACTORS
330
4A
102
}
330
4A
100
AcDbScale
 70
     0
300
1/128" = 1'-0"
140
0.0078125
141
12.0
290
     0
  0
SCALE
  5
64
102
{ACAD_REACTORS
330
4A
102
}
330
4A
100
AcDbScale
 70
     0
300
1/64" = 1'-0"
140
0.015625
141
12.0
290
     0
  0
SCALE
  5
65
102
{ACAD_REACTORS
330
4A
102
}
330
4A
100
AcDbScale
 70
     0
300
1/32" = 1'-0"
140
0.03125
141
12.0
290
     0
  0
SCALE
  5
66
102
{ACAD_REACTORS
330
4A
102
}
330
4A
100
AcDbScale
 70
     0
300
1/16" = 1'-0"
140
0.0625
141
12.0
290
     0
  0
SCALE
  5
67
102
{ACAD_REACTORS
330
4A
102
}
330
4A
100
AcDbScale
 70
     0
300
3/32" = 1'-0"
140
0.09375
141
12.0
290
     0
  0
SCALE
  5
68
102
{ACAD_REACTORS
330
4A
102
}
330
4A
100
AcDbScale
 70
     0
300
1/8" = 1'-0"
140
0.125
141
12.0
290
     0
  0
SCALE
  5
69
102
{ACAD_REACTORS
330
4A
102
}
330
4A
100
AcDbScale
 70
     0
300
3/16" = 1'-0"
140
0.1875
141
12.0
290
     0
  0
SCALE
  5
6A
102
{ACAD_REACTORS
330
4A
102
}
330
4A
100
AcDbScale
 70
     0
300
1/4" = 1'-0"
140
0.25
141
12.0
290
     0
  0
SCALE
  5
6B
102
{ACAD_REACTORS
330
4A
102
}
330
4A
100
AcDbScale
 70
     0
300
3/8" = 1'-0"
140
0.375
141
12.0
290
     0
  0
SCALE
  5
6C
102
{ACAD_REACTORS
330
4A
102
}
330
4A
100
AcDbScale
 70
     0
300
1/2" = 1'-0"
140
0.5
141
12.0
290
     0
  0
SCALE
  5
6D
102
{ACAD_REACTORS
330
4A
102
}
330
4A
100
AcDbScale
 70
     0
300
3/4" = 1'-0"
140
0.75
141
12.0
290
     0
  0
SCALE
  5
6E
102
{ACAD_REACTORS
330
4A
102
}
330
4A
100
AcDbScale
 70
     0
300
1" = 1'-0"
140
1.0
141
12.0
290
     0
  0
SCALE
  5
6F
102
{ACAD_REACTORS
330
4A
102
}
330
4A
100
AcDbScale
 70
     0
300
1-1/2" = 1'-0"
140
1.5
141
12.0
290
     0
  0
SCALE
  5
70
102
{ACAD_REACTORS
330
4A
102
}
330
4A
100
AcDbScale
 70
     0
300
3" = 1'-0"
140
3.0
141
12.0
290
     0
  0
SCALE
  5
71
102
{ACAD_REACTORS
330
4A
102
}
330
4A
100
AcDbScale
 70
     0
300
6" = 1'-0"
140
6.0
141
12.0
290
     0
  0
SCALE
  5
72
102
{ACAD_REACTORS
330
4A
102
}
330
4A
100
AcDbScale
 70
     0
300
1'-0" = 1'-0"
140
12.0
141
12.0
290
     0
  0
TABLESTYLE
  5
4E
102
{ACAD_XDICTIONARY
360
4F
102
}
102
{ACAD_REACTORS
330
4B
102
}
330
4B
100
AcDbTableStyle
  3
Standard
 70
     0
 71
     0
 40
1.5
 41
1.5
280
     0
281
     0
  7
Standard
140
4.5
170
     2
 62
     0
 63
     7
283
     0
274
    -2
284
     1
 64
     0
275
    -2
285
     1
 65
     0
276
    -2
286
     1
 66
     0
277
    -2
287
     1
 67
     0
278
    -2
288
     1
 68
     0
279
    -2
289
     1
 69
     0
  7
Standard
140
6.0
170
     5
 62
     0
 63
     7
283
     0
274
    -2
284
     1
 64
     0
275
    -2
285
     1
 65
     0
276
    -2
286
     1
 66
     0
277
    -2
287
     1
 67
     0
278
    -2
288
     1
 68
     0
279
    -2
289
     1
 69
     0
  7
Standard
140
4.5
170
     5
 62
     0
 63
     7
283
     0
274
    -2
284
     1
 64
     0
275
    -2
285
     1
 65
     0
276
    -2
286
     1
 66
     0
277
    -2
287
     1
 67
     0
278
    -2
288
     1
 68
     0
279
    -2
289
     1
 69
     0
  0
VISUALSTYLE
  5
2C
102
{ACAD_XDICTIONARY
360
380
102
}
102
{ACAD_REACTORS
330
2D
102
}
330
2D
100
AcDbVisualStyle
  2

 70
     4
 71
     0
 72
     2
 73
     0
 90
        0
 40
-0.6
 41
-30.0
 62
     5
 63
     7
 74
     1
 91
        4
 64
     7
 65
   257
 75
     1
175
     1
 42
1.0
 92
        0
 66
   257
 43
1.0
 76
     1
 77
     6
 78
     2
 67
     7
 79
     5
170
     0
171
     0
290
     0
174
     0
 93
        1
 44
0.0
173
     0
291
     0
 45
0.0
1001
ACAD
1000
AcDbSavedByObjectVersion
1070
     0
  0
VISUALSTYLE
  5
50
102
{ACAD_XDICTIONARY
360
383
102
}
102
{ACAD_REACTORS
330
2D
102
}
330
2D
100
AcDbVisualStyle
  2

 70
     8
 71
     2
 72
     3
 73
     0
 90
        2
 40
-0.6
 41
30.0
 62
     5
 63
     7
 74
     0
 91
        0
 64
     7
 65
   257
 75
     1
175
     1
 42
1.0
 92
        8
 66
   257
 43
1.0
 76
     1
 77
     6
 78
     2
 67
     7
 79
     3
170
     0
171
     0
290
     0
174
     0
 93
       13
 44
0.0
173
     0
291
     0
 45
0.0
1001
ACAD
1000
AcDbSavedByObjectVersion
1070
     0
  0
VISUALSTYLE
  5
51
102
{ACAD_XDICTIONARY
360
385
102
}
102
{ACAD_REACTORS
330
2D
102
}
330
2D
100
AcDbVisualStyle
  2

 70
     5
 71
     0
 72
     2
 73
     0
 90
        0
 40
-0.6
 41
-30.0
 62
     5
 63
     7
 74
     1
 91
        4
 64
     7
 65
   257
 75
     1
175
     1
 42
1.0
 92
        0
 66
   257
 43
1.0
 76
     1
 77
     6
 78
     2
 67
     7
 79
     3
170
     0
171
     0
290
     0
174
     0
 93
        1
 44
0.0
173
     0
291
     0
 45
0.0
1001
ACAD
1000
AcDbSavedByObjectVersion
1070
     0
  0
DICTIONARYVAR
  5
36C
102
{ACAD_REACTORS
330
367
102
}
330
367
100
DictionaryVariables
280
     0
  1
1:1
  0
DICTIONARYVAR
  5
369
102
{ACAD_REACTORS
330
367
102
}
330
367
100
DictionaryVariables
280
     0
  1
STANDARD
  0
DICTIONARYVAR
  5
368
102
{ACAD_REACTORS
330
367
102
}
330
367
100
DictionaryVariables
280
     0
  1
STANDARD
  0
DICTIONARYVAR
  5
36A
102
{ACAD_REACTORS
330
367
102
}
330
367
100
DictionaryVariables
280
     0
  1

  0
DICTIONARYVAR
  5
36B
102
{ACAD_REACTORS
330
367
102
}
330
367
100
DictionaryVariables
280
     0
  1

  0
DICTIONARYVAR
  5
370
102
{ACAD_REACTORS
330
367
102
}
330
367
100
DictionaryVariables
280
     0
  1
1
  0
DICTIONARYVAR
  5
36F
102
{ACAD_REACTORS
330
367
102
}
330
367
100
DictionaryVariables
280
     0
  1
1
  0
DICTIONARYVAR
  5
36E
102
{ACAD_REACTORS
330
367
102
}
330
367
100
DictionaryVariables
280
     0
  1
0
  0
DICTIONARYVAR
  5
36D
102
{ACAD_REACTORS
330
367
102
}
330
367
100
DictionaryVariables
280
     0
  1
127
  0
DICTIONARYVAR
  5
371
102
{ACAD_REACTORS
330
367
102
}
330
367
100
DictionaryVariables
280
     0
  1
2
  0
DICTIONARY
  5
37B
102
{ACAD_REACTORS
330
379
102
}
330
379
100
AcDbDictionary
281
     1
  0
DICTIONARY
  5
37A
102
{ACAD_REACTORS
330
379
102
}
330
379
100
AcDbDictionary
281
     1
  3
1299256000
350
374
  3
1299256016
350
375
  3
1299256032
350
376
  3
1299256048
350
377
  3
1299256064
350
378
  0
DICTIONARY
  5
37E
330
1E
100
AcDbDictionary
280
     1
281
     1
  3
ACAD_XREC_ROUNDTRIP
360
37F
  0
DICTIONARY
  5
37C
330
19
100
AcDbDictionary
280
     1
281
     1
  3
ACAD_XREC_ROUNDTRIP
360
37D
  0
DICTIONARY
  5
41
330
40
100
AcDbDictionary
280
     1
281
     1
  3
ACAD_XREC_ROUNDTRIP
360
42
  3
BUMPTILE
360
43
  3
DIFFUSETILE
360
44
  3
OPACITYTILE
360
45
  3
REFLECTIONTILE
360
46
  3
REFRACTIONTILE
360
47
  3
SPECULARTILE
360
48
  0
DICTIONARY
  5
38
330
37
100
AcDbDictionary
280
     1
281
     1
  3
ACAD_XREC_ROUNDTRIP
360
39
  3
BUMPTILE
360
3A
  3
DIFFUSETILE
360
3B
  3
OPACITYTILE
360
3C
  3
REFLECTIONTILE
360
3D
  3
REFRACTIONTILE
360
3E
  3
SPECULARTILE
360
3F
  0
DICTIONARY
  5
E
330
C
100
AcDbDictionary
280
     1
281
     1
  3
ACAD_XREC_ROUNDTRIP
360
F
  3
BUMPTILE
360
10
  3
DIFFUSETILE
360
11
  3
FBXASSET
360
12
  3
OPACITYTILE
360
13
  3
REFLECTIONTILE
360
14
  3
REFRACTIONTILE
360
15
  3
SPECULARTILE
360
16
  0
DICTIONARY
  5
4F
330
4E
100
AcDbDictionary
280
     1
281
     1
  3
ACAD_ROUNDTRIP_2008_TABLESTYLE_CELLSTYLEMAP
360
372
  3
ACAD_XREC_ROUNDTRIP
360
382
  0
DICTIONARY
  5
380
330
2C
100
AcDbDictionary
280
     1
281
     1
  3
ACAD_XREC_ROUNDTRIP
360
381
  0
DICTIONARY
  5
383
330
50
100
AcDbDictionary
280
     1
281
     1
  3
ACAD_XREC_ROUNDTRIP
360
384
  0
DICTIONARY
  5
385
330
51
100
AcDbDictionary
280
     1
281
     1
  3
ACAD_XREC_ROUNDTRIP
360
386
  0
XRECORD
  5
374
102
{ACAD_REACTORS
330
37A
102
}
330
37A
100
AcDbXrecord
280
     1
  1
AcDb_Thumbnail_Schema
102
{ATTRRECORD
341
375
  2
AcDbDs::TreatedAsObjectData
280
     1
291
     1
102
ATTRRECORD}
102
{ATTRRECORD
341
376
  2
AcDbDs::Legacy
280
     1
291
     1
102
ATTRRECORD}
  2
AcDbDs::ID
280
    10
 91
        8
102
{ATTRRECORD
341
377
  2
AcDs:Indexable
280
     1
291
     1
102
ATTRRECORD}
102
{ATTRRECORD
341
378
  2
AcDbDs::HandleAttribute
280
     7
282
     1
102
ATTRRECORD}
  2
Thumbnail_Data
280
    15
 91
        0
  0
XRECORD
  5
375
102
{ACAD_REACTORS
330
37A
102
}
330
37A
100
AcDbXrecord
280
     1
  1
AcDbDs::TreatedAsObjectDataSchema
  2
AcDbDs::TreatedAsObjectData
280
     1
 91
        0
  0
XRECORD
  5
376
102
{ACAD_REACTORS
330
37A
102
}
330
37A
100
AcDbXrecord
280
     1
  1
AcDbDs::LegacySchema
  2
AcDbDs::Legacy
280
     1
 91
        0
  0
XRECORD
  5
377
102
{ACAD_REACTORS
330
37A
102
}
330
37A
100
AcDbXrecord
280
     1
  1
AcDbDs::IndexedPropertySchema
  2
AcDs:Indexable
280
     1
 91
        0
  0
XRECORD
  5
378
102
{ACAD_REACTORS
330
37A
102
}
330
37A
100
AcDbXrecord
280
     1
  1
AcDbDs::HandleAttributeSchema
  2
AcDbDs::HandleAttribute
280
     7
 91
        1
284
     1
  0
XRECORD
  5
37F
102
{ACAD_REACTORS
330
37E
102
}
330
37E
100
AcDbXrecord
280
     1
102
SHADEPLOT
 70
     0
102
SHADEPLOTRESLEVEL
 70
     2
102
SHADEPLOTCUSTOMDPI
 70
   300
  0
XRECORD
  5
37D
102
{ACAD_REACTORS
330
37C
102
}
330
37C
100
AcDbXrecord
280
     1
102
SHADEPLOT
 70
     0
102
SHADEPLOTRESLEVEL
 70
     2
102
SHADEPLOTCUSTOMDPI
 70
   300
  0
XRECORD
  5
42
102
{ACAD_REACTORS
330
41
102
}
330
41
100
AcDbXrecord
280
     1
102
MATERIAL
148
0.0
149
0.0
149
0.0
 93
        0
 94
      127
282
     0
 72
     0
 77
     0
171
     0
175
     0
179
     0
273
     0
  0
XRECORD
  5
43
102
{ACAD_REACTORS
330
41
102
}
330
41
100
AcDbXrecord
280
     1
270
     1
271
     1
  0
XRECORD
  5
44
102
{ACAD_REACTORS
330
41
102
}
330
41
100
AcDbXrecord
280
     1
270
     1
271
     1
  0
XRECORD
  5
45
102
{ACAD_REACTORS
330
41
102
}
330
41
100
AcDbXrecord
280
     1
270
     1
271
     1
  0
XRECORD
  5
46
102
{ACAD_REACTORS
330
41
102
}
330
41
100
AcDbXrecord
280
     1
270
     1
271
     1
  0
XRECORD
  5
47
102
{ACAD_REACTORS
330
41
102
}
330
41
100
AcDbXrecord
280
     1
270
     1
271
     1
  0
XRECORD
  5
48
102
{ACAD_REACTORS
330
41
102
}
330
41
100
AcDbXrecord
280
     1
270
     1
271
     1
  0
XRECORD
  5
39
102
{ACAD_REACTORS
330
38
102
}
330
38
100
AcDbXrecord
280
     1
102
MATERIAL
148
0.0
149
0.0
149
0.0
 93
        0
 94
      127
282
     0
 72
     0
 77
     0
171
     0
175
     0
179
     0
273
     0
  0
XRECORD
  5
3A
102
{ACAD_REACTORS
330
38
102
}
330
38
100
AcDbXrecord
280
     1
270
     1
271
     1
  0
XRECORD
  5
3B
102
{ACAD_REACTORS
330
38
102
}
330
38
100
AcDbXrecord
280
     1
270
     1
271
     1
  0
XRECORD
  5
3C
102
{ACAD_REACTORS
330
38
102
}
330
38
100
AcDbXrecord
280
     1
270
     1
271
     1
  0
XRECORD
  5
3D
102
{ACAD_REACTORS
330
38
102
}
330
38
100
AcDbXrecord
280
     1
270
     1
271
     1
  0
XRECORD
  5
3E
102
{ACAD_REACTORS
330
38
102
}
330
38
100
AcDbXrecord
280
     1
270
     1
271
     1
  0
XRECORD
  5
3F
102
{ACAD_REACTORS
330
38
102
}
330
38
100
AcDbXrecord
280
     1
270
     1
271
     1
  0
XRECORD
  5
F
102
{ACAD_REACTORS
330
E
102
}
330
E
100
AcDbXrecord
280
     1
102
MATERIAL
148
0.0
149
0.0
149
0.0
 93
        0
 94
      127
282
     0
 72
     0
 77
     0
171
     0
175
     0
179
     0
273
     0
  0
XRECORD
  5
10
102
{ACAD_REACTORS
330
E
102
}
330
E
100
AcDbXrecord
280
     1
270
     1
271
     1
  0
XRECORD
  5
11
102
{ACAD_REACTORS
330
E
102
}
330
E
100
AcDbXrecord
280
     1
270
     1
271
     1
  0
XRECORD
  5
12
102
{ACAD_REACTORS
330
E
102
}
330
E
100
AcDbXrecord
280
     1
 70
     1
 90
-1605170417
 71
     1
  1
16E59441-870A-4409-BE69-70B40B64549E
311
504B0304140006080800724B674C77AEE56716010000A80100004F00000041323634313535462D344431332D343446412D393841302D3244413538303432424344322F4173736574446174612F446566696E6974696F6E4974657261746F7250726F706572746965732E62696E7550414EC33010341C401C3820F1801EB81A
311
3B899DC44808D9D8E58490E001E006D34672D32A4ED46B8F3CA35FE1277D4961AD064EC5D27857B3B3BBA3FD44087D0F0F52740458C37F0EF1C135AEADAB976AE6E6169D44C62F26D65F419653A9A8BAD73835BAC04C8A0C0334369C67222B94E19A1D83EE14A0DD87ED7D17473ED6A172DEDBC62DFA7001C4B06334B71DEC
311
B2FE3A369D2114C31A807E0B214E9AEE1D45932B807D5FDEDCD9105C774B649AB384F331663AC9306363894529294EB5E4256529784DC9B30B8BBEAD5C20496EB8602CC1654125C8A9C0CAE402175431AA72C69930A49BF5F13497D1C6A4B1B527940C165E97CD740796B65DFA04E5BF1B96BBE42BF26FFD617EF38F7ED31E
311
D68F567BFE07504B0304140006080800724B674C100E9BAC0D010000300200004500000041323634313535462D344431332D343446412D393841302D3244413538303432424344322F4173736574446174612F496E7374616E636550726F706572746965732E62696EEB606060F80F0540260323103700495E20ED9E9A975A
311
94991C9C9C919A9BA8021430347335B5343131D4B5303770D4353131B0D4757235B3D435377032317032333135B174654768046931363471713532B5D435353131D635313332D475727372D13534373670367376B67474B5042A03DBCBA019D37FE8ABC6157B20CD04146B0062181F4C03F940F0C11EA29A8141C08141002C
311
0426541C106CAC2CA046088033B02A030AC2157C6006F21A8018AAF50194E6010A610250382264E08660284CD9E98021862280A91564B406929A0FF62C401E28B6F88038B83CB1243943D7A928312F25350524B369D3A6CD090909893D3D3DBD200C62DFBC79F316500A0ED0F92075207D7005480C985A00504B0304140006
311
080800724B674C88E57597CD3F0000904100006B00000041323634313535462D344431332D343446412D393841302D3244413538303432424344322F5265736F75726365732F31364535393434312D383730412D343430392D424536392D3730423430423634353439452F7468756D626E61696C2F302F67656E657269635F
311
706E67355B773CD4FF1FBF73E71C0E67EF7576C9DEF3EC995D46C6A1EC5046649CBDF79E192942562825CE965D8A868C2842C8DE9FDFD1F7E7F138F7078FCF6B3F5FCFD7EBFDFEC41B196891913091804020321D6D7513FC77D8C5070EC3FFEE51B21F068154CC75D455CC028A3EA68992803810109FDDE5D5CEC5521B28A1
311
B422BF80741695D5B529DA1C2D058AD2388BDA9F476F7C2CADC939304173DBF48A452BF8A700C0C70C3D121C1AA15A5270C22E2B9E28763651F7DA0D12CE11077B2ECD0D560B5E3DE2368B1E65C5E1C87384A4CC5F2D9FB8BE39E9B77C753783A37998F5CEF1B4FEE553463245C9712270880DF339E0B882A6BA713D865F6F
311
384C842D440934EF264F4A304F8DE4EEFA1E2BF5E2D91F5ADD9613D6E31DDB33ED31DB1D7916CAF091286EA3D31B9CFECB78BB0060245B943C4C040119FF780A74DD308BA9D028678674EB5504ECF284EE814DAED07440BAF649BE4B55DA2890F4D73E2D489A59EE54FDB0A85B59F2F52C4858A02705C4815A792B0C4A996A
311
2023ECB195073E115E3E3647F64243A8338F2000BCB58DA5692C7E7C3D413F963FEDF3CF00FBB0F831A9D51360FECA43819F527B89FA260EB63C5DA676830AA3626A3693B23F1A17A0DFFCE3EE164E31B5365EDF0C89EF64D8E38AB0BA9A1117D7C3A0EC44F44F4023095E80BA610DE336D0F99593A88BFC5306E72DF98F7F
311
D132ED95878DF2964EA7E43071359FD83B2BDF9C6B5BDF768F0F3C0FC351199526F53D9460A34511F75D1B63E488178569472C91A94497807A3FD4A390C6558F26D416365C3656DE6E769DA9D8FC73774E1709812842DD8EF96AED1960F79D21B395CDDFE6F92CB4EB962A4668C76990E2EF29798C8941D67DA50F4A5F9478
311
72460F1F6FDB794E8A29FD7AC0C0D6E0714339CE258FB17AE8535221E3464A10F29A0BE5EEECEFC5675926A89F49EB14E5711894F6586DB5754EB4D5DA9C6437EBA57DB97A24F8B8A8DB295FFD73266CF57E82694DF5166DDF93573AFE9C9C5EB05F8FEF8E89E0A8917B0B3724DB7BEBB53252581EFC3E38166BA131A3A5B4
311
2FE2AD00A769BBFA4458D2DE7822F8C4F63D0B8E21B285AE13325F3410A435C648C9D91FDEB109E73CEDA7BC796961AF79175E1A3CE4C5E8B0D009B0C9E29EFD98BC8E97554E3D8D838424E270F7685226E5AC268E021EDE3522D583E8F20C0BDE2959EF5BBFEEDAB32FE9A3ED0E39F211A86AA9DEBFC68182EDED132AB8BB
311
794442D2D7EA9F4D8BFF52BC4D55BB165124EE90A42D101E67BBBB292FFB4F66DE5BF2300E44546757DA7CEF8932BFC9F92A0707953491A55C5A5ACEDABD9FA1AEA01BAC3DC5A24E22E7C47213493996EFBC369D086ED9397C9BA6C7F9855C7BD5E15BFC8C53DB3D2A4C5901A57ACD2FBDF4D1676E95338B2C2BCE65FDA4C6
311
4F5FEFDC7D9CA5AA1FCF11E193F2FDABF0F4916BF13FB916A224380E6462A9815F2300DC49CC4DF8D055CEF76462F4B7A7ACA7365C2707891370BC1D0AA6203C44CCAB47084FEC057F27FFCD57F89B8B9852459798A675C66BD7CE572CAF71FF7E6D7ECF7BF62CAB7B3F1107DCD04DC55A3F9961700286141C94A4F771FEB2
311
BCDA2DDEE0CB0BAE402FF1DB0100F8E475DFFFC074DDB4498AB7D186A7654DDB1CB680D703D47CEB4E72F8CB13D86A4AA68116E26387B93FD6738779B34FEDB8E517EDF2BAF28D9BE93A1D3A164320E07D42E514725C29515FF361754213EDE06B079A2E99EB1CA82A02019EADEEB87B9AF005BD04BBCECB14AACD6B24EFBE
311
482194A97DD32400685FF1FEF1544D1B14EFB1E7F08E6D2CD2AF52DE757F35F5E62332EE88EA26417AD5C3E0E319D68F25414E6D672BD4522B278C57D18F0113921C71D96527E091F00CEB15AE23D24667369BD3CEFA10C7549D930890BA4366F4EBC55F01F746109F98ABCDD5A3EE06619C6AD78AB33E48E4C9BD21BF7478
311
B385EC05C4F8987E2C1BFA0A60EBEDAA0AE0B015C2720ECE180FB6F2DEFBEB822D96338C9B63822183BBF52FB664A7AE57003AABCE512BF77E7E31BDA2E739AC4C131657DDFE5225E900FB56CC01CDE808FA4A9C9DA16AC679656BB64796283D89812B8F91136AE18EE5EBBAF47A73BE3C153EB5D4CD491B4BFB4FE690A4CF
311
9ABA08C0D8AA64220C438C96EA6CA80B58FE5761E697B3A292EB9FBDA502FA863E49FE694ADDFFF9D62C520BDD1A22014147A0903A05B9B729F54272EF83931FEEC057BFF8C8055C279EAC5C0011804828734024F6CFA319C9CC6867C727184465CD9BB7ED386AFFD96B294A85E3802FAE47244602D8273615952B98C4F23F
311
7EAE4463D9D638EEE374A20959E0FE519C4CFB0FBFE5DD80C2AA3F9DB961D1BDE57E67C9BB47B77FDD74EE3094F5DBBE3EBC1FBDB7393F5116263009E2EFE1AF9A221B2AE234C902BF70E9F280ED23E73908361565964333A3F01D0B006AF32FB21AA1316744B489D5A198E85299241735BE559675130955C902A8ED761FC0
311
DBE337A9F91919AF5CE32AF902ADF9AB2615E00E8A94586BA1A90839B61832FF1BFB76D2EFADE6DB1BA04CCAD3DA649E7E2A0219F592E22F2AD54847EEA8E42271011E9074F8F3DD9FBA6CDF88FFC9FC7E811AD1CA8F4557CE4AFC7BBEDCF0114A48689F20A584520C74DA8127124B767E2FB91A6B186246727BE63C9445BA
311
E02088D58B8EFDC0F1072407CD9B89A13F6303B4A928F593AD489B58E6869325790ADC406036C591729FE14021F94B7796BB11848D463536A092A26F077F94639F7CEEE2A724C66EC885F4A24F8B8A0AC321F8FD149BA529460FAA34E4663C02D41FDF80BCA222D42F0ABFF8490F4FA74C673807C2051D8E467B47B6160728
311
60069A9A303ABA9B319D58404461401B0A0F9BE5E1E151C14BC33B32ABE03DDE91708DFAEB15E7C0D593C86BB7D7EC17BE56E57975F077BFD5525F3A1A361D584A75E08CF29FC7B44B2B3085014F3A5A14517377C3F6B8F37E59514C3B12F8AACDEDDA4DFC49BE5710101534CD6FB6DE15B50F11A09472AABA727F0C49D9CB
311
906B158030065F48EB3625E010CEC1D511D0053474B11E6A4F01C0D6EF1BED3A944FDEC70E0DDCDC756C86545910E0DAE3BE3AA9A404574C2995CD5CAF9549226BC94B4F4F0F5F9086F418F6B32346464610D8BC7391D3C3A3CCF04CFC1FB2A3A3170E369511868F14EEA4E5E438CC73DB1F3248AA94B6B2FF33B222FF3D1E
311
7BF146CAD229770158063BCE4F5391964DF62F7E52A7BE0EEA829C9E13C4C147D6F93FE59E111DAB5E4594D6F3CD1AD375EE039930EFE5AF2BB2D41C83C7DABD8C659BAFBE8FAB392CA634F3D15C1D945DB4588D2B0824A4EC928AAC565557CA2F0DAA588CA5BE30B3A8004F7BF005E96CBF891D7F18112A3619FDF530DC8A
311
A64954258E1811789B5189B49B4EB53F5F89F7D37523894F3EB57B373763C91E502F52CC99EB7BDDF933FC324C4FFC2561DFFA7339FAFDD0A4BFBE6D3A8FF9ED1FC49898139864602458968913181918F719CCF5A68B2EE9C1FF050E34E63107003B8120FA982C21B30A874E4F5E4B38D5A8290C4B8D9BE48A0BE31EA995BD
311
C37AC6DE90BA17D259DEF53605D55922FEB1855D915B659FBEB350EE0DFB2F9F766E1C84CC8964B75D08667445EAB966015F63A18A9E0A325C1B3DC628C0D3CB60F767FA93CC65F25458BD23C3B312716E5F40E5858AC06EBA9AB14F95DB99147B832069201541D09A0D856E12C629CF32683760EE855537D1901988D5EBC1
311
56676C7DD51D7207CF3267AF1D76C2AD867315E44618015313A98B19941C696FED3461CAA9B5415F918556D7802EDACEFD6B2E45853A9735DFC9DBF7E440F9319F8B6805A973BCCDC76C069A9144E51F187EDCC12FC31B5DEAAF0A76137199B106EC84ADA6B6EE697D4E6A96E007417F4E880E8B1E89B4BCE9D81EF611E2ED
311
8F0C1A6C25F620FAFAAB656A7C42D464880E8AFAB0E0FC8EA38CA9A8AEEAEE3E4648BA4680270A89743CDD3E6C6CBF34B7B640EFA285ABC7EA0A1E28F3CC963D114A80123EE66D0AF7D5380EB41909B605AB4765B709B808590458157E69BA1378FEC4B48CAF6A730E3BE3C5EF2DD1A5EAF94B1DDE50CEB55DDFD7EE9A1674
311
7FA4B223359FB1FCC69E1194892BABB93A1D5C4E807AC0EA2E30180811E77A2291F6E7F7FAA5E0F60215BC6024E48DE436C511F0628B8CA189982D4D83CCA17D305A7E923C37941CFDFDCD93ACAF735EF5F0E61BBD3E6C41A59B242790D3A3BAC7064DCD89AA2E37214EC839820949D5CAA31E240D2948E48F690298974A96
311
BA9A8432BC90F5071D6537C9666EA4564796B7AFFFA548077BEEA75F63083435074BA182F3699557397F71548383FDA8CA34D99B981E72835ECDA5DDDC151315173D05A21F651AAF8524E88209E2E7A737ED1045800CE3390050BCFB8BE588DF111617874C62575039CA588EEFDEFEFE319B739DE2EDC147092A262611E159
311
650E787917885EF08F1F51B8F2D8A71D60B58B190FEF9541A1BE94BC19FEA50784DA1419FE4B0FB51B8D36B5FF8E1286FD8AF42B91E59A5F1CC4D60174E764045FD8C57B18209B217F89A62252BD20BE0E63E12B8E8F029FE19E0E8D0870F58721A557082250D5424F7909369376E41666C0EE77CD87CB283F661D5FB6D0DA
311
023CB67320A20DC7BE661E9E1BFE5463085C557DA1FF9BE835733766C3D139F2CF9E2208873AD0EB4814DE9E6BF2CAF81614D4D43906ED1C05A3265CABBFE192770FC2F64F940CB6B17B5F166F133C9AEEAD2641807C3E69515171DD74C4A85311513D6EC9530B3B601B6BA3EBFF3B5C3D2F7D69765141E345F75433953D01
311
3ADDF8F6AA7DC3F4A7563FE5C7D367937E2900D7EAD0F9FC9A4A1A9B5BDF1FEF08532660C01C5D6DE22199AA774383E306DAB87E301ABB7D213887F9869D4942D0D71E94B27EDF216A318BD488D45DF84529EF575AF3C3938C0AAA0215B01994153E2054A0B894DA5C784980633AAD48576957CF4AEAEAFADC7C587368551C
311
73DBE1E57C58AC713303A8BFC258BD04B51724459FF9E24C03A81E0E0679CEB9B348C0DC998FEB9C6D6EFA77D247CC8F92D3848599ED89A23218D0636465AD1CEEB7DC140D7426F83491C4E8E8281C2FB35240918FFECE880CA2A42D70E8B20B34DF5221C7DB0CF90ECCB9C745B37A47E9B716FF7A97B7A252C1F3814DC7B1
311
E1A7F72B8751D524EF7CAE45B0C73B3BE7D08ED39781B380DDFC9AA4A4749C9493DB5BAD07A6EA6C092FBD0E85DB004DF06B8C9D3089C5320187E4CE1846158C7EA7DDAE8AD9AFFF21AA3A1026BB06A259845E8232DEE62811A4DA9CEAB3A4887320B76E2AE5615EAB7BDF738CBDD01F1E64064BC13D9EC53576751CA8CACD
311
58B3CEB0E6CA585BD089B2A59B9FC101403387AADBDBE70586B93D64BF3AD4453EF9C3B6A93817E8346991798601344F79A83C51F3D50F7BF2683A3605F51A72449489E0EE6169C749C60B1035651103AEE24D24E51A759C840DD3FC6504DA6FE107510E447B43461C79D22970B75DE5E1BD3007D1AFC619A4A4A69B5626AF
311
5E9B8374E20677F77E2F8E73DF868E8BEC7EBA7B6A75EEF7205E1AB9486CB642741D6E03FF13FCCEDB1C4AC129886268B01CDF4B124AF797CF784F3C6DEC97A17D4B558070A0F1C04DA4FF9BDBF34159AEFE958479824B3F58EBD1E19088A2AFDE501B6F2052368A3FD0E650A179EFAB1561E1D27527077136E652676C3670
311
F42DCB3352F48F6BC86D2C3B0051727E41A0A4DC6CE2BE9D47F5CAA2935A3C0539AF080665997194ABECD723B08129CC5B6B21D2E7D54CD4D12610E7E9FB8306771A89576C7A982002775ED44F3F744CF21EEBB27A631671D921938AAEE3EB0D19CD1E083727F607823E817BF599DCED5394E37EEBC2E88782E638920CA641
311
EF74D4CDFCDEF06F4278ECB18E31E7E9876F2D783C8BF429C75395F57E98C2B495A3DA077EB3AC3C158608B6B57FE3EA48484D9A480096FCEE0DE880950E7E5A5714131C5C41AAA29FD19AE81AC145FA1B9E85C7169A5AB837B213493DF7E9AA4B5FBF9CDEB36EBD21EF1181B7CF7366AB2A951D01E37AF4EB835D1BE8C117
311
CFBE7625D2EBCDB0B20C5A4B45CED0BCDE3EE8DA9DA78C2E21DEAAFFD1197E463C33CC6A80FB785669B856EFF7A8CCCA2841B5A5369173320B1170C368B2748D81062EA0296E5E2D95D7667A4A46D98A6FF475C76AAB0A8C8D45E226FAFC9FE0133EA9F60111F99CA81ACE03A1D14C89E8B0D69079C91464FA1D99E651D0EA
311
F606F345C42A8A1AA9BA391031582B96D5B4176A77AADB01F12FD298A75DEEBB2C82F0B8650E880722F8DDD90C56A7A058E5FDEF1AC93545BA27367C76F5D8F9690CB6F8DAE141EDD7971F0FB548A2AE435F224D6E5954CA155512F7332029D5A1230854B79F258EC5FFDB09F5F6343A8EB193229B7F7E79B3E48F8E183860
311
B38C8269D1B53738FF1E0BACF6AADA6D4869E9DE708E79B5DADCC09B1BC76F649731CFAF59A83FD8BAE4C749D66FA87A3810D4D62FFE826FA400C0F325D2BC0F3CA35F5847B82A2ACC7961745C823E4D863D54460AF792CE6F79B5C7A33B25C3AEA6CDE15A919B6367D781E9D44F61BF828672594A3E1D9EDD6DF179A81F27
311
EAC05B936575D73E05C209DDD2115CFB705DF9BBF3C911589B3640735E9E618FC9C36A7326C82B2205E244C55D56FDB9D5DC93CE958D4BF8174D2B3DA54CB3C09F2C2A6DFF73D23B2197355761AD421EC581284A7EF8DE2CE3497C0C804D49B41DFD6A7360844E5BEFFB495CFCDB97A4595911CDBA623274CE852B5E278AF0
311
BEB1770E9D37CD977B2766A7DED0E94B840E1E95E8C77DE5CB6354AF7871427C28ADBEEF7BA0A28E19DE9ACD75F379FE373EAE6DDDAE3834692F9C2B03B4FCA8FCA9ABE8EEEBEBB725B88A7C90941E850682CA04061A7DF0CE82ED49BFAFFD42C309818FAE14755CAAE78B0F73243ECCCAD7DF58FCB9CDFAE7A4D3E6671A61
311
3639130D056C8383C8F4FCF4808C331E544DD26E4755D09EA05253B3049A1E32587CC25D72E073E2CD96D04A71BBCB0038FEC3F53D254199C3CDC67CD66640269431860225392B2CB3ECD0B4498AAE78BA1994246AE1EE78F2EDFB79F6C6CB6B5E279C4D373FBC21CB2698C9ACBBEB6A4BB6B39E16AB0E421CCBFC7654D81E
311
D86022F9BB522146F9F4772E2D0E4FA70120C95A85A417BF5078B232F4754363EB1750B2AC2148EB46B1EA72AD9B4D23ADCBC589D70106C3EC2ABEEED84DFE28E718C6C83502C28E9FDD3B09DA0A6F6F7B72B706A31C9E2A331EE70DA56A083D2177BFD63C55B11D8D949FAFCF90B23A1E24B9B5018B9A17E99F2890EC302F
311
330FE7936E2C23F0D237EC8916F5166AB84B62A21BB0B950146962D754F92CC2C8877BED8FC7B7B25726DD19545392570B3A2C66B58F027BEF412E552D12A588C4A3CC5C3193FCB3485EFFF700D0B9EEC077754A33DC1FB9E25AF814628F91DDFECB667D3F7690803F38D13F8AE39353523BB08FC6760144AFA2CE28236F65
311
EDBB3D5F59A57D612B99E3D7E5F8A851666BF9B5A6658EFC96EEB37A378ABB0EB3FDDF1303AF32C41BD1C8560745D7BD81066B0D6313359CF488563D3BA3F8E2185D1FAA3EBA1397C9D0E3DD232180A4DCADB6AF25DB3AC3CC26589C8239E66E81547BC7E2F328F9884764CA37EB5DBE390DFC03A5246B456A7C3684C4377D
311
0EEF9A350680FA9A077E8B2957B489E09AB1AD41316944C2254B5984830F691C93CAA767EECF976FA5647538830B5E63236A6F0365C1E0F3E327F24FE35EDDBD7360B0F7374837409F7A6311BECC12B7026D4FA1AE204FA3F5FE904B1F420C7A9044AE58E403E7C4848E7DA25DC9EDAC79DD756FAA26B9EA83ACE8A214A261
311
2A22AFA19DAE7DBAC5F8CDE1292A485F98DAC731A29FE01A3966E96BCB9FB5A4C8830E1B9AF0C54B87FBE221A097036E5D28D1F869F810C06A9BB0AC0612F69AEBAF893C6E7AD59460208BAB3A6B09CA4F6BDDAB8CF0D1F84B72487498395A70DCD754796E271099A567A55CF242BBED64696378BB6CF25EF0FCDB589F3A82
311
F1116D010A9AB9FA4358809EE0C973A2B4229BAA876A70B03AB49CBA7FBE71DB1832FFD32F9BF2C8E98075CACAFB36921235D0F552B6A67E94E094097A5D7DF681B40623DA535ADA7A9AD8E9A62407D7C9A5AE51D62A17A83A23728DE86BB56115804D3F2675F2C6B87541A0FC497BF0CA86420F558C9859EBE9FAD62747E3
311
23E3AADC03FDCDDFE7407B09DA90B44E3185723C5381EAEF589765E2F7A099BA46695BAD60CEF3491B8A171F5F56444F7CE9455312C3498C74173AEA0214EC029833B34B650CBB5A5508D5091665309642791708ECF27CF11DB3D797D6CFE474453BD4BFADB768094B2147814D81C7CBAF8228DCAF5564B5891F5EF6A860EB
311
2E323CB82AB868D8EA048880D63B0DE5341F1B3D53297B928A11E15F25E5148990F710747C3509ED14909C552EBE3973246FCE55D00564D8310BC3EBC5085D08D806799B77D6C57FDF5E55837F9E934F09C03C729271B64F12D0A9F9E938107CAF7BF1EC8CF1BB9B42363D33070F4CACB425E605DDB0A34A12BB936DE286B9
311
887A4E2E558F0886498BFF49C311D96C277CF6A9FC0D75AD0ECC5226D7E0E3572012E56D7FDE4410CEC7A6D0F997F225A2055B8B92E3956E875AE4993CB3D4C9063AF98FD45E1BAB165640A43439A2C9181A7C355B297C0A0CCFFAE19B6FA3C2BA238A885FBC98B8F6DAF4B94B97304878DF4D8BFF6A4AEDF79E90ED4E68F0
311
0CD7299F4E0D83E35601AF0CBEF18C1E870E74758FA91F5131075004DB3CFCF09AE1DABC11957FD9808C92E8A678CE9DBE40DDA0E0D1D505AAFBCBA208232BFB6FB3704E8985E61ADE53DE74152F5C7DE74B1DEDCD37DC3E8FB30D7EBA8B9EFFC3606BF90B8D438279CB7709FC7C00D327F41817EEA71CD9E49FE9C8C9A81C
311
70915D9F0F15958EC5AA4C3BBFAF46986B90F188BDB24B89DE3C6F29EC3E6F66D84856EE96A35E657CA41B41EFD8DBFA16AD6E91439EA92B40B21C053249F51AE50EB0B24C770FFAF40DF12C8436366819C48E36547D4E7B72FE2BBF10828583057814A668BDF183F6B2E58DFB151103E56303E63D00F39C27C4661605DB64
311
4D19175D02E3F0241E8FC3458D17AAAADB117CE9EEA690D0DB01E634878C04C2C9310B69FCAB831151E3AD293BEF6E46B0ABCECB50F5939B39C613D41E81FAE8D34CAE3C4566B761D37185FE864AC32FCB71AEF39DAA5BAB88609BB980CD2F07A8F941653B529567726E2B2A58D079DD57E1E5E31426CF184A04D7B03B985F
311
276D47406AF276FE32E3328BA866EB1FD39BEF57863A317634AA5FE467409B3873F5069EF0D71AF00AD189D17BA1974ECDB2D623E9E14086386A6AAB5807825C37B015BFE892AFD154920EC437EB945D958E18622E1E0FE2FA06557CE4BB9BBD05A2D40E774DA2B65473791E314B7D6C886820B2FCFE4AA272B3B8B15E7344
311
A145E8AF919B5454D89D36D413E87211186BF6F645E5EC94DCCE8E1C799022E4EC9BC86D7A0F2AFB1FC4B2CE48F84B3F49ECE65BAD24CADCC07EFF39AB06BE9E6B27A059938EA7208838455383DDBCFCD967DDE4650EF92A14FF933C975DB20BD7FEEBC4487576485963D757D16340D9599FEB362F775F38CA4185A86F74B6
311
29C81B133644A3B18FD056E997E0734F9BE26D11C0AAFC669E2AC9FC41D281F8B2E1C35AE27BCE05F3DA295488096688719D974DF1B5D182DB7792288697F8763CFB43562C1CDEE11C4AABD5C22B6E33F6F389CFC3477C5919DC0D533F8A7A1846B7ADB60ABDC26C43D0CFC8910B7C15EE22675BD02702ED39DB77A87A192C
311
A7A543E6205B979B9F5A6B512A3CA799E198B2D5797C0AF8D1D872CA455D4D431A7879D4DD76110B5FF7F4176B54477A9EB5E4A5D11214FDA585F0382751D8E2582BA5D2075053298FEB8F1537304E32CB22C2E2B693DC0A760B1DFCA751BDC445AFDCBB12820ED85F6D5298933C7EF1211E9E057684056CDA3FEF3BB60523
311
55E162DF27C59E965A8DDB7F9437EB72CDDA3A090DE65A5B2F50326247B7EC67B73ACC7047FC9B353D6EE990F772207C6EC52B39DC2F3C0754821DAB559F7C1809C7D0DD5B0499D0442E0A6E391B3D5DB46D11E731E6794EC77523FBDAA242ED67F9FA1FB684255671F63C9BCFE6E7E896D51001A6113EF2298BA494E0B098
311
0D1FA5B9D60796554C02256B1E0345FB7C6186B6A19D2DCA270416262845FA4F42DB5D9B0A0B6F07FCA2E56C242522E001E0CEB734AF310FC8BFB57E38E03AACE93B3326A2197891E68452B26A6307FDABFEE0223D3C03C3C73D2D5BC054C8311F12004CAE488E5C29287F8156A2CAA4AD0D7BE6B97264E4139F437CE73ADF
311
52E5134C52B819777C18B323A5924E4F67AFD13B1CDC3A61793A79FAF5C0CEB718E441071E797C6DCCB9EFCF7E4A1E9F3DF3C2F9C9E8294E9586868788C972857FB0556D7A26941A7EEB9B580AD78EC40B85DC906B4120A563CA3B87797ED612D3B035962BB75F6515A393F4CB057F564CDF54F2E5A024514E6A1F901DB80C
311
7E70B1FC05E356A7E72FABF4775B3E3FB8F70A2A8E7B6A94542BB304157978CCC999E707A29CC795E67A59CC546A5D47B368954CA7B6E75EC9E1F6FC73CE3B4F71F8CB1A6B15923D61EAAEB14626AAA9D04A26EB9C66CD1BE86CA31A5D8703DE04CD1EBCE4F5CCB62F93909AD11E55799A781A956ED27D3E738F4538CB04AD
311
ABC7DAEF20BC35BA6A90BCC1DC61BA05F20D8832FFB9BC9B15E2DB838A0AFBB7E0C82A562127E0446894F427794C3037186F622BF24DE1B00AA10A23BFA47B2A180D6DA5AD6F7326FEB8C100C2D7142EB2A0B2A9D1008A09BA343D70E054AB69E2A7EDB783CBD92537FAF4A44D1296AC2792729104B3276C276C951D0CF3CF
311
3F1E6B017720A7B8505A5FF9589365979678C36F1BAF759EAF57C60F1FF5FE9DCF5F8E764FF25A2D06CF25117A8FED51884C13B2B750DB0E4F5E3D64124FCF11F0AD8F1CC3B3DA4B38ED22BF1CB2585EE6BFEBBA63FBFD44F9537B9B37BDD6B358720F98A8125AED4349CCFEB0E135F19E208A04CA7E2B10711185D72E381F
311
448036EF57C9F874E54A971CA37A639E986AC0226DC5AA00D5B14FEA9192234B3DE617814FC221C92F33F1D392F297731B567FD98FD91D989379AF567A65B8ADF177591DB90FBEA99BF4ED11B16E50A0AB1DBF1156D034BBE04D69D08F939D8E92BF525A1DDAFF80ECBC95D8F45D3FDD289FD23F7D8B452F8EBB34EC082DEE
311
E68E18EDDF072060FAD2AB1504DD4879BF67099FC58F6E9DEFBF645D16334A3E9A127C6F1AF6132CF287E433B43A0EE93812B4AA0B194E03EE3FF91EF9C6ED0074A2F6EB18A96A7C9890B1FCDA1F2095E944DB911ED54C60DF16FB74C8CE9BDC7C54C4F14078CF73C2FFF1F1BBCCD7CF64F71407EA1683DBC410D226627F66
311
E509060D5C0AFD611DE681D509DB8DD12FB1265B03C6F5C55FF4C30BD94187FF692B4F152982502F193098A789526A038AB529A52BC0DC4FB6285CBAC10A8B8DB75DCD9BDABBB221E27D1F8DA9F5EE5926A1C8AA9BA9BC09239C6A7F12914EA3B59EFF7AAEC3FFCCE56F1C5C2980AD072793527565E774F4631DB178CEEC69
311
1B1F367BEA0CF2907E1D6B854D527065979DDEF002D8B2ACEA7CE21AE297737EDE1D45B31233B73FEA35BCFDD0B09721FDBAF6432681F2FD10C3E9EFB246FD6E854B344ACC9D8A0EEF876A7314B49B6A499FC650B099D650DBFEC7638ADFD245E2B7839DA5AC5F7D5623FC0ECEEC8653FC9B2BDD1AD4D00A566FBA7186DD3C
311
9CD26512551637498CADB950FEC71ADB9A5524285DE328B8EC7EC75D2345AEC6A27C42AF6D9B92155315C80DBFCABBB7DA0FAE425C4FB896B15C9BFAC4FE67DF5A23D30C93DA4D8F36FB15D100050DA6062E22AEC5F4DAC4F6FEEF97AE05DE63C6D38F9E068A20BC5E3B6BCD75320C5090924E7F93640A7735B1A43451C2D9
311
1EE62C6238B797349E59890AF3A520DF4A87095F3ABEC2E61F0593416CE46CDCBE0E00E2523FCCD04408588B5B6C9DB6459C786CE378770B54F51DA3A5E1DF2A3349BEAAC234A6CF8993B598B3B25B4B113E353A4D750FA7534749430F3EBF2512E7EA3FD43C6AB9A1F765A58463B306721A15D224FAFE8C6F5E3432D57EE6
311
97DA0DD5A9D4866A8BCCAAA9DFF1F06047851408FEC060471D0E3EB86BFAF46E4B5E60311DC3E3CEA147C75CF971BE74689507154FF2D2E92F15CDB2B9182B11459FD8ACAC5A85F174BC94A7F4EE4C4F5CAFA7C02E37BF0BC77B7DCD0C047BC316F562A01A441AFA7931CC84A28CB9F4AA367EB515778F29BFE61195FA671F
311
4352E5E46E3A64773F1F76EE5EB36D7BCE9BCEAD837A4D77F8DB8C92AEEF6711920D7C7D0F76B0FD0EB7AB83724CD35BCA7D36DDDF5FBB7FF6F04A91F3E2BB3B8F1A43CD659639507FF6331C5F697BCC782AE57D757A27D97F1AB9E0AEDB43F92F1B2AACDF5FEC8ADBAF9F814E2027003BA2F9E144B1938A7A04050AE5D953
311
B82C45619165C813A10E76DD6906B3C16438064D14CDA713AEC420034613E1AC7241904A49FBF87409AFB1FCB9B72FE7933A87D8FBEDACECE4EDCF6A4FE9FB94D5DEB74FAB7CFEAE17EE965DF980DCCA2D04134994F9A2E94D2265DA4FE6AA7B7AC15FACAC2B5ABBCD7DFF542C5314FDAB2E1B9D8B65220B8E2B638BE008E8
311
DCA22678C820C5053664D15E89F2D735B51A84955E81A443545E9FF787BE0FA700A76D136C27DA179A7C6E8939E01BE756E19CB292798063D8B97F44E8A27BCF3A614FEB8BE974A718E86F7EC99B53CA35FA24F61F2B07266684623A3D4CF073E511F3A10A8FDAFAF0078C577F4DF9D339FE7862E5FA47CF4344209E5BF76D
311
783B1B48E152AD281B15FCB934DCDA49CEC5706B1EE8B460F435324A5CAD154725E21AB8044B75A557A79F6C807B9340AA3D92503E866F4274412926C8C504E4D5EF8C0E68DD0B028781A6B4054F11CF18941F101C57CCC796773ABC8DED9CD91FE5788806C05E548895354AEAC96546D55B0E94A59F148D061F42AA398D82
311
2CDECA4CDE79E13469BDCC44FDC990F366BA5978C15F97ED80CBFD73B0CD9B8B83A4F6845BDFBFAF034019473FB9A63BD55D3A4A7284757071574029A4D016DCCBE95DD679EF3C4880BF169422F8C89B68A988D2B13793CAED4F74DE7486C72DC94DF46B8E93D8E02EFCB1FF9B3BA10C8AE7F653DF94F4AF466CDDCEF57766
311
87F7C4C14B63E4EED1719DC2EC482D7DBCC7AE518CDE3D5FF86D39000EC3673C0044E1D308BF05F74D1B5F033A7D1BE7F74BC55BBE3E4A20F920946CA0271EB17BD2B80E5660ACB8A29A79F5E4BBA49D4D945B6EEF4A7EFEAA65E5555BBB57A7E15D2F83C69F30BBB978D2B39F1F26FC097424D39BB33CA3D87ABF64E30793
311
8B685BAD44F71556A30B7E712CA4FE600613C3E554B69ADE949A7CFE214DF1FFF05CB82151EC6FC31950239F94CF7AD39DC473F6EA356E5EC2C4EFA04383CEFE985A127484366FBEE3C0EC4FEA363E4F6632AE781392FD45D67B63FB8DF70E82734F431FD3443172A0E30A83D60982D55FA6A2CF86DBA8382502ACC6CDEF3B
311
907982EED1160E14863FA242F9757347E1544275CCDCF71ECD5F8621CBEA326B8BA884AD7F825781923E66971F04010D574C541D8427A438A37EEF8AF88240EED7362C953F5A81DE2D56109CDE2524EA0F5D2F87308C0C47BD97AD605878AB8589E17CA83930CB5E0DCCD75853D68B1AB136594926DE426C367428E9334AFA
311
FF90ECE221BB5DC9E5BB53D2CDEF954EAA9CD814F0E5725F1965DD458E5F8487683AD86B9D0076BE3EE91EB1CECC5331A67A3F79D8B27587C12EC2A6A70474749F27B4C0BBAFB94B34189E88DC18964BE4121B9137FD516C7755356E50D6714E31ACD222621EBBCD1CFF81D87479056A9DA0E0B8EA19D24CF937DA89F78E86
311
50CCBDC110AAB6C4E46DCBFD0446BA9E2060E81F314AC2031E88135E5476AC0160EF5C0DD2EEF1B8B5CB2D198BE9A554A9093B5F7D7E4B5407DDFCA1D9C152FD97F55BFFFDFE802954DFEC8995B983E28AC92F1971E28F531DC407A1280EB125F64A72E617EFB27DFBCEDCDA2D6F2BDADA36873EE46B9BE1782998C63DA718
311
2BC383FB6FD15DA472B175D7E8B4FC88F38D6E07FEAA3FA3CBB8F6B449ECF14D2175E5C5CCA3A42ABF24CA6C9395AF74535F4DDB38CB84F56614B0FD32D7E19CA5CF988DB4449C40E23DF2B16772594554579094450F56F253CD25EA7F77366FB1CFE79696C428BB64D5A41E986189427E5E4D7E2DAE3D5BB4972B3DC44EAA
311
BDDDD63A2264ECFA5C786EB0EE1FDC5BE34FA0F08376869FD1E61EA06CAE15191135445EE8F0394161C3266A596AA035572BB0C8876180D8B9C77D307DF9DCDF7365ABDA6F3A2366436457A4DFC1F259666569A9E4A79C817BDD5610E5200FCE894A358EC72858D50EF67545DA81C6FACE3D457BAF70367E1E6BDD9A952FB4
311
F56247F58F523B97E640246051A72F79BE42FFA0B3187F63097F91C48B868586F714B0EBD5A00A8412C1236E1298F60C72BE6C96B82B404CADAA304AE9F303176B14BA53FBC2D5E86377E35542019E24D97B96A49B2C0E5006E7795954DEAF5DA58958839043C6C70BD3B1B33B6DC5C31316D8A6923F142E26F6711A2258AF
311
977DDF1F970ECC4F1F2B434B96D81BEB6E89BF3BBB3C7C8CC80505070723D6D7D7D3C8CA27CA164A26024FED94B12A86031867241DA53D929636DA600F050BC40CE48B8BA03D69224720DEE2ED2127390BDF5E6EA64527BBD4C4C63FA76BB801FEEC0E61218EC98A8A86CD8313781617877E66692839B9468CF4DB8E50A739
311
86E558E309C0D6F676F921BE02F1185454DC75B111572FF9D27D85EA14C05AD7271225B391C4275659CA4A43759D0BA44639BE4C30A84DB7F67A41399FB95CBF923B1B1672ABC807C1590557FB18D811983FA97F5E609516D62281D38B1281F68FC75528C35E4CD7DF0F7DBB5E5DD69C414EBEA2F4A5B241B996BA77AE6C77
311
2E367408C633EA3E438B68563EA8BE7667F3A4C4FDEEA52ABD78A2820F443B7914A15F180018D231E64519C56A12F6CA7C8DAE18F06F6B769DBF92329EF6A5D18FBCE600F36BD8E8198DE5CDAA96181F3A756EBA5501CEE58F497EA4F418A2B82565B9BCC611713C0B708CCA1F398B78C5F7D03B3437CC18F13061F55C7BED
311
ADD5ACB1DB0E36D3CE47FF6EA1A563A57E9649EA5D14D1A50EAA457463381C073777EF1600607BAF6428A7DDC079D47A204EF1E1F1F0589FB054D45E02CE623B3823C317C601E589E22B1E88B448524B86A82828E32345EC18AE17214B42F8C41C6D428016D9BA31DDCB47572561E5A402E5BA4FCE55F78AF7268524AA0413
311
0F3A20BA5D1E9F9948EA48FC8F5314FDB35E21898198060034ACE5E3E2BBCA34092518F275190AF65F45867FF0900AA4B81F25427414C372BF51DC29AA855C5428EE1EEDD6B849AD60F6E73475C2D2523F8A2772C840A478DED18A8C5C91B085F255DC4F54EA7AA8947354FD17ECF8FB3B4A0DE7B483CAF3A1165EE05BBA41
311
3E5C1FEF3DE1D6B8F2F3F3251C17D9FCAB48A9AAF63AC773A0E413BBC46A9ADF84A566FC920E4D8C52C9769EE3301CADEEEDD92B312E02E2A7E35B7F1E7D203FE5A7D75578B06E99D0E46FFADB8FDA17ED8880390DA29094202D6F645F76F6F96409CDA05495A96E84B04A00D1A6C6C81D7F3DE9376E828CCF144EE50E364A
311
CCE7237EA0BFB5607ED1AC3CFE73794E5B61739D14DF1743441B1AC98F00ECEDE9E7301FA29755FBEFA68C91EF2B314CF510537EF1ABFC9A762496280B546F5EDAAF8A5B387D469FC9A878A92828C88608453ACEC6094DCA54111E7AD5B2663DFE2DD151B7F123B9F4FEF8EE36AB125FD7AD52A59B1B765B3E3F73E3F73DEA
311
93875004D2AFFE3CDE9493B87A9904DD052028949041A91DC0E1BA47BA714343FD5B25E0A6A09503AFC17C790058A836A324FE31D7893512E28230332F153181C1E018E1124EBE1BA262AA428A518237D1EA7275E48C5C561BD19ED6912EDD8367DA0F31E40EEAE9683DA9257525AEA7B632B97119E17145A90231768A4F3B
311
9120FF32E8319B015E3CBE26F1A754177D8185345817C096B0CE443A955D13AC15E1FB5DEEA0239EC32A3C92241A237B0B02FFCB4F93CF2B02570C8D192E2F2A68CEEB42F12E6F8CEEFF46C251E22B4341C56FB08CCE550E7A9D6F4D6564B9EA52A83D5BF2C6E03FA19D2775E15A8A7ACF30A13C259EE7F5EF2AC3BA354F15
311
00E1A07FC63FB4686E2F12EC69719F9ECF5FE3F35598DF2CE944008CE78F0911BA5BE5D0A34E0098FF038669C26030BA9B300303039852A8F6F496341737CA7E0D2E3AAA36DE0A70AA7D9CA0D54D9AD84B18A44C9E625475E1C97B93BEBB38DCE7D227E67A2D00F531436136355F243D1FC0D712C5765754FA22FCFFAE9791
311
9161F46D6E61ACB37D83777B385889770B50765B127768443A5C4D3A4E35A3151111F146B7CA116F918A049F1C272F2CD7976C69A0068773451659A97E0F4A08FE604C3FF6CE7385DB19F4D3ABC8A0D80DA8A42096AC377DB49382B36E270B6FA7570188B4B7D1DDDDA82ACA487CCA5D38BD3BD039ADBAFA4ACFF27809239B
311
722081E2EB9F145320553D183F28471C388BC8814E5045676767AB58A8E72D1CED2CA731379515D2E533E4CF0B39DFC625F97AC4836831A4DE330E87A8126FA17EBE583D614E71E22A8DBF2825599743E0640037303E8E1B1E8EA4E1ABFA4F62907B5E4E0E5DCFDAB417C36C6848A2B8D15F1E505434C0707E16B1CFC2A1C3
311
6A42BBF55734F8F4301DDC2A5110CEE8C0747F69519265012A2174BF4E955ECD4FDE095A3ABC70536B7AD0B9D7892F81287D667C108703C9B66A221E9A0929D030008F77FF6F5D2108EF5706FC87A3069B976F7C9FC3239D13D283CDEA83597461079FEEE049B0F392889898B7D87D31F8D60ED7B56B91823A8E4EDDB36C61
311
72ECEE42BD42B12CD67994FA0F0DFAE9389356F4CD4425A4B8AA55CBF7ECD585C6A2C2316791E43D5C06841ADBB226A87FD61515FFBB0167B74E56BD7F3E90A57A97FEDCBDF483A0D6699A8C0849CAEB4947FAA90D8E332D9DEBD9F4738C37DA0CAF9CF3DAA68BCB67C420459C7A64498D6E848E5CADE92BB6901F607AA331
311
104A67F7CD650EE169B1DAE94D2C31C2F993632259B6957E246EFE4C5481107B07118607700040E5812A2A2A38DA0076875258C753F60E0F2662C748EDD5F3F3686B8FC3BD6FE631ECCAA1E8B1C1E565AD117E54893E79F4672E32F9E46B2A183DFDCF3EECB4D4D077DBEA0DA254D256045109670050129E9B9B1A9E4A1134
311
4D61497A992778095151510C4BB7EF2009B63AA4360635312E4CF668B7E0D3D85A8688E2BD83B569439892ADB63461930D428E0DE42E4AC57CE48DA5CC1449530D8BD3D6A0F08DF20C8E8F570F2CFFFCEA286E30969B4654D498A58D9DA782E19FE3F002181838925592C4A1EF0B332D88B61A92C644547BED490D3A42CFFA
311
B70E36D961F694F6307F72FF15A1C79D5B1B5CEFD353D9E2B52566DEC8F8F09CB3E8359C0F68EBBB7898243E34E12A015B2685AB303C04D3A9E00671FF3DFF0A184E4A2ABEB2B666AF5B3A209C73D8EF29DCDB069C9F391EEE9DD0F74C7BCDE16F8F02E3B8816122BBEB50665775B600549D8BB33A54A6BF940C028118BC68
311
78C79958D6784F9DEAA6E26748386FFAF8D0D0101E2847B6563F5D8DC1D78F787BE00E2C941AE12148D4A81599FE8F68D4DA5CDED75530ADE138240300EE13B0FC13A1687FED6774662C05A2B7DFB186732F0D7A93545D8B0A6390AE5054D9CB582DA846D7A061B3358B45E2B52DDE63E114397EDB7E09233A579155D795BE
311
76102CF277F4DF8B188C4F2879BEAE3C08347124BF9ED23B128259FE107D31E34A652F090B30B39E0D9AF917B76A2806135621A8A60681F16AF216514BBD02711585B5B1AE823F4B2D0369EA5B6BCB863072727FFC871CA6C9AB79A814D989057E9470A3D238BC87CBB4A0EA49AFE2B86F22E499793CAA9047080450166BDC
311
357524561E258C77CB697F1ABB32562CF87C3B7AA12F911EF19FB3E5C02222E887D08202A60A17151F5E053A86B437771088B4FEE14D652C43E8D939995D34545E12E2FF93D4E366EAD25F10CB7DED141563C3D0C447AF06078A91135FD4B9611583CB4BF3BD167F2399CEAB0E0100F8FFC305F00F1711717173138B4B48C8
311
3022295DE657EFEDD97F238ECA80F528AFB4F8D67AD4E2594B9A3AA86D7487EFC313BA95745C186F0CDD84CC12DC9CB0424B42203D351FD9C0A3AF10CC7F388E0329279087386421F194F4A29464C1DEF7EF8BE515E4A199DCD5B909342598D8FE6A231F71336248D5CEC5454455C7BE383B3BC7B260FED27F703FDC39A170
311
F3827239102F59D4DEE7FEF82EAA1A5E4BA94DCC4CC44E7E2EDE20F24244E4454369D2E87C3F823F193FD4FD27E1C23984B01898D15ABC20711A8A558054951A6AE280096BA36CBA439603B7B0B4C45F248C14B2383B4B5CD8ECECE4FF859AD4A6CA2326D020EF090F4041D28DB66E5256B56232CC52829DE8060BAE6BBF37
311
D4B7469B822454FE93210A3E8D15E69FFCF01123222611C51C4FD0A041A0CFA2471CF6BE38D2B20FA4C3525B5B8B586759475CF80ADFE67A284AC24651E52B8E683D24C2622642F27E7C3C22783BCF63648BC398BD6CD0D9C97E7E7E3EACB6126DB7A6C1FD9F1031302EE67ED96F22B77C7CA0239BB324207559B105E4693E
311
B26EC46182A92C9C0DBD24F29B31C5C5AC1F84300E0E17CEEAC15F5736FA4A98971E2F1423BFCD68D4BBD5F86E74B40A369F39507C88FCDB35D2DD8DEBEA4AF999E23CF2816D204200DF6E611781B9884C1AC8888B4DE397320472959434323A5A36B22A8E1F721A270DF3BD65E4A31C11FF048AFB0D8B7B6881423793963A
311
23CFCE935FC189ED36FAE35C46DA3574C979E4394BE52084F3081837BE033396D2EBD80F1F691B273F660D2B32FA27A33B1DE4ADA5F0FA4651511102DFA410DDA86E065272CA314D5249DF91B06BB92807B28EFD54F08F7B525252782CD276DD02E6B0319B13DF87B1F6361AD6B28FC0D711CF445429B9E5A433CD493051C4
311
9A9E03DDB1B147D880253514A5DED88009018620EE229101C041950E2D8AA8E1F5F5438E0C0C0C60EEDEE9E3E0C051948C69F84BB7B2A48A1F3C8EB9E6864687F4F4F6F6E2FA87608ADAF9C5E117B7C1A737E710769DA1D15ECE6A84502AA855398712D5FB51BE92E4EF824969CE18278798AC303C2C7980DD2500ADF8FB1E
311
6D6C2FAAFF9987178923334A244758BAA01A9A1B70FA5097D01E1CC2A58DAD0EC94CE6430AA9B0C10D75E3C6BAC670EFBADEE1607739CE0FC18A2587E3EC3058562014C64219C69BC269082D5C2F4A659278D585755912176D78A1B641719C2A394CED495A1AC5D583FD2F5EDD93308EA7EAE8A6DD396598BDBD3D4CFED62D
311
18A5BDFDE0DD5C80D1A89BA62697B131AE7CE9A6594138582F1B37D68F1749AC7CB67A70695D48A4A056AC1FBD4E82358CEAE38F54B95A9016F9000F9879C0D9D131768635CA798895F27D6F1614F11F2838A83611AA51C9A3DDB539D42979C29F10465655C17BEC3E2760B80DCBF609198C7B171A531905F3EC218D696025
311
975E986C6B4C666666787271F202805577DD5A3EF0CAFAF91B62DC4B2DB4217A7606282F31D8DDBC290593BAA93EA6353AFA9939B877978481E15CFC9F2755CDC00C538F63A4BA3E80AE009B73CA0185687D339A507D165B74290D6EE46D5C58148F020C3668ABE9EF2F7549170DC80DB41FFC1D678FF19AEB10C7133832B1
311
04B80F691B3138F97A92D26E551F1F110400D45AC71A9B9AC41A1A1B1DAEED0B0810638EFFB511D46B121C6FEA0F38CD00E03CFFEB9713FE1F9C263E4DDEC160D0497FA9A132BA608584057FB15380825DE6C7FC3C667EE947D488A09898D8E939C4953BF4EC9836344D2CC6B2971B2A21A572B06096F4982D2CC7232D46E8
311
EA69DC83722E267754D777F97F96D5DA74E1E75178084D0E70F12AD33E5F71EF2AFA599B2BEBF60A5BE475F444F240CBFE8143C334E7ED9150FEEFEF7EB020C4DBED388DD1D6A167A76F3CBF119B578AE8CFA7736ACAFA4440A1C47185638A0D2F3EB5BDDEFDA958FB13CE4AA4923D5BF840392D4554432952574973486668
311
4BF7F8D9D54D892E19BCA9F829A0F8BFCBEEA6CFDFC61D74EA1A645ED7A1FF241739F15694BD835B66FEC5677E40FE69BD3F91AE402F036537218A401CB0828604AD189E575015C6F3F6BBC8AC79CF6C70653847254B31551EFCBEB5978B9DB85D58D0FA41A9DFE9C624834AA04949D24B5AE6D299E072D152D12097920F14
311
AA92C31C3B97E28B6C2E6E9C23D63043ECBBC0A60FDF5BD0C33C127EA8A3308B8B6AFFEB28B4455BF6E7AF4FC6222728357EB8E46E85053E6A8843AB23295BF838ABDA94658FEF3F832F147046B4ACD6F7D48E8FCC9618582961C898D1C7A253C91BFECBDA6BA18A1FCF70755DCCEE2222F41B76D23CA98D0CB3D95F0CF66D
311
57FFF65E2A90F5DF40FC3187621E981BD0BC1D992787212688976B94A8F0C6EF646624B570B78E068826F87CE27041A95C9A4871FF65CC17FCB1639629AD6A9517000D63AC231F3D741CB8430777E7ECF80CE7A3F73C0F162F7E56AA71F4DA80A33CD6ACEE78E2C11FAC03DAFCE929B106F8F6B3ED2DC71FF994BD9CEF4E9A
311
94896EF1B6E2B7B4978168BCF0847A3D2A4F1B0500B926E634B174548E9FBAD27153FB5FC36799B1E6C7C38A94E1F9E996796D7B485E635D5287A2AE76FBD11A341DB3F8F810385BB7296391973DC6C37C452A9305AEBBE0CDB6C566DB59FE60C8E94B1FD090354BF51439FFD1B48D725228FFA88C84F686F547107A7A2356
311
65A4593B7C34D748C1AC8D56DD5DA861EEFBADDECBBD65117E65851F90351AEB65F0EFCFF4BCFEF24CB7A5879699FAC437A7AF9099186CF006BB923A59E37D7A36A29FD8D2CBB914A5E9D0A8FD212FBF796AE9A67958FF1D5D8B85F78F96219D4714EB919929241B6C018AAE0C02069F8D919961EC5DDFBFB7573E3AC8E08B
311
FB7C8534BE6DE045B3CD63DBD71F7638BA2309CAE398EA3A7D8F98BBBC7AEB367EFA5CFA27A9F8F2F52FE878058E6209C026453F8E7E8A237DFC389E9590F6059B397CFD65183BBF936E86896612A5B5FEE49DAC8455D026218AFEBEC12B3523A45B57B82C9C97E02ACFA1184DB18E48CF615DBF39C3CC6F0B4AE6BBEEA2E3
311
9D944E290302FA3DE33FA7E40296E2EF7BF1CD855BBECFAD0FD622BEE9746FC4FDFDE545AE6E3BC234CADF83A0FB76DFB145BF3828AE3436368AC24989454F8FF70A177672C711CAA1A76107218CF948CA01F873520E7A2B118EBB161ABAD432932029628B6761590C98AB590C8C8C79798CE9F715BA696E839E9131A4BB68
311
BE923F1747FBFF165331FFDD4D05997ACD168F12CA75348DAC04C7F509FE83898A8B421181AF492861CE81E4A2DD0A30850CFA95E05F097FF70F9E777310D584A75BA7018922E271DAB1D785671157685B7D383D3E074DDB4F1E44EF04B07BAAC75A062077C54B9752C738C9D804D402E02851F3F89605AF189738C18C021D
311
2139EAF72513824E10DDD3047BACC8521ED7E98B257D1166903B1B08FA6F918FD7E162913FEC7D0EF4787E29C35FBA8C6E2C9C20E9AB30AE42CA2A01A090E7D010C1B5BF9CEE2A304BF3A987FB40D836979B79E18D70F257DA61E808472DD85B82761825779D6B90CAEB0F23360C6F80A7D7D77545E95B3DFF0CF96A827F9B
311
5BCECD2C9698718417EF80FEEDEE938AFF55859D0D540B7FE09435583A6F04874A0C7E8CF234DF4879722000167F5872CEC6BF3EF7E5A8CC8121E6A359227C8A29C95212F9F735BC72A887D56B8F309FC525BFB4FD767AAEC4AEFF249CFBBD2DE1AB9969A6155C7D8DABC307E47324C1F916C7BCFF40ABA5644E9FFB9238D1
311
9ADADA49D9610F01ABBA57E4DFCBDCCBB2B93C8953206C91DE01B0E2651A6D6C31721915B31F7B7CBCE55466F6D70402788FA91D73BE4ADCBA99A35F17D6B83383704917D6833F0FA3CD45C926ADB8BC17999A4A0AFBCE2541F7B8CF4C2F5FBA611B3E626D64407CB32C122DFF4EF8674D6EDBB86C8F7C6A16D50FA685E2CC
311
A34F8F7D1D8265BB0042E9D7F1F666F7BE5FAA5184DF58E12122A42EF02F461B3F369AC746F96528AD208512AB56844CF75B97F352DF7995024FB02855385854F3798670D01CAC771AC3E1889EC25F61A20C1F8CAB46898817F9C47E2CDA1F286BF2F358298709FE567C91133E2638C8B53975E753EA8BFD3578B5F7186B7B
311
F084EBA3F77BAC3132A5779902EC22AF2D2E79F42D324E083386DAEE9810D1B44A5DAA54513C7A71E52A4AB9257D975B621308FE4D2141CC3DCFE946C154A3C1DFCCA7629EC69ACFA831634ADDA93C0388D2A9A2DDAFCF957C6995BCE7FBB6DC4EBAE79E63EB08E9A25F52F67076F7093CA545CA3053B5BF576DEAD4E00171
311
43C5F759F32B2D6F145B52B67B48909B7C7FCA6586EE385A2189C16932CB6DDFD9152AE317C430492A578ED27B72D85D40C7C93C097939E1B50F4D67F05334FE9DC362C30B7FF561B95259138ECFD9274C8D695C31B14D4EAA9F3D7FA8DDF652F8C5DEFA23284C799B7D94416DEE81E05A866302DC70192A5368EA65E1CED8
311
BF107A1E2D3119A71E85DC1A7B0C1E93274CE04DD0F2ABC8AC7C987FDB002B6F81757B43502EF7A0D92E416494FAEEA4C9C090CD9557AA4D532F4996A272B94355C5A0E4974EEA9627476F30809B94D8D8D860062E02204643BEC7D0438AF800FC7E2B26955D595421E83C69E1A07E0E3122285835F014AD538188CF9737CE
311
76D464A353FA55A001AB2526B84E985083693BC76FE211CA1D000679C889E3C009832C87E1AC2EDD05C302557422DF0800E316FCAC86978A371F025A6C7DAA9F333E7BD160403A1A06EA75AA9888FF01504B0304140006080800724B674C28BB58AF800100009E0500003D00000041323634313535462D344431332D343446
311
412D393841302D3244413538303432424344322F536368656D61732F436F6D6D6F6E536368656D612E786D6CBD544D4FC23018BEFB2B96DE15493C78601010A34B880709DEDFB52FD0D8B54BD70DF6EFED3AC0B12E6442E2716BFB3CEFF3D18E26FB440405EA8C2B1992E1C323095052C5B8DC842437EBFB673219DF8DA659
311
866649B798C078B48AE6410122242F2A4994AC7F93815DF85C049C8564CA0A901499DD886B2EB9B1E02448F358701A9235880C49A0119892A20C89D1B9FD768815CAD268CB5E0355B40B1E47F3E37A2020464BED06AA57CE8FCC20C3C3446D46761A2632A8C1283D07031EFF2AE7CCB1BFEEE916E406DFAC8E36FFD99A9D60
311
A6944090EEDC3B670C7DC13DE86B6B2C5C240D6E503BB85ACD579D513F1B9F9A69DC9CC22AFA80C426D40AF0B21EA168559156B6276F0F726A6BFF04DCD513A87A62CAD41FB24FCB2858B3952E3D852084DA25B9303C15687973CC8E8AAE11DF2836C38C6A9E765E8C1BA1BFB1DC29CDFE518C8B5A7655A4ED7E77291ABEB8
311
0DBD82EC866ADE1B8D05AF9E35CF09D7A061F38A986D9EC412B8F0F65E5D81534D9B231D1E5A8FE577A241F3A5FD01504B0304140006080800724B674CE336299B9F040000341300003E00000041323634313535462D344431332D343446412D393841302D3244413538303432424344322F536368656D61732F47656E6572
311
6963536368656D612E786D6CD5585B6FE238147EDF5F61E5BD1498E9A895A02398AA5D1E2A5665BAAF96710C78D6B9C87168D95FBFE7F81242134A968E469A4855437C72AEDFB965F4F53551642B7421B3741C0D7AFD88889467B14CD7E3A834AB8BEBE8EBED1FA3495108B3E01B91B0DBD1F3EC8E6C991A470F22155A72F7
311
3CBABC1D4D5921DCD1934863A11F990102A6F61466977B8AC49FB13C174CB3940BE4504A22E3713489B7F82406516225536940BD88E4E552493E8E564C1522225AB0384BD56E1C195DC26FAB13882C2EBD62E1FF9E5B0FCC453132C99548446A1872B62267078F1EF14C3DB1DD1952DDBBB384AD456779F387C51992E0ADCE
311
12FED2622BC5CB1952FC9BDF3295E9206E961AB116DA7ACE45F76F07A26EFC3FD762FD7362FC3C0BAA4DB34C09E682CA5167BADCD16CF94370E331E2F1A3D852008AAD5D64BA2373478338AEB1583B905396D158182655E1B938D07926CF007CC7E85E6709999B0D3827C0BF406BEF55C68CF5579DA32C8C85BE03EFE78878
311
7E8FEC95DC85C3E31A615658D81F9A34499612004CE69CAB12531B15A887ACA642C110F8C1A8C1974A85853F407794695C905C688E69B116550ACA946B9B4785FC179E0E229240B62665328E86D5BD2C800CF5D80289F35AC25E3DD51508F4BF9A74A0F5A557BB3D284BC6FF59312E282F956A75C5D453906F48D11A876599
311
E49425602400842995BDF02C4D012E226658F78A710416AC552831FDDEF0E6F0BABEBEA9DC36718CCEF4DAC5A0DF871AECBDD8F448F015F8DA113A473609D1751672B723874B2CAB21ECD6E284E51DCC7D1A47A00F60EC21DC4CC3CDC406DC03760A4E6C772F2F4D561A9AE58C4B03F5B4838701472139EDCB36819A66C472
311
B52AB1139C648956F43E0DAEC067B56B0818F5961D3D446B8F1E1E78C0EAD7EE02AF2895D813E88AC5014A7B436DBB20F778D40A1D9737EFE45B47D49CC8360F9966B15AABAC802C1005548A93EE469F5D55317CD8BF0AA86CABADB2A009D4D6F60CFE53AE370AFE8C45415B15D362A5A038E766E34B00F8C2E3E7098E2093
311
B1C96349FDAEA158903B4BDAEA665F473FECE72186E3BDDCACCADA31839CD6D4FA7D47DF5469006ED340EBE71DF960DDEE88A3E17557039B58C278A1795BA8079419DA8FC5BA1BAA1A66238BF69C7B2BE4E6274839122B7D00BE8B7D52CF61B2D63216046008C8B330FC10F8907787DEF061F47965BBA02FD8F53BA12F9827
311
614979F53563D0BB1AD67A03DC0E00E2FB2CF3EFB457E70E65A3D7C78E7D700DBB45132AE9BBA5E468CD861408961AD8B00A55C2FCC677F4456039FD9F1907A5B3E2D0EE845FDBA2DAFA88C64195671AD6D282DA2E45B1F50A0D632B0D0B6718757DCC7C84A70A3656F222CDA6DBF07E204AB358961D1BE31E53A82C2C0D56
311
DBF61A5608B5A252A932A1DC6E32462430853353EA30417C8199A662E946A4EF352268B8CDB9A9C6762515ACE8E09BBC031C608A02C4BA89C9DDC074E46E0E26A17BCBD4ED43270D03E3645ADB81F6D62CC07A3243EB81C07E01681DDF2DB4730631E6DDA6CBBD048BE9F06AEB3CF06B31DD6C9575E37E9FF17161342C4C76
311
D95519672A6509E0F5C4E71B4B1916440059F57D0921F496237E473A83E3E4E06353BD9D27593594D7B6707C08D22FEBDFBFFE03504B0304140006080800724B674C8DFFFC99640100009B0300004500000041323634313535462D344431332D343446412D393841302D3244413538303432424344322F536368656D61732F
311
52656E6465724D6174657269616C536368656D612E786D6CA5535D6BC230147DDFAF08799F5FDB600FADA20EA430D968A7AF12D36B1B481349529DFF7EF9A85A718860DFDA73EFB987734EA3D16FC5D10E946652C4B8DFE9610482CA9C8922C6B5D93CBFE3D1F0291A6B0D26A3255464182D920FB4233CC629881CD49C1850
311
8CF000E3EE309A100D61622AAB4A8A33B2483F11CB639C545B0E1508438C3D3C0361192846DB7ACD198DF186700D182920B914FC1063A36AFBEE8FBA03FFD3CC1D1F4FC9E151A2AF59F628C5B7821D83FDFD3489305080F2EE04BF962195FB285E9D2DD352320A9E827AE357594914E42B1F5FE35F83688F60C4C91A6C946E
311
D0668E8F244BC2EB0BA6E3BCCFC0B6A4B507F9F9F8D51EB315D9BA9E08D308E89F96931666E577837E2B4172199C68C4FE306156D47DF51C698C7B9D97FE5BEFE2190C3C38BB054E6E8163FB039CB4B993C80BF18D969203116D6BBD26238B821F9BB909AD6D9C71B85BCD8C33D66FEA3D31B4BC0AD45BEA46BBEDDFEC0F50
311
4B0304140006080800724B674C5591C01D51000000570000004700000041323634313535462D344431332D343446412D393841302D3244413538303432424344322F4173736574446174612F41737365745461626C654F66436F6E74656E74732E62696E5361606030347335B5343131D4B5303770D4353131B0D4757235B3
311
D435377032317032333135B1741502AACB4D2C492DCA4CCC492C28484D2C4ACC4B4E050A82012F90744FCD03CA26072767A4E6260200504B0304140006080800724B674CC55C663656000000680000004500000041323634313535462D344431332D343446412D393841302D3244413538303432424344322F417373657444
311
6174612F53747265616D56657273696F6E5461626C652E696E665D8CBD0A80300C06F73E4B29FE6CDD8A2E82A083B8B7F209014925C9FBA3AEAEC7DD2555D896CB85E51C2A1BD834F6A1F56EC4494C4695278364ABB24ABD2146F88CCEBB89D5321FF8F3F43D672A3B44DF3CB6A1710F504B0304140006080800724B674CE4
311
7FB8E438010000A20400003600000041323634313535462D344431332D343446412D393841302D3244413538303432424344322F4173736574446174612F636E782E786D6CCD94314FC3301085FF4A648931B6DB4AB4548E2B044B2790A818D8AECEA5584DECC8BE20F8F7D86D0650115387ACA7EFEE9E9FFC4E6D3EBBB6F8
311
C010AD77159B71C90A74C6D7D61D2A365053AE58B1D12A784F3F305638E8B062B9CCB43A043FF463A9C6068636575BEB8E63F13E46A41DEC5B7C6A1EBC23741459615A88B162D1BC63071C06F235C623AF8180CF78C0E88760304D22DBE138C90404C29AE9B99CAD4AB928E57227EFD6F3E57A71FBA64426B5DA7BDF8EBC4D
311
CB82EF6FE6D29CF7322D95C8805643B023955FC3F45F2AF9DE3A2512A955A4905C193BE8AB4F1DD0F7AD3540C93CE10D21950942E89438C35A89ECC22F2F1EB1B1CEE6966D9206E4C3731288812C4ED093FFD45EDF9BAD8B04CEE0941DB9D4787D1F5E4EBFE8F51CCB536EA697964B8DDCBAE60A5911A77392A293AF8BFE06
311
504B0304140006080800724B674C79310477E7000000600100006700000041323634313535462D344431332D343446412D393841302D3244413538303432424344322F5265736F75726365732F31364535393434312D383730412D343430392D424536392D3730423430423634353439452F7468756D626E61696C2F302F63
311
6E782E786D6C4D90C16E03210C447F6585D4E32E6C223569E4253FD1532F15659D2D0A8B1198AAFDFB42CB21A7B1C64F9667E0FABDFBE10B53761416314F4A0C182CAD2E6C8B287C1BCF62B86A4844FC808921981D17D16CA1614B5462B756BC99E29BEB5DB87773C380C9D9F7183631586F725E44B69FB89BC914A615F37D
311
5A0D9B699E12662AC9623DC06EC77EC026348CABD007359F47751CD5E955BD5C0EA7CBF1F90D6423357C10F9CEBBC098283E1D94A53A86FA8F02D9000D25B94EB510423F3C07B22E35644E357F87F82756C8C4E89D355C6B92641979AC109A1DE43FAC41B6BC55FECAA8DABAD1BF504B0304140006080800724B674CA233C2
311
345D000000800000006500000041323634313535462D344431332D343446412D393841302D3244413538303432424344322F5265736F75726365732F31364535393434312D383730412D343430392D424536392D3730423430423634353439452F7468756D626E61696C2F636E782E786D6C4D8B490E80201004BF42E6EE76
311
F3C0F216234B883063108CCF170C074F95AE5473F5C4C06E932E4F28601967600677D21E9D8092EDB002539227A2FCCB80E1168D80A6417297A89C5D6963B7129A0D1E8F2EE73AA7B62BBEB8B27DE50B504B0304140006080800724B674CBE89762363000000880000005B00000041323634313535462D344431332D343446
311
412D393841302D3244413538303432424344322F5265736F75726365732F31364535393434312D383730412D343430392D424536392D3730423430423634353439452F636E782E786D6C4DCC3B0E80201004D0AB90EDFD75167CCE820A4A845D83603CBE602CAC26799919AEEEE0D965E2E908050C6D0FCCE04C8BC355404E
311
B6198129C92351FAD580A10E464065907C8D948F8F166375F655BDC3FDC3B4E530A176BE7057BDC43B2A593FE403504B0304140006080800724B674C599C8AB77C000000A30000003600000041323634313535462D344431332D343446412D393841302D3244413538303432424344322F5265736F75726365732F636E782E
311
786D6C4D8C410AC3201405AF227F6FABF06322A8A18207098D0952A3258DA5C7AF962CBA7A30BC19357EB648DE7E7F859C34F00B03E2D33DCF21AD1ACAB1D001C868D49EF3F1770392A6CD6B68188C5AF75C9E279AFD3295D8680CE971422E5C2711391D7A76A3884C52EB84A43DB3C8ACC00EA5ABC6B529757EBDBA2D6FBE
311
504B0304140006080800724B674CEAB3BFBF0C010000550300003400000041323634313535462D344431332D343446412D393841302D3244413538303432424344322F536368656D61732F636E782E786D6CCD93CD4E032114855F6542E272809926B6360C5DB870E5465DB943E6B6920277C28FD1B7172A8B3671A78BEEE0
311
E4CBCD3907AED87D3ADB7D408806FD4406CA49075EE36CFC612239EDFB0DE9765204C4748691CE2B0713A93291E210302F4D9A61AFB2ADAA35FED8C47B740EFDB37E07A748A7AD8A7122F174A52A279C211EE9AC92A2030D1031070D6542320EDA041D402598891CF9B0E9F9AAE7EB177EB71DD7DBD5EDAB609594E20DD136
311
DEF80401979B916B2C475F0C71C12A20450EA651350591E7EE68E943B042481153282D34327D2D8554CB628D56A994C54EE00F2305AB612F223F808760F4B566BEB0F76FA19FC0CF101ECB4B05A3ECB566FFCDE5DF2A60A70D28DFA02E84FC06504B0304140006080800724B674CE3603EBE7A000000C20000002C00000041
311
323634313535462D344431332D343446412D393841302D3244413538303432424344322F636E782E786D6C6DCD410EC2201085E1AB90D9DBEACE05D09878023D01A1D34A8419C380F1F82DA68B9AB8FDFEC93C3D7C52546FCC12980C9CBA232824CF63A0D9402DD3E10C6AB03A3397DD192872090D3406ABE7CCF5B5D18893
311
ABB1690CF4DCF02282E5EA8A5BB96FFE536F285CB347F95BEFFE81C9ED5AFF9D5B1FB575BB00504B0304140006080800724B674C25C2F7247D000000A300000007000000636E782E786D6C4D8CD10AC22018465F45FE7B4B4DC3401D96EC3D467343DA346C468F9FC62EBAFAE0F09DA3BACFBAA0B7CFAF90A2067A20807CBC
311
A731C45943D9262C017546E594B6BF1BA038AC5E43C360D49C5379EE68F4D350964697101F3BB4ECCCA9103DE68E9E30E7BDC517690966CE0A4938BBDE1CABC6B129757EBDBA2D6FBE504B0304140006080800724B674CCA1DF9C9A900000073010000130000005B436F6E74656E745F54797065735D2E786D6CA590410EC2
311
300C04BF12E5DEBA70400835E500FC800F84E0B411AD13252E2ABF27A55740421CEDDDD9B55CEFA7A117778CC979527255565220197F75D42A39B22DB652EC9BFAFC089844F65252B2630E3B80643A1C742A7D40CA8AF571D09CC7D842D0E6A65B8475556DC07862242E78CE904D7D44ABC79EC569CAEBA537E3521C16DF5C
311
A5A40EA17746733E0B6615DE7217475F386F18B9481C510F1F021CD9FF027EA0E1F5C4E609504B0304140006080800724B674C3DEE336E64000000790000001B0000006175746F6465736B2D64657369676E2D7061636B6167652E786D6C35CBC10E83200C00D05F21DCA56CA76D41FC96062B120735B69A7DBE268BB77779
311
61F8D5AF396893C2ADB70FE7ADA196782C2DF776D7A97B5933C430F15651E5469C55D70F80A4992A3ADC954792C525AE70A1E4D6AD9816CC044FEFDF01FE3FDE907802504B0304140006080800724B674C3518D947F8000000960100003700000041323634313535462D344431332D343446412D393841302D324441353830
311
3432424344322F4173736574446174612F636F72652E786D6C8550CB6E833010FC15B47783C12840641CA5097FD0536F96ED502BC1467E44FDFCDA814AEDA9A75DCDCECCEE0E3D7D2D8FE2A99CD7D68C5097180A658495DACC23C470433D1427469DB5E1170D0AC31735428681D1D9D9B8EE90B02628935163A5DA41EEBD0A
311
5088476A46F0E2532DBCE4312486BF972B17773EABB22E371EA3316AB94BB54C6EFAA6950376ED273291A145CD44CEA89D304643DF11540F6DDF5CC8F4D61E30ADB298D1A0979FEDC2291E9404D6E0BA479820DCBDE3E1D8744772F8A0556632EA834B3FEF4BF377C0CEF9EA2B0F9C56DBF48F6B5CE5FFAE519B409ADD7553
311
7860753AF23560B4CA29A5F28A30D59C28FB06504B0304140006080800724B674C06E6E3E1F20000008E0100006800000041323634313535462D344431332D343446412D393841302D3244413538303432424344322F5265736F75726365732F31364535393434312D383730412D343430392D424536392D37304234304236
311
34353439452F7468756D626E61696C2F302F636F72652E786D6C8550CB6EC32010FC156BEFD818ACD88E30511FFE839E7A43405C94182C1E553FBF10BB527BEA6957B333B3BBC32E5FEBBDFAD43E186727686B0C95B6D22963970952BCA201AA0B67DEB9F88B069515AB9EA0C0C0D9E25DDA0E483A1BB52DA8754A1FA00841
311
47A8E43D371304F9A157518B143323DCEA4DC89B5874DDD63B8FB3948C3AA44665377335DA037F1D663AD3B14364A64FA89B3146E3D053D48EDD405EE8FCDC9D306B8A98B368D69FEDD26B11B5024E703B204C11EEDFF07826FD999EDE5953989C85E8F3CFC7D2F21DF0ECB5A37FDCD2A6FE774BC6464A0EB75D1180B7F9B8
311
C780B3A6A493CB23BA5C4B92FC1B504B0304140006080800724B674C55D6E845F9000000960100006600000041323634313535462D344431332D343446412D393841302D3244413538303432424344322F5265736F75726365732F31364535393434312D383730412D343430392D424536392D373042343042363435343945
311
2F7468756D626E61696C2F636F72652E786D6C8550CB6E833010FC15B47783C12840641CF5C11FF4D49B6B3BC40AD8C88FAA9F5F3B50A93DF5B4ABD999D9DDA197AF75293E95F3DA9A11EA1243A18CB0529B798418AEA887E2C2A8B336FCA24161F8AA46C830303A3B1BB70312D60465326AAC5407C8BD57010AB1A466042F
311
6E6AE5258F2131FCBDDCB8B8F3599575B9F3188D51CB43AA6572D357AD1CB0D77E2213195AD44CE409B513C668E83B82EAA1ED9B17323DB7274CAB2C6634E8F567BB708A07258135B8EE112608776F783837DD999CDE6995998CFAE0D2CFC7D2FC1DB0708BEB87E17AA1D53EFDE31A37F9BF6BD42690E670DD151E589D8E7C
311
0C18AD724AA93C224C3527CABE01504B0304140006080800724B674CC82FCF050A010000B10100005C00000041323634313535462D344431332D343446412D393841302D3244413538303432424344322F5265736F75726365732F31364535393434312D383730412D343430392D424536392D373042343042363435343945
311
2F636F72652E786D6C8590C16E842018845FC570475158850DB2A92D6FD0536F445997EC0A46A0E9E317569BB4A79E7E32CCF0F10FBF7C2D8FE2536FDE38DB83BA44A0D0767493B1730F62B8420A8A8BE09B73E1970D14562DBA07590682CF9B8BEB218DCE066DB36ADDA40F5179AF0328C6473AF4C08F37BDA852C5901CFE
311
5EAE6ABCAB599775B9FB048FD14C47D44CE93573357A03E28D4A2C3123B091F80512891064B4C3B0668436AF580EA445BCCA61C183597EE8E3A655D013100DAA294418A2EE1DB173D39D71FBC1ABEC14DC872DED7C40F37640D4AD3C31426A483B9470043138C896C10E0D040D2D39112679B507FF00E33AFD0F8CC606DC1C
311
C03DE11333FDFF792178950B4CE3D96E9AB96CF10D504B0304140006080800724B674CA144BE1AF9000000960100003700000041323634313535462D344431332D343446412D393841302D3244413538303432424344322F5265736F75726365732F636F72652E786D6C8550CB6E833010FC15B47783C12840641CF5C10F54
311
3DF566990DB1126CE447D5CFAF9D50A93DF5B4ABD999D9DDE1A7AFF5567CA2F3DA9A11EA92428146D9599B658418CEA487E224B8B336FCA24161E48A236418045F9C8DDB0E296B029A8C1A3BE30E4AEF3140A16EA919C1AB0BAEB294312486BF969B5457B96059970F9EE031EA7997EA39B9E9B34607E2B59FD8C486963413
311
7B22ED442919FA8E917A68FBE6854DCFED81F22A8B050F7AFDD9AE1CCA80338886D63DA18CD0EE9D0EC7A63BB2C307AF3253701F5CFA795F9ABF03F186DE46A7D0F3EA31FDE31AB7F97FD7A84D60CDEEFA507810753AF23E10BCCA29A5728F30D59CA8F806504B0304140006080800724B674CEC37BD00F600000094010000
311
3500000041323634313535462D344431332D343446412D393841302D3244413538303432424344322F536368656D61732F636F72652E786D6C8550CB6E833010FC15B47783C12840641CF5C117B4A7DE2CDB2156828DFCA8FAF9B5814AEDA9A75DCDCECCEE0EBD7C2D8FE25339AFAD19A12E3114CA082BB5994788E18A7A28
311
2E8C3A6BC32F1A14862F6A840C03A3B3B3713D20614D5026A3C64A7580DC7B15A0108FD48CE0C54D2DBCE4312486BF972B17773EABB22E771EA3316A7948B54C6EFAAA9503F6DA4F6422438B9A893CA176C2180D7D47503DB47DF342A6E7F6846995C58C06BDFC6C174EF1A024B006D73DC204E1EE1D0FE7A63B93D307AD32
311
93511F5CFAF9589ABF03F6B6DDE969B5CFFE78C655FEEF19B509A4393C77850756A713B701A355CE28952DC054739EEC1B504B0304140006080800724B674CA0F9532D03010000D80100002D00000041323634313535462D344431332D343446412D393841302D3244413538303432424344322F636F72652E786D6C9591C1
311
72832010865F85D93B8AA889C92019DB4C9EA0A7DEA86C2C93088E40A78F5FAC76DADEDA13CCCFF7EFF2EF8AD3FB78276F387BE36C0B45C680A0ED9D36766821862B6D809CA4989D0B3F3020568DD8C2228314C3ECE2B449BDB301EDA25AA7711395F71880F4F77469C1F7AF38AA4CC590087FCB26D5DFD4805991AD9C14C1
311
8C5FD67E46155083E4AC68282B29DB3FB1C391EF8FE5EE59E40B29453436947C6B86E30B6AE2A6902281AC4B91AFCF098B466F90D1E993E66A7006D9F15D55D4F58556E7A2A45575E9E8A1E918E5E7AE6E58C51F1ECF3C154966297C98D368B622CB10FE6A5F8DBFA2C549FF33DAEAF0208BEF50F9326729F2CF25A473D989
311
FC00504B0304140006080800724B674C9C733E9805010000B201000008000000636F72652E786D6C8D50C96EC32010FD1534776C6CACD88E305117FF414FBD51431C141B2C96A8FDFB42E24AEDADA7416FDEC6B0D3E7BAA09B725E5B3340551040CA4C566A330F10C31977804E9C396BC32F1A20235635408681B3D9D9B8ED
311
D0644D5026A3C64AB583C27B15004D4B7A0CE0A78B5A452162480C7F2D36315DC5AC8AAA78F0380B7AFD914E4E89A024F09A541D261493F68DF4C7BA3DD2C33B2B3393B318B5DCA3B44CE9FAAC9503FEDA8D74A47D83EB913EE1662404F75D4B71D5375DFD42C7E7E6405899C59CF9E0D29F7793D433202F6E3997958F1567
311
1FD62E3B219592C89AE50B7872C88B3FA5E326FF515A9B40EBDDF0A1F0C0AB54E8BE48C1F98269DCCF9B66BE36FF06504B01021400140006080800724B674C77AEE56716010000A80100004F000000000000000000000000000000000041323634313535462D344431332D343446412D393841302D32444135383034324243
311
44322F4173736574446174612F446566696E6974696F6E4974657261746F7250726F706572746965732E62696E504B01021400140006080800724B674C100E9BAC0D0100003002000045000000000000000000000000008301000041323634313535462D344431332D343446412D393841302D324441353830343242434432
311
2F4173736574446174612F496E7374616E636550726F706572746965732E62696E504B01021400140006080800724B674C88E57597CD3F0000904100006B00000000000000000000000000F302000041323634313535462D344431332D343446412D393841302D3244413538303432424344322F5265736F75726365732F31
311
364535393434312D383730412D343430392D424536392D3730423430423634353439452F7468756D626E61696C2F302F67656E657269635F706E67504B01021400140006080800724B674C28BB58AF800100009E0500003D000000000000000000000000004943000041323634313535462D344431332D343446412D393841
311
302D3244413538303432424344322F536368656D61732F436F6D6D6F6E536368656D612E786D6C504B01021400140006080800724B674CE336299B9F040000341300003E000000000000000000000000002445000041323634313535462D344431332D343446412D393841302D3244413538303432424344322F536368656D
311
61732F47656E65726963536368656D612E786D6C504B01021400140006080800724B674C8DFFFC99640100009B03000045000000000000000000000000001F4A000041323634313535462D344431332D343446412D393841302D3244413538303432424344322F536368656D61732F52656E6465724D6174657269616C5363
311
68656D612E786D6C504B01021400140006080800724B674C5591C01D51000000570000004700000000000000000000000000E64B000041323634313535462D344431332D343446412D393841302D3244413538303432424344322F4173736574446174612F41737365745461626C654F66436F6E74656E74732E62696E504B
311
01021400140006080800724B674CC55C6636560000006800000045000000000000000000000000009C4C000041323634313535462D344431332D343446412D393841302D3244413538303432424344322F4173736574446174612F53747265616D56657273696F6E5461626C652E696E66504B01021400140006080800724B
311
674CE47FB8E438010000A20400003600000000000000000000000000554D000041323634313535462D344431332D343446412D393841302D3244413538303432424344322F4173736574446174612F636E782E786D6C504B01021400140006080800724B674C79310477E70000006001000067000000000000000000000000
311
00E14E000041323634313535462D344431332D343446412D393841302D3244413538303432424344322F5265736F75726365732F31364535393434312D383730412D343430392D424536392D3730423430423634353439452F7468756D626E61696C2F302F636E782E786D6C504B01021400140006080800724B674CA233C2
311
345D0000008000000065000000000000000000000000004D50000041323634313535462D344431332D343446412D393841302D3244413538303432424344322F5265736F75726365732F31364535393434312D383730412D343430392D424536392D3730423430423634353439452F7468756D626E61696C2F636E782E786D
311
6C504B01021400140006080800724B674CBE89762363000000880000005B000000000000000000000000002D51000041323634313535462D344431332D343446412D393841302D3244413538303432424344322F5265736F75726365732F31364535393434312D383730412D343430392D424536392D373042343042363435
311
3439452F636E782E786D6C504B01021400140006080800724B674C599C8AB77C000000A300000036000000000000000000000000000952000041323634313535462D344431332D343446412D393841302D3244413538303432424344322F5265736F75726365732F636E782E786D6C504B01021400140006080800724B674C
311
EAB3BFBF0C010000550300003400000000000000000000000000D952000041323634313535462D344431332D343446412D393841302D3244413538303432424344322F536368656D61732F636E782E786D6C504B01021400140006080800724B674CE3603EBE7A000000C20000002C00000000000000000000000000375400
311
0041323634313535462D344431332D343446412D393841302D3244413538303432424344322F636E782E786D6C504B01021400140006080800724B674C25C2F7247D000000A30000000700000000000000000000000000FB540000636E782E786D6C504B01021400140006080800724B674CCA1DF9C9A90000007301000013
311
000000000000000000000000009D5500005B436F6E74656E745F54797065735D2E786D6C504B01021400140006080800724B674C3DEE336E64000000790000001B00000000000000000000000000775600006175746F6465736B2D64657369676E2D7061636B6167652E786D6C504B01021400140006080800724B674C3518
311
D947F80000009601000037000000000000000000000000001457000041323634313535462D344431332D343446412D393841302D3244413538303432424344322F4173736574446174612F636F72652E786D6C504B01021400140006080800724B674C06E6E3E1F20000008E01000068000000000000000000000000006158
311
000041323634313535462D344431332D343446412D393841302D3244413538303432424344322F5265736F75726365732F31364535393434312D383730412D343430392D424536392D3730423430423634353439452F7468756D626E61696C2F302F636F72652E786D6C504B01021400140006080800724B674C55D6E845F9
311
000000960100006600000000000000000000000000D959000041323634313535462D344431332D343446412D393841302D3244413538303432424344322F5265736F75726365732F31364535393434312D383730412D343430392D424536392D3730423430423634353439452F7468756D626E61696C2F636F72652E786D6C
311
504B01021400140006080800724B674CC82FCF050A010000B10100005C00000000000000000000000000565B000041323634313535462D344431332D343446412D393841302D3244413538303432424344322F5265736F75726365732F31364535393434312D383730412D343430392D424536392D37304234304236343534
311
39452F636F72652E786D6C504B01021400140006080800724B674CA144BE1AF9000000960100003700000000000000000000000000DA5C000041323634313535462D344431332D343446412D393841302D3244413538303432424344322F5265736F75726365732F636F72652E786D6C504B01021400140006080800724B67
311
4CEC37BD00F6000000940100003500000000000000000000000000285E000041323634313535462D344431332D343446412D393841302D3244413538303432424344322F536368656D61732F636F72652E786D6C504B01021400140006080800724B674CA0F9532D03010000D80100002D0000000000000000000000000071
311
5F000041323634313535462D344431332D343446412D393841302D3244413538303432424344322F636F72652E786D6C504B01021400140006080800724B674C9C733E9805010000B20100000800000000000000000000000000BF600000636F72652E786D6C504B0506000000001A001A00210B0000EA6100000000
310
504B0304140006080800724B674C000000000000000000000000370000006662782F45364438414241462D453246322D344136462D423632382D3132323238394235393542422F617474726962757465732E62696E504B0304140006080800724B674C000000000000000000000000350000006662782F4536443841424146
310
2D453246322D344136462D423632382D3132323238394235393542422F76657274696365732E62696E504B0304140006080800724B674CF270F1330600000004000000360000006662782F45364438414241462D453246322D344136462D423632382D3132323238394235393542422F747269616E676C65732E62696E6366
310
60600000504B0304140006080800724B674C88E57597CD3F000090410000420000006662782F45364438414241462D453246322D344136462D423632382D3132323238394235393542422F7265736F75726365732F322F305F67656E657269632E706E67355B773CD4FF1FBF73E71C0E67EF7576C9DEF3EC995D46C6A1EC50
310
46649CBDF79E192942562825CE965D8A868C2842C8DE9FDFD1F7E7F138F7078FCF6B3F5FCFD7EBFDFEC41B196891913091804020321D6D7513FC77D8C5070EC3FFEE51B21F068154CC75D455CC028A3EA68992803810109FDDE5D5CEC5521B28A1B422BF80741695D5B529DA1C2D058AD2388BDA9F476F7C2CADC939304173
310
DBF48A452BF8A700C0C70C3D121C1AA15A5270C22E2B9E28763651F7DA0D12CE11077B2ECD0D560B5E3DE2368B1E65C5E1C87384A4CC5F2D9FB8BE39E9B77C753783A37998F5CEF1B4FEE553463245C9712270880DF339E0B882A6BA713D865F6F384C842D440934EF264F4A304F8DE4EEFA1E2BF5E2D91F5ADD9613D6E31D
310
DB33ED31DB1D7916CAF091286EA3D31B9CFECB78BB0060245B943C4C040119FF780A74DD308BA9D028678674EB5504ECF284EE814DAED07440BAF649BE4B55DA2890F4D73E2D489A59EE54FDB0A85B59F2F52C4858A02705C4815A792B0C4A996A2023ECB195073E115E3E3647F64243A8338F2000BCB58DA5692C7E7C3D41
310
3F963FEDF3CF00FBB0F831A9D51360FECA43819F527B89FA260EB63C5DA676830AA3626A3693B23F1A17A0DFFCE3EE164E31B5365EDF0C89EF64D8E38AB0BA9A1117D7C3A0EC44F44F4023095E80BA610DE336D0F99593A88BFC5306E72DF98F7FD132ED95878DF2964EA7E43071359FD83B2BDF9C6B5BDF768F0F3C0FC351
310
199526F53D9460A34511F75D1B63E488178569472C91A94497807A3FD4A390C6558F26D416365C3656DE6E769DA9D8FC73774E1709812842DD8EF96AED1960F79D21B395CDDFE6F92CB4EB962A4668C76990E2EF29798C8941D67DA50F4A5F947872460F1F6FDB794E8A29FD7AC0C0D6E0714339CE258FB17AE8535221E346
310
4A10F29A0BE5EEECEFC5675926A89F49EB14E5711894F6586DB5754EB4D5DA9C6437EBA57DB97A24F8B8A8DB295FFD73266CF57E82694DF5166DDF93573AFE9C9C5EB05F8FEF8E89E0A8917B0B3724DB7BEBB53252581EFC3E38166BA131A3A5B42FE2AD00A769BBFA4458D2DE7822F8C4F63D0B8E21B285AE13325F3410A4
310
35C648C9D91FDEB109E73CEDA7BC796961AF79175E1A3CE4C5E8B0D009B0C9E29EFD98BC8E97554E3D8D838424E270F7685226E5AC268E021EDE3522D583E8F20C0BDE2959EF5BBFEEDAB32FE9A3ED0E39F211A86AA9DEBFC68182EDED132AB8BB794442D2D7EA9F4D8BFF52BC4D55BB165124EE90A42D101E67BBBB292FFB
310
4F66DE5BF2300E44546757DA7CEF8932BFC9F92A0707953491A55C5A5ACEDABD9FA1AEA01BAC3DC5A24E22E7C47213493996EFBC369D086ED9397C9BA6C7F9855C7BD5E15BFC8C53DB3D2A4C5901A57ACD2FBDF4D1676E95338B2C2BCE65FDA4C64F5FEFDC7D9CA5AA1FCF11E193F2FDABF0F4916BF13FB916A224380E6462
310
A9815F2300DC49CC4DF8D055CEF76462F4B7A7ACA7365C2707891370BC1D0AA6203C44CCAB47084FEC057F27FFCD57F89B8B9852459798A675C66BD7CE572CAF71FF7E6D7ECF7BF62CAB7B3F1107DCD04DC55A3F9961700286141C94A4F771FEB2BCDA2DDEE0CB0BAE402FF1DB0100F8E475DFFFC074DDB4498AB7D186A765
310
4DDB1CB680D703D47CEB4E72F8CB13D86A4AA68116E26387B93FD6738779B34FEDB8E517EDF2BAF28D9BE93A1D3A164320E07D42E514725C29515FF361754213EDE06B079A2E99EB1CA82A02019EADEEB87B9AF005BD04BBCECB14AACD6B24EFBE482194A97DD32400685FF1FEF1544D1B14EFB1E7F08E6D2CD2AF52DE757F
310
35F5E62332EE88EA26417AD5C3E0E319D68F25414E6D672BD4522B278C57D18F0113921C71D96527E091F00CEB15AE23D24667369BD3CEFA10C7549D930890BA4366F4EBC55F01F746109F98ABCDD5A3EE06619C6AD78AB33E48E4C9BD21BF7478B385EC05C4F8987E2C1BFA0A60EBEDAA0AE0B015C2720ECE180FB6F2DEFB
310
EB822D96338C9B63822183BBF52FB664A7AE57003AABCE512BF77E7E31BDA2E739AC4C131657DDFE5225E900FB56CC01CDE808FA4A9C9DA16AC679656BB64796283D89812B8F91136AE18EE5EBBAF47A73BE3C153EB5D4CD491B4BFB4FE690A4CF9ABA08C0D8AA64220C438C96EA6CA80B58FE5761E697B3A292EB9FBDA502
310
FA863E49FE694ADDFFF9D62C520BDD1A22014147A0903A05B9B729F54272EF83931FEEC057BFF8C8055C279EAC5C0011804828734024F6CFA319C9CC6867C727184465CD9BB7ED386AFFD96B294A85E3802FAE47244602D8273615952B98C4F23F7EAE4463D9D638EEE374A20959E0FE519C4CFB0FBFE5DD80C2AA3F9DB961
310
D1BDE57E67C9BB47B77FDD74EE3094F5DBBE3EBC1FBDB7393F5116263009E2EFE1AF9A221B2AE234C902BF70E9F280ED23E73908361565964333A3F01D0B006AF32FB21AA1316744B489D5A198E85299241735BE559675130955C902A8ED761FC0DBE337A9F91919AF5CE32AF902ADF9AB2615E00E8A94586BA1A90839B618
310
32FF1BFB76D2EFADE6DB1BA04CCAD3DA649E7E2A0219F592E22F2AD54847EEA8E42271011E9074F8F3DD9FBA6CDF88FFC9FC7E811AD1CA8F4557CE4AFC7BBEDCF0114A48689F20A584520C74DA8127124B767E2FB91A6B186246727BE63C9445BAE02088D58B8EFDC0F1072407CD9B89A13F6303B4A928F593AD489B58E686
310
9325790ADC406036C591729FE14021F94B7796BB11848D463536A092A26F077F94639F7CEEE2A724C66EC885F4A24F8B8A0AC321F8FD149BA529460FAA34E4663C02D41FDF80BCA222D42F0ABFF8490F4FA74C673807C2051D8E467B47B616072860069A9A303ABA9B319D58404461401B0A0F9BE5E1E151C14BC33B32ABE0
310
3DDE91708DFAEB15E7C0D593C86BB7D7EC17BE56E57975F077BFD5525F3A1A361D584A75E08CF29FC7B44B2B3085014F3A5A14517377C3F6B8F37E59514C3B12F8AACDEDDA4DFC49BE5710101534CD6FB6DE15B50F11A09472AABA727F0C49D9CB906B158030065F48EB3625E010CEC1D511D0053474B11E6A4F01C0D6EF1B
310
ED3A944FDEC70E0DDCDC756C86545910E0DAE3BE3AA9A404574C2995CD5CAF9549226BC94B4F4F0F5F9086F418F6B32346464610D8BC7391D3C3A3CCF04CFC1FB2A3A3170E369511868F14EEA4E5E438CC73DB1F3248AA94B6B2FF33B222FF3D1E7BF146CAD229770158063BCE4F5391964DF62F7E52A7BE0EEA829C9E13C4
310
C147D6F93FE59E111DAB5E4594D6F3CD1AD375EE039930EFE5AF2BB2D41C83C7DABD8C659BAFBE8FAB392CA634F3D15C1D945DB4588D2B0824A4EC928AAC565557CA2F0DAA588CA5BE30B3A8004F7BF005E96CBF891D7F18112A3619FDF530DC8AA64954258E1811789B5189B49B4EB53F5F89F7D37523894F3EB57B373763
310
C91E502F52CC99EB7BDDF933FC324C4FFC2561DFFA7339FAFDD0A4BFBE6D3A8FF9ED1FC49898139864602458968913181918F719CCF5A68B2EE9C1FF050E34E63107003B8120FA982C21B30A874E4F5E4B38D5A8290C4B8D9BE48A0BE31EA995BDC37AC6DE90BA17D259DEF53605D55922FEB1855D915B659FBEB350EE0DFB
310
2F9F766E1C84CC8964B75D08667445EAB966015F63A18A9E0A325C1B3DC628C0D3CB60F767FA93CC65F25458BD23C3B312716E5F40E5858AC06EBA9AB14F95DB99147B832069201541D09A0D856E12C629CF32683760EE855537D1901988D5EBC156676C7DD51D7207CF3267AF1D76C2AD867315E44618015313A98B19941C
310
696FED3461CAA9B5415F918556D7802EDACEFD6B2E45853A9735DFC9DBF7E440F9319F8B6805A973BCCDC76C069A9144E51F187EDCC12FC31B5DEAAF0A76137199B106EC84ADA6B6EE697D4E6A96E007417F4E880E8B1E89B4BCE9D81EF611E2ED8F0C1A6C25F620FAFAAB656A7C42D464880E8AFAB0E0FC8EA38CA9A8AEEA
310
EE3E4648BA4680270A89743CDD3E6C6CBF34B7B640EFA285ABC7EA0A1E28F3CC963D114A80123EE66D0AF7D5380EB41909B605AB4765B709B808590458157E69BA1378FEC4B48CAF6A730E3BE3C5EF2DD1A5EAF94B1DDE50CEB55DDFD7EE9A16747FA4B223359FB1FCC69E1194892BABB93A1D5C4E807AC0EA2E30180811E7
310
7A2291F6E7F7FAA5E0F60215BC6024E48DE436C511F0628B8CA189982D4D83CCA17D305A7E923C37941CFDFDCD93ACAF735EF5F0E61BBD3E6C41A59B242790D3A3BAC7064DCD89AA2E37214EC839820949D5CAA31E240D2948E48F690298974A96BA9A8432BC90F5071D6537C9666EA4564796B7AFFFA548077BEEA75F6308
310
3435074BA182F3699557397F71548383FDA8CA34D99B981E72835ECDA5DDDC151315173D05A21F651AAF8524E88209E2E7A737ED1045800CE3390050BCFB8BE588DF111617874C62575039CA588EEFDEFEFE319B739DE2EDC147092A262611E159650E787917885EF08F1F51B8F2D8A71D60B58B190FEF9541A1BE94BC19FE
310
A50784DA1419FE4B0FB51B8D36B5FF8E1286FD8AF42B91E59A5F1CC4D60174E764045FD8C57B18209B217F89A62252BD20BE0E63E12B8E8F029FE19E0E8D0870F58721A557082250D5424F7909369376E41666C0EE77CD87CB283F661D5FB6D0DA023CB67320A20DC7BE661E9E1BFE5463085C557DA1FF9BE835733766C3D1
310
39F2CF9E2208873AD0EB4814DE9E6BF2CAF81614D4D43906ED1C05A3265CABBFE192770FC2F64F940CB6B17B5F166F133C9AEEAD2641807C3E69515171DD74C4A85311513D6EC9530B3B601B6BA3EBFF3B5C3D2F7D69765141E345F75433953D013ADDF8F6AA7DC3F4A7563FE5C7D367937E2900D7EAD0F9FC9A4A1A9B5BDF
310
1FEF08532660C01C5D6DE22199AA774383E306DAB87E301ABB7D213887F9869D4942D0D71E94B27EDF216A318BD488D45DF84529EF575AF3C3938C0AAA0215B01994153E2054A0B894DA5C784980633AAD48576957CF4AEAEAFADC7C587368551C73DBE1E57C58AC713303A8BFC258BD04B51724459FF9E24C03A81E0E0679
310
CEB9B348C0DC998FEB9C6D6EFA77D247CC8F92D3848599ED89A23218D0636465AD1CEEB7DC140D7426F83491C4E8E8281C2FB35240918FFECE880CA2A42D70E8B20B34DF5221C7DB0CF90ECCB9C745B37A47E9B716FF7A97B7A252C1F3814DC7B1E1A7F72B8751D524EF7CAE45B0C73B3BE7D08ED39781B380DDFC9AA4A474
310
9C9493DB5BAD07A6EA6C092FBD0E85DB004DF06B8C9D3089C5320187E4CE1846158C7EA7DDAE8AD9AFFF21AA3A1026BB06A259845E8232DEE62811A4DA9CEAB3A4887320B76E2AE5615EAB7BDF738CBDD01F1E64064BC13D9EC53576751CA8CACD58B3CEB0E6CA585BD089B2A59B9FC101403387AADBDBE70586B93D64BF3A
310
D4453EF9C3B6A93817E8346991798601344F79A83C51F3D50F7BF2683A3605F51A72449489E0EE6169C749C60B1035651103AEE24D24E51A759C840DD3FC6504DA6FE107510E447B43461C79D22970B75DE5E1BD3007D1AFC619A4A4A69B5626AF5E9B8374E20677F77E2F8E73DF868E8BEC7EBA7B6A75EEF7205E1AB9486C
310
B642741D6E03FF13FCCEDB1C4AC129886268B01CDF4B124AF797CF784F3C6DEC97A17D4B558070A0F1C04DA4FF9BDBF34159AEFE958479824B3F58EBD1E19088A2AFDE501B6F2052368A3FD0E650A179EFAB1561E1D27527077136E652676C3670F42DCB3352F48F6BC86D2C3B0051727E41A0A4DC6CE2BE9D47F5CAA2935A
310
3C0539AF080665997194ABECD723B08129CC5B6B21D2E7D54CD4D12610E7E9FB8306771A89576C7A982002775ED44F3F744CF21EEBB27A631671D921938AAEE3EB0D19CD1E083727F607823E817BF599DCED5394E37EEBC2E88782E638920CA641EF74D4CDFCDEF06F4278ECB18E31E7E9876F2D783C8BF429C75395F57E98
310
C2B495A3DA077EB3AC3C158608B6B57FE3EA48484D9A480096FCEE0DE880950E7E5A5714131C5C41AAA29FD19AE81AC145FA1B9E85C7169A5AB837B213493DF7E9AA4B5FBF9CDEB36EBD21EF1181B7CF7366AB2A951D01E37AF4EB835D1BE8C117CFBE7625D2EBCDB0B20C5A4B45CED0BCDE3EE8DA9DA78C2E21DEAAFFD119
310
7E463C33CC6A80FB785669B856EFF7A8CCCA2841B5A5369173320B1170C368B2748D81062EA0296E5E2D95D7667A4A46D98A6FF475C76AAB0A8C8D45E226FAFC9FE0133EA9F60111F99CA81ACE03A1D14C89E8B0D69079C91464FA1D99E651D0EAF606F345C42A8A1AA9BA391031582B96D5B4176A77AADB01F12FD298A75D
310
EEBB2C82F0B8650E880722F8DDD90C56A7A058E5FDEF1AC93545BA27367C76F5D8F9690CB6F8DAE141EDD7971F0FB548A2AE435F224D6E5954CA155512F7332029D5A1230854B79F258EC5FFDB09F5F6343A8EB193229B7F7E79B3E48F8E183860B38C8269D1B53738FF1E0BACF6AADA6D4869E9DE708E79B5DADCC09B1BC7
310
6F649731CFAF59A83FD8BAE4C749D66FA87A3810D4D62FFE826FA400C0F325D2BC0F3CA35F5847B82A2ACC7961745C823E4D863D54460AF792CE6F79B5C7A33B25C3AEA6CDE15A919B6367D781E9D44F61BF828672594A3E1D9EDD6DF179A81F27EAC05B936575D73E05C209DDD2115CFB705DF9BBF3C911589B3640735E9E
310
618FC9C36A7326C82B2205E244C55D56FDB9D5DC93CE958D4BF8174D2B3DA54CB3C09F2C2A6DFF73D23B2197355761AD421EC581284A7EF8DE2CE3497C0C804D49B41DFD6A7360844E5BEFFB495CFCDB97A4595911CDBA623274CE852B5E278AF0BEB1770E9D37CD977B2766A7DED0E94B840E1E95E8C77DE5CB6354AF7871
310
427C28ADBEEF7BA0A28E19DE9ACD75F379FE373EAE6DDDAE3834692F9C2B03B4FCA8FCA9ABE8EEEBEBB725B88A7C90941E850682CA04061A7DF0CE82ED49BFAFFD42C309818FAE14755CAAE78B0F73243ECCCAD7DF58FCB9CDFAE7A4D3E6671A613639130D056C8383C8F4FCF4808C331E544DD26E4755D09EA05253B3049A
310
1E32587CC25D72E073E2CD96D04A71BBCB0038FEC3F53D254199C3CDC67CD66640269431860225392B2CB3ECD0B4498AAE78BA1994246AE1EE78F2EDFB79F6C6CB6B5E279C4D373FBC21CB2698C9ACBBEB6A4BB6B39E16AB0E421CCBFC7654D81ED86022F9BB522146F9F4772E2D0E4FA70120C95A85A417BF5078B232F475
310
4363EB1750B2AC2148EB46B1EA72AD9B4D23ADCBC589D70106C3EC2ABEEED84DFE28E718C6C83502C28E9FDD3B09DA0A6F6F7B72B706A31C9E2A331EE70DA56A083D2177BFD63C55B11D8D949FAFCF90B23A1E24B9B5018B9A17E99F2890EC302F330FE7936E2C23F0D237EC8916F5166AB84B62A21BB0B950146962D754F9
310
2CC2C8877BED8FC7B7B25726DD19545392570B3A2C66B58F027BEF412E552D12A588C4A3CC5C3193FCB3485EFFF700D0B9EEC077754A33DC1FB9E25AF814628F91DDFECB667D3F7690803F38D13F8AE39353523BB08FC6760144AFA2CE28236F65EDBB3D5F59A57D612B99E3D7E5F8A851666BF9B5A6658EFC96EEB37A378A
310
BB0EB3FDDF1303AF32C41BD1C8560745D7BD81066B0D6313359CF488563D3BA3F8E2185D1FAA3EBA1397C9D0E3DD232180A4DCADB6AF25DB3AC3CC26589C8239E66E81547BC7E2F328F9884764CA37EB5DBE390DFC03A5246B456A7C3684C4377D0EEF9A350680FA9A077E8B2957B489E09AB1AD41316944C2254B5984830F
310
691C93CAA767EECF976FA5647538830B5E63236A6F0365C1E0F3E327F24FE35EDDBD7360B0F7374837409F7A6311BECC12B7026D4FA1AE204FA3F5FE904B1F420C7A9044AE58E403E7C4848E7DA25DC9EDAC79DD756FAA26B9EA83ACE8A214A2612A22AFA19DAE7DBAC5F8CDE1292A485F98DAC731A29FE01A3966E96BCB9F
310
B5A4C8830E1B9AF0C54B87FBE221A097036E5D28D1F869F810C06A9BB0AC0612F69AEBAF893C6E7AD59460208BAB3A6B09CA4F6BDDAB8CF0D1F84B72487498395A70DCD754796E271099A567A55CF242BBED64696378BB6CF25EF0FCDB589F3A82F1116D010A9AB9FA4358809EE0C973A2B4229BAA876A70B03AB49CBA7FBE
310
71DB1832FFD32F9BF2C8E98075CACAFB36921235D0F552B6A67E94E094097A5D7DF681B40623DA535ADA7A9AD8E9A62407D7C9A5AE51D62A17A83A23728DE86BB56115804D3F2675F2C6B87541A0FC497BF0CA86420F558C9859EBE9FAD62747E323E3AADC03FDCDDFE7407B09DA90B44E3185723C5381EAEF589765E2F7A0
310
99BA46695BAD60CEF3491B8A171F5F56444F7CE9455312C3498C74173AEA0214EC029833B34B650CBB5A5508D5091665309642791708ECF27CF11DB3D797D6CFE474453BD4BFADB768094B2147814D81C7CBAF8228DCAF5564B5891F5EF6A860EB2E323CB82AB868D8EA048880D63B0DE5341F1B3D53297B928A11E15F25E5
310
148990F710747C3509ED14909C552EBE3973246FCE55D00564D8310BC3EBC5085D08D806799B77D6C57FDF5E55837F9E934F09C03C729271B64F12D0A9F9E938107CAF7BF1EC8CF1BB9B42363D33070F4CACB425E605DDB0A34A12BB936DE286B9887A4E2E558F0886498BFF49C311D96C277CF6A9FC0D75AD0ECC5226D7E0
310
E3572012E56D7FDE4410CEC7A6D0F997F225A2055B8B92E3956E875AE4993CB3D4C9063AF98FD45E1BAB165640A43439A2C9181A7C355B297C0A0CCFFAE19B6FA3C2BA238A885FBC98B8F6DAF4B94B97304878DF4D8BFF6A4AEDF79E90ED4E68F00CD7299F4E0D83E35601AF0CBEF18C1E870E74758FA91F5131075004DB3C
310
FCF09AE1DABC11957FD9808C92E8A678CE9DBE40DDA0E0D1D505AAFBCBA208232BFB6FB3704E8985E61ADE53DE74152F5C7DE74B1DEDCD37DC3E8FB30D7EBA8B9EFFC3606BF90B8D438279CB7709FC7C00D327F41817EEA71CD9E49FE9C8C9A81C70915D9F0F15958EC5AA4C3BBFAF46986B90F188BDB24B89DE3C6F29EC3E
310
6F66D84856EE96A35E657CA41B41EFD8DBFA16AD6E91439EA92B40B21C053249F51AE50EB0B24C770FFAF40DF12C8436366819C48E36547D4E7B72FE2BBF10828583057814A668BDF183F6B2E58DFB151103E56303E63D00F39C27C4661605DB644D19175D02E3F0241E8FC3458D17AAAADB117CE9EEA690D0DB01E634878C
310
04C2C9310B69FCAB831151E3AD293BEF6E46B0ABCECB50F5939B39C613D41E81FAE8D34CAE3C4566B761D37185FE864AC32FCB71AEF39DAA5BAB88609BB980CD2F07A8F941653B529567726E2B2A58D079DD57E1E5E31426CF184A04D7B03B985F276D47406AF276FE32E3328BA866EB1FD39BEF57863A317634AA5FE46740
310
9B3873F5069EF0D71AF00AD189D17BA1974ECDB2D623E9E14086386A6AAB5807825C37B015BFE892AFD154920EC437EB945D958E18622E1E0FE2FA06557CE4BB9BBD05A2D40E774DA2B65473791E314B7D6C886820B2FCFE4AA272B3B8B15E7344A145E8AF919B5454D89D36D413E87211186BF6F645E5EC94DCCE8E1C7990
310
22E4EC9BC86D7A0F2AFB1FC4B2CE48F84B3F49ECE65BAD24CADCC07EFF39AB06BE9E6B27A059938EA7208838455383DDBCFCD967DDE4650EF92A14FF933C975DB20BD7FEEBC4487576485963D757D16340D9599FEB362F775F38CA4185A86F74B629C81B133644A3B18FD056E997E0734F9BE26D11C0AAFC669E2AC9FC41D2
310
81F8B2E1C35AE27BCE05F3DA295488096688719D974DF1B5D182DB7792288697F8763CFB43562C1CDEE11C4AABD5C22B6E33F6F389CFC3477C5919DC0D533F8A7A1846B7ADB60ABDC26C43D0CFC8910B7C15EE22675BD02702ED39DB77A87A192CA7A543E6205B979B9F5A6B512A3CA799E198B2D5797C0AF8D1D872CA455D
310
4D431A7879D4DD76110B5FF7F4176B54477A9EB5E4A5D11214FDA585F0382751D8E2582BA5D2075053298FEB8F1537304E32CB22C2E2B693DC0A760B1DFCA751BDC445AFDCBB12820ED85F6D5298933C7EF1211E9E057684056CDA3FEF3BB6052355E162DF27C59E965A8DDB7F9437EB72CDDA3A090DE65A5B2F50326247B7
310
EC67B73ACC7047FC9B353D6EE990F772207C6EC52B39DC2F3C0754821DAB559F7C1809C7D0DD5B0499D0442E0A6E391B3D5DB46D11E731E6794EC77523FBDAA242ED67F9FA1FB684255671F63C9BCFE6E7E896D51001A6113EF2298BA494E0B0980D1FA5B9D60796554C02256B1E0345FB7C6186B6A19D2DCA270416262845
310
FA4F42DB5D9B0A0B6F07FCA2E56C242522E001E0CEB734AF310FC8BFB57E38E03AACE93B3326A2197891E68452B26A6307FDABFEE0223D3C03C3C73D2D5BC054C8311F12004CAE488E5C29287F8156A2CAA4AD0D7BE6B97264E4139F437CE73ADF52E5134C52B819777C18B323A5924E4F67AFD13B1CDC3A61793A79FAF5C0
310
CEB718E441071E797C6DCCB9EFCF7E4A1E9F3DF3C2F9C9E8294E9586868788C972857FB0556D7A26941A7EEB9B580AD78EC40B85DC906B4120A563CA3B87797ED612D3B035962BB75F6515A393F4CB057F564CDF54F2E5A024514E6A1F901DB80C7E70B1FC05E356A7E72FABF4775B3E3FB8F70A2A8E7B6A94542BB3041579
310
78CCC999E707A29CC795E67A59CC546A5D47B368954CA7B6E75EC9E1F6FC73CE3B4F71F8CB1A6B15923D61EAAEB14626AAA9D04A26EB9C66CD1BE86CA31A5D8703DE04CD1EBCE4F5CCB62F93909AD11E55799A781A956ED27D3E738F4538CB04ADABC7DAEF20BC35BA6A90BCC1DC61BA05F20D8832FFB9BC9B15E2DB838A0A
310
FBB7E0C82A562127E0446894F427794C3037186F622BF24DE1B00AA10A23BFA47B2A180D6DA5AD6F7326FEB8C100C2D7142EB2A0B2A9D1008A09BA343D70E054AB69E2A7EDB783CBD92537FAF4A44D1296AC2792729104B3276C276C951D0CF3CF3F1E6B017720A7B8505A5FF9589365979678C36F1BAF759EAF57C60F1FF5
310
FE9DCF5F8E764FF25A2D06CF25117A8FED51884C13B2B750DB0E4F5E3D64124FCF11F0AD8F1CC3B3DA4B38ED22BF1CB2585EE6BFEBBA63FBFD44F9537B9B37BDD6B358720F98A8125AED4349CCFEB0E135F19E208A04CA7E2B10711185D72E381F448036EF57C9F874E54A971CA37A639E986AC0226DC5AA00D5B14FEA9192
310
234B3DE617814FC221C92F33F1D392F297731B567FD98FD91D989379AF567A65B8ADF177591DB90FBEA99BF4ED11B16E50A0AB1DBF1156D034BBE04D69D08F939D8E92BF525A1DDAFF80ECBC95D8F45D3FDD289FD23F7D8B452F8EBB34EC082DEEE68E18EDDF072060FAD2AB1504DD4879BF67099FC58F6E9DEFBF645D1633
310
4A3E9A127C6F1AF6132CF287E433B43A0EE93812B4AA0B194E03EE3FF91EF9C6ED0074A2F6EB18A96A7C9890B1FCDA1F2095E944DB911ED54C60DF16FB74C8CE9BDC7C54C4F14078CF73C2FFF1F1BBCCD7CF64F71407EA1683DBC410D226627F66E509060D5C0AFD611DE681D509DB8DD12FB1265B03C6F5C55FF4C30BD941
310
87FF692B4F152982502F193098A789526A038AB529A52BC0DC4FB6285CBAC10A8B8DB75DCD9BDABBB221E27D1F8DA9F5EE5926A1C8AA9BA9BC09239C6A7F12914EA3B59EFF7AAEC3FFCCE56F1C5C2980AD072793527565E774F4631DB178CEEC691B1F367BEA0CF2907E1D6B854D527065979DDEF002D8B2ACEA7CE21AE297
310
737EDE1D45B31233B73FEA35BCFDD0B09721FDBAF6432681F2FD10C3E9EFB246FD6E854B344ACC9D8A0EEF876A7314B49B6A499FC650B099D650DBFEC7638ADFD245E2B7839DA5AC5F7D5623FC0ECEEC8653FC9B2BDD1AD4D00A566FBA7186DD3C9CD26512551637498CADB950FEC71ADB9A5524285DE328B8EC7EC75D2345
310
AEC6A27C42AF6D9B92155315C80DBFCABBB7DA0FAE425C4FB896B15C9BFAC4FE67DF5A23D30C93DA4D8F36FB15D100050DA6062E22AEC5F4DAC4F6FEEF97AE05DE63C6D38F9E068A20BC5E3B6BCD75320C5090924E7F93640A7735B1A43451C2D91EE62C6238B797349E59890AF3A520DF4A87095F3ABEC2E61F0593416CE4
310
6CDCBE0E00E2523FCCD04408588B5B6C9DB6459C786CE378770B54F51DA3A5E1DF2A3349BEAAC234A6CF8993B598B3B25B4B113E353A4D750FA7534749430F3EBF2512E7EA3FD43C6AB9A1F765A58463B306721A15D224FAFE8C6F5E3432D57EE697DA0DD5A9D4866A8BCCAAA9DFF1F06047851408FEC060471D0E3EB86BFA
310
F46E4B5E60311DC3E3CEA147C75CF971BE74689507154FF2D2E92F15CDB2B9182B11459FD8ACAC5A85F174BC94A7F4EE4C4F5CAFA7C02E37BF0BC77B7DCD0C047BC316F562A01A441AFA7931CC84A28CB9F4AA367EB515778F29BFE61195FA671F4352E5E46E3A64773F1F76EE5EB36D7BCE9BCEAD837A4D77F8DB8C92AEEF
310
6711920D7C7D0F76B0FD0EB7AB83724CD35BCA7D36DDDF5FBB7FF6F04A91F3E2BB3B8F1A43CD659639507FF6331C5F697BCC782AE57D757A27D97F1AB9E0AEDB43F92F1B2AACDF5FEC8ADBAF9F814E2027003BA2F9E144B1938A7A04050AE5D953B82C45619165C813A10E76DD6906B3C16438064D14CDA713AEC420034613
310
E1AC7241904A49FBF87409AFB1FCB9B72FE7933A87D8FBEDACECE4EDCF6A4FE9FB94D5DEB74FAB7CFEAE17EE965DF980DCCA2D04134994F9A2E94D2265DA4FE6AA7B7AC15FACAC2B5ABBCD7DFF542C5314FDAB2E1B9D8B65220B8E2B638BE008E8DCA22678C820C5053664D15E89F2D735B51A84955E81A443545E9FF787BE
310
0FA700A76D136C27DA179A7C6E8939E01BE756E19CB292798063D8B97F44E8A27BCF3A614FEB8BE974A718E86F7EC99B53CA35FA24F61F2B07266684623A3D4CF073E511F3A10A8FDAFAF0078C577F4DF9D339FE7862E5FA47CF4344209E5BF76D783B1B48E152AD281B15FCB934DCDA49CEC5706B1EE8B460F435324A5CAD
310
154725E21AB8044B75A557A79F6C807B9340AA3D92503E866F4274412926C8C504E4D5EF8C0E68DD0B028781A6B4054F11CF18941F101C57CCC796773ABC8DED9CD91FE5788806C05E548895354AEAC96546D55B0E94A59F148D061F42AA398D822CDECA4CDE79E13469BDCC44FDC990F366BA5978C15F97ED80CBFD73B0CD
310
9B8B83A4F6845BDFBFAF034019473FB9A63BD55D3A4A7284757071574029A4D016DCCBE95DD679EF3C4880BF169422F8C89B68A988D2B13793CAED4F74DE7486C72DC94DF46B8E93D8E02EFCB1FF9B3BA10C8AE7F653DF94F4AF466CDDCEF5776687F7C4C14B63E4EED1719DC2EC482D7DBCC7AE518CDE3D5FF86D39000EC3
310
673C0044E1D308BF05F74D1B5F033A7D1BE7F74BC55BBE3E4A20F920946CA0271EB17BD2B80E5660ACB8A29A79F5E4BBA49D4D945B6EEF4A7EFEAA65E5555BBB57A7E15D2F83C69F30BBB978D2B39F1F26FC097424D39BB33CA3D87ABF64E307938B685BAD44F71556A30B7E712CA4FE600613C3E554B69ADE949A7CFE214D
310
F1FFF05CB82151EC6FC31950239F94CF7AD39DC473F6EA356E5EC2C4EFA04383CEFE985A127484366FBEE3C0EC4FEA363E4F6632AE781392FD45D67B63FB8DF70E82734F431FD3443172A0E30A83D60982D55FA6A2CF86DBA8382502ACC6CDEF3B907982EED1160E14863FA242F9757347E1544275CCDCF71ECD5F8621CBEA
310
326B8BA884AD7F825781923E66971F04010D574C541D8427A438A37EEF8AF88240EED7362C953F5A81DE2D56109CDE2524EA0F5D2F87308C0C47BD97AD605878AB8589E17CA83930CB5E0DCCD75853D68B1AB136594926DE426C367428E9334AFAFF90ECE221BB5DC9E5BB53D2CDEF954EAA9CD814F0E5725F1965DD458E5F
310
8487683AD86B9D0076BE3EE91EB1CECC5331A67A3F79D8B27587C12EC2A6A70474749F27B4C0BBAFB94B34189E88DC18964BE4121B9137FD516C7755356E50D6714E31ACD222621EBBCD1CFF81D87479056A9DA0E0B8EA19D24CF937DA89F78E8650CCBDC110AAB6C4E46DCBFD0446BA9E2060E81F314AC2031E88135E5476
310
AC0160EF5C0DD2EEF1B8B5CB2D198BE9A554A9093B5F7D7E4B5407DDFCA1D9C152FD97F55BFFFDFE802954DFEC8995B983E28AC92F1971E28F531DC407A1280EB125F64A72E617EFB27DFBCEDCDA2D6F2BDADA36873EE46B9BE1782998C63DA7182BC383FB6FD15DA472B175D7E8B4FC88F38D6E07FEAA3FA3CBB8F6B449EC
310
F14D2175E5C5CCA3A42ABF24CA6C9395AF74535F4DDB38CB84F56614B0FD32D7E19CA5CF988DB4449C40E23DF2B16772594554579094450F56F253CD25EA7F77366FB1CFE79696C428BB64D5A41E986189427E5E4D7E2DAE3D5BB4972B3DC44EAABDDDD63A2264ECFA5C786EB0EE1FDC5BE34FA0F08376869FD1E61EA06CAE
310
15191135445EE8F0394161C3266A596AA035572BB0C8876180D8B9C77D307DF9DCDF7365ABDA6F3A2366436457A4DFC1F259666569A9E4A79C817BDD5610E5200FCE894A358EC72858D50EF67545DA81C6FACE3D457BAF70367E1E6BDD9A952FB4F56247F58F523B97E640246051A72F79BE42FFA0B3187F63097F91C48B86
310
8586F714B0EBD5A00A8412C1236E1298F60C72BE6C96B82B404CADAA304AE9F303176B14BA53FBC2D5E86377E35542019E24D97B96A49B2C0E5006E7795954DEAF5DA58958839043C6C70BD3B1B33B6DC5C31316D8A6923F142E26F6711A2258AF977DDF1F970ECC4F1F2B434B96D81BEB6E89BF3BBB3C7C8CC80505070723
310
D6D7D7D3C8CA27CA164A26024FED94B12A86031867241DA53D929636DA600F050BC40CE48B8BA03D69224720DEE2ED2127390BDF5E6EA64527BBD4C4C63FA76BB801FEEC0E61218EC98A8A86CD8313781617877E66692839B9468CF4DB8E50A73986E558E309C0D6F676F921BE02F1185454DC75B111572FF9D27D85EA14C0
310
5AD7271225B391C4275659CA4A43759D0BA44639BE4C30A84DB7F67A41399FB95CBF923B1B1672ABC807C1590557FB18D811983FA97F5E609516D62281D38B1281F68FC75528C35E4CD7DF0F7DBB5E5DD69C414EBEA2F4A5B241B996BA77AE6C772E367408C633EA3E438B68563EA8BE7667F3A4C4FDEEA52ABD78A2820F44
310
3B7914A15F180018D231E64519C56A12F6CA7C8DAE18F06F6B769DBF92329EF6A5D18FBCE600F36BD8E8198DE5CDAA96181F3A756EBA5501CEE58F497EA4F418A2B82565B9BCC611713C0B708CCA1F398B78C5F7D03B3437CC18F13061F55C7BEDADD5ACB1DB0E36D3CE47FF6EA1A563A57E9649EA5D14D1A50EAA45746338
310
1C073777EF1600607BAF6428A7DDC079D47A204EF1E1F1F0589FB054D45E02CE623B3823C317C601E589E22B1E88B448524B86A82828E32345EC18AE17214B42F8C41C6D428016D9BA31DDCB47572561E5A402E5BA4FCE55F78AF7268524AA04130F3A20BA5D1E9F9948EA48FC8F5314FDB35E21898198060034ACE5E3E2BB
310
CA34092518F275190AF65F45867FF0900AA4B81F25427414C372BF51DC29AA855C5428EE1EEDD6B849AD60F6E73475C2D2523F8A2772C840A478DED18A8C5C91B085F255DC4F54EA7AA8947354FD17ECF8FB3B4A0DE7B483CAF3A1165EE05BBA413E5C1FEF3DE1D6B8F2F3F3251C17D9FCAB48A9AAF63AC773A0E413BBC46A
310
9ADF84A566FC920E4D8C52C9769EE3301CADEEEDD92B312E02E2A7E35B7F1E7D203FE5A7D75578B06E99D0E46FFADB8FDA17ED8880390DA29094202D6F645F76F6F96409CDA05495A96E84B04A00D1A6C6C81D7F3DE9376E828CCF144EE50E364ACCE7237EA0BFB5607ED1AC3CFE73794E5B61739D14DF1743441B1AC98F00
310
ECEDE9E7301FA29755FBEFA68C91EF2B314CF510537EF1ABFC9A762496280B546F5EDAAF8A5B387D469FC9A878A92828C88608453ACEC6094DCA54111E7AD5B2663DFE2DD151B7F123B9F4FEF8EE36AB125FD7AD52A59B1B765B3E3F73E3F73DEA93875004D2AFFE3CDE9493B87A9904DD052028949041A91DC0E1BA47BA71
310
4343FD5B25E0A6A09503AFC17C790058A836A324FE31D7893512E28230332F153181C1E018E1124EBE1BA262AA428A518237D1EA7275E48C5C561BD19ED6912EDD8367DA0F31E40EEAE9683DA9257525AEA7B632B97119E17145A90231768A4F3B9120FF32E8319B015E3CBE26F1A754177D8185345817C096B0CE443A955D
310
13AC15E1FB5DEEA0239EC32A3C92241A237B0B02FFCB4F93CF2B02570C8D192E2F2A68CEEB42F12E6F8CEEFF46C251E22B4341C56FB08CCE550E7A9D6F4D6564B9EA52A83D5BF2C6E03FA19D2775E15A8A7ACF30A13C259EE7F5EF2AC3BA354F1500E1A07FC63FB4686E2F12EC69719F9ECF5FE3F35598DF2CE944008CE78F
310
0911BA5BE5D0A34E0098FF038669C26030BA9B300303039852A8F6F496341737CA7E0D2E3AAA36DE0A70AA7D9CA0D54D9AD84B18A44C9E625475E1C97B93BEBB38DCE7D227E67A2D00F531436136355F243D1FC0D712C5765754FA22FCFFAE97919161F46D6E61ACB37D83777B385889770B50765B127768443A5C4D3A4E35
310
A3151111F146B7CA116F918A049F1C272F2CD7976C69A0068773451659A97E0F4A08FE604C3FF6CE7385DB19F4D3ABC8A0D80DA8A42096AC377DB49382B36E270B6FA7570188B4B7D1DDDDA82ACA487CCA5D38BD3BD039ADBAFA4ACFF27809239B722081E2EB9F145320553D183F28471C388BC8814E5045676767AB58A8E7
310
2D1CED2CA731379515D2E533E4CF0B39DFC625F97AC4836831A4DE330E87A8126FA17EBE583D614E71E22A8DBF2825599743E0640037303E8E1B1E8EA4E1ABFA4F62907B5E4E0E5DCFDAB417C36C6848A2B8D15F1E505434C0707E16B1CFC2A1C36A42BBF55734F8F4301DDC2A5110CEE8C0747F69519265012A2174BF4E95
310
5ECD4FDE095A3ABC70536B7AD0B9D7892F81287D667C108703C9B66A221E9A0929D030008F77FF6F5D2108EF5706FC87A3069B976F7C9FC3239D13D283CDEA83597461079FEEE049B0F392889898B7D87D31F8D60ED7B56B91823A8E4EDDB36C6172ECEE42BD42B12CD67994FA0F0DFAE9389356F4CD4425A4B8AA55CBF7EC
310
D585C6A2C2316791E43D5C06841ADBB226A87FD61515FFBB0167B74E56BD7F3E90A57A97FEDCBDF483A0D6699A8C0849CAEB4947FAA90D8E332D9DEBD9F4738C37DA0CAF9CF3DAA68BCB67C420459C7A64498D6E848E5CADE92BB6901F607AA331104A67F7CD650EE169B1DAE94D2C31C2F993632259B6957E246EFE4C5481
310
107B07118607700040E5812A2A2A38DA0076875258C753F60E0F2662C748EDD5F3F3686B8FC3BD6FE631ECCAA1E8B1C1E565AD117E54893E79F4672E32F9E46B2A183DFDCF3EECB4D4D077DBEA0DA254D256045109670050129E9B9B1A9E4A11344D61497A992778095151510C4BB7EF2009B63AA4360635312E4CF668B7E0
310
D3D85A8688E2BD83B569439892ADB63461930D428E0DE42E4AC57CE48DA5CC1449530D8BD3D6A0F08DF20C8E8F570F2CFFFCEA286E30969B4654D498A58D9DA782E19FE3F002181838925592C4A1EF0B332D88B61A92C644547BED490D3A42CFFAB70E36D961F694F6307F72FF15A1C79D5B1B5CEFD353D9E2B52566DEC8F8
310
F09CB3E8359C0F68EBBB7898243E34E12A015B2685AB303C04D3A9E00671FF3DFF0A184E4A2ABEB2B666AF5B3A209C73D8EF29DCDB069C9F391EEE9DD0F74C7BCDE16F8F02E3B8816122BBEB50665775B600549D8BB33A54A6BF940C028118BC6878C79958D6784F9DEAA6E26748386FFAF8D0D0101E2847B6563F5D8DC1D7
310
8F787BE00E2C941AE12148D4A81599FE8F68D4DA5CDED75530ADE138240300EE13B0FC13A1687FED6774662C05A2B7DFB186732F0D7A93545D8B0A6390AE5054D9CB582DA846D7A061B3358B45E2B52DDE63E114397EDB7E09233A579155D795BE76102CF277F4DF8B188C4F2879BEAE3C08347124BF9ED23B128259FE107D
310
31E34A652F090B30B39E0D9AF917B76A2806135621A8A60681F16AF216514BBD02711585B5B1AE823F4B2D0369EA5B6BCB863072727FFC871CA6C9AB79A814D989057E9470A3D238BC87CBB4A0EA49AFE2B86F22E499793CAA9047080450166BDC357524561E258C77CB697F1ABB32562CF87C3B7AA12F911EF19FB3E5C022
310
22E887D08202A60A17151F5E053A86B437771088B4FEE14D652C43E8D939995D34545E12E2FF93D4E366EAD25F10CB7DED141563C3D0C447AF06078A91135FD4B9611583CB4BF3BD167F2399CEAB0E0100F8FFC305F00F1711717173138B4B48C83022295DE657EFEDD97F238ECA80F528AFB4F8D67AD4E2594B9A3AA86D74
310
87EFC313BA95745C186F0CDD84CC12DC9CB0424B42203D351FD9C0A3AF10CC7F388E0329279087386421F194F4A29464C1DEF7EF8BE515E4A199DCD5B909342598D8FE6A231F71336248D5CEC5454455C7BE383B3BC7B260FED27F703FDC39A170F3827239102F59D4DEE7FEF82EAA1A5E4BA94DCC4CC44E7E2EDE20F24244
310
E4454369D2E87C3F823F193FD4FD27E1C23984B01898D15ABC20711A8A558054951A6AE280096BA36CBA439603B7B0B4C45F248C14B2383B4B5CD8ECECE4FF859AD4A6CA2326D020EF090F4041D28DB66E5256B56232CC52829DE8060BAE6BBF37D4B7469B822454FE93210A3E8D15E69FFCF01123222611C51C4FD0A041A0
310
CFA2471CF6BE38D2B20FA4C3525B5B8B586759475CF80ADFE67A284AC24651E52B8E683D24C2622642F27E7C3C22783BCF63648BC398BD6CD0D9C97E7E7E3EACB6126DB7A6C1FD9F1031302EE67ED96F22B77C7CA0239BB324207559B105E4693EB26EC46182A92C9C0DBD24F29B31C5C5AC1F84300E0E17CEEAC15F5736FA
310
4A98971E2F1423BFCD68D4BBD5F86E74B40A369F39507C88FCDB35D2DD8DEBEA4AF999E23CF2816D204200DF6E611781B9884C1AC8888B4DE397320472959434323A5A36B22A8E1F721A270DF3BD65E4A31C11FF048AFB0D8B7B6881423793963A23CFCE935FC189ED36FAE35C46DA3574C979E4394BE52084F3081837BE03
310
3396D2EBD80F1F691B273F660D2B32FA27A33B1DE4ADA5F0FA4651511102DFA410DDA86E065272CA314D5249DF91B06BB92807B28EFD54F08F7B525252782CD276DD02E6B0319B13DF87B1F6361AD6B28FC0D711CF445429B9E5A433CD493051C49A9E03DDB1B147D880253514A5DED88009018620EE229101C041950E2D8A
310
A8E1F5F5438E0C0C0C60EEDEE9E3E0C051948C69F84BB7B2A48A1F3C8EB9E6864687F4F4F6F6E2FA87608ADAF9C5E117B7C1A737E710769DA1D15ECE6A84502AA855398712D5FB51BE92E4EF824969CE18278798AC303C2C7980DD2500ADF8FB1E6D6C2FAAFF9987178923334A244758BAA01A9A1B70FA5097D01E1CC2A58D
310
AD0EC94CE6430AA9B0C10D75E3C6BAC670EFBADEE1607739CE0FC18A2587E3EC3058562014C64219C69BC269082D5C2F4A659278D585755912176D78A1B641719C2A394CED495A1AC5D583FD2F5EDD93308EA7EAE8A6DD396598BDBD3D4CFED62D18A5BDFDE0DD5C80D1A89BA62697B131AE7CE9A6594138582F1B37D68F17
310
49AC7CB67A70695D48A4A056AC1FBD4E82358CEAE38F54B95A9016F9000F9879C0D9D131768635CA798895F27D6F1614F11F2838A83611AA51C9A3DDB539D42979C29F10465655C17BEC3E2760B80DCBF609198C7B171A531905F3EC218D696025975E986C6B4C666666787271F202805577DD5A3EF0CAFAF91B62DC4B2DB4
310
217A7606282F31D8DDBC290593BAA93EA6353AFA9939B877978481E15CFC9F2755CDC00C538F63A4BA3E80AE009B73CA0185687D339A507D165B74290D6EE46D5C58148F020C3668ABE9EF2F7549170DC80DB41FFC1D678FF19AEB10C7133832B104B80F691B3138F97A92D26E551F1F110400D45AC71A9B9AC41A1A1B1DAE
310
ED0B0810638EFFB511D46B121C6FEA0F38CD00E03CFFEB9713FE1F9C263E4DDEC160D0497FA9A132BA608584057FB15380825DE6C7FC3C667EE947D488A09898D8E939C4953BF4EC9836344D2CC6B2971B2A21A572B06096F4982D2CC7232D46E8EA69DC83722E267754D777F97F96D5DA74E1E75178084D0E70F12AD33E5F
310
71EF2AFA599B2BEBF60A5BE475F444F240CBFE8143C334E7ED9150FEEFEF7EB020C4DBED388DD1D6A167A76F3CBF119B578AE8CFA7736ACAFA4440A1C47185638A0D2F3EB5BDDEFDA958FB13CE4AA4923D5BF840392D45544329525749734866684BF7F8D9D54D892E19BCA9F829A0F8BFCBEEA6CFDFC61D74EA1A645ED7A1
310
FF241739F15694BD835B66FEC5677E40FE69BD3F91AE402F036537218A401CB0828604AD189E575015C6F3F6BBC8AC79CF6C70653847254B31551EFCBEB5978B9DB85D58D0FA41A9DFE9C624834AA04949D24B5AE6D299E072D152D12097920F14AA92C31C3B97E28B6C2E6E9C23D63043ECBBC0A60FDF5BD0C33C127EA8A3
310
308B8B6AFFEB28B4455BF6E7AF4FC6222728357EB8E46E85053E6A8843AB23295BF838ABDA94658FEF3F832F147046B4ACD6F7D48E8FCC9618582961C898D1C7A253C91BFECBDA6BA18A1FCF70755DCCEE2222F41B76D23CA98D0CB3D95F0CF66D57FFF65E2A90F5DF40FC3187621E981BD0BC1D992787212688976B94A8F0
310
C6EF646624B570B78E068826F87CE27041A95C9A4871FF65CC17FCB1639629AD6A9517000D63AC231F3D741CB8430777E7ECF80CE7A3F73C0F162F7E56AA71F4DA80A33CD6ACEE78E2C11FAC03DAFCE929B106F8F6B3ED2DC71FF994BD9CEF4E9A94896EF1B6E2B7B4978168BCF0847A3D2A4F1B0500B926E634B174548E9F
310
BAD27153FB5FC36799B1E6C7C38A94E1F9E996796D7B485E635D5287A2AE76FBD11A341DB3F8F810385BB7296391973DC6C37C452A9305AEBBE0CDB6C566DB59FE60C8E94B1FD090354BF51439FFD1B48D725228FFA88C84F686F547107A7A235665A4593B7C34D748C1AC8D56DD5DA861EEFBADDECBBD65117E65851F9035
310
1AEB65F0EFCFF4BCFEF24CB7A5879699FAC437A7AF9099186CF006BB923A59E37D7A36A29FD8D2CBB914A5E9D0A8FD212FBF796AE9A67958FF1D5D8B85F78F96219D4714EB919929241B6C018AAE0C02069F8D919961EC5DDFBFB7573E3AC8E08BFB7C8534BE6DE045B3CD63DBD71F7638BA2309CAE398EA3A7D8F98BBBC7A
310
EB367EFA5CFA27A9F8F2F52FE878058E6209C026453F8E7E8A237DFC389E9590F6059B397CFD65183BBF936E86896612A5B5FEE49DAC8455D026218AFEBEC12B3523A45B57B82C9C97E02ACFA1184DB18E48CF615DBF39C3CC6F0B4AE6BBEEA2E39D944E290302FA3DE33FA7E40296E2EF7BF1CD855BBECFAD0FD622BEE974
310
6FC4FDFDE545AE6E3BC234CADF83A0FB76DFB145BF3828AE3436368AC24989454F8FF70A177672C711CAA1A76107218CF948CA01F873520E7A2B118EBB161ABAD432932029628B6761590C98AB590C8C8C79798CE9F715BA696E839E9131A4BB68BE923F1747FBFF165331FFDD4D05997ACD168F12CA75348DAC04C7F509FE
310
83898A8B421181AF492861CE81E4A2DD0A30850CFA95E05F097FF70F9E777310D584A75BA7018922E271DAB1D785671157685B7D383D3E074DDB4F1E44EF04B07BAAC75A062077C54B9752C738C9D804D402E02851F3F89605AF189738C18C021D2139EAF72513824E10DDD3047BACC8521ED7E98B257D1166903B1B08FA6F
310
918FD7E162913FEC7D0EF4787E29C35FBA8C6E2C9C20E9AB30AE42CA2A01A090E7D010C1B5BF9CEE2A304BF3A987FB40D836979B79E18D70F257DA61E808472DD85B82761825779D6B90CAEB0F23360C6F80A7D7D77545E95B3DFF0CF96A827F9B5BCECD2C9698718417EF80FEEDEE938AFF55859D0D540B7FE09435583A6F
310
04874A0C7E8CF234DF4879722000167F5872CEC6BF3EF7E5A8CC8121E6A359227C8A29C95212F9F735BC72A887D56B8F309FC525BFB4FD767AAEC4AEFF249CFBBD2DE1AB9969A6155C7D8DABC307E47324C1F916C7BCFF40ABA5644E9FFB9238D19ADADA49D9610F01ABBA57E4DFCBDCCBB2B93C8953206C91DE01B0E2651A
310
6D6C31721915B31F7B7CBCE55466F6D70402788FA91D73BE4ADCBA99A35F17D6B83383704917D6833F0FA3CD45C926ADB8BC17999A4A0AFBCE2541F7B8CF4C2F5FBA611B3E626D64407CB32C122DFF4EF8674D6EDBB86C8F7C6A16D50FA685E2CCA34F8F7D1D8265BB0042E9D7F1F666F7BE5FAA5184DF58E12122A42EF02F
310
461B3F369AC746F96528AD208512AB56844CF75B97F352DF7995024FB02855385854F3798670D01CAC771AC3E1889EC25F61A20C1F8CAB46898817F9C47E2CDA1F286BF2F358298709FE567C91133E2638C8B53975E753EA8BFD3578B5F7186B7BF084EBA3F77BAC3132A5779902EC22AF2D2E79F42D324E083386DAEE9810
310
D1B44A5DAA54513C7A71E52A4AB9257D975B621308FE4D2141CC3DCFE946C154A3C1DFCCA7629EC69ACFA831634ADDA93C0388D2A9A2DDAFCF957C6995BCE7FBB6DC4EBAE79E63EB08E9A25F52F67076F7093CA545CA3053B5BF576DEAD4E0017143C5F759F32B2D6F145B52B67B48909B7C7FCA6586EE385A2189C16932CB
310
6DDFD9152AE317C430492A578ED27B72D85D40C7C93C097939E1B50F4D67F05334FE9DC362C30B7FF561B95259138ECFD9274C8D695C31B14D4EAA9F3D7FA8DDF652F8C5DEFA23284C799B7D94416DEE81E05A866302DC70192A5368EA65E1CED8BF107A1E2D3119A71E85DC1A7B0C1E93274CE04DD0F2ABC8AC7C987FDB00
310
2B6F81757B43502EF7A0D92E416494FAEEA4C9C090CD9557AA4D532F4996A272B94355C5A0E4974EEA9627476F30809B94D8D8D860062E02204643BEC7D0438AF800FC7E2B26955D595421E83C69E1A07E0E3122285835F014AD538188CF9737CE76D464A353FA55A001AB2526B84E985083693BC76FE211CA1D000679C889
310
E3C009832C87E1AC2EDD05C302557422DF0800E316FCAC86978A371F025A6C7DAA9F333E7BD160403A1A06EA75AA9888FF01504B0304140006080800724B674C51464CB48900000043010000360000006662782F45364438414241462D453246322D344136462D423632382D3132323238394235393542422F646972656374
310
6F72792E786D6C9D8F310EC2300C45AF127987122606C71DD918B841D4B851A43646695A717C52A85029031293A5A76FBF6FACEF7DA7264E43906840EF0FA03836E242F406C6DCEE4EA06AC22492573150D1F66C60C640E8938CB705396EEDD86DE9B5042FE27813D640EA63BB001C722AF6E55CB61E4863F58284D5D3F53D
310
D715CE1C3985E63FD7F1B7EBDD617E9F1E504B0304140006080800724B674C371459203D070000541C0000340000006662782F45364438414241462D453246322D344136462D423632382D3132323238394235393542422F6F626A656374732E786D6CDD595B6FDA4814FE2B23EFCBEE83AF180215A1029254A84A5B1575B5
310
6FD66006321BDF34B613B2BF7ECFDC8CED1870BAAD546D220567983973CE77EEC7D3F78738424F84E5344DAE0DD7720C449230DDD2647F6D94C5CE1C1BE8FD0C4D599A16B57D064A704CAE0DBE6CCCA67B9696995ADA921D2EA3F6EADDE22F94872421060A239CE7D7461E3E90185BB82CD22DC91FAD2D2EB0B5DF1D2CD792
310
1B9B64F70C670FADAB32CC485200ABB09E0015C581DBFC1744B267539B6F686CF3FA6D1B9CD9660BC19B8CD2242F7012BEE2AA45C7EBC7D5C0F56F6EBDE1C41CFAFEC0F4479E6B2EEE1637A67B357096A3E57232BF9D186836DDA46954292023C916B4F862CCDCA9CDBFA9C4572874F11DA64942428566D7862D517429C9DB
310
983480758568358548596B0B839EC29FD8D60B94064B0DB4B570FAB36EBDE9E66F0021EF63A52C27DCCAF38281AE15F6D21F9CA92D571B7AA1398A714118C5118AE88661060A82AD52410D32DC5B3829C431135AD4F4EABC82615FF6A52E2E77651471FF3566C2D302F04752E48233FA0F6147EEEBB7014F206D499362AC84
310
2D5E32203199DA62517E37F0D4971248B48BF01EAC05C4E49B065E0BAF258F05AB1B63F6F16E7358F3F8D07D79C6D28CB0825B9E7066E5775A8335D302E3EB018AC4B5A9BB232A5F01FA4F807CC50B9A82E6183DF8075FCBCE7092EF5216837690834C07FE38883FBE7A9ADAD5E119428D58790A5370DB1F8469438CC6DD35
310
4867D32730FA940D9470EB104760D3F734E17E0E8682A2149620DEEF360763B682600A8B700A47203DFC4E6DFE88E043D28178D3D25057F8EDA128ED306D3F3BEAEA03D80CA361A5AA868CA7F01DFE107CE737EB8FEB92ED7048EE9563DF901D4D6801C9B49BA106E80D97FFB6FA243CF2953C8D5D21DCB34F79E0E8D0CB5A
310
E90509C5002B3C0F4BD588957B0AEE1E4538216999ABF5AE4015A651CA82CD4B207DB8F3AE3FB511C8CBC0BFB905740633C8EE21A31907C59829F1AA48681D71E2715019E05E2A35D8E0F091C31B8410B1BE870FB05ACCDA44CB380B709C96090FDFAFCDBB2D9A3570C48FEB4E3C67E28D27C3A13278E05D5CA0FD4707878A
310
7D7E538CB313D72C1BFA52714303293DC98778D9254308555359046986435A745B434B8C9E2C6FE96E57E610D63B8169716C0DDCA1C446FFF53CE4BC61B562EABCB48AA980C6784F821DE639B193BF06A01571ADA44E24F7519AE73421B9A8695EC5BA168A8E05A1435ABAA6DA61B6340F6252E0EFB15891245B06CBC82E0A
310
A0FA2A78FD7BD95E35832ADF9EA2C86BBD340984FC2F418EE32C9275DD250C5CAF754327AE9C697EC513D867808BC0D91251A65FA25E45128D6F2FEA93EF267F021E867F3A3CFA0A0AC53A64D5CB9A75ADA13BE13F630843A3A13B185D55AAB88496BEACE0754B5442A515BE04CF84EE1FFA0541ADF2B3F7E424DA05348ACA
310
389039A42031946DB828592F8F1D4134695FA42243CB256A37ED68044575EF302BEA155DB1C065A2603915666BD780503481BEAE9720AFA4E83462A10BD1C3F256EDB2FEDF4EF53F47CC7A6FF3485E9E53B6EDE4B4597AE8AA4D17193C60AA9C58A957509E4DEBEE178B66E7320EBE26A2229CEC2C948530F244F93043744D
310
9D3D47FE8C8B1042E95A7C9A0BF0882DD91EEB900639351A316670A9A6A66BDB7A7704E18E279046B1B6E22135860905E691F69E3F445F31A81AAAC5DC5695902DD7573CB559308C39F27186D6E70FEB161558E97DFA0BC7883CB728A8D5252FFECE90FAB63AD6B82D0A4AA26FAB33C78B8732DE2498F2DCC8CD026FB377EF
310
45FF796D437361DF8E6EC6F3C5FCCEBCF5EE3CD39F8FEECCC5C81B9BAEE741E5B5184E868B85CD489E962C24B9EDD94EA0ABAD2CD96BC390D0F5E942601271B95DD4F6DC56F0FFB80B89D20D3E658BBF6A1352157CBC246BF962DF26A433506FDED631B8AF027577127B53AD2DE70BDAC0CFA72D08463ADFF72F2E34699DE1
310
BB79AE65C43726DE93FDCD4FCF318D80DE991F1A3BBA427E3316C3BCAA234BE98E588E4546B7C389EFBBE6F8CA999BBEEF4CCCC5ED68625E390BDF598CFCA13FB9AD1057B9B06F5EF92562A866B6367A8309729E461406F9648BF624851E0826153DE22B8B492E7A1B2800541AD76F117A9C7E9273D8026F227D3A7CC030CC
310
8E54462E4318A442DF716DA875F41B8C4EF9F4520CB4AC47483CCADA0D54327A6D80091414F28BB581119818380AEAAD1127A80D277BDE35C953D5FFC7631C1DB095A35CD59E3EB828C91AD609E3844CBC5B8068A70B92EF175DB38370018F9BB2A884392E1CA55120E89708523898143E2A780F1078CECBE55A624F03925E
310
D3FCB37620A99A05667B3192AFE13DBFF962F369FAEA33CAA272CFD5792EDF372899BCCE884A39B89A8261283133CC3BF1E53BFB0B4BE1B5548CEE281801FAFD301EFD612FD3384E13B964CFD5CB2DB47E8057555B5B8F09A17071DCB12DEA1EF52A00665D39B1F0367F8405502DA37C9E2A216E1840159E6A06A035C27501
310
C71AFB57374825815A095B2F5D393CE23D000247E2EF7FB8DBD437D48696E00BC0959CED560F7A616A33189CCFFE05504B0304140006080800724B674C16503E5FE2000000550100003C0000006662782F45364438414241462D453246322D344136462D423632382D3132323238394235393542422F7265736F7572636573
310
2F322F636E782E786D6C4D90DD6A032110855F45845EAEBA1B68D2E09A97E8556F82752756A2CEE24F69DFBE9A5AE8D50CE77C0C678EBC7C054F3E21658771A53313944034B8B968575ACB6D3A5172513221967F18255107586997A9923661DD87B4C14D57DF55EFE27D88E26A214272E6BA474B89F13AE79566F30141335D
310
0B6E90EF6CD345B39925C858938176A2B800E38449A00B6C542D623E4DE23089E3AB78392FC7F3E1F94DF24E2AF98EE807EF628184FBD3220CB635B64442F20E2859931B547FA3197FF1588B2779B395CC25B50E0656BEF786B9A02DF007F2EB2AC9FB936D3C1A68B317A27E00504B0304140006080800724B674CFF15A4A4
310
5D000000800000003A0000006662782F45364438414241462D453246322D344136462D423632382D3132323238394235393542422F7265736F75726365732F636E782E786D6C4D8B3B0E80201005AF42B6F75B59F0390B113044D83508C6E30BC6C26AF226F3B8BA6360974DA7271430F523308B2B198F9B80925DB7005392
310
27A2FCCB80A18E5640D320F996A81C9F32D6E9129A0D1EF74FCE750E6D57BC7165FBCA07504B0304140006080800724B674C0E9E09D84301000056050000300000006662782F45364438414241462D453246322D344136462D423632382D3132323238394235393542422F636E782E786D6CCD94C14E032110865F6543E271
310
59B64D6C352C4D3CF8041E8C37969DAE581636306BECDB0B95B61AD3E8A1497B23C347F2FF333FC3571F8329DEC107ED6C436ACA480156B94EDBBE2113AECB252956827BE7F01B460A2B0768482A13C17BEFA631973A58CBC9A4AAD176938B12D1EB764208A4504686D090A05E6190544EE83A081BDA4994B4A61E829BBC82
310
F81EF500F9BDF220113A2266AC5E966C5EB2C513BBBB9F2DEEE7B72FBC4AA4E0AD7326F3DA227837DECC9872F168A31CC6AB04083E799DA9E48188A336DA6ACBAB782F78887A6D9F39DC8E891B47A395C4D8A8CA29042C230472E0D5172C78951CFFF0FDF8F07CD4104F9DF6A0D0F9EDC5DA509F6AC3411A8D89F85F1776E0
310
5FE65DFB162D5F6EEE270D676167B3BB4F6E88D1FD9D849827697B738D1FE020EDFCF98F8B05B5BA46D37B6567F25CED56601C7CDA88E213504B0304140006080800724B674CF3261B137E000000A30000000B0000006662782F636E782E786D6C4D8CD10AC22018465F45FE7BABFD3471A00EA5F91EA3B9216D1A36A3C74F
310
63175D7D70F8CE11FD675BC9DBA5978F414273BA0071E11E271F1609799F2907D22B9162DCFF6E40C2B839091583124B8AF979A0C9CD635E2B5D7D781C706037AE8DB674408BF4AA99A58621A70D22F2CEB45D6B4C31CE5529F3EB95AD79F505504B0304140006080800724B674CA6D797065F000000820000000700000063
310
6E782E786D6C4DCB3B0E80201045D1AD90E9FD7516806B51190811670C8A61F982B1B0BAC9C97B72CA7B1037C6D3332918DA1E04D2CAC69353902EDB8C20262D23F3F59B81A079470595414B17391D1F19B4730A5583A7ED43BBE4025D9592775E5ADFFA01504B0304140006080800724B674CECFD112DA800000026010000
310
130000005B436F6E74656E745F54797065735D2E786D6C7D4F4B0EC22010BD0A61DF525D18634ABB506FE00510A79458060253536F2FD89D5197F3FED3F68B9BD80362B21E25DFD40D6780DADF2C1AC9671AAA3D677DD75E9E0112CB5A4C928F44E12044D22338956A1F003333F8E814E5331A1194BE2B0362DB343BA13D12
310
2055543278D79E6050F344ECBC6478EDCD76CE8EABAE5449AE4298AC56946789C28AAFBEABC53F3EAF09A84A1441B91F0101CD4780756578C173A578FFDDBD00504B0304140006080800724B674C3DEE336E64000000790000001B0000006175746F6465736B2D64657369676E2D7061636B6167652E786D6C35CBC10E8320
310
0C00D05F21DCA56CA76D41FC96062B120735B69A7DBE268BB7777961F8D5AF396893C2ADB70FE7ADA196782C2DF776D7A97B5933C430F15651E5469C55D70F80A4992A3ADC954792C525AE70A1E4D6AD9816CC044FEFDF01FE3FDE907802504B0304140006080800724B674C182084BDF30000008E0100003D000000666278
310
2F45364438414241462D453246322D344136462D423632382D3132323238394235393542422F7265736F75726365732F322F636F72652E786D6C8550CB6EC32010FC156BEFF819623BC24475547F414FBD21200E4A0C168F2A9F5F885DA93DF5B4ABD999D9DD21E7E7F2C8BEA475CAE801AABC844C6A6E84D2F300C15F5107
310
D999126B8CFF45834CB3450E9060A064B626AC3BC48DF65227541B21779039273D64FC119B011CBFC985E52CF8C870F77C65FCCE669957F9C6A324042576A912D14D5D95B440A709D7131E477498DEDFD0015F26D4638C11C65DDB37633FD6C79614494C8957CBCF766E25F35200ADCBAA436583CAF6A3EC4F757B6A8E9FA4
310
484C4A9CB7F1E77D69FA2ED249B1A17FDCC22AFE770B4AFBA6DEDD3685035AC5E35E034A8A944E2CAFE8624D49D26F504B0304140006080800724B674CE0D28B1FF9000000960100003B0000006662782F45364438414241462D453246322D344136462D423632382D3132323238394235393542422F7265736F7572636573
310
2F636F72652E786D6C8550496EC3300CFC8AC1BBBC46711CC80AEAA27E414FBD0932E3088925434BD1E7578A5DA03DF54462383324875DBE9647F689D629A37BA8F21232D4D24C4ACF3D047F2527C82E9C5963FC2F1A645A2CD8438281B3D99AB0EE9034DAA34EA83613EEA0700E3D64F2119B1E9CBCE12272117C64B87BBE
310
0A791733E655BEF1380B414DBB544DD14D5D155AE0E348EB910E03398C6F2FE4405F47D2514A09A5A7B66B866EA88F2D2B929833AF969FEDD2A2F03801AFCBEA44CA8694ED7BD99DEBF6DC1C3F5891989C396FE3CFFBD2F41D708BCE042BD1B1629BFE710DEBF4BF6B50DA37F5EEBA291CF02A1EF91C7056A494627946186B
310
4A947F03504B0304140006080800724B674CDE39918DF3000000B1010000310000006662782F45364438414241462D453246322D344136462D423632382D3132323238394235393542422F636F72652E786D6C8D50CB6EC32010FC156BEFF8811BC78E3091ADC65FD0536F0888831283C5A3EAE71762576A6F392D9A9D6166
310
879CBF9747F625AD5346F750E52564527323949E7B08FE8A5AC8CE945863FC1F1A649A2DB287040325B33561DD216EB4973AA1DA08B983CC39E921E38FF8E8C1F19B5C58CE828F0C77CF57C6EF6C9679956F3C4ABC5A7EA5DC4AE6A5008ACBAA45658DCAE347D99DF0F154379FA4484C4A425062B75222BAABAB9216E8A579
310
6F877198D0054F18BD0DCD84C606B7A8C218B7DD78E80EE3488A24A6C4791B6FDE3F49D7BD2ADF84FF328755BC9059695FE3DD705338A055CCF35C5052A402E378B61B672A9BFE00504B0304140006080800724B674CBE93B57F54010000DD0200000C0000006662782F636F72652E786D6C8D52DB8E832014FC15C33B5E4B
310
6D1BA45937EB17ECD3BE51A42EA9824130FDFC052F717DD84B4C90CC3967E6CC047C7D766D30723D08250B90843108B864AA16B2298035777802C19560AD94F9D60602493B5E000F03821BAD6CBF404C49C3A547A5AAF902D261E00604AC7597020CEC937734A4D6B88EE111F6943D68C3C3249CFB08B656D4CBA8A81D9BB8
310
0BAE01A92A9456A82CE1A17A7B8107F45AC13342082274CACF59792ED3638E233F4CB011DDAACE34A786D780A47172827106E3FC3D3E5FD2FC921D3F70E43B091E8C769E1751EF0E90FBED89A319DFF1D9BEFE9BCF0A69B274E19B27064012B7DE542038F2F9B8DF14DE3E4327ECF233F4D6AE161E0E1A39334A1F5CA55676
310
2B8DB4B5DC51C7C1F4E168AE3AE689E0279EF4179EDF395C5054366E356ADCF5668D57DFEFD4730D47F30CA4D21D6DB7E5E615B77313DA595AC7996A95FECFF46A750D33F20F937C01504B0304140006080800724B674C35EF64AC07010000B201000008000000636F72652E786D6C8D50CB6EC32010FC15B477FC0C711C61
310
A2BAAABFA0A7DE281017C506CBE0A8FDFB424CA5F6D6D3A299D99D61E8E5739ED05DAD4E5BD3419915809411566A3376B0F92B3E01BA30BA5AEB7FC900193EAB0E220C8C8EABDD9604096BBC32113556AA0472E7940724A6F0E8C0890F35F38C6F3E28DC2D5BB8B8F1516565B6EB18F57AFE5915ABE25E496055519E7051E3
310
A2792DDA73D59CEBE31BCDA392D16DD332596919DCF555AB15D830906A207D8F0FC3CB133E90E701B784104CC8A969EBBEEDAB6343F3B8CCA8F36BF8733A12727AE4F83DFAD27CA7187DB7764A82104A226BA62F6005CD23F127F4B6C87F84D6C6D7553AB86F38606508F42082716C308C47BD61C6B6D937504B0102140014
310
0006080800724B674C0000000000000000000000003700000000000000000000000000000000006662782F45364438414241462D453246322D344136462D423632382D3132323238394235393542422F617474726962757465732E62696E504B01021400140006080800724B674C0000000000000000000000003500000000
310
000000000000000000550000006662782F45364438414241462D453246322D344136462D423632382D3132323238394235393542422F76657274696365732E62696E504B01021400140006080800724B674CF270F13306000000040000003600000000000000000000000000A80000006662782F45364438414241462D4532
310
46322D344136462D423632382D3132323238394235393542422F747269616E676C65732E62696E504B01021400140006080800724B674C88E57597CD3F0000904100004200000000000000000000000000020100006662782F45364438414241462D453246322D344136462D423632382D3132323238394235393542422F72
310
65736F75726365732F322F305F67656E657269632E706E67504B01021400140006080800724B674C51464CB4890000004301000036000000000000000000000000002F4100006662782F45364438414241462D453246322D344136462D423632382D3132323238394235393542422F6469726563746F72792E786D6C504B01
310
021400140006080800724B674C371459203D070000541C000034000000000000000000000000000C4200006662782F45364438414241462D453246322D344136462D423632382D3132323238394235393542422F6F626A656374732E786D6C504B01021400140006080800724B674C16503E5FE2000000550100003C000000
310
000000000000000000009B4900006662782F45364438414241462D453246322D344136462D423632382D3132323238394235393542422F7265736F75726365732F322F636E782E786D6C504B01021400140006080800724B674CFF15A4A45D000000800000003A00000000000000000000000000D74A00006662782F453644
310
38414241462D453246322D344136462D423632382D3132323238394235393542422F7265736F75726365732F636E782E786D6C504B01021400140006080800724B674C0E9E09D8430100005605000030000000000000000000000000008C4B00006662782F45364438414241462D453246322D344136462D423632382D3132
310
323238394235393542422F636E782E786D6C504B01021400140006080800724B674CF3261B137E000000A30000000B000000000000000000000000001D4D00006662782F636E782E786D6C504B01021400140006080800724B674CA6D797065F000000820000000700000000000000000000000000C44D0000636E782E786D
310
6C504B01021400140006080800724B674CECFD112DA8000000260100001300000000000000000000000000484E00005B436F6E74656E745F54797065735D2E786D6C504B01021400140006080800724B674C3DEE336E64000000790000001B00000000000000000000000000214F00006175746F6465736B2D64657369676E
310
2D7061636B6167652E786D6C504B01021400140006080800724B674C182084BDF30000008E0100003D00000000000000000000000000BE4F00006662782F45364438414241462D453246322D344136462D423632382D3132323238394235393542422F7265736F75726365732F322F636F72652E786D6C504B010214001400
310
06080800724B674CE0D28B1FF9000000960100003B000000000000000000000000000C5100006662782F45364438414241462D453246322D344136462D423632382D3132323238394235393542422F7265736F75726365732F636F72652E786D6C504B01021400140006080800724B674CDE39918DF3000000B10100003100
310
0000000000000000000000005E5200006662782F45364438414241462D453246322D344136462D423632382D3132323238394235393542422F636F72652E786D6C504B01021400140006080800724B674CBE93B57F54010000DD0200000C00000000000000000000000000A05300006662782F636F72652E786D6C504B0102
310
1400140006080800724B674C35EF64AC07010000B201000008000000000000000000000000001E550000636F72652E786D6C504B050600000000120012002D0600004B5600000000
  0
XRECORD
  5
13
102
{ACAD_REACTORS
330
E
102
}
330
E
100
AcDbXrecord
280
     1
270
     1
271
     1
  0
XRECORD
  5
14
102
{ACAD_REACTORS
330
E
102
}
330
E
100
AcDbXrecord
280
     1
270
     1
271
     1
  0
XRECORD
  5
15
102
{ACAD_REACTORS
330
E
102
}
330
E
100
AcDbXrecord
280
     1
270
     1
271
     1
  0
XRECORD
  5
16
102
{ACAD_REACTORS
330
E
102
}
330
E
100
AcDbXrecord
280
     1
270
     1
271
     1
  0
CELLSTYLEMAP
  5
372
102
{ACAD_REACTORS
330
4F
102
}
330
4F
100
AcDbCellStyleMap
 90
        3
300
CELLSTYLE
  1
TABLEFORMAT_BEGIN
 90
        5
170
     1
 91
        0
 92
    32768
 62
   257
 93
        1
300
CONTENTFORMAT
  1
CONTENTFORMAT_BEGIN
 90
        0
 91
        0
 92
      512
 93
        0
300

 40
0.0
140
1.0
 94
        5
 62
     0
340
23
144
6.0
309
CONTENTFORMAT_END
171
     1
301
MARGIN
  1
CELLMARGIN_BEGIN
 40
1.5
 40
1.5
 40
1.5
 40
1.5
 40
0.18
 40
0.18
309
CELLMARGIN_END
 94
        6
 95
        1
302
GRIDFORMAT
  1
GRIDFORMAT_BEGIN
 90
        0
 91
        1
 62
     0
 92
       -2
340
0
 93
        0
 40
1.125
309
GRIDFORMAT_END
 95
        2
302
GRIDFORMAT
  1
GRIDFORMAT_BEGIN
 90
        0
 91
        1
 62
     0
 92
       -2
340
0
 93
        0
 40
1.125
309
GRIDFORMAT_END
 95
        4
302
GRIDFORMAT
  1
GRIDFORMAT_BEGIN
 90
        0
 91
        1
 62
     0
 92
       -2
340
0
 93
        0
 40
1.125
309
GRIDFORMAT_END
 95
        8
302
GRIDFORMAT
  1
GRIDFORMAT_BEGIN
 90
        0
 91
        1
 62
     0
 92
       -2
340
0
 93
        0
 40
1.125
309
GRIDFORMAT_END
 95
       16
302
GRIDFORMAT
  1
GRIDFORMAT_BEGIN
 90
        0
 91
        1
 62
     0
 92
       -2
340
0
 93
        0
 40
1.125
309
GRIDFORMAT_END
 95
       32
302
GRIDFORMAT
  1
GRIDFORMAT_BEGIN
 90
        0
 91
        1
 62
     0
 92
       -2
340
0
 93
        0
 40
1.125
309
GRIDFORMAT_END
309
TABLEFORMAT_END
  1
CELLSTYLE_BEGIN
 90
        1
 91
        1
300
_TITLE
309
CELLSTYLE_END
300
CELLSTYLE
  1
TABLEFORMAT_BEGIN
 90
        5
170
     1
 91
        0
 92
        0
 62
   257
 93
        1
300
CONTENTFORMAT
  1
CONTENTFORMAT_BEGIN
 90
        0
 91
        0
 92
      512
 93
        0
300

 40
0.0
140
1.0
 94
        5
 62
     0
340
23
144
4.5
309
CONTENTFORMAT_END
171
     1
301
MARGIN
  1
CELLMARGIN_BEGIN
 40
1.5
 40
1.5
 40
1.5
 40
1.5
 40
0.18
 40
0.18
309
CELLMARGIN_END
 94
        6
 95
        1
302
GRIDFORMAT
  1
GRIDFORMAT_BEGIN
 90
        0
 91
        1
 62
     0
 92
       -2
340
0
 93
        0
 40
1.125
309
GRIDFORMAT_END
 95
        2
302
GRIDFORMAT
  1
GRIDFORMAT_BEGIN
 90
        0
 91
        1
 62
     0
 92
       -2
340
0
 93
        0
 40
1.125
309
GRIDFORMAT_END
 95
        4
302
GRIDFORMAT
  1
GRIDFORMAT_BEGIN
 90
        0
 91
        1
 62
     0
 92
       -2
340
0
 93
        0
 40
1.125
309
GRIDFORMAT_END
 95
        8
302
GRIDFORMAT
  1
GRIDFORMAT_BEGIN
 90
        0
 91
        1
 62
     0
 92
       -2
340
0
 93
        0
 40
1.125
309
GRIDFORMAT_END
 95
       16
302
GRIDFORMAT
  1
GRIDFORMAT_BEGIN
 90
        0
 91
        1
 62
     0
 92
       -2
340
0
 93
        0
 40
1.125
309
GRIDFORMAT_END
 95
       32
302
GRIDFORMAT
  1
GRIDFORMAT_BEGIN
 90
        0
 91
        1
 62
     0
 92
       -2
340
0
 93
        0
 40
1.125
309
GRIDFORMAT_END
309
TABLEFORMAT_END
  1
CELLSTYLE_BEGIN
 90
        2
 91
        1
300
_HEADER
309
CELLSTYLE_END
300
CELLSTYLE
  1
TABLEFORMAT_BEGIN
 90
        5
170
     1
 91
        0
 92
        0
 62
   257
 93
        1
300
CONTENTFORMAT
  1
CONTENTFORMAT_BEGIN
 90
        0
 91
        0
 92
      512
 93
        0
300

 40
0.0
140
1.0
 94
        2
 62
     0
340
23
144
4.5
309
CONTENTFORMAT_END
171
     1
301
MARGIN
  1
CELLMARGIN_BEGIN
 40
1.5
 40
1.5
 40
1.5
 40
1.5
 40
0.18
 40
0.18
309
CELLMARGIN_END
 94
        6
 95
        1
302
GRIDFORMAT
  1
GRIDFORMAT_BEGIN
 90
        0
 91
        1
 62
     0
 92
       -2
340
0
 93
        0
 40
1.125
309
GRIDFORMAT_END
 95
        2
302
GRIDFORMAT
  1
GRIDFORMAT_BEGIN
 90
        0
 91
        1
 62
     0
 92
       -2
340
0
 93
        0
 40
1.125
309
GRIDFORMAT_END
 95
        4
302
GRIDFORMAT
  1
GRIDFORMAT_BEGIN
 90
        0
 91
        1
 62
     0
 92
       -2
340
0
 93
        0
 40
1.125
309
GRIDFORMAT_END
 95
        8
302
GRIDFORMAT
  1
GRIDFORMAT_BEGIN
 90
        0
 91
        1
 62
     0
 92
       -2
340
0
 93
        0
 40
1.125
309
GRIDFORMAT_END
 95
       16
302
GRIDFORMAT
  1
GRIDFORMAT_BEGIN
 90
        0
 91
        1
 62
     0
 92
       -2
340
0
 93
        0
 40
1.125
309
GRIDFORMAT_END
 95
       32
302
GRIDFORMAT
  1
GRIDFORMAT_BEGIN
 90
        0
 91
        1
 62
     0
 92
       -2
340
0
 93
        0
 40
1.125
309
GRIDFORMAT_END
309
TABLEFORMAT_END
  1
CELLSTYLE_BEGIN
 90
        3
 91
        2
300
_DATA
309
CELLSTYLE_END
  0
XRECORD
  5
382
102
{ACAD_REACTORS
330
4F
102
}
330
4F
100
AcDbXrecord
280
     1
102
ACAD_ROUNDTRIP_PRE2007_TABLESTYLE
 90
      512
 91
        0
  1

 92
      512
 93
        0
  2

 94
      512
 95
        0
  3

  0
XRECORD
  5
381
102
{ACAD_REACTORS
330
380
102
}
330
380
100
AcDbXrecord
280
     1
102
RTVSPost2010Prop28
280
     1
102
RTVSPost2010PropOp28
 70
     1
102
RTVSPost2010Prop29
280
     1
102
RTVSPost2010PropOp29
 70
     1
102
RTVSPost2010Prop30
280
     0
102
RTVSPost2010PropOp30
 70
     1
102
RTVSPost2010Prop31
280
     0
102
RTVSPost2010PropOp31
 70
     1
102
RTVSPost2010Prop32
280
     0
102
RTVSPost2010PropOp32
 70
     1
102
RTVSPost2010Prop33
280
     0
102
RTVSPost2010PropOp33
 70
     1
102
RTVSPost2010Prop34
280
     0
102
RTVSPost2010PropOp34
 70
     1
102
RTVSPost2010Prop35
280
     0
102
RTVSPost2010PropOp35
 70
     1
102
RTVSPost2010Prop36
280
     0
102
RTVSPost2010PropOp36
 70
     1
102
RTVSPost2010Prop37
 90
       50
102
RTVSPost2010PropOp37
 70
     1
102
RTVSPost2010Prop38
140
0.0
102
RTVSPost2010PropOp38
 70
     1
102
RTVSPost2010Prop39
140
1.0
102
RTVSPost2010PropOp39
 70
     1
102
RTVSPost2010Prop40
 90
        0
102
RTVSPost2010PropOp40
 70
     1
102
RTVSPost2010Prop41ColorIndex
 90
       18
102
RTVSPost2010Prop41ColorRGB
 90
        0
102
RTVSPost2010PropOp41
 70
     1
102
RTVSPost2010Prop42
 90
       50
102
RTVSPost2010PropOp42
 70
     1
102
RTVSPost2010Prop43
 90
        3
102
RTVSPost2010PropOp43
 70
     1
102
RTVSPost2010Prop44ColorIndex
 90
        5
102
RTVSPost2010Prop44ColorRGB
 90
      255
102
RTVSPost2010PropOp44
 70
     1
102
RTVSPost2010Prop45
280
     0
102
RTVSPost2010PropOp45
 70
     1
102
RTVSPost2010Prop46
 90
       50
102
RTVSPost2010PropOp46
 70
     1
102
RTVSPost2010Prop47
 90
       50
102
RTVSPost2010PropOp47
 70
     1
102
RTVSPost2010Prop48
 90
       50
102
RTVSPost2010PropOp48
 70
     1
102
RTVSPost2010Prop49
280
     0
102
RTVSPost2010PropOp49
 70
     1
102
RTVSPost2010Prop50
 90
       50
102
RTVSPost2010PropOp50
 70
     1
102
RTVSPost2010Prop51ColorIndex
 90
      256
102
RTVSPost2010Prop51ColorRGB
 90
-16777216
102
RTVSPost2010PropOp51
 70
     0
102
RTVSPost2010Prop52
140
1.0
102
RTVSPost2010PropOp52
 70
     0
102
RTVSPost2010Prop53
 90
        2
102
RTVSPost2010PropOp53
 70
     1
102
RTVSPost2010Prop54
  1
strokes_ogs.tif
102
RTVSPost2010PropOp54
 70
     1
102
RTVSPost2010Prop55
280
     0
102
RTVSPost2010PropOp55
 70
     1
102
RTVSPost2010Prop56
140
1.0
102
RTVSPost2010PropOp56
 70
     1
102
RTVSPost2010Prop57
140
1.0
102
RTVSPost2010PropOp57
 70
     1
102
RTVSPropertyOp0
 70
     1
102
RTVSPropertyOp1
 70
     1
102
RTVSPropertyOp2
 70
     1
102
RTVSPropertyOp3
 70
     1
102
RTVSPropertyOp4
 70
     1
102
RTVSPropertyOp5
 70
     1
102
RTVSPropertyOp6
 70
     1
102
RTVSPropertyOp7
 70
     1
102
RTVSPropertyOp8
 70
     1
102
RTVSPropertyOp9
 70
     1
102
RTVSPropertyOp10
 70
     1
102
RTVSPropertyOp11
 70
     1
102
RTVSPropertyOp12
 70
     1
102
RTVSPropertyOp13
 70
     1
102
RTVSPropertyOp14
 70
     1
102
RTVSPropertyOp15
 70
     1
102
RTVSPropertyOp16
 70
     1
102
RTVSPropertyOp17
 70
     1
102
RTVSPropertyOp18
 70
     1
102
RTVSPropertyOp19
 70
     1
102
RTVSPropertyOp20
 70
     1
102
RTVSPropertyOp21
 70
     1
102
RTVSPropertyOp22
 70
     1
102
RTVSPropertyOp23
 70
     1
102
RTVSPropertyOp24
 70
     1
102
RTVSPropertyOp25
 70
     1
102
RTVSPropertyOp26
 70
     1
102
RTVSPropertyOp27
 70
     1
102
RTVSPropertyOp28
 70
     1
102
RTVSPropertyOp29
 70
     1
102
RTVSPropertyOp30
 70
     1
102
RTVSPropertyOp31
 70
     1
102
RTVSPropertyOp32
 70
     1
102
RTVSPropertyOp33
 70
     1
102
RTVSPropertyOp34
 70
     1
102
RTVSPropertyOp35
 70
     1
102
RTVSPropertyOp36
 70
     1
102
RTVSPropertyOp37
 70
     1
102
RTVSPropertyOp38
 70
     1
102
RTVSPropertyOp39
 70
     1
102
RTVSPropertyOp40
 70
     1
102
RTVSPropertyOp41
 70
     1
102
RTVSPropertyOp42
 70
     1
102
RTVSPropertyOp43
 70
     1
102
RTVSPropertyOp44
 70
     1
102
RTVSPropertyOp45
 70
     1
102
RTVSPropertyOp46
 70
     1
102
RTVSPropertyOp47
 70
     1
102
RTVSPropertyOp48
 70
     1
102
RTVSPropertyOp49
 70
     1
102
RTVSPropertyOp50
 70
     1
102
RTVSPropertyOp51
 70
     0
102
RTVSPropertyOp52
 70
     0
102
RTVSPropertyOp53
 70
     1
102
RTVSPropertyOp54
 70
     1
102
RTVSPropertyOp55
 70
     1
102
RTVSPropertyOp56
 70
     1
102
RTVSPropertyOp57
 70
     1
102
RTVSPropertyOp58
 70
     1
102
RTVSPropertyOp59
 70
     1
102
RTVSPropertyOp60
 70
     1
102
RTVSPropertyOp61
 70
     1
102
RTVSPropertyOp62
 70
     1
  0
XRECORD
  5
384
102
{ACAD_REACTORS
330
383
102
}
330
383
100
AcDbXrecord
280
     1
102
RTVSPost2010Prop28
280
     0
102
RTVSPost2010PropOp28
 70
     1
102
RTVSPost2010Prop29
280
     1
102
RTVSPost2010PropOp29
 70
     1
102
RTVSPost2010Prop30
280
     1
102
RTVSPost2010PropOp30
 70
     1
102
RTVSPost2010Prop31
280
     0
102
RTVSPost2010PropOp31
 70
     1
102
RTVSPost2010Prop32
280
     0
102
RTVSPost2010PropOp32
 70
     1
102
RTVSPost2010Prop33
280
     0
102
RTVSPost2010PropOp33
 70
     1
102
RTVSPost2010Prop34
280
     0
102
RTVSPost2010PropOp34
 70
     1
102
RTVSPost2010Prop35
280
     0
102
RTVSPost2010PropOp35
 70
     1
102
RTVSPost2010Prop36
280
     0
102
RTVSPost2010PropOp36
 70
     1
102
RTVSPost2010Prop37
 90
       50
102
RTVSPost2010PropOp37
 70
     1
102
RTVSPost2010Prop38
140
0.0
102
RTVSPost2010PropOp38
 70
     1
102
RTVSPost2010Prop39
140
1.0
102
RTVSPost2010PropOp39
 70
     1
102
RTVSPost2010Prop40
 90
        0
102
RTVSPost2010PropOp40
 70
     1
102
RTVSPost2010Prop41ColorIndex
 90
       18
102
RTVSPost2010Prop41ColorRGB
 90
        0
102
RTVSPost2010PropOp41
 70
     1
102
RTVSPost2010Prop42
 90
       50
102
RTVSPost2010PropOp42
 70
     1
102
RTVSPost2010Prop43
 90
        3
102
RTVSPost2010PropOp43
 70
     1
102
RTVSPost2010Prop44ColorIndex
 90
        5
102
RTVSPost2010Prop44ColorRGB
 90
      255
102
RTVSPost2010PropOp44
 70
     1
102
RTVSPost2010Prop45
280
     0
102
RTVSPost2010PropOp45
 70
     1
102
RTVSPost2010Prop46
 90
       50
102
RTVSPost2010PropOp46
 70
     1
102
RTVSPost2010Prop47
 90
       50
102
RTVSPost2010PropOp47
 70
     1
102
RTVSPost2010Prop48
 90
       50
102
RTVSPost2010PropOp48
 70
     1
102
RTVSPost2010Prop49
280
     0
102
RTVSPost2010PropOp49
 70
     1
102
RTVSPost2010Prop50
 90
       50
102
RTVSPost2010PropOp50
 70
     1
102
RTVSPost2010Prop51ColorIndex
 90
      256
102
RTVSPost2010Prop51ColorRGB
 90
-16777216
102
RTVSPost2010PropOp51
 70
     0
102
RTVSPost2010Prop52
140
1.0
102
RTVSPost2010PropOp52
 70
     0
102
RTVSPost2010Prop53
 90
        2
102
RTVSPost2010PropOp53
 70
     1
102
RTVSPost2010Prop54
  1
strokes_ogs.tif
102
RTVSPost2010PropOp54
 70
     1
102
RTVSPost2010Prop55
280
     0
102
RTVSPost2010PropOp55
 70
     1
102
RTVSPost2010Prop56
140
1.0
102
RTVSPost2010PropOp56
 70
     1
102
RTVSPost2010Prop57
140
1.0
102
RTVSPost2010PropOp57
 70
     1
102
RTVSPropertyOp0
 70
     1
102
RTVSPropertyOp1
 70
     1
102
RTVSPropertyOp2
 70
     1
102
RTVSPropertyOp3
 70
     1
102
RTVSPropertyOp4
 70
     1
102
RTVSPropertyOp5
 70
     1
102
RTVSPropertyOp6
 70
     1
102
RTVSPropertyOp7
 70
     1
102
RTVSPropertyOp8
 70
     1
102
RTVSPropertyOp9
 70
     1
102
RTVSPropertyOp10
 70
     1
102
RTVSPropertyOp11
 70
     1
102
RTVSPropertyOp12
 70
     1
102
RTVSPropertyOp13
 70
     1
102
RTVSPropertyOp14
 70
     1
102
RTVSPropertyOp15
 70
     1
102
RTVSPropertyOp16
 70
     1
102
RTVSPropertyOp17
 70
     1
102
RTVSPropertyOp18
 70
     1
102
RTVSPropertyOp19
 70
     1
102
RTVSPropertyOp20
 70
     1
102
RTVSPropertyOp21
 70
     1
102
RTVSPropertyOp22
 70
     1
102
RTVSPropertyOp23
 70
     1
102
RTVSPropertyOp24
 70
     1
102
RTVSPropertyOp25
 70
     1
102
RTVSPropertyOp26
 70
     1
102
RTVSPropertyOp27
 70
     1
102
RTVSPropertyOp28
 70
     1
102
RTVSPropertyOp29
 70
     1
102
RTVSPropertyOp30
 70
     1
102
RTVSPropertyOp31
 70
     1
102
RTVSPropertyOp32
 70
     1
102
RTVSPropertyOp33
 70
     1
102
RTVSPropertyOp34
 70
     1
102
RTVSPropertyOp35
 70
     1
102
RTVSPropertyOp36
 70
     1
102
RTVSPropertyOp37
 70
     1
102
RTVSPropertyOp38
 70
     1
102
RTVSPropertyOp39
 70
     1
102
RTVSPropertyOp40
 70
     1
102
RTVSPropertyOp41
 70
     1
102
RTVSPropertyOp42
 70
     1
102
RTVSPropertyOp43
 70
     1
102
RTVSPropertyOp44
 70
     1
102
RTVSPropertyOp45
 70
     1
102
RTVSPropertyOp46
 70
     1
102
RTVSPropertyOp47
 70
     1
102
RTVSPropertyOp48
 70
     1
102
RTVSPropertyOp49
 70
     1
102
RTVSPropertyOp50
 70
     1
102
RTVSPropertyOp51
 70
     0
102
RTVSPropertyOp52
 70
     0
102
RTVSPropertyOp53
 70
     1
102
RTVSPropertyOp54
 70
     1
102
RTVSPropertyOp55
 70
     1
102
RTVSPropertyOp56
 70
     1
102
RTVSPropertyOp57
 70
     1
102
RTVSPropertyOp58
 70
     1
102
RTVSPropertyOp59
 70
     1
102
RTVSPropertyOp60
 70
     1
102
RTVSPropertyOp61
 70
     1
102
RTVSPropertyOp62
 70
     1
  0
XRECORD
  5
386
102
{ACAD_REACTORS
330
385
102
}
330
385
100
AcDbXrecord
280
     1
102
RTVSPost2010Prop28
280
     0
102
RTVSPost2010PropOp28
 70
     1
102
RTVSPost2010Prop29
280
     1
102
RTVSPost2010PropOp29
 70
     1
102
RTVSPost2010Prop30
280
     1
102
RTVSPost2010PropOp30
 70
     1
102
RTVSPost2010Prop31
280
     0
102
RTVSPost2010PropOp31
 70
     1
102
RTVSPost2010Prop32
280
     0
102
RTVSPost2010PropOp32
 70
     1
102
RTVSPost2010Prop33
280
     0
102
RTVSPost2010PropOp33
 70
     1
102
RTVSPost2010Prop34
280
     0
102
RTVSPost2010PropOp34
 70
     1
102
RTVSPost2010Prop35
280
     0
102
RTVSPost2010PropOp35
 70
     1
102
RTVSPost2010Prop36
280
     0
102
RTVSPost2010PropOp36
 70
     1
102
RTVSPost2010Prop37
 90
       50
102
RTVSPost2010PropOp37
 70
     1
102
RTVSPost2010Prop38
140
0.0
102
RTVSPost2010PropOp38
 70
     1
102
RTVSPost2010Prop39
140
1.0
102
RTVSPost2010PropOp39
 70
     1
102
RTVSPost2010Prop40
 90
        0
102
RTVSPost2010PropOp40
 70
     1
102
RTVSPost2010Prop41ColorIndex
 90
       18
102
RTVSPost2010Prop41ColorRGB
 90
        0
102
RTVSPost2010PropOp41
 70
     1
102
RTVSPost2010Prop42
 90
       50
102
RTVSPost2010PropOp42
 70
     1
102
RTVSPost2010Prop43
 90
        3
102
RTVSPost2010PropOp43
 70
     1
102
RTVSPost2010Prop44ColorIndex
 90
        5
102
RTVSPost2010Prop44ColorRGB
 90
      255
102
RTVSPost2010PropOp44
 70
     1
102
RTVSPost2010Prop45
280
     0
102
RTVSPost2010PropOp45
 70
     1
102
RTVSPost2010Prop46
 90
       50
102
RTVSPost2010PropOp46
 70
     1
102
RTVSPost2010Prop47
 90
       50
102
RTVSPost2010PropOp47
 70
     1
102
RTVSPost2010Prop48
 90
       50
102
RTVSPost2010PropOp48
 70
     1
102
RTVSPost2010Prop49
280
     0
102
RTVSPost2010PropOp49
 70
     1
102
RTVSPost2010Prop50
 90
       50
102
RTVSPost2010PropOp50
 70
     1
102
RTVSPost2010Prop51ColorIndex
 90
      256
102
RTVSPost2010Prop51ColorRGB
 90
-16777216
102
RTVSPost2010PropOp51
 70
     0
102
RTVSPost2010Prop52
140
1.0
102
RTVSPost2010PropOp52
 70
     0
102
RTVSPost2010Prop53
 90
        2
102
RTVSPost2010PropOp53
 70
     1
102
RTVSPost2010Prop54
  1
strokes_ogs.tif
102
RTVSPost2010PropOp54
 70
     1
102
RTVSPost2010Prop55
280
     0
102
RTVSPost2010PropOp55
 70
     1
102
RTVSPost2010Prop56
140
1.0
102
RTVSPost2010PropOp56
 70
     1
102
RTVSPost2010Prop57
140
1.0
102
RTVSPost2010PropOp57
 70
     1
102
RTVSPropertyOp0
 70
     1
102
RTVSPropertyOp1
 70
     1
102
RTVSPropertyOp2
 70
     1
102
RTVSPropertyOp3
 70
     1
102
RTVSPropertyOp4
 70
     1
102
RTVSPropertyOp5
 70
     1
102
RTVSPropertyOp6
 70
     1
102
RTVSPropertyOp7
 70
     1
102
RTVSPropertyOp8
 70
     1
102
RTVSPropertyOp9
 70
     1
102
RTVSPropertyOp10
 70
     1
102
RTVSPropertyOp11
 70
     1
102
RTVSPropertyOp12
 70
     1
102
RTVSPropertyOp13
 70
     1
102
RTVSPropertyOp14
 70
     1
102
RTVSPropertyOp15
 70
     1
102
RTVSPropertyOp16
 70
     1
102
RTVSPropertyOp17
 70
     1
102
RTVSPropertyOp18
 70
     1
102
RTVSPropertyOp19
 70
     1
102
RTVSPropertyOp20
 70
     1
102
RTVSPropertyOp21
 70
     1
102
RTVSPropertyOp22
 70
     1
102
RTVSPropertyOp23
 70
     1
102
RTVSPropertyOp24
 70
     1
102
RTVSPropertyOp25
 70
     1
102
RTVSPropertyOp26
 70
     1
102
RTVSPropertyOp27
 70
     1
102
RTVSPropertyOp28
 70
     1
102
RTVSPropertyOp29
 70
     1
102
RTVSPropertyOp30
 70
     1
102
RTVSPropertyOp31
 70
     1
102
RTVSPropertyOp32
 70
     1
102
RTVSPropertyOp33
 70
     1
102
RTVSPropertyOp34
 70
     1
102
RTVSPropertyOp35
 70
     1
102
RTVSPropertyOp36
 70
     1
102
RTVSPropertyOp37
 70
     1
102
RTVSPropertyOp38
 70
     1
102
RTVSPropertyOp39
 70
     1
102
RTVSPropertyOp40
 70
     1
102
RTVSPropertyOp41
 70
     1
102
RTVSPropertyOp42
 70
     1
102
RTVSPropertyOp43
 70
     1
102
RTVSPropertyOp44
 70
     1
102
RTVSPropertyOp45
 70
     1
102
RTVSPropertyOp46
 70
     1
102
RTVSPropertyOp47
 70
     1
102
RTVSPropertyOp48
 70
     1
102
RTVSPropertyOp49
 70
     1
102
RTVSPropertyOp50
 70
     1
102
RTVSPropertyOp51
 70
     0
102
RTVSPropertyOp52
 70
     0
102
RTVSPropertyOp53
 70
     1
102
RTVSPropertyOp54
 70
     1
102
RTVSPropertyOp55
 70
     1
102
RTVSPropertyOp56
 70
     1
102
RTVSPropertyOp57
 70
     1
102
RTVSPropertyOp58
 70
     1
102
RTVSPropertyOp59
 70
     1
102
RTVSPropertyOp60
 70
     1
102
RTVSPropertyOp61
 70
     1
102
RTVSPropertyOp62
 70
     1
  0
ENDSEC
  0
EOF
