  0
SECTION
  2
HEADER
  9
$ACADVER
  1
AC1032
  9
$ACADMAINTVER
 90
        4
  9
$DWGCODEPAGE
  3
ANSI_932
  9
$LASTSAVEDBY
  1
c23053
  9
$REQUIREDVERSIONS
160
                 0
  9
$INSBASE
 10
0.0
 20
0.0
 30
0.0
  9
$EXTMIN
 10
381.1402786725498
 20
205.2842111355674
 30
-0.0015258207003583
  9
$EXTMAX
 10
431.1734511751232
 20
222.0747534118997
 30
0.0000000349246037
  9
$LIMMIN
 10
374.3745061010408
 20
198.9846200078677
  9
$LIMMAX
 10
435.5827533957538
 20
229.4146920409056
  9
$ORTHOMODE
 70
     0
  9
$REGENMODE
 70
     1
  9
$FILLMODE
 70
     1
  9
$QTEXTMODE
 70
     0
  9
$MIRRTEXT
 70
     0
  9
$LTSCALE
 40
1.0
  9
$ATTMODE
 70
     1
  9
$TEXTSIZE
 40
2.5
  9
$TRACEWID
 40
1.0
  9
$TEXTSTYLE
  7
Standard
  9
$CLAYER
  8
0
  9
$CELTYPE
  6
ByLayer
  9
$CECOLOR
 62
   256
  9
$CELTSCALE
 40
1.0
  9
$DISPSILH
 70
     0
  9
$DIMSCALE
 40
1.0
  9
$DIMASZ
 40
2.5
  9
$DIMEXO
 40
0.625
  9
$DIMDLI
 40
3.75
  9
$DIMRND
 40
0.0
  9
$DIMDLE
 40
0.0
  9
$DIMEXE
 40
1.25
  9
$DIMTP
 40
0.0
  9
$DIMTM
 40
0.0
  9
$DIMTXT
 40
2.5
  9
$DIMCEN
 40
2.5
  9
$DIMTSZ
 40
0.0
  9
$DIMTOL
 70
     0
  9
$DIMLIM
 70
     0
  9
$DIMTIH
 70
     0
  9
$DIMTOH
 70
     0
  9
$DIMSE1
 70
     0
  9
$DIMSE2
 70
     0
  9
$DIMTAD
 70
     1
  9
$DIMZIN
 70
     8
  9
$DIMBLK
  1

  9
$DIMASO
 70
     1
  9
$DIMSHO
 70
     1
  9
$DIMPOST
  1

  9
$DIMAPOST
  1

  9
$DIMALT
 70
     0
  9
$DIMALTD
 70
     3
  9
$DIMALTF
 40
0.03937007874016
  9
$DIMLFAC
 40
1.0
  9
$DIMTOFL
 70
     1
  9
$DIMTVP
 40
0.0
  9
$DIMTIX
 70
     0
  9
$DIMSOXD
 70
     0
  9
$DIMSAH
 70
     0
  9
$DIMBLK1
  1

  9
$DIMBLK2
  1

  9
$DIMSTYLE
  2
ISO-25
  9
$DIMCLRD
 70
     0
  9
$DIMCLRE
 70
     0
  9
$DIMCLRT
 70
     0
  9
$DIMTFAC
 40
1.0
  9
$DIMGAP
 40
0.625
  9
$DIMJUST
 70
     0
  9
$DIMSD1
 70
     0
  9
$DIMSD2
 70
     0
  9
$DIMTOLJ
 70
     0
  9
$DIMTZIN
 70
     8
  9
$DIMALTZ
 70
     0
  9
$DIMALTTZ
 70
     0
  9
$DIMUPT
 70
     0
  9
$DIMDEC
 70
     2
  9
$DIMTDEC
 70
     2
  9
$DIMALTU
 70
     2
  9
$DIMALTTD
 70
     3
  9
$DIMTXSTY
  7
Standard
  9
$DIMAUNIT
 70
     0
  9
$DIMADEC
 70
     0
  9
$DIMALTRND
 40
0.0
  9
$DIMAZIN
 70
     0
  9
$DIMDSEP
 70
    44
  9
$DIMATFIT
 70
     3
  9
$DIMFRAC
 70
     0
  9
$DIMLDRBLK
  1

  9
$DIMLUNIT
 70
     2
  9
$DIMLWD
 70
    -2
  9
$DIMLWE
 70
    -2
  9
$DIMTMOVE
 70
     0
  9
$DIMFXL
 40
1.0
  9
$DIMFXLON
 70
     0
  9
$DIMJOGANG
 40
0.7853981633974483
  9
$DIMTFILL
 70
     0
  9
$DIMTFILLCLR
 70
     0
  9
$DIMARCSYM
 70
     0
  9
$DIMLTYPE
  6

  9
$DIMLTEX1
  6

  9
$DIMLTEX2
  6

  9
$DIMTXTDIRECTION
 70
     0
  9
$LUNITS
 70
     2
  9
$LUPREC
 70
     4
  9
$SKETCHINC
 40
1.0
  9
$FILLETRAD
 40
0.0
  9
$AUNITS
 70
     0
  9
$AUPREC
 70
     0
  9
$MENU
  1
.
  9
$ELEVATION
 40
0.0
  9
$PELEVATION
 40
0.0
  9
$THICKNESS
 40
0.0
  9
$LIMCHECK
 70
     0
  9
$CHAMFERA
 40
0.0
  9
$CHAMFERB
 40
0.0
  9
$CHAMFERC
 40
0.0
  9
$CHAMFERD
 40
0.0
  9
$SKPOLY
 70
     0
  9
$TDCREATE
 40
2459187.663935185
  9
$TDUCREATE
 40
2459187.330601852
  9
$TDUPDATE
 40
2459187.665671297
  9
$TDUUPDATE
 40
2459187.332337963
  9
$TDINDWG
 40
0.0007870370
  9
$TDUSRTIMER
 40
0.0007870370
  9
$USRTIMER
 70
     1
  9
$ANGBASE
 50
0.0
  9
$ANGDIR
 70
     0
  9
$PDMODE
 70
     0
  9
$PDSIZE
 40
0.0
  9
$PLINEWID
 40
0.0
  9
$SPLFRAME
 70
     0
  9
$SPLINETYPE
 70
     6
  9
$SPLINESEGS
 70
     8
  9
$HANDSEED
  5
3F0
  9
$SURFTAB1
 70
     6
  9
$SURFTAB2
 70
     6
  9
$SURFTYPE
 70
     6
  9
$SURFU
 70
     6
  9
$SURFV
 70
     6
  9
$UCSBASE
  2

  9
$UCSNAME
  2

  9
$UCSORG
 10
0.0
 20
0.0
 30
0.0
  9
$UCSXDIR
 10
1.0
 20
0.0
 30
0.0
  9
$UCSYDIR
 10
0.0
 20
1.0
 30
0.0
  9
$UCSORTHOREF
  2

  9
$UCSORTHOVIEW
 70
     0
  9
$UCSORGTOP
 10
0.0
 20
0.0
 30
0.0
  9
$UCSORGBOTTOM
 10
0.0
 20
0.0
 30
0.0
  9
$UCSORGLEFT
 10
0.0
 20
0.0
 30
0.0
  9
$UCSORGRIGHT
 10
0.0
 20
0.0
 30
0.0
  9
$UCSORGFRONT
 10
0.0
 20
0.0
 30
0.0
  9
$UCSORGBACK
 10
0.0
 20
0.0
 30
0.0
  9
$PUCSBASE
  2

  9
$PUCSNAME
  2

  9
$PUCSORG
 10
0.0
 20
0.0
 30
0.0
  9
$PUCSXDIR
 10
1.0
 20
0.0
 30
0.0
  9
$PUCSYDIR
 10
0.0
 20
1.0
 30
0.0
  9
$PUCSORTHOREF
  2

  9
$PUCSORTHOVIEW
 70
     0
  9
$PUCSORGTOP
 10
0.0
 20
0.0
 30
0.0
  9
$PUCSORGBOTTOM
 10
0.0
 20
0.0
 30
0.0
  9
$PUCSORGLEFT
 10
0.0
 20
0.0
 30
0.0
  9
$PUCSORGRIGHT
 10
0.0
 20
0.0
 30
0.0
  9
$PUCSORGFRONT
 10
0.0
 20
0.0
 30
0.0
  9
$PUCSORGBACK
 10
0.0
 20
0.0
 30
0.0
  9
$USERI1
 70
     0
  9
$USERI2
 70
     0
  9
$USERI3
 70
     0
  9
$USERI4
 70
     0
  9
$USERI5
 70
     0
  9
$USERR1
 40
0.0
  9
$USERR2
 40
0.0
  9
$USERR3
 40
0.0
  9
$USERR4
 40
0.0
  9
$USERR5
 40
0.0
  9
$WORLDVIEW
 70
     1
  9
$SHADEDGE
 70
     3
  9
$SHADEDIF
 70
    70
  9
$TILEMODE
 70
     1
  9
$MAXACTVP
 70
    64
  9
$PINSBASE
 10
0.0
 20
0.0
 30
0.0
  9
$PLIMCHECK
 70
     0
  9
$PEXTMIN
 10
0.0
 20
0.0
 30
0.0
  9
$PEXTMAX
 10
0.0
 20
0.0
 30
0.0
  9
$PLIMMIN
 10
0.0
 20
0.0
  9
$PLIMMAX
 10
12.0
 20
9.0
  9
$UNITMODE
 70
     0
  9
$VISRETAIN
 70
     1
  9
$PLINEGEN
 70
     0
  9
$PSLTSCALE
 70
     1
  9
$TREEDEPTH
 70
  3020
  9
$CMLSTYLE
  2
Standard
  9
$CMLJUST
 70
     0
  9
$CMLSCALE
 40
20.0
  9
$PROXYGRAPHICS
 70
     1
  9
$MEASUREMENT
 70
     1
  9
$CELWEIGHT
370
    -1
  9
$ENDCAPS
280
     0
  9
$JOINSTYLE
280
     0
  9
$LWDISPLAY
290
     0
  9
$INSUNITS
 70
     4
  9
$HYPERLINKBASE
  1

  9
$STYLESHEET
  1

  9
$XEDIT
290
     1
  9
$CEPSNTYPE
380
     0
  9
$PSTYLEMODE
290
     1
  9
$FINGERPRINTGUID
  2
{CB981100-E427-4846-9324-24666CDC44B8}
  9
$VERSIONGUID
  2
{F04F75E0-38B8-294C-8482-CABFDC59F46F}
  9
$EXTNAMES
290
     1
  9
$PSVPSCALE
 40
0.0
  9
$OLESTARTUP
290
     0
  9
$SORTENTS
280
   127
  9
$INDEXCTL
280
     0
  9
$HIDETEXT
280
     1
  9
$XCLIPFRAME
280
     2
  9
$HALOGAP
280
     0
  9
$OBSCOLOR
 70
   257
  9
$OBSLTYPE
280
     0
  9
$INTERSECTIONDISPLAY
280
     0
  9
$INTERSECTIONCOLOR
 70
   257
  9
$DIMASSOC
280
     2
  9
$PROJECTNAME
  1

  9
$CAMERADISPLAY
290
     0
  9
$LENSLENGTH
 40
50.0
  9
$CAMERAHEIGHT
 40
0.0
  9
$STEPSPERSEC
 40
2.0
  9
$STEPSIZE
 40
6.0
  9
$3DDWFPREC
 40
2.0
  9
$PSOLWIDTH
 40
5.0
  9
$PSOLHEIGHT
 40
80.0
  9
$LOFTANG1
 40
1.570796326794896
  9
$LOFTANG2
 40
1.570796326794896
  9
$LOFTMAG1
 40
0.0
  9
$LOFTMAG2
 40
0.0
  9
$LOFTPARAM
 70
     7
  9
$LOFTNORMALS
280
     1
  9
$LATITUDE
 40
37.795
  9
$LONGITUDE
 40
-122.394
  9
$NORTHDIRECTION
 40
0.0
  9
$TIMEZONE
 70
 -8000
  9
$LIGHTGLYPHDISPLAY
280
     1
  9
$TILEMODELIGHTSYNCH
280
     1
  9
$CMATERIAL
347
38
  9
$SOLIDHIST
280
     0
  9
$SHOWHIST
280
     1
  9
$DWFFRAME
280
     2
  9
$DGNFRAME
280
     0
  9
$REALWORLDSCALE
290
     1
  9
$INTERFERECOLOR
 62
     1
  9
$INTERFEREOBJVS
345
45
  9
$INTERFEREVPVS
346
46
  9
$CSHADOW
280
     0
  9
$SHADOWPLANELOCATION
 40
0.0
  0
ENDSEC
  0
SECTION
  2
CLASSES
  0
CLASS
  1
ACDBDICTIONARYWDFLT
  2
AcDbDictionaryWithDefault
  3
ObjectDBX Classes
 90
        0
 91
        1
280
     0
281
     0
  0
CLASS
  1
DICTIONARYVAR
  2
AcDbDictionaryVar
  3
ObjectDBX Classes
 90
        0
 91
        5
280
     0
281
     0
  0
CLASS
  1
TABLESTYLE
  2
AcDbTableStyle
  3
ObjectDBX Classes
 90
     4095
 91
        1
280
     0
281
     0
  0
CLASS
  1
MATERIAL
  2
AcDbMaterial
  3
ObjectDBX Classes
 90
     1153
 91
        3
280
     0
281
     0
  0
CLASS
  1
VISUALSTYLE
  2
AcDbVisualStyle
  3
ObjectDBX Classes
 90
     4095
 91
       24
280
     0
281
     0
  0
CLASS
  1
SCALE
  2
AcDbScale
  3
ObjectDBX Classes
 90
     1153
 91
       17
280
     0
281
     0
  0
CLASS
  1
MLEADERSTYLE
  2
AcDbMLeaderStyle
  3
ACDB_MLEADERSTYLE_CLASS
 90
     4095
 91
        1
280
     0
281
     0
  0
CLASS
  1
CELLSTYLEMAP
  2
AcDbCellStyleMap
  3
ObjectDBX Classes
 90
     1152
 91
        3
280
     0
281
     0
  0
CLASS
  1
EXACXREFPANELOBJECT
  2
ExAcXREFPanelObject
  3
EXAC_ESW
 90
     1025
 91
        0
280
     1
281
     0
  0
CLASS
  1
NPOCOLLECTION
  2
AcDbImpNonPersistentObjectsCollection
  3
ObjectDBX Classes
 90
     1153
 91
        0
280
     0
281
     0
  0
CLASS
  1
LAYER_INDEX
  2
AcDbLayerIndex
  3
ObjectDBX Classes
 90
        0
 91
        0
280
     0
281
     0
  0
CLASS
  1
SPATIAL_INDEX
  2
AcDbSpatialIndex
  3
ObjectDBX Classes
 90
        0
 91
        0
280
     0
281
     0
  0
CLASS
  1
IDBUFFER
  2
AcDbIdBuffer
  3
ObjectDBX Classes
 90
        0
 91
        0
280
     0
281
     0
  0
CLASS
  1
ACDBSECTIONVIEWSTYLE
  2
AcDbSectionViewStyle
  3
ObjectDBX Classes
 90
     1025
 91
        1
280
     0
281
     0
  0
CLASS
  1
ACDBDETAILVIEWSTYLE
  2
AcDbDetailViewStyle
  3
ObjectDBX Classes
 90
     1025
 91
        1
280
     0
281
     0
  0
ENDSEC
  0
SECTION
  2
TABLES
  0
TABLE
  2
VPORT
  5
28
330
0
100
AcDbSymbolTable
 70
     1
  0
VPORT
  5
29
330
28
100
AcDbSymbolTableRecord
100
AcDbViewportTableRecord
  2
*Active
 70
     0
 10
0.0
 20
0.0
 11
1.0
 21
1.0
 12
404.9786297483973
 22
214.1996560243867
 13
0.0
 23
0.0
 14
10.0
 24
10.0
 15
10.0
 25
10.0
 16
0.0
 26
0.0
 36
1.0
 17
0.0
 27
0.0
 37
0.0
 40
30.65603791447145
 41
2.070631970260222
 42
50.0
 43
0.0
 44
0.0
 50
0.0
 51
0.0
 71
     0
 72
  1000
 73
     1
 74
     3
 75
     0
 76
     1
 77
     0
 78
     0
281
     0
 65
     1
110
0.0
120
0.0
130
0.0
111
1.0
121
0.0
131
0.0
112
0.0
122
1.0
132
0.0
 79
     0
146
0.0
348
2A
 60
     3
 61
     5
292
     1
282
     1
141
0.0
142
0.0
 63
   250
421
  3355443
1001
ACAD_NAV_VCDISPLAY
1070
     3
  0
ENDTAB
  0
TABLE
  2
LTYPE
  5
23
330
0
100
AcDbSymbolTable
 70
     1
  0
LTYPE
  5
24
330
23
100
AcDbSymbolTableRecord
100
AcDbLinetypeTableRecord
  2
ByBlock
 70
     0
  3

 72
    65
 73
     0
 40
0.0
  0
LTYPE
  5
25
330
23
100
AcDbSymbolTableRecord
100
AcDbLinetypeTableRecord
  2
ByLayer
 70
     0
  3

 72
    65
 73
     0
 40
0.0
  0
LTYPE
  5
13
330
23
100
AcDbSymbolTableRecord
100
AcDbLinetypeTableRecord
  2
Continuous
 70
     0
  3
Solid line
 72
    65
 73
     0
 40
0.0
  0
ENDTAB
  0
TABLE
  2
LAYER
  5
1D
102
{ACAD_XDICTIONARY
360
1E
102
}
330
0
100
AcDbSymbolTable
 70
     2
  0
LAYER
  5
5
102
{ACAD_XDICTIONARY
360
6
102
}
330
1D
100
AcDbSymbolTableRecord
100
AcDbLayerTableRecord
  2
0
 70
     0
 62
     7
  6
Continuous
370
    -3
390
7
347
A
348
0
  0
LAYER
  5
225
330
1D
100
AcDbSymbolTableRecord
100
AcDbLayerTableRecord
  2
_U+56FE_U+5C42 1
 70
     0
 62
     7
  6
Continuous
370
    -3
390
7
347
A
348
0
  0
ENDTAB
  0
TABLE
  2
STYLE
  5
20
330
0
100
AcDbSymbolTable
 70
     1
  0
STYLE
  5
21
330
20
100
AcDbSymbolTableRecord
100
AcDbTextStyleTableRecord
  2
Standard
 70
     0
 40
0.0
 41
1.0
 50
0.0
 71
     0
 42
2.5
  3
arial.ttf
  4

1001
ACAD
1000
Arial
1071
       34
  0
ENDTAB
  0
TABLE
  2
VIEW
  5
26
330
0
100
AcDbSymbolTable
 70
     0
  0
ENDTAB
  0
TABLE
  2
UCS
  5
27
330
0
100
AcDbSymbolTable
 70
     0
  0
ENDTAB
  0
TABLE
  2
APPID
  5
2D
330
0
100
AcDbSymbolTable
 70
     6
  0
APPID
  5
12
330
2D
100
AcDbSymbolTableRecord
100
AcDbRegAppTableRecord
  2
ACAD
 70
     0
  0
APPID
  5
18
330
2D
100
AcDbSymbolTableRecord
100
AcDbRegAppTableRecord
  2
ACAD_PSEXT
 70
     0
  0
APPID
  5
31
330
2D
100
AcDbSymbolTableRecord
100
AcDbRegAppTableRecord
  2
AcadAnnotative
 70
     0
  0
APPID
  5
32
330
2D
100
AcDbSymbolTableRecord
100
AcDbRegAppTableRecord
  2
ACAD_DSTYLE_DIMJAG
 70
     0
  0
APPID
  5
33
330
2D
100
AcDbSymbolTableRecord
100
AcDbRegAppTableRecord
  2
ACAD_DSTYLE_DIMTALN
 70
     0
  0
APPID
  5
2C
330
2D
100
AcDbSymbolTableRecord
100
AcDbRegAppTableRecord
  2
ACAD_NAV_VCDISPLAY
 70
     0
  0
ENDTAB
  0
TABLE
  2
DIMSTYLE
  5
2E
330
0
100
AcDbSymbolTable
 70
     2
100
AcDbDimStyleTable
 71
     2
340
2F
340
30
  0
DIMSTYLE
105
30
330
2E
100
AcDbSymbolTableRecord
100
AcDbDimStyleTableRecord
  2
Annotative
 70
     0
 40
0.0
 41
2.5
 42
0.625
 43
3.75
 44
1.25
 73
     0
 74
     0
 77
     1
 78
     8
140
2.5
141
2.5
143
0.03937007874016
147
0.625
171
     3
172
     1
271
     2
272
     2
274
     3
278
    44
283
     0
284
     8
340
21
1001
AcadAnnotative
1000
AnnotativeData
1002
{
1070
     1
1070
     1
1002
}
1001
ACAD_DSTYLE_DIMJAG
1070
   388
1040
1.5
1001
ACAD_DSTYLE_DIMTALN
1070
   392
1070
     0
  0
DIMSTYLE
105
2F
330
2E
100
AcDbSymbolTableRecord
100
AcDbDimStyleTableRecord
  2
ISO-25
 70
     0
 41
2.5
 42
0.625
 43
3.75
 44
1.25
 73
     0
 74
     0
 77
     1
 78
     8
140
2.5
141
2.5
143
0.03937007874016
147
0.625
171
     3
172
     1
271
     2
272
     2
274
     3
278
    44
283
     0
284
     8
340
21
  0
ENDTAB
  0
TABLE
  2
BLOCK_RECORD
  5
1
330
0
100
AcDbSymbolTable
 70
     0
  0
BLOCK_RECORD
  5
2
102
{ACAD_XDICTIONARY
360
3
102
}
330
1
100
AcDbSymbolTableRecord
100
AcDbBlockTableRecord
  2
*Model_Space
340
15
 70
     0
280
     1
281
     0
  0
BLOCK_RECORD
  5
19
330
1
100
AcDbSymbolTableRecord
100
AcDbBlockTableRecord
  2
*Paper_Space
340
1C
 70
     0
280
     1
281
     0
  0
ENDTAB
  0
ENDSEC
  0
SECTION
  2
BLOCKS
  0
BLOCK
  5
4
330
2
100
AcDbEntity
  8
0
100
AcDbBlockBegin
  2
*Model_Space
 70
     0
 10
0.0
 20
0.0
 30
0.0
  3
*Model_Space
  1

  0
ENDBLK
  5
14
330
2
100
AcDbEntity
  8
0
100
AcDbBlockEnd
  0
BLOCK
  5
1A
330
19
100
AcDbEntity
 67
     1
  8
0
100
AcDbBlockBegin
  2
*Paper_Space
 70
     0
 10
0.0
 20
0.0
 30
0.0
  3
*Paper_Space
  1

  0
ENDBLK
  5
1B
330
19
100
AcDbEntity
 67
     1
  8
0
100
AcDbBlockEnd
  0
ENDSEC
  0
SECTION
  2
ENTITIES
  0
LINE
  5
58
330
2
100
AcDbEntity
  8
0
100
AcDbLine
 10
413.4191609308402
 20
214.4291979932996
 30
0.0
 11
413.4172828529346
 21
214.4106319565569
 31
0.0
  0
SPLINE
  5
59
330
2
100
AcDbEntity
  8
0
100
AcDbSpline
210
0.0
220
0.0
230
1.0
 70
     8
 71
     3
 72
    10
 73
     6
 74
     0
 42
0.000000001
 43
0.0000000001
 40
0.0
 40
0.0
 40
0.0
 40
0.0
 40
0.3512498668616643
 40
0.8758373350408035
 40
1.0
 40
1.0
 40
1.0
 40
1.0
 10
413.4661184548268
 20
214.5131171969573
 30
0.0
 10
413.4576125529626
 20
214.5056311837802
 30
0.0
 10
413.4364031885652
 20
214.4869648996056
 30
0.0
 10
413.4203579677258
 20
214.4553535388677
 30
0.0
 10
413.421008166139
 20
214.4339026980305
 30
0.0
 10
413.4211326059864
 20
214.4297972752677
 30
0.0
  0
SPLINE
  5
5A
330
2
100
AcDbEntity
  8
0
100
AcDbSpline
210
0.0
220
0.0
230
1.0
 70
     8
 71
     3
 72
    12
 73
     8
 74
     0
 42
0.000000001
 43
0.0000000001
 40
0.0
 40
0.0
 40
0.0
 40
0.0
 40
0.0989588600565445
 40
0.3422179748517837
 40
0.6061718532038523
 40
0.8510874833111659
 40
1.0
 40
1.0
 40
1.0
 40
1.0
 10
413.7515041589685
 20
214.5596046430774
 30
0.0
 10
413.7422634990262
 20
214.5633788862678
 30
0.0
 10
413.7103075940187
 20
214.5764309147621
 30
0.0
 10
413.6460879477611
 20
214.581764017105
 30
0.0
 10
413.5685496985383
 20
214.5725250347069
 30
0.0
 10
413.5050460760067
 20
214.5490029040549
 30
0.0
 10
413.4756548025004
 20
214.5223263681049
 30
0.0
 10
413.4645415071656
 20
214.5122395570499
 30
0.0
  0
LINE
  5
5B
330
2
100
AcDbEntity
  8
0
100
AcDbLine
 10
422.6289762177064
 20
216.9369344928541
 30
0.0
 11
422.6248209279234
 21
216.9573549192023
 31
0.0
  0
LINE
  5
5C
330
2
100
AcDbEntity
  8
0
100
AcDbLine
 10
422.1727472416189
 20
216.9568182722881
 30
0.0
 11
422.1686514860413
 21
216.936934525858
 31
0.0
  0
SPLINE
  5
5D
330
2
100
AcDbEntity
  8
0
100
AcDbSpline
210
0.0
220
0.0
230
1.0
 70
     8
 71
     3
 72
    10
 73
     6
 74
     0
 42
0.000000001
 43
0.0000000001
 40
0.0
 40
0.0
 40
0.0
 40
0.0
 40
0.3960786356980143
 40
0.8788094240797303
 40
1.0
 40
1.0
 40
1.0
 40
1.0
 10
422.6248665938158
 20
216.9570709402367
 30
0.0
 10
422.6227760179893
 20
216.9700717280401
 30
0.0
 10
422.6181375003508
 20
216.9989175526122
 30
0.0
 10
422.5990263956326
 20
217.0274011046683
 30
0.0
 10
422.5829038712816
 20
217.0388818561134
 30
0.0
 10
422.5796685195839
 20
217.0411857303625
 30
0.0
  0
SPLINE
  5
5E
330
2
100
AcDbEntity
  8
0
100
AcDbSpline
210
0.0
220
0.0
230
1.0
 70
     8
 71
     3
 72
    10
 73
     6
 74
     0
 42
0.000000001
 43
0.0000000001
 40
0.0
 40
0.0
 40
0.0
 40
0.0
 40
0.0921848334266622
 40
0.6396537020116712
 40
1.0
 40
1.0
 40
1.0
 40
1.0
 10
422.2189359669284
 20
217.0421023100024
 30
0.0
 10
422.216347485903
 20
217.0404193839253
 30
0.0
 10
422.1983864894028
 20
217.0287418676202
 30
0.0
 10
422.1790412366722
 20
216.9990854454298
 30
0.0
 10
422.1745356714682
 20
216.9688284301377
 30
0.0
 10
422.1727472416189
 20
216.9568182722881
 30
0.0
  0
SPLINE
  5
5F
330
2
100
AcDbEntity
  8
0
100
AcDbSpline
210
0.0
220
0.0
230
1.0
 70
     8
 71
     3
 72
    11
 73
     7
 74
     0
 42
0.000000001
 43
0.0000000001
 40
0.0
 40
0.0
 40
0.0
 40
0.0
 40
0.2146346069701269
 40
0.5027754531639799
 40
0.8353375627696348
 40
1.0
 40
1.0
 40
1.0
 40
1.0
 10
422.5809576569489
 20
217.0403164201082
 30
0.0
 10
422.5692541914693
 20
217.0503201712752
 30
0.0
 10
422.541839156945
 20
217.0737536734364
 30
0.0
 10
422.4854429133007
 20
217.0958472806039
 30
0.0
 10
422.4281413901218
 20
217.1061538611716
 30
0.0
 10
422.3913346123356
 20
217.1051674030181
 30
0.0
 10
422.3791455645995
 20
217.1048407244484
 30
0.0
  0
SPLINE
  5
60
330
2
100
AcDbEntity
  8
0
100
AcDbSpline
210
0.0
220
0.0
230
1.0
 70
     8
 71
     3
 72
    10
 73
     6
 74
     0
 42
0.000000001
 43
0.0000000001
 40
0.0
 40
0.0
 40
0.0
 40
0.0
 40
0.2621159189062011
 40
0.6924398032210979
 40
1.0
 40
1.0
 40
1.0
 40
1.0
 10
422.3791455645995
 20
217.1048407244484
 30
0.0
 10
422.3634206268725
 20
217.1031608485882
 30
0.0
 10
422.3218795681265
 20
217.098723068102
 30
0.0
 10
422.2646153839059
 20
217.0796607810743
 30
0.0
 10
422.2311462324099
 20
217.0521524416931
 30
0.0
 10
422.2171958314135
 20
217.0406865888716
 30
0.0
  0
LINE
  5
61
330
2
100
AcDbEntity
  8
0
100
AcDbLine
 10
422.7182068425102
 20
216.731571564861
 30
0.0
 11
422.7182068425102
 21
216.8053323701689
 31
0.0
  0
LINE
  5
62
330
2
100
AcDbEntity
  8
0
100
AcDbLine
 10
413.3280521455996
 20
214.2790296237538
 30
0.0
 11
413.3280521455996
 21
214.205268818446
 31
0.0
  0
LINE
  5
63
330
2
100
AcDbEntity
  8
0
100
AcDbLine
 10
412.4124589962685
 20
210.9598000447168
 30
0.0
 11
412.4124589962685
 21
210.9041802054931
 31
0.0
  0
LINE
  5
64
330
2
100
AcDbEntity
  8
0
100
AcDbLine
 10
426.5509231909236
 20
210.9041803171955
 30
0.0
 11
426.5509231909236
 21
210.9598001564192
 31
0.0
  0
LINE
  5
65
330
2
100
AcDbEntity
  8
0
100
AcDbLine
 10
422.759368958679
 20
214.0915275727862
 30
0.0
 11
422.6527892652383
 21
216.7341322375383
 31
0.0
  0
LINE
  5
66
330
2
100
AcDbEntity
  8
0
100
AcDbLine
 10
425.2821454560358
 20
213.9392810676894
 30
0.0
 11
425.2690639590857
 21
214.2636219615868
 31
0.0
  0
LINE
  5
67
330
2
100
AcDbEntity
  8
0
100
AcDbLine
 10
413.3934696016726
 20
214.2078297109507
 30
0.0
 11
413.3896605998181
 21
214.1133835564788
 31
0.0
  0
LINE
  5
68
330
2
100
AcDbEntity
  8
0
100
AcDbLine
 10
413.3336723575375
 20
212.7251726903711
 30
0.0
 11
413.3328075448384
 21
212.7037377216422
 31
0.0
  0
LINE
  5
69
330
2
100
AcDbEntity
  8
0
100
AcDbLine
 10
431.1242089397032
 20
215.0272685779885
 30
0.0
 11
430.2724944128887
 21
215.7648751238719
 31
0.0
  0
LINE
  5
6A
330
2
100
AcDbEntity
  8
0
100
AcDbLine
 10
431.1138524266953
 20
214.6892400041235
 30
0.0
 11
431.1507330727692
 21
214.6998863528298
 31
0.0
  0
LINE
  5
6B
330
2
100
AcDbEntity
  8
0
100
AcDbLine
 10
424.2327275660588
 20
215.0187212128923
 30
0.0
 11
424.1958471947908
 21
215.0080747848486
 31
0.0
  0
LINE
  5
6C
330
2
100
AcDbEntity
  8
0
100
AcDbLine
 10
408.6908876829999
 20
215.7648753580509
 30
0.0
 11
407.8391725363072
 21
215.0272684042389
 31
0.0
  0
LINE
  5
6D
330
2
100
AcDbEntity
  8
0
100
AcDbLine
 10
407.8126488806701
 20
214.6998862752385
 30
0.0
 11
407.8495292833241
 21
214.6892398200678
 31
0.0
  0
LINE
  5
6E
330
2
100
AcDbEntity
  8
0
100
AcDbLine
 10
414.7675348057481
 20
215.008074750567
 30
0.0
 11
414.7306544030944
 21
215.0187212057804
 31
0.0
  0
SPLINE
  5
6F
330
2
100
AcDbEntity
  8
0
100
AcDbSpline
210
0.0
220
0.0
230
1.0
 70
     8
 71
     3
 72
    11
 73
     7
 74
     0
 42
0.000000001
 43
0.0000000001
 40
0.0
 40
0.0
 40
0.0
 40
0.0
 40
0.1836890192534218
 40
0.6287607054911174
 40
0.9875324606941264
 40
1.0
 40
1.0
 40
1.0
 40
1.0
 10
414.1089355185942
 20
214.3388441559033
 30
0.0
 10
414.1070433265475
 20
214.3289316049225
 30
0.0
 10
414.1005664232963
 20
214.2950013102693
 30
0.0
 10
414.1096457496745
 20
214.2442223214552
 30
0.0
 10
414.1215168549047
 20
214.2011047661974
 30
0.0
 10
414.1346746428638
 20
214.1862996240947
 30
0.0
 10
414.1351165283025
 20
214.1858024146294
 30
0.0
  0
SPLINE
  5
70
330
2
100
AcDbEntity
  8
0
100
AcDbSpline
210
0.0
220
0.0
230
1.0
 70
     8
 71
     3
 72
    10
 73
     6
 74
     0
 42
0.000000001
 43
0.0000000001
 40
0.0
 40
0.0
 40
0.0
 40
0.0
 40
0.1833852803691453
 40
0.6775602838948755
 40
1.0
 40
1.0
 40
1.0
 40
1.0
 10
414.1592856641249
 20
214.4771590960376
 30
0.0
 10
414.1540562517681
 20
214.4700263150359
 30
0.0
 10
414.1347349512038
 20
214.4436725689185
 30
0.0
 10
414.1157697285013
 20
214.3950730193186
 30
0.0
 10
414.1108701238535
 20
214.3547612343042
 30
0.0
 10
414.1089355185942
 20
214.3388441559033
 30
0.0
  0
LINE
  5
71
330
2
100
AcDbEntity
  8
0
100
AcDbLine
 10
414.1608241609148
 20
214.4793711755524
 30
0.0
 11
414.1592856641258
 21
214.4771590960277
 31
0.0
  0
SPLINE
  5
72
330
2
100
AcDbEntity
  8
0
100
AcDbSpline
210
0.0
220
0.0
230
1.0
 70
     8
 71
     3
 72
    10
 73
     6
 74
     0
 42
0.000000001
 43
0.0000000001
 40
0.0
 40
0.0
 40
0.0
 40
0.0
 40
0.2304289953461008
 40
0.7192819524546064
 40
1.0
 40
1.0
 40
1.0
 40
1.0
 10
414.2402826089712
 20
214.5500175625755
 30
0.0
 10
414.2326075960585
 20
214.5466234372076
 30
0.0
 10
414.2086501150791
 20
214.5360287066361
 30
0.0
 10
414.1815700403121
 20
214.5112684835943
 30
0.0
 10
414.1663690561506
 20
214.487896590538
 30
0.0
 10
414.1608241609183
 20
214.4793711755386
 30
0.0
  0
SPLINE
  5
73
330
2
100
AcDbEntity
  8
0
100
AcDbSpline
210
0.0
220
0.0
230
1.0
 70
     8
 71
     3
 72
    10
 73
     6
 74
     0
 42
0.000000001
 43
0.0000000001
 40
0.0
 40
0.0
 40
0.0
 40
0.0
 40
0.3407717135153104
 40
0.9201002788838501
 40
1.0
 40
1.0
 40
1.0
 40
1.0
 10
414.1354562924473
 20
214.1889946387525
 30
0.0
 10
414.1396163696361
 20
214.1814086301776
 30
0.0
 10
414.1508487813345
 20
214.1609260363221
 30
0.0
 10
414.1730911039473
 20
214.1422627508664
 30
0.0
 10
414.1902745287309
 20
214.1386861032347
 30
0.0
 10
414.1923571924697
 20
214.1382526067447
 30
0.0
  0
SPLINE
  5
74
330
2
100
AcDbEntity
  8
0
100
AcDbSpline
210
0.0
220
0.0
230
1.0
 70
     8
 71
     3
 72
    10
 73
     6
 74
     0
 42
0.000000001
 43
0.0000000001
 40
0.0
 40
0.0
 40
0.0
 40
0.0
 40
0.4181818816771547
 40
0.9510252833871815
 40
1.0
 40
1.0
 40
1.0
 40
1.0
 10
414.3137426610531
 20
214.5606852026463
 30
0.0
 10
414.3028089176205
 20
214.5625023280275
 30
0.0
 10
414.2779435016318
 20
214.5666348173973
 30
0.0
 10
414.2512631195645
 20
214.5595128236578
 30
0.0
 10
414.2391715075611
 20
214.5511087299009
 30
0.0
 10
414.2381536924526
 20
214.5504013127594
 30
0.0
  0
LINE
  5
75
330
2
100
AcDbEntity
  8
0
100
AcDbLine
 10
414.3568599172636
 20
214.5549075963813
 30
0.0
 11
414.3141784006434
 21
214.5628594144599
 31
0.0
  0
LINE
  5
76
330
2
100
AcDbEntity
  8
0
100
AcDbLine
 10
414.1913731763803
 20
214.1374499134134
 30
0.0
 11
414.231726430351
 21
214.1214319326853
 31
0.0
  0
LINE
  5
77
330
2
100
AcDbEntity
  8
0
100
AcDbLine
 10
414.2482760995529
 20
214.1190273619357
 30
0.0
 11
414.2604715553265
 21
214.1208963691651
 31
0.0
  0
SPLINE
  5
78
330
2
100
AcDbEntity
  8
0
100
AcDbSpline
210
0.0
220
0.0
230
1.0
 70
     8
 71
     3
 72
    10
 73
     6
 74
     0
 42
0.000000001
 43
0.0000000001
 40
0.0
 40
0.0
 40
0.0
 40
0.0
 40
0.1974597069962712
 40
0.6480367936202951
 40
1.0
 40
1.0
 40
1.0
 40
1.0
 10
424.8280413178945
 20
214.188248000687
 30
0.0
 10
424.8324449396081
 20
214.1946877641609
 30
0.0
 10
424.8468970470224
 20
214.2158222210924
 30
0.0
 10
424.8566261977286
 20
214.2543015898674
 30
0.0
 10
424.8584148967879
 20
214.2855406093928
 30
0.0
 10
424.8591993511783
 20
214.2992408379946
 30
0.0
  0
SPLINE
  5
79
330
2
100
AcDbEntity
  8
0
100
AcDbSpline
210
0.0
220
0.0
230
1.0
 70
     8
 71
     3
 72
    10
 73
     6
 74
     0
 42
0.000000001
 43
0.0000000001
 40
0.0
 40
0.0
 40
0.0
 40
0.0
 40
0.1160965489582626
 40
0.6741225245930936
 40
1.0
 40
1.0
 40
1.0
 40
1.0
 10
424.8044772705585
 20
214.4768042150597
 30
0.0
 10
424.8024385347248
 20
214.4807250433981
 30
0.0
 10
424.7906004761466
 20
214.5034916003859
 30
0.0
 10
424.7632965060164
 20
214.5300377998688
 30
0.0
 10
424.7334877295876
 20
214.5446200524966
 30
0.0
 10
424.7224978315436
 20
214.5499962365884
 30
0.0
  0
LINE
  5
7A
330
2
100
AcDbEntity
  8
0
100
AcDbLine
 10
424.8056140637985
 20
214.4747116896505
 30
0.0
 11
424.8044772705778
 21
214.4768042150489
 31
0.0
  0
SPLINE
  5
7B
330
2
100
AcDbEntity
  8
0
100
AcDbSpline
210
0.0
220
0.0
230
1.0
 70
     8
 71
     3
 72
    10
 73
     6
 74
     0
 42
0.000000001
 43
0.0000000001
 40
0.0
 40
0.0
 40
0.0
 40
0.0
 40
0.055043046815926
 40
0.5607691688314566
 40
1.0
 40
1.0
 40
1.0
 40
1.0
 10
424.8567204186357
 20
214.334822710486
 30
0.0
 10
424.8565506134266
 20
214.337538448315
 30
0.0
 10
424.8548206669296
 20
214.3652059219257
 30
0.0
 10
424.840790482572
 20
214.41639231793
 30
0.0
 10
424.8167762542455
 20
214.4562057713125
 30
0.0
 10
424.8056140638068
 20
214.4747116896635
 30
0.0
  0
LINE
  5
7C
330
2
100
AcDbEntity
  8
0
100
AcDbLine
 10
424.85919935116
 20
214.2992408379996
 30
0.0
 11
424.8567204186489
 21
214.3348227104754
 31
0.0
  0
SPLINE
  5
7D
330
2
100
AcDbEntity
  8
0
100
AcDbSpline
210
0.0
220
0.0
230
1.0
 70
     8
 71
     3
 72
    10
 73
     6
 74
     0
 42
0.000000001
 43
0.0000000001
 40
0.0
 40
0.0
 40
0.0
 40
0.0
 40
0.3917372164651402
 40
0.9230983547736943
 40
1.0
 40
1.0
 40
1.0
 40
1.0
 10
424.7720487549095
 20
214.1400630736267
 30
0.0
 10
424.7817058454983
 20
214.1440046254827
 30
0.0
 10
424.804462030154
 20
214.1532925865967
 30
0.0
 10
424.8232598958618
 20
214.173655492606
 30
0.0
 10
424.8293190362854
 20
214.1878617863073
 30
0.0
 10
424.8300850832637
 20
214.1896578642325
 30
0.0
  0
SPLINE
  5
7E
330
2
100
AcDbEntity
  8
0
100
AcDbSpline
210
0.0
220
0.0
230
1.0
 70
     8
 71
     3
 72
    10
 73
     6
 74
     0
 42
0.000000001
 43
0.0000000001
 40
0.0
 40
0.0
 40
0.0
 40
0.0
 40
0.0861699891403414
 40
0.6977648736976684
 40
1.0
 40
1.0
 40
1.0
 40
1.0
 10
424.723872962154
 20
214.5505227140754
 30
0.0
 10
424.7221305756981
 20
214.5517594737237
 30
0.0
 10
424.7080215328954
 20
214.5617741835828
 30
0.0
 10
424.680846758576
 20
214.5676014793549
 30
0.0
 10
424.6577341121589
 20
214.5624132968881
 30
0.0
 10
424.6500899622336
 20
214.5606973858713
 30
0.0
  0
LINE
  5
7F
330
2
100
AcDbEntity
  8
0
100
AcDbLine
 10
424.7316555732543
 20
214.1214318495153
 30
0.0
 11
424.7720086145943
 21
214.1374499639626
 31
0.0
  0
LINE
  5
80
330
2
100
AcDbEntity
  8
0
100
AcDbLine
 10
424.6492037576332
 20
214.5628593589708
 30
0.0
 11
424.6065218460731
 21
214.5549075825409
 31
0.0
  0
SPLINE
  5
81
330
2
100
AcDbEntity
  8
0
100
AcDbSpline
210
0.0
220
0.0
230
1.0
 70
     8
 71
     3
 72
    14
 73
    10
 74
     0
 42
0.000000001
 43
0.0000000001
 40
0.0
 40
0.0
 40
0.0
 40
0.0
 40
0.1148587352344769
 40
0.272742427076169
 40
0.4479839682317961
 40
0.6290756657020503
 40
0.7730017365527471
 40
0.8940868180169713
 40
1.0
 40
1.0
 40
1.0
 40
1.0
 10
415.7512828345176
 20
220.2597356898317
 30
0.0
 10
415.7510657327793
 20
220.2525478591238
 30
0.0
 10
415.7505502051186
 20
220.2354797067654
 30
0.0
 10
415.7449068004844
 20
220.2006819491681
 30
0.0
 10
415.733437969799
 20
220.1600909028178
 30
0.0
 10
415.7179962660851
 20
220.1240020794659
 30
0.0
 10
415.7036286141813
 20
220.0997216182832
 30
0.0
 10
415.6931559989045
 20
220.087001598559
 30
0.0
 10
415.6916951954094
 20
220.0858025201968
 30
0.0
 10
415.6910136115771
 20
220.0852430524596
 30
0.0
  0
LINE
  5
82
330
2
100
AcDbEntity
  8
0
100
AcDbLine
 10
415.5000221269188
 20
219.7521070144323
 30
0.0
 11
415.5369023921913
 21
219.7414605989088
 31
0.0
  0
LINE
  5
83
330
2
100
AcDbEntity
  8
0
100
AcDbLine
 10
419.4161575346938
 20
221.8959778553583
 30
0.0
 11
419.3423968667676
 21
221.917270726095
 31
0.0
  0
LINE
  5
84
330
2
100
AcDbEntity
  8
0
100
AcDbLine
 10
420.0062427405515
 20
221.7256349291113
 30
0.0
 11
419.9324820726252
 21
221.746927799848
 31
0.0
  0
LINE
  5
85
330
2
100
AcDbEntity
  8
0
100
AcDbLine
 10
420.5225674158644
 20
221.5765848339964
 30
0.0
 11
420.4488066105565
 21
221.5978777443804
 31
0.0
  0
LINE
  5
86
330
2
100
AcDbEntity
  8
0
100
AcDbLine
 10
421.1126527591035
 20
221.4062418681021
 30
0.0
 11
421.0388919537957
 21
221.427534778486
 31
0.0
  0
LINE
  5
87
330
2
100
AcDbEntity
  8
0
100
AcDbLine
 10
422.4987165531508
 20
220.0514641541291
 30
0.0
 11
422.4249557478433
 21
220.0727570645132
 31
0.0
  0
LINE
  5
88
330
2
100
AcDbEntity
  8
0
100
AcDbLine
 10
416.3765818727497
 20
221.818772206988
 30
0.0
 11
416.3028212735569
 21
221.8400650578799
 31
0.0
  0
LINE
  5
89
330
2
100
AcDbEntity
  8
0
100
AcDbLine
 10
416.9666671472982
 20
221.6484292609388
 30
0.0
 11
416.8929064965765
 21
221.669722126693
 31
0.0
  0
LINE
  5
8A
330
2
100
AcDbEntity
  8
0
100
AcDbLine
 10
415.895817821292
 20
221.5421083777425
 30
0.0
 11
415.8947546980274
 21
221.5424152749894
 31
0.0
  0
LINE
  5
8B
330
2
100
AcDbEntity
  8
0
100
AcDbLine
 10
421.4160481930661
 20
221.0727897993649
 30
0.0
 11
421.3422873877584
 21
221.0940827097917
 31
0.0
  0
LINE
  5
8C
330
2
100
AcDbEntity
  8
0
100
AcDbLine
 10
422.0061332614997
 20
220.9024469128079
 30
0.0
 11
421.9323727309975
 21
220.9237397438974
 31
0.0
  0
LINE
  5
8D
330
2
100
AcDbEntity
  8
0
100
AcDbLine
 10
418.0968186182453
 20
222.0309688436484
 30
0.0
 11
418.0230579503617
 21
222.0522617143852
 31
0.0
  0
LINE
  5
8E
330
2
100
AcDbEntity
  8
0
100
AcDbLine
 10
418.6869038241028
 20
221.860625917444
 30
0.0
 11
418.6131432249101
 21
221.8819187683358
 31
0.0
  0
ARC
  5
8F
330
2
100
AcDbEntity
  8
0
100
AcDbCircle
 10
423.7375204620338
 20
211.058939849496
 30
0.0
 40
0.5069553957926054
100
AcDbArc
 50
313.8695726643983
 51
15.84146663599987
  0
LINE
  5
90
330
2
100
AcDbEntity
  8
0
100
AcDbLine
 10
424.0267796071273
 20
210.8867980644764
 30
0.0
 11
423.9677190928347
 21
212.8398308894682
 31
0.0
  0
LINE
  5
91
330
2
100
AcDbEntity
  8
0
100
AcDbLine
 10
414.9731557742915
 20
212.8273116393651
 30
0.0
 11
414.9144739817065
 21
210.8867979834784
 31
0.0
  0
LINE
  5
92
330
2
100
AcDbEntity
  8
0
100
AcDbLine
 10
415.0973121859506
 20
212.8882832700446
 30
0.0
 11
415.3851286969578
 21
212.8051977999871
 31
0.0
  0
LWPOLYLINE
  5
93
330
2
100
AcDbEntity
  8
0
100
AcDbPolyline
 90
       10
 70
   128
 43
0.0
 10
422.106584195404
 20
216.8716468204267
 10
422.1216582150346
 20
216.8970953842917
 10
422.1723165932115
 20
216.9391179869173
 10
422.2475188349667
 20
216.9706389569146
 10
422.3391165371451
 20
216.9882430896145
 10
422.4371835691584
 20
216.9900227028715
 10
422.5310924107733
 20
216.9757846101636
 10
422.6106669224787
 20
216.9470719938176
 10
422.667283420687
 20
216.9069960320022
 10
422.6922996938227
 20
216.8683359767847
  0
ARC
  5
94
330
2
100
AcDbEntity
  8
0
100
AcDbCircle
 10
413.647896230973
 20
213.9149738864674
 30
0.0
 40
0.5502207823096123
100
AcDbArc
 50
82.91310601970058
 51
108.9943493015001
  0
ARC
  5
95
330
2
100
AcDbEntity
  8
0
100
AcDbCircle
 10
413.5069796894955
 20
214.2708336661308
 30
0.0
 40
0.1687739693461832
100
AcDbArc
 50
103.0699124040994
 51
155.0476837718989
  0
LWPOLYLINE
  5
96
330
2
100
AcDbEntity
  8
0
100
AcDbPolyline
 90
        8
 70
   128
 43
0.0
 10
413.379710985284
 20
214.1181909457026
 10
413.3436845247667
 20
214.1559201271006
 10
413.3280521455996
 20
214.205268818446
 10
413.3436846862091
 20
214.2546180736264
 10
413.3890510018927
 20
214.2991363209388
 10
413.4597107461671
 20
214.334466162691
 10
413.548747660176
 20
214.3571495875028
 10
413.6474453757593
 20
214.3649655894109
  0
LINE
  5
97
330
2
100
AcDbEntity
  8
0
100
AcDbLine
 10
413.6474453757593
 20
214.3649655894109
 30
0.0
 11
413.7019590056016
 21
214.3649653191193
 31
0.0
  0
LINE
  5
98
330
2
100
AcDbEntity
  8
0
100
AcDbLine
 10
422.12221149899
 20
216.8114198690687
 30
0.0
 11
422.0949545176439
 21
216.7878146307653
 31
0.0
  0
LWPOLYLINE
  5
99
330
2
100
AcDbEntity
  8
0
100
AcDbPolyline
 90
       11
 70
   128
 43
0.0
 10
422.12221149899
 20
216.8114198690687
 10
422.1850981769326
 20
216.8502491625078
 10
422.2689050375787
 20
216.8774616547501
 10
422.3654281252786
 20
216.8903931222429
 10
422.4652192923665
 20
216.8877782758696
 10
422.5585101839288
 20
216.8698727511084
 10
422.6361690456128
 20
216.8384293328425
 10
422.6905936759543
 20
216.7965259131233
 10
422.7164573984778
 20
216.7482644167139
 10
422.7112272722938
 20
216.6983687751043
 10
422.6754163021513
 20
216.6517233980351
  0
LINE
  5
9A
330
2
100
AcDbEntity
  8
0
100
AcDbLine
 10
422.6754163021513
 20
216.6517233980351
 30
0.0
 11
422.6567645008056
 21
216.6355704642215
 31
0.0
  0
LINE
  5
9B
330
2
100
AcDbEntity
  8
0
100
AcDbLine
 10
422.0751861782154
 20
216.8444555519776
 30
0.0
 11
422.0751861782154
 21
216.7927917183068
 31
0.0
  0
LWPOLYLINE
  5
9C
330
2
100
AcDbEntity
  8
0
100
AcDbPolyline
 90
       26
 70
   128
 43
0.0
 10
413.9237117640986
 20
215.0139990411726
 10
413.9501111028634
 20
215.0622090786412
 10
414.0799769839883
 20
215.2630699365578
 10
414.2389736526753
 20
215.4586239082276
 10
414.4262438491034
 20
215.6478163730966
 10
414.6407768952347
 20
215.8296267401472
 10
414.8814172190721
 20
216.0030755129995
 10
415.1468654339112
 20
216.1672261764162
 10
415.4356919591299
 20
216.3211944538459
 10
415.7463377396767
 20
216.4641495652349
 10
416.0771277589899
 20
216.5953202182438
 10
416.4262783038721
 20
216.7139994720496
 10
416.7919063525959
 20
216.8195471565561
 10
417.1720401799063
 20
216.9113941385472
 10
417.5646294743229
 20
216.9890448964211
 10
417.9675577291853
 20
217.0520812708859
 10
418.3786511959206
 20
217.1001624449015
 10
418.7956931620162
 20
217.1330296149092
 10
419.2164350422208
 20
217.1505057201991
 10
419.6386071119381
 20
217.1524960079379
 10
420.0599330161849
 20
217.138990073366
 10
420.4781405010696
 20
217.1100605936385
 10
420.8909741690717
 20
217.0658636758362
 10
421.2962079572571
 20
217.0066378194059
 10
421.6916561567209
 20
216.9327022005524
 10
422.0751861782154
 20
216.8444555519776
  0
LINE
  5
9D
330
2
100
AcDbEntity
  8
0
100
AcDbLine
 10
422.12221149899
 20
216.8851806743339
 30
0.0
 11
422.0751861782154
 21
216.8444555519776
 31
0.0
  0
LWPOLYLINE
  5
9E
330
2
100
AcDbEntity
  8
0
100
AcDbPolyline
 90
       11
 70
   128
 43
0.0
 10
422.6888655770421
 20
216.6647102116944
 10
422.973003808558
 20
216.5628089947099
 10
423.2987880191477
 20
216.4285427504648
 10
423.6039871057589
 20
216.2826843011803
 10
423.88695531564
 20
216.1260205182501
 10
424.1461664211231
 20
215.9593960952114
 10
424.3802220676608
 20
215.7837096724005
 10
424.5878608187409
 20
215.5999086612112
 10
424.7679623596495
 20
215.4089840004691
 10
424.9195560777742
 20
215.211965847737
 10
425.0396708200351
 20
215.0139988331837
  0
LWPOLYLINE
  5
9F
330
2
100
AcDbEntity
  8
0
100
AcDbPolyline
 90
       94
 70
   128
 43
0.0
 10
413.7283598214528
 20
212.4731224784763
 10
413.5172390824997
 20
212.2751306380156
 10
413.3333327478031
 20
212.0704638628145
 10
413.1774802417677
 20
211.8600566223339
 10
413.0503920457512
 20
211.6448681521945
 10
412.952648703562
 20
211.425881275446
 10
412.8846955945274
 20
211.204094385931
 10
412.8468433131018
 20
210.9805198732081
 10
412.8392637110788
 20
210.7561772047129
 10
412.8619931098739
 20
210.5320912658937
 10
412.9149258044972
 20
210.3092832440964
 10
412.9978209656355
 20
210.088770101693
 10
413.1103007755065
 20
209.8715585194546
 10
413.2518521682924
 20
209.6586392650551
 10
413.4218285508184
 20
209.4509837650058
 10
413.6194550269275
 20
209.2495396659435
 10
413.8438295703765
 20
209.055226099353
 10
414.09392808317
 20
208.8689292902963
 10
414.3686097602977
 20
208.6914995434491
 10
414.6666211889534
 20
208.5237463959513
 10
414.9866026797118
 20
208.3664353240804
 10
415.3270941205773
 20
208.2202838554734
 10
415.6865422527141
 20
208.0859594683713
 10
416.063306496644
 20
207.9640742463859
 10
416.4556684287198
 20
207.855185073628
 10
416.8618372637008
 20
207.7597883883577
 10
417.2799598646983
 20
207.6783194916469
 10
417.7081285742233
 20
207.611150286674
 10
418.1443897324855
 20
207.5585868196952
 10
418.5867521757566
 20
207.5208690252115
 10
419.0331982078641
 20
207.498169756718
 10
419.4816912090248
 20
207.490591857656
 10
419.9301834799255
 20
207.4981695606958
 10
420.3766296665766
 20
207.5208690089439
 10
420.81899253068
 20
207.5585865899026
 10
421.2552533516629
 20
207.6111503293023
 10
421.683421524395
 20
207.6783193187488
 10
422.1015442022594
 20
207.7597882594507
 10
422.5077134415069
 20
207.855185399707
 10
422.9000749545392
 20
207.9640744046771
 10
423.2768394870723
 20
208.0859591322846
 10
423.6362873843064
 20
208.2202837803948
 10
423.976779078259
 20
208.3664349887604
 10
424.2967607141069
 20
208.5237460768563
 10
424.5947723537748
 20
208.6914990719825
 10
424.8694541520166
 20
208.8689287885511
 10
425.119552996468
 20
209.0552260403719
 10
425.3439273292878
 20
209.2495399125575
 10
425.5415535779463
 20
209.4509839652864
 10
425.7115299626867
 20
209.658639531216
 10
425.8530808535573
 20
209.8715588540507
 10
425.9655608327916
 20
210.0887705107716
 10
426.0484563042949
 20
210.3092833433637
 10
426.1013891536745
 20
210.5320908977827
 10
426.1241177455553
 20
210.7561773645797
 10
426.1165385953241
 20
210.9805196607478
 10
426.0786863522683
 20
211.2040943958109
 10
426.0107330405255
 20
211.425881021848
 10
425.912989691182
 20
211.6448683234743
 10
425.7859020307241
 20
211.8600563952242
 10
425.6300493652048
 20
212.0704639246916
 10
425.4461428694916
 20
212.2751305183071
 10
425.2350220180694
 20
212.4731224946589
 10
424.99764989401
 20
212.6635364365685
 10
424.7351105916242
 20
212.8455036048898
 10
424.4486005508202
 20
213.0181935392173
 10
424.1394273763273
 20
213.180818428589
 10
423.8090022285207
 20
213.3326360411277
 10
423.4588326596485
 20
213.472953989941
 10
423.0905163363964
 20
213.6011319119765
 10
422.7057337907746
 20
213.7165850258901
 10
422.3062405889399
 20
213.8187863929227
 10
421.8938595424376
 20
213.9072695314942
 10
421.4704723700402
 20
213.9816311907261
 10
421.0380108556306
 20
214.041531704671
 10
420.5984481666306
 20
214.0866978648474
 10
420.1537899917823
 20
214.116923646582
 10
419.7060651968578
 20
214.1320710748208
 10
419.2573166378527
 20
214.1320710440313
 10
418.8095919853773
 20
214.1169237689309
 10
418.3649339175893
 20
214.086697951552
 10
417.9253709373456
 20
214.0415316005914
 10
417.4929095360011
 20
213.9816309958963
 10
417.0695226236323
 20
213.907269631954
 10
416.6571414622336
 20
213.8187861501416
 10
416.2576482142361
 20
213.7165850243144
 10
415.8728654323908
 20
213.6011319009042
 10
415.5045491577721
 20
213.4729541259173
 10
415.1543795512115
 20
213.3326361218277
 10
414.823954508336
 20
213.1808182999375
 10
414.5147812427946
 20
213.0181932617288
 10
414.2282714650427
 20
212.8455035267875
 10
413.9657313790796
 20
212.6635363602974
 10
413.7283598214528
 20
212.4731224784763
  0
LWPOLYLINE
  5
A0
330
2
100
AcDbEntity
  8
0
100
AcDbPolyline
 90
       48
 70
   128
 43
0.0
 10
412.4831664490436
 20
210.4627461729678
 10
412.493302199989
 20
210.422462630056
 10
412.5684377758633
 20
210.1949158500341
 10
412.6731777287802
 20
209.9703139496955
 10
412.807072840521
 20
209.7496182741452
 10
412.969549478773
 20
209.5337733260856
 10
413.159911386792
 20
209.3237033181185
 10
413.3773452149933
 20
209.1203091104469
 10
413.6209180581748
 20
208.9244601287417
 10
413.8895877105893
 20
208.7369958004308
 10
414.1822041636402
 20
208.5587192602717
 10
414.4975136345355
 20
208.3903932563723
 10
414.8341653947404
 20
208.2327381790676
 10
415.1907196382454
 20
208.0864305222543
 10
415.5656478771867
 20
207.9520954416186
 10
415.9573453004396
 20
207.830309049199
 10
416.3641343688351
 20
207.721592246162
 10
416.7842738105857
 20
207.6264110570579
 10
417.2159630900635
 20
207.5451724088082
 10
417.6573555054668
 20
207.4782254789693
 10
418.1065594318571
 20
207.4258554750218
 10
418.5616520862724
 20
207.3882869879545
 10
419.0206843885918
 20
207.3656818565045
 10
419.48169112841
 20
207.3581362322764
 10
419.9426973503006
 20
207.3656816671683
 10
420.4017302999231
 20
207.3882875272176
 10
420.8568227608716
 20
207.4258556324186
 10
421.3060267145166
 20
207.4782251067699
 10
421.7474184565118
 20
207.5451723666057
 10
422.1791088285691
 20
207.6264110978977
 10
422.5992477850128
 20
207.7215924035589
 10
423.0060362343818
 20
207.8303087125162
 10
423.3977341581448
 20
207.9520950997403
 10
423.7726624294086
 20
208.0864302267944
 10
424.1292161330543
 20
208.2327383585664
 10
424.4658690076429
 20
208.3903932101243
 10
424.7811775475287
 20
208.5587189610217
 10
425.0737941983053
 20
208.7369959715403
 10
425.3424638893021
 20
208.924460318376
 10
425.5860365948043
 20
209.1203089613117
 10
425.8034700422465
 20
209.3237033581066
 10
425.9938329700235
 20
209.5337729203288
 10
426.1563094846914
 20
209.749618152137
 10
426.2902046020965
 20
209.9703141799566
 10
426.3949437432014
 20
210.1949160270204
 10
426.4700800091349
 20
210.4224623754784
 10
426.5152908215187
 20
210.6519783679849
 10
426.5286818012659
 20
210.805068810424
  0
LWPOLYLINE
  5
A1
330
2
100
AcDbEntity
  8
0
100
AcDbPolyline
 90
       50
 70
   128
 43
0.0
 10
412.4124589962685
 20
210.9598000447168
 10
412.4275947537593
 20
211.1909749510107
 10
412.4729373853866
 20
211.4211603571097
 10
412.5482925454877
 20
211.6493696678471
 10
412.6533374431382
 20
211.874626255333
 10
412.7876221962933
 20
212.0959652663774
 10
412.9505725205246
 20
212.3124394410215
 10
413.1414893493668
 20
212.5231206876571
 10
413.3595566192886
 20
212.727108093956
 10
413.6038395361556
 20
212.9235276948637
 10
413.8732923796188
 20
213.1115382795895
 10
414.1667608519751
 20
213.2903343775482
 10
414.4829888882204
 20
213.4591508868332
 10
414.8206226109452
 20
213.6172652303322
 10
415.1782151518501
 20
213.763999627165
 10
415.5542363372713
 20
213.8987259908524
 10
415.9470751416341
 20
214.0208674192629
 10
416.3550496675448
 20
214.129900809079
 10
416.7764131514026
 20
214.2253595186405
 10
417.2093609407736
 20
214.3068346512654
 10
417.6520391105919
 20
214.3739769642414
 10
418.1025521597657
 20
214.4264994099578
 10
418.5589710977381
 20
214.4641769997605
 10
419.0193410824949
 20
214.4868482626827
 10
419.4816909819151
 20
214.4944161492424
 10
419.9440409875014
 20
214.4868483979776
 10
420.4044108523371
 20
214.4641769892419
 10
420.8608295542988
 20
214.4264993859395
 10
421.3113428535788
 20
214.3739770844609
 10
421.7540209917987
 20
214.306834491143
 10
422.1869689501922
 20
214.2253596250622
 10
422.6083324051346
 20
214.129900933046
 10
423.0163069642197
 20
214.0208675544299
 10
423.4091457325972
 20
213.8987260379522
 10
423.7851669020916
 20
213.7639996161779
 10
424.142759488861
 20
213.6172650840076
 10
424.4803929409536
 20
213.4591511239506
 10
424.7966209196656
 20
213.290334283817
 10
425.090089438568
 20
213.1115380927233
 10
425.3595424832491
 20
212.9235277747544
 10
425.6038251814382
 20
212.7271082351704
 10
425.8218925105967
 20
212.5231208135831
 10
426.0128093801935
 20
212.3124392303073
 10
426.1757594868115
 20
212.0959651982403
 10
426.3100447416694
 20
211.8746260233687
 10
426.4150897917343
 20
211.649369636206
 10
426.4904448919598
 20
211.4211600984865
 10
426.5357872988197
 20
211.190975003093
 10
426.5509231909236
 20
210.9598001564192
 10
426.5509231909236
 20
210.9598001564192
  0
LWPOLYLINE
  5
A2
330
2
100
AcDbEntity
  8
0
100
AcDbPolyline
 90
       90
 70
   128
 43
0.0
 10
424.7186972782392
 20
209.300485333873
 10
424.4923717198288
 20
209.1195446024835
 10
424.2410823943213
 20
208.9470369072059
 10
423.9660827847051
 20
208.7838218867
 10
423.6687418997818
 20
208.6307126408279
 10
423.3505415660133
 20
208.4884721157642
 10
423.0130661496666
 20
208.3578080110388
 10
422.6579979903021
 20
208.2393726319367
 10
422.287105599119
 20
208.1337545727579
 10
421.9022365992604
 20
208.0414814872338
 10
421.5053087570892
 20
207.9630116864455
 10
421.0982989909353
 20
207.8987373119733
 10
420.683236390445
 20
207.8489782903399
 10
420.262186783849
 20
207.8139816593896
 10
419.8372488905555
 20
207.7939226785406
 10
419.4105396473408
 20
207.7889010046294
 10
418.9841855198801
 20
207.7989417346642
 10
418.5603096277594
 20
207.823994725944
 10
418.141023245854
 20
207.863934851233
 10
417.7284169264376
 20
207.9185638287958
 10
417.3245447061765
 20
207.9876089193607
 10
416.931419415058
 20
208.0707264787912
 10
416.5509999714013
 20
208.1675026945636
 10
416.1851805474968
 20
208.2774545152013
 10
415.8357845376323
 20
208.4000350551279
 10
415.5045518201895
 20
208.5346328756068
 10
415.1931331538731
 20
208.680577998572
 10
414.9030801155523
 20
208.8371433460673
 10
414.6358371988623
 20
209.0035484865569
 10
414.3927363783891
 20
209.1789648677743
 10
414.1749884588048
 20
209.3625183142489
 10
413.9836779953695
 20
209.5532941571401
 10
413.8197584041495
 20
209.7503423096059
 10
413.6840464076483
 20
209.9526810684309
 10
413.5772177073266
 20
210.1593020270148
 10
413.4998052594356
 20
210.3691764351262
 10
413.4521939492445
 20
210.5812582017076
 10
413.4346214413501
 20
210.7944909768837
 10
413.4471749475885
 20
211.0078120160621
 10
413.4897922146424
 20
211.2201592221671
 10
413.5622606275263
 20
211.430474335608
 10
413.6642195710069
 20
211.6377095797845
 10
413.7951607501467
 20
211.8408326980834
 10
413.9544321675136
 20
212.0388316675663
 10
414.1412401775157
 20
212.2307199678901
 10
414.354653463655
 20
212.4155412952063
 10
414.593609744204
 20
212.5923756865012
 10
414.8569183104855
 20
212.7603417180417
 10
415.1432672820767
 20
212.9186024709552
 10
415.4512297823373
 20
213.0663696106449
 10
415.7792720379609
 20
213.2029069106319
 10
416.1257595542456
 20
213.3275343316296
 10
416.4889659965633
 20
213.4396309536563
 10
416.8670819336799
 20
213.5386379473274
 10
417.2582243011556
 20
213.624062803343
 10
417.6604433458866
 20
213.6954791593765
 10
418.0717360115253
 20
213.7525317293312
 10
418.4900527031399
 20
213.7949358156479
 10
418.9133099103485
 20
213.8224806267765
 10
419.3393989120151
 20
213.8350289623401
 10
419.7661964497661
 20
213.8325177957922
 10
420.1915769447746
 20
213.814960243326
 10
420.61342056107
 20
213.7824432361385
 10
421.0296262167581
 20
213.7351292600568
 10
421.4381199180484
 20
213.6732535834207
 10
421.8368668577352
 20
213.5971247945139
 10
422.2238802685565
 20
213.5071218794593
 10
422.5972324374856
 20
213.4036936074083
 10
422.955062847483
 20
213.287354714561
 10
423.2955896462615
 20
213.1586855245997
 10
423.6171153612494
 20
213.0183262685609
 10
423.9180386856165
 20
212.866976980117
 10
424.1968605201286
 20
212.705390988476
 10
424.4521915200168
 20
212.5343738387908
 10
424.6827593209712
 20
212.3547771763364
 10
424.88741614823
 20
212.16749581708
 10
425.0651419208671
 20
211.9734628213207
 10
425.2150510986001
 20
211.7736449528148
 10
425.3363969279692
 20
211.5690377891674
 10
425.4285750115331
 20
211.3606599285968
 10
425.4911258853731
 20
211.1495507803733
 10
425.5237383956695
 20
210.9367607973131
 10
425.5262490638791
 20
210.7233509260811
 10
425.4986467322416
 20
210.5103839387372
 10
425.4410678896113
 20
210.2989210192766
 10
425.3537999229219
 20
210.0900156957165
 10
425.237277372366
 20
209.8847086928006
 10
425.0920804691299
 20
209.6840228585479
 10
424.9189330389397
 20
209.488957541147
 10
424.7186972782392
 20
209.300485333873
  0
LWPOLYLINE
  5
A3
330
2
100
AcDbEntity
  8
0
100
AcDbPolyline
 90
       61
 70
   128
 43
0.0
 10
414.6725889576775
 20
212.6453674707048
 10
414.5069433211999
 20
212.5106237093821
 10
414.3126616409335
 20
212.3273967277884
 10
414.1453292450919
 20
212.137638024852
 10
414.0058183193266
 20
211.9423370944227
 10
413.894855449431
 20
211.7425115392342
 10
413.8130205091687
 20
211.5392037282658
 10
413.7607386005416
 20
211.3334728649353
 10
413.7382835932596
 20
211.1263924997519
 10
413.7457716287991
 20
210.919041414414
 10
413.783164384939
 20
210.712501213884
 10
413.8502669042714
 20
210.5078488931329
 10
413.9467287685048
 20
210.3061506360194
 10
414.0720469875215
 20
210.1084580504974
 10
414.2255692669387
 20
209.9158028286213
 10
414.4064937784865
 20
209.7291880201313
 10
414.613879024525
 20
209.5495881157102
 10
414.8466419436593
 20
209.3779378698024
 10
415.103570137319
 20
209.2151331677457
 10
415.3833237469774
 20
209.0620224235373
 10
415.6844443349824
 20
208.9194040161303
 10
416.0053625188158
 20
208.788021887602
 10
416.344404071882
 20
208.6685601179439
 10
416.6998021480416
 20
208.5616423274139
 10
417.0697037093328
 20
208.4678254243541
 10
417.4521803604198
 20
208.3875986759272
 10
417.8452376059229
 20
208.321380302919
 10
418.2468266985361
 20
208.2695155249255
 10
418.6548541516584
 20
208.2322752799696
 10
419.0671921810753
 20
208.2098532100278
 10
419.4816909455044
 20
208.2023657914279
 10
419.8961896880016
 20
208.209852782169
 10
420.3085278975136
 20
208.2322754654303
 10
420.7165551808042
 20
208.2695159979678
 10
421.1181443929981
 20
208.3213802145535
 10
421.5112014050886
 20
208.3875984718137
 10
421.893678718469
 20
208.4678253818961
 10
422.2635797368772
 20
208.5616422430942
 10
422.6189779222266
 20
208.6685603028512
 10
422.9580191626284
 20
208.7880215397191
 10
423.2789378010219
 20
208.919404294641
 10
423.58005828367
 20
209.0620227953959
 10
423.8598118231469
 20
209.2151333371092
 10
424.1167396561906
 20
209.377937738681
 10
424.3495032365111
 20
209.5495877277115
 10
424.5568880421703
 20
209.7291882377444
 10
424.7378127540843
 20
209.9158028190394
 10
424.8913343327958
 20
210.1084580350389
 10
425.0166534350832
 20
210.3061506914661
 10
425.1131150485291
 20
210.507848386022
 10
425.1802170188462
 20
210.7125013354237
 10
425.2176099649608
 20
210.9190416669901
 10
425.2250983840275
 20
211.1263926253373
 10
425.2026434450105
 20
211.3334728953414
 10
425.1503615554618
 20
211.5392036105162
 10
425.0685264353601
 20
211.7425114179075
 10
424.9575636047709
 20
211.9423370307996
 10
424.8180524576453
 20
212.1376382934829
 10
424.6507199449481
 20
212.3273967677338
 10
424.4564387392999
 20
212.510623758313
 10
424.290792992866
 20
212.6453672578186
  0
SPLINE
  5
A4
330
2
100
AcDbEntity
  8
0
100
AcDbSpline
210
0.0
220
0.0
230
1.0
 70
     8
 71
     3
 72
     9
 73
     5
 74
     0
 42
0.000000001
 43
0.0000000001
 40
0.0
 40
0.0
 40
0.0
 40
0.0
 40
0.3570142411719741
 40
1.0
 40
1.0
 40
1.0
 40
1.0
 10
413.6984921355455
 20
214.3296915136251
 30
0.0
 10
413.6966323868763
 20
214.282271126553
 30
0.0
 10
413.6914232146508
 20
214.1494462092151
 30
0.0
 10
413.6862121541885
 20
214.0159833157049
 30
0.0
 10
413.6828615165229
 20
213.9301685758458
 30
0.0
  0
LWPOLYLINE
  5
A5
330
2
100
AcDbEntity
  8
0
100
AcDbPolyline
 90
       28
 70
   128
 43
0.0
 10
413.6984921355366
 20
214.3296915136353
 10
413.7329775480813
 20
214.5442403674209
 10
413.7992567212111
 20
214.7569144353057
 10
413.8969622873839
 20
214.9665374611039
 10
414.0255551106045
 20
215.1719505332457
 10
414.1843227353251
 20
215.372016928606
 10
414.3723887156597
 20
215.5656311438327
 10
414.5887112215087
 20
215.7517214955454
 10
414.8320942909887
 20
215.9292585961317
 10
415.1011928874472
 20
216.0972619542388
 10
415.394517550674
 20
216.2548008301494
 10
415.7104470888568
 20
216.4010052268625
 10
416.0472331022509
 20
216.5350656835094
 10
416.4030137086887
 20
216.6562410368599
 10
416.775821145559
 20
216.7638613562882
 10
417.1635935261965
 20
216.8573311444315
 10
417.56418644888
 20
216.9361336799984
 10
417.9753840336901
 20
216.9998329609128
 10
418.3949124387565
 20
217.0480767635457
 10
418.8204510603886
 20
217.0805981723522
 10
419.2496470293041
 20
217.0972176235181
 10
419.6801263041676
 20
217.0978429999265
 10
420.1095078951009
 20
217.0824706544923
 10
420.5354174064988
 20
217.0511858968753
 10
420.9554992644582
 20
217.0041616623349
 10
421.3674301243854
 20
216.9416579383982
 10
421.7689318139945
 20
216.8640205931568
 10
422.157783791379
 20
216.771678878209
  0
SPLINE
  5
A6
330
2
100
AcDbEntity
  8
0
100
AcDbSpline
210
0.0
220
0.0
230
1.0
 70
     8
 71
     3
 72
     9
 73
     5
 74
     0
 42
0.000000001
 43
0.0000000001
 40
0.0
 40
0.0
 40
0.0
 40
0.0
 40
0.9717071016460058
 40
1.0
 40
1.0
 40
1.0
 40
1.0
 10
422.1152682790584
 20
214.2350385126035
 30
0.0
 10
422.1260383487311
 20
215.0576417447013
 30
0.0
 10
422.1371220072267
 20
215.9041964634066
 30
0.0
 10
422.1572152940716
 20
216.7478105894751
 30
0.0
 10
422.1577837913939
 20
216.771678878194
 30
0.0
  0
LINE
  5
A7
330
2
100
AcDbEntity
  8
0
100
AcDbLine
 10
415.0121808838788
 20
213.6974142168672
 30
0.0
 11
415.033789956079
 21
215.0572475182843
 31
0.0
  0
LINE
  5
A8
330
2
100
AcDbEntity
  8
0
100
AcDbLine
 10
414.5023880487654
 20
212.4426241107784
 30
0.0
 11
414.4675809747125
 21
212.4759821722965
 31
0.0
  0
LWPOLYLINE
  5
A9
330
2
100
AcDbEntity
  8
0
100
AcDbPolyline
 90
        9
 70
   128
 43
0.0
 10
422.157783791379
 20
216.771678878209
 10
422.2006351710383
 20
216.8110307457951
 10
422.2681490795531
 20
216.8404941063525
 10
422.351923791547
 20
216.8564026428929
 10
422.4415339210827
 20
216.8567762692603
 10
422.52582725284
 20
216.8415685025719
 10
422.5943146806991
 20
216.8126722629267
 10
422.6384727430218
 20
216.7736830857339
 10
422.6527892652383
 20
216.7341322375383
  0
LINE
  5
AA
330
2
100
AcDbEntity
  8
0
100
AcDbLine
 10
423.9295921478582
 20
215.0572475294418
 30
0.0
 11
423.9513400268545
 21
213.6886503648474
 31
0.0
  0
LWPOLYLINE
  5
AB
330
2
100
AcDbEntity
  8
0
100
AcDbPolyline
 90
       15
 70
   128
 43
0.0
 10
422.6571843046308
 20
216.6251633513973
 10
422.9431632713028
 20
216.525049169171
 10
423.2783859425815
 20
216.3900125103637
 10
423.5926112042267
 20
216.2428930181864
 10
423.8841004279181
 20
216.0845043749464
 10
424.1512418702556
 20
215.9157225551916
 10
424.3925583437268
 20
215.7374810466539
 10
424.6067148027599
 20
215.5507653629924
 10
424.7925268816953
 20
215.356608380826
 10
424.9489675288339
 20
215.1560840282716
 10
425.075171357506
 20
214.9503008996394
 10
425.1704394841945
 20
214.7403975612927
 10
425.234246224929
 20
214.5275343903465
 10
425.2662377184042
 20
214.3128892093332
 10
425.2690639590857
 20
214.2636219615868
  0
LINE
  5
AC
330
2
100
AcDbEntity
  8
0
100
AcDbLine
 10
424.2222942268528
 20
213.578562832715
 30
0.0
 11
424.2164737872248
 21
214.4153332398887
 31
0.0
  0
LINE
  5
AD
330
2
100
AcDbEntity
  8
0
100
AcDbLine
 10
423.9295921478582
 20
215.0572475294418
 30
0.0
 11
424.1248981961136
 21
215.1136276566807
 31
0.0
  0
LINE
  5
AE
330
2
100
AcDbEntity
  8
0
100
AcDbLine
 10
424.1330614035178
 20
214.3912540371375
 30
0.0
 11
424.1248981961136
 21
215.1136276566807
 31
0.0
  0
LINE
  5
AF
330
2
100
AcDbEntity
  8
0
100
AcDbLine
 10
424.1330614035178
 20
214.3912540371375
 30
0.0
 11
424.2164737872248
 21
214.4153332398887
 31
0.0
  0
LINE
  5
B0
330
2
100
AcDbEntity
  8
0
100
AcDbLine
 10
414.7410418976926
 20
213.5720009312028
 30
0.0
 11
414.7469080002577
 21
214.4153330768705
 31
0.0
  0
LINE
  5
B1
330
2
100
AcDbEntity
  8
0
100
AcDbLine
 10
414.56167194738
 20
214.2990310042028
 30
0.0
 11
414.5248935999908
 21
213.4720232382147
 31
0.0
  0
ARC
  5
B2
330
2
100
AcDbEntity
  8
0
100
AcDbCircle
 10
417.2662644923836
 20
210.1970511073637
 30
0.0
 40
4.913355259739751
100
AcDbArc
 50
120.8476362382007
 51
123.3983951549012
  0
LINE
  5
B3
330
2
100
AcDbEntity
  8
0
100
AcDbLine
 10
424.4384766806986
 20
213.4722875924407
 30
0.0
 11
424.4017101433132
 21
214.299030779989
 31
0.0
  0
ARC
  5
B4
330
2
100
AcDbEntity
  8
0
100
AcDbCircle
 10
421.6973208187543
 20
210.1973820330151
 30
0.0
 40
4.912966930715731
100
AcDbArc
 50
56.60145763819854
 51
59.15242360180069
  0
LINE
  5
B5
330
2
100
AcDbEntity
  8
0
100
AcDbLine
 10
414.7469080002577
 20
214.4153330768705
 30
0.0
 11
414.8303204479709
 21
214.3912539773047
 31
0.0
  0
LINE
  5
B6
330
2
100
AcDbEntity
  8
0
100
AcDbLine
 10
414.8303204479709
 20
214.3912539773047
 30
0.0
 11
414.8384838538251
 21
215.1136275336506
 31
0.0
  0
LINE
  5
B7
330
2
100
AcDbEntity
  8
0
100
AcDbLine
 10
415.033789956079
 20
215.0572475182843
 30
0.0
 11
414.8384838538251
 21
215.1136275336506
 31
0.0
  0
LINE
  5
B8
330
2
100
AcDbEntity
  8
0
100
AcDbLine
 10
424.188380794423
 20
215.0586498400754
 30
0.0
 11
424.1248981961136
 21
215.1136276566807
 31
0.0
  0
LINE
  5
B9
330
2
100
AcDbEntity
  8
0
100
AcDbLine
 10
424.188380794423
 20
215.0586498400754
 30
0.0
 11
424.2148260311553
 21
214.4148576182598
 31
0.0
  0
LINE
  5
BA
330
2
100
AcDbEntity
  8
0
100
AcDbLine
 10
414.8384838538251
 20
215.1136275336506
 30
0.0
 11
414.7750014158934
 21
215.058650129701
 31
0.0
  0
LINE
  5
BB
330
2
100
AcDbEntity
  8
0
100
AcDbLine
 10
414.7485561618712
 20
214.41485747679
 30
0.0
 11
414.7750014158934
 21
215.058650129701
 31
0.0
  0
LINE
  5
BC
330
2
100
AcDbEntity
  8
0
100
AcDbLine
 10
425.1017354336486
 20
214.2676614424188
 30
0.0
 11
425.0749475498816
 21
214.2599283626437
 31
0.0
  0
LINE
  5
BD
330
2
100
AcDbEntity
  8
0
100
AcDbLine
 10
425.1071482497378
 20
213.7886849269107
 30
0.0
 11
425.1017354336486
 21
214.2676614424188
 31
0.0
  0
LINE
  5
BE
330
2
100
AcDbEntity
  8
0
100
AcDbLine
 10
413.861646642608
 20
214.2676616933765
 30
0.0
 11
413.8562388180352
 21
213.7891571105505
 31
0.0
  0
LINE
  5
BF
330
2
100
AcDbEntity
  8
0
100
AcDbLine
 10
413.8884343811575
 20
214.2599287393145
 30
0.0
 11
413.861646642608
 21
214.2676616933765
 31
0.0
  0
LINE
  5
C0
330
2
100
AcDbEntity
  8
0
100
AcDbLine
 10
425.1652186240701
 20
214.212683821282
 30
0.0
 11
425.1017354336486
 21
214.2676614424188
 31
0.0
  0
LINE
  5
C1
330
2
100
AcDbEntity
  8
0
100
AcDbLine
 10
425.179858993337
 20
213.8562682313924
 30
0.0
 11
425.1652186240701
 21
214.212683821282
 31
0.0
  0
LINE
  5
C2
330
2
100
AcDbEntity
  8
0
100
AcDbLine
 10
413.861646642608
 20
214.2676616933765
 30
0.0
 11
413.7981635701066
 21
214.212683739858
 31
0.0
  0
LINE
  5
C3
330
2
100
AcDbEntity
  8
0
100
AcDbLine
 10
413.783529439522
 20
213.8564244654635
 30
0.0
 11
413.7981635701066
 21
214.212683739858
 31
0.0
  0
LWPOLYLINE
  5
C4
330
2
100
AcDbEntity
  8
0
100
AcDbPolyline
 90
        6
 70
   128
 43
0.0
 10
413.3934696016726
 20
214.2078297109507
 10
413.4092242274064
 20
214.2493729488318
 10
413.4546764075142
 20
214.2879883185401
 10
413.5241182933005
 20
214.3163100221173
 10
413.608907497907
 20
214.3308126582596
 10
413.6984921355366
 20
214.3296915136353
  0
LINE
  5
C5
330
2
100
AcDbEntity
  8
0
100
AcDbLine
 10
418.6086995470725
 20
207.3852705207147
 30
0.0
 11
418.6086994567483
 21
207.0333160668547
 31
0.0
  0
LINE
  5
C6
330
2
100
AcDbEntity
  8
0
100
AcDbLine
 10
420.3121294343604
 20
207.3826810668095
 30
0.0
 11
420.3121301160726
 21
207.0333166939723
 31
0.0
  0
LWPOLYLINE
  5
C7
330
2
100
AcDbEntity
  8
0
100
AcDbPolyline
 90
       17
 70
   128
 43
0.0
 10
419.7585148223732
 20
206.1530360992258
 10
419.8399987969895
 20
206.1415747972836
 10
419.9090777496012
 20
206.1089368975426
 10
419.9552355769901
 20
206.0600908932322
 10
419.9714438850342
 20
206.0024727333653
 10
419.9552361245573
 20
205.9448551164236
 10
419.9090781100895
 20
205.8960085553474
 10
419.8399986579471
 20
205.8633701715768
 10
419.7585150505902
 20
205.8519096441414
 10
419.6770303564035
 20
205.8633698257382
 10
419.607952123363
 20
205.8960089832062
 10
419.5617948455428
 20
205.9448546915032
 10
419.5455865374984
 20
206.0024728513702
 10
419.5617942979754
 20
206.0600904682692
 10
419.6079517628745
 20
206.108937325444
 10
419.6770312150168
 20
206.1415757091719
 10
419.7585148223732
 20
206.1530360992258
  0
LWPOLYLINE
  5
C8
330
2
100
AcDbEntity
  8
0
100
AcDbPolyline
 90
       17
 70
   128
 43
0.0
 10
419.7585150021279
 20
206.8757399951157
 10
419.8399989767438
 20
206.8642786931734
 10
419.9090779293555
 20
206.8316407934325
 10
419.9552357567445
 20
206.782794789122
 10
419.9714435152197
 20
206.7251767878868
 10
419.9552350351293
 20
206.6675579132183
 10
419.9090782898434
 20
206.6187124512372
 10
419.8399988377015
 20
206.5860740674668
 10
419.7585152303449
 20
206.5746135400312
 10
419.677029986589
 20
206.5860738802599
 10
419.6079523031172
 20
206.618712879096
 10
419.5617944757282
 20
206.6675587460248
 10
419.5455867172531
 20
206.7251767472601
 10
419.5617944777297
 20
206.782794364159
 10
419.607951942629
 20
206.8316412213339
 10
419.6770313947713
 20
206.8642796050617
 10
419.7585150021279
 20
206.8757399951157
  0
LWPOLYLINE
  5
C9
330
2
100
AcDbEntity
  8
0
100
AcDbPolyline
 90
       17
 70
   128
 43
0.0
 10
419.1623138641957
 20
206.5143876215903
 10
419.2437991079941
 20
206.5029272813616
 10
419.3128786101324
 20
206.4702892229888
 10
419.3590346188121
 20
206.4214424155966
 10
419.3752429268563
 20
206.3638242557295
 10
419.3590351663798
 20
206.306206638788
 10
419.3128777014806
 20
206.2573597816557
 10
419.2437995184781
 20
206.2247226344472
 10
419.1623140924127
 20
206.2132611665058
 10
419.0808306673655
 20
206.2247224471978
 10
419.0117511651851
 20
206.2573603681891
 10
418.965593887365
 20
206.3062062138675
 10
418.9493855793209
 20
206.3638243737346
 10
418.9655946089803
 20
206.4214430897714
 10
419.0117508046966
 20
206.4702887104269
 10
419.0808302568392
 20
206.5029270941547
 10
419.1623138641957
 20
206.5143876215903
  0
LINE
  5
CA
330
2
100
AcDbEntity
  8
0
100
AcDbLine
 10
418.6086999972464
 20
207.000250002133
 30
0.0
 11
418.6086999939247
 21
205.7220786232302
 31
0.0
  0
LINE
  5
CB
330
2
100
AcDbEntity
  8
0
100
AcDbLine
 10
420.3121301070019
 20
207.0002507878825
 30
0.0
 11
420.3121293840665
 21
205.7220781512099
 31
0.0
  0
LWPOLYLINE
  5
CC
330
2
100
AcDbEntity
  8
0
100
AcDbPolyline
 90
        9
 70
   128
 43
0.0
 10
418.6086994567483
 20
207.0333160668547
 10
418.608700991751
 20
207.0308899587533
 10
418.6086999124156
 20
207.0279442639365
 10
418.6087004178656
 20
207.0244948064967
 10
418.608700361567
 20
207.0205535636719
 10
418.6087003052263
 20
207.0161386004157
 10
418.6086995415363
 20
207.0112685311231
 10
418.608699731341
 20
207.0059652251018
 10
418.6086999972464
 20
207.000250002133
  0
LWPOLYLINE
  5
CD
330
2
100
AcDbEntity
  8
0
100
AcDbPolyline
 90
        9
 70
   128
 43
0.0
 10
420.3121301160726
 20
207.0333166939723
 10
420.3121298323667
 20
207.0308896454074
 10
420.3121300221713
 20
207.0279450496858
 10
420.3121298080501
 20
207.0244943344765
 10
420.312129202183
 20
207.0205532503261
 10
420.312129145842
 20
207.0161382870274
 10
420.3121296512921
 20
207.0112693168725
 10
420.3121291215253
 20
207.0059647531241
 10
420.3121301070019
 20
207.0002507878825
  0
LINE
  5
CE
330
2
100
AcDbEntity
  8
0
100
AcDbLine
 10
420.2695439598567
 20
205.3122562015422
 30
0.0
 11
418.6512863349204
 21
205.3122562714679
 31
0.0
  0
LINE
  5
CF
330
2
100
AcDbEntity
  8
0
100
AcDbLine
 10
420.2695436314356
 20
205.2909626893791
 30
0.0
 11
418.6512854569302
 21
205.2909629179793
 31
0.0
  0
ARC
  5
D0
330
2
100
AcDbEntity
  8
0
100
AcDbCircle
 10
418.6486233211428
 20
205.3522089279073
 30
0.0
 40
0.040041308673888
100
AcDbArc
 50
184.401275501099
 51
273.813365765698
  0
ARC
  5
D1
330
2
100
AcDbEntity
  8
0
100
AcDbCircle
 10
418.6486230671189
 20
205.3309148295942
 30
0.0
 40
0.0400405239583585
100
AcDbArc
 50
184.3987154830987
 51
273.8125457121987
  0
LINE
  5
D2
330
2
100
AcDbEntity
  8
0
100
AcDbLine
 10
418.6087004836606
 20
205.3278438545305
 30
0.0
 11
418.6087000925104
 21
205.3491361088814
 31
0.0
  0
ARC
  5
D3
330
2
100
AcDbEntity
  8
0
100
AcDbCircle
 10
420.2722066313724
 20
205.3522078996321
 30
0.0
 40
0.0400403296694394
100
AcDbArc
 50
266.1870317251984
 51
355.5996427419993
  0
LINE
  5
D4
330
2
100
AcDbEntity
  8
0
100
AcDbLine
 10
418.6087000925104
 20
205.5678619729787
 30
0.0
 11
418.6087000925104
 21
205.3491361088814
 31
0.0
  0
LINE
  5
D5
330
2
100
AcDbEntity
  8
0
100
AcDbLine
 10
420.3121289331263
 20
205.5678616596329
 30
0.0
 11
420.3121289331263
 21
205.349135795493
 31
0.0
  0
ARC
  5
D6
330
2
100
AcDbEntity
  8
0
100
AcDbCircle
 10
420.272204884293
 20
205.3309173079135
 30
0.0
 40
0.0400431493043274
100
AcDbArc
 50
266.1893349645002
 51
355.5973395060993
  0
LINE
  5
D7
330
2
100
AcDbEntity
  8
0
100
AcDbLine
 10
420.3121289331263
 20
205.349135795493
 30
0.0
 11
420.3121298738452
 21
205.3278433825103
 31
0.0
  0
LWPOLYLINE
  5
D8
330
2
100
AcDbEntity
  8
0
100
AcDbPolyline
 90
        9
 70
   128
 43
0.0
 10
418.6086999939247
 20
205.7220786232302
 10
418.6086997397731
 20
205.7061560282873
 10
418.6086999373283
 20
205.6882461866528
 10
418.6087002352155
 20
205.6688268586964
 10
418.6086994195708
 20
205.6484157595331
 10
418.6087003603324
 20
205.6275606128691
 10
418.608699897255
 20
205.6068160581636
 10
418.6087001317745
 20
205.5867378264334
 10
418.6087000925104
 20
205.5678619729787
  0
LWPOLYLINE
  5
D9
330
2
100
AcDbEntity
  8
0
100
AcDbPolyline
 90
        9
 70
   128
 43
0.0
 10
420.3121293840665
 20
205.7220781512099
 10
420.3121298495288
 20
205.7061568140367
 10
420.3121293275128
 20
205.6882457146325
 10
420.3121296253574
 20
205.6688263867187
 10
420.3121300788953
 20
205.6484163866507
 10
420.312129200948
 20
205.6275602995233
 10
420.3121300070107
 20
205.6068168439129
 10
420.3121302415302
 20
205.5867386121827
 10
420.3121289331263
 20
205.5678616596329
  0
LINE
  5
DA
330
2
100
AcDbEntity
  8
0
100
AcDbLine
 10
425.8346484751658
 20
214.2166042626364
 30
0.0
 11
426.4345707139082
 21
214.4002584896143
 31
0.0
  0
ARC
  5
DB
330
2
100
AcDbEntity
  8
0
100
AcDbCircle
 10
426.2713373817493
 20
214.8981697680198
 30
0.0
 40
0.5239854596237381
100
AcDbArc
 50
288.1510156503992
 51
322.8380299366999
  0
LINE
  5
DC
330
2
100
AcDbEntity
  8
0
100
AcDbLine
 10
426.6889176609985
 20
214.581645721102
 30
0.0
 11
426.7769179023812
 21
214.6950499855893
 31
0.0
  0
ARC
  5
DD
330
2
100
AcDbEntity
  8
0
100
AcDbCircle
 10
426.9511152102245
 20
214.5607219688198
 30
0.0
 40
0.2199743579326036
100
AcDbArc
 50
119.4236524608015
 51
142.3632609070996
  0
LINE
  5
DE
330
2
100
AcDbEntity
  8
0
100
AcDbLine
 10
426.8430498679546
 20
214.7523220730811
 30
0.0
 11
428.6107038748428
 21
215.7362410680707
 31
0.0
  0
ARC
  5
DF
330
2
100
AcDbEntity
  8
0
100
AcDbCircle
 10
428.6934994541387
 20
215.5927153878581
 30
0.0
 40
0.1656946855929847
100
AcDbArc
 50
92.22503030769905
 51
119.9793337366005
  0
LINE
  5
E0
330
2
100
AcDbEntity
  8
0
100
AcDbLine
 10
428.6870664665436
 20
215.7582851480976
 30
0.0
 11
430.1991600776495
 21
215.7896246175667
 31
0.0
  0
ARC
  5
E1
330
2
100
AcDbEntity
  8
0
100
AcDbCircle
 10
430.203988618441
 20
215.6850328466956
 30
0.0
 40
0.1047031677726729
100
AcDbArc
 50
356.5290162508014
 51
92.64321674009856
  0
LINE
  5
E2
330
2
100
AcDbEntity
  8
0
100
AcDbLine
 10
430.308499717409
 20
215.6786937978651
 30
0.0
 11
430.308499717409
 21
215.4599679337252
 31
0.0
  0
LINE
  5
E3
330
2
100
AcDbEntity
  8
0
100
AcDbLine
 10
430.2716196209042
 20
215.6680472904842
 30
0.0
 11
430.2716196209042
 21
215.449321426387
 31
0.0
  0
ARC
  5
E4
330
2
100
AcDbEntity
  8
0
100
AcDbCircle
 10
430.193236010704
 20
215.6728014082759
 30
0.0
 40
0.0785276510732839
100
AcDbArc
 50
356.5291518318007
 51
92.64328514749808
  0
LINE
  5
E5
330
2
100
AcDbEntity
  8
0
100
AcDbLine
 10
428.6775214371839
 20
215.7199057415579
 30
0.0
 11
430.1896144987206
 21
215.7512455070829
 31
0.0
  0
ARC
  5
E6
330
2
100
AcDbEntity
  8
0
100
AcDbCircle
 10
428.6823437851579
 20
215.595733687775
 30
0.0
 40
0.1242656589081606
100
AcDbArc
 50
92.22402218730108
 51
119.9797981452003
  0
LINE
  5
E7
330
2
100
AcDbEntity
  8
0
100
AcDbLine
 10
426.8525954468406
 20
214.7194537895844
 30
0.0
 11
428.6202489042026
 21
215.7033728058666
 31
0.0
  0
ARC
  5
E8
330
2
100
AcDbEntity
  8
0
100
AcDbCircle
 10
426.9336324084556
 20
214.5757678206703
 30
0.0
 40
0.1649625618622474
100
AcDbArc
 50
119.4224159532002
 51
142.3645427608009
  0
LINE
  5
E9
330
2
100
AcDbEntity
  8
0
100
AcDbLine
 10
426.7149958006936
 20
214.563095824225
 30
0.0
 11
426.8029965916452
 21
214.6764997926988
 31
0.0
  0
ARC
  5
EA
330
2
100
AcDbEntity
  8
0
100
AcDbCircle
 10
426.2556543425928
 20
214.9112752932467
 30
0.0
 40
0.5763883393820742
100
AcDbArc
 50
288.1512548900996
 51
322.8379801076997
  0
LINE
  5
EB
330
2
100
AcDbEntity
  8
0
100
AcDbLine
 10
425.8352922476322
 20
214.17991515425
 30
0.0
 11
426.4352146450489
 21
214.3635695186096
 31
0.0
  0
ARC
  5
EC
330
2
100
AcDbEntity
  8
0
100
AcDbCircle
 10
426.410616421973
 20
212.3586393183739
 30
0.0
 40
1.909985229224488
100
AcDbArc
 50
107.5308442951985
 51
128.6673807086993
  0
LINE
  5
ED
330
2
100
AcDbEntity
  8
0
100
AcDbLine
 10
425.2172610027177
 20
213.8910332734957
 30
0.0
 11
425.2172610027177
 21
213.8499295044674
 31
0.0
  0
ARC
  5
EE
330
2
100
AcDbEntity
  8
0
100
AcDbCircle
 10
426.4219986861546
 20
212.3546307991168
 30
0.0
 40
1.95241528605154
100
AcDbArc
 50
107.5076192236991
 51
128.1010221261992
  0
ARC
  5
EF
330
2
100
AcDbEntity
  8
0
100
AcDbCircle
 10
430.3523508929611
 20
215.4486368166714
 30
0.0
 40
0.0807341748058752
100
AcDbArc
 50
179.5141373778998
 51
222.5893198041997
  0
ARC
  5
F0
330
2
100
AcDbEntity
  8
0
100
AcDbCircle
 10
430.3892348502038
 20
215.4592848099963
 30
0.0
 40
0.0807380227887399
100
AcDbArc
 50
179.5152151043997
 51
222.5882420776994
  0
LINE
  5
F1
330
2
100
AcDbEntity
  8
0
100
AcDbLine
 10
431.16021483344
 20
214.941087127674
 30
0.0
 11
431.16021483344
 21
214.7223612635767
 31
0.0
  0
LWPOLYLINE
  5
F2
330
2
100
AcDbEntity
  8
0
100
AcDbPolyline
 90
        9
 70
   128
 43
0.0
 10
431.138921977353
 20
214.7039210465569
 10
431.1430758358451
 20
214.7010322179619
 10
431.1470699636791
 20
214.6996718453764
 10
431.1507512700793
 20
214.6998918161111
 10
431.153977910013
 20
214.7016839375223
 10
431.1566261622123
 20
214.7049794169127
 10
431.1585940152752
 20
214.7096514443133
 10
431.1598055469712
 20
214.7155205229398
 10
431.16021483344
 20
214.7223612635767
  0
LINE
  5
F3
330
2
100
AcDbEntity
  8
0
100
AcDbLine
 10
430.3297926131437
 20
215.4046473798039
 30
0.0
 11
431.138921977353
 21
214.7039210465569
 31
0.0
  0
LINE
  5
F4
330
2
100
AcDbEntity
  8
0
100
AcDbLine
 10
430.2929125166389
 20
215.3940008724231
 30
0.0
 11
431.1020413312788
 21
214.6932746978505
 31
0.0
  0
ARC
  5
F5
330
2
100
AcDbEntity
  8
0
100
AcDbCircle
 10
431.0490035856973
 20
214.9452361993592
 30
0.0
 40
0.1112886176354256
100
AcDbArc
 50
357.8633987295995
 51
47.48613466629906
  0
LINE
  5
F6
330
2
100
AcDbEntity
  8
0
100
AcDbLine
 10
429.5292359243513
 20
214.9822991613504
 30
0.0
 11
430.7393437021666
 21
215.0073800300613
 31
0.0
  0
LWPOLYLINE
  5
F7
330
2
100
AcDbEntity
  8
0
100
AcDbPolyline
 90
        9
 70
   128
 43
0.0
 10
429.9565939845678
 20
215.5009565716666
 10
429.929409858598
 20
215.5365214090822
 10
429.9334814958759
 20
215.5672337270843
 10
429.968188878513
 20
215.5884180195715
 10
430.0282476627232
 20
215.5968491678152
 10
430.104514787045
 20
215.5912434685419
 10
430.1853788202993
 20
215.5724545547585
 10
430.2585298471184
 20
215.5433426775622
 10
430.271619573932
 20
215.5364256008039
  0
ARC
  5
F8
330
2
100
AcDbEntity
  8
0
100
AcDbCircle
 10
430.225398341452
 20
215.8652740565487
 30
0.0
 40
0.452750496511774
100
AcDbArc
 50
233.5789820819007
 51
276.7638144279005
  0
LWPOLYLINE
  5
F9
330
2
100
AcDbEntity
  8
0
100
AcDbPolyline
 90
       17
 70
   128
 43
0.0
 10
429.1016257062076
 20
215.483236697967
 10
429.0744420504696
 20
215.5188013080599
 10
429.078513767127
 20
215.5495136947528
 10
429.113221149764
 20
215.57069798724
 10
429.1732798546375
 20
215.5791290667929
 10
429.2495470582535
 20
215.573523436253
 10
429.3304110121708
 20
215.5547344537788
 10
429.4035621183694
 20
215.5256226452733
 10
429.4578623316349
 20
215.4906200125877
 10
429.4850459080783
 20
215.4550553338466
 10
429.4809742707578
 20
215.4243428784203
 10
429.44626743769
 20
215.4031585646828
 10
429.3862086534796
 20
215.3947274164392
 10
429.3099414498207
 20
215.4003330470216
 10
429.2290770256714
 20
215.4191221194369
 10
429.1559264690844
 20
215.4482339066921
 10
429.1016257062076
 20
215.483236697967
  0
LWPOLYLINE
  5
FA
330
2
100
AcDbEntity
  8
0
100
AcDbPolyline
 90
       17
 70
   128
 43
0.0
 10
429.8272098334418
 20
215.233934286812
 10
429.800026257041
 20
215.2694991029773
 10
429.8040978943613
 20
215.300211421022
 10
429.8388052769984
 20
215.3213955761277
 10
429.8988640612087
 20
215.3298267243713
 10
429.9751306359613
 20
215.3242211837299
 10
430.0559952187422
 20
215.3054322486962
 10
430.1291456960349
 20
215.2763203927502
 10
430.1834464588692
 20
215.2413176014752
 10
430.21063003527
 20
215.2057529226916
 10
430.2065583979922
 20
215.1750406046469
 10
430.1718515649239
 20
215.1538561535278
 10
430.111792310482
 20
215.1454252326493
 10
430.035525656392
 20
215.1510307045574
 10
429.9546610735688
 20
215.1698197769726
 10
429.8815105963186
 20
215.1989316329187
 10
429.8272098334418
 20
215.233934286812
  0
LINE
  5
FB
330
2
100
AcDbEntity
  8
0
100
AcDbLine
 10
427.704309934008
 20
213.9818472093769
 30
0.0
 11
429.4719640995708
 21
214.9657662043663
 31
0.0
  0
ARC
  5
FC
330
2
100
AcDbEntity
  8
0
100
AcDbCircle
 10
431.1116728799887
 20
214.702164784506
 30
0.0
 40
0.0131072640807259
100
AcDbArc
 50
222.7075471436004
 51
279.5719142621996
  0
ARC
  5
FD
330
2
100
AcDbEntity
  8
0
100
AcDbCircle
 10
429.534056005061
 20
214.8581377597502
 30
0.0
 40
0.1242549267439782
100
AcDbArc
 50
92.2231681292988
 51
119.9810690409
  0
ARC
  5
FE
330
2
100
AcDbEntity
  8
0
100
AcDbCircle
 10
427.1073700099386
 20
214.173668725602
 30
0.0
 40
0.576387983694231
100
AcDbArc
 50
288.1511430218004
 51
322.8379490846005
  0
LINE
  5
FF
330
2
100
AcDbEntity
  8
0
100
AcDbLine
 10
427.5667109960616
 20
213.8254892227247
 30
0.0
 11
427.6547109201808
 21
213.9388930750672
 31
0.0
  0
ARC
  5
100
330
2
100
AcDbEntity
  8
0
100
AcDbCircle
 10
427.7853540693178
 20
213.8381527966485
 30
0.0
 40
0.1649734406582673
100
AcDbArc
 50
119.4231454699994
 51
142.3638132434006
  0
LINE
  5
101
330
2
100
AcDbEntity
  8
0
100
AcDbLine
 10
426.6870068934314
 20
213.4423087113815
 30
0.0
 11
427.2869291321738
 21
213.6259629383594
 31
0.0
  0
SPLINE
  5
102
330
2
100
AcDbEntity
  8
0
100
AcDbSpline
210
0.0
220
0.0
230
1.0
 70
     8
 71
     3
 72
     9
 73
     5
 74
     0
 42
0.000000001
 43
0.0000000001
 40
0.0
 40
0.0
 40
0.0
 40
0.0
 40
0.4938787179960479
 40
1.0
 40
1.0
 40
1.0
 40
1.0
 10
425.2172610027003
 20
213.8499295044609
 30
0.0
 10
425.1689239372836
 20
213.8082067369027
 30
0.0
 10
425.0710515980728
 20
213.7237269526198
 30
0.0
 10
424.9952330259967
 20
213.6188631697332
 30
0.0
 10
424.9568596330976
 20
213.5657893775029
 30
0.0
  0
SPLINE
  5
103
330
2
100
AcDbEntity
  8
0
100
AcDbSpline
210
0.0
220
0.0
230
1.0
 70
     8
 71
     3
 72
     9
 73
     5
 74
     0
 42
0.000000001
 43
0.0000000001
 40
0.0
 40
0.0
 40
0.0
 40
0.0
 40
0.4943384478100796
 40
1.0
 40
1.0
 40
1.0
 40
1.0
 10
425.7665597706997
 20
212.8645686777317
 30
0.0
 10
425.8157244353921
 20
212.9062734731105
 30
0.0
 10
425.9151799094919
 20
212.9906383360169
 30
0.0
 10
426.0173246587453
 20
213.0714562666062
 30
0.0
 10
426.068975331201
 20
213.1123227868328
 30
0.0
  0
ARC
  5
104
330
2
100
AcDbEntity
  8
0
100
AcDbCircle
 10
427.2623369823345
 20
211.6210218925168
 30
0.0
 40
1.909997483732018
100
AcDbArc
 50
107.5309142369017
 51
128.6673259699993
  0
LINE
  5
105
330
2
100
AcDbEntity
  8
0
100
AcDbLine
 10
424.8773703131448
 20
213.4200121144297
 30
0.0
 11
424.8116671121167
 21
213.2817279333049
 31
0.0
  0
ELLIPSE
  5
106
330
2
100
AcDbEntity
  8
0
100
AcDbEllipse
 10
425.8560470074977
 20
213.4603851168959
 30
0.0
 11
1.064621115330554
 21
1.669143776392111
 31
0.0
210
0.0
220
0.0
230
1.0
 40
0.4231139707000002
 41
1.818131590324149
 42
1.857743908008198
  0
ELLIPSE
  5
107
330
2
100
AcDbEntity
  8
0
100
AcDbEllipse
 10
425.4301896626026
 20
213.8291883959274
 30
0.0
 11
1.064621115330554
 21
1.669143776392111
 31
0.0
210
0.0
220
0.0
230
1.0
 40
0.4231139707000002
 41
4.301204860800256
 42
4.340817178484316
  0
LINE
  5
108
330
2
100
AcDbEntity
  8
0
100
AcDbLine
 10
425.619112488995
 20
212.7138023775775
 30
0.0
 11
425.6520374598959
 21
212.7491301972315
 31
0.0
  0
LINE
  5
109
330
2
100
AcDbEntity
  8
0
100
AcDbLine
 10
424.8878655935576
 20
213.4993148592232
 30
0.0
 11
424.9247779174986
 21
213.5652954282519
 31
0.0
  0
ELLIPSE
  5
10A
330
2
100
AcDbEntity
  8
0
100
AcDbEllipse
 10
425.8560470074977
 20
213.3962870383363
 30
0.0
 11
1.111467282988624
 21
1.243331114264895
 31
0.0
210
0.0
220
0.0
230
1.0
 40
0.5066591320999999
 41
1.858159750217063
 42
1.871937644446395
  0
ELLIPSE
  5
10B
330
2
100
AcDbEntity
  8
0
100
AcDbEllipse
 10
425.8560470074977
 20
213.3481431894474
 30
0.0
 11
1.111467282988624
 21
1.243331114264895
 31
0.0
210
0.0
220
0.0
230
1.0
 40
0.5066591320999999
 41
1.835938148826544
 42
1.849629708214571
  0
LINE
  5
10C
330
2
100
AcDbEntity
  8
0
100
AcDbLine
 10
424.9445180670447
 20
213.5473209646817
 30
0.0
 11
424.9106591326436
 21
213.4884911853496
 31
0.0
  0
LINE
  5
10D
330
2
100
AcDbEntity
  8
0
100
AcDbLine
 10
424.8773703131448
 20
213.4200121144297
 30
0.0
 11
424.8773703131448
 21
213.4773877969163
 31
0.0
  0
ELLIPSE
  5
10E
330
2
100
AcDbEntity
  8
0
100
AcDbEllipse
 10
425.8560470074977
 20
213.5177607217486
 30
0.0
 11
1.064621115330558
 21
1.669143776392105
 31
0.0
210
0.0
220
0.0
230
1.0
 40
0.4231139707000002
 41
1.845058951630845
 42
1.857743908008199
  0
SPLINE
  5
10F
330
2
100
AcDbEntity
  8
0
100
AcDbSpline
210
0.0
220
0.0
230
1.0
 70
     8
 71
     3
 72
     9
 73
     5
 74
     0
 42
0.000000001
 43
0.0000000001
 40
0.0
 40
0.0
 40
0.0
 40
0.0
 40
0.4935695341330641
 40
1.0
 40
1.0
 40
1.0
 40
1.0
 10
424.9369156929136
 20
213.5839395433832
 30
0.0
 10
424.9766987112722
 20
213.6402493255717
 30
0.0
 10
425.0573013733239
 20
213.7543361528461
 30
0.0
 10
425.1634859155253
 20
213.8450785559893
 30
0.0
 10
425.2172610027003
 20
213.8910332734869
 30
0.0
  0
LINE
  5
110
330
2
100
AcDbEntity
  8
0
100
AcDbLine
 10
424.8773703131448
 20
213.4773877969163
 30
0.0
 11
424.7902256600078
 21
213.2939757791564
 31
0.0
  0
LINE
  5
111
330
2
100
AcDbEntity
  8
0
100
AcDbLine
 10
425.701689200356
 20
212.8034391346954
 30
0.0
 11
425.7496540456036
 21
212.8500531461362
 31
0.0
  0
ELLIPSE
  5
112
330
2
100
AcDbEntity
  8
0
100
AcDbEllipse
 10
425.4301896626026
 20
213.7169464685215
 30
0.0
 11
1.111467282988612
 21
1.243331114264893
 31
0.0
210
0.0
220
0.0
230
1.0
 40
0.5066591321000004
 41
4.449500408946081
 42
4.46319196833411
  0
LINE
  5
113
330
2
100
AcDbEntity
  8
0
100
AcDbLine
 10
424.4574674603176
 20
213.4705614839856
 30
0.0
 11
424.4574674603176
 21
213.8713963234505
 31
0.0
  0
ARC
  5
114
330
2
100
AcDbEntity
  8
0
100
AcDbCircle
 10
424.2960014096516
 20
213.8727640749088
 30
0.0
 40
0.1614718435883032
100
AcDbArc
 50
359.5146687992009
 51
42.58878838290145
  0
ARC
  5
115
330
2
100
AcDbEntity
  8
0
100
AcDbCircle
 10
424.9942294998009
 20
214.2593248606534
 30
0.0
 40
0.0807336212467319
100
AcDbArc
 50
359.5137098501999
 51
42.58927030759831
  0
LINE
  5
116
330
2
100
AcDbEntity
  8
0
100
AcDbLine
 10
425.0749602132184
 20
214.258639653247
 30
0.0
 11
425.0749602132184
 21
213.7587664600187
 31
0.0
  0
LINE
  5
117
330
2
100
AcDbEntity
  8
0
100
AcDbLine
 10
424.2232458847253
 20
214.9962463708787
 30
0.0
 11
424.2232458847253
 21
214.4112783902908
 31
0.0
  0
LWPOLYLINE
  5
118
330
2
100
AcDbEntity
  8
0
100
AcDbPolyline
 90
        9
 70
   128
 43
0.0
 10
424.2445385821808
 20
215.0146864504743
 10
424.2403846443513
 20
215.0175752103786
 10
424.2363904003862
 20
215.0189357996829
 10
424.2327090146911
 20
215.0187157602148
 10
424.2294824540519
 20
215.0169235701128
 10
424.2268345559532
 20
215.0136280801185
 10
424.2248664649213
 20
215.0089559840273
 10
424.2236550918997
 20
215.0030870427821
 10
424.2232458847253
 20
214.9962463708787
  0
LINE
  5
119
330
2
100
AcDbEntity
  8
0
100
AcDbLine
 10
424.2445385821808
 20
215.0146864504743
 30
0.0
 11
425.0536675158056
 21
214.3139603789165
 31
0.0
  0
ARC
  5
11A
330
2
100
AcDbEntity
  8
0
100
AcDbCircle
 10
424.8024357184299
 20
213.4929040883505
 30
0.0
 40
0.1162189737083565
100
AcDbArc
 50
22.82185262920102
 51
45.89250978979954
  0
LWPOLYLINE
  5
11B
330
2
100
AcDbEntity
  8
0
100
AcDbPolyline
 90
        9
 70
   128
 43
0.0
 10
424.8407391871951
 20
213.539473256587
 10
424.8415573692386
 20
213.5531547590684
 10
424.8439809821141
 20
213.5648928950712
 10
424.8479159800393
 20
213.5742369711227
 10
424.8532117762793
 20
213.5808279511537
 10
424.8596652148213
 20
213.5844123313578
 10
424.8670279862115
 20
213.5848525476329
 10
424.8750167914487
 20
213.5821315064059
 10
424.8833248993696
 20
213.5763534158208
  0
LINE
  5
11C
330
2
100
AcDbEntity
  8
0
100
AcDbLine
 10
424.8407391871951
 20
213.4002905276645
 30
0.0
 11
424.8407391871951
 21
213.539473256587
 31
0.0
  0
LWPOLYLINE
  5
11D
330
2
100
AcDbEntity
  8
0
100
AcDbPolyline
 90
        9
 70
   128
 43
0.0
 10
424.4296336683563
 20
213.9219927690659
 10
424.4285685508021
 20
213.9227337530102
 10
424.4275443601827
 20
213.9230824438969
 10
424.4265999527018
 20
213.9230259303703
 10
424.4257725162671
 20
213.9225663461031
 10
424.4250934059452
 20
213.9217212933127
 10
424.4245892238531
 20
213.9205233936085
 10
424.4242783512706
 20
213.9190180377623
 10
424.4241735723074
 20
213.9172640934399
  0
ARC
  5
11E
330
2
100
AcDbEntity
  8
0
100
AcDbCircle
 10
424.4143907041753
 20
213.9079816711837
 30
0.0
 40
0.0207040773986692
100
AcDbArc
 50
359.5148007651001
 51
42.5887428227996
  0
ARC
  5
11F
330
2
100
AcDbEntity
  8
0
100
AcDbCircle
 10
424.3974017373578
 20
213.8595659013929
 30
0.0
 40
0.0612196860903871
100
AcDbArc
 50
11.14224231330031
 51
51.99798139379808
  0
ARC
  5
120
330
2
100
AcDbEntity
  8
0
100
AcDbCircle
 10
424.7940680757793
 20
213.3904812261416
 30
0.0
 40
0.1561307713972041
100
AcDbArc
 50
50.8618062252016
 51
72.60705988189832
  0
ARC
  5
121
330
2
100
AcDbEntity
  8
0
100
AcDbCircle
 10
424.1986570766313
 20
214.9990391651078
 30
0.0
 40
0.0094624447467992
100
AcDbArc
 50
107.2745609999994
 51
148.0969172979996
  0
ARC
  5
122
330
2
100
AcDbEntity
  8
0
100
AcDbCircle
 10
424.7762220147568
 20
213.5182062074548
 30
0.0
 40
0.1218692977632493
100
AcDbArc
 50
359.1080268748007
 51
28.49796999639952
  0
LINE
  5
123
330
2
100
AcDbEntity
  8
0
100
AcDbLine
 10
413.1280896692261
 20
214.1799153847665
 30
0.0
 11
412.5281674819269
 21
214.3635697258318
 31
0.0
  0
ARC
  5
124
330
2
100
AcDbEntity
  8
0
100
AcDbCircle
 10
412.707726890679
 20
214.9112749930173
 30
0.0
 40
0.5763875787498053
100
AcDbArc
 50
217.1620272577004
 51
251.8488138114005
  0
LINE
  5
125
330
2
100
AcDbEntity
  8
0
100
AcDbLine
 10
412.2483860835012
 20
214.5630959244292
 30
0.0
 11
412.1603856365146
 21
214.6764999122796
 31
0.0
  0
ARC
  5
126
330
2
100
AcDbEntity
  8
0
100
AcDbCircle
 10
412.0297503161688
 20
214.5757685213759
 30
0.0
 40
0.164961813891309
100
AcDbArc
 50
37.63540268049919
 51
60.5776386055991
  0
LINE
  5
127
330
2
100
AcDbEntity
  8
0
100
AcDbLine
 10
412.1107867734833
 20
214.7194539159788
 30
0.0
 11
410.3431329090445
 21
215.7033729675221
 31
0.0
  0
ARC
  5
128
330
2
100
AcDbEntity
  8
0
100
AcDbCircle
 10
410.2810391084037
 20
215.595737901676
 30
0.0
 40
0.1242616089983309
100
AcDbArc
 50
60.01969967529935
 51
87.7760728207005
  0
LINE
  5
129
330
2
100
AcDbEntity
  8
0
100
AcDbLine
 10
410.2858610932921
 20
215.7199059166278
 30
0.0
 11
408.7737673325828
 21
215.7512456530668
 31
0.0
  0
ARC
  5
12A
330
2
100
AcDbEntity
  8
0
100
AcDbCircle
 10
408.770145704979
 20
215.6728020181462
 30
0.0
 40
0.0785271930254106
100
AcDbArc
 50
87.35661494199836
 51
183.4712108515986
  0
LINE
  5
12B
330
2
100
AcDbEntity
  8
0
100
AcDbLine
 10
408.6917625820876
 20
215.6680474319114
 30
0.0
 11
408.6917625820876
 21
215.4493215678142
 31
0.0
  0
LINE
  5
12C
330
2
100
AcDbEntity
  8
0
100
AcDbLine
 10
408.6548821794337
 20
215.6786938871249
 30
0.0
 11
408.6548821794337
 21
215.4599680230275
 31
0.0
  0
ARC
  5
12D
330
2
100
AcDbEntity
  8
0
100
AcDbCircle
 10
408.7593937697135
 20
215.6850325878169
 30
0.0
 40
0.1047036371677134
100
AcDbArc
 50
87.35694882269903
 51
183.4707773292995
  0
LINE
  5
12E
330
2
100
AcDbEntity
  8
0
100
AcDbLine
 10
410.2763157907022
 20
215.7582852425102
 30
0.0
 11
408.7642220299504
 21
215.7896248415676
 31
0.0
  0
ARC
  5
12F
330
2
100
AcDbEntity
  8
0
100
AcDbCircle
 10
410.2698832127392
 20
215.5927165798328
 30
0.0
 40
0.165693572977573
100
AcDbArc
 50
60.02067600079786
 51
87.77509649529884
  0
LINE
  5
130
330
2
100
AcDbEntity
  8
0
100
AcDbLine
 10
412.120332076116
 20
214.752322121416
 30
0.0
 11
410.352678211677
 21
215.7362413103835
 31
0.0
  0
ARC
  5
131
330
2
100
AcDbEntity
  8
0
100
AcDbCircle
 10
412.0122772480508
 20
214.5607343076531
 30
0.0
 40
0.2199584875991996
100
AcDbArc
 50
37.63592634359886
 51
60.57716028829887
  0
LINE
  5
132
330
2
100
AcDbEntity
  8
0
100
AcDbLine
 10
412.2744643404773
 20
214.5816460370457
 30
0.0
 11
412.1864638934908
 21
214.6950501622775
 31
0.0
  0
ARC
  5
133
330
2
100
AcDbEntity
  8
0
100
AcDbCircle
 10
412.6920465926383
 20
214.89817243921
 30
0.0
 40
0.5239884546428929
100
AcDbArc
 50
217.1620449840994
 51
251.8488967190008
  0
LINE
  5
134
330
2
100
AcDbEntity
  8
0
100
AcDbLine
 10
413.128733478401
 20
214.2166043027521
 30
0.0
 11
412.5288115659079
 21
214.40025856448
 31
0.0
  0
ARC
  5
135
330
2
100
AcDbEntity
  8
0
100
AcDbCircle
 10
412.541391695257
 20
212.3546461775069
 30
0.0
 40
1.952398122907236
100
AcDbArc
 50
51.89888707830153
 51
72.49248123320143
  0
LINE
  5
136
330
2
100
AcDbEntity
  8
0
100
AcDbLine
 10
413.746121222887
 20
213.8499294676734
 30
0.0
 11
413.746121222887
 21
213.8910332367016
 31
0.0
  0
ARC
  5
137
330
2
100
AcDbEntity
  8
0
100
AcDbCircle
 10
412.5527647310677
 20
212.3586382101653
 30
0.0
 40
1.909986735865173
100
AcDbArc
 50
51.33261425159894
 51
72.46914595290123
  0
ARC
  5
138
330
2
100
AcDbEntity
  8
0
100
AcDbCircle
 10
408.5741503604906
 20
215.4592836596278
 30
0.0
 40
0.080734719546914
100
AcDbArc
 50
317.4104849976013
 51
0.4856845142999119
  0
LINE
  5
139
330
2
100
AcDbEntity
  8
0
100
AcDbLine
 10
407.8244602604313
 20
214.7039211426303
 30
0.0
 11
408.6335889517433
 21
215.4046471442623
 31
0.0
  0
LWPOLYLINE
  5
13A
330
2
100
AcDbEntity
  8
0
100
AcDbPolyline
 90
        9
 70
   128
 43
0.0
 10
407.8031670327407
 20
214.7223610691728
 10
407.803576334839
 20
214.7155204246946
 10
407.8047883767121
 20
214.7096516765333
 10
407.8067555650541
 20
214.7049791824782
 10
407.809403654448
 20
214.7016837476751
 10
407.8126304779689
 20
214.6998917708425
 10
407.8163116585285
 20
214.6996716721802
 10
407.8203063200893
 20
214.7010323820447
 10
407.8244602604313
 20
214.7039211426303
  0
LINE
  5
13B
330
2
100
AcDbEntity
  8
0
100
AcDbLine
 10
407.8031670327407
 20
214.9410869333127
 30
0.0
 11
407.8031670327407
 21
214.7223610691728
 31
0.0
  0
ARC
  5
13C
330
2
100
AcDbEntity
  8
0
100
AcDbCircle
 10
408.6110307631448
 20
215.4486372044145
 30
0.0
 40
0.0807347195469287
100
AcDbArc
 50
317.4104849977016
 51
0.4856845142999119
  0
LINE
  5
13D
330
2
100
AcDbEntity
  8
0
100
AcDbLine
 10
407.8244602604313
 20
214.7039211426303
 30
0.0
 11
407.8613406630853
 21
214.6932746874595
 31
0.0
  0
LINE
  5
13E
330
2
100
AcDbEntity
  8
0
100
AcDbLine
 10
407.8613406630853
 20
214.6932746874595
 30
0.0
 11
408.6704693543971
 21
215.3940006890489
 31
0.0
  0
ARC
  5
13F
330
2
100
AcDbEntity
  8
0
100
AcDbCircle
 10
407.9143778797093
 20
214.9452365324648
 30
0.0
 40
0.1112882368524989
100
AcDbArc
 50
132.5140376743006
 51
182.1368803441002
  0
LINE
  5
140
330
2
100
AcDbEntity
  8
0
100
AcDbLine
 10
409.4341459466419
 20
214.9822989628157
 30
0.0
 11
408.2240379949061
 21
215.0073796648886
 31
0.0
  0
ARC
  5
141
330
2
100
AcDbEntity
  8
0
100
AcDbCircle
 10
408.4379923404253
 20
215.6123245691086
 30
0.0
 40
0.4580705824893665
100
AcDbArc
 50
264.7244128075983
 51
270.0
  0
LWPOLYLINE
  5
142
330
2
100
AcDbEntity
  8
0
100
AcDbPolyline
 90
        4
 70
   128
 43
0.0
 10
408.6058172226135
 20
215.3380101746918
 10
408.6370337835631
 20
215.3386867805037
 10
408.6970925920899
 20
215.330255597936
 10
408.7026754739266
 20
215.3268480118873
  0
LWPOLYLINE
  5
143
330
2
100
AcDbEntity
  8
0
100
AcDbPolyline
 90
       17
 70
   128
 43
0.0
 10
409.5636560742489
 20
215.2250742572531
 10
409.5093549621693
 20
215.1900713939656
 10
409.4362046102063
 20
215.1609595605901
 10
409.3553406636564
 20
215.1421708844351
 10
409.2790734920647
 20
215.1365652128425
 10
409.2190146834949
 20
215.1449963954528
 10
409.184307321938
 20
215.1661803570064
 10
409.1802351919861
 20
215.1968927906714
 10
409.2074193792795
 20
215.2324576321325
 10
409.2617199417901
 20
215.2674606540518
 10
409.334870843322
 20
215.2965721913714
 10
409.4157347898719
 20
215.3153610049505
 10
409.4920019614636
 20
215.3209666765431
 10
409.5520607700328
 20
215.3125354939328
 10
409.5867681315903
 20
215.2913513949976
 10
409.5908397119733
 20
215.2606392573461
 10
409.5636560742489
 20
215.2250742572531
  0
LWPOLYLINE
  5
144
330
2
100
AcDbEntity
  8
0
100
AcDbPolyline
 90
       11
 70
   128
 43
0.0
 10
409.054458131033
 20
215.4367134089298
 10
409.0508514887768
 20
215.4639149636107
 10
409.0780356760701
 20
215.4994798050719
 10
409.1323362385808
 20
215.5344828269912
 10
409.2054871401126
 20
215.5635945017348
 10
409.2863510866624
 20
215.5823831779324
 10
409.3626182582544
 20
215.5879888494823
 10
409.4226765172546
 20
215.5795578255465
 10
409.4573844283809
 20
215.5583737053185
 10
409.4614560087641
 20
215.5276615677096
 10
409.4342723710396
 20
215.4920964301924
  0
LINE
  5
145
330
2
100
AcDbEntity
  8
0
100
AcDbLine
 10
411.2590716267908
 20
213.9818469621667
 30
0.0
 11
409.4914177623516
 21
214.96576601371
 31
0.0
  0
ARC
  5
146
330
2
100
AcDbEntity
  8
0
100
AcDbCircle
 10
407.8517085182602
 20
214.7021658090762
 30
0.0
 40
0.0131084040814253
100
AcDbArc
 50
260.4303079078976
 51
317.2908957112003
  0
ARC
  5
147
330
2
100
AcDbEntity
  8
0
100
AcDbCircle
 10
409.4293239617114
 20
214.8581309478639
 30
0.0
 40
0.1242616089981578
100
AcDbArc
 50
60.01969967529935
 51
87.7760728207005
  0
ARC
  5
148
330
2
100
AcDbEntity
  8
0
100
AcDbCircle
 10
411.8560117439865
 20
214.1736680392052
 30
0.0
 40
0.5763875787498125
100
AcDbArc
 50
217.1620272577004
 51
251.8488138114005
  0
LINE
  5
149
330
2
100
AcDbEntity
  8
0
100
AcDbLine
 10
411.3966709368086
 20
213.8254889706172
 30
0.0
 11
411.3086704898647
 21
213.9388929584248
 31
0.0
  0
ARC
  5
14A
330
2
100
AcDbEntity
  8
0
100
AcDbCircle
 10
411.1780351694758
 20
213.8381615675637
 30
0.0
 40
0.1649618138913159
100
AcDbArc
 50
37.63540268049919
 51
60.5776386055991
  0
LINE
  5
14B
330
2
100
AcDbEntity
  8
0
100
AcDbLine
 10
412.2763745225332
 20
213.4423084309545
 30
0.0
 11
411.6764523352347
 21
213.6259627720197
 31
0.0
  0
SPLINE
  5
14C
330
2
100
AcDbEntity
  8
0
100
AcDbSpline
210
0.0
220
0.0
230
1.0
 70
     8
 71
     3
 72
     9
 73
     5
 74
     0
 42
0.000000001
 43
0.0000000001
 40
0.0
 40
0.0
 40
0.0
 40
0.0
 40
0.4938784966952352
 40
1.0
 40
1.0
 40
1.0
 40
1.0
 10
412.8944060761869
 20
213.1123225138466
 30
0.0
 10
412.9448451762071
 20
213.0724202539978
 30
0.0
 10
413.0469737368904
 20
212.9916265767759
 30
0.0
 10
413.1464668068679
 20
212.9072656239732
 30
0.0
 10
413.1968223890137
 20
212.8645687317204
 30
0.0
  0
SPLINE
  5
14D
330
2
100
AcDbEntity
  8
0
100
AcDbSpline
210
0.0
220
0.0
230
1.0
 70
     8
 71
     3
 72
     9
 73
     5
 74
     0
 42
0.000000001
 43
0.0000000001
 40
0.0
 40
0.0
 40
0.0
 40
0.0
 40
0.4943382933975835
 40
1.0
 40
1.0
 40
1.0
 40
1.0
 10
414.0065221995351
 20
213.5657893370716
 30
0.0
 10
413.9690882608313
 20
213.617653268102
 30
0.0
 10
413.893362914032
 20
213.7225691358854
 30
0.0
 10
413.795570899721
 20
213.8071567502349
 30
0.0
 10
413.7461212228727
 20
213.8499294676644
 30
0.0
  0
ARC
  5
14E
330
2
100
AcDbEntity
  8
0
100
AcDbCircle
 10
411.7010495843748
 20
211.6210312563532
 30
0.0
 40
1.909986735865373
100
AcDbArc
 50
51.33261425159894
 51
72.46914595290123
  0
LINE
  5
14F
330
2
100
AcDbEntity
  8
0
100
AcDbLine
 10
413.3113444222122
 20
212.7491302050673
 30
0.0
 11
413.3442695621786
 21
212.7138027325723
 31
0.0
  0
ELLIPSE
  5
150
330
2
100
AcDbEntity
  8
0
100
AcDbEllipse
 10
413.5331922790404
 20
213.8291883959274
 30
0.0
 11
-1.064621115330568
 21
1.6691437763921
 31
0.0
210
0.0
220
0.0
230
1.0
 40
0.4231139707000002
 41
1.942368128695283
 42
1.981980446379331
  0
ELLIPSE
  5
151
330
2
100
AcDbEntity
  8
0
100
AcDbEllipse
 10
413.1073349341453
 20
213.4603851168959
 30
0.0
 11
-1.064621115330568
 21
1.669143776392102
 31
0.0
210
0.0
220
0.0
230
1.0
 40
0.4231139707000002
 41
4.425441399171405
 42
4.465053716855452
  0
LINE
  5
152
330
2
100
AcDbEntity
  8
0
100
AcDbLine
 10
414.151715091897
 20
213.2817281182975
 30
0.0
 11
414.0860117806997
 21
213.420011817011
 31
0.0
  0
ELLIPSE
  5
153
330
2
100
AcDbEntity
  8
0
100
AcDbEllipse
 10
413.1073349341453
 20
213.3962870383363
 30
0.0
 11
-1.111467282988619
 21
1.243331114264889
 31
0.0
210
0.0
220
0.0
230
1.0
 40
0.5066591321000004
 41
4.41124766273321
 42
4.425025556962538
  0
LINE
  5
154
330
2
100
AcDbEntity
  8
0
100
AcDbLine
 10
414.038604656415
 20
213.565295513551
 30
0.0
 11
414.0755161904333
 21
213.4993146589
 31
0.0
  0
ELLIPSE
  5
155
330
2
100
AcDbEntity
  8
0
100
AcDbEllipse
 10
413.1073349341453
 20
213.5177607217486
 30
0.0
 11
-1.064621115330568
 21
1.669143776392102
 31
0.0
210
0.0
220
0.0
230
1.0
 40
0.4231139707000002
 41
4.425441399171405
 42
4.438126355548755
  0
LINE
  5
156
330
2
100
AcDbEntity
  8
0
100
AcDbLine
 10
414.0527227804668
 20
213.4884914132258
 30
0.0
 11
414.0188637701355
 21
213.547321107642
 31
0.0
  0
ELLIPSE
  5
157
330
2
100
AcDbEntity
  8
0
100
AcDbEllipse
 10
413.1073349341453
 20
213.3481431894474
 30
0.0
 11
-1.111467282988619
 21
1.243331114264889
 31
0.0
210
0.0
220
0.0
230
1.0
 40
0.5066591321000004
 41
4.433555598965032
 42
4.447247158353058
  0
SPLINE
  5
158
330
2
100
AcDbEntity
  8
0
100
AcDbSpline
210
0.0
220
0.0
230
1.0
 70
     8
 71
     3
 72
     9
 73
     5
 74
     0
 42
0.000000001
 43
0.0000000001
 40
0.0
 40
0.0
 40
0.0
 40
0.0
 40
0.4930000715912778
 40
1.0
 40
1.0
 40
1.0
 40
1.0
 10
413.7461212228727
 20
213.8910332366905
 30
0.0
 10
413.7985219736525
 20
213.8463679184689
 30
0.0
 10
413.9048115135516
 20
213.7557689088637
 30
0.0
 10
413.9855378855567
 20
213.6417481292029
 30
0.0
 10
414.0264661503838
 20
213.5839396020778
 30
0.0
  0
LINE
  5
159
330
2
100
AcDbEntity
  8
0
100
AcDbLine
 10
414.1731562970936
 20
213.2939754565695
 30
0.0
 11
414.0860117806997
 21
213.4773874995401
 31
0.0
  0
LINE
  5
15A
330
2
100
AcDbEntity
  8
0
100
AcDbLine
 10
413.2137278366746
 20
212.8500529357626
 30
0.0
 11
413.2616922221668
 21
212.8034388545664
 31
0.0
  0
ELLIPSE
  5
15B
330
2
100
AcDbEntity
  8
0
100
AcDbEllipse
 10
413.5331922790404
 20
213.7169464685215
 30
0.0
 11
-1.111467282988632
 21
1.243331114264895
 31
0.0
210
0.0
220
0.0
230
1.0
 40
0.5066591321000004
 41
1.819993338845485
 42
1.833684898233514
  0
LWPOLYLINE
  5
15C
330
2
100
AcDbEntity
  8
0
100
AcDbPolyline
 90
        9
 70
   128
 43
0.0
 10
414.740136251066
 20
214.9962464118462
 10
414.7397269489681
 20
215.0030870563244
 10
414.738515541665
 20
215.0089563540546
 10
414.7365477187102
 20
215.0136281611592
 10
414.7338996293591
 20
215.0169235959623
 10
414.7306728058381
 20
215.0187157101765
 10
414.7269916252786
 20
215.0189358088388
 10
414.7229969637177
 20
215.0175750989743
 10
414.7188430233756
 20
215.0146863383886
  0
LINE
  5
15D
330
2
100
AcDbEntity
  8
0
100
AcDbLine
 10
414.740136251066
 20
214.9962464118462
 30
0.0
 11
414.740136251066
 21
214.4112784312157
 31
0.0
  0
LINE
  5
15E
330
2
100
AcDbEntity
  8
0
100
AcDbLine
 10
413.8884211043735
 20
214.2586394579915
 30
0.0
 11
413.8884211043735
 21
213.7593831455729
 31
0.0
  0
ARC
  5
15F
330
2
100
AcDbEntity
  8
0
100
AcDbCircle
 10
413.9691565365882
 20
214.2593224306262
 30
0.0
 40
0.0807383209449665
100
AcDbArc
 50
137.4114936586992
 51
180.4846758532017
  0
LINE
  5
160
330
2
100
AcDbEntity
  8
0
100
AcDbLine
 10
413.9097143320634
 20
214.3139603367567
 30
0.0
 11
414.7188430233756
 21
215.0146863383886
 31
0.0
  0
ARC
  5
161
330
2
100
AcDbEntity
  8
0
100
AcDbCircle
 10
414.7646920436326
 20
214.9989965535664
 30
0.0
 40
0.0095128837363577
100
AcDbArc
 50
32.0161179247005
 51
72.61248548380101
  0
LINE
  5
162
330
2
100
AcDbEntity
  8
0
100
AcDbLine
 10
414.231726430351
 20
214.1214319326853
 30
0.0
 11
414.2441514459317
 21
214.1185538884589
 31
0.0
  0
LWPOLYLINE
  5
163
330
2
100
AcDbEntity
  8
0
100
AcDbPolyline
 90
        5
 70
   128
 43
0.0
 10
414.411123222069
 20
214.431977134159
 10
414.409408595324
 20
214.467364932626
 10
414.3947980968833
 20
214.5219683611755
 10
414.3671464087203
 20
214.5515943008657
 10
414.3568599172636
 20
214.5549075963813
  0
LWPOLYLINE
  5
164
330
2
100
AcDbEntity
  8
0
100
AcDbPolyline
 90
        4
 70
   128
 43
0.0
 10
424.6065218460731
 20
214.5549075825409
 10
424.5824539684868
 20
214.5417693392904
 10
424.5602717784516
 20
214.5002540185728
 10
424.5522525896132
 20
214.436694152366
  0
ARC
  5
165
330
2
100
AcDbEntity
  8
0
100
AcDbCircle
 10
415.9436173667745
 20
220.9268490505935
 30
0.0
 40
0.0812182383030707
100
AcDbArc
 50
137.8512392671009
 51
180.3961515801006
  0
LINE
  5
166
330
2
100
AcDbEntity
  8
0
100
AcDbLine
 10
415.8624010698179
 20
220.1886805462536
 30
0.0
 11
415.8624010698179
 21
220.9262875000658
 31
0.0
  0
ARC
  5
167
330
2
100
AcDbEntity
  8
0
100
AcDbCircle
 10
415.5394788957746
 20
220.1859417974098
 30
0.0
 40
0.3229337876791503
100
AcDbArc
 50
317.4106291388986
 51
0.4859219904001955
  0
LINE
  5
168
330
2
100
AcDbEntity
  8
0
100
AcDbLine
 10
415.7772300628088
 20
219.967399779037
 30
0.0
 11
415.547267011266
 21
219.768245934473
 31
0.0
  0
LWPOLYLINE
  5
169
330
2
100
AcDbEntity
  8
0
100
AcDbPolyline
 90
        9
 70
   128
 43
0.0
 10
415.4620953696873
 20
219.842005640643
 10
415.463731943509
 20
219.8146436122137
 10
415.4685788418186
 20
219.7911675204734
 10
415.4764494990677
 20
219.7724786433909
 10
415.4870412219878
 20
219.7592963545669
 10
415.4999478814589
 20
219.752127348141
 10
415.5146732382672
 20
219.751247503061
 10
415.5306506153285
 20
219.7566903424339
 10
415.547267011266
 20
219.768245934473
  0
LINE
  5
16A
330
2
100
AcDbEntity
  8
0
100
AcDbLine
 10
415.4620953696873
 20
219.842005640643
 30
0.0
 11
415.4620953696873
 21
221.0221763271213
 31
0.0
  0
ARC
  5
16B
330
2
100
AcDbEntity
  8
0
100
AcDbCircle
 10
415.7850236653874
 20
221.0249136661644
 30
0.0
 40
0.3229398971545745
100
AcDbArc
 50
137.4108884594975
 51
180.4856626698001
  0
LINE
  5
16C
330
2
100
AcDbEntity
  8
0
100
AcDbLine
 10
415.547267011266
 20
221.243458743002
 30
0.0
 11
415.8834017575731
 21
221.5345599723677
 31
0.0
  0
LINE
  5
16D
330
2
100
AcDbEntity
  8
0
100
AcDbLine
 10
415.770549871839
 20
220.2935376382172
 30
0.0
 11
415.7683986561868
 21
220.2916746308069
 31
0.0
  0
LINE
  5
16E
330
2
100
AcDbEntity
  8
0
100
AcDbLine
 10
415.770549871839
 20
220.3009127295325
 30
0.0
 11
415.770549871839
 21
220.2935376382172
 31
0.0
  0
LINE
  5
16F
330
2
100
AcDbEntity
  8
0
100
AcDbLine
 10
415.5576214024828
 20
220.1165112658746
 30
0.0
 11
415.770549871839
 21
220.3009127295325
 31
0.0
  0
LINE
  5
170
330
2
100
AcDbEntity
  8
0
100
AcDbLine
 10
415.5576214024828
 20
220.1091361745593
 30
0.0
 11
415.5576214024828
 21
220.1165112658746
 31
0.0
  0
LINE
  5
171
330
2
100
AcDbEntity
  8
0
100
AcDbLine
 10
415.5597719835649
 20
220.1109986324008
 30
0.0
 11
415.5576214024828
 21
220.1091361745593
 31
0.0
  0
LWPOLYLINE
  5
172
330
2
100
AcDbEntity
  8
0
100
AcDbPolyline
 90
        9
 70
   128
 43
0.0
 10
415.5597719835649
 20
220.1109986324008
 10
415.5677124442409
 20
220.0487329675748
 10
415.5903249572896
 20
220.0097010386909
 10
415.6241663084665
 20
219.9998424870214
 10
415.6640856371396
 20
220.0206603584346
 10
415.7040043312854
 20
220.0689842429451
 10
415.7378463170323
 20
220.1374582838083
 10
415.7604581955106
 20
220.2156556846478
 10
415.7683986561868
 20
220.2916746308069
  0
LINE
  5
173
330
2
100
AcDbEntity
  8
0
100
AcDbLine
 10
415.8624010698179
 20
220.1886805462536
 30
0.0
 11
415.8992813350903
 21
220.1780341306875
 31
0.0
  0
LINE
  5
174
330
2
100
AcDbEntity
  8
0
100
AcDbLine
 10
415.8141103280811
 20
219.9567533635135
 30
0.0
 11
415.7772300628088
 21
219.967399779037
 31
0.0
  0
ARC
  5
175
330
2
100
AcDbEntity
  8
0
100
AcDbCircle
 10
415.576359161047
 20
220.1752953818864
 30
0.0
 40
0.3229337876791503
100
AcDbArc
 50
317.4106291388986
 51
0.4859219904001955
  0
LINE
  5
176
330
2
100
AcDbEntity
  8
0
100
AcDbLine
 10
415.8992813350903
 20
220.1780341306875
 30
0.0
 11
415.8992813350903
 21
220.9156410844998
 31
0.0
  0
LINE
  5
177
330
2
100
AcDbEntity
  8
0
100
AcDbLine
 10
415.547267011266
 20
219.768245934473
 30
0.0
 11
415.5841472765386
 21
219.7575995189496
 31
0.0
  0
LINE
  5
178
330
2
100
AcDbEntity
  8
0
100
AcDbLine
 10
415.8141103280811
 20
219.9567533635135
 30
0.0
 11
415.5841472765386
 21
219.7575995189496
 31
0.0
  0
ARC
  5
179
330
2
100
AcDbEntity
  8
0
100
AcDbCircle
 10
416.5669190092858
 20
220.7907172642349
 30
0.0
 40
0.0267786215530759
100
AcDbArc
 50
124.342465174
 51
183.0296647664
  0
LINE
  5
17A
330
2
100
AcDbEntity
  8
0
100
AcDbLine
 10
416.5401778160925
 20
220.7235240331572
 30
0.0
 11
416.5401778160925
 21
220.7893019340778
 31
0.0
  0
LINE
  5
17B
330
2
100
AcDbEntity
  8
0
100
AcDbLine
 10
415.9648447163776
 20
221.5454716373119
 30
0.0
 11
415.9832362129751
 21
221.540162469577
 31
0.0
  0
LINE
  5
17C
330
2
100
AcDbEntity
  8
0
100
AcDbLine
 10
416.4885420100098
 20
221.3942932506159
 30
0.0
 11
416.5733214874808
 21
221.3698195235277
 31
0.0
  0
LINE
  5
17D
330
2
100
AcDbEntity
  8
0
100
AcDbLine
 10
417.0786272501913
 20
221.2239503144464
 30
0.0
 11
417.089696653633
 21
221.2207548529342
 31
0.0
  0
LINE
  5
17E
330
2
100
AcDbEntity
  8
0
100
AcDbLine
 10
422.1009507845711
 20
219.7741303922136
 30
0.0
 11
422.1053708933339
 21
219.772854416718
 31
0.0
  0
ARC
  5
17F
330
2
100
AcDbEntity
  8
0
100
AcDbCircle
 10
415.6504492762605
 20
219.9903444775079
 30
0.0
 40
0.1509297734381953
100
AcDbArc
 50
95.45944898250176
 51
126.9265903929978
  0
ARC
  5
180
330
2
100
AcDbEntity
  8
0
100
AcDbCircle
 10
415.7942544177331
 20
220.2572223732578
 30
0.0
 40
0.0430752650119706
100
AcDbArc
 50
126.8875281896008
 51
175.9417820321013
  0
LINE
  5
181
330
2
100
AcDbEntity
  8
0
100
AcDbLine
 10
415.5576214024828
 20
220.1165112658746
 30
0.0
 11
415.5642528708158
 21
220.1145969258328
 31
0.0
  0
LINE
  5
182
330
2
100
AcDbEntity
  8
0
100
AcDbLine
 10
415.6343010613725
 20
220.1403321362781
 30
0.0
 11
415.7502890260913
 21
220.2407806602556
 31
0.0
  0
ARC
  5
183
330
2
100
AcDbEntity
  8
0
100
AcDbCircle
 10
415.622341289107
 20
220.3266784977974
 30
0.0
 40
0.1865960730024617
100
AcDbArc
 50
274.2253644687997
 51
308.6395562978986
  0
LINE
  5
184
330
2
100
AcDbEntity
  8
0
100
AcDbLine
 10
415.8838620910938
 20
220.9817462417145
 30
0.0
 11
415.8834017575731
 21
220.9813511848427
 31
0.0
  0
ARC
  5
185
330
2
100
AcDbEntity
  8
0
100
AcDbCircle
 10
415.9357001897636
 20
221.4536072418435
 30
0.0
 40
0.0963767118646547
100
AcDbArc
 50
72.39805982019894
 51
122.8639423056012
  0
ARC
  5
186
330
2
100
AcDbEntity
  8
0
100
AcDbCircle
 10
415.9355542847768
 20
220.8999596645378
 30
0.0
 40
0.0967529177531665
100
AcDbArc
 50
74.30528037199831
 51
122.2944267835997
  0
ARC
  5
187
330
2
100
AcDbEntity
  8
0
100
AcDbCircle
 10
415.9352230582999
 20
220.9473764347041
 30
0.0
 40
0.0277294943409117
100
AcDbArc
 50
72.52164081910045
 51
122.2802247040003
  0
ARC
  5
188
330
2
100
AcDbEntity
  8
0
100
AcDbCircle
 10
415.5456216778141
 20
219.7931573837601
 30
0.0
 40
0.0524269349436456
100
AcDbArc
 50
260.4264768727016
 51
317.2940039356991
  0
ARC
  5
189
330
2
100
AcDbEntity
  8
0
100
AcDbCircle
 10
415.980497632047
 20
220.91620263507
 30
0.0
 40
0.0812182383026965
100
AcDbArc
 50
137.8512392669994
 51
180.3961515801999
  0
LINE
  5
18A
330
2
100
AcDbEntity
  8
0
100
AcDbLine
 10
415.9435514886873
 20
220.9738256710889
 30
0.0
 11
415.9598397515757
 21
220.9691236546011
 31
0.0
  0
LINE
  5
18B
330
2
100
AcDbEntity
  8
0
100
AcDbLine
 10
415.920413828462
 20
220.9708202306585
 30
0.0
 11
415.920282022803
 21
220.9707047693193
 31
0.0
  0
ARC
  5
18C
330
2
100
AcDbEntity
  8
0
100
AcDbCircle
 10
416.5456096387912
 20
220.7661166067027
 30
0.0
 40
0.0324864061233572
100
AcDbArc
 50
82.57134009389758
 51
97.46450738969921
  0
LWPOLYLINE
  5
18D
330
2
100
AcDbEntity
  8
0
100
AcDbPolyline
 90
        9
 70
   128
 43
0.0
 10
419.4372134426044
 20
221.6925211380034
 10
419.4331223253343
 20
221.7609286821365
 10
419.4210057141098
 20
221.8196205601303
 10
419.4013287537876
 20
221.866340829409
 10
419.3748484945897
 20
221.8992951774829
 10
419.3425815286478
 20
221.9172163196679
 10
419.3057690884399
 20
221.9194173062901
 10
419.2658250112798
 20
221.9058113069959
 10
419.2242849732059
 20
221.8769237007565
  0
LINE
  5
18E
330
2
100
AcDbEntity
  8
0
100
AcDbLine
 10
419.4372134426044
 20
218.3855719557776
 30
0.0
 11
419.4372134426044
 21
221.6925211380034
 31
0.0
  0
ARC
  5
18F
330
2
100
AcDbEntity
  8
0
100
AcDbCircle
 10
420.0428977498587
 20
218.3853595652611
 30
0.0
 40
0.6056843445234687
100
AcDbArc
 50
179.9799085419996
 51
182.2624989946986
  0
LINE
  5
190
330
2
100
AcDbEntity
  8
0
100
AcDbLine
 10
419.4857795160197
 20
217.1535656982633
 30
0.0
 11
419.4376855677742
 21
218.3614484827282
 31
0.0
  0
LINE
  5
191
330
2
100
AcDbEntity
  8
0
100
AcDbLine
 10
419.2242849732059
 20
221.8769237007565
 30
0.0
 11
418.7817208939769
 21
221.4936519653619
 31
0.0
  0
LWPOLYLINE
  5
192
330
2
100
AcDbEntity
  8
0
100
AcDbPolyline
 90
        9
 70
   128
 43
0.0
 10
420.0272986484196
 20
221.5221782117564
 10
420.023207531192
 20
221.5905857559321
 10
420.0110909199675
 20
221.6492776339259
 10
419.9914139596453
 20
221.6959979032046
 10
419.9649337004046
 20
221.7289522512785
 10
419.9326667345054
 20
221.7468733934635
 10
419.8958542942974
 20
221.7490743800857
 10
419.8559102170951
 20
221.7354683807488
 10
419.8143701790634
 20
221.706580774552
  0
LINE
  5
193
330
2
100
AcDbEntity
  8
0
100
AcDbLine
 10
420.0272986484196
 20
218.2152290295732
 30
0.0
 11
420.0272986484196
 21
221.5221782117564
 31
0.0
  0
ARC
  5
194
330
2
100
AcDbEntity
  8
0
100
AcDbCircle
 10
420.6329829558016
 20
218.2150166390141
 30
0.0
 40
0.6056843446260337
100
AcDbArc
 50
179.9799085422015
 51
182.2624989945015
  0
LINE
  5
195
330
2
100
AcDbEntity
  8
0
100
AcDbLine
 10
420.0696826737466
 20
217.1384931745414
 30
0.0
 11
420.027770773632
 21
218.1911055564812
 31
0.0
  0
LINE
  5
196
330
2
100
AcDbEntity
  8
0
100
AcDbLine
 10
419.8143701790634
 20
221.706580774552
 30
0.0
 11
419.5109745239106
 21
221.4438324297829
 31
0.0
  0
LINE
  5
197
330
2
100
AcDbEntity
  8
0
100
AcDbLine
 10
419.5114462357006
 20
218.3401556119914
 30
0.0
 11
419.558703177006
 21
217.1533088741321
 31
0.0
  0
LINE
  5
198
330
2
100
AcDbEntity
  8
0
100
AcDbLine
 10
420.1427541911681
 20
217.1344998939506
 30
0.0
 11
420.1015314415581
 21
218.1698126857444
 31
0.0
  0
ARC
  5
199
330
2
100
AcDbEntity
  8
0
100
AcDbCircle
 10
420.1166584178276
 20
218.3640666945243
 30
0.0
 40
0.6056843445714224
100
AcDbArc
 50
179.9799085421005
 51
182.2624989945992
  0
LINE
  5
19A
330
2
100
AcDbEntity
  8
0
100
AcDbLine
 10
419.5109741104883
 20
221.6712282672666
 30
0.0
 11
419.5109741104883
 21
218.3642790850408
 31
0.0
  0
ARC
  5
19B
330
2
100
AcDbEntity
  8
0
100
AcDbCircle
 10
420.7067436235997
 20
218.1937237682773
 30
0.0
 40
0.6056843445172233
100
AcDbArc
 50
179.9799085419996
 51
182.2624989946986
  0
LINE
  5
19C
330
2
100
AcDbEntity
  8
0
100
AcDbLine
 10
420.1010593163458
 20
218.1939361588365
 30
0.0
 11
420.1010593163458
 21
221.5008853410196
 31
0.0
  0
LWPOLYLINE
  5
19D
330
2
100
AcDbEntity
  8
0
100
AcDbPolyline
 90
        7
 70
   128
 43
0.0
 10
419.4161575346938
 20
221.8959778553583
 10
419.4163421965741
 20
221.895923448931
 10
419.4486091624733
 20
221.8780023067461
 10
419.4750894217138
 20
221.8450479586722
 10
419.4947663820361
 20
221.7983276893935
 10
419.5068829932607
 20
221.7396358113997
 10
419.5109741104883
 20
221.6712282672666
  0
LWPOLYLINE
  5
19E
330
2
100
AcDbEntity
  8
0
100
AcDbPolyline
 90
        7
 70
   128
 43
0.0
 10
420.0062427405515
 20
221.7256349291113
 10
420.006427402389
 20
221.7255805227267
 10
420.0386943683308
 20
221.7076593805417
 10
420.0651746275288
 20
221.6747050324679
 10
420.0848515878935
 20
221.6279847631891
 10
420.0969681990756
 20
221.5692928851953
 10
420.1010593163458
 20
221.5008853410196
  0
LWPOLYLINE
  5
19F
330
2
100
AcDbEntity
  8
0
100
AcDbPolyline
 90
        9
 70
   128
 43
0.0
 10
420.5436231863512
 20
221.3731281562887
 10
420.5395320691235
 20
221.4415357004219
 10
420.5274154578988
 20
221.5002275784583
 10
420.5077384975766
 20
221.546947847737
 10
420.4812582383359
 20
221.5799021958109
 10
420.4489912724366
 20
221.5978233379533
 10
420.4121788322288
 20
221.6000243246181
 10
420.3722347550691
 20
221.5864183252813
 10
420.3306947169948
 20
221.5575307190845
  0
LINE
  5
1A0
330
2
100
AcDbEntity
  8
0
100
AcDbLine
 10
420.5436231863512
 20
218.066178974063
 30
0.0
 11
420.5436231863512
 21
221.3731281562887
 31
0.0
  0
ARC
  5
1A1
330
2
100
AcDbEntity
  8
0
100
AcDbCircle
 10
421.1493074936903
 20
218.0659665835465
 30
0.0
 40
0.6056843445824855
100
AcDbArc
 50
179.9799085421005
 51
182.2624989945992
  0
LINE
  5
1A2
330
2
100
AcDbEntity
  8
0
100
AcDbLine
 10
420.5815861145002
 20
217.100469018795
 30
0.0
 11
420.5440953115632
 21
218.0420555010135
 31
0.0
  0
LINE
  5
1A3
330
2
100
AcDbEntity
  8
0
100
AcDbLine
 10
420.3306947169948
 20
221.5575307190845
 30
0.0
 11
420.1010597416922
 21
221.358660996874
 31
0.0
  0
LWPOLYLINE
  5
1A4
330
2
100
AcDbEntity
  8
0
100
AcDbPolyline
 90
        9
 70
   128
 43
0.0
 10
421.1337085295903
 20
221.2027851903945
 10
421.1296174123626
 20
221.2711927345702
 10
421.1175008011379
 20
221.3298846125639
 10
421.0978238408156
 20
221.3766048818427
 10
421.0713435815751
 20
221.4095592299166
 10
421.0390766156761
 20
221.4274803721016
 10
421.0022641754679
 20
221.4296813587238
 10
420.9623200982655
 20
221.4160753593869
 10
420.9207800601912
 20
221.3871877531902
  0
LINE
  5
1A5
330
2
100
AcDbEntity
  8
0
100
AcDbLine
 10
421.1337085295903
 20
217.8958360082113
 30
0.0
 11
421.1337085295903
 21
221.2027851903945
 31
0.0
  0
ARC
  5
1A6
330
2
100
AcDbEntity
  8
0
100
AcDbCircle
 10
421.7393928368869
 20
217.8956236176522
 30
0.0
 40
0.605684344523638
100
AcDbArc
 50
179.9799085419996
 51
182.2624989946986
  0
LINE
  5
1A7
330
2
100
AcDbEntity
  8
0
100
AcDbLine
 10
421.16780815358
 20
217.0271590632924
 30
0.0
 11
421.1341806548025
 21
217.8717125351193
 31
0.0
  0
LINE
  5
1A8
330
2
100
AcDbEntity
  8
0
100
AcDbLine
 10
420.9207800601912
 20
221.3871877531902
 30
0.0
 11
420.6173844050812
 21
221.1244394084209
 31
0.0
  0
LINE
  5
1A9
330
2
100
AcDbEntity
  8
0
100
AcDbLine
 10
420.6178561168711
 20
218.0207625906295
 30
0.0
 11
420.6547935687376
 21
217.0930876629478
 31
0.0
  0
LINE
  5
1AA
330
2
100
AcDbEntity
  8
0
100
AcDbLine
 10
421.2411799632437
 20
217.0156356759059
 30
0.0
 11
421.2079414601102
 21
217.8504196247352
 31
0.0
  0
ARC
  5
1AB
330
2
100
AcDbEntity
  8
0
100
AcDbCircle
 10
421.223068298998
 20
218.0446736731624
 30
0.0
 40
0.6056843445921439
100
AcDbArc
 50
179.9799085421005
 51
182.2624989945992
  0
LINE
  5
1AC
330
2
100
AcDbEntity
  8
0
100
AcDbLine
 10
420.6173839916588
 20
221.3518352459046
 30
0.0
 11
420.6173839916588
 21
218.0448860636789
 31
0.0
  0
ARC
  5
1AD
330
2
100
AcDbEntity
  8
0
100
AcDbCircle
 10
421.8131536421946
 20
217.874330707268
 30
0.0
 40
0.6056843445607595
100
AcDbArc
 50
179.9799085421005
 51
182.2624989946986
  0
LINE
  5
1AE
330
2
100
AcDbEntity
  8
0
100
AcDbLine
 10
421.207469334898
 20
217.8745430978272
 30
0.0
 11
421.207469334898
 21
221.1814922800104
 31
0.0
  0
LWPOLYLINE
  5
1AF
330
2
100
AcDbEntity
  8
0
100
AcDbPolyline
 90
        7
 70
   128
 43
0.0
 10
420.5225674158644
 20
221.5765848339964
 10
420.5227520777444
 20
221.5765304275692
 10
420.5550190436436
 20
221.5586092853842
 10
420.5814993028845
 20
221.5256549373103
 10
420.6011762632066
 20
221.4789346680316
 10
420.613292874431
 20
221.4202427900378
 10
420.6173839916588
 20
221.3518352459046
  0
LWPOLYLINE
  5
1B0
330
2
100
AcDbEntity
  8
0
100
AcDbPolyline
 90
        7
 70
   128
 43
0.0
 10
421.1126527591035
 20
221.4062418681021
 10
421.1128374209837
 20
221.4061874616749
 10
421.145104386883
 20
221.3882663195324
 10
421.1715846460808
 20
221.3553119714586
 10
421.1912616064457
 20
221.3085917021798
 10
421.2033782176278
 20
221.2498998241435
 10
421.207469334898
 20
221.1814922800104
  0
LINE
  5
1B1
330
2
100
AcDbEntity
  8
0
100
AcDbLine
 10
422.7686939944781
 20
216.6373906159465
 30
0.0
 11
422.5181287695026
 21
219.892328367983
 31
0.0
  0
LINE
  5
1B2
330
2
100
AcDbEntity
  8
0
100
AcDbLine
 10
422.8428380842149
 20
216.6111181450247
 30
0.0
 11
422.5918895747678
 21
219.8710354575989
 31
0.0
  0
LINE
  5
1B3
330
2
100
AcDbEntity
  8
0
100
AcDbLine
 10
422.1009504000646
 20
217.816539460068
 30
0.0
 11
422.1686578509477
 21
216.9369971701548
 31
0.0
  0
LINE
  5
1B4
330
2
100
AcDbEntity
  8
0
100
AcDbLine
 10
422.1009505254794
 20
218.7534258882348
 30
0.0
 11
422.231957656167
 21
217.0515977364017
 31
0.0
  0
ARC
  5
1B5
330
2
100
AcDbEntity
  8
0
100
AcDbCircle
 10
422.2904927908492
 20
219.7116211732268
 30
0.0
 40
0.1949861374293681
100
AcDbArc
 50
158.9819604628998
 51
166.4286850380018
  0
LINE
  5
1B6
330
2
100
AcDbEntity
  8
0
100
AcDbLine
 10
422.111542027252
 20
219.7895128903424
 30
0.0
 11
422.1084795591573
 21
219.7815552656989
 31
0.0
  0
LINE
  5
1B7
330
2
100
AcDbEntity
  8
0
100
AcDbLine
 10
422.111542027252
 20
219.8263927434274
 30
0.0
 11
422.111542027252
 21
219.7895128903424
 31
0.0
  0
ARC
  5
1B8
330
2
100
AcDbEntity
  8
0
100
AcDbCircle
 10
422.1922771065161
 20
219.8270763946659
 30
0.0
 40
0.0807379737065805
100
AcDbArc
 50
137.4113915766987
 51
180.4851595525993
  0
LINE
  5
1B9
330
2
100
AcDbEntity
  8
0
100
AcDbLine
 10
422.3068444888514
 20
220.0324105887434
 30
0.0
 11
422.1328352549424
 21
219.881714171719
 31
0.0
  0
LWPOLYLINE
  5
1BA
330
2
100
AcDbEntity
  8
0
100
AcDbPolyline
 90
        9
 70
   128
 43
0.0
 10
422.5181287695026
 20
219.892328367983
 10
422.5099351126163
 20
219.9502937280657
 10
422.4951209150248
 20
219.9989127261374
 10
422.474168455145
 20
220.036600432011
 10
422.4477611722671
 20
220.0621285797132
 10
422.4167595526771
 20
220.074662937574
 10
422.3821744773767
 20
220.0737962819349
 10
422.3451335894877
 20
220.0595577393513
 10
422.3068444888514
 20
220.0324105887434
  0
ARC
  5
1BB
330
2
100
AcDbEntity
  8
0
100
AcDbCircle
 10
422.4033769674721
 20
219.8879594506374
 30
0.0
 40
0.1892707707186767
100
AcDbArc
 50
354.8699411342013
 51
59.75354047500076
  0
LINE
  5
1BC
330
2
100
AcDbEntity
  8
0
100
AcDbLine
 10
417.3358360921031
 20
216.9458239069957
 30
0.0
 11
416.9860795182358
 21
221.4892934301627
 31
0.0
  0
LINE
  5
1BD
330
2
100
AcDbEntity
  8
0
100
AcDbLine
 10
417.4068782154336
 20
216.9598413517705
 30
0.0
 11
417.0598401689573
 21
221.4680005644085
 31
0.0
  0
LINE
  5
1BE
330
2
100
AcDbEntity
  8
0
100
AcDbLine
 10
416.3959942952161
 20
221.6596363613496
 30
0.0
 11
416.7690525326363
 21
216.8134649528516
 31
0.0
  0
LINE
  5
1BF
330
2
100
AcDbEntity
  8
0
100
AcDbLine
 10
416.4697548944091
 20
221.6383435104578
 30
0.0
 11
416.8397424142386
 21
216.8320651909216
 31
0.0
  0
LWPOLYLINE
  5
1C0
330
2
100
AcDbEntity
  8
0
100
AcDbPolyline
 90
        9
 70
   128
 43
0.0
 10
416.3959942952161
 20
221.6596363613496
 10
416.3878006383303
 20
221.7176017214324
 10
416.3729864407383
 20
221.7662207195041
 10
416.3520339808588
 20
221.8039084253777
 10
416.3256266979809
 20
221.8294365730799
 10
416.2946250783908
 20
221.8419709309408
 10
416.2600400030902
 20
221.8411042753016
 10
416.2229991152018
 20
221.8268657327606
 10
416.1847100145648
 20
221.7997185821529
  0
LINE
  5
1C1
330
2
100
AcDbEntity
  8
0
100
AcDbLine
 10
414.2433927079522
 20
219.7496844513803
 30
0.0
 11
414.2433927079522
 21
215.4635215326623
 31
0.0
  0
ARC
  5
1C2
330
2
100
AcDbEntity
  8
0
100
AcDbCircle
 10
415.0507150613293
 20
219.7565273167472
 30
0.0
 40
0.8073513528848586
100
AcDbArc
 50
137.4109999754997
 51
180.4856274777994
  0
LINE
  5
1C3
330
2
100
AcDbEntity
  8
0
100
AcDbLine
 10
415.8829433183087
 20
221.5383809571666
 30
0.0
 11
414.4563211773508
 21
220.3028899414919
 31
0.0
  0
ARC
  5
1C4
330
2
100
AcDbEntity
  8
0
100
AcDbCircle
 10
415.8920797093544
 20
221.5307011733956
 30
0.0
 40
0.0119353558808428
100
AcDbArc
 50
72.22636314029847
 51
139.9505705416009
  0
LINE
  5
1C5
330
2
100
AcDbEntity
  8
0
100
AcDbLine
 10
415.9319167901116
 20
220.9748234107291
 30
0.0
 11
415.9319167901116
 21
220.95751557722
 31
0.0
  0
LWPOLYLINE
  5
1C6
330
2
100
AcDbEntity
  8
0
100
AcDbPolyline
 90
        9
 70
   128
 43
0.0
 10
415.9319167901116
 20
220.95751557722
 10
415.9330514135897
 20
220.9486182054654
 10
415.9362826791435
 20
220.9430412735372
 10
415.9411181550645
 20
220.9416333015562
 10
415.9468217321975
 20
220.9446075187222
 10
415.9525259439005
 20
220.9515127364607
 10
415.9573614198214
 20
220.9612959984679
 10
415.9605926853751
 20
220.9724696465069
 10
415.9617273088529
 20
220.9833322437419
  0
LINE
  5
1C7
330
2
100
AcDbEntity
  8
0
100
AcDbLine
 10
415.9617273088529
 20
220.9833322437419
 30
0.0
 11
415.9617273088529
 21
221.3521351711003
 31
0.0
  0
LINE
  5
1C8
330
2
100
AcDbEntity
  8
0
100
AcDbLine
 10
415.9617273088529
 20
221.3521351711003
 30
0.0
 11
415.9744251925274
 21
221.4982356202514
 31
0.0
  0
ARC
  5
1C9
330
2
100
AcDbEntity
  8
0
100
AcDbCircle
 10
416.162705019129
 20
221.4806236109367
 30
0.0
 40
0.1891017609103527
100
AcDbArc
 50
158.8468534090003
 51
174.6560076434006
  0
LINE
  5
1CA
330
2
100
AcDbEntity
  8
0
100
AcDbLine
 10
415.986345084871
 20
221.5488632590655
 30
0.0
 11
415.9894075529654
 21
221.556820883709
 31
0.0
  0
LINE
  5
1CB
330
2
100
AcDbEntity
  8
0
100
AcDbLine
 10
415.9894075529654
 20
221.556820883709
 30
0.0
 11
415.9894075529654
 21
221.5937007367941
 31
0.0
  0
ARC
  5
1CC
330
2
100
AcDbEntity
  8
0
100
AcDbCircle
 10
416.0701426322297
 20
221.5943843880324
 30
0.0
 40
0.0807379737065322
100
AcDbArc
 50
137.4113915766987
 51
180.4851595525993
  0
LINE
  5
1CD
330
2
100
AcDbEntity
  8
0
100
AcDbLine
 10
416.1847100145648
 20
221.7997185821529
 30
0.0
 11
416.0107007806561
 21
221.6490221650857
 31
0.0
  0
LINE
  5
1CE
330
2
100
AcDbEntity
  8
0
100
AcDbLine
 10
415.6572389123128
 20
220.1443045948295
 30
0.0
 11
415.747737826909
 21
220.2226789538749
 31
0.0
  0
ARC
  5
1CF
330
2
100
AcDbEntity
  8
0
100
AcDbCircle
 10
416.4916473239951
 20
220.8132891493852
 30
0.0
 40
0.0601659549823663
100
AcDbArc
 50
323.7656741552006
 51
359.714465494999
  0
LINE
  5
1D0
330
2
100
AcDbEntity
  8
0
100
AcDbLine
 10
416.5518125318726
 20
221.1817922399134
 30
0.0
 11
416.5518125318726
 21
220.8129893125549
 31
0.0
  0
LINE
  5
1D1
330
2
100
AcDbEntity
  8
0
100
AcDbLine
 10
416.5645104155045
 20
221.3278926891071
 30
0.0
 11
416.5518125318726
 21
221.1817922399134
 31
0.0
  0
ARC
  5
1D2
330
2
100
AcDbEntity
  8
0
100
AcDbCircle
 10
416.7527902421485
 20
221.3102806797498
 30
0.0
 40
0.1891017609114092
100
AcDbArc
 50
158.8468534090003
 51
174.6560076432992
  0
LINE
  5
1D3
330
2
100
AcDbEntity
  8
0
100
AcDbLine
 10
416.5794927759852
 20
221.3864779525222
 30
0.0
 11
416.5764303078906
 21
221.3785203279213
 31
0.0
  0
LINE
  5
1D4
330
2
100
AcDbEntity
  8
0
100
AcDbLine
 10
416.5794927759852
 20
221.4233578056072
 30
0.0
 11
416.5794927759852
 21
221.3864779525222
 31
0.0
  0
ARC
  5
1D5
330
2
100
AcDbEntity
  8
0
100
AcDbCircle
 10
416.6602278552494
 20
221.4240414568456
 30
0.0
 40
0.0807379737065804
100
AcDbArc
 50
137.4113915766987
 51
180.4851595525993
  0
LINE
  5
1D6
330
2
100
AcDbEntity
  8
0
100
AcDbLine
 10
416.7747952375846
 20
221.6293756509659
 30
0.0
 11
416.6007860036756
 21
221.4786792339413
 31
0.0
  0
LWPOLYLINE
  5
1D7
330
2
100
AcDbEntity
  8
0
100
AcDbPolyline
 90
        9
 70
   128
 43
0.0
 10
416.9860795182358
 20
221.4892934301627
 10
416.9778858613498
 20
221.5472587902454
 10
416.9630716637581
 20
221.5958777883172
 10
416.9421192038786
 20
221.6335654941907
 10
416.9157119210003
 20
221.659093641893
 10
416.8847103014104
 20
221.6716279997965
 10
416.85012522611
 20
221.6707613441147
 10
416.8130843382213
 20
221.6565228015735
 10
416.7747952375846
 20
221.6293756509659
  0
ARC
  5
1D8
330
2
100
AcDbEntity
  8
0
100
AcDbCircle
 10
416.2812422871136
 20
221.6552675034964
 30
0.0
 40
0.1892707707186942
100
AcDbArc
 50
354.8699411342013
 51
59.75354047500076
  0
ARC
  5
1D9
330
2
100
AcDbEntity
  8
0
100
AcDbCircle
 10
416.8713275616616
 20
221.484924557447
 30
0.0
 40
0.1892707707186488
100
AcDbArc
 50
354.8699411342013
 51
59.75354047500076
  0
LINE
  5
1DA
330
2
100
AcDbEntity
  8
0
100
AcDbLine
 10
421.2241761287666
 20
221.053736234022
 30
0.0
 11
421.2074696228627
 21
221.0392679755121
 31
0.0
  0
LWPOLYLINE
  5
1DB
330
2
100
AcDbEntity
  8
0
100
AcDbPolyline
 90
        9
 70
   128
 43
0.0
 10
421.4371045981653
 20
220.8693336712263
 10
421.4330134808951
 20
220.937741215402
 10
421.4208962351007
 20
220.9964325438695
 10
421.4012199093485
 20
221.0431533626746
 10
421.3747390155803
 20
221.0761071611795
 10
421.3424726842085
 20
221.0940288529334
 10
421.3056602440007
 20
221.0962298395556
 10
421.2657161668408
 20
221.0826238402614
 10
421.2241761287666
 20
221.053736234022
  0
LINE
  5
1DC
330
2
100
AcDbEntity
  8
0
100
AcDbLine
 10
421.4371045981653
 20
216.9821857250191
 30
0.0
 11
421.4371045981653
 21
220.8693336712263
 31
0.0
  0
LWPOLYLINE
  5
1DD
330
2
100
AcDbEntity
  8
0
100
AcDbPolyline
 90
        9
 70
   128
 43
0.0
 10
422.0271899413622
 20
220.6989907053745
 10
422.0230988241342
 20
220.7673982495077
 10
422.0109815783398
 20
220.8260895779752
 10
421.9913052525877
 20
220.8728103968229
 10
421.9648243587768
 20
220.9057641953278
 10
421.9325580274476
 20
220.9236858870391
 10
421.8957455872398
 20
220.9258868737038
 10
421.8558015100799
 20
220.912280874367
 10
421.8142614720058
 20
220.8833932681704
  0
LINE
  5
1DE
330
2
100
AcDbEntity
  8
0
100
AcDbLine
 10
422.0271899413622
 20
216.8564455748494
 30
0.0
 11
422.0271899413622
 21
220.6989907053745
 31
0.0
  0
LINE
  5
1DF
330
2
100
AcDbEntity
  8
0
100
AcDbLine
 10
421.8142614720058
 20
220.8833932681704
 30
0.0
 11
421.5108651822829
 21
220.6206443738321
 31
0.0
  0
LINE
  5
1E0
330
2
100
AcDbEntity
  8
0
100
AcDbLine
 10
421.5108654034306
 20
220.8480407608422
 30
0.0
 11
421.5108654034306
 21
216.9685602717096
 31
0.0
  0
LINE
  5
1E1
330
2
100
AcDbEntity
  8
0
100
AcDbLine
 10
422.1009504719066
 20
216.8667683643847
 30
0.0
 11
422.1009504719066
 21
220.6776978742852
 31
0.0
  0
LWPOLYLINE
  5
1E2
330
2
100
AcDbEntity
  8
0
100
AcDbPolyline
 90
        7
 70
   128
 43
0.0
 10
421.4160481930661
 20
221.0727897993649
 10
421.4162334895164
 20
221.0727359425493
 10
421.4484998208456
 20
221.0548142507954
 10
421.4749807146562
 20
221.0218604522905
 10
421.4946570404085
 20
220.9751396334428
 10
421.506774286203
 20
220.9164483049754
 10
421.5108654034306
 20
220.8480407608422
  0
LWPOLYLINE
  5
1E3
330
2
100
AcDbEntity
  8
0
100
AcDbPolyline
 90
        7
 70
   128
 43
0.0
 10
422.0061332614997
 20
220.9024469128079
 10
422.0063185579498
 20
220.9023930559922
 10
422.0385848893216
 20
220.8844713642382
 10
422.0650657830896
 20
220.8515175657334
 10
422.0847421088418
 20
220.8047967468857
 10
422.0968593546364
 20
220.7461054184183
 10
422.1009504719066
 20
220.6776978742852
  0
ARC
  5
1E4
330
2
100
AcDbEntity
  8
0
100
AcDbCircle
 10
417.2708007120887
 20
221.1617880086475
 30
0.0
 40
0.1904751502567192
100
AcDbArc
 50
158.8750491748989
 51
173.1833693741004
  0
LINE
  5
1E5
330
2
100
AcDbEntity
  8
0
100
AcDbLine
 10
417.0931261248638
 20
221.2304358339722
 30
0.0
 11
417.0958173654454
 21
221.2374278821496
 31
0.0
  0
LINE
  5
1E6
330
2
100
AcDbEntity
  8
0
100
AcDbLine
 10
417.0958173654454
 20
221.2374278821496
 30
0.0
 11
417.0958173654454
 21
221.274307735277
 31
0.0
  0
ARC
  5
1E7
330
2
100
AcDbEntity
  8
0
100
AcDbCircle
 10
417.1765524447096
 20
221.2749913865155
 30
0.0
 40
0.0807379737065925
100
AcDbArc
 50
137.4113915766987
 51
180.4851595525993
  0
LINE
  5
1E8
330
2
100
AcDbEntity
  8
0
100
AcDbLine
 10
417.9049466913272
 20
222.0119152386155
 30
0.0
 11
417.1171105931358
 21
221.3296291635687
 31
0.0
  0
LWPOLYLINE
  5
1E9
330
2
100
AcDbEntity
  8
0
100
AcDbPolyline
 90
        9
 70
   128
 43
0.0
 10
418.117875160726
 20
221.8275126758198
 10
418.1137840434985
 20
221.8959202199956
 10
418.1016667977038
 20
221.954611548463
 10
418.0819904719514
 20
222.001332367268
 10
418.0555095781411
 20
222.034286165773
 10
418.0232432468119
 20
222.052207857527
 10
417.9864308066038
 20
222.0544088441492
 10
417.9464867294013
 20
222.0408028448549
 10
417.9049466913272
 20
222.0119152386155
  0
LINE
  5
1EA
330
2
100
AcDbEntity
  8
0
100
AcDbLine
 10
418.117875160726
 20
217.5312428045039
 30
0.0
 11
418.117875160726
 21
221.8275126758198
 31
0.0
  0
ARC
  5
1EB
330
2
100
AcDbEntity
  8
0
100
AcDbCircle
 10
418.4388420102163
 20
217.5093511470396
 30
0.0
 40
0.3217125473731266
100
AcDbArc
 50
176.0981640206001
 51
211.4991000133984
  0
LINE
  5
1EC
330
2
100
AcDbEntity
  8
0
100
AcDbLine
 10
418.3521514313914
 20
217.0975396230718
 30
0.0
 11
418.1645343305907
 21
217.3412611115043
 31
0.0
  0
LINE
  5
1ED
330
2
100
AcDbEntity
  8
0
100
AcDbLine
 10
418.2382949985168
 20
217.3199682408101
 30
0.0
 11
418.4055066447228
 21
217.102754215428
 31
0.0
  0
LWPOLYLINE
  5
1EE
330
2
100
AcDbEntity
  8
0
100
AcDbPolyline
 90
        9
 70
   128
 43
0.0
 10
418.7079604352745
 20
221.6571697297704
 10
418.7038693180467
 20
221.7255772739462
 10
418.6917520722522
 20
221.7842686024137
 10
418.6720757464573
 20
221.8309894212187
 10
418.6455948526894
 20
221.8639432197237
 10
418.6133285213602
 20
221.8818649114776
 10
418.5765160811524
 20
221.8840658980998
 10
418.53657200395
 20
221.8704598988055
 10
418.4950319658756
 20
221.8415722925663
  0
LINE
  5
1EF
330
2
100
AcDbEntity
  8
0
100
AcDbLine
 10
418.7079604352745
 20
217.3608998584545
 30
0.0
 11
418.7079604352745
 21
221.6571697297704
 31
0.0
  0
ARC
  5
1F0
330
2
100
AcDbEntity
  8
0
100
AcDbCircle
 10
419.0289272847651
 20
217.3390082009903
 30
0.0
 40
0.3217125473730995
100
AcDbArc
 50
176.0981640206001
 51
211.4991000133984
  0
LINE
  5
1F1
330
2
100
AcDbEntity
  8
0
100
AcDbLine
 10
418.7843171692223
 20
217.1323401728625
 30
0.0
 11
418.7546196051391
 21
217.1709181654549
 31
0.0
  0
LINE
  5
1F2
330
2
100
AcDbEntity
  8
0
100
AcDbLine
 10
418.4950319658756
 20
221.8415722925663
 30
0.0
 11
418.1916356761528
 21
221.5788233982708
 31
0.0
  0
LINE
  5
1F3
330
2
100
AcDbEntity
  8
0
100
AcDbLine
 10
418.8283802043319
 20
217.149625314563
 30
0.0
 11
418.7546196051391
 21
217.1709181654549
 31
0.0
  0
LINE
  5
1F4
330
2
100
AcDbEntity
  8
0
100
AcDbLine
 10
418.8392079899006
 20
217.1355604328998
 30
0.0
 11
418.8283802043319
 21
217.149625314563
 31
0.0
  0
ARC
  5
1F5
330
2
100
AcDbEntity
  8
0
100
AcDbCircle
 10
418.5126026781428
 20
217.4880582763029
 30
0.0
 40
0.3217125473730781
100
AcDbArc
 50
176.0981640206001
 51
211.4991000133984
  0
LINE
  5
1F6
330
2
100
AcDbEntity
  8
0
100
AcDbLine
 10
418.1916358286523
 20
221.8062198051256
 30
0.0
 11
418.1916358286523
 21
217.5099499337671
 31
0.0
  0
ARC
  5
1F7
330
2
100
AcDbEntity
  8
0
100
AcDbCircle
 10
419.1026878839578
 20
217.3177153500985
 30
0.0
 40
0.3217125473731124
100
AcDbArc
 50
176.0981640206001
 51
211.4991000133984
  0
LINE
  5
1F8
330
2
100
AcDbEntity
  8
0
100
AcDbLine
 10
418.7817210344674
 20
217.3396070075627
 30
0.0
 11
418.7817210344674
 21
221.6358768788786
 31
0.0
  0
LWPOLYLINE
  5
1F9
330
2
100
AcDbEntity
  8
0
100
AcDbPolyline
 90
        7
 70
   128
 43
0.0
 10
418.0968186182453
 20
222.0309688436484
 10
418.0970039146953
 20
222.0309149867901
 10
418.129270246067
 20
222.0129932950362
 10
418.1557511398352
 20
221.9800394965313
 10
418.1754274655874
 20
221.9333186777263
 10
418.1875447113822
 20
221.8746273492587
 10
418.1916358286523
 20
221.8062198051256
  0
LWPOLYLINE
  5
1FA
330
2
100
AcDbEntity
  8
0
100
AcDbPolyline
 90
        7
 70
   128
 43
0.0
 10
418.6869038241028
 20
221.860625917444
 10
418.6870891205528
 20
221.8605720605857
 10
418.719355451882
 20
221.8426503688318
 10
418.7458363456928
 20
221.8096965703269
 10
418.7655126714449
 20
221.7629757514793
 10
418.7776299172396
 20
221.7042844230544
 10
418.7817210344674
 20
221.6358768788786
  0
LWPOLYLINE
  5
1FB
330
2
100
AcDbEntity
  8
0
100
AcDbPolyline
 90
       31
 70
   128
 43
0.0
 10
415.7866888915301
 20
212.0655065221077
 10
415.8601760840475
 20
211.9586015830156
 10
415.9945432643195
 20
211.8017178664854
 10
416.1561149263718
 20
211.6513852189342
 10
416.3436275123259
 20
211.5087810136993
 10
416.5556127223127
 20
211.3750208249355
 10
416.7904117200506
 20
211.2511513958154
 10
417.0461872288131
 20
211.1381427502039
 10
417.3209379276223
 20
211.0368796403776
 10
417.6125120927348
 20
210.9481532126565
 10
417.9186289906729
 20
210.8726592280859
 10
418.2368919897753
 20
210.8109876829742
 10
418.5648108625593
 20
210.7636214996779
 10
418.8998188224839
 20
210.7309316088874
 10
419.2392936618912
 20
210.7131730454518
 10
419.580579760398
 20
210.7104859229533
 10
419.9210054811693
 20
210.7228911442588
 10
420.2579056434529
 20
210.750290509177
 10
420.5886447803086
 20
210.7924709917274
 10
420.9106340703153
 20
210.8491013177793
 10
421.2213525667699
 20
210.9197382932927
 10
421.518369821106
 20
211.0038305322734
 10
421.7993606811773
 20
211.1007185810379
 10
422.0621263115816
 20
211.2096442381017
 10
422.3046089524228
 20
211.3297550863233
 10
422.524912684672
 20
211.4601116881899
 10
422.7213120588891
 20
211.5996931550949
 10
422.8922710019666
 20
211.7474078095704
 10
423.0364508967523
 20
211.9020989135371
 10
423.1527227239245
 20
212.0625558177607
 10
423.1562248804014
 20
212.0681791171218
  0
ELLIPSE
  5
1FC
330
2
100
AcDbEntity
  8
0
100
AcDbEllipse
 10
419.7062466555242
 20
211.6243408198681
 30
0.0
 11
2.381833678210655
 21
17.09672097707565
 31
0.0
210
0.0
220
0.0
230
1.0
 40
0.2627169231999999
 41
4.720051259623203
 42
4.762307172944516
  0
SPLINE
  5
1FD
330
2
100
AcDbEntity
  8
0
100
AcDbSpline
210
0.0
220
0.0
230
1.0
 70
     8
 71
     3
 72
    11
 73
     7
 74
     0
 42
0.000000001
 43
0.0000000001
 40
0.0
 40
0.0
 40
0.0
 40
0.0
 40
0.2696935594784615
 40
0.5397261965964523
 40
0.8017982745136414
 40
1.0
 40
1.0
 40
1.0
 40
1.0
 10
424.4898309676086
 20
212.4999904651674
 30
0.0
 10
424.4725724175143
 20
212.4604517952297
 30
0.0
 10
424.438033618667
 20
212.3813247445679
 30
0.0
 10
424.3812509476862
 20
212.2026249381164
 30
0.0
 10
424.3357962079581
 20
212.0185027434777
 30
0.0
 10
424.3185314948458
 20
211.9024356889301
 30
0.0
 10
424.3110970158388
 20
211.8524552418281
 30
0.0
  0
SPLINE
  5
1FE
330
2
100
AcDbEntity
  8
0
100
AcDbSpline
210
0.0
220
0.0
230
1.0
 70
     8
 71
     3
 72
    11
 73
     7
 74
     0
 42
0.000000001
 43
0.0000000001
 40
0.0
 40
0.0
 40
0.0
 40
0.0
 40
0.2320361495726416
 40
0.5056156512632394
 40
0.7800474400660651
 40
1.0
 40
1.0
 40
1.0
 40
1.0
 10
423.9736185036941
 20
210.5188725948416
 30
0.0
 10
424.0001781105783
 20
210.5504164818229
 30
0.0
 10
424.0580525105665
 20
210.6191518189193
 30
0.0
 10
424.1323766979605
 20
210.7790778148527
 30
0.0
 10
424.1879340606685
 20
210.9596978456139
 30
0.0
 10
424.2073324331927
 20
211.0772918825858
 30
0.0
 10
424.2159628069216
 20
211.1296096987363
 30
0.0
  0
LINE
  5
1FF
330
2
100
AcDbEntity
  8
0
100
AcDbLine
 10
424.3570386442514
 20
212.59345760268
 30
0.0
 11
424.3357009014799
 21
212.5444839827637
 31
0.0
  0
SPLINE
  5
200
330
2
100
AcDbEntity
  8
0
100
AcDbSpline
210
0.0
220
0.0
230
1.0
 70
     8
 71
     3
 72
    11
 73
     7
 74
     0
 42
0.000000001
 43
0.0000000001
 40
0.0
 40
0.0
 40
0.0
 40
0.0
 40
0.2573395233001441
 40
0.5145718180404446
 40
0.7747417790111774
 40
1.0
 40
1.0
 40
1.0
 40
1.0
 10
424.180858508603
 20
211.8900518604338
 30
0.0
 10
424.1880399442336
 20
211.9563920417211
 30
0.0
 10
424.2023998231243
 20
212.0890447615846
 30
0.0
 10
424.2457928924115
 20
212.28241206057
 30
0.0
 10
424.2929889200115
 20
212.4419957575917
 30
0.0
 10
424.322162968416
 20
212.5119994506457
 30
0.0
 10
424.3357009014959
 20
212.5444839827475
 30
0.0
  0
ELLIPSE
  5
201
330
2
100
AcDbEntity
  8
0
100
AcDbEllipse
 10
419.2567046445648
 20
208.6159991713592
 30
0.0
 11
2.386401438674754
 21
17.12950820603257
 31
0.0
210
0.0
220
0.0
230
1.0
 40
0.2627169231999999
 41
4.913666229395773
 42
4.941161405434158
  0
SPLINE
  5
202
330
2
100
AcDbEntity
  8
0
100
AcDbSpline
210
0.0
220
0.0
230
1.0
 70
     8
 71
     3
 72
    10
 73
     6
 74
     0
 42
0.000000001
 43
0.0000000001
 40
0.0
 40
0.0
 40
0.0
 40
0.0
 40
0.0692407766504392
 40
0.4656684473936637
 40
1.0
 40
1.0
 40
1.0
 40
1.0
 10
423.9751323045672
 20
212.5946922453349
 30
0.0
 10
423.9805586897983
 20
212.5697649478719
 30
0.0
 10
424.0170530289391
 20
212.4021201514262
 30
0.0
 10
424.0746169116723
 20
212.0135541340723
 30
0.0
 10
424.1181605311433
 20
211.6404486654403
 30
0.0
 10
424.1431581129178
 20
211.4262557578239
 30
0.0
  0
ARC
  5
203
330
2
100
AcDbEntity
  8
0
100
AcDbCircle
 10
416.3804238787188
 20
213.4639221243457
 30
0.0
 40
2.136965052810637
100
AcDbArc
 50
207.2059758811013
 51
227.7842793981016
  0
ARC
  5
204
330
2
100
AcDbEntity
  8
0
100
AcDbCircle
 10
414.9861297262923
 20
213.0849710706274
 30
0.0
 40
0.2263298659107257
100
AcDbArc
 50
284.7321630622005
 51
310.9814589085017
  0
ARC
  5
205
330
2
100
AcDbEntity
  8
0
100
AcDbCircle
 10
416.305486338263
 20
213.3284883621664
 30
0.0
 40
1.851312310125448
100
AcDbArc
 50
203.3927829581001
 51
222.9387791963984
  0
LINE
  5
206
330
2
100
AcDbEntity
  8
0
100
AcDbLine
 10
424.1431581129266
 20
211.4262557578292
 30
0.0
 11
424.103673469408
 21
211.1620248383672
 31
0.0
  0
ARC
  5
207
330
2
100
AcDbEntity
  8
0
100
AcDbCircle
 10
422.7659539986388
 20
211.3651150419815
 30
0.0
 40
1.353048045437948
100
AcDbArc
 50
338.7584225804985
 51
351.3673771067993
  0
LWPOLYLINE
  5
208
330
2
100
AcDbEntity
  8
0
100
AcDbPolyline
 90
       35
 70
   128
 43
0.0
 10
415.975339347571
 20
212.3140507100595
 10
416.2272603214708
 20
212.4526536147877
 10
416.5010987086451
 20
212.580442901795
 10
416.7950032768938
 20
212.6965541631598
 10
417.1069887125343
 20
212.8002038298422
 10
417.434946022734
 20
212.890690565259
 10
417.7766594109143
 20
212.9674032168929
 10
418.1298198191017
 20
213.0298235016204
 10
418.4920409497872
 20
213.0775298072131
 10
418.8608746718271
 20
213.1101993396802
 10
419.2338286996126
 20
213.1276114465322
 10
419.6083827899999
 20
213.1296484363851
 10
419.9820061062609
 20
213.1162967950396
 10
420.3521740176864
 20
213.0876467322403
 10
420.7163846158668
 20
213.0438914439205
 10
421.0721770504496
 20
212.9853269483332
 10
421.4171472239407
 20
212.9123490208989
 10
421.748963778261
 20
212.8254507775517
 10
422.0653842279697
 20
212.7252191164872
 10
422.3642709302541
 20
212.6123315736322
 10
422.643603692013
 20
212.4875512177228
 10
422.9014953049158
 20
212.3517210665474
 10
423.1362025563731
 20
212.2057587102853
 10
423.3461400730512
 20
212.0506508496303
 10
423.5298890684913
 20
211.8874456413036
 10
423.6862075918374
 20
211.7172457095636
 10
423.8140388106755
 20
211.5412013583814
 10
423.912519905659
 20
211.3605017757827
 10
423.9809850051788
 20
211.176368690873
 10
424.0189713516919
 20
210.9900461672295
 10
424.0262223836506
 20
210.8027931185436
 10
424.0026886813326
 20
210.6158746089512
 10
423.948529949205
 20
210.4305546860244
 10
423.8641116049802
 20
210.2480845426183
 10
423.7500048189192
 20
210.0696981086511
  0
ARC
  5
209
330
2
100
AcDbEntity
  8
0
100
AcDbCircle
 10
421.6664477962437
 20
211.6833661885372
 30
0.0
 40
2.635362316410199
100
AcDbArc
 50
299.5437663133995
 51
322.2430229849006
  0
LWPOLYLINE
  5
20A
330
2
100
AcDbEntity
  8
0
100
AcDbPolyline
 90
       35
 70
   128
 43
0.0
 10
422.9659139935415
 20
209.390655535019
 10
422.7139930195987
 20
209.2520526302908
 10
422.440154632425
 20
209.1242633432835
 10
422.1462504763636
 20
209.0081519628915
 10
421.8342652893381
 20
208.9045025908173
 10
421.5063079790962
 20
208.8140158554431
 10
421.1645944110339
 20
208.7373028893561
 10
420.8114340028465
 20
208.6748826046286
 10
420.4492125973978
 20
208.6271763783733
 10
420.0803792273716
 20
208.5945067442539
 10
419.70742503644
 20
208.5770946845017
 10
419.3328705085693
 20
208.5750574545504
 10
418.959247372233
 20
208.5884094103489
 10
418.5890795294985
 20
208.6170594533035
 10
418.2248693172726
 20
208.6608149966265
 10
417.8690767028077
 20
208.7193791777608
 10
417.5241067091989
 20
208.7923574196055
 10
417.1922901548787
 20
208.8792556629527
 10
416.8758697051699
 20
208.9794873240172
 10
416.5769828230031
 20
209.0923745524192
 10
416.2976502411692
 20
209.2171552228242
 10
416.0397582422267
 20
209.3529851190388
 10
415.8050509221211
 20
209.4989474951033
 10
415.5951132255183
 20
209.6540550413478
 10
415.4113646675615
 20
209.8172604897304
 10
415.2550463074033
 20
209.9874603743705
 10
415.1272147365093
 20
210.1635048271622
 10
415.0287339162892
 20
210.3442043304663
 10
414.9602688167694
 20
210.5283374153334
 10
414.922282650181
 20
210.7146602534299
 10
414.9150316181794
 20
210.9019133021584
 10
414.9385650719246
 20
211.0888315171429
 10
414.9927233918648
 20
211.2741515590115
 10
415.0771417360898
 20
211.4566217024603
 10
415.1912485221506
 20
211.6350081363848
  0
ARC
  5
20B
330
2
100
AcDbEntity
  8
0
100
AcDbCircle
 10
417.2748093708139
 20
210.0213356386546
 30
0.0
 40
2.63536804636833
100
AcDbArc
 50
119.5437913182008
 51
142.2429979799991
  0
SPLINE
  5
20C
330
2
100
AcDbEntity
  8
0
100
AcDbSpline
210
0.0
220
0.0
230
1.0
 70
     9
 71
     3
 72
    26
 73
    22
 74
     0
 42
0.000000001
 43
0.0000000001
 40
0.0
 40
0.0
 40
0.0
 40
0.0
 40
0.0537504859357129
 40
0.1075019326881831
 40
0.161224424574489
 40
0.2148848836858251
 40
0.2685272815586537
 40
0.3221886893571609
 40
0.3758641409544932
 40
0.4295347216993445
 40
0.4832057396402464
 40
0.5368806009729063
 40
0.5905413534272017
 40
0.6441829418072063
 40
0.6978458410491765
 40
0.7515714088081215
 40
0.8053295788667293
 40
0.8590287102986373
 40
0.9126248346164008
 40
0.9661896450868672
 40
1.0
 40
1.0
 40
1.0
 40
1.0
 10
423.2199179300867
 20
211.1756314245718
 30
0.0
 10
423.2252689604639
 20
211.1940550417324
 30
0.0
 10
423.2359711168721
 20
211.2309026053848
 30
0.0
 10
423.2414458092216
 20
211.2871492283278
 30
0.0
 10
423.2383361237103
 20
211.3360065628773
 30
0.0
 10
423.2263022718765
 20
211.3724921294413
 30
0.0
 10
423.2066365898815
 20
211.3924502725566
 30
0.0
 10
423.1811603939611
 20
211.3937854197458
 30
0.0
 10
423.1524649418636
 20
211.3764061264909
 30
0.0
 10
423.1236850442201
 20
211.3423006827478
 30
0.0
 10
423.0981904569786
 20
211.29528008642
 30
0.0
 10
423.079155079896
 20
211.240559265777
 30
0.0
 10
423.0690643151485
 20
211.1842210385343
 30
0.0
 10
423.0692785865215
 20
211.1325506801226
 30
0.0
 10
423.0797916528466
 20
211.0913389422069
 30
0.0
 10
423.0992396767526
 20
211.0652642838566
 30
0.0
 10
423.1251079920197
 20
211.0574059503197
 30
0.0
 10
423.1541796249421
 20
211.0687351788587
 30
0.0
 10
423.1828368087811
 20
211.0980504231589
 30
0.0
 10
423.2053025244628
 20
211.1363111032104
 30
0.0
 10
423.2158402807922
 20
211.1646611864009
 30
0.0
 10
423.2199179300867
 20
211.1756314245718
 30
0.0
  0
SPLINE
  5
20D
330
2
100
AcDbEntity
  8
0
100
AcDbSpline
210
0.0
220
0.0
230
1.0
 70
     8
 71
     3
 72
    12
 73
     8
 74
     0
 42
0.000000001
 43
0.0000000001
 40
0.0
 40
0.0
 40
0.0
 40
0.0
 40
0.2054863363261935
 40
0.458458861541389
 40
0.7091843374977043
 40
0.9583468934694751
 40
1.0
 40
1.0
 40
1.0
 40
1.0
 10
415.7849012579919
 20
213.2006910837253
 30
0.0
 10
415.7582296218492
 20
213.1499547023548
 30
0.0
 10
415.6987227555529
 20
213.0367571824724
 30
0.0
 10
415.5901146597694
 20
212.9025777941832
 30
0.0
 10
415.4849146846946
 20
212.8185995664871
 30
0.0
 10
415.4149371712398
 20
212.7887652197903
 30
0.0
 10
415.3902553564178
 20
212.8072100565319
 30
0.0
 10
415.3867202157949
 20
212.8098518838087
 30
0.0
  0
ARC
  5
20E
330
2
100
AcDbEntity
  8
0
100
AcDbCircle
 10
415.042823233349
 20
213.1680459669877
 30
0.0
 40
0.2781117361022525
100
AcDbArc
 50
285.0099650397002
 51
312.3098719752998
  0
ARC
  5
20F
330
2
100
AcDbEntity
  8
0
100
AcDbCircle
 10
414.2148897976458
 20
210.882275627006
 30
0.0
 40
1.781816690568174
100
AcDbArc
 50
173.6482412694013
 51
193.6181738404003
  0
LWPOLYLINE
  5
210
330
2
100
AcDbEntity
  8
0
100
AcDbPolyline
 90
        3
 70
   128
 43
0.0
 10
426.5286818012659
 20
210.805068810424
 10
426.5303823873241
 20
210.8824820126785
 10
426.52613380287
 20
211.004829601781
  0
LWPOLYLINE
  5
211
330
2
100
AcDbEntity
  8
0
100
AcDbPolyline
 90
        3
 70
   128
 43
0.0
 10
424.4187526608402
 20
213.9216467515838
 10
424.4191395396327
 20
213.9213526154929
 10
424.4241735723074
 20
213.9172640934399
  0
LINE
  5
212
330
2
100
AcDbEntity
  8
0
100
AcDbLine
 10
424.4241735723074
 20
213.9172640934399
 30
0.0
 11
424.4241735723074
 21
213.7939148667397
 31
0.0
  0
LINE
  5
213
330
2
100
AcDbEntity
  8
0
100
AcDbLine
 10
424.4350940392116
 20
213.5483473060511
 30
0.0
 11
424.4350940392116
 21
213.9078063444373
 31
0.0
  0
ARC
  5
214
330
2
100
AcDbEntity
  8
0
100
AcDbCircle
 10
424.3068199537328
 20
213.9237795862536
 30
0.0
 40
0.1228267121552083
100
AcDbArc
 50
359.1664623013994
 51
26.46882641139943
  0
LINE
  5
215
330
2
100
AcDbEntity
  8
0
100
AcDbLine
 10
414.7720593503184
 20
214.9870310068454
 30
0.0
 11
414.740136251066
 21
214.9962464118462
 31
0.0
  0
LWPOLYLINE
  5
216
330
2
100
AcDbEntity
  8
0
100
AcDbPolyline
 90
        8
 70
   128
 43
0.0
 10
414.3219557338531
 20
214.4469792656633
 10
414.3137608078269
 20
214.3719789284539
 10
414.2911870039763
 20
214.2951268498052
 10
414.2576711907167
 20
214.2281228811445
 10
414.2183153663196
 20
214.1811679498618
 10
414.1791112058204
 20
214.161410179148
 10
414.1460275394353
 20
214.1718578588022
 10
414.1354053568129
 20
214.1847351419524
  0
LWPOLYLINE
  5
217
330
2
100
AcDbEntity
  8
0
100
AcDbPolyline
 90
        5
 70
   128
 43
0.0
 10
414.2410757358028
 20
214.552412296256
 10
414.2595133674427
 20
214.5582194937222
 10
414.2925970338279
 20
214.5477718140254
 10
414.3145242038342
 20
214.5087096593202
 10
414.3219557338531
 20
214.4469792656633
  0
LWPOLYLINE
  5
218
330
2
100
AcDbEntity
  8
0
100
AcDbPolyline
 90
        8
 70
   128
 43
0.0
 10
414.2441514459317
 20
214.1185538884589
 10
414.2469404114053
 20
214.1184192463347
 10
414.2867328247096
 20
214.1325445795979
 10
414.3280793167956
 20
214.1742866621974
 10
414.3653962456705
 20
214.2380083854957
 10
414.3936431669521
 20
214.3151030947485
 10
414.4090056389689
 20
214.395159381338
 10
414.411123222069
 20
214.431977134159
  0
LWPOLYLINE
  5
219
330
2
100
AcDbEntity
  8
0
100
AcDbPolyline
 90
       12
 70
   128
 43
0.0
 10
424.8284810666836
 20
214.1855485671269
 10
424.8159442657645
 20
214.1706362015814
 10
424.7824282177719
 20
214.1616837585086
 10
424.7430724257825
 20
214.1828951052872
 10
424.7038685518853
 20
214.2310404833446
 10
424.6707849108814
 20
214.298791113139
 10
424.648858129044
 20
214.3758314871254
 10
424.6414260753057
 20
214.4504338195081
 10
424.649621163924
 20
214.511240081604
 10
424.6721948340129
 20
214.5489932236953
 10
424.7057111993115
 20
214.5579459415738
 10
424.722306878056
 20
214.5524120854567
  0
LWPOLYLINE
  5
21A
330
2
100
AcDbEntity
  8
0
100
AcDbPolyline
 90
       11
 70
   128
 43
0.0
 10
424.772404468373
 20
214.1376094631247
 10
424.7551508084748
 20
214.1345003719976
 10
424.7158820259547
 20
214.1498681379322
 10
424.6753782059463
 20
214.1921348801448
 10
424.6391083817116
 20
214.2555919752205
 10
424.6119715666191
 20
214.3316693827352
 10
424.597632897947
 20
214.4100920363884
 10
424.598027884893
 20
214.4802686239994
 10
424.6131046776643
 20
214.5327220263161
 10
424.6408263673638
 20
214.5603672956168
 10
424.6494453478676
 20
214.5629037431008
  0
LWPOLYLINE
  5
21B
330
2
100
AcDbEntity
  8
0
100
AcDbPolyline
 90
        7
 70
   128
 43
0.0
 10
424.5522525896132
 20
214.436694152366
 10
424.5594790568002
 20
214.3596738441389
 10
424.5809765589751
 20
214.2795956838553
 10
424.6138405632018
 20
214.2072742038923
 10
424.6536325863361
 20
214.1524771682014
 10
424.6949793519075
 20
214.1226049468193
 10
424.7316555732543
 20
214.1214318495153
  0
LINE
  5
21C
330
2
100
AcDbEntity
  8
0
100
AcDbLine
 10
415.9648447163776
 20
221.5454716373119
 30
0.0
 11
415.9648447163776
 21
221.3880040951043
 31
0.0
  0
LWPOLYLINE
  5
21D
330
2
100
AcDbEntity
  8
0
100
AcDbPolyline
 90
        5
 70
   128
 43
0.0
 10
415.691653818212
 20
220.0857034238114
 10
415.6728862065371
 20
220.077071489451
 10
415.653548110273
 20
220.0827044764705
 10
415.6406268555635
 20
220.105008906898
 10
415.6360896307503
 20
220.1405896008561
  0
LINE
  5
21E
330
2
100
AcDbEntity
  8
0
100
AcDbLine
 10
415.9435514886873
 20
220.9738256710889
 30
0.0
 11
415.9617270400945
 21
220.9895661603178
 31
0.0
  0
LINE
  5
21F
330
2
100
AcDbEntity
  8
0
100
AcDbLine
 10
416.5426397148207
 20
220.7812150547034
 30
0.0
 11
416.5401773781834
 21
220.7819258700615
 31
0.0
  0
ELLIPSE
  5
220
330
2
100
AcDbEntity
  8
0
100
AcDbEllipse
 10
420.1810713430281
 20
205.164134429915
 30
0.0
 11
-2.490000906757673
 21
44.95002057916816
 31
0.0
210
0.0
220
0.0
230
1.0
 40
0.0856500668
 41
1.384911538832187
 42
1.406311398868426
  0
ELLIPSE
  5
221
330
2
100
AcDbEntity
  8
0
100
AcDbEllipse
 10
418.7601824018827
 20
203.9336085109165
 30
0.0
 11
2.297502631803779
 21
49.06023668950071
 31
0.0
210
0.0
220
0.0
230
1.0
 40
0.0808772069
 41
1.392030094927459
 42
1.416954531685729
  0
LINE
  5
222
330
2
100
AcDbEntity
  8
0
100
AcDbLine
 10
422.6922996938227
 20
216.8683359767847
 30
0.0
 11
422.7182068425102
 21
216.8053323701689
 31
0.0
  0
LINE
  5
223
330
2
100
AcDbEntity
  8
0
100
AcDbLine
 10
413.3280521455996
 20
214.2790296237538
 30
0.0
 11
413.3539592187406
 21
214.3420333027789
 31
0.0
  0
SPLINE
  5
224
330
2
100
AcDbEntity
  8
_U+56FE_U+5C42 1
100
AcDbSpline
210
0.0
220
0.0
230
1.0
 70
     8
 71
     3
 72
     8
 73
     4
 74
     0
 42
0.000000001
 43
0.0000000001
 40
0.0
 40
0.0
 40
0.0
 40
0.0
 40
1.0
 40
1.0
 40
1.0
 40
1.0
 10
400.8821126534786
 20
218.1082875555977
 30
0.0
 10
400.9003863198481
 20
218.1143622479455
 30
0.0
 10
400.9036344206545
 20
218.1147837572104
 30
0.0
 10
400.9068825214611
 20
218.1155771864152
 30
0.0
  0
SPLINE
  5
226
330
2
100
AcDbEntity
  8
_U+56FE_U+5C42 1
100
AcDbSpline
210
0.0
220
0.0
230
1.0
 70
     8
 71
     3
 72
     8
 73
     4
 74
     0
 42
0.000000001
 43
0.0000000001
 40
1.0
 40
1.0
 40
1.0
 40
1.0
 40
2.0
 40
2.0
 40
2.0
 40
2.0
 10
400.9068825214611
 20
218.1155771864152
 30
0.0
 10
400.9206931485547
 20
218.1192467964869
 30
0.0
 10
400.9414214865262
 20
218.1342723620495
 30
0.0
 10
400.9588769290282
 20
218.1509343753475
 30
0.0
  0
SPLINE
  5
227
330
2
100
AcDbEntity
  8
_U+56FE_U+5C42 1
100
AcDbSpline
210
0.0
220
0.0
230
1.0
 70
     8
 71
     3
 72
     8
 73
     4
 74
     0
 42
0.000000001
 43
0.0000000001
 40
2.0
 40
2.0
 40
2.0
 40
2.0
 40
3.0
 40
3.0
 40
3.0
 40
3.0
 10
400.9588769290282
 20
218.1509343753475
 30
0.0
 10
400.9767538807953
 20
218.1675963886451
 30
0.0
 10
400.9922009556233
 20
218.1858700550145
 30
0.0
 10
401.0055900734518
 20
218.2069951075886
 30
0.0
  0
SPLINE
  5
228
330
2
100
AcDbEntity
  8
_U+56FE_U+5C42 1
100
AcDbSpline
210
0.0
220
0.0
230
1.0
 70
     8
 71
     3
 72
     8
 73
     4
 74
     0
 42
0.000000001
 43
0.0000000001
 40
3.0
 40
3.0
 40
3.0
 40
3.0
 40
4.0
 40
4.0
 40
4.0
 40
4.0
 10
401.0055900734518
 20
218.2069951075886
 30
0.0
 10
401.0198222098108
 20
218.2293350986319
 30
0.0
 10
401.0311781653014
 20
218.2545264758794
 30
0.0
 10
401.0405257531192
 20
218.2817262208013
 30
0.0
  0
SPLINE
  5
229
330
2
100
AcDbEntity
  8
_U+56FE_U+5C42 1
100
AcDbSpline
210
0.0
220
0.0
230
1.0
 70
     8
 71
     3
 72
     8
 73
     4
 74
     0
 42
0.000000001
 43
0.0000000001
 40
4.0
 40
4.0
 40
4.0
 40
4.0
 40
5.0
 40
5.0
 40
5.0
 40
5.0
 10
401.0405257531192
 20
218.2817262208013
 30
0.0
 10
401.0506915648035
 20
218.3121988611927
 30
0.0
 10
401.0584027048865
 20
218.3447046639207
 30
0.0
 10
401.0628657441627
 20
218.3796403435878
 30
0.0
  0
SPLINE
  5
22A
330
2
100
AcDbEntity
  8
_U+56FE_U+5C42 1
100
AcDbSpline
210
0.0
220
0.0
230
1.0
 70
     8
 71
     3
 72
     8
 73
     4
 74
     0
 42
0.000000001
 43
0.0000000001
 40
5.0
 40
5.0
 40
5.0
 40
5.0
 40
6.0
 40
6.0
 40
6.0
 40
6.0
 10
401.0628657441627
 20
218.3796403435878
 30
0.0
 10
401.0677502927037
 20
218.4157909617246
 30
0.0
 10
401.0701801696423
 20
218.4543962514632
 30
0.0
 10
401.0701801696423
 20
218.4946131942742
 30
0.0
  0
SPLINE
  5
22B
330
2
100
AcDbEntity
  8
_U+56FE_U+5C42 1
100
AcDbSpline
210
0.0
220
0.0
230
1.0
 70
     8
 71
     3
 72
     8
 73
     4
 74
     0
 42
0.000000001
 43
0.0000000001
 40
6.0
 40
6.0
 40
6.0
 40
6.0
 40
7.0
 40
7.0
 40
7.0
 40
7.0
 10
401.0701801696423
 20
218.4946131942742
 30
0.0
 10
401.0697834550406
 20
218.5344086278196
 30
0.0
 10
401.0669320688363
 20
218.5758405091
 30
0.0
 10
401.0616508056931
 20
218.6180906142475
 30
0.0
  0
SPLINE
  5
22C
330
2
100
AcDbEntity
  8
_U+56FE_U+5C42 1
100
AcDbSpline
210
0.0
220
0.0
230
1.0
 70
     8
 71
     3
 72
     8
 73
     4
 74
     0
 42
0.000000001
 43
0.0000000001
 40
7.0
 40
7.0
 40
7.0
 40
7.0
 40
7.385649997684987
 40
7.385649997684987
 40
7.385649997684987
 40
7.385649997684987
 10
401.0616508056931
 20
218.6180906142475
 30
0.0
 10
401.0597766416212
 20
218.6343843672001
 30
0.0
 10
401.0574747149016
 20
218.650740809506
 30
0.0
 10
401.0548175539814
 20
218.6671570969125
 30
0.0
  0
SPLINE
  5
22D
330
2
100
AcDbEntity
  8
_U+56FE_U+5C42 1
100
AcDbSpline
210
0.0
220
0.0
230
1.0
 70
     8
 71
     3
 72
     8
 73
     4
 74
     0
 42
0.000000001
 43
0.0000000001
 40
9.310826318689466
 40
9.310826318689466
 40
9.310826318689466
 40
9.310826318689466
 40
10.0
 40
10.0
 40
10.0
 40
10.0
 10
400.991199155197
 20
218.9114630978087
 30
0.0
 10
400.9809945101546
 20
218.9397514547537
 30
0.0
 10
400.9698151314665
 20
218.9673960809921
 30
0.0
 10
400.9580587051608
 20
218.9942752359022
 30
0.0
  0
SPLINE
  5
22E
330
2
100
AcDbEntity
  8
_U+56FE_U+5C42 1
100
AcDbSpline
210
0.0
220
0.0
230
1.0
 70
     8
 71
     3
 72
     8
 73
     4
 74
     0
 42
0.000000001
 43
0.0000000001
 40
10.0
 40
10.0
 40
10.0
 40
10.0
 40
11.0
 40
11.0
 40
11.0
 40
11.0
 10
400.9580587051608
 20
218.9942752359022
 30
0.0
 10
400.9414214865262
 20
219.0312440779063
 30
0.0
 10
400.9239412493609
 20
219.0665764721758
 30
0.0
 10
400.9052460737263
 20
219.0994789895063
 30
0.0
  0
SPLINE
  5
22F
330
2
100
AcDbEntity
  8
_U+56FE_U+5C42 1
100
AcDbSpline
210
0.0
220
0.0
230
1.0
 70
     8
 71
     3
 72
     8
 73
     4
 74
     0
 42
0.000000001
 43
0.0000000001
 40
0.0
 40
0.0
 40
0.0
 40
0.0
 40
1.0
 40
1.0
 40
1.0
 40
1.0
 10
400.7896409591428
 20
219.2569498919667
 30
0.0
 10
400.7823265336623
 20
219.2642395227842
 30
0.0
 10
400.775421220116
 20
219.271157233662
 30
0.0
 10
400.7681067946349
 20
219.2776534352752
 30
0.0
  0
SPLINE
  5
230
330
2
100
AcDbEntity
  8
_U+56FE_U+5C42 1
100
AcDbSpline
210
0.0
220
0.0
230
1.0
 70
     8
 71
     3
 72
     8
 73
     4
 74
     0
 42
0.000000001
 43
0.0000000001
 40
1.0
 40
1.0
 40
1.0
 40
1.0
 40
2.0
 40
2.0
 40
2.0
 40
2.0
 10
400.7681067946349
 20
219.2776534352752
 30
0.0
 10
400.7648586938286
 20
219.2805048214793
 30
0.0
 10
400.7616105930225
 20
219.2833314130206
 30
0.0
 10
400.7583500948847
 20
219.286182799225
 30
0.0
  0
LINE
  5
231
330
2
100
AcDbEntity
  8
_U+56FE_U+5C42 1
100
AcDbLine
 10
400.8067120843738
 20
218.0866170204454
 30
0.0
 11
400.8822614214542
 21
218.1081387876217
 31
0.0
  0
LINE
  5
232
330
2
100
AcDbEntity
  8
_U+56FE_U+5C42 1
100
AcDbLine
 10
400.7583253002222
 20
219.2863315672013
 30
0.0
 11
400.5304251585172
 21
219.4837466711833
 31
0.0
  0
SPLINE
  5
233
330
2
100
AcDbEntity
  8
_U+56FE_U+5C42 1
100
AcDbSpline
210
0.0
220
0.0
230
1.0
 70
     8
 71
     3
 72
     8
 73
     4
 74
     0
 42
0.000000001
 43
0.0000000001
 40
0.0
 40
0.0
 40
0.0
 40
0.0
 40
1.0
 40
1.0
 40
1.0
 40
1.0
 10
386.8165592360563
 20
214.8871633420207
 30
0.0
 10
386.8132987379182
 20
214.8843119558167
 30
0.0
 10
386.8104597490455
 20
214.8810638550101
 30
0.0
 10
386.808017474775
 20
214.878212468806
 30
0.0
  0
SPLINE
  5
234
330
2
100
AcDbEntity
  8
_U+56FE_U+5C42 1
100
AcDbSpline
210
0.0
220
0.0
230
1.0
 70
     8
 71
     3
 72
     8
 73
     4
 74
     0
 42
0.000000001
 43
0.0000000001
 40
1.0
 40
1.0
 40
1.0
 40
1.0
 40
2.0
 40
2.0
 40
2.0
 40
2.0
 10
386.808017474775
 20
214.878212468806
 30
0.0
 10
386.7897438084057
 20
214.8579056400995
 30
0.0
 10
386.7783630582518
 20
214.8318960389845
 30
0.0
 10
386.7706519181687
 20
214.8059112325322
 30
0.0
  0
SPLINE
  5
235
330
2
100
AcDbEntity
  8
_U+56FE_U+5C42 1
100
AcDbSpline
210
0.0
220
0.0
230
1.0
 70
     8
 71
     3
 72
     8
 73
     4
 74
     0
 42
0.000000001
 43
0.0000000001
 40
2.0
 40
2.0
 40
2.0
 40
2.0
 40
3.0
 40
3.0
 40
3.0
 40
3.0
 10
386.7706519181687
 20
214.8059112325322
 30
0.0
 10
386.7625192688212
 20
214.779504916815
 30
0.0
 10
386.7580562295453
 20
214.7530986010976
 30
0.0
 10
386.7584653414785
 20
214.7262707761155
 30
0.0
  0
SPLINE
  5
236
330
2
100
AcDbEntity
  8
_U+56FE_U+5C42 1
100
AcDbSpline
210
0.0
220
0.0
230
1.0
 70
     8
 71
     3
 72
     8
 73
     4
 74
     0
 42
0.000000001
 43
0.0000000001
 40
3.0
 40
3.0
 40
3.0
 40
3.0
 40
4.0
 40
4.0
 40
4.0
 40
4.0
 10
386.7584653414785
 20
214.7262707761155
 30
0.0
 10
386.7588620560812
 20
214.7035340704698
 30
0.0
 10
386.7629283807545
 20
214.6803758555588
 30
0.0
 10
386.772275968572
 20
214.6600690268527
 30
0.0
  0
SPLINE
  5
237
330
2
100
AcDbEntity
  8
_U+56FE_U+5C42 1
100
AcDbSpline
210
0.0
220
0.0
230
1.0
 70
     8
 71
     3
 72
     8
 73
     4
 74
     0
 42
0.000000001
 43
0.0000000001
 40
4.0
 40
4.0
 40
4.0
 40
4.0
 40
5.0
 40
5.0
 40
5.0
 40
5.0
 10
386.772275968572
 20
214.6600690268527
 30
0.0
 10
386.779987108655
 20
214.6417953604829
 30
0.0
 10
386.7917769707426
 20
214.6255300617874
 30
0.0
 10
386.803963547433
 20
214.6096862723572
 30
0.0
  0
SPLINE
  5
238
330
2
100
AcDbEntity
  8
_U+56FE_U+5C42 1
100
AcDbSpline
210
0.0
220
0.0
230
1.0
 70
     8
 71
     3
 72
     8
 73
     4
 74
     0
 42
0.000000001
 43
0.0000000001
 40
0.0
 40
0.0
 40
0.0
 40
0.0
 40
1.0
 40
1.0
 40
1.0
 40
1.0
 10
387.0450668469956
 20
214.9839121156628
 30
0.0
 10
387.0292230575651
 20
214.9859204833371
 30
0.0
 10
387.0133792681352
 20
214.9879536456745
 30
0.0
 10
386.9971263667712
 20
214.9875569310717
 30
0.0
  0
SPLINE
  5
239
330
2
100
AcDbEntity
  8
_U+56FE_U+5C42 1
100
AcDbSpline
210
0.0
220
0.0
230
1.0
 70
     8
 71
     3
 72
     8
 73
     4
 74
     0
 42
0.000000001
 43
0.0000000001
 40
1.0
 40
1.0
 40
1.0
 40
1.0
 40
2.0
 40
2.0
 40
2.0
 40
2.0
 10
386.9971263667712
 20
214.9875569310717
 30
0.0
 10
386.9739681518603
 20
214.9867387072041
 30
0.0
 10
386.9512190488832
 20
214.9810607294587
 30
0.0
 10
386.9284699459058
 20
214.9725313655085
 30
0.0
  0
SPLINE
  5
23A
330
2
100
AcDbEntity
  8
_U+56FE_U+5C42 1
100
AcDbSpline
210
0.0
220
0.0
230
1.0
 70
     8
 71
     3
 72
     8
 73
     4
 74
     0
 42
0.000000001
 43
0.0000000001
 40
2.0
 40
2.0
 40
2.0
 40
2.0
 40
3.0
 40
3.0
 40
3.0
 40
3.0
 10
386.9284699459058
 20
214.9725313655085
 30
0.0
 10
386.9049150163931
 20
214.9635804922938
 30
0.0
 10
386.8825626280183
 20
214.951406312935
 30
0.0
 10
386.8630616258482
 20
214.9351410142396
 30
0.0
  0
SPLINE
  5
23B
330
2
100
AcDbEntity
  8
_U+56FE_U+5C42 1
100
AcDbSpline
210
0.0
220
0.0
230
1.0
 70
     8
 71
     3
 72
     8
 73
     4
 74
     0
 42
0.000000001
 43
0.0000000001
 40
3.0
 40
3.0
 40
3.0
 40
3.0
 40
4.0
 40
4.0
 40
4.0
 40
4.0
 10
386.8630616258482
 20
214.9351410142396
 30
0.0
 10
386.846002897948
 20
214.9213303871467
 30
0.0
 10
386.8313864443186
 20
214.9042716592462
 30
0.0
 10
386.8167575933581
 20
214.8872129313461
 30
0.0
  0
LINE
  5
23C
330
2
100
AcDbEntity
  8
_U+56FE_U+5C42 1
100
AcDbLine
 10
387.1569403648517
 20
214.9242313626755
 30
0.0
 11
387.1159051981732
 21
214.9514311075975
 31
0.0
  0
LINE
  5
23D
330
2
100
AcDbEntity
  8
_U+56FE_U+5C42 1
100
AcDbLine
 10
386.803480051511
 20
214.6088432538275
 30
0.0
 11
386.8449119327912
 21
214.5637417624755
 31
0.0
  0
SPLINE
  5
23E
330
2
100
AcDbEntity
  8
_U+56FE_U+5C42 1
100
AcDbSpline
210
0.0
220
0.0
230
1.0
 70
     8
 71
     3
 72
     8
 73
     4
 74
     0
 42
0.000000001
 43
0.0000000001
 40
0.0
 40
0.0
 40
0.0
 40
0.0
 40
1.0
 40
1.0
 40
1.0
 40
1.0
 10
397.4663875301295
 20
218.0021168101504
 30
0.0
 10
397.4253523634525
 20
217.970007722025
 30
0.0
 10
397.411132624425
 20
217.9582302572684
 30
0.0
 10
397.3904166837852
 20
217.9297907792141
 30
0.0
  0
SPLINE
  5
23F
330
2
100
AcDbEntity
  8
_U+56FE_U+5C42 1
100
AcDbSpline
210
0.0
220
0.0
230
1.0
 70
     8
 71
     3
 72
     8
 73
     4
 74
     0
 42
0.000000001
 43
0.0000000001
 40
1.0
 40
1.0
 40
1.0
 40
1.0
 40
2.0
 40
2.0
 40
2.0
 40
2.0
 10
397.3904166837852
 20
217.9297907792141
 30
0.0
 10
397.3847263087078
 20
217.9216581298663
 30
0.0
 10
397.3782301070944
 20
217.9123353367116
 30
0.0
 10
397.3607622672608
 20
217.872118393901
 30
0.0
  0
SPLINE
  5
240
330
2
100
AcDbEntity
  8
_U+56FE_U+5C42 1
100
AcDbSpline
210
0.0
220
0.0
230
1.0
 70
     8
 71
     3
 72
     8
 73
     4
 74
     0
 42
0.000000001
 43
0.0000000001
 40
0.0
 40
0.0
 40
0.0
 40
0.0
 40
1.0
 40
1.0
 40
1.0
 40
1.0
 10
397.6877542782276
 20
218.0158282585936
 30
0.0
 10
397.67840669041
 20
218.0215062363393
 30
0.0
 10
397.664992777919
 20
218.0288206618193
 30
0.0
 10
397.6511821508255
 20
218.0336804156976
 30
0.0
  0
SPLINE
  5
241
330
2
100
AcDbEntity
  8
_U+56FE_U+5C42 1
100
AcDbSpline
210
0.0
220
0.0
230
1.0
 70
     8
 71
     3
 72
     8
 73
     4
 74
     0
 42
0.000000001
 43
0.0000000001
 40
1.0
 40
1.0
 40
1.0
 40
1.0
 40
2.0
 40
2.0
 40
2.0
 40
2.0
 10
397.6511821508255
 20
218.0336804156976
 30
0.0
 10
397.6292512717157
 20
218.0418130650454
 30
0.0
 10
397.606502168739
 20
218.0438462273825
 30
0.0
 10
397.583753065762
 20
218.0426312889128
 30
0.0
  0
SPLINE
  5
242
330
2
100
AcDbEntity
  8
_U+56FE_U+5C42 1
100
AcDbSpline
210
0.0
220
0.0
230
1.0
 70
     8
 71
     3
 72
     8
 73
     4
 74
     0
 42
0.000000001
 43
0.0000000001
 40
2.0
 40
2.0
 40
2.0
 40
2.0
 40
3.0
 40
3.0
 40
3.0
 40
3.0
 10
397.583753065762
 20
218.0426312889128
 30
0.0
 10
397.5605948508502
 20
218.0418130650454
 30
0.0
 10
397.5374366359401
 20
218.0381682496365
 30
0.0
 10
397.5155057568303
 20
218.0292173764218
 30
0.0
  0
SPLINE
  5
243
330
2
100
AcDbEntity
  8
_U+56FE_U+5C42 1
100
AcDbSpline
210
0.0
220
0.0
230
1.0
 70
     8
 71
     3
 72
     8
 73
     4
 74
     0
 42
0.000000001
 43
0.0000000001
 40
3.0
 40
3.0
 40
3.0
 40
3.0
 40
4.0
 40
4.0
 40
4.0
 40
4.0
 10
397.5155057568303
 20
218.0292173764218
 30
0.0
 10
397.4984470289306
 20
218.0223244602063
 30
0.0
 10
397.4826032395002
 20
218.0121586485217
 30
0.0
 10
397.4663503381362
 20
218.0019928368373
 30
0.0
  0
SPLINE
  5
244
330
2
100
AcDbEntity
  8
_U+56FE_U+5C42 1
100
AcDbSpline
210
0.0
220
0.0
230
1.0
 70
     8
 71
     3
 72
     8
 73
     4
 74
     0
 42
0.000000001
 43
0.0000000001
 40
0.0
 40
0.0
 40
0.0
 40
0.0
 40
1.0
 40
1.0
 40
1.0
 40
1.0
 10
397.3608490485809
 20
217.8720192152504
 30
0.0
 10
397.3539313377021
 20
217.8525058157487
 30
0.0
 10
397.3470260241557
 20
217.8325957016443
 30
0.0
 10
397.3437779233488
 20
217.8131070968052
 30
0.0
  0
SPLINE
  5
245
330
2
100
AcDbEntity
  8
_U+56FE_U+5C42 1
100
AcDbSpline
210
0.0
220
0.0
230
1.0
 70
     8
 71
     3
 72
     8
 73
     4
 74
     0
 42
0.000000001
 43
0.0000000001
 40
1.0
 40
1.0
 40
1.0
 40
1.0
 40
2.0
 40
2.0
 40
2.0
 40
2.0
 10
397.3437779233488
 20
217.8131070968052
 30
0.0
 10
397.3401207106093
 20
217.7899488818944
 30
0.0
 10
397.3425629848796
 20
217.7663939523815
 30
0.0
 10
397.3474351360891
 20
217.743632452073
 30
0.0
  0
SPLINE
  5
246
330
2
100
AcDbEntity
  8
_U+56FE_U+5C42 1
100
AcDbSpline
210
0.0
220
0.0
230
1.0
 70
     8
 71
     3
 72
     8
 73
     4
 74
     0
 42
0.000000001
 43
0.0000000001
 40
2.0
 40
2.0
 40
2.0
 40
2.0
 40
3.0
 40
3.0
 40
3.0
 40
3.0
 10
397.3474351360891
 20
217.743632452073
 30
0.0
 10
397.3519105726966
 20
217.7212924610299
 30
0.0
 10
397.3592126008461
 20
217.6993491845884
 30
0.0
 10
397.3730356252705
 20
217.6827119659534
 30
0.0
  0
SPLINE
  5
247
330
2
100
AcDbEntity
  8
_U+56FE_U+5C42 1
100
AcDbSpline
210
0.0
220
0.0
230
1.0
 70
     8
 71
     3
 72
     8
 73
     4
 74
     0
 42
0.000000001
 43
0.0000000001
 40
3.0
 40
3.0
 40
3.0
 40
3.0
 40
4.0
 40
4.0
 40
4.0
 40
4.0
 10
397.3730356252705
 20
217.6827119659534
 30
0.0
 10
397.3779077764805
 20
217.677009193545
 30
0.0
 10
397.3839948661596
 20
217.6713312157994
 30
0.0
 10
397.3900943531707
 20
217.6660499526559
 30
0.0
  0
LINE
  5
248
330
2
100
AcDbEntity
  8
_U+56FE_U+5C42 1
100
AcDbLine
 10
397.7408892402761
 20
217.9795536671437
 30
0.0
 11
397.6876674969076
 21
218.0157042852801
 31
0.0
  0
LINE
  5
249
330
2
100
AcDbEntity
  8
_U+56FE_U+5C42 1
100
AcDbLine
 10
397.3894124999481
 20
217.6665458459089
 30
0.0
 11
397.4288112188915
 21
217.6190144776178
 31
0.0
  0
LINE
  5
24A
330
2
100
AcDbEntity
  8
_U+56FE_U+5C42 1
100
AcDbLine
 10
397.4286996429088
 20
217.6191384509309
 30
0.0
 11
397.459159885969
 21
217.5931288498162
 31
0.0
  0
LINE
  5
24B
330
2
100
AcDbEntity
  8
_U+56FE_U+5C42 1
100
AcDbLine
 10
397.7710643447156
 20
217.9533457087272
 30
0.0
 11
397.7410008162582
 21
217.9793305151794
 31
0.0
  0
LINE
  5
24C
330
2
100
AcDbEntity
  8
_U+56FE_U+5C42 1
100
AcDbLine
 10
386.8447507674842
 20
214.5638409411262
 30
0.0
 11
386.875211010544
 21
214.5378313400111
 31
0.0
  0
LINE
  5
24D
330
2
100
AcDbEntity
  8
_U+56FE_U+5C42 1
100
AcDbLine
 10
387.1870906746281
 20
214.8978498416209
 30
0.0
 11
387.1570271461708
 21
214.9242313626755
 31
0.0
  0
LINE
  5
24E
330
2
100
AcDbEntity
  8
_U+56FE_U+5C42 1
100
AcDbLine
 10
397.4163890929058
 20
217.5437378818267
 30
0.0
 11
397.4383199720159
 21
217.5250427061921
 31
0.0
  0
LINE
  5
24F
330
2
100
AcDbEntity
  8
_U+56FE_U+5C42 1
100
AcDbLine
 10
403.3535950366371
 20
218.2907514780044
 30
0.0
 11
402.9790220680541
 21
218.6149168974296
 31
0.0
  0
LINE
  5
250
330
2
100
AcDbEntity
  8
_U+56FE_U+5C42 1
100
AcDbLine
 10
402.1527647300624
 20
219.3307140133364
 30
0.0
 11
401.4170575000505
 21
219.9676888966942
 31
0.0
  0
LINE
  5
251
330
2
100
AcDbEntity
  8
_U+56FE_U+5C42 1
100
AcDbLine
 10
401.4170575000505
 20
219.9676888966942
 30
0.0
 11
400.2766889783364
 21
220.9555330511458
 31
0.0
  0
LINE
  5
252
330
2
100
AcDbEntity
  8
_U+56FE_U+5C42 1
100
AcDbLine
 10
400.1985362016791
 20
220.9535246834714
 30
0.0
 11
383.8349514636334
 21
216.2297943242644
 31
0.0
  0
LINE
  5
253
330
2
100
AcDbEntity
  8
_U+56FE_U+5C42 1
100
AcDbLine
 10
400.2668732687761
 20
217.2703422367245
 30
0.0
 11
403.2750703400393
 21
214.6407539846519
 31
0.0
  0
LINE
  5
254
330
2
100
AcDbEntity
  8
_U+56FE_U+5C42 1
100
AcDbLine
 10
404.0224806508193
 20
214.868716113013
 30
0.0
 11
404.0224806508193
 21
214.9060816696191
 31
0.0
  0
LINE
  5
255
330
2
100
AcDbEntity
  8
_U+56FE_U+5C42 1
100
AcDbLine
 10
384.9504261440513
 20
210.0811394974938
 30
0.0
 11
402.6427816479213
 21
215.1883193145109
 31
0.0
  0
LINE
  5
256
330
2
100
AcDbEntity
  8
_U+56FE_U+5C42 1
100
AcDbLine
 10
381.1602148334402
 20
211.7594158279663
 30
0.0
 11
381.1602148334402
 21
211.7216287620949
 31
0.0
  0
SPLINE
  5
257
330
2
100
AcDbEntity
  8
_U+56FE_U+5C42 1
100
AcDbSpline
210
0.0
220
0.0
230
1.0
 70
     8
 71
     3
 72
     8
 73
     4
 74
     0
 42
0.000000001
 43
0.0000000001
 40
0.0
 40
0.0
 40
0.0
 40
0.0
 40
1.0
 40
1.0
 40
1.0
 40
1.0
 10
400.4631572387609
 20
218.3762434748054
 30
0.0
 10
400.5058040585105
 20
218.3896325926336
 30
0.0
 10
400.5362766989016
 20
218.4282378823726
 30
0.0
 10
400.5387065758405
 20
218.4729178644595
 30
0.0
  0
LINE
  5
258
330
2
100
AcDbEntity
  8
_U+56FE_U+5C42 1
100
AcDbLine
 10
400.4631572387609
 20
218.3762434748054
 30
0.0
 11
400.387992218952
 21
218.3546969129666
 31
0.0
  0
LINE
  5
259
330
2
100
AcDbEntity
  8
_U+56FE_U+5C42 1
100
AcDbLine
 10
400.3881657815901
 20
218.4662976895331
 30
0.0
 11
400.3881657815901
 21
218.3545729396534
 31
0.0
  0
SPLINE
  5
25A
330
2
100
AcDbEntity
  8
_U+56FE_U+5C42 1
100
AcDbSpline
210
0.0
220
0.0
230
1.0
 70
     8
 71
     3
 72
     8
 73
     4
 74
     0
 42
0.000000001
 43
0.0000000001
 40
0.0
 40
0.0
 40
0.0
 40
0.0
 40
1.0
 40
1.0
 40
1.0
 40
1.0
 10
400.3881657815901
 20
218.4662976895331
 30
0.0
 10
400.3881657815901
 20
218.487001232842
 30
0.0
 10
400.3715037682923
 20
218.4992002068633
 30
0.0
 10
400.3507878276525
 20
218.4926792105878
 30
0.0
  0
LINE
  5
25B
330
2
100
AcDbEntity
  8
_U+56FE_U+5C42 1
100
AcDbLine
 10
400.3132115164135
 20
218.4821662736261
 30
0.0
 11
400.3509861849535
 21
218.4927040052504
 31
0.0
  0
SPLINE
  5
25C
330
2
100
AcDbEntity
  8
_U+56FE_U+5C42 1
100
AcDbSpline
210
0.0
220
0.0
230
1.0
 70
     8
 71
     3
 72
     8
 73
     4
 74
     0
 42
0.000000001
 43
0.0000000001
 40
0.0
 40
0.0
 40
0.0
 40
0.0
 40
1.0
 40
1.0
 40
1.0
 40
1.0
 10
400.3132115164135
 20
218.4821662736261
 30
0.0
 10
400.2985826654525
 20
218.4776784396873
 30
0.0
 10
400.2851811502925
 20
218.465082751063
 30
0.0
 10
400.279081663282
 20
218.4500571855004
 30
0.0
  0
LINE
  5
25D
330
2
100
AcDbEntity
  8
_U+56FE_U+5C42 1
100
AcDbLine
 10
400.5385454105342
 20
219.4531252628164
 30
0.0
 11
400.5385454105342
 21
218.472868275134
 31
0.0
  0
LINE
  5
25E
330
2
100
AcDbEntity
  8
_U+56FE_U+5C42 1
100
AcDbLine
 10
400.3881657815901
 20
218.3546225289788
 30
0.0
 11
400.6266160522494
 21
218.148231757119
 31
0.0
  0
LINE
  5
25F
330
2
100
AcDbEntity
  8
_U+56FE_U+5C42 1
100
AcDbLine
 10
400.6035942079838
 20
218.9008737417175
 30
0.0
 11
400.61171446
 21
218.9890187674214
 31
0.0
  0
LINE
  5
260
330
2
100
AcDbEntity
  8
_U+56FE_U+5C42 1
100
AcDbLine
 10
400.61171446
 20
218.9890187674214
 30
0.0
 11
400.6344635629775
 21
219.0491458243368
 31
0.0
  0
LINE
  5
261
330
2
100
AcDbEntity
  8
_U+56FE_U+5C42 1
100
AcDbLine
 10
400.6344635629775
 20
219.0491458243368
 30
0.0
 11
400.6698083545781
 21
219.0836599947385
 31
0.0
  0
LINE
  5
262
330
2
100
AcDbEntity
  8
_U+56FE_U+5C42 1
100
AcDbLine
 10
400.6698083545781
 20
219.0836599947385
 30
0.0
 11
400.7144883366646
 21
219.0885445432798
 31
0.0
  0
LINE
  5
263
330
2
100
AcDbEntity
  8
_U+56FE_U+5C42 1
100
AcDbLine
 10
400.7144883366646
 20
219.0885445432798
 30
0.0
 11
400.7226209860125
 21
219.0848749332083
 31
0.0
  0
LINE
  5
264
330
2
100
AcDbEntity
  8
_U+56FE_U+5C42 1
100
AcDbLine
 10
400.8534996127858
 20
218.9546781596577
 30
0.0
 11
400.8640497417408
 21
218.9384128609626
 31
0.0
  0
LINE
  5
265
330
2
100
AcDbEntity
  8
_U+56FE_U+5C42 1
100
AcDbLine
 10
400.9481408401028
 20
218.6503980596746
 30
0.0
 11
400.9481408401028
 21
218.5614348101032
 31
0.0
  0
LINE
  5
266
330
2
100
AcDbEntity
  8
_U+56FE_U+5C42 1
100
AcDbLine
 10
400.9481408401028
 20
218.5614348101032
 30
0.0
 11
400.9331152745398
 21
218.4891087791668
 31
0.0
  0
LINE
  5
267
330
2
100
AcDbEntity
  8
_U+56FE_U+5C42 1
100
AcDbLine
 10
400.9331152745398
 20
218.4891087791668
 30
0.0
 11
400.9042790818837
 21
218.440362472406
 31
0.0
  0
LINE
  5
268
330
2
100
AcDbEntity
  8
_U+56FE_U+5C42 1
100
AcDbLine
 10
400.9042790818837
 20
218.440362472406
 30
0.0
 11
400.8640497417408
 21
218.4196589290972
 31
0.0
  0
LINE
  5
269
330
2
100
AcDbEntity
  8
_U+56FE_U+5C42 1
100
AcDbLine
 10
400.8640497417408
 20
218.4196589290972
 30
0.0
 11
400.8161216588479
 21
218.4281882930472
 31
0.0
  0
LINE
  5
26A
330
2
100
AcDbEntity
  8
_U+56FE_U+5C42 1
100
AcDbLine
 10
400.8161216588479
 20
218.4281882930472
 30
0.0
 11
400.7649330778169
 21
218.4651571350514
 31
0.0
  0
LINE
  5
26B
330
2
100
AcDbEntity
  8
_U+56FE_U+5C42 1
100
AcDbLine
 10
400.7649330778169
 20
218.4651571350514
 30
0.0
 11
400.7145627206528
 21
218.5281107835081
 31
0.0
  0
LINE
  5
26C
330
2
100
AcDbEntity
  8
_U+56FE_U+5C42 1
100
AcDbLine
 10
400.7145627206528
 20
218.5281107835081
 30
0.0
 11
400.6698703412348
 21
218.6105778314661
 31
0.0
  0
LINE
  5
26D
330
2
100
AcDbEntity
  8
_U+56FE_U+5C42 1
100
AcDbLine
 10
400.6698703412348
 20
218.6105778314661
 30
0.0
 11
400.6345379469649
 21
218.7060372826505
 31
0.0
  0
LINE
  5
26E
330
2
100
AcDbEntity
  8
_U+56FE_U+5C42 1
100
AcDbLine
 10
400.6345379469649
 20
218.7060372826505
 30
0.0
 11
400.6113797320548
 21
218.8055878531717
 31
0.0
  0
LINE
  5
26F
330
2
100
AcDbEntity
  8
_U+56FE_U+5C42 1
100
AcDbLine
 10
400.6113797320548
 20
218.8055878531717
 30
0.0
 11
400.6036561946403
 21
218.9010473043557
 31
0.0
  0
LINE
  5
270
330
2
100
AcDbEntity
  8
_U+56FE_U+5C42 1
100
AcDbLine
 10
400.2755112318608
 20
219.4481663302873
 30
0.0
 11
400.2755112318608
 21
219.3344084180706
 31
0.0
  0
SPLINE
  5
271
330
2
100
AcDbEntity
  8
_U+56FE_U+5C42 1
100
AcDbSpline
210
0.0
220
0.0
230
1.0
 70
     8
 71
     3
 72
     8
 73
     4
 74
     0
 42
0.000000001
 43
0.0000000001
 40
0.0
 40
0.0
 40
0.0
 40
0.0
 40
1.0
 40
1.0
 40
1.0
 40
1.0
 10
400.2005197746901
 20
219.4263470271596
 30
0.0
 10
400.1846759852598
 20
219.4214624786177
 30
0.0
 10
400.1700471342998
 20
219.4129331146682
 30
0.0
 10
400.1582696695428
 20
219.4011556499116
 30
0.0
  0
LINE
  5
272
330
2
100
AcDbEntity
  8
_U+56FE_U+5C42 1
100
AcDbLine
 10
400.2755112318608
 20
219.4481663302873
 30
0.0
 11
400.2003462120518
 21
219.4262230538458
 31
0.0
  0
SPLINE
  5
273
330
2
100
AcDbEntity
  8
_U+56FE_U+5C42 1
100
AcDbSpline
210
0.0
220
0.0
230
1.0
 70
     8
 71
     3
 72
     8
 73
     4
 74
     0
 42
0.000000001
 43
0.0000000001
 40
0.0
 40
0.0
 40
0.0
 40
0.0
 40
1.0
 40
1.0
 40
1.0
 40
1.0
 10
400.2755112318608
 20
219.334507596721
 30
0.0
 10
400.2755112318608
 20
219.3137792587498
 30
0.0
 10
400.2925699597612
 20
219.3020017939935
 30
0.0
 10
400.3132859004016
 20
219.3081012810038
 30
0.0
  0
LINE
  5
274
330
2
100
AcDbEntity
  8
_U+56FE_U+5C42 1
100
AcDbLine
 10
400.3132115164135
 20
219.3079277183654
 30
0.0
 11
400.3509861849535
 21
219.3184654499894
 31
0.0
  0
SPLINE
  5
275
330
2
100
AcDbEntity
  8
_U+56FE_U+5C42 1
100
AcDbSpline
210
0.0
220
0.0
230
1.0
 70
     8
 71
     3
 72
     8
 73
     4
 74
     0
 42
0.000000001
 43
0.0000000001
 40
0.0
 40
0.0
 40
0.0
 40
0.0
 40
1.0
 40
1.0
 40
1.0
 40
1.0
 10
400.3508746089714
 20
219.3186638072908
 30
0.0
 10
400.3715905496112
 20
219.3247384996395
 30
0.0
 10
400.3882401655777
 20
219.3462850614776
 30
0.0
 10
400.3882401655777
 20
219.3669886047865
 30
0.0
  0
LINE
  5
276
330
2
100
AcDbEntity
  8
_U+56FE_U+5C42 1
100
AcDbLine
 10
400.4556320586476
 20
219.5001111485291
 30
0.0
 11
400.3881905762527
 21
219.4805977490274
 31
0.0
  0
SPLINE
  5
277
330
2
100
AcDbEntity
  8
_U+56FE_U+5C42 1
100
AcDbSpline
210
0.0
220
0.0
230
1.0
 70
     8
 71
     3
 72
     8
 73
     4
 74
     0
 42
0.000000001
 43
0.0000000001
 40
0.0
 40
0.0
 40
0.0
 40
0.0
 40
1.0
 40
1.0
 40
1.0
 40
1.0
 10
400.5385454105342
 20
219.448984554155
 30
0.0
 10
400.538942125136
 20
219.4603405096457
 30
0.0
 10
400.5356940243298
 20
219.4721179744025
 30
0.0
 10
400.5291978227161
 20
219.4814655622199
 30
0.0
  0
LINE
  5
278
330
2
100
AcDbEntity
  8
_U+56FE_U+5C42 1
100
AcDbLine
 10
400.3881657815901
 20
219.4806969276775
 30
0.0
 11
400.3881657815901
 21
219.366939015461
 31
0.0
  0
SPLINE
  5
279
330
2
100
AcDbEntity
  8
_U+56FE_U+5C42 1
100
AcDbSpline
210
0.0
220
0.0
230
1.0
 70
     8
 71
     3
 72
     8
 73
     4
 74
     0
 42
0.000000001
 43
0.0000000001
 40
0.0
 40
0.0
 40
0.0
 40
0.0
 40
1.0
 40
1.0
 40
1.0
 40
1.0
 10
400.6266284495811
 20
218.1481325784687
 30
0.0
 10
400.6717175436016
 20
218.0973531093711
 30
0.0
 10
400.739964852533
 20
218.0741948944605
 30
0.0
 10
400.806588111061
 20
218.0867905830842
 30
0.0
  0
LINE
  5
27A
330
2
100
AcDbEntity
  8
_U+56FE_U+5C42 1
100
AcDbLine
 10
401.5922069969771
 20
218.6021724408293
 30
0.0
 11
401.8371544902228
 21
218.6727932692259
 31
0.0
  0
LINE
  5
27B
330
2
100
AcDbEntity
  8
_U+56FE_U+5C42 1
100
AcDbLine
 10
402.9791460413673
 20
218.5020020037424
 30
0.0
 11
402.9059226840798
 21
218.5654656005944
 31
0.0
  0
LINE
  5
27C
330
2
100
AcDbEntity
  8
_U+56FE_U+5C42 1
100
AcDbLine
 10
402.9791460413673
 20
218.5020020037424
 30
0.0
 11
402.0082366415028
 21
218.2220950571396
 31
0.0
  0
LINE
  5
27D
330
2
100
AcDbEntity
  8
_U+56FE_U+5C42 1
100
AcDbLine
 10
401.6751203488635
 20
219.1202817114658
 30
0.0
 11
402.3055742359458
 21
219.1422001932442
 31
0.0
  0
LINE
  5
27E
330
2
100
AcDbEntity
  8
_U+56FE_U+5C42 1
100
AcDbLine
 10
402.3055246466204
 20
219.1421010145936
 30
0.0
 11
402.3055246466204
 21
218.907162396998
 31
0.0
  0
LINE
  5
27F
330
2
100
AcDbEntity
  8
_U+56FE_U+5C42 1
100
AcDbLine
 10
401.580526826858
 20
218.6787413983558
 30
0.0
 11
401.5848677768341
 21
218.6749695703558
 31
0.0
  0
LINE
  5
280
330
2
100
AcDbEntity
  8
_U+56FE_U+5C42 1
100
AcDbLine
 10
401.5975189643127
 20
218.6785828979551
 30
0.0
 11
401.5852644914366
 21
218.675043954344
 31
0.0
  0
LINE
  5
281
330
2
100
AcDbEntity
  8
_U+56FE_U+5C42 1
100
AcDbLine
 10
402.5197257372123
 20
219.4364632495188
 30
0.0
 11
401.6077036611306
 21
219.1732183162136
 31
0.0
  0
LINE
  5
282
330
2
100
AcDbEntity
  8
_U+56FE_U+5C42 1
100
AcDbLine
 10
402.5197257372123
 20
219.1814005548862
 30
0.0
 11
402.5197257372123
 21
219.4365128388437
 31
0.0
  0
LINE
  5
283
330
2
100
AcDbEntity
  8
_U+56FE_U+5C42 1
100
AcDbLine
 10
402.3844460578199
 20
219.1422993718945
 30
0.0
 11
402.5197009425498
 21
219.1812765815729
 31
0.0
  0
LINE
  5
284
330
2
100
AcDbEntity
  8
_U+56FE_U+5C42 1
100
AcDbLine
 10
402.3844460578199
 20
218.9697533145459
 30
0.0
 11
402.3844460578199
 21
219.1423985505454
 31
0.0
  0
LINE
  5
285
330
2
100
AcDbEntity
  8
_U+56FE_U+5C42 1
100
AcDbLine
 10
402.5459336956286
 20
219.0161441283556
 30
0.0
 11
402.3846444151213
 21
218.9698276985339
 31
0.0
  0
LINE
  5
286
330
2
100
AcDbEntity
  8
_U+56FE_U+5C42 1
100
AcDbLine
 10
402.5459336956286
 20
218.8846884477335
 30
0.0
 11
402.5459336956286
 21
219.0162185123435
 31
0.0
  0
LINE
  5
287
330
2
100
AcDbEntity
  8
_U+56FE_U+5C42 1
100
AcDbLine
 10
402.5459336956286
 20
219.0161441283556
 30
0.0
 11
402.5804478660311
 21
218.9860682025667
 31
0.0
  0
LINE
  5
288
330
2
100
AcDbEntity
  8
_U+56FE_U+5C42 1
100
AcDbLine
 10
402.5804230713683
 20
218.896137961152
 30
0.0
 11
402.5804230713683
 21
218.9863161491932
 31
0.0
  0
LINE
  5
289
330
2
100
AcDbEntity
  8
_U+56FE_U+5C42 1
100
AcDbLine
 10
402.9791460413673
 20
218.5531630243876
 30
0.0
 11
402.9791460413673
 21
218.5019028250911
 31
0.0
  0
LINE
  5
28A
330
2
100
AcDbEntity
  8
_U+56FE_U+5C42 1
100
AcDbLine
 10
402.4189850228856
 20
219.1123226247564
 30
0.0
 11
402.3844460578199
 21
219.1423737558828
 31
0.0
  0
LINE
  5
28B
330
2
100
AcDbEntity
  8
_U+56FE_U+5C42 1
100
AcDbLine
 10
402.4189850228856
 20
219.1123226247564
 30
0.0
 11
402.4189850228856
 21
218.9794728223031
 31
0.0
  0
LINE
  5
28C
330
2
100
AcDbEntity
  8
_U+56FE_U+5C42 1
100
AcDbLine
 10
402.9529380829512
 20
219.0611960303819
 30
0.0
 11
402.9529380829512
 21
218.8311163072876
 31
0.0
  0
LINE
  5
28D
330
2
100
AcDbEntity
  8
_U+56FE_U+5C42 1
100
AcDbLine
 10
402.9184487072118
 20
218.9487026459602
 30
0.0
 11
402.9184487072118
 21
218.8361596722133
 31
0.0
  0
LINE
  5
28E
330
2
100
AcDbEntity
  8
_U+56FE_U+5C42 1
100
AcDbLine
 10
402.9184487072118
 20
218.9487026459602
 30
0.0
 11
402.5544382649163
 21
219.2639171921698
 31
0.0
  0
LINE
  5
28F
330
2
100
AcDbEntity
  8
_U+56FE_U+5C42 1
100
AcDbLine
 10
402.5542399076146
 20
219.1512006557842
 30
0.0
 11
402.5197009425498
 21
219.1812517869104
 31
0.0
  0
LINE
  5
290
330
2
100
AcDbEntity
  8
_U+56FE_U+5C42 1
100
AcDbLine
 10
402.9529380829512
 20
219.0611960303819
 30
0.0
 11
402.519874505189
 21
219.4365376335066
 31
0.0
  0
LINE
  5
291
330
2
100
AcDbEntity
  8
_U+56FE_U+5C42 1
100
AcDbLine
 10
402.5542399076146
 20
219.1512006557842
 30
0.0
 11
402.5542399076146
 21
219.2637188348687
 31
0.0
  0
LINE
  5
292
330
2
100
AcDbEntity
  8
_U+56FE_U+5C42 1
100
AcDbLine
 10
402.5542399076146
 20
219.1512006557842
 30
0.0
 11
402.4189602282222
 21
219.1121986514434
 31
0.0
  0
LINE
  5
293
330
2
100
AcDbEntity
  8
_U+56FE_U+5C42 1
100
AcDbLine
 10
401.6751203488635
 20
219.1202817114658
 30
0.0
 11
401.6336636729205
 21
219.1084794520463
 31
0.0
  0
LINE
  5
294
330
2
100
AcDbEntity
  8
_U+56FE_U+5C42 1
100
AcDbLine
 10
401.5041363552611
 20
219.0300291394365
 30
0.0
 11
401.6337132622454
 21
219.108429862721
 31
0.0
  0
LINE
  5
295
330
2
100
AcDbEntity
  8
_U+56FE_U+5C42 1
100
AcDbLine
 10
402.9184487072118
 20
218.9487026459602
 30
0.0
 11
402.653898007852
 21
218.8723886768848
 31
0.0
  0
LINE
  5
296
330
2
100
AcDbEntity
  8
_U+56FE_U+5C42 1
100
AcDbLine
 10
402.1170604158528
 20
218.2143839170568
 30
0.0
 11
402.0833396746557
 21
218.2436168243155
 31
0.0
  0
LINE
  5
297
330
2
100
AcDbEntity
  8
_U+56FE_U+5C42 1
100
AcDbLine
 10
402.3860329162292
 20
218.2456995759776
 30
0.0
 11
402.3445762402868
 21
218.2338973165585
 31
0.0
  0
LINE
  5
298
330
2
100
AcDbEntity
  8
_U+56FE_U+5C42 1
100
AcDbLine
 10
402.3447498029248
 20
218.2337981379081
 30
0.0
 11
402.1444585180756
 21
218.2167146153457
 31
0.0
  0
LINE
  5
299
330
2
100
AcDbEntity
  8
_U+56FE_U+5C42 1
100
AcDbLine
 10
402.1234078494902
 20
218.2150037836229
 30
0.0
 11
402.1168868532146
 21
218.214582274358
 31
0.0
  0
LINE
  5
29A
330
2
100
AcDbEntity
  8
_U+56FE_U+5C42 1
100
AcDbLine
 10
402.5736789231292
 20
218.3849711960563
 30
0.0
 11
402.3859833269041
 21
218.2456251919898
 31
0.0
  0
LINE
  5
29B
330
2
100
AcDbEntity
  8
_U+56FE_U+5C42 1
100
AcDbLine
 10
402.1031754047718
 20
218.2092266272265
 30
0.0
 11
402.0682149304419
 21
218.2392777583524
 31
0.0
  0
LINE
  5
29C
330
2
100
AcDbEntity
  8
_U+56FE_U+5C42 1
100
AcDbLine
 10
397.459246667288
 20
217.5929304925153
 30
0.0
 11
397.4787352721272
 21
217.5786983561565
 31
0.0
  0
LINE
  5
29D
330
2
100
AcDbEntity
  8
_U+56FE_U+5C42 1
100
AcDbLine
 10
397.4787352721272
 20
217.5786983561565
 30
0.0
 11
397.5437344802518
 21
217.5587882420525
 31
0.0
  0
LINE
  5
29E
330
2
100
AcDbEntity
  8
_U+56FE_U+5C42 1
100
AcDbLine
 10
397.5437344802518
 20
217.5587882420525
 30
0.0
 11
397.6188871027298
 21
217.5677391152673
 31
0.0
  0
LINE
  5
29F
330
2
100
AcDbEntity
  8
_U+56FE_U+5C42 1
100
AcDbLine
 10
397.6188871027298
 20
217.5677391152673
 30
0.0
 11
397.6928247867385
 21
217.6042864480064
 31
0.0
  0
LINE
  5
2A0
330
2
100
AcDbEntity
  8
_U+56FE_U+5C42 1
100
AcDbLine
 10
397.6928247867385
 20
217.6042864480064
 30
0.0
 11
397.7566090563935
 21
217.6635952810541
 31
0.0
  0
LINE
  5
2A1
330
2
100
AcDbEntity
  8
_U+56FE_U+5C42 1
100
AcDbLine
 10
397.7566090563935
 20
217.6635952810541
 30
0.0
 11
397.8016981504142
 21
217.7379544743275
 31
0.0
  0
LINE
  5
2A2
330
2
100
AcDbEntity
  8
_U+56FE_U+5C42 1
100
AcDbLine
 10
397.8016981504142
 20
217.7379544743275
 30
0.0
 11
397.8211991525841
 21
217.816751912214
 31
0.0
  0
LINE
  5
2A3
330
2
100
AcDbEntity
  8
_U+56FE_U+5C42 1
100
AcDbLine
 10
397.8211991525841
 20
217.816751912214
 30
0.0
 11
397.8126697886347
 21
217.8898713723552
 31
0.0
  0
LINE
  5
2A4
330
2
100
AcDbEntity
  8
_U+56FE_U+5C42 1
100
AcDbLine
 10
397.8126697886347
 20
217.8898713723552
 30
0.0
 11
397.7777341089673
 21
217.9471470430652
 31
0.0
  0
LINE
  5
2A5
330
2
100
AcDbEntity
  8
_U+56FE_U+5C42 1
100
AcDbLine
 10
397.7777341089673
 20
217.9471470430652
 30
0.0
 11
397.7712255100227
 21
217.9532465300765
 31
0.0
  0
LINE
  5
2A6
330
2
100
AcDbEntity
  8
_U+56FE_U+5C42 1
100
AcDbLine
 10
386.8752977918637
 20
214.53763298271
 30
0.0
 11
386.9232258747564
 21
214.5108051577281
 31
0.0
  0
LINE
  5
2A7
330
2
100
AcDbEntity
  8
_U+56FE_U+5C42 1
100
AcDbLine
 10
386.9232258747564
 20
214.5108051577281
 30
0.0
 11
386.9943245698917
 21
214.5039122415123
 31
0.0
  0
LINE
  5
2A8
330
2
100
AcDbEntity
  8
_U+56FE_U+5C42 1
100
AcDbLine
 10
386.9943245698917
 20
214.5039122415123
 30
0.0
 11
387.0698739069728
 21
214.5262522325557
 31
0.0
  0
LINE
  5
2A9
330
2
100
AcDbEntity
  8
_U+56FE_U+5C42 1
100
AcDbLine
 10
387.0698739069728
 20
214.5262522325557
 30
0.0
 11
387.1405634901742
 21
214.57418031545
 31
0.0
  0
LINE
  5
2AA
330
2
100
AcDbEntity
  8
_U+56FE_U+5C42 1
100
AcDbLine
 10
387.1405634901742
 20
214.57418031545
 30
0.0
 11
387.1966242224154
 21
214.6416217978445
 31
0.0
  0
LINE
  5
2AB
330
2
100
AcDbEntity
  8
_U+56FE_U+5C42 1
100
AcDbLine
 10
387.1966242224154
 20
214.6416217978445
 30
0.0
 11
387.2299358516793
 21
214.7196258065269
 31
0.0
  0
LINE
  5
2AC
330
2
100
AcDbEntity
  8
_U+56FE_U+5C42 1
100
AcDbLine
 10
387.2299358516793
 20
214.7196258065269
 30
0.0
 11
387.236841165226
 21
214.7967867966788
 31
0.0
  0
LINE
  5
2AD
330
2
100
AcDbEntity
  8
_U+56FE_U+5C42 1
100
AcDbLine
 10
387.236841165226
 20
214.7967867966788
 30
0.0
 11
387.215716112652
 21
214.8638315644714
 31
0.0
  0
LINE
  5
2AE
330
2
100
AcDbEntity
  8
_U+56FE_U+5C42 1
100
AcDbLine
 10
387.215716112652
 20
214.8638315644714
 30
0.0
 11
387.1872766345978
 21
214.8979490202715
 31
0.0
  0
LINE
  5
2AF
330
2
100
AcDbEntity
  8
_U+56FE_U+5C42 1
100
AcDbLine
 10
397.4413697155211
 20
217.5259105193844
 30
0.0
 11
397.5148982875952
 21
217.5011158567392
 31
0.0
  0
LINE
  5
2B0
330
2
100
AcDbEntity
  8
_U+56FE_U+5C42 1
100
AcDbLine
 10
397.5148982875952
 20
217.5011158567392
 30
0.0
 11
397.5989769886258
 21
217.5063971198828
 31
0.0
  0
LINE
  5
2B1
330
2
100
AcDbEntity
  8
_U+56FE_U+5C42 1
100
AcDbLine
 10
397.5989769886258
 20
217.5063971198828
 30
0.0
 11
397.6851012493241
 21
217.5401178610802
 31
0.0
  0
LINE
  5
2B2
330
2
100
AcDbEntity
  8
_U+56FE_U+5C42 1
100
AcDbLine
 10
397.6851012493241
 20
217.5401178610802
 30
0.0
 11
397.7635143699405
 21
217.5990299795255
 31
0.0
  0
LINE
  5
2B3
330
2
100
AcDbEntity
  8
_U+56FE_U+5C42 1
100
AcDbLine
 10
397.7635143699405
 20
217.5990299795255
 30
0.0
 11
397.8256621918601
 21
217.677009193545
 31
0.0
  0
LINE
  5
2B4
330
2
100
AcDbEntity
  8
_U+56FE_U+5C42 1
100
AcDbLine
 10
397.8256621918601
 20
217.677009193545
 30
0.0
 11
397.8654700227377
 21
217.7651790139119
 31
0.0
  0
LINE
  5
2B5
330
2
100
AcDbEntity
  8
_U+56FE_U+5C42 1
100
AcDbLine
 10
397.8654700227377
 20
217.7651790139119
 30
0.0
 11
397.8776565994277
 21
217.8545389780852
 31
0.0
  0
LINE
  5
2B6
330
2
100
AcDbEntity
  8
_U+56FE_U+5C42 1
100
AcDbLine
 10
397.8776565994277
 20
217.8545389780852
 30
0.0
 11
397.8618128099973
 21
217.9349728637068
 31
0.0
  0
LINE
  5
2B7
330
2
100
AcDbEntity
  8
_U+56FE_U+5C42 1
100
AcDbLine
 10
397.8618128099973
 20
217.9349728637068
 30
0.0
 11
397.8191659902478
 21
217.997529797561
 31
0.0
  0
LINE
  5
2B8
330
2
100
AcDbEntity
  8
_U+56FE_U+5C42 1
100
AcDbLine
 10
397.8191659902478
 20
217.997529797561
 30
0.0
 11
397.7541667821231
 21
218.0361350872997
 31
0.0
  0
LINE
  5
2B9
330
2
100
AcDbEntity
  8
_U+56FE_U+5C42 1
100
AcDbLine
 10
397.7541667821231
 20
218.0361350872997
 30
0.0
 11
397.6741420084352
 21
218.0462761043221
 31
0.0
  0
LINE
  5
2BA
330
2
100
AcDbEntity
  8
_U+56FE_U+5C42 1
100
AcDbLine
 10
397.6741420084352
 20
218.0462761043221
 30
0.0
 11
397.6359458306299
 21
218.0409948411781
 31
0.0
  0
SPLINE
  5
2BB
330
2
100
AcDbEntity
  8
_U+56FE_U+5C42 1
100
AcDbSpline
210
0.0
220
0.0
230
1.0
 70
     8
 71
     3
 72
     8
 73
     4
 74
     0
 42
0.000000001
 43
0.0000000001
 40
0.0
 40
0.0
 40
0.0
 40
0.0
 40
1.0
 40
1.0
 40
1.0
 40
1.0
 10
397.3532990738052
 20
217.7167054484402
 30
0.0
 10
397.3439514859876
 20
217.6415280312994
 30
0.0
 10
397.3780689417877
 20
217.5671936326892
 30
0.0
 10
397.4414440995092
 20
217.5257617514089
 30
0.0
  0
LINE
  5
2BC
330
2
100
AcDbEntity
  8
_U+56FE_U+5C42 1
100
AcDbLine
 10
386.7693501983802
 20
214.6651767273572
 30
0.0
 11
386.773813237656
 21
214.5904208194821
 31
0.0
  0
LINE
  5
2BD
330
2
100
AcDbEntity
  8
_U+56FE_U+5C42 1
100
AcDbLine
 10
386.773813237656
 20
214.5904208194821
 30
0.0
 11
386.8050917045832
 21
214.5185162978104
 31
0.0
  0
LINE
  5
2BE
330
2
100
AcDbEntity
  8
_U+56FE_U+5C42 1
100
AcDbLine
 10
386.8050917045832
 20
214.5185162978104
 30
0.0
 11
386.8607433248903
 21
214.4685550525802
 31
0.0
  0
LINE
  5
2BF
330
2
100
AcDbEntity
  8
_U+56FE_U+5C42 1
100
AcDbLine
 10
386.8607433248903
 20
214.4685550525802
 30
0.0
 11
386.9346810088993
 21
214.4453968376695
 31
0.0
  0
LINE
  5
2C0
330
2
100
AcDbEntity
  8
_U+56FE_U+5C42 1
100
AcDbLine
 10
386.9346810088993
 20
214.4453968376695
 30
0.0
 11
387.0195903311273
 21
214.4518930392825
 31
0.0
  0
LINE
  5
2C1
330
2
100
AcDbEntity
  8
_U+56FE_U+5C42 1
100
AcDbLine
 10
387.0195903311273
 20
214.4518930392825
 30
0.0
 11
387.1053054798924
 21
214.4872254335523
 31
0.0
  0
LINE
  5
2C2
330
2
100
AcDbEntity
  8
_U+56FE_U+5C42 1
100
AcDbLine
 10
387.1053054798924
 20
214.4872254335523
 30
0.0
 11
387.1832970912433
 21
214.547352490467
 31
0.0
  0
LINE
  5
2C3
330
2
100
AcDbEntity
  8
_U+56FE_U+5C42 1
100
AcDbLine
 10
387.1832970912433
 20
214.547352490467
 30
0.0
 11
387.2446390866278
 21
214.6261747230164
 31
0.0
  0
LINE
  5
2C4
330
2
100
AcDbEntity
  8
_U+56FE_U+5C42 1
100
AcDbLine
 10
387.2446390866278
 20
214.6261747230164
 30
0.0
 11
387.2828228671012
 21
214.7147164633229
 31
0.0
  0
LINE
  5
2C5
330
2
100
AcDbEntity
  8
_U+56FE_U+5C42 1
100
AcDbLine
 10
387.2828228671012
 20
214.7147164633229
 30
0.0
 11
387.293794505322
 21
214.8036797128944
 31
0.0
  0
LINE
  5
2C6
330
2
100
AcDbEntity
  8
_U+56FE_U+5C42 1
100
AcDbLine
 10
387.293794505322
 20
214.8036797128944
 30
0.0
 11
387.2763266654883
 21
214.8833201693107
 31
0.0
  0
LINE
  5
2C7
330
2
100
AcDbEntity
  8
_U+56FE_U+5C42 1
100
AcDbLine
 10
387.2763266654883
 20
214.8833201693107
 30
0.0
 11
387.2324525099378
 21
214.9450588792975
 31
0.0
  0
LINE
  5
2C8
330
2
100
AcDbEntity
  8
_U+56FE_U+5C42 1
100
AcDbLine
 10
387.2324525099378
 20
214.9450588792975
 30
0.0
 11
387.1666474752768
 21
214.9820277213016
 31
0.0
  0
LINE
  5
2C9
330
2
100
AcDbEntity
  8
_U+56FE_U+5C42 1
100
AcDbLine
 10
387.1666474752768
 20
214.9820277213016
 30
0.0
 11
387.0858044777217
 21
214.9905570852517
 31
0.0
  0
LINE
  5
2CA
330
2
100
AcDbEntity
  8
_U+56FE_U+5C42 1
100
AcDbLine
 10
387.0858044777217
 20
214.9905570852517
 30
0.0
 11
387.043963484508
 21
214.9840608836387
 31
0.0
  0
LINE
  5
2CB
330
2
100
AcDbEntity
  8
_U+56FE_U+5C42 1
100
AcDbLine
 10
403.3627442671527
 20
218.268733817576
 30
0.0
 11
403.3627442671527
 21
215.4892521350369
 31
0.0
  0
SPLINE
  5
2CC
330
2
100
AcDbEntity
  8
_U+56FE_U+5C42 1
100
AcDbSpline
210
0.0
220
0.0
230
1.0
 70
     8
 71
     3
 72
     8
 73
     4
 74
     0
 42
0.000000001
 43
0.0000000001
 40
0.0
 40
0.0
 40
0.0
 40
0.0
 40
1.0
 40
1.0
 40
1.0
 40
1.0
 10
400.2858258115209
 20
219.5824790178364
 30
0.0
 10
400.2870407499909
 20
219.4906643820613
 30
0.0
 10
400.3114139033717
 20
219.4008829086225
 30
0.0
 10
400.3565029973922
 20
219.3208457376034
 30
0.0
  0
LINE
  5
2CD
330
2
100
AcDbEntity
  8
_U+56FE_U+5C42 1
100
AcDbLine
 10
400.2858258115209
 20
220.9334905960539
 30
0.0
 11
400.2858258115209
 21
219.5823302498609
 31
0.0
  0
LINE
  5
2CE
330
2
100
AcDbEntity
  8
_U+56FE_U+5C42 1
100
AcDbLine
 10
401.5077067866823
 20
218.6928217274601
 30
0.0
 11
401.5921822023146
 21
218.6196774726568
 31
0.0
  0
LINE
  5
2CF
330
2
100
AcDbEntity
  8
_U+56FE_U+5C42 1
100
AcDbLine
 10
401.5922069969771
 20
218.6196526779942
 30
0.0
 11
401.5922069969771
 21
218.5822623267249
 31
0.0
  0
LINE
  5
2D0
330
2
100
AcDbEntity
  8
_U+56FE_U+5C42 1
100
AcDbLine
 10
401.5922069969771
 20
218.582163148075
 30
0.0
 11
402.0561151350706
 21
218.1803904345706
 31
0.0
  0
LINE
  5
2D1
330
2
100
AcDbEntity
  8
_U+56FE_U+5C42 1
100
AcDbLine
 10
402.055966367095
 20
218.1804648185579
 30
0.0
 11
402.055966367095
 21
218.2182270897673
 31
0.0
  0
LINE
  5
2D2
330
2
100
AcDbEntity
  8
_U+56FE_U+5C42 1
100
AcDbLine
 10
402.055966367095
 20
218.2181527057788
 30
0.0
 11
402.1404417827273
 21
218.1450084509752
 31
0.0
  0
LINE
  5
2D3
330
2
100
AcDbEntity
  8
_U+56FE_U+5C42 1
100
AcDbLine
 10
402.1404665773903
 20
218.1449588616502
 30
0.0
 11
402.1404665773903
 21
218.2201114841284
 31
0.0
  0
SPLINE
  5
2D4
330
2
100
AcDbEntity
  8
_U+56FE_U+5C42 1
100
AcDbSpline
210
0.0
220
0.0
230
1.0
 70
     8
 71
     3
 72
     8
 73
     4
 74
     0
 42
0.000000001
 43
0.0000000001
 40
0.0
 40
0.0
 40
0.0
 40
0.0
 40
1.0
 40
1.0
 40
1.0
 40
1.0
 10
400.2481379243007
 20
218.2580225233124
 30
0.0
 10
400.2473197004333
 20
218.1328838609414
 30
0.0
 10
400.2936361302546
 20
218.0122330325096
 30
0.0
 10
400.3781239432185
 20
217.920021682132
 30
0.0
  0
LINE
  5
2D5
330
2
100
AcDbEntity
  8
_U+56FE_U+5C42 1
100
AcDbLine
 10
383.8249592145873
 20
213.391921211196
 30
0.0
 11
383.8249592145873
 21
216.2067104933412
 31
0.0
  0
LINE
  5
2D6
330
2
100
AcDbEntity
  8
_U+56FE_U+5C42 1
100
AcDbLine
 10
397.937262968427
 20
218.7793055107673
 30
0.0
 11
397.336438703206
 21
218.6058420509007
 31
0.0
  0
LINE
  5
2D7
330
2
100
AcDbEntity
  8
_U+56FE_U+5C42 1
100
AcDbLine
 10
397.937262968427
 20
219.0044410475868
 30
0.0
 11
397.937262968427
 21
218.7793798947554
 31
0.0
  0
LINE
  5
2D8
330
2
100
AcDbEntity
  8
_U+56FE_U+5C42 1
100
AcDbLine
 10
397.937262968427
 20
219.0044410475868
 30
0.0
 11
397.336438703206
 21
218.83097758772
 31
0.0
  0
LINE
  5
2D9
330
2
100
AcDbEntity
  8
_U+56FE_U+5C42 1
100
AcDbLine
 10
397.336637060507
 20
218.8311015610334
 30
0.0
 11
397.336637060507
 21
218.606040408202
 31
0.0
  0
LINE
  5
2DA
330
2
100
AcDbEntity
  8
_U+56FE_U+5C42 1
100
AcDbLine
 10
387.3529049810687
 20
215.7237848489988
 30
0.0
 11
386.75247743045
 21
215.5507181037345
 31
0.0
  0
LINE
  5
2DB
330
2
100
AcDbEntity
  8
_U+56FE_U+5C42 1
100
AcDbLine
 10
387.3529049810687
 20
215.9491435377817
 30
0.0
 11
387.3529049810687
 21
215.7236608756853
 31
0.0
  0
LINE
  5
2DC
330
2
100
AcDbEntity
  8
_U+56FE_U+5C42 1
100
AcDbLine
 10
387.3529049810687
 20
215.9491435377817
 30
0.0
 11
386.75247743045
 21
215.7756800779149
 31
0.0
  0
LINE
  5
2DD
330
2
100
AcDbEntity
  8
_U+56FE_U+5C42 1
100
AcDbLine
 10
386.7527005824137
 20
215.7758040512287
 30
0.0
 11
386.7527005824137
 21
215.5507428983975
 31
0.0
  0
LINE
  5
2DE
330
2
100
AcDbEntity
  8
_U+56FE_U+5C42 1
100
AcDbLine
 10
400.2481379243007
 20
218.3330015831518
 30
0.0
 11
400.2481379243007
 21
218.2578241660112
 31
0.0
  0
SPLINE
  5
2DF
330
2
100
AcDbEntity
  8
_U+56FE_U+5C42 1
100
AcDbSpline
210
0.0
220
0.0
230
1.0
 70
     8
 71
     3
 72
     8
 73
     4
 74
     0
 42
0.000000001
 43
0.0000000001
 40
0.0
 40
0.0
 40
0.0
 40
0.0
 40
1.0
 40
1.0
 40
1.0
 40
1.0
 10
400.6555514235573
 20
217.4122269911559
 30
0.0
 10
400.6445797853361
 20
217.5743097008683
 30
0.0
 10
400.577138302941
 20
217.7274415373655
 30
0.0
 10
400.4646201238569
 20
217.8448442649912
 30
0.0
  0
LINE
  5
2E0
330
2
100
AcDbEntity
  8
_U+56FE_U+5C42 1
100
AcDbLine
 10
400.2481379243007
 20
218.3330015831518
 30
0.0
 11
400.2505678012401
 21
218.3748301790346
 31
0.0
  0
LINE
  5
2E1
330
2
100
AcDbEntity
  8
_U+56FE_U+5C42 1
100
AcDbLine
 10
400.2505678012401
 20
218.3748301790346
 30
0.0
 11
400.2578822267198
 21
218.410584082569
 31
0.0
  0
LINE
  5
2E2
330
2
100
AcDbEntity
  8
_U+56FE_U+5C42 1
100
AcDbLine
 10
400.2578822267198
 20
218.410584082569
 30
0.0
 11
400.2700688034103
 21
218.4390235606231
 31
0.0
  0
LINE
  5
2E3
330
2
100
AcDbEntity
  8
_U+56FE_U+5C42 1
100
AcDbLine
 10
400.2700688034103
 20
218.4390235606231
 30
0.0
 11
400.2790072792936
 21
218.4503795161151
 31
0.0
  0
LINE
  5
2E4
330
2
100
AcDbEntity
  8
_U+56FE_U+5C42 1
100
AcDbLine
 10
400.4647316998391
 20
217.8450426222921
 30
0.0
 11
400.3781983272066
 21
217.9201952447704
 31
0.0
  0
SPLINE
  5
2E5
330
2
100
AcDbEntity
  8
_U+56FE_U+5C42 1
100
AcDbSpline
210
0.0
220
0.0
230
1.0
 70
     8
 71
     3
 72
     8
 73
     4
 74
     0
 42
0.000000001
 43
0.0000000001
 40
0.0
 40
0.0
 40
0.0
 40
0.0
 40
1.0
 40
1.0
 40
1.0
 40
1.0
 10
399.1599497701233
 20
217.7936432866284
 30
0.0
 10
399.3740268874032
 20
217.8598450358915
 30
0.0
 10
399.5239354177567
 20
218.0532186098622
 30
0.0
 10
399.5353037705795
 20
218.2770400295613
 30
0.0
  0
LINE
  5
2E6
330
2
100
AcDbEntity
  8
_U+56FE_U+5C42 1
100
AcDbLine
 10
383.8467661203845
 20
213.3730772675854
 30
0.0
 11
383.8248228439427
 21
213.3917476485572
 31
0.0
  0
LINE
  5
2E7
330
2
100
AcDbEntity
  8
_U+56FE_U+5C42 1
100
AcDbLine
 10
399.1599497701233
 20
217.7936432866284
 30
0.0
 11
383.8468900936977
 21
213.3729780889347
 31
0.0
  0
LINE
  5
2E8
330
2
100
AcDbEntity
  8
_U+56FE_U+5C42 1
100
AcDbLine
 10
399.5352293865915
 20
219.0653367390439
 30
0.0
 11
399.5352293865915
 21
218.2772383868625
 31
0.0
  0
SPLINE
  5
2E9
330
2
100
AcDbEntity
  8
_U+56FE_U+5C42 1
100
AcDbSpline
210
0.0
220
0.0
230
1.0
 70
     8
 71
     3
 72
     8
 73
     4
 74
     0
 42
0.000000001
 43
0.0000000001
 40
0.0
 40
0.0
 40
0.0
 40
0.0
 40
1.0
 40
1.0
 40
1.0
 40
1.0
 10
399.9855004602305
 20
219.2704381884459
 30
0.0
 10
400.1138624287449
 20
219.3102336219912
 30
0.0
 10
400.2040530141177
 20
219.4264214111471
 30
0.0
 10
400.2109583276642
 20
219.5604861520705
 30
0.0
  0
LINE
  5
2EA
330
2
100
AcDbEntity
  8
_U+56FE_U+5C42 1
100
AcDbLine
 10
399.9855004602305
 20
219.2704381884459
 30
0.0
 11
399.610134062443
 21
219.1619615393724
 31
0.0
  0
LINE
  5
2EB
330
2
100
AcDbEntity
  8
_U+56FE_U+5C42 1
100
AcDbLine
 10
400.210834354351
 20
219.560659714709
 30
0.0
 11
400.210834354351
 21
220.9117952662395
 31
0.0
  0
SPLINE
  5
2EC
330
2
100
AcDbEntity
  8
_U+56FE_U+5C42 1
100
AcDbSpline
210
0.0
220
0.0
230
1.0
 70
     8
 71
     3
 72
     8
 73
     4
 74
     0
 42
0.000000001
 43
0.0000000001
 40
0.0
 40
0.0
 40
0.0
 40
0.0
 40
1.0
 40
1.0
 40
1.0
 40
1.0
 10
399.6102208437623
 20
219.1621351020111
 30
0.0
 10
399.5675616266812
 20
219.1487211895198
 30
0.0
 10
399.5370889862899
 20
219.1101158997814
 30
0.0
 10
399.5350558239534
 20
219.0654359176941
 30
0.0
  0
SPLINE
  5
2ED
330
2
100
AcDbEntity
  8
_U+56FE_U+5C42 1
100
AcDbSpline
210
0.0
220
0.0
230
1.0
 70
     8
 71
     3
 72
     8
 73
     4
 74
     0
 42
0.000000001
 43
0.0000000001
 40
0.0
 40
0.0
 40
0.0
 40
0.0
 40
1.0
 40
1.0
 40
1.0
 40
1.0
 10
403.3627442671527
 20
218.268733817576
 30
0.0
 10
403.3631409817552
 20
218.2772631815253
 30
0.0
 10
403.3594713716841
 20
218.2849743216081
 30
0.0
 10
403.3537933939378
 20
218.2906522993535
 30
0.0
  0
SPLINE
  5
2EE
330
2
100
AcDbEntity
  8
_U+56FE_U+5C42 1
100
AcDbSpline
210
0.0
220
0.0
230
1.0
 70
     8
 71
     3
 72
     8
 73
     4
 74
     0
 42
0.000000001
 43
0.0000000001
 40
0.0
 40
0.0
 40
0.0
 40
0.0
 40
1.0
 40
1.0
 40
1.0
 40
1.0
 10
400.2858258115209
 20
220.9334905960539
 30
0.0
 10
400.2862225261236
 20
220.9489128762195
 30
0.0
 10
400.274445061367
 20
220.9615085648432
 30
0.0
 10
400.2594194958046
 20
220.9619052794457
 30
0.0
  0
SPLINE
  5
2EF
330
2
100
AcDbEntity
  8
_U+56FE_U+5C42 1
100
AcDbSpline
210
0.0
220
0.0
230
1.0
 70
     8
 71
     3
 72
     8
 73
     4
 74
     0
 42
0.000000001
 43
0.0000000001
 40
1.0
 40
1.0
 40
1.0
 40
1.0
 40
2.0
 40
2.0
 40
2.0
 40
2.0
 10
400.2594194958046
 20
220.9619052794457
 30
0.0
 10
400.2557622830638
 20
220.9623267887106
 30
0.0
 10
400.2516959583902
 20
220.9615085648432
 30
0.0
 10
400.24803874565
 20
220.9602936263738
 30
0.0
  0
LINE
  5
2F0
330
2
100
AcDbEntity
  8
_U+56FE_U+5C42 1
100
AcDbLine
 10
383.8249592145873
 20
216.2068096719921
 30
0.0
 11
383.8253559291896
 21
216.2137025882072
 31
0.0
  0
LINE
  5
2F1
330
2
100
AcDbEntity
  8
_U+56FE_U+5C42 1
100
AcDbLine
 10
383.8253559291896
 20
216.2137025882072
 30
0.0
 11
383.8269799795927
 21
216.219802075218
 31
0.0
  0
LINE
  5
2F2
330
2
100
AcDbEntity
  8
_U+56FE_U+5C42 1
100
AcDbLine
 10
383.8269799795927
 20
216.219802075218
 30
0.0
 11
383.8290131419305
 21
216.2242651144943
 31
0.0
  0
LINE
  5
2F3
330
2
100
AcDbEntity
  8
_U+56FE_U+5C42 1
100
AcDbLine
 10
383.8290131419305
 20
216.2242651144943
 30
0.0
 11
383.831455416201
 21
216.2279099299028
 31
0.0
  0
LINE
  5
2F4
330
2
100
AcDbEntity
  8
_U+56FE_U+5C42 1
100
AcDbLine
 10
383.831455416201
 20
216.2279099299028
 30
0.0
 11
383.8347035170071
 21
216.2295463776385
 31
0.0
  0
LINE
  5
2F5
330
2
100
AcDbEntity
  8
_U+56FE_U+5C42 1
100
AcDbLine
 10
400.210834354351
 20
220.9493343854845
 30
0.0
 11
400.2063589177435
 21
220.9521609770261
 31
0.0
  0
LINE
  5
2F6
330
2
100
AcDbEntity
  8
_U+56FE_U+5C42 1
100
AcDbLine
 10
400.2063589177435
 20
220.9521609770261
 30
0.0
 11
400.2022925930693
 21
220.9537974247604
 31
0.0
  0
LINE
  5
2F7
330
2
100
AcDbEntity
  8
_U+56FE_U+5C42 1
100
AcDbLine
 10
400.2022925930693
 20
220.9537974247604
 30
0.0
 11
400.1986353803292
 21
220.9533759154955
 31
0.0
  0
LINE
  5
2F8
330
2
100
AcDbEntity
  8
_U+56FE_U+5C42 1
100
AcDbLine
 10
400.210834354351
 20
220.9118448555649
 30
0.0
 11
400.210834354351
 21
220.9492104121711
 31
0.0
  0
LINE
  5
2F9
330
2
100
AcDbEntity
  8
_U+56FE_U+5C42 1
100
AcDbLine
 10
400.210834354351
 20
220.9493343854845
 30
0.0
 11
400.2481999109571
 21
220.9602936263738
 31
0.0
  0
LINE
  5
2FA
330
2
100
AcDbEntity
  8
_U+56FE_U+5C42 1
100
AcDbLine
 10
402.023435769705
 20
218.2086067606605
 30
0.0
 11
402.0559167777697
 21
218.2179295538152
 31
0.0
  0
LINE
  5
2FB
330
2
100
AcDbEntity
  8
_U+56FE_U+5C42 1
100
AcDbLine
 10
402.1031754047718
 20
218.2264837124278
 30
0.0
 11
402.1031754047718
 21
218.1773158964021
 31
0.0
  0
SPLINE
  5
2FC
330
2
100
AcDbEntity
  8
_U+56FE_U+5C42 1
100
AcDbSpline
210
0.0
220
0.0
230
1.0
 70
     8
 71
     3
 72
     8
 73
     4
 74
     0
 42
0.000000001
 43
0.0000000001
 40
0.0
 40
0.0
 40
0.0
 40
0.0
 40
1.0
 40
1.0
 40
1.0
 40
1.0
 10
383.7717746632137
 20
214.7776205224539
 30
0.0
 10
383.7721713778162
 20
214.7406516804498
 30
0.0
 10
383.7839612399035
 20
214.7044762676502
 30
0.0
 10
383.8058921190137
 20
214.6748218511269
 30
0.0
  0
LINE
  5
2FD
330
2
100
AcDbEntity
  8
_U+56FE_U+5C42 1
100
AcDbLine
 10
383.7717746632137
 20
216.1663447825546
 30
0.0
 11
383.7717746632137
 21
214.777818879755
 31
0.0
  0
LINE
  5
2FE
330
2
100
AcDbEntity
  8
_U+56FE_U+5C42 1
100
AcDbLine
 10
383.8094749477656
 20
216.2147439640387
 30
0.0
 11
383.826942787599
 21
216.2196037179166
 31
0.0
  0
SPLINE
  5
2FF
330
2
100
AcDbEntity
  8
_U+56FE_U+5C42 1
100
AcDbSpline
210
0.0
220
0.0
230
1.0
 70
     8
 71
     3
 72
     8
 73
     4
 74
     0
 42
0.000000001
 43
0.0000000001
 40
0.0
 40
0.0
 40
0.0
 40
0.0
 40
1.0
 40
1.0
 40
1.0
 40
1.0
 10
383.8094749477656
 20
216.2147439640387
 30
0.0
 10
383.7875316713247
 20
216.2078262531609
 30
0.0
 10
383.7729028203639
 20
216.1887343629233
 30
0.0
 10
383.771687881894
 20
216.1663943718799
 30
0.0
  0
SPLINE
  5
300
330
2
100
AcDbEntity
  8
_U+56FE_U+5C42 1
100
AcDbSpline
210
0.0
220
0.0
230
1.0
 70
     8
 71
     3
 72
     8
 73
     4
 74
     0
 42
0.000000001
 43
0.0000000001
 40
0.0
 40
0.0
 40
0.0
 40
0.0
 40
1.0
 40
1.0
 40
1.0
 40
1.0
 10
401.0637831466807
 20
217.4425756582339
 30
0.0
 10
401.0288226723508
 20
217.4653123638794
 30
0.0
 10
400.9853576287333
 20
217.4709903416252
 30
0.0
 10
400.9455621951876
 20
217.4583946530013
 30
0.0
  0
LINE
  5
301
330
2
100
AcDbEntity
  8
_U+56FE_U+5C42 1
100
AcDbLine
 10
401.0637831466807
 20
217.4425756582339
 30
0.0
 11
404.0110007220148
 21
214.8901882908637
 31
0.0
  0
LINE
  5
302
330
2
100
AcDbEntity
  8
_U+56FE_U+5C42 1
100
AcDbLine
 10
403.9792387591656
 20
214.831226583093
 30
0.0
 11
403.9926278769947
 21
214.8360863369711
 31
0.0
  0
LINE
  5
303
330
2
100
AcDbEntity
  8
_U+56FE_U+5C42 1
100
AcDbLine
 10
403.9926278769947
 20
214.8360863369711
 30
0.0
 11
404.0044053417505
 21
214.8421858239823
 31
0.0
  0
LINE
  5
304
330
2
100
AcDbEntity
  8
_U+56FE_U+5C42 1
100
AcDbLine
 10
404.0044053417505
 20
214.8421858239823
 30
0.0
 11
404.0133562149653
 21
214.8495002494628
 31
0.0
  0
LINE
  5
305
330
2
100
AcDbEntity
  8
_U+56FE_U+5C42 1
100
AcDbLine
 10
404.0133562149653
 20
214.8495002494628
 30
0.0
 11
404.0194557019763
 21
214.8572113895453
 31
0.0
  0
LINE
  5
306
330
2
100
AcDbEntity
  8
_U+56FE_U+5C42 1
100
AcDbLine
 10
404.0194557019763
 20
214.8572113895453
 30
0.0
 11
404.0218855789164
 21
214.8657407534957
 31
0.0
  0
LINE
  5
307
330
2
100
AcDbEntity
  8
_U+56FE_U+5C42 1
100
AcDbLine
 10
404.0218855789164
 20
214.8657407534957
 30
0.0
 11
404.0214640696508
 21
214.8742701174453
 31
0.0
  0
LINE
  5
308
330
2
100
AcDbEntity
  8
_U+56FE_U+5C42 1
100
AcDbLine
 10
404.0214640696508
 20
214.8742701174453
 30
0.0
 11
404.0178192542422
 21
214.8824027667931
 31
0.0
  0
LINE
  5
309
330
2
100
AcDbEntity
  8
_U+56FE_U+5C42 1
100
AcDbLine
 10
404.0178192542422
 20
214.8824027667931
 30
0.0
 11
404.0109015433641
 21
214.8905354161406
 31
0.0
  0
LINE
  5
30A
330
2
100
AcDbEntity
  8
_U+56FE_U+5C42 1
100
AcDbLine
 10
403.3036337914067
 20
214.6360182040865
 30
0.0
 11
403.9791891698405
 21
214.831003431129
 31
0.0
  0
LINE
  5
30B
330
2
100
AcDbEntity
  8
_U+56FE_U+5C42 1
100
AcDbLine
 10
400.9455621951876
 20
217.4582706796884
 30
0.0
 11
400.2881213219528
 21
217.2687594402597
 31
0.0
  0
LINE
  5
30C
330
2
100
AcDbEntity
  8
_U+56FE_U+5C42 1
100
AcDbLine
 10
402.1880723296691
 20
216.1655265586873
 30
0.0
 11
402.251844201993
 21
216.1764857995767
 31
0.0
  0
LINE
  5
30D
330
2
100
AcDbEntity
  8
_U+56FE_U+5C42 1
100
AcDbLine
 10
402.251844201993
 20
216.1764857995767
 30
0.0
 11
402.3192856843881
 21
216.1740559226374
 31
0.0
  0
LINE
  5
30E
330
2
100
AcDbEntity
  8
_U+56FE_U+5C42 1
100
AcDbLine
 10
402.3192856843881
 20
216.1740559226374
 30
0.0
 11
402.3802061705076
 21
216.1594270716767
 31
0.0
  0
LINE
  5
30F
330
2
100
AcDbEntity
  8
_U+56FE_U+5C42 1
100
AcDbLine
 10
402.3802061705076
 20
216.1594270716767
 30
0.0
 11
402.4248861525943
 21
216.1338389798264
 31
0.0
  0
LINE
  5
310
330
2
100
AcDbEntity
  8
_U+56FE_U+5C42 1
100
AcDbLine
 10
402.4248861525943
 20
216.1338389798264
 30
0.0
 11
402.4464327144336
 21
216.1017298917011
 31
0.0
  0
LINE
  5
311
330
2
100
AcDbEntity
  8
_U+56FE_U+5C42 1
100
AcDbLine
 10
402.4464327144336
 20
216.1017298917011
 30
0.0
 11
402.4419696751571
 21
216.0680091505036
 31
0.0
  0
LINE
  5
312
330
2
100
AcDbEntity
  8
_U+56FE_U+5C42 1
100
AcDbLine
 10
402.4419696751571
 20
216.0680091505036
 30
0.0
 11
402.412290463971
 21
216.0379580193775
 31
0.0
  0
LINE
  5
313
330
2
100
AcDbEntity
  8
_U+56FE_U+5C42 1
100
AcDbLine
 10
402.412290463971
 20
216.0379580193775
 30
0.0
 11
402.3615109948734
 21
216.0151965190689
 31
0.0
  0
LINE
  5
314
330
2
100
AcDbEntity
  8
_U+56FE_U+5C42 1
100
AcDbLine
 10
402.0377174953881
 20
216.1223094616967
 30
0.0
 11
402.1880227403438
 21
216.1653529960487
 31
0.0
  0
LINE
  5
315
330
2
100
AcDbEntity
  8
_U+56FE_U+5C42 1
100
AcDbLine
 10
402.2110569819412
 20
215.9721777793793
 30
0.0
 11
402.1472603149549
 21
215.9611937438277
 31
0.0
  0
LINE
  5
316
330
2
100
AcDbEntity
  8
_U+56FE_U+5C42 1
100
AcDbLine
 10
402.1472603149549
 20
215.9611937438277
 30
0.0
 11
402.0798188325596
 21
215.9636236207669
 31
0.0
  0
LINE
  5
317
330
2
100
AcDbEntity
  8
_U+56FE_U+5C42 1
100
AcDbLine
 10
402.0798188325596
 20
215.9636236207669
 30
0.0
 11
402.0188983464398
 21
215.9786739809926
 31
0.0
  0
LINE
  5
318
330
2
100
AcDbEntity
  8
_U+56FE_U+5C42 1
100
AcDbLine
 10
402.0188983464398
 20
215.9786739809926
 30
0.0
 11
401.9742183643534
 21
216.0038405635772
 31
0.0
  0
LINE
  5
319
330
2
100
AcDbEntity
  8
_U+56FE_U+5C42 1
100
AcDbLine
 10
401.9742183643534
 20
216.0038405635772
 30
0.0
 11
401.9522750879121
 21
216.0359496517029
 31
0.0
  0
LINE
  5
31A
330
2
100
AcDbEntity
  8
_U+56FE_U+5C42 1
100
AcDbLine
 10
401.9522750879121
 20
216.0359496517029
 30
0.0
 11
401.9571596364531
 21
216.0696703929007
 31
0.0
  0
LINE
  5
31B
330
2
100
AcDbEntity
  8
_U+56FE_U+5C42 1
100
AcDbLine
 10
401.9571596364531
 20
216.0696703929007
 30
0.0
 11
401.9868140529773
 21
216.0997215240269
 31
0.0
  0
LINE
  5
31C
330
2
100
AcDbEntity
  8
_U+56FE_U+5C42 1
100
AcDbLine
 10
401.9868140529773
 20
216.0997215240269
 30
0.0
 11
402.0375935220751
 21
216.1224830243354
 31
0.0
  0
LINE
  5
31D
330
2
100
AcDbEntity
  8
_U+56FE_U+5C42 1
100
AcDbLine
 10
402.3614614055477
 20
216.0153948763699
 30
0.0
 11
402.2111313659292
 21
215.9723265473551
 31
0.0
  0
SPLINE
  5
31E
330
2
100
AcDbEntity
  8
_U+56FE_U+5C42 1
100
AcDbSpline
210
0.0
220
0.0
230
1.0
 70
     8
 71
     3
 72
     8
 73
     4
 74
     0
 42
0.000000001
 43
0.0000000001
 40
0.0
 40
0.0
 40
0.0
 40
0.0
 40
1.0
 40
1.0
 40
1.0
 40
1.0
 10
401.0637831466807
 20
217.4800651881533
 30
0.0
 10
401.0288226723508
 20
217.5028018937992
 30
0.0
 10
400.9853576287333
 20
217.5084798715448
 30
0.0
 10
400.9455621951876
 20
217.495884182921
 30
0.0
  0
LINE
  5
31F
330
2
100
AcDbEntity
  8
_U+56FE_U+5C42 1
100
AcDbLine
 10
400.2699448300973
 20
218.0140430428826
 30
0.0
 11
400.2480015536566
 21
218.0075220466074
 31
0.0
  0
LINE
  5
320
330
2
100
AcDbEntity
  8
_U+56FE_U+5C42 1
100
AcDbLine
 10
400.2699448300973
 20
218.0140430428826
 30
0.0
 11
400.2699448300973
 21
217.3524954075238
 31
0.0
  0
LINE
  5
321
330
2
100
AcDbEntity
  8
_U+56FE_U+5C42 1
100
AcDbLine
 10
400.9455621951876
 20
217.495908977584
 30
0.0
 11
400.3171042784489
 21
217.3147095829721
 31
0.0
  0
LINE
  5
322
330
2
100
AcDbEntity
  8
_U+56FE_U+5C42 1
100
AcDbLine
 10
404.0109759273518
 20
214.9278265887591
 30
0.0
 11
401.0637335573558
 21
217.4801891614669
 31
0.0
  0
SPLINE
  5
323
330
2
100
AcDbEntity
  8
_U+56FE_U+5C42 1
100
AcDbSpline
210
0.0
220
0.0
230
1.0
 70
     8
 71
     3
 72
     8
 73
     4
 74
     0
 42
0.000000001
 43
0.0000000001
 40
0.0
 40
0.0
 40
0.0
 40
0.0
 40
1.0
 40
1.0
 40
1.0
 40
1.0
 10
403.2750703400393
 20
214.6407787793143
 30
0.0
 10
403.2831781947244
 20
214.6342577830388
 30
0.0
 10
403.2937407210116
 20
214.6326461299669
 30
0.0
 10
403.3034850234312
 20
214.6358942307732
 30
0.0
  0
LINE
  5
324
330
2
100
AcDbEntity
  8
_U+56FE_U+5C42 1
100
AcDbLine
 10
400.5512278804769
 20
217.3821014760419
 30
0.0
 11
400.5516245950793
 21
217.3946723700032
 31
0.0
  0
LINE
  5
325
330
2
100
AcDbEntity
  8
_U+56FE_U+5C42 1
100
AcDbLine
 10
400.5516245950793
 20
217.3946723700032
 30
0.0
 11
400.5430952311291
 21
217.4738913171547
 31
0.0
  0
LINE
  5
326
330
2
100
AcDbEntity
  8
_U+56FE_U+5C42 1
100
AcDbLine
 10
400.5430952311291
 20
217.4738913171547
 30
0.0
 11
400.5199370162181
 21
217.5547467120411
 31
0.0
  0
LINE
  5
327
330
2
100
AcDbEntity
  8
_U+56FE_U+5C42 1
100
AcDbLine
 10
400.5199370162181
 20
217.5547467120411
 30
0.0
 11
400.4846046219491
 21
217.6262297244476
 31
0.0
  0
LINE
  5
328
330
2
100
AcDbEntity
  8
_U+56FE_U+5C42 1
100
AcDbLine
 10
400.4846046219491
 20
217.6262297244476
 30
0.0
 11
400.4431603433372
 21
217.6762157643406
 31
0.0
  0
LINE
  5
329
330
2
100
AcDbEntity
  8
_U+56FE_U+5C42 1
100
AcDbLine
 10
400.4431603433372
 20
217.6762157643406
 30
0.0
 11
400.4017284620573
 21
217.6977375315165
 31
0.0
  0
LINE
  5
32A
330
2
100
AcDbEntity
  8
_U+56FE_U+5C42 1
100
AcDbLine
 10
400.4017284620573
 20
217.6977375315165
 30
0.0
 11
400.3667927823902
 21
217.6875717198321
 31
0.0
  0
LINE
  5
32B
330
2
100
AcDbEntity
  8
_U+56FE_U+5C42 1
100
AcDbLine
 10
400.3667927823902
 20
217.6875717198321
 30
0.0
 11
400.3428287409428
 21
217.6469580624191
 31
0.0
  0
LINE
  5
32C
330
2
100
AcDbEntity
  8
_U+56FE_U+5C42 1
100
AcDbLine
 10
400.3428287409428
 20
217.6469580624191
 30
0.0
 11
400.3351052035291
 21
217.582367966228
 31
0.0
  0
LINE
  5
32D
330
2
100
AcDbEntity
  8
_U+56FE_U+5C42 1
100
AcDbLine
 10
400.3351052035291
 20
217.582367966228
 30
0.0
 11
400.3428287409428
 21
217.5035457336786
 31
0.0
  0
LINE
  5
32E
330
2
100
AcDbEntity
  8
_U+56FE_U+5C42 1
100
AcDbLine
 10
400.3428287409428
 20
217.5035457336786
 30
0.0
 11
400.3667927823902
 21
217.4223184188528
 31
0.0
  0
LINE
  5
32F
330
2
100
AcDbEntity
  8
_U+56FE_U+5C42 1
100
AcDbLine
 10
400.3667927823902
 20
217.4223184188528
 30
0.0
 11
400.4017284620573
 21
217.3512073263857
 31
0.0
  0
LINE
  5
330
330
2
100
AcDbEntity
  8
_U+56FE_U+5C42 1
100
AcDbLine
 10
400.4017284620573
 20
217.3512073263857
 30
0.0
 11
400.4082246636697
 21
217.340644800099
 31
0.0
  0
SPLINE
  5
331
330
2
100
AcDbEntity
  8
_U+56FE_U+5C42 1
100
AcDbSpline
210
0.0
220
0.0
230
1.0
 70
     8
 71
     3
 72
     8
 73
     4
 74
     0
 42
0.000000001
 43
0.0000000001
 40
0.0
 40
0.0
 40
0.0
 40
0.0
 40
1.0
 40
1.0
 40
1.0
 40
1.0
 10
400.2481379243007
 20
218.0701781591116
 30
0.0
 10
400.2481379243007
 20
218.0494498211402
 30
0.0
 10
400.2558490643836
 20
218.0291429924347
 30
0.0
 10
400.2700688034103
 20
218.0141174268707
 30
0.0
  0
LINE
  5
332
330
2
100
AcDbEntity
  8
_U+56FE_U+5C42 1
100
AcDbLine
 10
400.2481379243007
 20
219.3462106774896
 30
0.0
 11
400.2481379243007
 21
218.9294123984222
 31
0.0
  0
LINE
  5
333
330
2
100
AcDbEntity
  8
_U+56FE_U+5C42 1
100
AcDbLine
 10
400.2481379243007
 20
218.3330015831518
 30
0.0
 11
400.2481379243007
 21
218.0701533644491
 31
0.0
  0
LINE
  5
334
330
2
100
AcDbEntity
  8
_U+56FE_U+5C42 1
100
AcDbLine
 10
381.8794460101238
 20
212.7050098772701
 30
0.0
 11
381.9168115667308
 21
212.7159691181597
 31
0.0
  0
SPLINE
  5
335
330
2
100
AcDbEntity
  8
_U+56FE_U+5C42 1
100
AcDbSpline
210
0.0
220
0.0
230
1.0
 70
     8
 71
     3
 72
     8
 73
     4
 74
     0
 42
0.000000001
 43
0.0000000001
 40
0.0
 40
0.0
 40
0.0
 40
0.0
 40
1.0
 40
1.0
 40
1.0
 40
1.0
 10
381.8576391043274
 20
212.7613681454631
 30
0.0
 10
381.8572299923933
 20
212.7406398074917
 30
0.0
 10
381.86535024441
 20
212.7203329787852
 30
0.0
 10
381.8795699834375
 20
212.7048859039574
 30
0.0
  0
LINE
  5
336
330
2
100
AcDbEntity
  8
_U+56FE_U+5C42 1
100
AcDbLine
 10
400.2480015536566
 20
218.0075220466074
 30
0.0
 11
381.9168611560556
 21
212.7157211715333
 31
0.0
  0
LINE
  5
337
330
2
100
AcDbEntity
  8
_U+56FE_U+5C42 1
100
AcDbLine
 10
399.8728583078325
 20
218.9378177890592
 30
0.0
 11
399.8728583078325
 21
219.2380067697054
 31
0.0
  0
LINE
  5
338
330
2
100
AcDbEntity
  8
_U+56FE_U+5C42 1
100
AcDbLine
 10
400.1533231343446
 20
219.3940147870698
 30
0.0
 11
400.173220851118
 21
219.3996927648156
 31
0.0
  0
SPLINE
  5
339
330
2
100
AcDbEntity
  8
_U+56FE_U+5C42 1
100
AcDbSpline
210
0.0
220
0.0
230
1.0
 70
     8
 71
     3
 72
     8
 73
     4
 74
     0
 42
0.000000001
 43
0.0000000001
 40
0.0
 40
0.0
 40
0.0
 40
0.0
 40
1.0
 40
1.0
 40
1.0
 40
1.0
 10
400.2481379243007
 20
219.3462106774896
 30
0.0
 10
400.2493528627703
 20
219.3766585232184
 30
0.0
 10
400.2253764239921
 20
219.4022466150679
 30
0.0
 10
400.1953252928663
 20
219.4034863482004
 30
0.0
  0
SPLINE
  5
33A
330
2
100
AcDbEntity
  8
_U+56FE_U+5C42 1
100
AcDbSpline
210
0.0
220
0.0
230
1.0
 70
     8
 71
     3
 72
     8
 73
     4
 74
     0
 42
0.000000001
 43
0.0000000001
 40
1.0
 40
1.0
 40
1.0
 40
1.0
 40
2.0
 40
2.0
 40
2.0
 40
2.0
 10
400.1953252928663
 20
219.4034863482004
 30
0.0
 10
400.188010867386
 20
219.4038830628026
 30
0.0
 10
400.1802873299721
 20
219.4026681243331
 30
0.0
 10
400.1729729044911
 20
219.3998167381287
 30
0.0
  0
LINE
  5
33B
330
2
100
AcDbEntity
  8
_U+56FE_U+5C42 1
100
AcDbLine
 10
381.8576391043274
 20
214.0374006638411
 30
0.0
 11
381.8576391043274
 21
212.7613929401259
 31
0.0
  0
SPLINE
  5
33C
330
2
100
AcDbEntity
  8
_U+56FE_U+5C42 1
100
AcDbSpline
210
0.0
220
0.0
230
1.0
 70
     8
 71
     3
 72
     8
 73
     4
 74
     0
 42
0.000000001
 43
0.0000000001
 40
0.0
 40
0.0
 40
0.0
 40
0.0
 40
1.0
 40
1.0
 40
1.0
 40
1.0
 10
381.9326305614973
 20
214.134149437483
 30
0.0
 10
381.8899713444169
 20
214.1207355249918
 30
0.0
 10
381.8594987040257
 20
214.0821302352539
 30
0.0
 10
381.8574655416886
 20
214.0374502531664
 30
0.0
  0
LINE
  5
33D
330
2
100
AcDbEntity
  8
_U+56FE_U+5C42 1
100
AcDbLine
 10
381.9326305614973
 20
214.134149437483
 30
0.0
 11
383.8248724332682
 21
214.6805246235351
 31
0.0
  0
LINE
  5
33E
330
2
100
AcDbEntity
  8
_U+56FE_U+5C42 1
100
AcDbLine
 10
399.6102208437623
 20
219.1621351020111
 30
0.0
 11
399.6102208437623
 21
218.8619213267015
 31
0.0
  0
LINE
  5
33F
330
2
100
AcDbEntity
  8
_U+56FE_U+5C42 1
100
AcDbLine
 10
399.6102208437623
 20
218.8617973533884
 30
0.0
 11
399.8726475532003
 21
218.9377434050708
 31
0.0
  0
LINE
  5
340
330
2
100
AcDbEntity
  8
_U+56FE_U+5C42 1
100
AcDbLine
 10
399.8728583078325
 20
218.4123445036169
 30
0.0
 11
399.8728583078325
 21
218.5622282393077
 31
0.0
  0
LINE
  5
341
330
2
100
AcDbEntity
  8
_U+56FE_U+5C42 1
100
AcDbLine
 10
399.8728583078325
 20
218.5622778286334
 30
0.0
 11
399.6104192010633
 21
218.4863069822878
 31
0.0
  0
LINE
  5
342
330
2
100
AcDbEntity
  8
_U+56FE_U+5C42 1
100
AcDbLine
 10
399.6102208437623
 20
218.4865301342518
 30
0.0
 11
399.6102208437623
 21
218.3362000946331
 31
0.0
  0
LINE
  5
343
330
2
100
AcDbEntity
  8
_U+56FE_U+5C42 1
100
AcDbLine
 10
399.6102208437623
 20
218.3363736572725
 30
0.0
 11
399.8726475532003
 21
218.4123197089543
 31
0.0
  0
LINE
  5
344
330
2
100
AcDbEntity
  8
_U+56FE_U+5C42 1
100
AcDbLine
 10
381.9167495800735
 20
212.7158947341713
 30
0.0
 11
384.950512925371
 21
210.0887514589257
 31
0.0
  0
SPLINE
  5
345
330
2
100
AcDbEntity
  8
_U+56FE_U+5C42 1
100
AcDbSpline
210
0.0
220
0.0
230
1.0
 70
     8
 71
     3
 72
     8
 73
     4
 74
     0
 42
0.000000001
 43
0.0000000001
 40
0.0
 40
0.0
 40
0.0
 40
0.0
 40
1.0
 40
1.0
 40
1.0
 40
1.0
 10
404.0224806508193
 20
214.9061560536073
 30
0.0
 10
404.0220591415543
 20
214.9146854175571
 30
0.0
 10
404.0175961022787
 20
214.9227932722424
 30
0.0
 10
404.011099900665
 20
214.9276778207833
 30
0.0
  0
LINE
  5
346
330
2
100
AcDbEntity
  8
_U+56FE_U+5C42 1
100
AcDbLine
 10
381.2038410423649
 20
211.7969301525487
 30
0.0
 11
381.8794088181298
 21
211.9919153795913
 31
0.0
  0
LINE
  5
347
330
2
100
AcDbEntity
  8
_U+56FE_U+5C42 1
100
AcDbLine
 10
381.8794460101238
 20
211.9919153795913
 30
0.0
 11
381.8794460101238
 21
212.7048363146317
 31
0.0
  0
LINE
  5
348
330
2
100
AcDbEntity
  8
_U+56FE_U+5C42 1
100
AcDbLine
 10
381.9167495800735
 20
212.002849825818
 30
0.0
 11
381.9167495800735
 21
212.7157707608587
 31
0.0
  0
SPLINE
  5
349
330
2
100
AcDbEntity
  8
_U+56FE_U+5C42 1
100
AcDbSpline
210
0.0
220
0.0
230
1.0
 70
     8
 71
     3
 72
     8
 73
     4
 74
     0
 42
0.000000001
 43
0.0000000001
 40
0.0
 40
0.0
 40
0.0
 40
0.0
 40
1.0
 40
1.0
 40
1.0
 40
1.0
 10
381.8794460101238
 20
211.9544258496717
 30
0.0
 10
381.9009677773
 20
211.9609220512845
 30
0.0
 10
381.915596628261
 20
211.9804106561238
 30
0.0
 10
381.9168115667308
 20
212.0027506471675
 30
0.0
  0
LINE
  5
34A
330
2
100
AcDbEntity
  8
_U+56FE_U+5C42 1
100
AcDbLine
 10
381.2038410423649
 20
211.7594158279663
 30
0.0
 11
381.8794088181298
 21
211.9544010550093
 31
0.0
  0
LINE
  5
34B
330
2
100
AcDbEntity
  8
_U+56FE_U+5C42 1
100
AcDbLine
 10
381.9167495800735
 20
212.002849825818
 30
0.0
 11
384.950512925371
 21
209.3757065505723
 31
0.0
  0
SPLINE
  5
34C
330
2
100
AcDbEntity
  8
_U+56FE_U+5C42 1
100
AcDbSpline
210
0.0
220
0.0
230
1.0
 70
     8
 71
     3
 72
     8
 73
     4
 74
     0
 42
0.000000001
 43
0.0000000001
 40
0.0
 40
0.0
 40
0.0
 40
0.0
 40
1.0
 40
1.0
 40
1.0
 40
1.0
 10
384.9127382568306
 20
209.3271586011125
 30
0.0
 10
384.9342600240071
 20
209.334051517328
 30
0.0
 10
384.9492979869012
 20
209.3531434075651
 30
0.0
 10
384.950512925371
 20
209.3754833986087
 30
0.0
  0
SPLINE
  5
34D
330
2
100
AcDbEntity
  8
_U+56FE_U+5C42 1
100
AcDbSpline
210
0.0
220
0.0
230
1.0
 70
     8
 71
     3
 72
     8
 73
     4
 74
     0
 42
0.000000001
 43
0.0000000001
 40
0.0
 40
0.0
 40
0.0
 40
0.0
 40
1.0
 40
1.0
 40
1.0
 40
1.0
 10
384.1189123375789
 20
209.1480667528259
 30
0.0
 10
384.1542447318485
 20
209.1253052525174
 30
0.0
 10
384.1973130608636
 20
209.1196272747714
 30
0.0
 10
384.2375300036739
 20
209.1322229633954
 30
0.0
  0
LINE
  5
34E
330
2
100
AcDbEntity
  8
_U+56FE_U+5C42 1
100
AcDbLine
 10
384.1189123375789
 20
209.1480667528259
 30
0.0
 11
381.1720666821845
 21
211.7000326109309
 31
0.0
  0
LINE
  5
34F
330
2
100
AcDbEntity
  8
_U+56FE_U+5C42 1
100
AcDbLine
 10
381.2038410423649
 20
211.7594158279663
 30
0.0
 11
381.1900180179396
 21
211.7545312794251
 31
0.0
  0
LINE
  5
350
330
2
100
AcDbEntity
  8
_U+56FE_U+5C42 1
100
AcDbLine
 10
381.1900180179396
 20
211.7545312794251
 30
0.0
 11
381.1782405531833
 21
211.7484317924146
 31
0.0
  0
LINE
  5
351
330
2
100
AcDbEntity
  8
_U+56FE_U+5C42 1
100
AcDbLine
 10
381.1782405531833
 20
211.7484317924146
 30
0.0
 11
381.1693020773
 21
211.7411173669344
 31
0.0
  0
LINE
  5
352
330
2
100
AcDbEntity
  8
_U+56FE_U+5C42 1
100
AcDbLine
 10
381.1693020773
 20
211.7411173669344
 30
0.0
 11
381.1632149876201
 21
211.7330095122492
 31
0.0
  0
LINE
  5
353
330
2
100
AcDbEntity
  8
_U+56FE_U+5C42 1
100
AcDbLine
 10
381.1632149876201
 20
211.7330095122492
 30
0.0
 11
381.1607727133496
 21
211.7248768629014
 31
0.0
  0
LINE
  5
354
330
2
100
AcDbEntity
  8
_U+56FE_U+5C42 1
100
AcDbLine
 10
381.1607727133496
 20
211.7248768629014
 30
0.0
 11
381.1611818252832
 21
211.7163474989516
 31
0.0
  0
LINE
  5
355
330
2
100
AcDbEntity
  8
_U+56FE_U+5C42 1
100
AcDbLine
 10
381.1611818252832
 20
211.7163474989516
 30
0.0
 11
381.1648390380232
 21
211.7078181350015
 31
0.0
  0
LINE
  5
356
330
2
100
AcDbEntity
  8
_U+56FE_U+5C42 1
100
AcDbLine
 10
381.1648390380232
 20
211.7078181350015
 30
0.0
 11
381.1721534635037
 21
211.7000822002562
 31
0.0
  0
LINE
  5
357
330
2
100
AcDbEntity
  8
_U+56FE_U+5C42 1
100
AcDbLine
 10
384.9127382568306
 20
209.3271586011125
 30
0.0
 11
384.2375671956681
 21
209.1321485794075
 31
0.0
  0
LINE
  5
358
330
2
100
AcDbEntity
  8
_U+56FE_U+5C42 1
100
AcDbLine
 10
382.8216803826393
 20
210.575049177388
 30
0.0
 11
382.9715765156611
 21
210.6180927117406
 31
0.0
  0
LINE
  5
359
330
2
100
AcDbEntity
  8
_U+56FE_U+5C42 1
100
AcDbLine
 10
382.995019869193
 20
210.4248927004081
 30
0.0
 11
382.9308264876041
 21
210.4139086648565
 31
0.0
  0
LINE
  5
35A
330
2
100
AcDbEntity
  8
_U+56FE_U+5C42 1
100
AcDbLine
 10
382.9308264876041
 20
210.4139086648565
 30
0.0
 11
382.8633974025398
 21
210.4163385417957
 31
0.0
  0
LINE
  5
35B
330
2
100
AcDbEntity
  8
_U+56FE_U+5C42 1
100
AcDbLine
 10
382.8633974025398
 20
210.4163385417957
 30
0.0
 11
382.8024521217577
 21
210.4313889020214
 31
0.0
  0
LINE
  5
35C
330
2
100
AcDbEntity
  8
_U+56FE_U+5C42 1
100
AcDbLine
 10
382.8024521217577
 20
210.4313889020214
 30
0.0
 11
382.7581812516046
 21
210.4565554846063
 31
0.0
  0
LINE
  5
35D
330
2
100
AcDbEntity
  8
_U+56FE_U+5C42 1
100
AcDbLine
 10
382.7581812516046
 20
210.4565554846063
 30
0.0
 11
382.7362379751635
 21
210.488664572732
 31
0.0
  0
LINE
  5
35E
330
2
100
AcDbEntity
  8
_U+56FE_U+5C42 1
100
AcDbLine
 10
382.7362379751635
 20
210.488664572732
 30
0.0
 11
382.7407134117708
 21
210.5223853139295
 31
0.0
  0
LINE
  5
35F
330
2
100
AcDbEntity
  8
_U+56FE_U+5C42 1
100
AcDbLine
 10
382.7407134117708
 20
210.5223853139295
 30
0.0
 11
382.7703678282949
 21
210.5524364450557
 31
0.0
  0
LINE
  5
360
330
2
100
AcDbEntity
  8
_U+56FE_U+5C42 1
100
AcDbLine
 10
382.7703678282949
 20
210.5524364450557
 30
0.0
 11
382.8215564093262
 21
210.5751979453642
 31
0.0
  0
LINE
  5
361
330
2
100
AcDbEntity
  8
_U+56FE_U+5C42 1
100
AcDbLine
 10
383.1449531942086
 20
210.468109797399
 30
0.0
 11
382.9950446638553
 21
210.4250414683843
 31
0.0
  0
LINE
  5
362
330
2
100
AcDbEntity
  8
_U+56FE_U+5C42 1
100
AcDbLine
 10
382.9716137076557
 20
210.6183158637045
 30
0.0
 11
383.0353855799792
 21
210.6292751045933
 31
0.0
  0
LINE
  5
363
330
2
100
AcDbEntity
  8
_U+56FE_U+5C42 1
100
AcDbLine
 10
383.0353855799792
 20
210.6292751045933
 30
0.0
 11
383.1032237769766
 21
210.6268452276541
 31
0.0
  0
LINE
  5
364
330
2
100
AcDbEntity
  8
_U+56FE_U+5C42 1
100
AcDbLine
 10
383.1032237769766
 20
210.6268452276541
 30
0.0
 11
383.1641690577587
 21
210.6122163766943
 31
0.0
  0
LINE
  5
365
330
2
100
AcDbEntity
  8
_U+56FE_U+5C42 1
100
AcDbLine
 10
383.1641690577587
 20
210.6122163766943
 30
0.0
 11
383.208439927912
 21
210.5866282848438
 31
0.0
  0
LINE
  5
366
330
2
100
AcDbEntity
  8
_U+56FE_U+5C42 1
100
AcDbLine
 10
383.208439927912
 20
210.5866282848438
 30
0.0
 11
383.2303832043531
 21
210.5545191967178
 31
0.0
  0
LINE
  5
367
330
2
100
AcDbEntity
  8
_U+56FE_U+5C42 1
100
AcDbLine
 10
383.2303832043531
 20
210.5545191967178
 30
0.0
 11
383.2259077677456
 21
210.5207984555202
 31
0.0
  0
LINE
  5
368
330
2
100
AcDbEntity
  8
_U+56FE_U+5C42 1
100
AcDbLine
 10
383.2259077677456
 20
210.5207984555202
 30
0.0
 11
383.1958442392884
 21
210.4907473243945
 31
0.0
  0
LINE
  5
369
330
2
100
AcDbEntity
  8
_U+56FE_U+5C42 1
100
AcDbLine
 10
383.1958442392884
 20
210.4907473243945
 30
0.0
 11
383.1450647701911
 21
210.4679858240862
 31
0.0
  0
LINE
  5
36A
330
2
100
AcDbEntity
  8
_U+56FE_U+5C42 1
100
AcDbLine
 10
384.9504261440513
 20
209.3755825772589
 30
0.0
 11
384.9504261440513
 21
210.0885035122994
 31
0.0
  0
LINE
  5
36B
330
2
100
AcDbEntity
  8
_U+56FE_U+5C42 1
100
AcDbLine
 10
384.7770494655041
 20
209.8635663327812
 30
0.0
 11
384.7685077042237
 21
209.9423637706682
 31
0.0
  0
LINE
  5
36C
330
2
100
AcDbEntity
  8
_U+56FE_U+5C42 1
100
AcDbLine
 10
384.7685077042237
 20
209.9423637706682
 30
0.0
 11
384.7453618866439
 21
210.0236158801567
 31
0.0
  0
LINE
  5
36D
330
2
100
AcDbEntity
  8
_U+56FE_U+5C42 1
100
AcDbLine
 10
384.7453618866439
 20
210.0236158801567
 30
0.0
 11
384.7104262069763
 21
210.0947021779607
 31
0.0
  0
LINE
  5
36E
330
2
100
AcDbEntity
  8
_U+56FE_U+5C42 1
100
AcDbLine
 10
384.7104262069763
 20
210.0947021779607
 30
0.0
 11
384.6685728164318
 21
210.1450849324565
 31
0.0
  0
LINE
  5
36F
330
2
100
AcDbEntity
  8
_U+56FE_U+5C42 1
100
AcDbLine
 10
384.6685728164318
 20
210.1450849324565
 30
0.0
 11
384.6271409351508
 21
210.1666066996321
 31
0.0
  0
LINE
  5
370
330
2
100
AcDbEntity
  8
_U+56FE_U+5C42 1
100
AcDbLine
 10
384.6271409351508
 20
210.1666066996321
 30
0.0
 11
384.5922052554834
 21
210.1564408879475
 31
0.0
  0
LINE
  5
371
330
2
100
AcDbEntity
  8
_U+56FE_U+5C42 1
100
AcDbLine
 10
384.5922052554834
 20
210.1564408879475
 30
0.0
 11
384.5686503259707
 21
210.1158272305347
 31
0.0
  0
LINE
  5
372
330
2
100
AcDbEntity
  8
_U+56FE_U+5C42 1
100
AcDbLine
 10
384.5686503259707
 20
210.1158272305347
 30
0.0
 11
384.5605176766237
 21
210.0512371343436
 31
0.0
  0
LINE
  5
373
330
2
100
AcDbEntity
  8
_U+56FE_U+5C42 1
100
AcDbLine
 10
384.5605176766237
 20
210.0512371343436
 30
0.0
 11
384.5686503259707
 21
209.9724149017942
 31
0.0
  0
LINE
  5
374
330
2
100
AcDbEntity
  8
_U+56FE_U+5C42 1
100
AcDbLine
 10
384.5686503259707
 20
209.9724149017942
 30
0.0
 11
384.5922052554834
 21
209.8907660777029
 31
0.0
  0
LINE
  5
375
330
2
100
AcDbEntity
  8
_U+56FE_U+5C42 1
100
AcDbLine
 10
384.5922052554834
 20
209.8907660777029
 30
0.0
 11
384.6271409351508
 21
209.8200764945012
 31
0.0
  0
LINE
  5
376
330
2
100
AcDbEntity
  8
_U+56FE_U+5C42 1
100
AcDbLine
 10
384.6271409351508
 20
209.8200764945012
 30
0.0
 11
384.6685728164318
 21
209.7697185346687
 31
0.0
  0
LINE
  5
377
330
2
100
AcDbEntity
  8
_U+56FE_U+5C42 1
100
AcDbLine
 10
384.6685728164318
 20
209.7697185346687
 30
0.0
 11
384.7104262069763
 21
209.7481719728297
 31
0.0
  0
LINE
  5
378
330
2
100
AcDbEntity
  8
_U+56FE_U+5C42 1
100
AcDbLine
 10
384.7104262069763
 20
209.7481719728297
 30
0.0
 11
384.7453618866439
 21
209.7583377845144
 31
0.0
  0
LINE
  5
379
330
2
100
AcDbEntity
  8
_U+56FE_U+5C42 1
100
AcDbLine
 10
384.7453618866439
 20
209.7583377845144
 30
0.0
 11
384.7685077042237
 21
209.7989514419277
 31
0.0
  0
LINE
  5
37A
330
2
100
AcDbEntity
  8
_U+56FE_U+5C42 1
100
AcDbLine
 10
384.7685077042237
 20
209.7989514419277
 30
0.0
 11
384.7770494655041
 21
209.8635663327812
 31
0.0
  0
LINE
  5
37B
330
2
100
AcDbEntity
  8
_U+56FE_U+5C42 1
100
AcDbLine
 10
381.1602148334402
 20
211.7594158279663
 30
0.0
 11
381.1606115480426
 21
211.762242419508
 31
0.0
  0
LINE
  5
37C
330
2
100
AcDbEntity
  8
_U+56FE_U+5C42 1
100
AcDbLine
 10
381.1606115480426
 20
211.762242419508
 30
0.0
 11
381.1634629342462
 21
211.7703750688557
 31
0.0
  0
LINE
  5
37D
330
2
100
AcDbEntity
  8
_U+56FE_U+5C42 1
100
AcDbLine
 10
381.1634629342462
 20
211.7703750688557
 30
0.0
 11
381.169140911992
 21
211.7785077182034
 31
0.0
  0
LINE
  5
37E
330
2
100
AcDbEntity
  8
_U+56FE_U+5C42 1
100
AcDbLine
 10
381.169140911992
 20
211.7785077182034
 30
0.0
 11
381.1780793878762
 21
211.785797349021
 31
0.0
  0
LINE
  5
37F
330
2
100
AcDbEntity
  8
_U+56FE_U+5C42 1
100
AcDbLine
 10
381.1780793878762
 20
211.785797349021
 30
0.0
 11
381.1898692499639
 21
211.7918968360317
 31
0.0
  0
LINE
  5
380
330
2
100
AcDbEntity
  8
_U+56FE_U+5C42 1
100
AcDbLine
 10
381.1898692499639
 20
211.7918968360317
 30
0.0
 11
381.2036798770575
 21
211.7967813845729
 31
0.0
  0
LINE
  5
381
330
2
100
AcDbEntity
  8
_U+56FE_U+5C42 1
100
AcDbLine
 10
387.0450668469956
 20
214.9839121156628
 30
0.0
 11
387.1161531448
 21
214.951406312935
 31
0.0
  0
LINE
  5
382
330
2
100
AcDbEntity
  8
_U+56FE_U+5C42 1
100
AcDbLine
 10
387.1161531448
 20
214.951406312935
 30
0.0
 11
387.1551551491407
 21
214.9002053345723
 31
0.0
  0
LINE
  5
383
330
2
100
AcDbEntity
  8
_U+56FE_U+5C42 1
100
AcDbLine
 10
387.1551551491407
 20
214.9002053345723
 30
0.0
 11
387.1693748881678
 21
214.8315737083702
 31
0.0
  0
LINE
  5
384
330
2
100
AcDbEntity
  8
_U+56FE_U+5C42 1
100
AcDbLine
 10
387.1693748881678
 20
214.8315737083702
 30
0.0
 11
387.1559609756766
 21
214.7547846381576
 31
0.0
  0
LINE
  5
385
330
2
100
AcDbEntity
  8
_U+56FE_U+5C42 1
100
AcDbLine
 10
387.1559609756766
 20
214.7547846381576
 30
0.0
 11
387.1177771952031
 21
214.680450239547
 31
0.0
  0
LINE
  5
386
330
2
100
AcDbEntity
  8
_U+56FE_U+5C42 1
100
AcDbLine
 10
387.1177771952031
 20
214.680450239547
 30
0.0
 11
387.0584683621555
 21
214.6186867348973
 31
0.0
  0
LINE
  5
387
330
2
100
AcDbEntity
  8
_U+56FE_U+5C42 1
100
AcDbLine
 10
387.0584683621555
 20
214.6186867348973
 30
0.0
 11
386.9873696670205
 21
214.5776763628821
 31
0.0
  0
LINE
  5
388
330
2
100
AcDbEntity
  8
_U+56FE_U+5C42 1
100
AcDbLine
 10
386.9873696670205
 20
214.5776763628821
 30
0.0
 11
386.9138410949456
 21
214.5626260026568
 31
0.0
  0
LINE
  5
389
330
2
100
AcDbEntity
  8
_U+56FE_U+5C42 1
100
AcDbLine
 10
386.9138410949456
 20
214.5626260026568
 30
0.0
 11
386.8472178364178
 21
214.5764366297499
 31
0.0
  0
LINE
  5
38A
330
2
100
AcDbEntity
  8
_U+56FE_U+5C42 1
100
AcDbLine
 10
386.8472178364178
 20
214.5764366297499
 30
0.0
 11
386.8029469662645
 21
214.6089424324778
 31
0.0
  0
LINE
  5
38B
330
2
100
AcDbEntity
  8
_U+56FE_U+5C42 1
100
AcDbLine
 10
397.6877542782276
 20
218.0158282585936
 30
0.0
 11
397.721462622094
 21
217.9853556182022
 31
0.0
  0
LINE
  5
38C
330
2
100
AcDbEntity
  8
_U+56FE_U+5C42 1
100
AcDbLine
 10
397.721462622094
 20
217.9853556182022
 30
0.0
 11
397.74908387628
 21
217.9248070520225
 31
0.0
  0
LINE
  5
38D
330
2
100
AcDbEntity
  8
_U+56FE_U+5C42 1
100
AcDbLine
 10
397.74908387628
 20
217.9248070520225
 30
0.0
 11
397.750311212081
 21
217.8512908772789
 31
0.0
  0
LINE
  5
38E
330
2
100
AcDbEntity
  8
_U+56FE_U+5C42 1
100
AcDbLine
 10
397.750311212081
 20
217.8512908772789
 30
0.0
 11
397.7251198348337
 21
217.7745018070667
 31
0.0
  0
LINE
  5
38F
330
2
100
AcDbEntity
  8
_U+56FE_U+5C42 1
100
AcDbLine
 10
397.7251198348337
 20
217.7745018070667
 30
0.0
 11
397.6763735280729
 21
217.704630447732
 31
0.0
  0
LINE
  5
390
330
2
100
AcDbEntity
  8
_U+56FE_U+5C42 1
100
AcDbLine
 10
397.6763735280729
 20
217.704630447732
 30
0.0
 11
397.6105684934125
 21
217.6518178162973
 31
0.0
  0
LINE
  5
391
330
2
100
AcDbEntity
  8
_U+56FE_U+5C42 1
100
AcDbLine
 10
397.6105684934125
 20
217.6518178162973
 30
0.0
 11
397.5366308094042
 21
217.622584909039
 31
0.0
  0
LINE
  5
392
330
2
100
AcDbEntity
  8
_U+56FE_U+5C42 1
100
AcDbLine
 10
397.5366308094042
 20
217.622584909039
 30
0.0
 11
397.4651353996666
 21
217.6209484613037
 31
0.0
  0
LINE
  5
393
330
2
100
AcDbEntity
  8
_U+56FE_U+5C42 1
100
AcDbLine
 10
397.4651353996666
 20
217.6209484613037
 30
0.0
 11
397.408665555492
 21
217.6489912247557
 31
0.0
  0
LINE
  5
394
330
2
100
AcDbEntity
  8
_U+56FE_U+5C42 1
100
AcDbLine
 10
397.408665555492
 20
217.6489912247557
 30
0.0
 11
397.3899827771885
 21
217.6664466672582
 31
0.0
  0
LINE
  5
395
330
2
100
AcDbEntity
  8
_U+56FE_U+5C42 1
100
AcDbLine
 10
400.4647316998391
 20
217.8450426222921
 30
0.0
 11
400.2701431873985
 21
218.0140182482201
 31
0.0
  0
SPLINE
  5
396
330
2
100
AcDbEntity
  8
_U+56FE_U+5C42 1
100
AcDbSpline
210
0.0
220
0.0
230
1.0
 70
     8
 71
     3
 72
     8
 73
     4
 74
     0
 42
0.000000001
 43
0.0000000001
 40
0.0
 40
0.0
 40
0.0
 40
0.0
 40
1.0
 40
1.0
 40
1.0
 40
1.0
 10
400.8376682206868
 20
220.0946127747754
 30
0.0
 10
400.7182323307239
 20
220.080380638417
 30
0.0
 10
400.6808543767863
 20
219.9556634853112
 30
0.0
 10
400.7543829488612
 20
219.8155240520399
 30
0.0
  0
SPLINE
  5
397
330
2
100
AcDbEntity
  8
_U+56FE_U+5C42 1
100
AcDbSpline
210
0.0
220
0.0
230
1.0
 70
     8
 71
     3
 72
     8
 73
     4
 74
     0
 42
0.000000001
 43
0.0000000001
 40
1.0
 40
1.0
 40
1.0
 40
1.0
 40
2.0
 40
2.0
 40
2.0
 40
2.0
 10
400.7543829488612
 20
219.8155240520399
 30
0.0
 10
400.8279115209353
 20
219.6761780479734
 30
0.0
 10
400.9838947436374
 20
219.5742223951759
 30
0.0
 10
401.1037521428646
 20
219.5884297368718
 30
0.0
  0
SPLINE
  5
398
330
2
100
AcDbEntity
  8
_U+56FE_U+5C42 1
100
AcDbSpline
210
0.0
220
0.0
230
1.0
 70
     8
 71
     3
 72
     8
 73
     4
 74
     0
 42
0.000000001
 43
0.0000000001
 40
2.0
 40
2.0
 40
2.0
 40
2.0
 40
3.0
 40
3.0
 40
3.0
 40
3.0
 10
401.1037521428646
 20
219.5884297368718
 30
0.0
 10
401.1740202168016
 20
219.5965623862192
 30
0.0
 10
401.2187001988889
 20
219.6440937545102
 30
0.0
 10
401.2244029712968
 20
219.715576766917
 30
0.0
  0
SPLINE
  5
399
330
2
100
AcDbEntity
  8
_U+56FE_U+5C42 1
100
AcDbSpline
210
0.0
220
0.0
230
1.0
 70
     8
 71
     3
 72
     8
 73
     4
 74
     0
 42
0.000000001
 43
0.0000000001
 40
0.0
 40
0.0
 40
0.0
 40
0.0
 40
1.0
 40
1.0
 40
1.0
 40
1.0
 10
401.1598128751058
 20
219.9125455669712
 30
0.0
 10
401.1004792473959
 20
219.9970209826039
 30
0.0
 10
401.0123342216918
 20
220.0632475265292
 30
0.0
 10
400.9258008490593
 20
220.0868024560423
 30
0.0
  0
LINE
  5
39A
330
2
100
AcDbEntity
  8
0
100
AcDbLine
 10
415.7866888915301
 20
212.0655065221077
 30
0.0
 11
415.7237716559014
 21
212.1519333826546
 31
0.0
  0
LINE
  5
39B
330
2
100
AcDbEntity
  8
0
100
AcDbLine
 10
423.1562248804014
 20
212.0681791171218
 30
0.0
 11
423.214909203881
 21
212.147607980928
 31
0.0
  0
ARC
  5
39C
330
2
100
AcDbEntity
  8
0
100
AcDbCircle
 10
400.3086622264357
 20
217.3524954075238
 30
0.0
 40
0.0387173963386143
100
AcDbArc
 50
179.9999999999821
 51
282.594106984716
  0
ARC
  5
39D
330
2
100
AcDbEntity
  8
0
100
AcDbCircle
 10
400.2802624150395
 20
217.3066708417291
 30
0.0
 40
0.0387173963386143
100
AcDbArc
 50
179.9999999999821
 51
282.594106984716
  0
LINE
  5
39E
330
2
100
AcDbEntity
  8
0
100
AcDbLine
 10
400.241545018701
 20
217.3066708417291
 30
0.0
 11
400.241545018701
 21
218.0056033249201
 31
0.0
  0
ARC
  5
39F
330
2
100
AcDbEntity
  8
0
100
AcDbCircle
 10
400.7680490481837
 20
217.1751290641063
 30
0.0
 40
0.4475100786786549
100
AcDbArc
 50
81.57137475813534
 51
141.0153879274787
  0
ARC
  5
3A0
330
2
100
AcDbEntity
  8
0
100
AcDbCircle
 10
400.8441633983734
 20
217.3791595337258
 30
0.0
 40
0.2388778927373148
100
AcDbArc
 50
25.7159471036454
 51
92.52397093883855
  0
ARC
  5
3A1
330
2
100
AcDbEntity
  8
0
100
AcDbCircle
 10
401.5082824497506
 20
210.0228306932251
 30
0.0
 40
8.656212184623258
100
AcDbArc
 50
40.00250835398827
 51
95.59338125342696
  0
ARC
  5
3A2
330
2
100
AcDbEntity
  8
0
100
AcDbCircle
 10
401.6201191695532
 20
210.2781283422949
 30
0.0
 40
8.656212184623258
100
AcDbArc
 50
40.00250835398827
 51
95.59338125342371
  0
LINE
  5
3A3
330
2
100
AcDbEntity
  8
0
100
AcDbLine
 10
408.139082094692
 20
215.5872269276664
 30
0.0
 11
408.2650301096537
 21
215.3960718811448
 31
0.0
  0
LINE
  5
3A4
330
2
100
AcDbEntity
  8
0
100
AcDbLine
 10
408.2509188144946
 20
215.8425245767363
 30
0.0
 11
408.4474373812183
 21
215.5540412121524
 31
0.0
  0
ARC
  5
3A5
330
2
100
AcDbEntity
  8
0
100
AcDbCircle
 10
412.8933479107091
 20
214.2842753804427
 30
0.0
 40
3.963294911406013
100
AcDbArc
 50
74.59291404950898
 51
157.8258736393242
  0
ARC
  5
3A6
330
2
100
AcDbEntity
  8
0
100
AcDbCircle
 10
412.9445751559035
 20
214.3147646473416
 30
0.0
 40
3.715734656829889
100
AcDbArc
 50
74.36016743603878
 51
156.8794734566981
  0
ARC
  5
3A7
330
2
100
AcDbEntity
  8
0
100
AcDbCircle
 10
405.1820753965895
 20
216.1502355037944
 30
0.0
 40
3.069211960370352
100
AcDbArc
 50
180.1195545289376
 51
296.2363547073571
  0
ARC
  5
3A8
330
2
100
AcDbEntity
  8
0
100
AcDbCircle
 10
403.0516118416529
 20
219.2848111729713
 30
0.0
 40
6.842871819035852
100
AcDbArc
 50
300.6387330843816
 51
315.8167392820232
  0
LINE
  5
3A9
330
2
100
AcDbEntity
  8
0
100
AcDbLine
 10
413.9462976662657
 20
218.1051395977435
 30
0.0
 11
414.2433927079522
 21
218.0176697375045
 31
0.0
  0
LINE
  5
3AA
330
2
100
AcDbEntity
  8
0
100
AcDbLine
 10
413.9462976662657
 20
217.8929256348044
 30
0.0
 11
414.2433927079522
 21
217.8050555790352
 31
0.0
  0
ARC
  5
3AB
330
2
100
AcDbEntity
  8
0
100
AcDbCircle
 10
408.7188639406805
 20
215.8931400517804
 30
0.0
 40
0.5665233807197568
100
AcDbArc
 50
258.4896664643939
 51
322.5988830717847
  0
ARC
  5
3AC
330
2
100
AcDbEntity
  8
0
100
AcDbCircle
 10
408.6829716815311
 20
216.0697330463619
 30
0.0
 40
0.9476902375755591
100
AcDbArc
 50
255.0188354078848
 51
322.4451607968682
  0
ARC
  5
3AD
330
2
100
AcDbEntity
  8
0
100
AcDbCircle
 10
406.3538935365578
 20
219.2682946740241
 30
0.0
 40
5.016303452533039
100
AcDbArc
 50
288.6583695938552
 51
299.0393508751966
  0
ARC
  5
3AE
330
2
100
AcDbEntity
  8
0
100
AcDbCircle
 10
407.5181939269025
 20
218.0924128713774
 30
0.0
 40
3.603807357732437
100
AcDbArc
 50
277.0215483914896
 51
293.0491884484553
  0
LINE
  5
3AF
330
2
100
AcDbEntity
  8
0
100
AcDbLine
 10
408.7888583822349
 20
214.8826081225008
 30
0.0
 11
409.0431742770638
 21
214.9904022431466
 31
0.0
  0
LINE
  5
3B0
330
2
100
AcDbEntity
  8
0
100
AcDbLine
 10
408.9291610457257
 20
214.7763008013101
 30
0.0
 11
409.2939718185075
 21
214.9437988416943
 31
0.0
  0
LINE
  5
3B1
330
2
100
AcDbEntity
  8
0
100
AcDbLine
 10
409.0431742770638
 20
214.9904022431466
 30
0.0
 11
409.2939718185075
 21
214.9437988416943
 31
0.0
  0
ARC
  5
3B2
330
2
100
AcDbEntity
  8
0
100
AcDbCircle
 10
409.401605605332
 20
214.749629766691
 30
0.0
 40
0.4317920824917409
100
AcDbArc
 50
80.51238650835461
 51
146.1091832668165
  0
ARC
  5
3B3
330
2
100
AcDbEntity
  8
0
100
AcDbCircle
 10
409.3281295139645
 20
215.0938632418505
 30
0.0
 40
0.1539028016416864
100
AcDbArc
 50
257.1768020460534
 51
313.5393956933301
  0
LINE
  5
3B4
330
2
100
AcDbEntity
  8
0
100
AcDbLine
 10
400.7896409591428
 20
219.2569498919667
 30
0.0
 11
400.9052460737263
 21
219.0994789895063
 31
0.0
  0
LINE
  5
3B5
330
2
100
AcDbEntity
  8
0
100
AcDbLine
 10
400.7918490265089
 20
219.0536378905461
 30
0.0
 11
400.8534996127858
 21
218.9546781596577
 31
0.0
  0
LINE
  5
3B6
330
2
100
AcDbEntity
  8
0
100
AcDbLine
 10
400.7226209860125
 20
219.0848749332083
 30
0.0
 11
400.7918490265089
 21
219.0536378905461
 31
0.0
  0
LINE
  5
3B7
330
2
100
AcDbEntity
  8
0
100
AcDbLine
 10
400.8376682206868
 20
220.0946127747754
 30
0.0
 11
400.9258008490593
 21
220.0868024560423
 31
0.0
  0
ARC
  5
3B8
330
2
100
AcDbEntity
  8
0
100
AcDbCircle
 10
400.8912615546473
 20
219.715407492462
 30
0.0
 40
0.3331414596549708
100
AcDbArc
 50
0.029112894797564
 51
36.28163682233216
  0
LINE
  5
3B9
330
2
100
AcDbEntity
  8
0
100
AcDbLine
 10
400.7764160731735
 20
218.8931254096409
 30
0.0
 11
400.6054165588106
 21
218.8792899943871
 31
0.0
  0
LINE
  5
3BA
330
2
100
AcDbEntity
  8
0
100
AcDbLine
 10
400.8640497417408
 20
218.9384128609626
 30
0.0
 11
400.8792688706233
 21
218.902579062184
 31
0.0
  0
LINE
  5
3BB
330
2
100
AcDbEntity
  8
0
100
AcDbLine
 10
400.9481408401028
 20
218.6503980596746
 30
0.0
 11
400.9474618305731
 21
218.660856487255
 31
0.0
  0
LINE
  5
3BC
330
2
100
AcDbEntity
  8
0
100
AcDbLine
 10
400.4556320586476
 20
219.5001111485291
 30
0.0
 11
400.5096404129306
 21
219.5001111485291
 31
0.0
  0
LINE
  5
3BD
330
2
100
AcDbEntity
  8
0
100
AcDbLine
 10
400.5096404129306
 20
219.5001111485291
 30
0.0
 11
400.5402987831696
 21
219.4751937908612
 31
0.0
  0
LINE
  5
3BE
330
2
100
AcDbEntity
  8
_U+56FE_U+5C42 1
100
AcDbLine
 10
428.6775214371839
 20
215.7199057415579
 30
0.0
 11
429.5344116307715
 21
214.9778168669077
 31
0.0
  0
LINE
  5
3BF
330
2
100
AcDbEntity
  8
_U+56FE_U+5C42 1
100
AcDbLine
 10
426.8415057198177
 20
214.7133742339721
 30
0.0
 11
427.6983959134055
 21
213.9712853593216
 31
0.0
  0
LINE
  5
3C0
330
2
100
AcDbEntity
  8
_U+56FE_U+5C42 1
100
AcDbLine
 10
426.4215885745346
 20
214.35532732219
 30
0.0
 11
427.2784787680797
 21
213.6132384474968
 31
0.0
  0
LINE
  5
3C1
330
2
100
AcDbEntity
  8
_U+56FE_U+5C42 1
100
AcDbLine
 10
409.4586122207285
 20
214.9730353433777
 30
0.0
 11
410.315503077851
 21
215.7151245939024
 31
0.0
  0
LINE
  5
3C2
330
2
100
AcDbEntity
  8
_U+56FE_U+5C42 1
100
AcDbLine
 10
411.3754432551805
 20
213.8258290542736
 30
0.0
 11
412.2323341123014
 21
214.5679183047991
 31
0.0
  0
LINE
  5
3C3
330
2
100
AcDbEntity
  8
_U+56FE_U+5C42 1
100
AcDbLine
 10
412.2604926317363
 20
213.4403199995869
 30
0.0
 11
413.1173834888573
 21
214.1824092501124
 31
0.0
  0
ELLIPSE
  5
3C4
330
2
100
AcDbEntity
  8
0
100
AcDbEllipse
 10
419.4231896493953
 20
212.3633264897211
 30
0.0
 11
-1.591679706019533
 21
-0.0043341090857041
 31
0.0
210
0.0
220
0.0
230
1.0
 40
0.4808149835946009
 41
0.0
 42
6.283185307179584
  0
ENDSEC
  0
SECTION
  2
OBJECTS
  0
DICTIONARY
  5
9
330
0
100
AcDbDictionary
281
     1
  3
ACAD_CIP_PREVIOUS_PRODUCT_INFO
350
3EB
  3
ACAD_COLOR
350
3E
  3
ACAD_DETAILVIEWSTYLE
350
3E7
  3
ACAD_GROUP
350
35
  3
ACAD_LAYOUT
350
16
  3
ACAD_MATERIAL
350
B
  3
ACAD_MLEADERSTYLE
350
41
  3
ACAD_MLINESTYLE
350
36
  3
ACAD_PLOTSETTINGS
350
37
  3
ACAD_PLOTSTYLENAME
350
8
  3
ACAD_SCALELIST
350
3F
  3
ACAD_SECTIONVIEWSTYLE
350
3E5
  3
ACAD_TABLESTYLE
350
40
  3
ACAD_VISUALSTYLE
350
2B
  3
ACDB_RECOMPOSE_DATA
350
3EF
  3
AcDbVariableDictionary
350
3C5
  0
DICTIONARY
  5
1E
330
1D
100
AcDbDictionary
280
     1
281
     1
  3
ACAD_LAYERSTATES
360
1F
  0
DICTIONARY
  5
6
330
5
100
AcDbDictionary
280
     1
281
     1
  0
DICTIONARY
  5
3
330
2
100
AcDbDictionary
280
     1
281
     1
  0
XRECORD
  5
3EB
102
{ACAD_REACTORS
330
9
102
}
330
9
100
AcDbXrecord
280
     1
300
ACD
300
2018
300
ACD_F_S
  0
DICTIONARY
  5
3E
102
{ACAD_REACTORS
330
9
102
}
330
9
100
AcDbDictionary
281
     1
  0
DICTIONARY
  5
3E7
102
{ACAD_REACTORS
330
9
102
}
330
9
100
AcDbDictionary
281
     1
  3
Metric50
350
3E8
  0
DICTIONARY
  5
35
102
{ACAD_REACTORS
330
9
102
}
330
9
100
AcDbDictionary
281
     1
  0
DICTIONARY
  5
16
102
{ACAD_REACTORS
330
9
102
}
330
9
100
AcDbDictionary
281
     1
  3
Model
350
15
  3
レイアウト1
350
1C
  0
DICTIONARY
  5
B
102
{ACAD_REACTORS
330
9
102
}
330
9
100
AcDbDictionary
281
     1
  3
ByBlock
350
3B
  3
ByLayer
350
38
  3
Global
350
A
  0
DICTIONARY
  5
41
102
{ACAD_REACTORS
330
9
102
}
330
9
100
AcDbDictionary
281
     1
  3
Standard
350
3E4
  0
DICTIONARY
  5
36
102
{ACAD_REACTORS
330
9
102
}
330
9
100
AcDbDictionary
281
     1
  3
Standard
350
42
  0
DICTIONARY
  5
37
102
{ACAD_REACTORS
330
9
102
}
330
9
100
AcDbDictionary
281
     1
  0
ACDBDICTIONARYWDFLT
  5
8
102
{ACAD_REACTORS
330
9
102
}
330
9
100
AcDbDictionary
281
     1
  3
Normal
350
7
100
AcDbDictionaryWithDefault
340
7
  0
DICTIONARY
  5
3F
102
{ACAD_REACTORS
330
9
102
}
330
9
100
AcDbDictionary
281
     1
  3
A0
350
47
  3
A1
350
48
  3
A2
350
49
  3
A3
350
4A
  3
A4
350
4B
  3
A5
350
4C
  3
A6
350
4D
  3
A7
350
4E
  3
A8
350
4F
  3
A9
350
50
  3
B0
350
51
  3
B1
350
52
  3
B2
350
53
  3
B3
350
54
  3
B4
350
55
  3
B5
350
56
  3
B6
350
57
  0
DICTIONARY
  5
3E5
102
{ACAD_REACTORS
330
9
102
}
330
9
100
AcDbDictionary
281
     1
  3
Metric50
350
3E6
  0
DICTIONARY
  5
40
102
{ACAD_REACTORS
330
9
102
}
330
9
100
AcDbDictionary
281
     1
  3
Standard
350
43
  0
DICTIONARY
  5
2B
102
{ACAD_REACTORS
330
9
102
}
330
9
100
AcDbDictionary
281
     1
  3
2dWireframe
350
2A
  3
Basic
350
3D3
  3
Brighten
350
3D7
  3
ColorChange
350
3DB
  3
Conceptual
350
3D5
  3
Dim
350
3D6
  3
EdgeColorOff
350
3E3
  3
Facepattern
350
3DA
  3
Flat
350
3CF
  3
FlatWithEdges
350
3D0
  3
Gouraud
350
3D1
  3
GouraudWithEdges
350
3D2
  3
Hidden
350
3D4
  3
JitterOff
350
3E1
  3
Linepattern
350
3D9
  3
OverhangOff
350
3E2
  3
Realistic
350
45
  3
Shaded
350
3E0
  3
Shaded with edges
350
3DF
  3
Shades of Gray
350
3DC
  3
Sketchy
350
3DD
  3
Thicken
350
3D8
  3
Wireframe
350
46
  3
X-Ray
350
3DE
  0
XRECORD
  5
3EF
102
{ACAD_REACTORS
330
9
102
}
330
9
100
AcDbXrecord
280
     1
 90
        1
330
43
  0
DICTIONARY
  5
3C5
102
{ACAD_REACTORS
330
9
102
}
330
9
100
AcDbDictionary
281
     1
  3
CANNOSCALE
350
3CA
  3
CMLEADERSTYLE
350
3C7
  3
CTABLESTYLE
350
3C6
  3
CVIEWDETAILSTYLE
350
3C8
  3
CVIEWSECTIONSTYLE
350
3C9
  0
DICTIONARY
  5
1F
102
{ACAD_REACTORS
330
1E
102
}
330
1E
100
AcDbDictionary
281
     1
  0
ACDBDETAILVIEWSTYLE
  5
3E8
102
{ACAD_REACTORS
330
3E7
102
}
330
3E7
100
AcDbModelDocViewStyle
 70
     0
  3
Metric50
290
     1
300
Metric50
 90
        0
100
AcDbDetailViewStyle
 70
     0
 71
     0
 90
        3
 71
     1
340
21
 62
   256
 40
5.0
340
0
 62
   256
 40
5.0
300

 40
0.0
280
     1
 71
     2
340
13
 90
       25
 62
   256
 71
     3
340
21
 62
   256
 40
5.0
 90
        0
 40
15.0
 90
        1
300
%<\AcVar ViewDetailId>% (%<\AcVar ViewScale \f "%sn">%)
 71
     4
340
13
 90
       25
 62
   256
340
13
 90
       25
 62
   256
280
     0
  0
LAYOUT
  5
15
102
{ACAD_XDICTIONARY
360
17
102
}
102
{ACAD_REACTORS
330
16
102
}
330
16
100
AcDbPlotSettings
  1

  2
none_device
  4
ISO_A4_(210.00_x_297.00_MM)
  6

 40
7.5
 41
20.0
 42
7.5
 43
20.0
 44
210.0
 45
297.0
 46
11.54999923706054
 47
-13.65000009536743
 48
0.0
 49
0.0
140
0.0
141
0.0
142
1.0
143
8.704084754739808
 70
 11952
 72
     1
 73
     0
 74
     0
  7

 75
     0
147
0.1148885871608098
 76
     0
 77
     2
 78
   300
148
0.0
149
0.0
100
AcDbLayout
  1
Model
 70
     1
 71
     0
 10
0.0
 20
0.0
 11
12.0
 21
9.0
 12
0.0
 22
0.0
 32
0.0
 14
0.0
 24
0.0
 34
0.0
 15
0.0
 25
0.0
 35
0.0
146
0.0
 13
0.0
 23
0.0
 33
0.0
 16
1.0
 26
0.0
 36
0.0
 17
0.0
 27
1.0
 37
0.0
 76
     0
330
2
331
29
1001
ACAD_PSEXT
1000
None
1000
None
1000
Not applicable
1000
The layout will not be plotted unless a new plotter configuration name is selected.
1070
     0
  0
LAYOUT
  5
1C
102
{ACAD_REACTORS
330
16
102
}
330
16
100
AcDbPlotSettings
  1

  2
C:\Documents and Settings\basas\Application Data\Autodesk\AutoCAD 2005\R16.1\enu\plotters\Default Windows System Printer.pc3
  4

  6

 40
0.0
 41
0.0
 42
0.0
 43
0.0
 44
0.0
 45
0.0
 46
0.0
 47
0.0
 48
0.0
 49
0.0
140
0.0
141
0.0
142
1.0
143
1.0
 70
   688
 72
     0
 73
     0
 74
     5
  7

 75
    16
147
1.0
 76
     0
 77
     2
 78
   300
148
0.0
149
0.0
100
AcDbLayout
  1
レイアウト1
 70
     1
 71
     1
 10
0.0
 20
0.0
 11
12.0
 21
9.0
 12
0.0
 22
0.0
 32
0.0
 14
0.0
 24
0.0
 34
0.0
 15
0.0
 25
0.0
 35
0.0
146
0.0
 13
0.0
 23
0.0
 33
0.0
 16
1.0
 26
0.0
 36
0.0
 17
0.0
 27
1.0
 37
0.0
 76
     0
330
19
  0
MATERIAL
  5
3B
102
{ACAD_XDICTIONARY
360
3C
102
}
102
{ACAD_REACTORS
330
B
102
}
330
B
100
AcDbMaterial
  1
ByBlock
 94
       63
  0
MATERIAL
  5
38
102
{ACAD_XDICTIONARY
360
39
102
}
102
{ACAD_REACTORS
330
B
102
}
330
B
100
AcDbMaterial
  1
ByLayer
 94
       63
  0
MATERIAL
  5
A
102
{ACAD_XDICTIONARY
360
C
102
}
102
{ACAD_REACTORS
330
B
102
}
330
B
100
AcDbMaterial
  1
Global
 43
0.0007999999797903
 43
0.0
 43
0.0
 43
0.0
 43
0.0
 43
0.0007999999797903
 43
0.0
 43
0.0
 43
0.0
 43
0.0
 43
1.0
 43
0.0
 43
0.0
 43
0.0
 43
0.0
 43
1.0
 49
0.0007999999797903
 49
0.0
 49
0.0
 49
0.0
 49
0.0
 49
0.0007999999797903
 49
0.0
 49
0.0
 49
0.0
 49
0.0
 49
1.0
 49
0.0
 49
0.0
 49
0.0
 49
0.0
 49
1.0
142
0.0007999999797903
142
0.0
142
0.0
142
0.0
142
0.0
142
0.0007999999797903
142
0.0
142
0.0
142
0.0
142
0.0
142
1.0
142
0.0
142
0.0
142
0.0
142
0.0
142
1.0
144
0.0007999999797903
144
0.0
144
0.0
144
0.0
144
0.0
144
0.0007999999797903
144
0.0
144
0.0
144
0.0
144
0.0
144
1.0
144
0.0
144
0.0
144
0.0
144
0.0
144
1.0
 94
       63
1001
ACAD
1070
    -1
1070
     3
1070
     0
1000

1071
        0
1070
     0
  0
MLEADERSTYLE
  5
3E4
102
{ACAD_REACTORS
330
41
102
}
330
41
100
AcDbMLeaderStyle
179
     2
170
     2
171
     1
172
     0
 90
        2
 40
0.0
 41
0.0
173
     1
 91
-1056964608
340
24
 92
       -2
290
     1
 42
2.0
291
     1
 43
0.36
  3
Standard
 44
4.0
300

342
21
174
     1
178
     6
175
     1
176
     0
 93
-1056964608
 45
4.0
292
     0
297
     0
 46
4.0
 94
-1056964608
 47
1.0
 49
1.0
140
1.0
293
     1
141
0.0
294
     1
177
     0
142
1.0
295
     1
296
     0
143
0.125
271
     0
272
     9
273
     9
298
     1
  0
MLINESTYLE
  5
42
102
{ACAD_REACTORS
330
36
102
}
330
36
100
AcDbMlineStyle
  2
STANDARD
 70
     0
  3

 62
   256
 51
90.0
 52
90.0
 71
     2
 49
0.5
 62
   256
  6
BYLAYER
 49
-0.5
 62
   256
  6
BYLAYER
  0
ACDBPLACEHOLDER
  5
7
102
{ACAD_REACTORS
330
8
102
}
330
8
  0
SCALE
  5
47
102
{ACAD_REACTORS
330
3F
102
}
330
3F
100
AcDbScale
 70
     0
300
1:1
140
1.0
141
1.0
290
     1
  0
SCALE
  5
48
102
{ACAD_REACTORS
330
3F
102
}
330
3F
100
AcDbScale
 70
     0
300
1:2
140
1.0
141
2.0
290
     0
  0
SCALE
  5
49
102
{ACAD_REACTORS
330
3F
102
}
330
3F
100
AcDbScale
 70
     0
300
1:4
140
1.0
141
4.0
290
     0
  0
SCALE
  5
4A
102
{ACAD_REACTORS
330
3F
102
}
330
3F
100
AcDbScale
 70
     0
300
1:5
140
1.0
141
5.0
290
     0
  0
SCALE
  5
4B
102
{ACAD_REACTORS
330
3F
102
}
330
3F
100
AcDbScale
 70
     0
300
1:8
140
1.0
141
8.0
290
     0
  0
SCALE
  5
4C
102
{ACAD_REACTORS
330
3F
102
}
330
3F
100
AcDbScale
 70
     0
300
1:10
140
1.0
141
10.0
290
     0
  0
SCALE
  5
4D
102
{ACAD_REACTORS
330
3F
102
}
330
3F
100
AcDbScale
 70
     0
300
1:16
140
1.0
141
16.0
290
     0
  0
SCALE
  5
4E
102
{ACAD_REACTORS
330
3F
102
}
330
3F
100
AcDbScale
 70
     0
300
1:20
140
1.0
141
20.0
290
     0
  0
SCALE
  5
4F
102
{ACAD_REACTORS
330
3F
102
}
330
3F
100
AcDbScale
 70
     0
300
1:30
140
1.0
141
30.0
290
     0
  0
SCALE
  5
50
102
{ACAD_REACTORS
330
3F
102
}
330
3F
100
AcDbScale
 70
     0
300
1:40
140
1.0
141
40.0
290
     0
  0
SCALE
  5
51
102
{ACAD_REACTORS
330
3F
102
}
330
3F
100
AcDbScale
 70
     0
300
1:50
140
1.0
141
50.0
290
     0
  0
SCALE
  5
52
102
{ACAD_REACTORS
330
3F
102
}
330
3F
100
AcDbScale
 70
     0
300
1:100
140
1.0
141
100.0
290
     0
  0
SCALE
  5
53
102
{ACAD_REACTORS
330
3F
102
}
330
3F
100
AcDbScale
 70
     0
300
2:1
140
2.0
141
1.0
290
     0
  0
SCALE
  5
54
102
{ACAD_REACTORS
330
3F
102
}
330
3F
100
AcDbScale
 70
     0
300
4:1
140
4.0
141
1.0
290
     0
  0
SCALE
  5
55
102
{ACAD_REACTORS
330
3F
102
}
330
3F
100
AcDbScale
 70
     0
300
8:1
140
8.0
141
1.0
290
     0
  0
SCALE
  5
56
102
{ACAD_REACTORS
330
3F
102
}
330
3F
100
AcDbScale
 70
     0
300
10:1
140
10.0
141
1.0
290
     0
  0
SCALE
  5
57
102
{ACAD_REACTORS
330
3F
102
}
330
3F
100
AcDbScale
 70
     0
300
100:1
140
100.0
141
1.0
290
     0
  0
ACDBSECTIONVIEWSTYLE
  5
3E6
102
{ACAD_REACTORS
330
3E5
102
}
330
3E5
100
AcDbModelDocViewStyle
 70
     0
  3
Metric50
290
     1
300
Metric50
 90
        0
100
AcDbSectionViewStyle
 70
     0
 71
     0
 90
      102
 71
     1
340
21
 62
   256
 40
5.0
340
0
340
0
 62
   256
 40
5.0
300
I, O, Q, S, X, Z
 40
10.0
 90
        0
 40
2.5
 90
        0
 71
     2
340
13
 90
       25
 62
   256
340
13
 90
       50
 62
   256
 40
5.0
 40
2.5
 40
5.0
 71
     3
340
21
 62
   256
 40
5.0
 90
        0
 40
15.0
 90
        1
300
%<\AcVar ViewSectionStartId>%-%<\AcVar ViewSectionEndId>% (%<\AcVar ViewScale \f "%sn">%)
 71
     4
 62
   256
 62
   257
300
ANSI31
 40
1.0
 90
        0
290
     0
290
     0
 90
        6
 40
0.0
 40
1.570796326794896
 40
0.2617993877991494
 40
1.308996938995747
 40
-0.2617993877991494
 40
1.832595714594046
  0
TABLESTYLE
  5
43
102
{ACAD_XDICTIONARY
360
44
102
}
102
{ACAD_REACTORS
330
40
102
}
330
40
100
AcDbTableStyle
280
     0
  3
Standard
 70
     0
 71
     0
 40
1.5
 41
1.5
280
     0
281
     0
  7
Standard
140
4.5
170
     2
 62
     0
 63
     7
283
     0
 90
      512
 91
        0
  1

274
    -2
284
     1
 64
     0
275
    -2
285
     1
 65
     0
276
    -2
286
     1
 66
     0
277
    -2
287
     1
 67
     0
278
    -2
288
     1
 68
     0
279
    -2
289
     1
 69
     0
  7
Standard
140
6.0
170
     5
 62
     0
 63
     7
283
     0
 90
      512
 91
        0
  1

274
    -2
284
     1
 64
     0
275
    -2
285
     1
 65
     0
276
    -2
286
     1
 66
     0
277
    -2
287
     1
 67
     0
278
    -2
288
     1
 68
     0
279
    -2
289
     1
 69
     0
  7
Standard
140
4.5
170
     5
 62
     0
 63
     7
283
     0
 90
      512
 91
        0
  1

274
    -2
284
     1
 64
     0
275
    -2
285
     1
 65
     0
276
    -2
286
     1
 66
     0
277
    -2
287
     1
 67
     0
278
    -2
288
     1
 68
     0
279
    -2
289
     1
 69
     0
  0
VISUALSTYLE
  5
2A
102
{ACAD_REACTORS
330
2B
102
}
330
2B
100
AcDbVisualStyle
  2
2dWireframe
 70
     4
177
     3
291
     0
 70
    58
 90
        0
176
     1
 90
        2
176
     1
 90
        1
176
     1
 90
        0
176
     1
 40
0.6
176
     1
 40
30.0
176
     1
 62
     7
420
 16777215
176
     1
 90
        1
176
     1
 90
        4
176
     1
 62
     7
176
     1
 62
   257
176
     1
 90
        1
176
     1
 90
        1
176
     1
 40
1.0
176
     1
 90
        0
176
     1
 62
   257
176
     1
 40
1.0
176
     1
 90
        1
176
     1
 90
        6
176
     1
 90
        2
176
     1
 62
     7
176
     1
 90
        5
176
     1
 90
        0
176
     1
 90
        0
176
     1
290
     0
176
     1
 90
        1
176
     1
 40
0.0
176
     1
 90
        0
176
     1
290
     1
176
     1
290
     1
176
     1
290
     0
176
     1
290
     0
176
     1
290
     0
176
     1
290
     0
176
     1
290
     0
176
     1
290
     0
176
     1
290
     0
176
     1
 90
       50
176
     1
 40
0.0
176
     1
 40
1.0
176
     1
 90
        0
176
     1
 62
    18
176
     1
 90
       50
176
     1
 90
        3
176
     1
 62
     5
420
      255
176
     1
290
     0
176
     1
 90
       50
176
     1
 90
       50
176
     1
 90
       50
176
     1
290
     0
176
     1
 90
       50
176
     1
 62
   256
176
     0
 40
1.0
176
     0
 90
        2
176
     1
  1
strokes_ogs.tif
176
     1
290
     0
176
     1
 40
1.0
176
     1
 40
1.0
176
     1
  0
VISUALSTYLE
  5
3D3
102
{ACAD_REACTORS
330
2B
102
}
330
2B
100
AcDbVisualStyle
  2
Basic
 70
     7
177
     3
291
     1
 70
    58
 90
        1
176
     1
 90
        0
176
     1
 90
        1
176
     1
 90
        0
176
     1
 40
0.6
176
     1
 40
30.0
176
     1
 62
     7
420
 16777215
176
     1
 90
        0
176
     1
 90
        4
176
     1
 62
     7
176
     1
 62
   257
176
     1
 90
        1
176
     1
 90
        1
176
     1
 40
1.0
176
     1
 90
        8
176
     1
 62
     7
176
     1
 40
1.0
176
     1
 90
        1
176
     1
 90
        6
176
     1
 90
        2
176
     1
 62
     7
176
     1
 90
        5
176
     1
 90
        0
176
     1
 90
        0
176
     1
290
     0
176
     1
 90
        1
176
     1
 40
0.0
176
     1
 90
        0
176
     1
290
     0
176
     1
290
     1
176
     1
290
     1
176
     1
290
     0
176
     1
290
     0
176
     1
290
     0
176
     1
290
     0
176
     1
290
     0
176
     1
290
     0
176
     1
 90
       50
176
     1
 40
0.0
176
     1
 40
1.0
176
     1
 90
        0
176
     1
 62
    18
420
        0
176
     1
 90
       50
176
     1
 90
        3
176
     1
 62
     5
420
      255
176
     1
290
     0
176
     1
 90
       50
176
     1
 90
       50
176
     1
 90
       50
176
     1
290
     0
176
     1
 90
       50
176
     1
 62
   256
176
     0
 40
1.0
176
     0
 90
        2
176
     1
  1
strokes_ogs.tif
176
     1
290
     0
176
     1
 40
1.0
176
     1
 40
1.0
176
     1
  0
VISUALSTYLE
  5
3D7
102
{ACAD_REACTORS
330
2B
102
}
330
2B
100
AcDbVisualStyle
  2
Brighten
 70
    12
177
     3
291
     1
 70
    58
 90
        2
176
     1
 90
        2
176
     1
 90
        0
176
     1
 90
        0
176
     1
 40
0.6
176
     1
 40
30.0
176
     1
 62
     7
420
 16777215
176
     1
 90
        1
176
     1
 90
        4
176
     1
 62
     7
176
     1
 62
   257
176
     1
 90
        1
176
     1
 90
        1
176
     1
 40
1.0
176
     1
 90
        8
176
     1
 62
     7
176
     1
 40
1.0
176
     1
 90
        1
176
     1
 90
        6
176
     1
 90
        2
176
     1
 62
     7
176
     1
 90
        5
176
     1
 90
        0
176
     1
 90
        0
176
     1
290
     0
176
     1
 90
        1
176
     1
 40
50.0
176
     1
 90
        0
176
     1
290
     0
176
     1
290
     1
176
     1
290
     1
176
     1
290
     0
176
     1
290
     0
176
     1
290
     0
176
     1
290
     0
176
     1
290
     0
176
     1
290
     0
176
     1
 90
       50
176
     1
 40
0.0
176
     1
 40
1.0
176
     1
 90
        0
176
     1
 62
    18
420
        0
176
     1
 90
       50
176
     1
 90
        3
176
     1
 62
     5
420
      255
176
     1
290
     0
176
     1
 90
       50
176
     1
 90
       50
176
     1
 90
       50
176
     1
290
     0
176
     1
 90
       50
176
     1
 62
   256
176
     0
 40
1.0
176
     0
 90
        2
176
     1
  1
strokes_ogs.tif
176
     1
290
     0
176
     1
 40
1.0
176
     1
 40
1.0
176
     1
  0
VISUALSTYLE
  5
3DB
102
{ACAD_REACTORS
330
2B
102
}
330
2B
100
AcDbVisualStyle
  2
ColorChange
 70
    16
177
     3
291
     1
 70
    58
 90
        2
176
     1
 90
        2
176
     1
 90
        3
176
     1
 90
        0
176
     1
 40
0.6
176
     1
 40
30.0
176
     1
 62
     8
420
  8421504
176
     1
 90
        1
176
     1
 90
        4
176
     1
 62
     7
176
     1
 62
   257
176
     1
 90
        1
176
     1
 90
        1
176
     1
 40
1.0
176
     1
 90
        8
176
     1
 62
     8
420
  8421504
176
     1
 40
1.0
176
     1
 90
        1
176
     1
 90
        6
176
     1
 90
        2
176
     1
 62
     7
176
     1
 90
        5
176
     1
 90
        0
176
     1
 90
        0
176
     1
290
     0
176
     1
 90
        1
176
     1
 40
0.0
176
     1
 90
        0
176
     1
290
     0
176
     1
290
     1
176
     1
290
     1
176
     1
290
     0
176
     1
290
     0
176
     1
290
     0
176
     1
290
     0
176
     1
290
     0
176
     1
290
     0
176
     1
 90
       50
176
     1
 40
0.0
176
     1
 40
1.0
176
     1
 90
        0
176
     1
 62
    18
420
        0
176
     1
 90
       50
176
     1
 90
        3
176
     1
 62
     5
420
      255
176
     1
290
     0
176
     1
 90
       50
176
     1
 90
       50
176
     1
 90
       50
176
     1
290
     0
176
     1
 90
       50
176
     1
 62
   256
176
     0
 40
1.0
176
     0
 90
        2
176
     1
  1
strokes_ogs.tif
176
     1
290
     0
176
     1
 40
1.0
176
     1
 40
1.0
176
     1
  0
VISUALSTYLE
  5
3D5
102
{ACAD_REACTORS
330
2B
102
}
330
2B
100
AcDbVisualStyle
  2
Conceptual
 70
     9
177
     3
291
     0
 70
    58
 90
        3
176
     1
 90
        2
176
     1
 90
        0
176
     1
 90
        0
176
     1
 40
0.6
176
     1
 40
30.0
176
     1
 62
     7
420
 16777215
176
     1
 90
        2
176
     1
 90
        2
176
     1
 62
     7
176
     1
 62
   257
176
     1
 90
        1
176
     1
 90
        1
176
     1
 40
179.0
176
     1
 90
        8
176
     1
 62
     7
176
     1
 40
1.0
176
     1
 90
        1
176
     1
 90
        6
176
     1
 90
        2
176
     1
 62
     7
176
     1
 90
        3
176
     1
 90
        0
176
     1
 90
        0
176
     1
290
     0
176
     1
 90
        1
176
     1
 40
0.0
176
     1
 90
        0
176
     1
290
     0
176
     1
290
     1
176
     1
290
     1
176
     1
290
     0
176
     1
290
     0
176
     1
290
     0
176
     1
290
     0
176
     1
290
     0
176
     1
290
     0
176
     1
 90
       50
176
     1
 40
0.0
176
     1
 40
1.0
176
     1
 90
        0
176
     1
 62
    18
420
        0
176
     1
 90
       50
176
     1
 90
        3
176
     1
 62
     5
420
      255
176
     1
290
     0
176
     1
 90
       50
176
     1
 90
       50
176
     1
 90
       50
176
     1
290
     0
176
     1
 90
       50
176
     1
 62
   256
176
     0
 40
1.0
176
     0
 90
        2
176
     1
  1
strokes_ogs.tif
176
     1
290
     0
176
     1
 40
1.0
176
     1
 40
1.0
176
     1
  0
VISUALSTYLE
  5
3D6
102
{ACAD_REACTORS
330
2B
102
}
330
2B
100
AcDbVisualStyle
  2
Dim
 70
    11
177
     3
291
     1
 70
    58
 90
        2
176
     1
 90
        2
176
     1
 90
        0
176
     1
 90
        0
176
     1
 40
0.6
176
     1
 40
30.0
176
     1
 62
     7
420
 16777215
176
     1
 90
        1
176
     1
 90
        4
176
     1
 62
     7
176
     1
 62
   257
176
     1
 90
        1
176
     1
 90
        1
176
     1
 40
1.0
176
     1
 90
        8
176
     1
 62
     7
176
     1
 40
1.0
176
     1
 90
        1
176
     1
 90
        6
176
     1
 90
        2
176
     1
 62
     7
176
     1
 90
        5
176
     1
 90
        0
176
     1
 90
        0
176
     1
290
     0
176
     1
 90
        1
176
     1
 40
-50.0
176
     1
 90
        0
176
     1
290
     0
176
     1
290
     1
176
     1
290
     1
176
     1
290
     0
176
     1
290
     0
176
     1
290
     0
176
     1
290
     0
176
     1
290
     0
176
     1
290
     0
176
     1
 90
       50
176
     1
 40
0.0
176
     1
 40
1.0
176
     1
 90
        0
176
     1
 62
    18
420
        0
176
     1
 90
       50
176
     1
 90
        3
176
     1
 62
     5
420
      255
176
     1
290
     0
176
     1
 90
       50
176
     1
 90
       50
176
     1
 90
       50
176
     1
290
     0
176
     1
 90
       50
176
     1
 62
   256
176
     0
 40
1.0
176
     0
 90
        2
176
     1
  1
strokes_ogs.tif
176
     1
290
     0
176
     1
 40
1.0
176
     1
 40
1.0
176
     1
  0
VISUALSTYLE
  5
3E3
102
{ACAD_REACTORS
330
2B
102
}
330
2B
100
AcDbVisualStyle
  2
EdgeColorOff
 70
    22
177
     3
291
     1
 70
    58
 90
        2
176
     0
 90
        2
176
     0
 90
        0
176
     0
 90
        0
176
     0
 40
0.6
176
     0
 40
30.0
176
     0
 62
     7
420
 16777215
176
     0
 90
        1
176
     0
 90
        4
176
     0
 62
     7
176
     0
 62
   257
176
     0
 90
        1
176
     0
 90
        1
176
     0
 40
1.0
176
     0
 90
        8
176
     2
 62
     7
176
     0
 40
1.0
176
     0
 90
        1
176
     0
 90
        6
176
     0
 90
        2
176
     0
 62
     7
176
     0
 90
        5
176
     0
 90
        0
176
     0
 90
        0
176
     0
290
     0
176
     0
 90
        1
176
     0
 40
0.0
176
     0
 90
        0
176
     0
290
     0
176
     0
290
     1
176
     0
290
     1
176
     0
290
     0
176
     0
290
     0
176
     0
290
     0
176
     0
290
     0
176
     0
290
     0
176
     0
290
     0
176
     0
 90
       50
176
     0
 40
0.0
176
     0
 40
1.0
176
     0
 90
        0
176
     0
 62
    18
420
        0
176
     0
 90
       50
176
     0
 90
        3
176
     0
 62
     5
420
      255
176
     0
290
     0
176
     0
 90
       50
176
     0
 90
       50
176
     0
 90
       50
176
     0
290
     0
176
     0
 90
       50
176
     0
 62
   256
176
     0
 40
1.0
176
     0
 90
        2
176
     0
  1
strokes_ogs.tif
176
     0
290
     0
176
     0
 40
1.0
176
     0
 40
1.0
176
     0
  0
VISUALSTYLE
  5
3DA
102
{ACAD_REACTORS
330
2B
102
}
330
2B
100
AcDbVisualStyle
  2
Facepattern
 70
    15
177
     3
291
     1
 70
    58
 90
        2
176
     1
 90
        2
176
     1
 90
        0
176
     1
 90
        0
176
     1
 40
0.6
176
     1
 40
30.0
176
     1
 62
     7
420
 16777215
176
     1
 90
        1
176
     1
 90
        4
176
     1
 62
     7
176
     1
 62
   257
176
     1
 90
        1
176
     1
 90
        1
176
     1
 40
1.0
176
     1
 90
        8
176
     1
 62
     7
176
     1
 40
1.0
176
     1
 90
        1
176
     1
 90
        6
176
     1
 90
        2
176
     1
 62
     7
176
     1
 90
        5
176
     1
 90
        0
176
     1
 90
        0
176
     1
290
     0
176
     1
 90
        1
176
     1
 40
0.0
176
     1
 90
        0
176
     1
290
     0
176
     1
290
     1
176
     1
290
     1
176
     1
290
     0
176
     1
290
     0
176
     1
290
     0
176
     1
290
     0
176
     1
290
     0
176
     1
290
     0
176
     1
 90
       50
176
     1
 40
0.0
176
     1
 40
1.0
176
     1
 90
        0
176
     1
 62
    18
420
        0
176
     1
 90
       50
176
     1
 90
        3
176
     1
 62
     5
420
      255
176
     1
290
     0
176
     1
 90
       50
176
     1
 90
       50
176
     1
 90
       50
176
     1
290
     0
176
     1
 90
       50
176
     1
 62
   256
176
     0
 40
1.0
176
     0
 90
        2
176
     1
  1
strokes_ogs.tif
176
     1
290
     0
176
     1
 40
1.0
176
     1
 40
1.0
176
     1
  0
VISUALSTYLE
  5
3CF
102
{ACAD_REACTORS
330
2B
102
}
330
2B
100
AcDbVisualStyle
  2
Flat
 70
     0
177
     3
291
     1
 70
    58
 90
        2
176
     1
 90
        1
176
     1
 90
        1
176
     1
 90
        2
176
     1
 40
0.6
176
     1
 40
30.0
176
     1
 62
     7
420
 16777215
176
     1
 90
        0
176
     1
 90
        0
176
     1
 62
     7
176
     1
 62
   257
176
     1
 90
        1
176
     1
 90
        1
176
     1
 40
1.0
176
     1
 90
        8
176
     1
 62
     7
176
     1
 40
1.0
176
     1
 90
        1
176
     1
 90
        6
176
     1
 90
        2
176
     1
 62
     7
176
     1
 90
        5
176
     1
 90
        0
176
     1
 90
        0
176
     1
290
     0
176
     1
 90
       13
176
     1
 40
0.0
176
     1
 90
        0
176
     1
290
     0
176
     1
290
     1
176
     1
290
     1
176
     1
290
     0
176
     1
290
     0
176
     1
290
     0
176
     1
290
     0
176
     1
290
     0
176
     1
290
     0
176
     1
 90
       50
176
     1
 40
0.0
176
     1
 40
1.0
176
     1
 90
        0
176
     1
 62
    18
420
        0
176
     1
 90
       50
176
     1
 90
        3
176
     1
 62
     5
420
      255
176
     1
290
     0
176
     1
 90
       50
176
     1
 90
       50
176
     1
 90
       50
176
     1
290
     0
176
     1
 90
       50
176
     1
 62
   256
176
     0
 40
1.0
176
     0
 90
        2
176
     1
  1
strokes_ogs.tif
176
     1
290
     0
176
     1
 40
1.0
176
     1
 40
1.0
176
     1
  0
VISUALSTYLE
  5
3D0
102
{ACAD_REACTORS
330
2B
102
}
330
2B
100
AcDbVisualStyle
  2
FlatWithEdges
 70
     1
177
     3
291
     1
 70
    58
 90
        2
176
     1
 90
        1
176
     1
 90
        1
176
     1
 90
        2
176
     1
 40
0.6
176
     1
 40
30.0
176
     1
 62
     7
420
 16777215
176
     1
 90
        1
176
     1
 90
        0
176
     1
 62
     7
176
     1
 62
   257
176
     1
 90
        1
176
     1
 90
        1
176
     1
 40
1.0
176
     1
 90
        0
176
     1
 62
   257
176
     1
 40
1.0
176
     1
 90
        1
176
     1
 90
        6
176
     1
 90
        2
176
     1
 62
     7
176
     1
 90
        5
176
     1
 90
        0
176
     1
 90
        0
176
     1
290
     0
176
     1
 90
       13
176
     1
 40
0.0
176
     1
 90
        0
176
     1
290
     0
176
     1
290
     1
176
     1
290
     1
176
     1
290
     0
176
     1
290
     0
176
     1
290
     0
176
     1
290
     0
176
     1
290
     0
176
     1
290
     0
176
     1
 90
       50
176
     1
 40
0.0
176
     1
 40
1.0
176
     1
 90
        0
176
     1
 62
    18
420
        0
176
     1
 90
       50
176
     1
 90
        3
176
     1
 62
     5
420
      255
176
     1
290
     0
176
     1
 90
       50
176
     1
 90
       50
176
     1
 90
       50
176
     1
290
     0
176
     1
 90
       50
176
     1
 62
   256
176
     0
 40
1.0
176
     0
 90
        2
176
     1
  1
strokes_ogs.tif
176
     1
290
     0
176
     1
 40
1.0
176
     1
 40
1.0
176
     1
  0
VISUALSTYLE
  5
3D1
102
{ACAD_REACTORS
330
2B
102
}
330
2B
100
AcDbVisualStyle
  2
Gouraud
 70
     2
177
     3
291
     1
 70
    58
 90
        2
176
     1
 90
        2
176
     1
 90
        1
176
     1
 90
        2
176
     1
 40
0.6
176
     1
 40
30.0
176
     1
 62
     7
420
 16777215
176
     1
 90
        0
176
     1
 90
        0
176
     1
 62
     7
176
     1
 62
   257
176
     1
 90
        1
176
     1
 90
        1
176
     1
 40
1.0
176
     1
 90
        0
176
     1
 62
     7
176
     1
 40
1.0
176
     1
 90
        1
176
     1
 90
        6
176
     1
 90
        2
176
     1
 62
     7
176
     1
 90
        5
176
     1
 90
        0
176
     1
 90
        0
176
     1
290
     0
176
     1
 90
       13
176
     1
 40
0.0
176
     1
 90
        0
176
     1
290
     0
176
     1
290
     1
176
     1
290
     1
176
     1
290
     0
176
     1
290
     0
176
     1
290
     0
176
     1
290
     0
176
     1
290
     0
176
     1
290
     0
176
     1
 90
       50
176
     1
 40
0.0
176
     1
 40
1.0
176
     1
 90
        0
176
     1
 62
    18
420
        0
176
     1
 90
       50
176
     1
 90
        3
176
     1
 62
     5
420
      255
176
     1
290
     0
176
     1
 90
       50
176
     1
 90
       50
176
     1
 90
       50
176
     1
290
     0
176
     1
 90
       50
176
     1
 62
   256
176
     0
 40
1.0
176
     0
 90
        2
176
     1
  1
strokes_ogs.tif
176
     1
290
     0
176
     1
 40
1.0
176
     1
 40
1.0
176
     1
  0
VISUALSTYLE
  5
3D2
102
{ACAD_REACTORS
330
2B
102
}
330
2B
100
AcDbVisualStyle
  2
GouraudWithEdges
 70
     3
177
     3
291
     1
 70
    58
 90
        2
176
     1
 90
        2
176
     1
 90
        1
176
     1
 90
        2
176
     1
 40
0.6
176
     1
 40
30.0
176
     1
 62
     7
420
 16777215
176
     1
 90
        1
176
     1
 90
        0
176
     1
 62
     7
176
     1
 62
   257
176
     1
 90
        1
176
     1
 90
        1
176
     1
 40
1.0
176
     1
 90
        0
176
     1
 62
   257
176
     1
 40
1.0
176
     1
 90
        1
176
     1
 90
        6
176
     1
 90
        2
176
     1
 62
     7
176
     1
 90
        5
176
     1
 90
        0
176
     1
 90
        0
176
     1
290
     0
176
     1
 90
       13
176
     1
 40
0.0
176
     1
 90
        0
176
     1
290
     0
176
     1
290
     1
176
     1
290
     1
176
     1
290
     0
176
     1
290
     0
176
     1
290
     0
176
     1
290
     0
176
     1
290
     0
176
     1
290
     0
176
     1
 90
       50
176
     1
 40
0.0
176
     1
 40
1.0
176
     1
 90
        0
176
     1
 62
    18
420
        0
176
     1
 90
       50
176
     1
 90
        3
176
     1
 62
     5
420
      255
176
     1
290
     0
176
     1
 90
       50
176
     1
 90
       50
176
     1
 90
       50
176
     1
290
     0
176
     1
 90
       50
176
     1
 62
   256
176
     0
 40
1.0
176
     0
 90
        2
176
     1
  1
strokes_ogs.tif
176
     1
290
     0
176
     1
 40
1.0
176
     1
 40
1.0
176
     1
  0
VISUALSTYLE
  5
3D4
102
{ACAD_REACTORS
330
2B
102
}
330
2B
100
AcDbVisualStyle
  2
Hidden
 70
     6
177
     3
291
     0
 70
    58
 90
        1
176
     1
 90
        2
176
     1
 90
        2
176
     1
 90
        0
176
     1
 40
0.6
176
     1
 40
30.0
176
     1
 62
     7
420
 16777215
176
     1
 90
        2
176
     1
 90
        2
176
     1
 62
     7
176
     1
 62
   257
176
     1
 90
        2
176
     1
 90
        1
176
     1
 40
40.0
176
     1
 90
        0
176
     1
 62
   257
176
     1
 40
1.0
176
     1
 90
        1
176
     1
 90
        6
176
     1
 90
        2
176
     1
 62
     7
176
     1
 90
        3
176
     1
 90
        0
176
     1
 90
        0
176
     1
290
     0
176
     1
 90
        1
176
     1
 40
0.0
176
     1
 90
        0
176
     1
290
     0
176
     1
290
     1
176
     1
290
     1
176
     1
290
     0
176
     1
290
     0
176
     1
290
     0
176
     1
290
     0
176
     1
290
     0
176
     1
290
     0
176
     1
 90
       50
176
     1
 40
0.0
176
     1
 40
1.0
176
     1
 90
        0
176
     1
 62
    18
420
        0
176
     1
 90
       50
176
     1
 90
        3
176
     1
 62
     5
420
      255
176
     1
290
     0
176
     1
 90
       50
176
     1
 90
       50
176
     1
 90
       50
176
     1
290
     0
176
     1
 90
       50
176
     1
 62
   256
176
     0
 40
1.0
176
     0
 90
        2
176
     1
  1
strokes_ogs.tif
176
     1
290
     0
176
     1
 40
1.0
176
     1
 40
1.0
176
     1
  0
VISUALSTYLE
  5
3E1
102
{ACAD_REACTORS
330
2B
102
}
330
2B
100
AcDbVisualStyle
  2
JitterOff
 70
    20
177
     3
291
     1
 70
    58
 90
        2
176
     0
 90
        2
176
     0
 90
        0
176
     0
 90
        0
176
     0
 40
0.6
176
     0
 40
30.0
176
     0
 62
     7
420
 16777215
176
     0
 90
        1
176
     0
 90
        4
176
     0
 62
     7
176
     0
 62
   257
176
     0
 90
        1
176
     0
 90
        1
176
     0
 40
1.0
176
     0
 90
       10
176
     2
 62
     7
176
     0
 40
1.0
176
     0
 90
        1
176
     0
 90
        6
176
     0
 90
        2
176
     0
 62
     7
176
     0
 90
        5
176
     0
 90
        0
176
     0
 90
        0
176
     0
290
     0
176
     0
 90
        1
176
     0
 40
0.0
176
     0
 90
        0
176
     0
290
     0
176
     0
290
     1
176
     0
290
     1
176
     0
290
     0
176
     0
290
     0
176
     0
290
     0
176
     0
290
     0
176
     0
290
     0
176
     0
290
     0
176
     0
 90
       50
176
     0
 40
0.0
176
     0
 40
1.0
176
     0
 90
        0
176
     0
 62
    18
420
        0
176
     0
 90
       50
176
     0
 90
        3
176
     0
 62
     5
420
      255
176
     0
290
     0
176
     0
 90
       50
176
     0
 90
       50
176
     0
 90
       50
176
     0
290
     0
176
     0
 90
       50
176
     0
 62
   256
176
     0
 40
1.0
176
     0
 90
        2
176
     0
  1
strokes_ogs.tif
176
     0
290
     0
176
     0
 40
1.0
176
     0
 40
1.0
176
     0
  0
VISUALSTYLE
  5
3D9
102
{ACAD_REACTORS
330
2B
102
}
330
2B
100
AcDbVisualStyle
  2
Linepattern
 70
    14
177
     3
291
     1
 70
    58
 90
        2
176
     1
 90
        2
176
     1
 90
        0
176
     1
 90
        0
176
     1
 40
0.6
176
     1
 40
30.0
176
     1
 62
     7
420
 16777215
176
     1
 90
        1
176
     1
 90
        4
176
     1
 62
     7
176
     1
 62
   257
176
     1
 90
        7
176
     1
 90
        7
176
     1
 40
1.0
176
     1
 90
        8
176
     1
 62
     7
176
     1
 40
1.0
176
     1
 90
        1
176
     1
 90
        6
176
     1
 90
        2
176
     1
 62
     7
176
     1
 90
        5
176
     1
 90
        0
176
     1
 90
        0
176
     1
290
     0
176
     1
 90
        1
176
     1
 40
0.0
176
     1
 90
        0
176
     1
290
     0
176
     1
290
     1
176
     1
290
     1
176
     1
290
     0
176
     1
290
     0
176
     1
290
     0
176
     1
290
     0
176
     1
290
     0
176
     1
290
     0
176
     1
 90
       50
176
     1
 40
0.0
176
     1
 40
1.0
176
     1
 90
        0
176
     1
 62
    18
420
        0
176
     1
 90
       50
176
     1
 90
        3
176
     1
 62
     5
420
      255
176
     1
290
     0
176
     1
 90
       50
176
     1
 90
       50
176
     1
 90
       50
176
     1
290
     0
176
     1
 90
       50
176
     1
 62
   256
176
     0
 40
1.0
176
     0
 90
        2
176
     1
  1
strokes_ogs.tif
176
     1
290
     0
176
     1
 40
1.0
176
     1
 40
1.0
176
     1
  0
VISUALSTYLE
  5
3E2
102
{ACAD_REACTORS
330
2B
102
}
330
2B
100
AcDbVisualStyle
  2
OverhangOff
 70
    21
177
     3
291
     1
 70
    58
 90
        2
176
     0
 90
        2
176
     0
 90
        0
176
     0
 90
        0
176
     0
 40
0.6
176
     0
 40
30.0
176
     0
 62
     7
420
 16777215
176
     0
 90
        1
176
     0
 90
        4
176
     0
 62
     7
176
     0
 62
   257
176
     0
 90
        1
176
     0
 90
        1
176
     0
 40
1.0
176
     0
 90
        9
176
     2
 62
     7
176
     0
 40
1.0
176
     0
 90
        1
176
     0
 90
        6
176
     0
 90
        2
176
     0
 62
     7
176
     0
 90
        5
176
     0
 90
        0
176
     0
 90
        0
176
     0
290
     0
176
     0
 90
        1
176
     0
 40
0.0
176
     0
 90
        0
176
     0
290
     0
176
     0
290
     1
176
     0
290
     1
176
     0
290
     0
176
     0
290
     0
176
     0
290
     0
176
     0
290
     0
176
     0
290
     0
176
     0
290
     0
176
     0
 90
       50
176
     0
 40
0.0
176
     0
 40
1.0
176
     0
 90
        0
176
     0
 62
    18
420
        0
176
     0
 90
       50
176
     0
 90
        3
176
     0
 62
     5
420
      255
176
     0
290
     0
176
     0
 90
       50
176
     0
 90
       50
176
     0
 90
       50
176
     0
290
     0
176
     0
 90
       50
176
     0
 62
   256
176
     0
 40
1.0
176
     0
 90
        2
176
     0
  1
strokes_ogs.tif
176
     0
290
     0
176
     0
 40
1.0
176
     0
 40
1.0
176
     0
  0
VISUALSTYLE
  5
45
102
{ACAD_REACTORS
330
2B
102
}
330
2B
100
AcDbVisualStyle
  2
Realistic
 70
     8
177
     3
291
     0
 70
    58
 90
        2
176
     1
 90
        3
176
     1
 90
        0
176
     1
 90
        2
176
     1
 40
0.6
176
     1
 40
30.0
176
     1
 62
     7
420
 16777215
176
     1
 90
        0
176
     1
 90
        0
176
     1
 62
     7
176
     1
 62
   257
176
     1
 90
        1
176
     1
 90
        1
176
     1
 40
1.0
176
     1
 90
        8
176
     1
 62
   257
176
     1
 40
1.0
176
     1
 90
        1
176
     1
 90
        6
176
     1
 90
        2
176
     1
 62
     7
176
     1
 90
        3
176
     1
 90
        0
176
     1
 90
        0
176
     1
290
     0
176
     1
 90
       13
176
     1
 40
0.0
176
     1
 90
        0
176
     1
290
     0
176
     1
290
     1
176
     1
290
     1
176
     1
290
     0
176
     1
290
     0
176
     1
290
     0
176
     1
290
     0
176
     1
290
     0
176
     1
290
     0
176
     1
 90
       50
176
     1
 40
0.0
176
     1
 40
1.0
176
     1
 90
        0
176
     1
 62
    18
176
     1
 90
       50
176
     1
 90
        3
176
     1
 62
     5
420
      255
176
     1
290
     0
176
     1
 90
       50
176
     1
 90
       50
176
     1
 90
       50
176
     1
290
     0
176
     1
 90
       50
176
     1
 62
   256
176
     0
 40
1.0
176
     0
 90
        2
176
     1
  1
strokes_ogs.tif
176
     1
290
     0
176
     1
 40
1.0
176
     1
 40
1.0
176
     1
  0
VISUALSTYLE
  5
3E0
102
{ACAD_REACTORS
330
2B
102
}
330
2B
100
AcDbVisualStyle
  2
Shaded
 70
    27
177
     3
291
     0
 70
    58
 90
        2
176
     1
 90
        2
176
     1
 90
        1
176
     1
 90
        2
176
     1
 40
0.6
176
     1
 40
30.0
176
     1
 62
     7
420
 16777215
176
     1
 90
        0
176
     1
 90
        4
176
     1
 62
     7
176
     1
 62
   257
176
     1
 90
        1
176
     1
 90
        1
176
     1
 40
1.0
176
     1
 90
        8
176
     1
 62
   257
176
     1
 40
1.0
176
     1
 90
        1
176
     1
 90
        6
176
     1
 90
        2
176
     1
 62
     8
420
  7895160
176
     1
 90
        3
176
     1
 90
        0
176
     1
 90
        0
176
     1
290
     0
176
     1
 90
        5
176
     1
 40
0.0
176
     1
 90
        0
176
     1
290
     0
176
     1
290
     1
176
     1
290
     1
176
     1
290
     0
176
     1
290
     0
176
     1
290
     0
176
     1
290
     0
176
     1
290
     0
176
     1
290
     0
176
     1
 90
       50
176
     1
 40
0.0
176
     1
 40
1.0
176
     1
 90
        0
176
     1
 62
    18
420
        0
176
     1
 90
       50
176
     1
 90
        3
176
     1
 62
     5
420
      255
176
     1
290
     0
176
     1
 90
       50
176
     1
 90
       50
176
     1
 90
       50
176
     1
290
     0
176
     1
 90
       50
176
     1
 62
   256
176
     0
 40
1.0
176
     0
 90
        2
176
     1
  1
strokes_ogs.tif
176
     1
290
     0
176
     1
 40
1.0
176
     1
 40
1.0
176
     1
  0
VISUALSTYLE
  5
3DF
102
{ACAD_REACTORS
330
2B
102
}
330
2B
100
AcDbVisualStyle
  2
Shaded with edges
 70
    26
177
     3
291
     0
 70
    58
 90
        2
176
     1
 90
        2
176
     1
 90
        1
176
     1
 90
        2
176
     1
 40
0.6
176
     1
 40
30.0
176
     1
 62
     7
420
 16777215
176
     1
 90
        1
176
     1
 90
        2
176
     1
 62
     7
176
     1
 62
   257
176
     1
 90
        2
176
     1
 90
        1
176
     1
 40
1.0
176
     1
 90
        8
176
     1
 62
   257
176
     1
 40
1.0
176
     1
 90
        1
176
     1
 90
        6
176
     1
 90
        2
176
     1
 62
     7
176
     1
 90
        3
176
     1
 90
        0
176
     1
 90
        0
176
     1
290
     0
176
     1
 90
        5
176
     1
 40
0.0
176
     1
 90
        0
176
     1
290
     0
176
     1
290
     1
176
     1
290
     1
176
     1
290
     0
176
     1
290
     0
176
     1
290
     0
176
     1
290
     0
176
     1
290
     0
176
     1
290
     0
176
     1
 90
       50
176
     1
 40
0.0
176
     1
 40
1.0
176
     1
 90
        0
176
     1
 62
    18
420
        0
176
     1
 90
       50
176
     1
 90
        3
176
     1
 62
     5
420
      255
176
     1
290
     0
176
     1
 90
       50
176
     1
 90
       50
176
     1
 90
       50
176
     1
290
     0
176
     1
 90
       50
176
     1
 62
   256
176
     0
 40
1.0
176
     0
 90
        2
176
     1
  1
strokes_ogs.tif
176
     1
290
     0
176
     1
 40
1.0
176
     1
 40
1.0
176
     1
  0
VISUALSTYLE
  5
3DC
102
{ACAD_REACTORS
330
2B
102
}
330
2B
100
AcDbVisualStyle
  2
Shades of Gray
 70
    23
177
     3
291
     0
 70
    58
 90
        2
176
     1
 90
        2
176
     1
 90
        3
176
     1
 90
        0
176
     1
 40
0.6
176
     1
 40
30.0
176
     1
 62
     7
420
 16777215
176
     1
 90
        2
176
     1
 90
        2
176
     1
 62
     7
176
     1
 62
     7
176
     1
 90
        1
176
     1
 90
        1
176
     1
 40
40.0
176
     1
 90
        8
176
     1
 62
     7
176
     1
 40
1.0
176
     1
 90
        1
176
     1
 90
        6
176
     1
 90
        2
176
     1
 62
     7
176
     1
 90
        3
176
     1
 90
        0
176
     1
 90
        0
176
     1
290
     0
176
     1
 90
        1
176
     1
 40
0.0
176
     1
 90
        0
176
     1
290
     0
176
     1
290
     1
176
     1
290
     1
176
     1
290
     0
176
     1
290
     0
176
     1
290
     0
176
     1
290
     0
176
     1
290
     0
176
     1
290
     0
176
     1
 90
       50
176
     1
 40
0.0
176
     1
 40
1.0
176
     1
 90
        0
176
     1
 62
    18
420
        0
176
     1
 90
       50
176
     1
 90
        3
176
     1
 62
     5
420
      255
176
     1
290
     0
176
     1
 90
       50
176
     1
 90
       50
176
     1
 90
       50
176
     1
290
     0
176
     1
 90
       50
176
     1
 62
   256
176
     0
 40
1.0
176
     0
 90
        2
176
     1
  1
strokes_ogs.tif
176
     1
290
     0
176
     1
 40
1.0
176
     1
 40
1.0
176
     1
  0
VISUALSTYLE
  5
3DD
102
{ACAD_REACTORS
330
2B
102
}
330
2B
100
AcDbVisualStyle
  2
Sketchy
 70
    24
177
     3
291
     0
 70
    58
 90
        1
176
     1
 90
        2
176
     1
 90
        2
176
     1
 90
        0
176
     1
 40
0.6
176
     1
 40
30.0
176
     1
 62
     7
420
 16777215
176
     1
 90
        2
176
     1
 90
        2
176
     1
 62
     7
176
     1
 62
     7
176
     1
 90
        1
176
     1
 90
        1
176
     1
 40
40.0
176
     1
 90
       11
176
     1
 62
     7
176
     1
 40
1.0
176
     1
 90
        1
176
     1
 90
        6
176
     1
 90
        2
176
     1
 62
     7
176
     1
 90
        6
176
     1
 90
        0
176
     1
 90
        0
176
     1
290
     0
176
     1
 90
        1
176
     1
 40
0.0
176
     1
 90
        0
176
     1
290
     0
176
     1
290
     1
176
     1
290
     1
176
     1
290
     0
176
     1
290
     0
176
     1
290
     0
176
     1
290
     0
176
     1
290
     0
176
     1
290
     0
176
     1
 90
       50
176
     1
 40
0.0
176
     1
 40
1.0
176
     1
 90
        0
176
     1
 62
    18
420
        0
176
     1
 90
       50
176
     1
 90
        3
176
     1
 62
     5
420
      255
176
     1
290
     0
176
     1
 90
       50
176
     1
 90
       50
176
     1
 90
       50
176
     1
290
     0
176
     1
 90
       50
176
     1
 62
   256
176
     0
 40
1.0
176
     0
 90
        2
176
     1
  1
strokes_ogs.tif
176
     1
290
     0
176
     1
 40
1.0
176
     1
 40
1.0
176
     1
  0
VISUALSTYLE
  5
3D8
102
{ACAD_REACTORS
330
2B
102
}
330
2B
100
AcDbVisualStyle
  2
Thicken
 70
    13
177
     3
291
     1
 70
    58
 90
        2
176
     1
 90
        2
176
     1
 90
        0
176
     1
 90
        0
176
     1
 40
0.6
176
     1
 40
30.0
176
     1
 62
     7
420
 16777215
176
     1
 90
        1
176
     1
 90
        4
176
     1
 62
     7
176
     1
 62
   257
176
     1
 90
        1
176
     1
 90
        1
176
     1
 40
1.0
176
     1
 90
       12
176
     1
 62
     7
176
     1
 40
1.0
176
     1
 90
        1
176
     1
 90
        6
176
     1
 90
        2
176
     1
 62
     7
176
     1
 90
        5
176
     1
 90
        0
176
     1
 90
        0
176
     1
290
     0
176
     1
 90
        1
176
     1
 40
0.0
176
     1
 90
        0
176
     1
290
     0
176
     1
290
     1
176
     1
290
     1
176
     1
290
     0
176
     1
290
     0
176
     1
290
     0
176
     1
290
     0
176
     1
290
     0
176
     1
290
     0
176
     1
 90
       50
176
     1
 40
0.0
176
     1
 40
1.0
176
     1
 90
        0
176
     1
 62
    18
420
        0
176
     1
 90
       50
176
     1
 90
        3
176
     1
 62
     5
420
      255
176
     1
290
     0
176
     1
 90
       50
176
     1
 90
       50
176
     1
 90
       50
176
     1
290
     0
176
     1
 90
       50
176
     1
 62
   256
176
     0
 40
1.0
176
     0
 90
        2
176
     1
  1
strokes_ogs.tif
176
     1
290
     0
176
     1
 40
1.0
176
     1
 40
1.0
176
     1
  0
VISUALSTYLE
  5
46
102
{ACAD_REACTORS
330
2B
102
}
330
2B
100
AcDbVisualStyle
  2
Wireframe
 70
     5
177
     3
291
     0
 70
    58
 90
        0
176
     1
 90
        2
176
     1
 90
        0
176
     1
 90
        0
176
     1
 40
0.6
176
     1
 40
30.0
176
     1
 62
     7
420
 16777215
176
     1
 90
        1
176
     1
 90
        4
176
     1
 62
     7
176
     1
 62
   257
176
     1
 90
        1
176
     1
 90
        1
176
     1
 40
1.0
176
     1
 90
        0
176
     1
 62
   257
176
     1
 40
1.0
176
     1
 90
        1
176
     1
 90
        6
176
     1
 90
        2
176
     1
 62
     7
176
     1
 90
        3
176
     1
 90
        0
176
     1
 90
        0
176
     1
290
     0
176
     1
 90
        1
176
     1
 40
0.0
176
     1
 90
        0
176
     1
290
     0
176
     1
290
     1
176
     1
290
     1
176
     1
290
     0
176
     1
290
     0
176
     1
290
     0
176
     1
290
     0
176
     1
290
     0
176
     1
290
     0
176
     1
 90
       50
176
     1
 40
0.0
176
     1
 40
1.0
176
     1
 90
        0
176
     1
 62
    18
176
     1
 90
       50
176
     1
 90
        3
176
     1
 62
     5
420
      255
176
     1
290
     0
176
     1
 90
       50
176
     1
 90
       50
176
     1
 90
       50
176
     1
290
     0
176
     1
 90
       50
176
     1
 62
   256
176
     0
 40
1.0
176
     0
 90
        2
176
     1
  1
strokes_ogs.tif
176
     1
290
     0
176
     1
 40
1.0
176
     1
 40
1.0
176
     1
  0
VISUALSTYLE
  5
3DE
102
{ACAD_REACTORS
330
2B
102
}
330
2B
100
AcDbVisualStyle
  2
X-Ray
 70
    25
177
     3
291
     0
 70
    58
 90
        2
176
     1
 90
        2
176
     1
 90
        1
176
     1
 90
        1
176
     1
 40
0.5
176
     1
 40
30.0
176
     1
 62
     7
420
 16777215
176
     1
 90
        1
176
     1
 90
        0
176
     1
 62
     7
176
     1
 62
   257
176
     1
 90
        1
176
     1
 90
        1
176
     1
 40
1.0
176
     1
 90
        8
176
     1
 62
     7
176
     1
 40
1.0
176
     1
 90
        1
176
     1
 90
        6
176
     1
 90
        2
176
     1
 62
     7
176
     1
 90
        3
176
     1
 90
        0
176
     1
 90
        0
176
     1
290
     0
176
     1
 90
       13
176
     1
 40
0.0
176
     1
 90
        0
176
     1
290
     0
176
     1
290
     1
176
     1
290
     1
176
     1
290
     0
176
     1
290
     0
176
     1
290
     0
176
     1
290
     0
176
     1
290
     0
176
     1
290
     0
176
     1
 90
       50
176
     1
 40
0.0
176
     1
 40
1.0
176
     1
 90
        0
176
     1
 62
    18
420
        0
176
     1
 90
       50
176
     1
 90
        3
176
     1
 62
     5
420
      255
176
     1
290
     0
176
     1
 90
       50
176
     1
 90
       50
176
     1
 90
       50
176
     1
290
     0
176
     1
 90
       50
176
     1
 62
   256
176
     0
 40
1.0
176
     0
 90
        2
176
     1
  1
strokes_ogs.tif
176
     1
290
     0
176
     1
 40
1.0
176
     1
 40
1.0
176
     1
  0
DICTIONARYVAR
  5
3CA
102
{ACAD_REACTORS
330
3C5
102
}
330
3C5
100
DictionaryVariables
280
     0
  1
1:1
  0
DICTIONARYVAR
  5
3C7
102
{ACAD_REACTORS
330
3C5
102
}
330
3C5
100
DictionaryVariables
280
     0
  1
STANDARD
  0
DICTIONARYVAR
  5
3C6
102
{ACAD_REACTORS
330
3C5
102
}
330
3C5
100
DictionaryVariables
280
     0
  1
STANDARD
  0
DICTIONARYVAR
  5
3C8
102
{ACAD_REACTORS
330
3C5
102
}
330
3C5
100
DictionaryVariables
280
     0
  1
Metric50
  0
DICTIONARYVAR
  5
3C9
102
{ACAD_REACTORS
330
3C5
102
}
330
3C5
100
DictionaryVariables
280
     0
  1
Metric50
  0
DICTIONARY
  5
17
330
15
100
AcDbDictionary
280
     1
281
     1
  0
DICTIONARY
  5
3C
330
3B
100
AcDbDictionary
280
     1
281
     1
  3
FBXASSET
360
3D
  0
DICTIONARY
  5
39
330
38
100
AcDbDictionary
280
     1
281
     1
  3
FBXASSET
360
3A
  0
DICTIONARY
  5
C
330
A
100
AcDbDictionary
280
     1
281
     1
  3
BUMPTILE
360
D
  3
DIFFUSETILE
360
E
  3
FBXASSET
360
F
  3
OPACITYTILE
360
10
  3
REFLECTIONTILE
360
11
  0
DICTIONARY
  5
44
330
43
100
AcDbDictionary
280
     1
281
     1
  3
ACAD_ROUNDTRIP_2008_TABLESTYLE_CELLSTYLEMAP
360
3EE
  0
XRECORD
  5
3D
102
{ACAD_REACTORS
330
3C
102
}
330
3C
100
AcDbXrecord
280
     1
 70
     1
 90
429727718
  1
D62C5603-E3A1-4AEA-B7FB-FE5D8D0755AF
310
504B03040A0000080000CC70623B3DEE336E79000000790000001B0000006175746F6465736B2D64657369676E2D7061636B6167652E786D6C3C3F786D6C2076657273696F6E3D22312E302220656E636F64696E673D227574662D3822203F3E3C666F726D6174733E3C666F726D61743E687474703A2F2F736368656D612E
310
6175746F6465736B2E636F6D2F64657369676E2D7061636B6167652F323030393C2F666F726D61743E3C2F666F726D6174733E504B0304140006080800CC70623BD486FD9CA0000000F4000000130000005B436F6E74656E745F54797065735D2E786D6C7D8EC10E82300C865F65E91D8A1E8C310C0EEA1BF002731658846E
310
D98AC1B77784ABF1D8FE5FBFBF75BBCE937A534CCEB38643598122B6FEE978D0B0485F9C41B54DDD7D022595594E1A469170414C76A4D9A4D207E29CF43ECE46F218070CC6BECC4078ACAA135ACF422C856C0E68EA1BF5669944DDD7BCDE7B1F8E415D77AECB980613C2E4AC91FC167A2B244592486606FC29C8FD7F045B9A
310
EF7053A7E60B504B0304140006080800CC70623B853B8169EB0000007C01000008000000636F72652E786D6C8D90416EC3201045AF62CDB6C206821CC7C244919D9CA01740401C94182C03558F5F9C3852BBEB6A467FFE9B197D7EFC9E1EC5975982F5AE035262288C535E5B377690E21535501C055FBC8FBF6C503839990E
310
5619041F179FE64D52DE45E362569DD7661365082642A11EB9E920A89B99642953CC8E702F67A9EE7234257977194EC9EAE275C4EABCCF5EAD5940D4AC6F0E35A568B8F43562CD7046CD199FD07E60174276A7BE677B5EADB0E0D14EEFFB6A31321A0D82627C4084204C3F096B71DD52F6819B16635EADF63F509AF53FA164
310
5DDCD1EDDD17164090FCC8732078B56691CB33A85CD7DCC40F504B0304140006080800CC70623B55019EA25F0000007C00000007000000636E782E786D6C4DCB3B0E80201045D1AD90E915ED2CF8AC45050C11660C8261F98AB1B07AC9C97D42D718D865D3E909258CFD00CCE24AC6E326A164D74DC0B4128928FF32603847
310
2BA13128B1252AC747C6BAB984FC68F0B87FE8960A5C09FE86CFB69FBA01504B0304140006080800CC70623BDBABAAF470010000D40300000C0000006662782F636F72652E786D6CC553D16E823014FD95A6AF4B694182CC941A83FA05FB810A9511A125A5257EFE2E82712ECEB8A7F100CD39F7F69E734AF9FADC366850B6
310
AF8DCE7018308C942E4C59EB2AC3DE1D498AD15A706B8CFB56869196ADCAF00863C12B6B7C374385D14E6907A836A59A41D9F7CA615434B0C8705F7CAA5606D23BA8E84F41278B93AC54100640439DE0BDB320004D43C63716C7C399D30917DCFBBA9CD9BA8469F5B156168B24CED3F7248AC8769F27244EB73B92EED8862C
310
B7F13E0C179B3C8F979C8ECD82BBBABDAA2BAC924E9558448CBD9330242CFA08E3154B5651FCC6D215639C8EE5774DBE2B5F6CF2B5768B68963BB5F5588420E442FC700B1139D4CB01F450C1E918227C2E09DF070D8140C84E1E9AAB8F1340832A9CB13130A5F1376A908D57309505ECF2A0DF179C4E9D30F5B239B87E3823
310
7A79C6F31DE1A8A5AEC08474B03C7837EAE4938639B44E5932B833D2C6B6B279CDC613877FA26EE21F4A2A4C63EC7F29A2F301D1F9F7A0E37D145F504B0304140006080800CC70623B9C113CC27E0000009D0000000B0000006662782F636E782E786D6C4DCCDF0A83201C86E15B91DFB94BFB330DD428C8FB886521330DA7
310
6397BF1A1DECE883878F57749FCDA1B7892F1BBC047A23808C7F84D9FA55424E0BE6803A256208E9EF06C84F9B91703228B1C690F78B66B34CD9A5439DF5CF0BFBF65E35BCA1B8D6A5C6F540381E886698B5741C695F9503EBA150A2F8958E3DC3EA0B504B0304140006080800CC70623B7DF2F77C2A010000120200003100
310
00006662782F41393633353835312D344632462D344230382D423046372D3739314545314133324237412F636F72652E786D6C8D51DB8EC22014FC15C2939B0D2DB4B45643319AE817EC0F6041255A68B86CFCFC856D4D76DF7CE190393373060EDB3DC707F856CE6B6B7A480A0C81328395DA5C7B18C3057510EC3873D686
310
3F34088C18550F330C39BB3A1BA7051AAC09CA84841A2BD5020AEF55806078A44B0FFD7053A328440C89E1EFC52486BBB8AA8214A99D789CF9E05200300FC927E4FB4D5B375D43103D5527440FB843077C5AA3F5861C8F645F5787F59E95B390B318B55CE45AA638FAA2957BD7248B390B7A7CC51F9C124149C82B8C378810
310
84AB2F42B7B8DD56F413775B8C5999E9FF4471926F8AA236A1AE96B8B3CC434E5839373893369E1FAF30EA395917409EB7F26AF8801C171837A4A6AC9C89E9F9C9B1A58BA30FD6A5EF5DDDCF894B9AD9B6A59C957943A9FCAE2FD5BC4DFE03504B0304140006080800CC70623BAD7543B64E01000033030000300000006662
310
782F41393633353835312D344632462D344230382D423046372D3739314545314133324237412F636E782E786D6CD593CD6EC32010845F0571AD6CE3D48AD20813A9873E410FBD12D82434182C7EAAE6EDBB2424CD25871E7B41D6EC30B3FA84F9E67BB2E40B4234DE8DB46F1925E094D7C6ED479AD3AE5951B2113C789FEE
310
6C943839C1488B4C05DF079FE72A69D8C96C13AAD6B8631503449F83828872B949AC57D26200B826A308D316B4064D6E46FCDA41C05550DC9E483A00797BFD207EFB092A45DE9514C1BBD22178396BD39D891265658C238DEA00936C654E5E433CB65A26D9F6EDB5EBC14EBF49A45CB856E66048291F6939A9A81BB5C89177
310
38143CA680F4AA299D66A042CEB3354A2684DC9D8D178FE0D9B8B41CAAD720F880EE7EF93C0C18769E099ECC04D5A102C8049A8A05632F4DDF376CF1DE0F6BB65C2F8627B65A33C6BB62177CEBBDAD973006829F89F22E814B54F4BC2BE347F8AA8F681390B50FA73F804400B5F542E796F19FF974E7F78DB802FE05E20750
310
4B0304140006080800CC70623BE75B7789680500003C100000340000006662782F41393633353835312D344632462D344230382D423046372D3739314545314133324237412F6F626A656374732E786D6CAD575B8F9B3818FD2B887D06C22499CB8AA1CA655245D5B455A356FB305264C061D8018C6C3393D95FBFC7600890
310
A4CD5EF210B0B1BFEBF98E3F7B1FF6596ABC522E1296DF9BAE3D320D9A872C4AF2F8DE2CE5CEBA358D0FBEC719939D65A691938CDE9B6ADAF4BD98B3B2D05311DD91329583D9D5FC0F438434A7A611A644887B5384CF34233629258BA878B12322891DEFF6B66BD70BFB62634E8AE781D082709A4B588AF91C528CDA28B73F
310
1C998EEF39EABBEFA97FBD6A7C7E9553F9D3D79FE442923C3C523610337627CB87ABE99D359D4CC6D6E4FACAB5E6ABF9D2726FC6A3C5F56271377BB88362213924694B38DD99FE47C48627A1E7D49F5A8BB5E1A74C0A599ED3B0F21F1E56366B89112D681E218F0915D0D6F17AD41FBA2A369DCF6335D62ABBD39779D5DDD1
310
11D4D8DE3CBB96B2E04FB8202E41051754A1AA8E8F76B4C6DFE810B580B1547F4B84911149794252234D024EF8BBE963A95AE27B3D310A9D5C215C7960FAEE415ED75694C6AFB17BCACA5D99A60A9AA65F217B0BFC53292ACB92BF283FAD0D3621576592CB5BED907C2FA8E9DF794E35E97BEA31BED21FEB401ABB94C44839
310
DCACBF0E1C5DA8DA5B2F4DFFD32AD86F543D9E565E7056502E157C00AD2671CD534549AB752FCA9CDA00677A313F04E51B22FF19E57B300579E3C97EB29F682D92935CEC18CF901B7B54FD8C51F362B56FC72FE0B3C1EAE335EDCCBF5AEC39ADB17DC238973F804BA5E6F6BFE7AF1FB32E523BE9F3BD571418E3631DCA4D48
310
5250CF639223210A9446CA30052EDF057BD35F8329C1ECD84552BF0DC8D18BE7BCE23BFE6BD960AB4A7DE79923A103BEBD80F911CBAA2C60DB19B01CF164A5583B772EE6D3FFA56666CBCDA74DC97724A48F9A58967497E489C4D979006FD7A05E227A1EBDD0F737C623387A9C844D3709995625106D157315F8B8392CD4E0
310
A0B9A720C4BE9829CEF37EA1E13111214D53925356365ADA634861B52519DD27A00AEB808EAF0628E6F435519D446F45CF2C9CF5214F0A15B2F6D06B79DA3EE3CBF7F56780D2F4E7EF73A0F5E5B02A38D07DC852C6B7C1FBB6664213E0C39E3EBA7FF4E1AD23EA2829407C85E586727488B751B2DB9502BC7B228A3FD68B6E
310
A65A22397E690AA8D158D7E404EC8CDA235CC3B7D1898680131CEC2CDF2638C65196279577750F15884AEE19F94199155B92B13297978469D4F8D358DF0AEF7631E28DC8F0D9F437D5D39A83B2231A1D52D543813A824EF8D44BCFF2FA6A31BD1E8DAD87F1CCB526B3879935BF59CDADD5C37479BB1CDD4CA7B3556B516589
310
EF352754B706114D9C885EC9131DE6EFEB43D99AFE2391C2F958179413D7CFEF6B1B6DB1E7600F00DE6E5C67454A339A4BA2E0FBA85ED26F045D454F463DBFCE484C2F90F2E5E3666003662ED8F755951A7D1BECD5B30B550B2785C8E7320B7292A4838DDA71BBC863ED7613CAF659337A3354231D4FF4A182A54904C2898C
310
98B28C4AD0CE056CCF332A80986E571EE9DBC305BB5FEB7E509220A58D25CF042D712A806AC0AD0C657FDEF80D2D9CEAA2EE4D1C76F60BFE74219A06527D6F82DF6412526107381E55E353090704D085B52408A8913C4ED159D79BDA71BB4BC506F4831350EB6F975CD22D69BF7AC49B91A2C0A9DDA3D5CA36AD20FC478E37
310
E61844E2352865EBCB61A275A65283CAAA9DD27703B4102F5AF51EF5F573B75CBB5AD38BC845F7A49F82A0966A49C2E3EA5EA0ECD326CD965F1DB402C6FA8B51A4658C5C5E2EC9E214602E55810345408596591009A82E7E7FFACA19EEA299B14A0081A705CB3296EBC14CDF658DCD336EA6D1136881AAEB87B81AB9EE53D5
310
F5EB8BC8362082DA24122F98680A4E7930C01A0079749CEA14382A0783E5EBA5A10F8C098456A03D6A4AEB6BB881E2513747552A5DB22C7EDAF83BD5528081A365F7FF06504B0304140006080000CC70623B000000000000000000000000350000006662782F41393633353835312D344632462D344230382D423046372D37
310
39314545314133324237412F76657274696365732E62696E504B0304140006080800CC70623BF270F1330600000004000000360000006662782F41393633353835312D344632462D344230382D423046372D3739314545314133324237412F747269616E676C65732E62696E636660600000504B0304140006080000CC7062
310
3B000000000000000000000000370000006662782F41393633353835312D344632462D344230382D423046372D3739314545314133324237412F617474726962757465732E62696E504B0304140006080800CC70623B08DA0BD19000000041010000360000006662782F41393633353835312D344632462D344230382D4230
310
46372D3739314545314133324237412F6469726563746F72792E786D6C858F410AC3201045AF22B36F53E9A60B35CBEEBAE80D244E44489C6234F4F835464A48035D0DF398FF9F8AF63D0E6CC63039F212F8F9020C7D47C6792B21C5FE7403D62A1188E2E60C98D7234A5830286103A55745067B9D86B8A3CF9C7F90C11DE6
310
07FB144396D7B6A82D282E9A152AD114D5EF2CB866EEE831B8EEA07A7BB5A8D7D61A2BAAEB7FD5F70921FF497D00504B0304140006080800CC70623BEDD1DC58FD000000A00100003B0000006662782F41393633353835312D344632462D344230382D423046372D3739314545314133324237412F7265736F75726365732F
310
636F72652E786D6C8D504B6E833010BD0A9A6D65B00922041947112427E8052C33A156828DFCA97AFC9A40A576D7CDCCE87D344F8F9FBFE667F689CE6B6B3A6039850C8DB2A336530731DC4903D95970676DF82583CCC8193B5861107C72362E3BA4AC096842428D1D7107A5F7182053CF7474E0D507CE32973124857FE48B
310
540F3961CEF244279DE03EB81420DB9EAC1384436FA353E879B1B182C7A8C75DA3C7F453DF353A1075D537A7BA6464B8F535A99AE14A9A2BBD90E350DD183B5CFABE3AF262350B1EF4FC9351399401471025A527C218A1E53BAB5A5AB765F5469B96525EACF23FA6B88CFF34456DC2A1DCE36E360F82A5202F42F062ED2BAD
310
579969AFDD8A6F504B010214000A0000080000CC70623B3DEE336E79000000790000001B00000000000000000000000000000000006175746F6465736B2D64657369676E2D7061636B6167652E786D6C504B01021400140006080800CC70623BD486FD9CA0000000F40000001300000000000000000000000000B20000005B
310
436F6E74656E745F54797065735D2E786D6C504B01021400140006080800CC70623B853B8169EB0000007C010000080000000000000000000000000083010000636F72652E786D6C504B01021400140006080800CC70623B55019EA25F0000007C000000070000000000000000000000000094020000636E782E786D6C504B
310
01021400140006080800CC70623BDBABAAF470010000D40300000C00000000000000000000000000180300006662782F636F72652E786D6C504B01021400140006080800CC70623B9C113CC27E0000009D0000000B00000000000000000000000000B20400006662782F636E782E786D6C504B01021400140006080800CC70
310
623B7DF2F77C2A010000120200003100000000000000000000000000590500006662782F41393633353835312D344632462D344230382D423046372D3739314545314133324237412F636F72652E786D6C504B01021400140006080800CC70623BAD7543B64E010000330300003000000000000000000000000000D2060000
310
6662782F41393633353835312D344632462D344230382D423046372D3739314545314133324237412F636E782E786D6C504B01021400140006080800CC70623BE75B7789680500003C10000034000000000000000000000000006E0800006662782F41393633353835312D344632462D344230382D423046372D3739314545
310
314133324237412F6F626A656374732E786D6C504B01021400140006080000CC70623B0000000000000000000000003500000000000000000000000000280E00006662782F41393633353835312D344632462D344230382D423046372D3739314545314133324237412F76657274696365732E62696E504B01021400140006
310
080800CC70623BF270F133060000000400000036000000000000000000000000007B0E00006662782F41393633353835312D344632462D344230382D423046372D3739314545314133324237412F747269616E676C65732E62696E504B01021400140006080000CC70623B0000000000000000000000003700000000000000
310
000000000000D50E00006662782F41393633353835312D344632462D344230382D423046372D3739314545314133324237412F617474726962757465732E62696E504B01021400140006080800CC70623B08DA0BD1900000004101000036000000000000000000000000002A0F00006662782F41393633353835312D344632
310
462D344230382D423046372D3739314545314133324237412F6469726563746F72792E786D6C504B01021400140006080800CC70623BEDD1DC58FD000000A00100003B000000000000000000000000000E1000006662782F41393633353835312D344632462D344230382D423046372D3739314545314133324237412F7265
310
736F75726365732F636F72652E786D6C504B0506000000000E000E0080040000641100000000
  0
XRECORD
  5
3A
102
{ACAD_REACTORS
330
39
102
}
330
39
100
AcDbXrecord
280
     1
 70
     1
 90
429727718
  1
30362254-06B7-45E0-A893-8CFA70E3D6BC
310
504B03040A0000080000CC70623B3DEE336E79000000790000001B0000006175746F6465736B2D64657369676E2D7061636B6167652E786D6C3C3F786D6C2076657273696F6E3D22312E302220656E636F64696E673D227574662D3822203F3E3C666F726D6174733E3C666F726D61743E687474703A2F2F736368656D612E
310
6175746F6465736B2E636F6D2F64657369676E2D7061636B6167652F323030393C2F666F726D61743E3C2F666F726D6174733E504B0304140006080800CC70623BD486FD9CA0000000F4000000130000005B436F6E74656E745F54797065735D2E786D6C7D8EC10E82300C865F65E91D8A1E8C310C0EEA1BF002731658846E
310
D98AC1B77784ABF1D8FE5FBFBF75BBCE937A534CCEB38643598122B6FEE978D0B0485F9C41B54DDD7D022595594E1A469170414C76A4D9A4D207E29CF43ECE46F218070CC6BECC4078ACAA135ACF422C856C0E68EA1BF5669944DDD7BCDE7B1F8E415D77AECB980613C2E4AC91FC167A2B244592486606FC29C8FD7F045B9A
310
EF7053A7E60B504B0304140006080800CC70623B1EC5D7A3EB0000007C01000008000000636F72652E786D6C8D90416EC3201045AF82665B6103C6756C6122AB4D4ED00B204C5C94182C03558F5F9C3852BBEB6A467FFE9B197D71FC9E6FE8CBACC17AD7032D0820E3B41FAD9B7A48F1820F808E52ACDEC75F36404ECDA687
310
4D0629A6D5A76597B477D1B89855E747B38B2A041301E95B6E7A08FAD3CCAA50296647B8168BD2573599823EBB0CA76447F43862C7BCCF5EAC59410E4DDD9C7973C2755553CCCFA4C603E3040F1565ED3B1FDE4E432BCA0D9622DAF9795FAF464533826484B498524CD807E51D79ED187F21878E10516EF63F505AC67F42C9
310
BA58B1FDDD071640D2FCC87D2045B96591CB3DA85CB7DCE40F504B0304140006080800CC70623B55019EA25F0000007C00000007000000636E782E786D6C4DCB3B0E80201045D1AD90E915ED2CF8AC45050C11660C8261F98AB1B07AC9C97D42D718D865D3E909258CFD00CCE24AC6E326A164D74DC0B4128928FF32603847
310
2BA13128B1252AC747C6BAB984FC68F0B87FE8960A5C09FE86CFB69FBA01504B0304140006080800CC70623B8C9102E971010000D40300000C0000006662782F636F72652E786D6CC5535B6E833010BC8AE5DF0A6C08340F1947A84D4ED00B38C6A128602363A31CBFCB234A53A551FA553EC09AD9F5CE8C31DB9E9B1AF5CA
310
7695D1198E428A91D2D214952E33ECDD315861B4E5CC1AE3BE9561A445A3323CC098B3D21ADFCE9034DA29ED00D5A6503328BA4E398C640D8B0C77F253352214DE4145770A5B214FA2546114020D759C75CE8200340D19DE981F0F6746269C33EFAB6266AB02A655C74A59CCF365BADC27CB5D902ED22848F6340DF238A141
310
BE88E2F57B92BFEDF23523433367AE6A2EEAA455C2A902F398D2751045018D3FA264435F3771F242571B4A1919CA6F9A7C5B3CD9E42BED16F12C776AEB308F40C848FC700B1139D4891EF410CEC810227CC6846F8386402064270EF5C5C709A05E49676C024C61FC95EA45ED154CA5211D1FF4FB8291A913A68E9B83EBBB33
310
E2A7673CDE118E5AE8124C0807CB8377834E366998436B950D7A7746DAD846D4CFD978E0F04FD455FC5D49D2D4C6FE9722321F10997F0F32DC47FE05504B0304140006080800CC70623BFFEA85907E0000009D0000000B0000006662782F636E782E786D6C4DCCD10A83201886E15B91FFDC95D95A811AB6F23E625948A6C3
310
E9D8E5AF46073BFAE0E1E365ED67B3E8ADC3CB78C7815C7240DA3DFC64DCC221C519D7805AC182F7F1EF06C88D9BE6703008B6049F9E274D7A1E938DBB5AE3D6131B2589BA0D3D965551E0B2EA732C9B9A624AAEB41E3A557677029960D9AFB4EF11165F504B0304140006080800CC70623B4FEEA4082C0100001202000031
310
0000006662782F39464131463745442D413632322D343644302D413938332D3331353338454246344243312F636F72652E786D6C8D515B6EC32010BC0AE2AB55850DD871ED0813254D72825EC00192A2C460F1A872FC42ED48ED5F7E00CDCECCCEB26C731F6FE05B39AFADE921293004CA082BB5B9F43086336A21D870E6AC
310
0D7F68109861543DCC30E4ECE26C9C164858139409093556AA051CBC570102714B8F1E7AF1A5C6A11862480C7F2DA6415C878B2A4891CA89C7990F2E050073937C42DE1DB7E4F87ED8A36D4329AA9B3D46DBAEAD504556557BD81DEBDD0761E52CE42C462D17B996298E3E6BE59E35C962CE821E1FF18553435012728A7187
310
0841987E927A8D9B35ADDF70BBC6989599FE4F1427F9A4286A132ABAC49D651EF234CD5CE04CDA78BA3DC2A8FB645D00B9DF8B57E215725C60BCA2A463E54C4CE327C7A65E1C7DB02E7DEFCBF594B864C5CA6CDBD49C957943E9FA5D5FBAF336F90F504B0304140006080800CC70623BAD7543B64E01000033030000300000
310
006662782F39464131463745442D413632322D343644302D413938332D3331353338454246344243312F636E782E786D6CD593CD6EC32010845F0571AD6CE3D48AD20813A9873E410FBD12D82434182C7EAAE6EDBB2424CD25871E7B41D6EC30B3FA84F9E67BB2E40B4234DE8DB46F1925E094D7C6ED479AD3AE5951B2113C
310
789FEE6C943839C1488B4C05DF079FE72A69D8C96C13AAD6B8631503449F83828872B949AC57D26200B826A308D316B4064D6E46FCDA41C05550DC9E483A00797BFD207EFB092A45DE9514C1BBD22178396BD39D891265658C238DEA00936C654E5E433CB65A26D9F6EDB5EBC14EBF49A45CB856E66048291F6939A9A81BB5
310
C8917738143CA680F4AA299D66A042CEB3354A2684DC9D8D178FE0D9B8B41CAAD720F880EE7EF93C0C18769E099ECC04D5A102C8049A8A05632F4DDF376CF1DE0F6BB65C2F8627B65A33C6BB62177CEBBDAD973006829F89F22E814B54F4BC2BE347F8AA8F681390B50FA73F804400B5F542E796F19FF974E7F78DB802FE05
310
E207504B0304140006080800CC70623B16AB87BA640500003C100000340000006662782F39464131463745442D413632322D343644302D413938332D3331353338454246344243312F6F626A656374732E786D6CAD575B6FA33818FD2B887DE6924B3BED8A326A92B68A663B534DD4D13E548A0C38942D60649B369D5FBFC7
310
600890A493BDE42160637FD7F31D7FF63E6FB3D478A55C242CBF3247B66B1A340F5994E4F19559CA8D75611A9F7D8F33263BCB4C232719BD32D5B4E97B316765A1A722BA21652A07B3B7B33F0D11D29C9A46981221AE4C113ED38CD8A4942CA2E2C58E882476BCD9DA23BB5ED8171B73523C0F841684D35CC252CCE79062D4
310
468DFA43D7747CCF51DF7D4FFDEB5593E3AB9CCA9FBEFE241792E4E19EB28198C968BAB8199F5D5A67D3E9C49A9E8F47D6EC76B6B0469F26EEFC7C3EBFBCBEB98462213924694B38DD98FE1D62C393D073EA4FADC5DAF04326852CCF6958F90F0F2B9BB5C48816348F90C7840A68EB78EDF68723159BCEE7891A6B95DDE9D3
310
BCEAEEE8086A6C6F9E5D4B59F0175C10A7A0820BAA5055C7473B5AE3CFDD452D602CD5DF12616444529E90D448938013FE6EFA58AA96F85E4F8C42275708571E98FE6827AF6B2B4AE3D7D83D64E5A64C53054DD3AF90BD06FEA9149565C94FCA0F6B834DC85599E4F2423B24DF0B6AFA979E534DFA9E7A4CC6FA631D486393
310
921829879BF5D781A373557BCB85E97FB90DB62B558F8795179C15944B051F40AB495CF35451D26A4727654E6D8033BD98EF82F21D91FF8AF2DD9982BCF1643BDD4EB516C9492E368C67C88DED563FC36D5EACF66DFF057C3658BDBFA69DF9578B3DA735B64F18C7F20770A9D45CFCF7FCF563D6456A277DBEF78A02637CA2
310
43B90A490AEAB94F72244481D24819A6C0E59B606BFA4B3025981DBB48EAB701D97BF19C577CC77F2D1B6C55A9EF3C732474C0B727303F625995056C3B02963D9EAC146BE78EC5FCEC7FA999EBC5EACBAAE41B12D27B4D2C0BBA49F244E2ECDC81B76B502F113D8F5EE8FB1BE3111CDD4FC2AA9B844CAB1288B68AB90A7CDC
310
1C166AB0D3DC5310625FCC14E779BFD0709F8890A629C9292B1B2DED31A4B0DA928CEE135085754027E3018A397D4D5427D15BD1330B677DC8934285AC3DF45A9EB68FF8F2B8FC0A509AFEECFD0FF2DE25CC6047F7214B195F07EFEB9A094D800F7BFAE8FED187B78EA8A3A400F115961BCAD1215E47C966530AF0EE8128FE
310
58CEBB996A8964FFA529A046635D9353B0336A8F700DDF46271A024E70B0B37C9DE01847591E54DED53D54202AB947E4076556AC49C6CA5C9E1226B7F1A7B1BE15DEED62C41B91E1B3E9AFAAA735036547343A925075041DF0A9979E893B391F8FCFA6967B3EFB644DCF6E5CEBFAE272625DCC6FAF3FB93793C5F90CE1EF57
310
407342756B10D1C489E8953CD1617E5CEECAD6F4EF8914CE5D5D504E5C3F1F9736DA62CFC11E00BCDDB8CC8A9466349744C1F75EBDA4DF09BA8A9E8C7A7E9991989E20E5DBDD6A6003664ED8F7A04A8DBE0DF6EAD9B9AA858342E47399053949D2C146EDB85DE4B176BB0965FBAC19BD19AA918E27FA50C1D22402E144464C
310
59462568E704B6E71915404CB72B8FF4EDE184DDAF753F284990D2C6926782963815403548A70C657FDEF80D2D9CEAA2AE4C1C76F60BFE74219A06527D6582DF6412526107381E55E353090704D085B52408D0933C4ED159D79BDA71BB4BC506F4831350EB6F979CD22D69BF7AC49B91A2C0A9DDA3D5CA36AD20FC478E37E6
310
1844E2352865EBCB6EA275A652E3836BE04EFB400BF1A2556F515F1FBB35B2AB35BD889C744FFA1004B5544B121E57F70215746DD2F5E2C1412B602CBF19455AC6C8E5E9922C4E01E65215385004546899059180EAFCF7A707CE7017CD8CDB0410789AB32C63B91E5CEBBBACB17AC6CD347A022D5075FD106377347AAABA7E
310
7D11590744509B44E205134DC1290F06580320F78E537D3D73540E06CB970B431F185308AD40BBD794D6D77003C5A36E8EAA54BA64597CD8F83BD552A080A365F7FF06504B0304140006080000CC70623B000000000000000000000000350000006662782F39464131463745442D413632322D343644302D413938332D3331
310
353338454246344243312F76657274696365732E62696E504B0304140006080800CC70623BF270F1330600000004000000360000006662782F39464131463745442D413632322D343644302D413938332D3331353338454246344243312F747269616E676C65732E62696E636660600000504B0304140006080000CC70623B
310
000000000000000000000000370000006662782F39464131463745442D413632322D343644302D413938332D3331353338454246344243312F617474726962757465732E62696E504B0304140006080800CC70623B08DA0BD19000000041010000360000006662782F39464131463745442D413632322D343644302D413938
310
332D3331353338454246344243312F6469726563746F72792E786D6C858F410AC3201045AF22B36F53E9A60B35CBEEBAE80D244E44489C6234F4F835464A48035D0DF398FF9F8AF63D0E6CC63039F212F8F9020C7D47C6792B21C5FE7403D62A1188E2E60C98D7234A5830286103A55745067B9D86B8A3CF9C7F90C11DE607
310
FB144396D7B6A82D282E9A152AD114D5EF2CB866EEE831B8EEA07A7BB5A8D7D61A2BAAEB7FD5F70921FF497D00504B0304140006080800CC70623B0D6EF93BFE000000A00100003B0000006662782F39464131463745442D413632322D343644302D413938332D3331353338454246344243312F7265736F75726365732F63
310
6F72652E786D6C8D50596E833010BD0A9ADFCA60B334011947A8694ED00B586642AC041B79A97AFC9A40A5F6AF3F33A3B7689E1E3F7DCD8FEC139DD7D6F4C0720A191A65476DA61E62B892236427C19DB5E1970C322367EC618541F0C9D9B8EC90B226A009093576C41D94DE63804C3DD2D18357379C652E63480A7FCF17A9
310
EE72C29CE5894E3AC17D702940B63D59270887DE46A7D0F36263058F518FBB468FE9A7BE6A7420864373B8D4873369AA8691FA421B3294352543C5CAF65C0F6FEF43CB8BD52C78D0F34F46E550061C419494B6843142CB0F5677F4B52BEB177AEC28E5C52AFF638ACBF84F53D42654E51E77B379102C05791282176B5F693D
310
CB4C7BED567C03504B010214000A0000080000CC70623B3DEE336E79000000790000001B00000000000000000000000000000000006175746F6465736B2D64657369676E2D7061636B6167652E786D6C504B01021400140006080800CC70623BD486FD9CA0000000F40000001300000000000000000000000000B20000005B
310
436F6E74656E745F54797065735D2E786D6C504B01021400140006080800CC70623B1EC5D7A3EB0000007C010000080000000000000000000000000083010000636F72652E786D6C504B01021400140006080800CC70623B55019EA25F0000007C000000070000000000000000000000000094020000636E782E786D6C504B
310
01021400140006080800CC70623B8C9102E971010000D40300000C00000000000000000000000000180300006662782F636F72652E786D6C504B01021400140006080800CC70623BFFEA85907E0000009D0000000B00000000000000000000000000B30400006662782F636E782E786D6C504B01021400140006080800CC70
310
623B4FEEA4082C0100001202000031000000000000000000000000005A0500006662782F39464131463745442D413632322D343644302D413938332D3331353338454246344243312F636F72652E786D6C504B01021400140006080800CC70623BAD7543B64E010000330300003000000000000000000000000000D5060000
310
6662782F39464131463745442D413632322D343644302D413938332D3331353338454246344243312F636E782E786D6C504B01021400140006080800CC70623B16AB87BA640500003C1000003400000000000000000000000000710800006662782F39464131463745442D413632322D343644302D413938332D3331353338
310
454246344243312F6F626A656374732E786D6C504B01021400140006080000CC70623B0000000000000000000000003500000000000000000000000000270E00006662782F39464131463745442D413632322D343644302D413938332D3331353338454246344243312F76657274696365732E62696E504B01021400140006
310
080800CC70623BF270F133060000000400000036000000000000000000000000007A0E00006662782F39464131463745442D413632322D343644302D413938332D3331353338454246344243312F747269616E676C65732E62696E504B01021400140006080000CC70623B0000000000000000000000003700000000000000
310
000000000000D40E00006662782F39464131463745442D413632322D343644302D413938332D3331353338454246344243312F617474726962757465732E62696E504B01021400140006080800CC70623B08DA0BD190000000410100003600000000000000000000000000290F00006662782F39464131463745442D413632
310
322D343644302D413938332D3331353338454246344243312F6469726563746F72792E786D6C504B01021400140006080800CC70623B0D6EF93BFE000000A00100003B000000000000000000000000000D1000006662782F39464131463745442D413632322D343644302D413938332D3331353338454246344243312F7265
310
736F75726365732F636F72652E786D6C504B0506000000000E000E0080040000641100000000
  0
XRECORD
  5
D
102
{ACAD_REACTORS
330
C
102
}
330
C
100
AcDbXrecord
280
     1
270
     1
271
     1
  0
XRECORD
  5
E
102
{ACAD_REACTORS
330
C
102
}
330
C
100
AcDbXrecord
280
     1
270
     1
271
     1
  0
XRECORD
  5
F
102
{ACAD_REACTORS
330
C
102
}
330
C
100
AcDbXrecord
280
     1
 70
     0
 90
1673772943
  1
ECE7A1D2-D628-4531-984C-D00F80459256
310
504B03040A0000080000CC70623B3DEE336E79000000790000001B0000006175746F6465736B2D64657369676E2D7061636B6167652E786D6C3C3F786D6C2076657273696F6E3D22312E302220656E636F64696E673D227574662D3822203F3E3C666F726D6174733E3C666F726D61743E687474703A2F2F736368656D612E
310
6175746F6465736B2E636F6D2F64657369676E2D7061636B6167652F323030393C2F666F726D61743E3C2F666F726D6174733E504B0304140006080800CC70623BD486FD9CA0000000F4000000130000005B436F6E74656E745F54797065735D2E786D6C7D8EC10E82300C865F65E91D8A1E8C310C0EEA1BF002731658846E
310
D98AC1B77784ABF1D8FE5FBFBF75BBCE937A534CCEB38643598122B6FEE978D0B0485F9C41B54DDD7D022595594E1A469170414C76A4D9A4D207E29CF43ECE46F218070CC6BECC4078ACAA135ACF422C856C0E68EA1BF5669944DDD7BCDE7B1F8E415D77AECB980613C2E4AC91FC167A2B244592486606FC29C8FD7F045B9A
310
EF7053A7E60B504B0304140006080800CC70623BD9DDAED0EC0000007C01000008000000636F72652E786D6C8D90416EC3201045AF82665B61836D9CD8C2444DD39CA01740405C94182C03558F5F9C3852BBEB6A467FFE9B197D7EF89E6EE8CB2CC17A37002D0820E394D7D68D03A478C17B4007C117EFE32F1B20272733C0
310
2A83E0E3E2D3BC49CABB685CCCAAF3DA6CA20CC14440EA969B0182FA34932C648AD911AEC52CD5558EA6A0CF2EC329598D1E47ACCEFBECC59A050463A7EA5833865FEBDD0E37353BE3EE8DBDE3F6786A48D375FBF6CC78B9C282473B3DEFABC5C86834888A900E538A49F5419B9EB47DD5BC907D4F082F57FB1F28CDFA9F50
310
B22ED6D5F6EE030B20687EE43E10BC5CB3C8E51E54AE6B6EE207504B0304140006080800CC70623B55019EA25F0000007C00000007000000636E782E786D6C4DCB3B0E80201045D1AD90E915ED2CF8AC45050C11660C8261F98AB1B07AC9C97D42D718D865D3E909258CFD00CCE24AC6E326A164D74DC0B4128928FF326038
310
472BA13128B1252AC747C6BAB984FC68F0B87FE8960A5C09FE86CFB69FBA01504B0304140006080800CC70623BA24EB22D72010000D40300000C0000006662782F636F72652E786D6CC5535B6E833010BC8AE5DF0A6C5E49888CA3A6694ED00B38E05014B091B1518EDFE511A5A9D228FD2A1F60CDEC7A67C6986DCE4D8D7A
310
69BA4AAB0C073EC548AA5C17952A33ECECD15B61B4E1CC686DBF9561A44423333CC098B3D268D7CE50AE9595CA02AA74216750749DB418E5352C32DCE59FB211BE70162ABA93DF8AFC244AE9073ED050C759670D0840D390E18DF9F1706664C23973AE2A66B62A605A75ACA4C13C4976E1364A12EF355A2EBD384AF65EFA96
310
BC7B8BED2EA6719AAE16FB8491A199335B351775B991C2CA02F390D2D40B028F861F41BCA68B7518BFD0D59A524686F29B26D7164F36B94AD9289CE54E6D1DE6010819891F6E21228B3AD1831EC219194284CF98F06DD01008846CC5A1BEF83801D4CBDC6A1303536877A57A513B0953A94FC707FDBE6064EA84A9E3E6E0FA
310
EE8CF0E9198F7784A316AA0413C2C2F2E0ECA0934D1AE6D05A69BCDE9E91D2A611F573361E38FC1375157F5752AE6B6DFE4B11990F88CCBF0719EE23FF02504B0304140006080800CC70623B408A7D3B7C0000009D0000000B0000006662782F636E782E786D6C4DCCD10A83201886E15B91FFDC552A92A0064DBC8F581632
310
D3703A76F9ABD1C18E3E78F878E5F0D9027ABBFCF2292AE86E2D20171F69F6715550CB827B40839639A5F2770314A7CD293819B45C73AAFB45B35BA61ACAA1C1C7E7855C58C15BC331339661262CC762340413D68D77DA5B42298546CBE6573AF60CEB2F504B0304140006080800CC70623B449FB9BD290100001202000031
310
0000006662782F36394639363044362D344446342D343946362D394244322D3234314243333846323333332F636F72652E786D6C8D515B6EC32010BC0AE22B55850D98B871848994463E412FE002495162B07854397EA176A4F62F3F2C9A9D991D587EB84F37F0AD7D30CEF6905418026DA553C65E7A98E219ED203808EE9D
310
8B7F6810D871D23D2C3014FCE25D9A57483A1BB58D19B54EE9151C43D0110279CB971E06F9A5A7B11A53CC8C70ADE6515EC78BAE4895DB992778883E0700CB907242D17643D7E2538BD869608875438BBAE38922CAC8F1BDD90DB4691A5E2F42C153326A951B95E398B3D1FE599322163C9AE9115F7A3D46ADA0A018778810
310
84E907617BDCEE297BC5BB3DC6BC2EF47FA234AB2745C9D8D8D035EE220B50105E2F0DC1954B9FB747187D9F9D8FA0CCDB042D5FA0C015C65B42DF78BD10F3F3B363CB56C7109DCFDFBBB97E662ED92EB62D13BC2E1BCAE5777DB9966D8A1F504B0304140006080800CC70623BAD7543B64E01000033030000300000006662
310
782F36394639363044362D344446342D343946362D394244322D3234314243333846323333332F636E782E786D6CD593CD6EC32010845F0571AD6CE3D48AD20813A9873E410FBD12D82434182C7EAAE6EDBB2424CD25871E7B41D6EC30B3FA84F9E67BB2E40B4234DE8DB46F1925E094D7C6ED479AD3AE5951B2113C789FEE
310
6C943839C1488B4C05DF079FE72A69D8C96C13AAD6B8631503449F83828872B949AC57D26200B826A308D316B4064D6E46FCDA41C05550DC9E483A00797BFD207EFB092A45DE9514C1BBD22178396BD39D891265658C238DEA00936C654E5E433CB65A26D9F6EDB5EBC14EBF49A45CB856E66048291F6939A9A81BB5C89177
310
38143CA680F4AA299D66A042CEB3354A2684DC9D8D178FE0D9B8B41CAAD720F880EE7EF93C0C18769E099ECC04D5A102C8049A8A05632F4DDF376CF1DE0F6BB65C2F8627B65A33C6BB62177CEBBDAD973006829F89F22E814B54F4BC2BE347F8AA8F681390B50FA73F804400B5F542E796F19FF974E7F78DB802FE05E20750
310
4B0304140006080800CC70623B8D05915C650500003B100000340000006662782F36394639363044362D344446342D343946362D394244322D3234314243333846323333332F6F626A656374732E786D6CAD575B6FA33814FE2B887D06429276DA1565D4266D158D3A339A6846FB502932E050B66023DB74D2FDF5FB190C01
310
9276B2973C046C8ECFF53B17071F77456EBD502133CEAE6CDF9DD81665314F32965ED995DA3A17B6F5310C04E7AA47665B8C14F4CAD6DB7618A48257A5D94AE89654B91AEDDEDDFC61C998326A5B714EA4BCB265FC440BE2924AF184CA6737218AB8E976E7FA6E4338649B0A523E8D98964450A6A029F619B8588D52FE7039
310
B1BD30F0F4F730D0FF866AF6369557DB33949F31A9088B0F848DD8CCFCF9F2767A76E99CCDE733677E3EF59D9BBB9BA5E37F984D16E78BC5E5F5ED25044B25C0C96822E8D60EEFE11B91C581D77CEA34368A1F5329E68CD1B8B61F16D63A1B8E092D294B10C78C4A48EB593D192E7DED9BDEE7995E1B91FDEDD3ACEA9FE831
310
6A756F9F7D4D79F4274C90A7A04248AA51D5F8C718DAE06FB2F75AC4796EBE65D22A88A22223B995679120E2D50E41AA49C260C046A35368846B0BECD0DFF3EBEB8AD4F835768F69B9ADF25C43D30E6B646F807FAA64AD59F61715C7A54127C4AACA98BA3006A9D792DAE165E0D59B61A01FB3A9F9D838D2DAE62445C86166
310
F37564E842E7DE6A69879FEEA2DD5AE7E371E1A5E025154AC307D06A03D73EB5978C58FFA4C8E9033066E0F3BD53BEC1F39F91BE7B55103791EDE6BBB991A2046172CB4581D8B893FA674DDA17A77B3B7C413D1B511FD2743BFF8A38F03A658705E3ADF8015C3A3417FF3D7E439FF591DA0B5F18BC20C1B8981957AE6392A3
310
F43C640C01D1A0B4728E2DD4F26DB4B3C3152A252A3B4E913CEC1C72F012782FF88EFF8637AA552DBEF76408E8A8DE9E50F9E1CB3A2DA0DB1B6039A893B56063DC5B3E3FFB5F72E67AB9FEB4AEC496C4F4C1149625DD662C53E89D7BF0F6151A046260D1337DFDC94502430F83B0EE07A130A224BCAD7DAE1D9FB6CD422FF6
310
920702629C4BB9AE79C12F243C6432A6794E18E5552BA56B431AAB5D91317302B2B071E86C3A42B1A02F999E24061403B5D0EB639195DA655DD3EBEAB4FB862DDF579F014AD0E73C22F99E28DA57FB98E75C6CA2D74D53086D600F4786E0FE3144B771A8A7B900F03594DB8A633CBC49B2EDB69228BB479CF863B5E807AAAB
310
23872F6DFEB4129B949CA33823F58830E86D65621E10047D9DB34D862E8EAC3C2ABC2F7B2C40D67CDFE01F5545B92105AF983AC54D93D69E56FB8E797F88913F898A9FEC705D3F9D1B54EC8426FB500D40A03BD0119B06E1B95DDC7EB8F6975367793EBD70E66733DFB9BC982F9CE564727731999F5D4ECFCE3B8D6A4DC2A0
310
6D50FD148437D110834A64C6CDDF57FBACB5C307A2A477DFE4939736CFEF2B175371E0E10CF0DD1D5C15654E0BCA14D1E87DD02FF93782A162C0A3D95F1524A52770F972BF1EE9809D13CE7DD599467F8ECE9ADD85CE85A34CD45355448C64F9E8A031DC2D596ACC6E5DD93D9B82DE2EF5CAF81363A8E47996A0DE24564A79
310
4115AACE09C55E14540231FDA13C319787134EBF34E3A022514E5B4D9E0826E25C02D5805B15ABE1BEF51B26383D445DD9E875EE33FE4C22DA16427D65A3BCA92CA6D28DD01DF5DC53330704308475351050232CCD31583787BA75774AFB06E5070DD0C8EF484E19968C5D83BA5B90B244D31E54D55A372320FE4786B7EA58
310
44E135AA5467CB7EA333A61683CC6A8C3257034C10CF46F40EF9F5BE59BE5BD30C3C72D235E95D10345C1D45445A5F0BB47E46A5EBE5570F9380B5FA629579952296A773720405982B9DE04011506178964401AA8BDF1FBF0A8EAB6861DD6580C0E38217056766716DAEB2D6FA0917D3E4116581EADB879C4E7CFFB11EFACD
310
3D641311495D92C8676CB409A72D18610D803CE8A626049E8EC1887CB5B44CC39883690DDA8399B4B9855B481E7D71D4A9D22F96E5BB73BF5793020C02137BF837504B0304140006080000CC70623B000000000000000000000000350000006662782F36394639363044362D344446342D343946362D394244322D32343142
310
43333846323333332F76657274696365732E62696E504B0304140006080800CC70623BF270F1330600000004000000360000006662782F36394639363044362D344446342D343946362D394244322D3234314243333846323333332F747269616E676C65732E62696E636660600000504B0304140006080000CC70623B0000
310
00000000000000000000370000006662782F36394639363044362D344446342D343946362D394244322D3234314243333846323333332F617474726962757465732E62696E504B0304140006080800CC70623B08DA0BD19000000041010000360000006662782F36394639363044362D344446342D343946362D394244322D
310
3234314243333846323333332F6469726563746F72792E786D6C858F410AC3201045AF22B36F53E9A60B35CBEEBAE80D244E44489C6234F4F835464A48035D0DF398FF9F8AF63D0E6CC63039F212F8F9020C7D47C6792B21C5FE7403D62A1188E2E60C98D7234A5830286103A55745067B9D86B8A3CF9C7F90C11DE607FB14
310
4396D7B6A82D282E9A152AD114D5EF2CB866EEE831B8EEA07A7BB5A8D7D61A2BAAEB7FD5F70921FF497D00504B0304140006080800CC70623BCA768048FE000000A00100003B0000006662782F36394639363044362D344446342D343946362D394244322D3234314243333846323333332F7265736F75726365732F636F72
310
652E786D6C8D50596E833010BD0A9ADFCA60D600328E9AA639412F609909B1126CE4A5EAF16B0295DABFFECC8CDEA2797AECF8353F924FB44E193D409E5248504B332A3D0D10FC95B4901C39B3C6F85F3248B49871801506CE266BC2B243D2688FDA47549B11775038871E12F988C7004EDE7016A9083E2ADC3D5D84BC8B09
310
D33C8D74D471E6BC8D0192EDC93A815B742658898E651BCB59086ADC356A8C3FD555A1055ED7E7E254D615792D0F075295F585746FF53B694EE78A565DD736979A65AB9933AFE69F8CD2A2F038022F28ED489E135A7CE4554F9BBEA85E68DB53CAB255FEC71496F19FA6A0B42F8B3DEE6673C0F318E4497096AD7DC5F52C33
310
EEB55BFE0D504B010214000A0000080000CC70623B3DEE336E79000000790000001B00000000000000000000000000000000006175746F6465736B2D64657369676E2D7061636B6167652E786D6C504B01021400140006080800CC70623BD486FD9CA0000000F40000001300000000000000000000000000B20000005B436F
310
6E74656E745F54797065735D2E786D6C504B01021400140006080800CC70623BD9DDAED0EC0000007C010000080000000000000000000000000083010000636F72652E786D6C504B01021400140006080800CC70623B55019EA25F0000007C000000070000000000000000000000000095020000636E782E786D6C504B0102
310
1400140006080800CC70623BA24EB22D72010000D40300000C00000000000000000000000000190300006662782F636F72652E786D6C504B01021400140006080800CC70623B408A7D3B7C0000009D0000000B00000000000000000000000000B50400006662782F636E782E786D6C504B01021400140006080800CC70623B
310
449FB9BD290100001202000031000000000000000000000000005A0500006662782F36394639363044362D344446342D343946362D394244322D3234314243333846323333332F636F72652E786D6C504B01021400140006080800CC70623BAD7543B64E010000330300003000000000000000000000000000D20600006662
310
782F36394639363044362D344446342D343946362D394244322D3234314243333846323333332F636E782E786D6C504B01021400140006080800CC70623B8D05915C650500003B10000034000000000000000000000000006E0800006662782F36394639363044362D344446342D343946362D394244322D32343142433338
310
46323333332F6F626A656374732E786D6C504B01021400140006080000CC70623B0000000000000000000000003500000000000000000000000000250E00006662782F36394639363044362D344446342D343946362D394244322D3234314243333846323333332F76657274696365732E62696E504B010214001400060808
310
00CC70623BF270F13306000000040000003600000000000000000000000000780E00006662782F36394639363044362D344446342D343946362D394244322D3234314243333846323333332F747269616E676C65732E62696E504B01021400140006080000CC70623B00000000000000000000000037000000000000000000
310
00000000D20E00006662782F36394639363044362D344446342D343946362D394244322D3234314243333846323333332F617474726962757465732E62696E504B01021400140006080800CC70623B08DA0BD190000000410100003600000000000000000000000000270F00006662782F36394639363044362D344446342D
310
343946362D394244322D3234314243333846323333332F6469726563746F72792E786D6C504B01021400140006080800CC70623BCA768048FE000000A00100003B000000000000000000000000000B1000006662782F36394639363044362D344446342D343946362D394244322D3234314243333846323333332F7265736F
310
75726365732F636F72652E786D6C504B0506000000000E000E0080040000621100000000
  0
XRECORD
  5
10
102
{ACAD_REACTORS
330
C
102
}
330
C
100
AcDbXrecord
280
     1
270
     1
271
     1
  0
XRECORD
  5
11
102
{ACAD_REACTORS
330
C
102
}
330
C
100
AcDbXrecord
280
     1
270
     1
271
     1
  0
CELLSTYLEMAP
  5
3EE
102
{ACAD_REACTORS
330
44
102
}
330
44
100
AcDbCellStyleMap
 90
        3
300
CELLSTYLE
  1
TABLEFORMAT_BEGIN
 90
        5
170
     1
 91
        0
 92
    32768
 62
   257
 93
        1
300
CONTENTFORMAT
  1
CONTENTFORMAT_BEGIN
 90
        0
 91
        0
 92
      512
 93
        0
300

 40
0.0
140
1.0
 94
        5
 62
     0
340
21
144
6.0
309
CONTENTFORMAT_END
171
     1
301
MARGIN
  1
CELLMARGIN_BEGIN
 40
1.5
 40
1.5
 40
1.5
 40
1.5
 40
0.18
 40
0.18
309
CELLMARGIN_END
 94
        6
 95
        1
302
GRIDFORMAT
  1
GRIDFORMAT_BEGIN
 90
        0
 91
        1
 62
     0
 92
       -2
340
24
 93
        0
 40
1.125
309
GRIDFORMAT_END
 95
        2
302
GRIDFORMAT
  1
GRIDFORMAT_BEGIN
 90
        0
 91
        1
 62
     0
 92
       -2
340
24
 93
        0
 40
1.125
309
GRIDFORMAT_END
 95
        4
302
GRIDFORMAT
  1
GRIDFORMAT_BEGIN
 90
        0
 91
        1
 62
     0
 92
       -2
340
24
 93
        0
 40
1.125
309
GRIDFORMAT_END
 95
        8
302
GRIDFORMAT
  1
GRIDFORMAT_BEGIN
 90
        0
 91
        1
 62
     0
 92
       -2
340
24
 93
        0
 40
1.125
309
GRIDFORMAT_END
 95
       16
302
GRIDFORMAT
  1
GRIDFORMAT_BEGIN
 90
        0
 91
        1
 62
     0
 92
       -2
340
24
 93
        0
 40
1.125
309
GRIDFORMAT_END
 95
       32
302
GRIDFORMAT
  1
GRIDFORMAT_BEGIN
 90
        0
 91
        1
 62
     0
 92
       -2
340
24
 93
        0
 40
1.125
309
GRIDFORMAT_END
309
TABLEFORMAT_END
  1
CELLSTYLE_BEGIN
 90
        1
 91
        1
300
_TITLE
309
CELLSTYLE_END
300
CELLSTYLE
  1
TABLEFORMAT_BEGIN
 90
        5
170
     1
 91
        0
 92
        0
 62
   257
 93
        1
300
CONTENTFORMAT
  1
CONTENTFORMAT_BEGIN
 90
        0
 91
        0
 92
      512
 93
        0
300

 40
0.0
140
1.0
 94
        5
 62
     0
340
21
144
4.5
309
CONTENTFORMAT_END
171
     1
301
MARGIN
  1
CELLMARGIN_BEGIN
 40
1.5
 40
1.5
 40
1.5
 40
1.5
 40
0.18
 40
0.18
309
CELLMARGIN_END
 94
        6
 95
        1
302
GRIDFORMAT
  1
GRIDFORMAT_BEGIN
 90
        0
 91
        1
 62
     0
 92
       -2
340
24
 93
        0
 40
1.125
309
GRIDFORMAT_END
 95
        2
302
GRIDFORMAT
  1
GRIDFORMAT_BEGIN
 90
        0
 91
        1
 62
     0
 92
       -2
340
24
 93
        0
 40
1.125
309
GRIDFORMAT_END
 95
        4
302
GRIDFORMAT
  1
GRIDFORMAT_BEGIN
 90
        0
 91
        1
 62
     0
 92
       -2
340
24
 93
        0
 40
1.125
309
GRIDFORMAT_END
 95
        8
302
GRIDFORMAT
  1
GRIDFORMAT_BEGIN
 90
        0
 91
        1
 62
     0
 92
       -2
340
24
 93
        0
 40
1.125
309
GRIDFORMAT_END
 95
       16
302
GRIDFORMAT
  1
GRIDFORMAT_BEGIN
 90
        0
 91
        1
 62
     0
 92
       -2
340
24
 93
        0
 40
1.125
309
GRIDFORMAT_END
 95
       32
302
GRIDFORMAT
  1
GRIDFORMAT_BEGIN
 90
        0
 91
        1
 62
     0
 92
       -2
340
24
 93
        0
 40
1.125
309
GRIDFORMAT_END
309
TABLEFORMAT_END
  1
CELLSTYLE_BEGIN
 90
        2
 91
        1
300
_HEADER
309
CELLSTYLE_END
300
CELLSTYLE
  1
TABLEFORMAT_BEGIN
 90
        5
170
     1
 91
        0
 92
        0
 62
   257
 93
        1
300
CONTENTFORMAT
  1
CONTENTFORMAT_BEGIN
 90
        0
 91
        0
 92
      512
 93
        0
300

 40
0.0
140
1.0
 94
        2
 62
     0
340
21
144
4.5
309
CONTENTFORMAT_END
171
     1
301
MARGIN
  1
CELLMARGIN_BEGIN
 40
1.5
 40
1.5
 40
1.5
 40
1.5
 40
0.18
 40
0.18
309
CELLMARGIN_END
 94
        6
 95
        1
302
GRIDFORMAT
  1
GRIDFORMAT_BEGIN
 90
        0
 91
        1
 62
     0
 92
       -2
340
24
 93
        0
 40
1.125
309
GRIDFORMAT_END
 95
        2
302
GRIDFORMAT
  1
GRIDFORMAT_BEGIN
 90
        0
 91
        1
 62
     0
 92
       -2
340
24
 93
        0
 40
1.125
309
GRIDFORMAT_END
 95
        4
302
GRIDFORMAT
  1
GRIDFORMAT_BEGIN
 90
        0
 91
        1
 62
     0
 92
       -2
340
24
 93
        0
 40
1.125
309
GRIDFORMAT_END
 95
        8
302
GRIDFORMAT
  1
GRIDFORMAT_BEGIN
 90
        0
 91
        1
 62
     0
 92
       -2
340
24
 93
        0
 40
1.125
309
GRIDFORMAT_END
 95
       16
302
GRIDFORMAT
  1
GRIDFORMAT_BEGIN
 90
        0
 91
        1
 62
     0
 92
       -2
340
24
 93
        0
 40
1.125
309
GRIDFORMAT_END
 95
       32
302
GRIDFORMAT
  1
GRIDFORMAT_BEGIN
 90
        0
 91
        1
 62
     0
 92
       -2
340
24
 93
        0
 40
1.125
309
GRIDFORMAT_END
309
TABLEFORMAT_END
  1
CELLSTYLE_BEGIN
 90
        3
 91
        2
300
_DATA
309
CELLSTYLE_END
  0
ENDSEC
  0
SECTION
  2
ACDSDATA
 70
     2
 71
     8
  0
ACDSSCHEMA
 90
        0
  1
AcDb_Thumbnail_Schema
  2
AcDbDs::ID
280
    10
 91
        8
  2
Thumbnail_Data
280
    15
 91
        0
101
ACDSRECORD
 95
        0
 90
        1
  2
AcDbDs::TreatedAsObjectData
280
     1
291
     1
101
ACDSRECORD
 95
        0
 90
        2
  2
AcDbDs::Legacy
280
     1
291
     1
101
ACDSRECORD
  1
AcDbDs::ID
 90
        3
  2
AcDs:Indexable
280
     1
291
     1
101
ACDSRECORD
  1
AcDbDs::ID
 90
        4
  2
AcDbDs::HandleAttribute
280
     7
282
     1
  0
ACDSSCHEMA
 90
        1
  1
AcDbDs::TreatedAsObjectDataSchema
  2
AcDbDs::TreatedAsObjectData
280
     1
 91
        0
  0
ACDSSCHEMA
 90
        2
  1
AcDbDs::LegacySchema
  2
AcDbDs::Legacy
280
     1
 91
        0
  0
ACDSSCHEMA
 90
        3
  1
AcDbDs::IndexedPropertySchema
  2
AcDs:Indexable
280
     1
 91
        0
  0
ACDSSCHEMA
 90
        4
  1
AcDbDs::HandleAttributeSchema
  2
AcDbDs::HandleAttribute
280
     7
 91
        1
284
     1
  0
ACDSRECORD
 90
        0
  2
AcDbDs::ID
280
    10
320
15
  2
Thumbnail_Data
280
    15
 94
      896
310
89504E470D0A1A0A0000000D49484452000001000000009108030000001BE1960600000300504C5445212830FFFFFF2128300000000000000000000000000000000000000000000000000000330000660000990000CC0000FF0033000033330033660033990033CC0033FF0066000066330066660066990066CC0066FF0099
310
000099330099660099990099CC0099FF00CC0000CC3300CC6600CC9900CCCC00CCFF00FF0000FF3300FF6600FF9900FFCC00FFFF3300003300333300663300993300CC3300FF3333003333333333663333993333CC3333FF3366003366333366663366993366CC3366FF3399003399333399663399993399CC3399FF33CC00
310
33CC3333CC6633CC9933CCCC33CCFF33FF0033FF3333FF6633FF9933FFCC33FFFF6600006600336600666600996600CC6600FF6633006633336633666633996633CC6633FF6666006666336666666666996666CC6666FF6699006699336699666699996699CC6699FF66CC0066CC3366CC6666CC9966CCCC66CCFF66FF0066
310
FF3366FF6666FF9966FFCC66FFFF9900009900339900669900999900CC9900FF9933009933339933669933999933CC9933FF9966009966339966669966999966CC9966FF9999009999339999669999999999CC9999FF99CC0099CC3399CC6699CC9999CCCC99CCFF99FF0099FF3399FF6699FF9999FFCC99FFFFCC0000CC00
310
33CC0066CC0099CC00CCCC00FFCC3300CC3333CC3366CC3399CC33CCCC33FFCC6600CC6633CC6666CC6699CC66CCCC66FFCC9900CC9933CC9966CC9999CC99CCCC99FFCCCC00CCCC33CCCC66CCCC99CCCCCCCCCCFFCCFF00CCFF33CCFF66CCFF99CCFFCCCCFFFFFF0000FF0033FF0066FF0099FF00CCFF00FFFF3300FF3333
310
FF3366FF3399FF33CCFF33FFFF6600FF6633FF6666FF6699FF66CCFF66FFFF9900FF9933FF9966FF9999FF99CCFF99FFFFCC00FFCC33FFCC66FFCC99FFCCCCFFCCFFFFFF00FFFF33FFFF66FFFF99FFFFCCFFFFFF0000000D0D0D1A1A1A2828283535354343435050505D5D5D6B6B6B787878868686939393A1A1A1AEAEAEBB
310
BBBBC9C9C9D6D6D6E4E4E4F1F1F1FFFFFF0000000000000000000000000000000000000000000000000000000000002E4550F10000003B4944415478DAEDC13101000000C2A0F54F6D0B2FA0000000000000000000000000000000000000000000000000000000000000000000000000CE06919100016C9A5B1B0000000049
310
454E44AE426082
  0
ENDSEC
  0
EOF
