  0
SECTION
  2
HEADER
  9
$ACADVER
  1
AC1032
  9
$ACADMAINTVER
 90
        4
  9
$DWGCODEPAGE
  3
ANSI_932
  9
$REQUIREDVERSIONS
160
                 0
  9
$INSBASE
 10
0.0
 20
0.0
 30
0.0
  9
$EXTMIN
 10
466.3926450365117
 20
262.7854041617443
 30
0.0
  9
$EXTMAX
 10
516.3468302050919
 20
339.2462108508173
 30
0.0
  9
$LIMMIN
 10
0.0
 20
0.0
  9
$LIMMAX
 10
420.0
 20
297.0
  9
$ORTHOMODE
 70
     0
  9
$REGENMODE
 70
     1
  9
$FILLMODE
 70
     1
  9
$QTEXTMODE
 70
     0
  9
$MIRRTEXT
 70
     0
  9
$LTSCALE
 40
1.0
  9
$ATTMODE
 70
     1
  9
$TEXTSIZE
 40
2.5
  9
$TRACEWID
 40
1.0
  9
$TEXTSTYLE
  7
Standard
  9
$CLAYER
  8
0
  9
$CELTYPE
  6
ByLayer
  9
$CECOLOR
 62
   256
  9
$CELTSCALE
 40
1.0
  9
$DISPSILH
 70
     0
  9
$DIMSCALE
 40
1.0
  9
$DIMASZ
 40
2.5
  9
$DIMEXO
 40
0.625
  9
$DIMDLI
 40
3.75
  9
$DIMRND
 40
0.0
  9
$DIMDLE
 40
0.0
  9
$DIMEXE
 40
1.25
  9
$DIMTP
 40
0.0
  9
$DIMTM
 40
0.0
  9
$DIMTXT
 40
2.5
  9
$DIMCEN
 40
2.5
  9
$DIMTSZ
 40
0.0
  9
$DIMTOL
 70
     0
  9
$DIMLIM
 70
     0
  9
$DIMTIH
 70
     0
  9
$DIMTOH
 70
     0
  9
$DIMSE1
 70
     0
  9
$DIMSE2
 70
     0
  9
$DIMTAD
 70
     1
  9
$DIMZIN
 70
     8
  9
$DIMBLK
  1

  9
$DIMASO
 70
     1
  9
$DIMSHO
 70
     1
  9
$DIMPOST
  1

  9
$DIMAPOST
  1

  9
$DIMALT
 70
     0
  9
$DIMALTD
 70
     3
  9
$DIMALTF
 40
0.03937007874016
  9
$DIMLFAC
 40
1.0
  9
$DIMTOFL
 70
     1
  9
$DIMTVP
 40
0.0
  9
$DIMTIX
 70
     0
  9
$DIMSOXD
 70
     0
  9
$DIMSAH
 70
     0
  9
$DIMBLK1
  1

  9
$DIMBLK2
  1

  9
$DIMSTYLE
  2
ISO-25
  9
$DIMCLRD
 70
     0
  9
$DIMCLRE
 70
     0
  9
$DIMCLRT
 70
     0
  9
$DIMTFAC
 40
1.0
  9
$DIMGAP
 40
0.625
  9
$DIMJUST
 70
     0
  9
$DIMSD1
 70
     0
  9
$DIMSD2
 70
     0
  9
$DIMTOLJ
 70
     0
  9
$DIMTZIN
 70
     8
  9
$DIMALTZ
 70
     0
  9
$DIMALTTZ
 70
     0
  9
$DIMUPT
 70
     0
  9
$DIMDEC
 70
     2
  9
$DIMTDEC
 70
     2
  9
$DIMALTU
 70
     2
  9
$DIMALTTD
 70
     3
  9
$DIMTXSTY
  7
Standard
  9
$DIMAUNIT
 70
     0
  9
$DIMADEC
 70
     0
  9
$DIMALTRND
 40
0.0
  9
$DIMAZIN
 70
     0
  9
$DIMDSEP
 70
    44
  9
$DIMATFIT
 70
     3
  9
$DIMFRAC
 70
     0
  9
$DIMLDRBLK
  1

  9
$DIMLUNIT
 70
     2
  9
$DIMLWD
 70
    -2
  9
$DIMLWE
 70
    -2
  9
$DIMTMOVE
 70
     0
  9
$DIMFXL
 40
1.0
  9
$DIMFXLON
 70
     0
  9
$DIMJOGANG
 40
0.7853981633974483
  9
$DIMTFILL
 70
     0
  9
$DIMTFILLCLR
 70
     0
  9
$DIMARCSYM
 70
     0
  9
$DIMLTYPE
  6

  9
$DIMLTEX1
  6

  9
$DIMLTEX2
  6

  9
$DIMTXTDIRECTION
 70
     0
  9
$LUNITS
 70
     2
  9
$LUPREC
 70
     4
  9
$SKETCHINC
 40
1.0
  9
$FILLETRAD
 40
0.0
  9
$AUNITS
 70
     0
  9
$AUPREC
 70
     0
  9
$MENU
  1
.
  9
$ELEVATION
 40
0.0
  9
$PELEVATION
 40
0.0
  9
$THICKNESS
 40
0.0
  9
$LIMCHECK
 70
     0
  9
$CHAMFERA
 40
0.0
  9
$CHAMFERB
 40
0.0
  9
$CHAMFERC
 40
0.0
  9
$CHAMFERD
 40
0.0
  9
$SKPOLY
 70
     0
  9
$TDCREATE
 40
2459088.359965278
  9
$TDUCREATE
 40
2459088.026631945
  9
$TDUPDATE
 40
2459088.359965278
  9
$TDUUPDATE
 40
2459088.026631945
  9
$TDINDWG
 40
0.0006134259
  9
$TDUSRTIMER
 40
0.0006134259
  9
$USRTIMER
 70
     1
  9
$ANGBASE
 50
0.0
  9
$ANGDIR
 70
     0
  9
$PDMODE
 70
     0
  9
$PDSIZE
 40
0.0
  9
$PLINEWID
 40
0.0
  9
$SPLFRAME
 70
     0
  9
$SPLINETYPE
 70
     6
  9
$SPLINESEGS
 70
     8
  9
$HANDSEED
  5
16B
  9
$SURFTAB1
 70
     6
  9
$SURFTAB2
 70
     6
  9
$SURFTYPE
 70
     6
  9
$SURFU
 70
     6
  9
$SURFV
 70
     6
  9
$UCSBASE
  2

  9
$UCSNAME
  2

  9
$UCSORG
 10
0.0
 20
0.0
 30
0.0
  9
$UCSXDIR
 10
1.0
 20
0.0
 30
0.0
  9
$UCSYDIR
 10
0.0
 20
1.0
 30
0.0
  9
$UCSORTHOREF
  2

  9
$UCSORTHOVIEW
 70
     0
  9
$UCSORGTOP
 10
0.0
 20
0.0
 30
0.0
  9
$UCSORGBOTTOM
 10
0.0
 20
0.0
 30
0.0
  9
$UCSORGLEFT
 10
0.0
 20
0.0
 30
0.0
  9
$UCSORGRIGHT
 10
0.0
 20
0.0
 30
0.0
  9
$UCSORGFRONT
 10
0.0
 20
0.0
 30
0.0
  9
$UCSORGBACK
 10
0.0
 20
0.0
 30
0.0
  9
$PUCSBASE
  2

  9
$PUCSNAME
  2

  9
$PUCSORG
 10
0.0
 20
0.0
 30
0.0
  9
$PUCSXDIR
 10
1.0
 20
0.0
 30
0.0
  9
$PUCSYDIR
 10
0.0
 20
1.0
 30
0.0
  9
$PUCSORTHOREF
  2

  9
$PUCSORTHOVIEW
 70
     0
  9
$PUCSORGTOP
 10
0.0
 20
0.0
 30
0.0
  9
$PUCSORGBOTTOM
 10
0.0
 20
0.0
 30
0.0
  9
$PUCSORGLEFT
 10
0.0
 20
0.0
 30
0.0
  9
$PUCSORGRIGHT
 10
0.0
 20
0.0
 30
0.0
  9
$PUCSORGFRONT
 10
0.0
 20
0.0
 30
0.0
  9
$PUCSORGBACK
 10
0.0
 20
0.0
 30
0.0
  9
$USERI1
 70
     0
  9
$USERI2
 70
     0
  9
$USERI3
 70
     0
  9
$USERI4
 70
     0
  9
$USERI5
 70
     0
  9
$USERR1
 40
0.0
  9
$USERR2
 40
0.0
  9
$USERR3
 40
0.0
  9
$USERR4
 40
0.0
  9
$USERR5
 40
0.0
  9
$WORLDVIEW
 70
     1
  9
$SHADEDGE
 70
     3
  9
$SHADEDIF
 70
    70
  9
$TILEMODE
 70
     1
  9
$MAXACTVP
 70
    64
  9
$PINSBASE
 10
0.0
 20
0.0
 30
0.0
  9
$PLIMCHECK
 70
     0
  9
$PEXTMIN
 10
0.0
 20
0.0
 30
0.0
  9
$PEXTMAX
 10
0.0
 20
0.0
 30
0.0
  9
$PLIMMIN
 10
0.0
 20
0.0
  9
$PLIMMAX
 10
12.0
 20
9.0
  9
$UNITMODE
 70
     0
  9
$VISRETAIN
 70
     1
  9
$PLINEGEN
 70
     0
  9
$PSLTSCALE
 70
     1
  9
$TREEDEPTH
 70
  3020
  9
$CMLSTYLE
  2
Standard
  9
$CMLJUST
 70
     0
  9
$CMLSCALE
 40
20.0
  9
$PROXYGRAPHICS
 70
     1
  9
$MEASUREMENT
 70
     1
  9
$CELWEIGHT
370
    -1
  9
$ENDCAPS
280
     0
  9
$JOINSTYLE
280
     0
  9
$LWDISPLAY
290
     0
  9
$INSUNITS
 70
     4
  9
$HYPERLINKBASE
  1

  9
$STYLESHEET
  1

  9
$XEDIT
290
     1
  9
$CEPSNTYPE
380
     0
  9
$PSTYLEMODE
290
     1
  9
$FINGERPRINTGUID
  2
{B21D964D-F99A-AD4E-9FBD-81A345649A8B}
  9
$VERSIONGUID
  2
{0884754D-1740-0B47-BF07-D960D6583E1A}
  9
$EXTNAMES
290
     1
  9
$PSVPSCALE
 40
0.0
  9
$OLESTARTUP
290
     0
  9
$SORTENTS
280
   127
  9
$INDEXCTL
280
     0
  9
$HIDETEXT
280
     1
  9
$XCLIPFRAME
280
     2
  9
$HALOGAP
280
     0
  9
$OBSCOLOR
 70
   257
  9
$OBSLTYPE
280
     0
  9
$INTERSECTIONDISPLAY
280
     0
  9
$INTERSECTIONCOLOR
 70
   257
  9
$DIMASSOC
280
     2
  9
$PROJECTNAME
  1

  9
$CAMERADISPLAY
290
     0
  9
$LENSLENGTH
 40
50.0
  9
$CAMERAHEIGHT
 40
0.0
  9
$STEPSPERSEC
 40
2.0
  9
$STEPSIZE
 40
6.0
  9
$3DDWFPREC
 40
2.0
  9
$PSOLWIDTH
 40
5.0
  9
$PSOLHEIGHT
 40
80.0
  9
$LOFTANG1
 40
1.570796326794896
  9
$LOFTANG2
 40
1.570796326794896
  9
$LOFTMAG1
 40
0.0
  9
$LOFTMAG2
 40
0.0
  9
$LOFTPARAM
 70
     7
  9
$LOFTNORMALS
280
     1
  9
$LATITUDE
 40
37.795
  9
$LONGITUDE
 40
-122.394
  9
$NORTHDIRECTION
 40
0.0
  9
$TIMEZONE
 70
 -8000
  9
$LIGHTGLYPHDISPLAY
280
     1
  9
$TILEMODELIGHTSYNCH
280
     1
  9
$CMATERIAL
347
38
  9
$SOLIDHIST
280
     0
  9
$SHOWHIST
280
     1
  9
$DWFFRAME
280
     2
  9
$DGNFRAME
280
     0
  9
$REALWORLDSCALE
290
     1
  9
$INTERFERECOLOR
 62
     1
  9
$INTERFEREOBJVS
345
45
  9
$INTERFEREVPVS
346
46
  9
$CSHADOW
280
     0
  9
$SHADOWPLANELOCATION
 40
0.0
  0
ENDSEC
  0
SECTION
  2
CLASSES
  0
CLASS
  1
ACDBDICTIONARYWDFLT
  2
AcDbDictionaryWithDefault
  3
ObjectDBX Classes
 90
        0
 91
        1
280
     0
281
     0
  0
CLASS
  1
DICTIONARYVAR
  2
AcDbDictionaryVar
  3
ObjectDBX Classes
 90
        0
 91
        5
280
     0
281
     0
  0
CLASS
  1
TABLESTYLE
  2
AcDbTableStyle
  3
ObjectDBX Classes
 90
     4095
 91
        1
280
     0
281
     0
  0
CLASS
  1
MATERIAL
  2
AcDbMaterial
  3
ObjectDBX Classes
 90
     1153
 91
        3
280
     0
281
     0
  0
CLASS
  1
VISUALSTYLE
  2
AcDbVisualStyle
  3
ObjectDBX Classes
 90
     4095
 91
        3
280
     0
281
     0
  0
CLASS
  1
SCALE
  2
AcDbScale
  3
ObjectDBX Classes
 90
     1153
 91
       17
280
     0
281
     0
  0
CLASS
  1
MLEADERSTYLE
  2
AcDbMLeaderStyle
  3
ACDB_MLEADERSTYLE_CLASS
 90
     4095
 91
        0
280
     0
281
     0
  0
CLASS
  1
CELLSTYLEMAP
  2
AcDbCellStyleMap
  3
ObjectDBX Classes
 90
     1152
 91
        1
280
     0
281
     0
  0
CLASS
  1
EXACXREFPANELOBJECT
  2
ExAcXREFPanelObject
  3
EXAC_ESW
 90
     1025
 91
        0
280
     1
281
     0
  0
CLASS
  1
NPOCOLLECTION
  2
AcDbImpNonPersistentObjectsCollection
  3
ObjectDBX Classes
 90
     1153
 91
        0
280
     0
281
     0
  0
CLASS
  1
LAYER_INDEX
  2
AcDbLayerIndex
  3
ObjectDBX Classes
 90
        0
 91
        0
280
     0
281
     0
  0
CLASS
  1
SPATIAL_INDEX
  2
AcDbSpatialIndex
  3
ObjectDBX Classes
 90
        0
 91
        0
280
     0
281
     0
  0
CLASS
  1
IDBUFFER
  2
AcDbIdBuffer
  3
ObjectDBX Classes
 90
        0
 91
        0
280
     0
281
     0
  0
CLASS
  1
ACDBSECTIONVIEWSTYLE
  2
AcDbSectionViewStyle
  3
ObjectDBX Classes
 90
     1025
 91
        0
280
     0
281
     0
  0
CLASS
  1
ACDBDETAILVIEWSTYLE
  2
AcDbDetailViewStyle
  3
ObjectDBX Classes
 90
     1025
 91
        0
280
     0
281
     0
  0
CLASS
  1
SOLID_BACKGROUND
  2
AcDbSolidBackground
  3
SCENEOE
 90
     4095
 91
        0
280
     0
281
     0
  0
ENDSEC
  0
SECTION
  2
TABLES
  0
TABLE
  2
VPORT
  5
28
330
0
100
AcDbSymbolTable
 70
     1
  0
VPORT
  5
29
330
28
100
AcDbSymbolTableRecord
100
AcDbViewportTableRecord
  2
*Active
 70
     0
 10
0.0
 20
0.0
 11
1.0
 21
1.0
 12
510.3631788414036
 22
289.8615221418686
 13
0.0
 23
0.0
 14
10.0
 24
10.0
 15
10.0
 25
10.0
 16
0.0
 26
0.0
 36
1.0
 17
0.0
 27
0.0
 37
0.0
 40
159.3543069634961
 41
2.070631970260222
 42
50.0
 43
0.0
 44
0.0
 50
0.0
 51
0.0
 71
     0
 72
  1000
 73
     1
 74
     3
 75
     0
 76
     1
 77
     0
 78
     0
281
     0
 65
     1
110
0.0
120
0.0
130
0.0
111
1.0
121
0.0
131
0.0
112
0.0
122
1.0
132
0.0
 79
     0
146
0.0
348
2A
 60
     3
 61
     5
292
     1
282
     1
141
0.0
142
0.0
 63
   250
421
  3355443
1001
ACAD_NAV_VCDISPLAY
1070
     3
  0
ENDTAB
  0
TABLE
  2
LTYPE
  5
23
330
0
100
AcDbSymbolTable
 70
     1
  0
LTYPE
  5
24
330
23
100
AcDbSymbolTableRecord
100
AcDbLinetypeTableRecord
  2
ByBlock
 70
     0
  3

 72
    65
 73
     0
 40
0.0
  0
LTYPE
  5
25
330
23
100
AcDbSymbolTableRecord
100
AcDbLinetypeTableRecord
  2
ByLayer
 70
     0
  3

 72
    65
 73
     0
 40
0.0
  0
LTYPE
  5
13
330
23
100
AcDbSymbolTableRecord
100
AcDbLinetypeTableRecord
  2
Continuous
 70
     0
  3
Solid line
 72
    65
 73
     0
 40
0.0
  0
ENDTAB
  0
TABLE
  2
LAYER
  5
1D
102
{ACAD_XDICTIONARY
360
1E
102
}
330
0
100
AcDbSymbolTable
 70
     1
  0
LAYER
  5
5
102
{ACAD_XDICTIONARY
360
6
102
}
330
1D
100
AcDbSymbolTableRecord
100
AcDbLayerTableRecord
  2
0
 70
     0
 62
     7
  6
Continuous
370
    -3
390
7
347
A
348
0
  0
ENDTAB
  0
TABLE
  2
STYLE
  5
20
330
0
100
AcDbSymbolTable
 70
     1
  0
STYLE
  5
21
330
20
100
AcDbSymbolTableRecord
100
AcDbTextStyleTableRecord
  2
Standard
 70
     0
 40
0.0
 41
1.0
 50
0.0
 71
     0
 42
2.5
  3
arial.ttf
  4

1001
ACAD
1000
Arial
1071
       34
  0
ENDTAB
  0
TABLE
  2
VIEW
  5
26
330
0
100
AcDbSymbolTable
 70
     0
  0
ENDTAB
  0
TABLE
  2
UCS
  5
27
330
0
100
AcDbSymbolTable
 70
     0
  0
ENDTAB
  0
TABLE
  2
APPID
  5
2D
330
0
100
AcDbSymbolTable
 70
     6
  0
APPID
  5
12
330
2D
100
AcDbSymbolTableRecord
100
AcDbRegAppTableRecord
  2
ACAD
 70
     0
  0
APPID
  5
18
330
2D
100
AcDbSymbolTableRecord
100
AcDbRegAppTableRecord
  2
ACAD_PSEXT
 70
     0
  0
APPID
  5
31
330
2D
100
AcDbSymbolTableRecord
100
AcDbRegAppTableRecord
  2
AcadAnnotative
 70
     0
  0
APPID
  5
32
330
2D
100
AcDbSymbolTableRecord
100
AcDbRegAppTableRecord
  2
ACAD_DSTYLE_DIMJAG
 70
     0
  0
APPID
  5
33
330
2D
100
AcDbSymbolTableRecord
100
AcDbRegAppTableRecord
  2
ACAD_DSTYLE_DIMTALN
 70
     0
  0
APPID
  5
2C
330
2D
100
AcDbSymbolTableRecord
100
AcDbRegAppTableRecord
  2
ACAD_NAV_VCDISPLAY
 70
     0
  0
ENDTAB
  0
TABLE
  2
DIMSTYLE
  5
2E
330
0
100
AcDbSymbolTable
 70
     2
100
AcDbDimStyleTable
 71
     2
340
2F
340
30
  0
DIMSTYLE
105
30
330
2E
100
AcDbSymbolTableRecord
100
AcDbDimStyleTableRecord
  2
Annotative
 70
     0
 40
0.0
 41
2.5
 42
0.625
 43
3.75
 44
1.25
 73
     0
 74
     0
 77
     1
 78
     8
140
2.5
141
2.5
143
0.03937007874016
147
0.625
171
     3
172
     1
271
     2
272
     2
274
     3
278
    44
283
     0
284
     8
340
21
1001
AcadAnnotative
1000
AnnotativeData
1002
{
1070
     1
1070
     1
1002
}
1001
ACAD_DSTYLE_DIMJAG
1070
   388
1040
1.5
1001
ACAD_DSTYLE_DIMTALN
1070
   392
1070
     0
  0
DIMSTYLE
105
2F
330
2E
100
AcDbSymbolTableRecord
100
AcDbDimStyleTableRecord
  2
ISO-25
 70
     0
 41
2.5
 42
0.625
 43
3.75
 44
1.25
 73
     0
 74
     0
 77
     1
 78
     8
140
2.5
141
2.5
143
0.03937007874016
147
0.625
171
     3
172
     1
271
     2
272
     2
274
     3
278
    44
283
     0
284
     8
340
21
  0
ENDTAB
  0
TABLE
  2
BLOCK_RECORD
  5
1
330
0
100
AcDbSymbolTable
 70
     0
  0
BLOCK_RECORD
  5
2
102
{ACAD_XDICTIONARY
360
3
102
}
330
1
100
AcDbSymbolTableRecord
100
AcDbBlockTableRecord
  2
*Model_Space
340
15
 70
     0
280
     1
281
     0
  0
BLOCK_RECORD
  5
19
330
1
100
AcDbSymbolTableRecord
100
AcDbBlockTableRecord
  2
*Paper_Space
340
1C
 70
     0
280
     1
281
     0
  0
ENDTAB
  0
ENDSEC
  0
SECTION
  2
BLOCKS
  0
BLOCK
  5
4
330
2
100
AcDbEntity
  8
0
100
AcDbBlockBegin
  2
*Model_Space
 70
     0
 10
0.0
 20
0.0
 30
0.0
  3
*Model_Space
  1

  0
ENDBLK
  5
14
330
2
100
AcDbEntity
  8
0
100
AcDbBlockEnd
  0
BLOCK
  5
1A
330
19
100
AcDbEntity
 67
     1
  8
0
100
AcDbBlockBegin
  2
*Paper_Space
 70
     0
 10
0.0
 20
0.0
 30
0.0
  3
*Paper_Space
  1

  0
ENDBLK
  5
1B
330
19
100
AcDbEntity
 67
     1
  8
0
100
AcDbBlockEnd
  0
ENDSEC
  0
SECTION
  2
ENTITIES
  0
LINE
  5
58
330
2
100
AcDbEntity
  8
0
100
AcDbLine
 10
480.5972309368427
 20
294.8934509150565
 30
0.0
 11
479.69501088759
 21
294.6413816818867
 31
0.0
  0
LINE
  5
59
330
2
100
AcDbEntity
  8
0
100
AcDbLine
 10
478.0480994967803
 20
293.6176760173956
 30
0.0
 11
478.0109034038096
 21
293.5980477663139
 31
0.0
  0
LINE
  5
5A
330
2
100
AcDbEntity
  8
0
100
AcDbLine
 10
477.3410413570541
 20
291.2387786948074
 30
0.0
 11
477.4028544327952
 21
291.2513906937622
 31
0.0
  0
LINE
  5
5B
330
2
100
AcDbEntity
  8
0
100
AcDbLine
 10
476.5043782744803
 20
292.7598318499194
 30
0.0
 11
476.4485840645281
 21
292.7303894379974
 31
0.0
  0
LINE
  5
5C
330
2
100
AcDbEntity
  8
0
100
AcDbLine
 10
480.3920427611561
 20
270.016577516927
 30
0.0
 11
480.3362485512037
 21
269.9871351050049
 31
0.0
  0
LINE
  5
5D
330
2
100
AcDbEntity
  8
0
100
AcDbLine
 10
479.9349822554069
 20
268.4629206942255
 30
0.0
 11
479.9967961211022
 21
268.4755282141233
 31
0.0
  0
LINE
  5
5E
330
2
100
AcDbEntity
  8
0
100
AcDbLine
 10
486.8498644462943
 20
263.7551838283706
 30
0.0
 11
492.6842410620388
 21
266.4303796215639
 31
0.0
  0
LINE
  5
5F
330
2
100
AcDbEntity
  8
0
100
AcDbLine
 10
481.6210192783773
 20
297.369913609646
 30
0.0
 11
475.413193238314
 21
295.7391143998292
 31
0.0
  0
LINE
  5
60
330
2
100
AcDbEntity
  8
0
100
AcDbLine
 10
492.8637163230572
 20
266.5114677998261
 30
0.0
 11
495.8432293785631
 21
267.8728562928697
 31
0.0
  0
LINE
  5
61
330
2
100
AcDbEntity
  8
0
100
AcDbLine
 10
484.9784076620089
 20
298.2575384922935
 30
0.0
 11
481.811218348889
 21
297.4210105519861
 31
0.0
  0
SPLINE
  5
62
330
2
100
AcDbEntity
  8
0
100
AcDbSpline
210
0.0
220
0.0
230
1.0
 70
     8
 71
     3
 72
    34
 73
    30
 74
     0
 42
0.000000001
 43
0.0000000001
 40
0.0
 40
0.0
 40
0.0
 40
0.0
 40
0.0351193370517904
 40
0.0735552061919333
 40
0.1120177815246246
 40
0.150502320032728
 40
0.189003918278961
 40
0.2275183375469667
 40
0.2660417303657366
 40
0.304571298823372
 40
0.3431047969848977
 40
0.381640820919974
 40
0.4201784774026003
 40
0.4587171862566859
 40
0.4972571395286697
 40
0.53579821089076
 40
0.5743410217280816
 40
0.6128855599117174
 40
0.6514321490876159
 40
0.6899806386968517
 40
0.7285307469628176
 40
0.767081422982351
 40
0.8056311857641576
 40
0.8441778165071902
 40
0.8827181318715455
 40
0.92124821823855
 40
0.9597633517422016
 40
0.9982579545905242
 40
1.0
 40
1.0
 40
1.0
 40
1.0
 10
500.4782591909248
 20
271.945482555187
 30
0.0
 10
500.6562503563761
 20
272.2288051082135
 30
0.0
 10
501.0290414730137
 20
272.8222060820403
 30
0.0
 10
501.5085091290406
 20
273.804213170105
 30
0.0
 10
501.933261192284
 20
274.8656306056417
 30
0.0
 10
502.2787938360102
 20
275.9784691071895
 30
0.0
 10
502.544992573466
 20
277.1336725753322
 30
0.0
 10
502.7296187020578
 20
278.3244866530643
 30
0.0
 10
502.8316781954655
 20
279.5432368398806
 30
0.0
 10
502.8505112581994
 20
280.7822794328889
 30
0.0
 10
502.7860356847362
 20
282.0338027443704
 30
0.0
 10
502.6386820727155
 20
283.2899448347364
 30
0.0
 10
502.4094007194078
 20
284.5428229347442
 30
0.0
 10
502.0996393750817
 20
285.7845841146548
 30
0.0
 10
501.7113540549154
 20
287.0074529909779
 30
0.0
 10
501.2469590402123
 20
288.2037723962871
 30
0.0
 10
500.7093660626345
 20
289.3660556194293
 30
0.0
 10
500.1019020127273
 20
290.4870166698571
 30
0.0
 10
499.4283467312365
 20
291.5596237741423
 30
0.0
 10
498.6928714343073
 20
292.5771360061438
 30
0.0
 10
497.90004300491
 20
293.5331375080352
 30
0.0
 10
497.0547873844142
 20
294.4216054608012
 30
0.0
 10
496.1623590525686
 20
295.2368295833078
 30
0.0
 10
495.2283617024496
 20
295.9738961476877
 30
0.0
 10
494.2585484745743
 20
296.6270644061896
 30
0.0
 10
493.2593734840074
 20
297.1959307116127
 30
0.0
 10
492.2359064930304
 20
297.6627383893498
 30
0.0
 10
491.5290092769476
 20
297.9452725924379
 30
0.0
 10
491.1633437833173
 20
298.0439005247713
 30
0.0
 10
491.1475122982866
 20
298.0481706204232
 30
0.0
  0
LINE
  5
63
330
2
100
AcDbEntity
  8
0
100
AcDbLine
 10
507.6387310685913
 20
286.2350620694322
 30
0.0
 11
507.5874254201673
 21
286.350454701171
 31
0.0
  0
LINE
  5
64
330
2
100
AcDbEntity
  8
0
100
AcDbLine
 10
504.1361526832122
 20
284.9626252672877
 30
0.0
 11
504.3159546897486
 21
284.5582302660456
 31
0.0
  0
LINE
  5
65
330
2
100
AcDbEntity
  8
0
100
AcDbLine
 10
516.3468302050919
 20
289.0785767269127
 30
0.0
 11
516.1153117907823
 21
289.5375549849827
 31
0.0
  0
LINE
  5
66
330
2
100
AcDbEntity
  8
0
100
AcDbLine
 10
513.1123467743736
 20
296.2915446022643
 30
0.0
 11
512.9281929756409
 21
296.7674602984104
 31
0.0
  0
LINE
  5
67
330
2
100
AcDbEntity
  8
0
100
AcDbLine
 10
515.6970924184223
 20
289.859698290469
 30
0.0
 11
513.195136449927
 21
295.4868905514929
 31
0.0
  0
LINE
  5
68
330
2
100
AcDbEntity
  8
0
100
AcDbLine
 10
505.768591817492
 20
285.4410395515058
 30
0.0
 11
508.476498010501
 21
286.7949926480445
 31
0.0
  0
LINE
  5
69
330
2
100
AcDbEntity
  8
0
100
AcDbLine
 10
504.4915811694814
 20
294.7648272183278
 30
0.0
 11
504.0071595771372
 21
294.5226164221557
 31
0.0
  0
LINE
  5
6A
330
2
100
AcDbEntity
  8
0
100
AcDbLine
 10
507.7991041578813
 20
294.7902129828706
 30
0.0
 11
505.7823972813237
 21
317.8338906557931
 31
0.0
  0
SPLINE
  5
6B
330
2
100
AcDbEntity
  8
0
100
AcDbSpline
210
0.0
220
0.0
230
1.0
 70
     8
 71
     3
 72
    11
 73
     7
 74
     0
 42
0.000000001
 43
0.0000000001
 40
0.0
 40
0.0
 40
0.0
 40
0.0
 40
0.0414344653481671
 40
0.4425780179474918
 40
0.8303427238952394
 40
1.0
 40
1.0
 40
1.0
 40
1.0
 10
502.8135362370278
 20
319.5251231471478
 30
0.0
 10
502.810066561277
 20
319.5278285061249
 30
0.0
 10
502.7730055734302
 20
319.5567255222658
 30
0.0
 10
502.6783284363017
 20
319.5661714997423
 30
0.0
 10
502.5778712701174
 20
319.5518946085882
 30
0.0
 10
502.5224394372203
 20
319.5265891704608
 30
0.0
 10
502.5055681725741
 20
319.5188871927105
 30
0.0
  0
LINE
  5
6C
330
2
100
AcDbEntity
  8
0
100
AcDbLine
 10
505.5955865241059
 20
318.136877787465
 30
0.0
 11
502.8106697235452
 21
319.5293361877795
 31
0.0
  0
LINE
  5
6D
330
2
100
AcDbEntity
  8
0
100
AcDbLine
 10
502.5055681725752
 20
319.5188871927346
 30
0.0
 11
496.4987475592607
 21
316.5154768860773
 31
0.0
  0
SPLINE
  5
6E
330
2
100
AcDbEntity
  8
0
100
AcDbSpline
210
0.0
220
0.0
230
1.0
 70
     8
 71
     3
 72
    11
 73
     7
 74
     0
 42
0.000000001
 43
0.0000000001
 40
0.0
 40
0.0
 40
0.0
 40
0.0
 40
0.3009096118847174
 40
0.6589987457075859
 40
0.9862395979168198
 40
1.0
 40
1.0
 40
1.0
 40
1.0
 10
505.7823972812932
 20
317.8338906557887
 30
0.0
 10
505.7760080973266
 20
317.8744890129362
 30
0.0
 10
505.7620156422708
 20
317.9634003184621
 30
0.0
 10
505.6911962875252
 20
318.0707497962375
 30
0.0
 10
505.6188962841299
 20
318.137344472217
 30
0.0
 10
505.5753566780404
 20
318.1453029215932
 30
0.0
 10
505.5735997270651
 20
318.1456240683984
 30
0.0
  0
LINE
  5
6F
330
2
100
AcDbEntity
  8
0
100
AcDbLine
 10
479.5594511614027
 20
307.686278125867
 30
0.0
 11
478.6285877566752
 21
296.5838000480006
 31
0.0
  0
SPLINE
  5
70
330
2
100
AcDbEntity
  8
0
100
AcDbSpline
210
0.0
220
0.0
230
1.0
 70
     8
 71
     3
 72
    15
 73
    11
 74
     0
 42
0.000000001
 43
0.0000000001
 40
0.0
 40
0.0
 40
0.0
 40
0.0
 40
0.0760155309081833
 40
0.2206643011068955
 40
0.3656682152453377
 40
0.5110806527309979
 40
0.6570131267316171
 40
0.8034506630052465
 40
0.9496980538978395
 40
1.0
 40
1.0
 40
1.0
 40
1.0
 10
491.6978174335628
 20
315.1336533106607
 30
0.0
 10
491.5661630817634
 20
315.140148641708
 30
0.0
 10
491.2450657339449
 20
315.0961272443027
 30
0.0
 10
490.735852742372
 20
314.9852753466752
 30
0.0
 10
490.1756237513855
 20
314.8092916082601
 30
0.0
 10
489.6740591354408
 20
314.5888520432751
 30
0.0
 10
489.2423896223752
 20
314.3286215850676
 30
0.0
 10
488.8932177344461
 20
314.0323881307593
 30
0.0
 10
488.6883137307997
 20
313.7766349154787
 30
0.0
 10
488.6058959984128
 20
313.6212966472462
 30
0.0
 10
488.584803216337
 20
313.5815416558751
 30
0.0
  0
SPLINE
  5
71
330
2
100
AcDbEntity
  8
0
100
AcDbSpline
210
0.0
220
0.0
230
1.0
 70
     8
 71
     3
 72
     9
 73
     5
 74
     0
 42
0.000000001
 43
0.0000000001
 40
0.0
 40
0.0
 40
0.0
 40
0.0
 40
0.6950889918878336
 40
1.0
 40
1.0
 40
1.0
 40
1.0
 10
486.7981216889821
 20
311.7306084190602
 30
0.0
 10
486.6041073112407
 20
311.6074032534313
 30
0.0
 10
486.3249856735722
 20
311.4301523300721
 30
0.0
 10
486.0013193830893
 20
311.2701107696011
 30
0.0
 10
485.9026299681662
 20
311.221312336058
 30
0.0
  0
SPLINE
  5
72
330
2
100
AcDbEntity
  8
0
100
AcDbSpline
210
0.0
220
0.0
230
1.0
 70
     8
 71
     3
 72
    13
 73
     9
 74
     0
 42
0.000000001
 43
0.0000000001
 40
0.0
 40
0.0
 40
0.0
 40
0.0
 40
0.0299244832476219
 40
0.2592867305282587
 40
0.5019405324433393
 40
0.7436231297687259
 40
0.9840768827110647
 40
1.0
 40
1.0
 40
1.0
 40
1.0
 10
488.5851498791736
 20
313.5836662058563
 30
0.0
 10
488.5751069447951
 20
313.5632057680045
 30
0.0
 10
488.4880879109706
 20
313.3859221707622
 30
0.0
 10
488.2837387947057
 20
313.0659862099744
 30
0.0
 10
487.9037606145937
 20
312.608916653179
 30
0.0
 10
487.4158640505796
 20
312.1705492354976
 30
0.0
 10
487.0429888286411
 20
311.8763686895221
 30
0.0
 10
486.8124406326606
 20
311.7391319518881
 30
0.0
 10
486.7981216889821
 20
311.7306084190602
 30
0.0
  0
LINE
  5
73
330
2
100
AcDbEntity
  8
0
100
AcDbLine
 10
485.9026299681662
 20
311.221312336058
 30
0.0
 11
479.9010116671796
 21
308.2166089400026
 31
0.0
  0
SPLINE
  5
74
330
2
100
AcDbEntity
  8
0
100
AcDbSpline
210
0.0
220
0.0
230
1.0
 70
     8
 71
     3
 72
     9
 73
     5
 74
     0
 42
0.000000001
 43
0.0000000001
 40
0.0
 40
0.0
 40
0.0
 40
0.0
 40
0.4950645816436876
 40
1.0
 40
1.0
 40
1.0
 40
1.0
 10
479.6587726595148
 20
307.9732904577452
 30
0.0
 10
479.6329883638136
 20
307.9277799316569
 30
0.0
 10
479.580905672671
 20
307.8358514686324
 30
0.0
 10
479.5666495716882
 20
307.736462922828
 30
0.0
 10
479.5594511613743
 20
307.6862781258725
 30
0.0
  0
SPLINE
  5
75
330
2
100
AcDbEntity
  8
0
100
AcDbSpline
210
0.0
220
0.0
230
1.0
 70
     8
 71
     3
 72
    10
 73
     6
 74
     0
 42
0.000000001
 43
0.0000000001
 40
0.0
 40
0.0
 40
0.0
 40
0.0
 40
0.3548270347570224
 40
0.8832290585344184
 40
1.0
 40
1.0
 40
1.0
 40
1.0
 10
479.9010116671848
 20
308.2166089400157
 30
0.0
 10
479.8676345482618
 20
308.1962406207997
 30
0.0
 10
479.7845528255201
 20
308.1455401677823
 30
0.0
 10
479.6978869033265
 20
308.057070987054
 30
0.0
 10
479.6647670733221
 20
307.986130157883
 30
0.0
 10
479.6587726595148
 20
307.9732904577452
 30
0.0
  0
LINE
  5
76
330
2
100
AcDbEntity
  8
0
100
AcDbLine
 10
508.6372897583384
 20
286.8868409485343
 30
0.0
 11
509.5196042289445
 21
287.4575126054139
 31
0.0
  0
LINE
  5
77
330
2
100
AcDbEntity
  8
0
100
AcDbLine
 10
505.6474611419024
 20
295.2017987049924
 30
0.0
 11
504.6615337536133
 21
294.8383495326338
 31
0.0
  0
ARC
  5
78
330
2
100
AcDbEntity
  8
0
100
AcDbCircle
 10
503.6002544271444
 20
338.019267651098
 30
0.0
 40
0.1028139851609815
100
AcDbArc
 50
63.43494882289797
 51
116.5650511770001
  0
LINE
  5
79
330
2
100
AcDbEntity
  8
0
100
AcDbLine
 10
503.5542750495449
 20
338.1112274245668
 30
0.0
 11
502.9263666397162
 21
337.7972732196182
 31
0.0
  0
LINE
  5
7A
330
2
100
AcDbEntity
  8
0
100
AcDbLine
 10
504.5186899325301
 20
337.6749990616907
 30
0.0
 11
503.6462345890777
 21
338.1112274245668
 31
0.0
  0
SPLINE
  5
7B
330
2
100
AcDbEntity
  8
0
100
AcDbSpline
210
0.0
220
0.0
230
1.0
 70
     8
 71
     3
 72
    10
 73
     6
 74
     0
 42
0.000000001
 43
0.0000000001
 40
0.0
 40
0.0
 40
0.0
 40
0.0
 40
0.4454913536840289
 40
0.8548356858846901
 40
1.0
 40
1.0
 40
1.0
 40
1.0
 10
504.792535405202
 20
338.9987402704514
 30
0.0
 10
504.7639523005212
 20
339.0097105379851
 30
0.0
 10
504.7091053148447
 20
339.0307609491638
 30
0.0
 10
504.6377017950122
 20
339.0288830008789
 30
0.0
 10
504.6061758511108
 20
339.0087608259808
 30
0.0
 10
504.5979227029341
 20
339.0034930601182
 30
0.0
  0
LINE
  5
7C
330
2
100
AcDbEntity
  8
0
100
AcDbLine
 10
504.5966343404252
 20
339.0072261012186
 30
0.0
 11
503.4266328226583
 21
338.4222253423694
 31
0.0
  0
LINE
  5
7D
330
2
100
AcDbEntity
  8
0
100
AcDbLine
 10
503.2989268378037
 20
338.2277350251038
 30
0.0
 11
503.2613572528801
 21
337.9647686640395
 31
0.0
  0
LINE
  5
7E
330
2
100
AcDbEntity
  8
0
100
AcDbLine
 10
507.2740344295441
 20
337.7579907582943
 30
0.0
 11
504.7925354051886
 21
338.9987402704719
 31
0.0
  0
LINE
  5
7F
330
2
100
AcDbEntity
  8
0
100
AcDbLine
 10
508.4334355348885
 20
335.0437392391845
 30
0.0
 11
508.3373702074154
 21
335.7161414680265
 31
0.0
  0
LINE
  5
80
330
2
100
AcDbEntity
  8
0
100
AcDbLine
 10
507.7024624131222
 20
336.0826686147369
 30
0.0
 11
507.5123716747595
 21
337.4132001355383
 31
0.0
  0
LINE
  5
81
330
2
100
AcDbEntity
  8
0
100
AcDbLine
 10
508.2815696781043
 20
335.7935598800534
 30
0.0
 11
507.7023942540987
 21
336.0831475920562
 31
0.0
  0
ARC
  5
82
330
2
100
AcDbEntity
  8
0
100
AcDbCircle
 10
508.2355895836172
 20
335.7016000728616
 30
0.0
 40
0.1028139851609623
100
AcDbArc
 50
8.130733838100386
 51
63.43494882289797
  0
SPLINE
  5
83
330
2
100
AcDbEntity
  8
0
100
AcDbSpline
210
0.0
220
0.0
230
1.0
 70
     8
 71
     3
 72
    11
 73
     7
 74
     0
 42
0.000000001
 43
0.0000000001
 40
0.0
 40
0.0
 40
0.0
 40
0.0
 40
0.2182297215408308
 40
0.5090619648004708
 40
0.8006608954404711
 40
1.0
 40
1.0
 40
1.0
 40
1.0
 10
507.5123716747558
 20
337.4132001355328
 30
0.0
 10
507.5059493931671
 20
337.4433945800053
 30
0.0
 10
507.4909682106732
 20
337.5138288138057
 30
0.0
 10
507.4320298428143
 20
337.6218880176053
 30
0.0
 10
507.3544051573774
 20
337.7101224805125
 30
0.0
 10
507.2972439898657
 20
337.7441672965505
 30
0.0
 10
507.2740344295332
 20
337.7579907582857
 30
0.0
  0
LINE
  5
84
330
2
100
AcDbEntity
  8
0
100
AcDbLine
 10
502.8618457683609
 20
337.829533816748
 30
0.0
 11
502.5949524541393
 21
338.5462569999546
 31
0.0
  0
LINE
  5
85
330
2
100
AcDbEntity
  8
0
100
AcDbLine
 10
485.3059891468874
 20
316.7658737318165
 30
0.0
 11
485.494961243114
 21
313.6445837885092
 31
0.0
  0
LINE
  5
86
330
2
100
AcDbEntity
  8
0
100
AcDbLine
 10
512.4138839010109
 20
320.6994366362474
 30
0.0
 11
513.4181395069584
 21
332.4339323455272
 31
0.0
  0
SPLINE
  5
87
330
2
100
AcDbEntity
  8
0
100
AcDbSpline
210
0.0
220
0.0
230
1.0
 70
     8
 71
     3
 72
    10
 73
     6
 74
     0
 42
0.000000001
 43
0.0000000001
 40
0.0
 40
0.0
 40
0.0
 40
0.0
 40
0.3485486526441286
 40
0.732149021324419
 40
1.0
 40
1.0
 40
1.0
 40
1.0
 10
512.2197748303242
 20
320.4470866929271
 30
0.0
 10
512.2523755025229
 20
320.4663733357244
 30
0.0
 10
512.320855326111
 20
320.5068861781686
 30
0.0
 10
512.3917482218019
 20
320.5917546284812
 30
0.0
 10
512.4039452647004
 20
320.6615808578346
 30
0.0
 10
512.4089602054027
 20
320.6902906363092
 30
0.0
  0
LINE
  5
88
330
2
100
AcDbEntity
  8
0
100
AcDbLine
 10
505.8331661214124
 20
317.253782338469
 30
0.0
 11
512.2197748303398
 21
320.4470866929328
 31
0.0
  0
LINE
  5
89
330
2
100
AcDbEntity
  8
0
100
AcDbLine
 10
471.9237625375647
 20
325.0427186595458
 30
0.0
 11
472.9280181435123
 21
313.308222498844
 31
0.0
  0
SPLINE
  5
8A
330
2
100
AcDbEntity
  8
0
100
AcDbSpline
210
0.0
220
0.0
230
1.0
 70
     8
 71
     3
 72
    10
 73
     6
 74
     0
 42
0.000000001
 43
0.0000000001
 40
0.0
 40
0.0
 40
0.0
 40
0.0
 40
0.2426452330595326
 40
0.5671616122884384
 40
1.0
 40
1.0
 40
1.0
 40
1.0
 10
472.9343442888862
 20
313.3017930405255
 30
0.0
 10
472.9375843144934
 20
313.2753605899107
 30
0.0
 10
472.9451575856598
 20
313.2135770917625
 30
0.0
 10
473.0111891767736
 20
313.1240103356461
 30
0.0
 10
473.081781725069
 20
313.0806522703055
 30
0.0
 10
473.1221263114139
 20
313.0558725555463
 30
0.0
  0
LINE
  5
8B
330
2
100
AcDbEntity
  8
0
100
AcDbLine
 10
473.1221263114081
 20
313.0558725555295
 30
0.0
 11
481.3508320465065
 21
308.9415196879802
 31
0.0
  0
LWPOLYLINE
  5
8C
330
2
100
AcDbEntity
  8
0
100
AcDbPolyline
 90
       41
 70
   128
 43
0.0
 10
480.7285314045854
 20
294.8662972829565
 10
480.7043647618752
 20
294.8624519802109
 10
479.7110172993126
 20
294.6458392856442
 10
478.7510509175515
 20
294.3205871410477
 10
477.8319787606898
 20
293.8892331829707
 10
476.9609947312885
 20
293.3551648570255
 10
476.1449136261758
 20
292.7225541957795
 10
475.3901234585166
 20
291.9963523908621
 10
474.70253103796
 20
291.1822484122554
 10
474.087519568986
 20
290.2866069183794
 10
473.5498992241105
 20
289.3164460689717
 10
473.093880060968
 20
288.2793510508491
 10
472.7230298179931
 20
287.1834386223674
 10
472.4402517964587
 20
286.0372899102941
 10
472.2477577773544
 20
284.8498736831585
 10
472.1470558344322
 20
283.6304805021839
 10
472.1389327297118
 20
282.388657774173
 10
472.2234525597615
 20
281.1341208861595
 10
472.3999554013658
 20
279.8766927726494
 10
472.66705821423
 20
278.6262100410379
 10
473.0226701880262
 20
277.3924618622666
 10
473.464008089709
 20
276.1851033184431
 10
473.9876197351954
 20
275.0135832821197
 10
474.5894056558352
 20
273.8870724774177
 10
475.2646556607096
 20
272.8143823795323
 10
476.0080858497342
 20
271.8039167432171
 10
476.8138783359104
 20
270.8635750251522
 10
477.6757259319165
 20
270.0007187606182
 10
478.5868840594496
 20
269.2221071635576
 10
479.5402204015938
 20
268.5338223020519
 10
480.5282753879463
 20
267.9412660300101
 10
481.5433154580863
 20
267.4490609744901
 10
482.5773962553701
 20
267.061069671575
 10
483.6224251434531
 20
266.7803243252294
 10
484.6702232718036
 20
266.60902493677
 10
485.7125896719967
 20
266.548508845606
 10
486.7413676111881
 20
266.5992499656735
 10
487.7485041748739
 20
266.7608509817857
 10
488.7261179744921
 20
267.032051748576
 10
489.6665576155438
 20
267.4107249918449
 10
490.4066196202652
 20
267.8004427960011
  0
ARC
  5
8D
330
2
100
AcDbEntity
  8
0
100
AcDbCircle
 10
482.1968897116676
 20
285.7405774643869
 30
0.0
 40
8.902872674658251
100
AcDbArc
 50
93.43624644860291
 51
117.7753344952024
  0
LINE
  5
8E
330
2
100
AcDbEntity
  8
0
100
AcDbLine
 10
476.616693309606
 20
292.6889360412816
 30
0.0
 11
476.59380611456
 21
292.7256203801773
 31
0.0
  0
ARC
  5
8F
330
2
100
AcDbEntity
  8
0
100
AcDbCircle
 10
476.5311632530536
 20
292.695860355635
 30
0.0
 40
0.0693526290529533
100
AcDbArc
 50
25.41119955399968
 51
112.7191475412982
  0
ARC
  5
90
330
2
100
AcDbEntity
  8
0
100
AcDbCircle
 10
479.9838109772261
 20
268.5331005705637
 30
0.0
 40
0.0590185580004517
100
AcDbArc
 50
282.7100889681996
 51
345.0209452217006
  0
LINE
  5
91
330
2
100
AcDbEntity
  8
0
100
AcDbLine
 10
480.0408241068788
 20
268.5178462846109
 30
0.0
 11
480.0465616476266
 21
268.5353532099678
 31
0.0
  0
ARC
  5
92
330
2
100
AcDbEntity
  8
0
100
AcDbCircle
 10
482.1663917063666
 20
285.6974608881925
 30
0.0
 40
8.926472306124171
100
AcDbArc
 50
92.91008106060017
 51
128.7389671397002
  0
LINE
  5
93
330
2
100
AcDbEntity
  8
0
100
AcDbLine
 10
476.5804437968941
 20
292.6601538862412
 30
0.0
 11
476.6815629314137
 21
292.4980908861107
 31
0.0
  0
LINE
  5
94
330
2
100
AcDbEntity
  8
0
100
AcDbLine
 10
476.6815629314137
 20
292.4980908861107
 30
0.0
 11
476.7281684321317
 21
292.5102784389132
 31
0.0
  0
LINE
  5
95
330
2
100
AcDbEntity
  8
0
100
AcDbLine
 10
476.8404131642195
 20
292.3303821387922
 30
0.0
 11
476.7281684321317
 21
292.5102784389132
 31
0.0
  0
LINE
  5
96
330
2
100
AcDbEntity
  8
0
100
AcDbLine
 10
476.8041565422633
 20
292.3016106910744
 30
0.0
 11
476.9052747740075
 21
292.139543719651
 31
0.0
  0
LINE
  5
97
330
2
100
AcDbEntity
  8
0
100
AcDbLine
 10
476.9052747740075
 20
292.139543719651
 30
0.0
 11
476.951881290322
 21
292.1517308775106
 31
0.0
  0
LINE
  5
98
330
2
100
AcDbEntity
  8
0
100
AcDbLine
 10
477.0641331317229
 20
291.9718238701356
 30
0.0
 11
476.951881290322
 21
292.1517308775106
 31
0.0
  0
LINE
  5
99
330
2
100
AcDbEntity
  8
0
100
AcDbLine
 10
477.0278683848571
 20
291.9430635246146
 30
0.0
 11
477.1289876321979
 21
291.7810005808263
 31
0.0
  0
LINE
  5
9A
330
2
100
AcDbEntity
  8
0
100
AcDbLine
 10
477.1289876321979
 20
291.7810005808263
 30
0.0
 11
477.1755942614023
 21
291.7931833725186
 31
0.0
  0
LINE
  5
9B
330
2
100
AcDbEntity
  8
0
100
AcDbLine
 10
477.2878542277124
 20
291.6132608403004
 30
0.0
 11
477.1755942614023
 21
291.7931833725186
 31
0.0
  0
ARC
  5
9C
330
2
100
AcDbEntity
  8
0
100
AcDbCircle
 10
482.4986286083562
 20
284.7663907834875
 30
0.0
 40
8.413307357028648
100
AcDbArc
 50
65.69685200189796
 51
127.7082905757026
  0
LINE
  5
9D
330
2
100
AcDbEntity
  8
0
100
AcDbLine
 10
477.2515812430476
 20
291.5845159631435
 30
0.0
 11
477.3527004903884
 21
291.4224530194236
 31
0.0
  0
LWPOLYLINE
  5
9E
330
2
100
AcDbEntity
  8
0
100
AcDbPolyline
 90
       13
 70
   128
 43
0.0
 10
491.0070621660408
 20
268.6211208357796
 10
490.9331778434189
 20
268.5672546985473
 10
490.0720665392119
 20
268.0166315400473
 10
489.1606584295498
 20
267.5703940529125
 10
488.2064245669645
 20
267.2321969316021
 10
487.2171874062188
 20
267.0048205651893
 10
486.2010565668823
 20
266.8901208680439
 10
485.1663623388667
 20
266.8890421557065
 10
484.12158577433
 20
267.0015923466363
 10
483.0752930113373
 20
267.226852818987
 10
482.0360605695612
 20
267.5629703504018
 10
481.0124071918076
 20
268.0071908713653
 10
480.0127259103596
 20
268.5558747382203
  0
LINE
  5
9F
330
2
100
AcDbEntity
  8
0
100
AcDbLine
 10
480.0671321147878
 20
268.7218621624897
 30
0.0
 11
480.0127259103596
 21
268.5558747382203
 31
0.0
  0
LINE
  5
A0
330
2
100
AcDbEntity
  8
0
100
AcDbLine
 10
477.3527004903884
 20
291.4224530194236
 30
0.0
 11
477.3993082480103
 21
291.4346354725839
 31
0.0
  0
LWPOLYLINE
  5
A1
330
2
100
AcDbEntity
  8
0
100
AcDbPolyline
 90
        6
 70
   128
 43
0.0
 10
477.4028544327952
 20
291.2513906937622
 10
477.4260630131863
 20
291.262397972585
 10
477.4431797164246
 20
291.2844686061433
 10
477.4508801001429
 20
291.3140931942343
 10
477.4479901146515
 20
291.3467648723153
 10
477.4349507622389
 20
291.3775100327722
  0
LINE
  5
A2
330
2
100
AcDbEntity
  8
0
100
AcDbLine
 10
477.4349507622389
 20
291.3775100327722
 30
0.0
 11
477.3993082480103
 21
291.4346354725839
 31
0.0
  0
LWPOLYLINE
  5
A3
330
2
100
AcDbEntity
  8
0
100
AcDbPolyline
 90
       11
 70
   128
 43
0.0
 10
489.2815183171611
 20
269.261561594843
 10
488.9941215802982
 20
269.1172376912521
 10
488.1166839178024
 20
268.7613698664989
 10
487.2022313648563
 20
268.5128046603361
 10
486.2589386530576
 20
268.3737703892577
 10
485.2952392135943
 20
268.345509136955
 10
484.3197475953875
 20
268.4282704586733
 10
483.34118566391
 20
268.6213134294727
 10
482.368301239135
 20
268.922914751316
 10
481.4097915860962
 20
269.3303759924755
 10
480.4742257767584
 20
269.8400559864136
  0
LINE
  5
A4
330
2
100
AcDbEntity
  8
0
100
AcDbLine
 10
480.4742257767584
 20
269.8400559864136
 30
0.0
 11
480.4934028218806
 21
269.8985606381377
 31
0.0
  0
LWPOLYLINE
  5
A5
330
2
100
AcDbEntity
  8
0
100
AcDbPolyline
 90
        8
 70
   128
 43
0.0
 10
480.4934028218806
 20
269.8985606381377
 10
480.4976246154572
 20
269.9297411387113
 10
480.4912226376167
 20
269.9623249143307
 10
480.475171426071
 20
269.991354279361
 10
480.4519143219342
 20
270.0124037574274
 10
480.4249924318713
 20
270.0222760868562
 10
480.3985043216887
 20
270.0194598748545
 10
480.3920427611561
 20
270.016577516927
  0
LWPOLYLINE
  5
A6
330
2
100
AcDbEntity
  8
0
100
AcDbPolyline
 90
       23
 70
   128
 43
0.0
 10
480.3431014615872
 20
269.9208563337714
 10
479.4439767774663
 20
270.54170825899
 10
478.5853701178975
 20
271.2539547320365
 10
477.7749577175131
 20
272.0512199554177
 10
477.0199838365475
 20
272.9263831915406
 10
476.3271984698872
 20
273.8716115269925
 10
475.7027964101816
 20
274.8784646181956
 10
475.1523563111597
 20
275.9379344518375
 10
474.6808027710653
 20
277.040556184789
 10
474.2923481045055
 20
278.1764653259541
 10
473.990467064878
 20
279.3355095699193
 10
473.7778580249636
 20
280.5073302143894
 10
473.6564222138476
 20
281.6814471894092
 10
473.6272447584318
 20
282.8473643934446
 10
473.6905861072406
 20
283.9946590102215
 10
473.8458797734479
 20
285.1130784082345
 10
474.0917391056586
 20
286.1926175436376
 10
474.4259654130229
 20
287.2236262847482
 10
474.8455691798056
 20
288.1968931344347
 10
475.3468012114441
 20
289.1037160450308
 10
475.9251792657003
 20
289.9359835234218
 10
476.5755338684922
 20
290.6862571126047
 10
477.2496178359025
 20
291.3126754621712
  0
LWPOLYLINE
  5
A7
330
2
100
AcDbEntity
  8
0
100
AcDbPolyline
 90
       50
 70
   128
 43
0.0
 10
486.9259479676669
 20
291.6567766251724
 10
486.5450503704236
 20
291.8543187755116
 10
485.5932270671245
 20
292.2663822955391
 10
484.6263072292084
 20
292.5710559048184
 10
483.6533176320325
 20
292.7654945132296
 10
482.6833426021786
 20
292.8478806764491
 10
481.7254400605129
 20
292.8174494131893
 10
480.7885525991239
 20
292.6744786777688
 10
479.8814271916882
 20
292.4203042752008
 10
479.0125349882121
 20
292.0573020538793
 10
478.189987103386
 20
291.5888619587559
 10
477.421463524073
 20
291.0193586215369
 10
476.7141414517306
 20
290.3541048815647
 10
476.0746223194921
 20
289.5993108716098
 10
475.5088796290801
 20
288.7620301325808
 10
475.0221947978267
 20
287.8500778945703
 10
474.6191103276583
 20
286.8719683037763
 10
474.3033921144469
 20
285.8368332045943
 10
474.0779863409171
 20
284.7543400187977
 10
473.9449978102437
 20
283.6345892033241
 10
473.9056682795122
 20
282.4880408624752
 10
473.960366077974
 20
281.3254018719383
 10
474.1085788849114
 20
280.1575207205047
 10
474.3489227572553
 20
278.9953054582044
 10
474.6791552197923
 20
277.8496100098099
 10
475.0961915149836
 20
276.7311273925056
 10
475.5961389080169
 20
275.650299904856
 10
476.1743291866491
 20
274.617224800869
 10
476.8253642506415
 20
273.6415431338893
 10
477.5431653131179
 20
272.7323622667948
 10
478.3210293231665
 20
271.8981730566335
 10
479.1516957705968
 20
271.1467697047481
 10
480.0274071717508
 20
270.4851629270752
 10
480.9399880614182
 20
269.9195257539706
 10
481.8809181170226
 20
269.4551458748998
 10
482.841410699526
 20
269.0963602932269
 10
483.8124999705292
 20
268.846510244613
 10
484.7851176274211
 20
268.707938402189
 10
485.7501834059376
 20
268.6819323111803
 10
486.6986863292554
 20
268.7687350446846
 10
487.6217705837852
 20
268.9675382243851
 10
488.5108176144937
 20
269.2764863767786
 10
489.3575265279066
 20
269.692694387289
 10
490.1539921813878
 20
270.2122734117907
 10
490.8927778557648
 20
270.830372538069
 10
491.5669856151886
 20
271.5412252937261
 10
492.1703211367662
 20
272.3381901861472
 10
492.6971502466684
 20
273.2138320896395
 10
493.1425551172949
 20
274.1599678574174
 10
493.1638058200142
 20
274.2119111163664
  0
LINE
  5
A8
330
2
100
AcDbEntity
  8
0
100
AcDbLine
 10
480.1131182039472
 20
268.7383994796539
 30
0.0
 11
480.0671321147878
 21
268.7218621624897
 31
0.0
  0
LINE
  5
A9
330
2
100
AcDbEntity
  8
0
100
AcDbLine
 10
480.1131182039472
 20
268.7383994796539
 30
0.0
 11
480.1669330954678
 21
268.9025782288787
 31
0.0
  0
LINE
  5
AA
330
2
100
AcDbEntity
  8
0
100
AcDbLine
 10
480.1875013057248
 20
269.0890789220106
 30
0.0
 11
480.1330941985213
 21
268.9230954690341
 31
0.0
  0
ARC
  5
AB
330
2
100
AcDbEntity
  8
0
100
AcDbCircle
 10
483.8898298402486
 20
285.3291878949672
 30
0.0
 40
7.391673078893298
100
AcDbArc
 50
89.65165288489812
 51
123.3615875795036
  0
ARC
  5
AC
330
2
100
AcDbEntity
  8
0
100
AcDbCircle
 10
486.8080599965039
 20
277.1698022297177
 30
0.0
 40
7.381386701616722
100
AcDbArc
 50
275.9658327748979
 51
309.7241491170981
  0
LINE
  5
AD
330
2
100
AcDbEntity
  8
0
100
AcDbLine
 10
480.2334869435309
 20
269.1056164648858
 30
0.0
 11
480.1875013057248
 21
269.0890789220106
 31
0.0
  0
LINE
  5
AE
330
2
100
AcDbEntity
  8
0
100
AcDbLine
 10
480.2334869435309
 20
269.1056164648858
 30
0.0
 11
480.2873054461527
 21
269.2698036992116
 31
0.0
  0
LINE
  5
AF
330
2
100
AcDbEntity
  8
0
100
AcDbLine
 10
480.3078700453085
 20
269.4562959072424
 30
0.0
 11
480.253462938105
 21
269.2903124541974
 31
0.0
  0
LINE
  5
B0
330
2
100
AcDbEntity
  8
0
100
AcDbLine
 10
480.353856134468
 20
269.4728385498283
 30
0.0
 11
480.3078700453085
 21
269.4562959072424
 31
0.0
  0
LINE
  5
B1
330
2
100
AcDbEntity
  8
0
100
AcDbLine
 10
480.353856134468
 20
269.4728385498283
 30
0.0
 11
480.407676893994
 21
269.6370340435444
 31
0.0
  0
LINE
  5
B2
330
2
100
AcDbEntity
  8
0
100
AcDbLine
 10
480.4282387848923
 20
269.8235128924057
 30
0.0
 11
480.3738316776201
 21
269.6575294394292
 31
0.0
  0
LINE
  5
B3
330
2
100
AcDbEntity
  8
0
100
AcDbLine
 10
480.4742257767584
 20
269.8400559864136
 30
0.0
 11
480.4282387848923
 21
269.8235128924057
 31
0.0
  0
LINE
  5
B4
330
2
100
AcDbEntity
  8
0
100
AcDbLine
 10
477.3697668643303
 20
291.35165980941
 30
0.0
 11
477.4349507622389
 21
291.3775100327722
 31
0.0
  0
LINE
  5
B5
330
2
100
AcDbEntity
  8
0
100
AcDbLine
 10
477.3697668643303
 20
291.35165980941
 30
0.0
 11
476.5286232323165
 21
292.6997697618038
 31
0.0
  0
LINE
  5
B6
330
2
100
AcDbEntity
  8
0
100
AcDbLine
 10
476.4326249353122
 20
292.6220763771322
 30
0.0
 11
477.2737694701013
 21
291.273965973385
 31
0.0
  0
LWPOLYLINE
  5
B7
330
2
100
AcDbEntity
  8
0
100
AcDbPolyline
 90
        9
 70
   128
 43
0.0
 10
476.5286232323165
 20
292.6997697618038
 10
476.5096443447691
 20
292.7213735688051
 10
476.4862482143963
 20
292.7337746751653
 10
476.4619964857794
 20
292.7350844579588
 10
476.4405792224164
 20
292.7251011946388
 10
476.4252591399683
 20
292.7053518960601
 10
476.4183683132952
 20
292.6788356079227
 10
476.4209541787884
 20
292.6495931267053
 10
476.4326249353122
 20
292.6220763771322
  0
LWPOLYLINE
  5
B8
330
2
100
AcDbEntity
  8
0
100
AcDbPolyline
 90
        9
 70
   128
 43
0.0
 10
477.2737694701013
 20
291.273965973385
 10
477.2927474548733
 20
291.252362617737
 10
477.3161435852462
 20
291.2399615113769
 10
477.3403962166384
 20
291.23865127723
 10
477.3618125772261
 20
291.2486349919033
 10
477.3771326596742
 20
291.2683842904821
 10
477.3840243891227
 20
291.2949001272661
 10
477.3814376207856
 20
291.3241430598368
 10
477.3697668643303
 20
291.35165980941
  0
LWPOLYLINE
  5
B9
330
2
100
AcDbEntity
  8
0
100
AcDbPolyline
 90
       24
 70
   128
 43
0.0
 10
479.8907782298797
 20
268.631018256002
 10
478.9278129663723
 20
269.291718093211
 10
478.0059073880928
 20
270.0463466993852
 10
477.1326199184861
 20
270.8887259030579
 10
476.3151081520404
 20
271.8119416682585
 10
475.5600751398045
 20
272.8084351213536
 10
474.8737107091981
 20
273.8700295379359
 10
474.2616386521681
 20
274.9880254321208
 10
473.7288810660775
 20
276.1532598131812
 10
473.2798010277114
 20
277.3561734755869
 10
472.9180818296505
 20
278.5869152506037
 10
472.6466899670298
 20
279.8353862368695
 10
472.4678480540742
 20
281.0913587654287
 10
472.3830230884296
 20
282.3445338981791
 10
472.3929120069636
 20
283.5846349421266
 10
472.4974308521871
 20
284.8015070086908
 10
472.695723800282
 20
285.9851592616162
 10
472.9861658690845
 20
287.1259013029454
 10
473.3663764600574
 20
288.2143779297667
 10
473.8332374131121
 20
289.2416635506265
 10
474.382922798262
 20
290.1993376485278
 10
475.010926224389
 20
291.07955106065
 10
475.7120987553271
 20
291.8750868188686
 10
476.4670432935153
 20
292.5669137447254
  0
LWPOLYLINE
  5
BA
330
2
100
AcDbEntity
  8
0
100
AcDbPolyline
 90
        9
 70
   128
 43
0.0
 10
480.4269672364264
 20
269.8815090300661
 10
480.4307457710847
 20
269.9094164086955
 10
480.4250154524025
 20
269.9385809974208
 10
480.410649708351
 20
269.9645569060819
 10
480.3898341397091
 20
269.9833987134565
 10
480.3657383642799
 20
269.9922323274502
 10
480.3420312303755
 20
269.9897141283645
 10
480.3223211009091
 20
269.9762292444332
 10
480.3096092274895
 20
269.9538245844818
  0
LINE
  5
BB
330
2
100
AcDbEntity
  8
0
100
AcDbLine
 10
479.9743876186494
 20
268.5007946765393
 30
0.0
 11
480.4269672364264
 21
269.8815090300661
 31
0.0
  0
LWPOLYLINE
  5
BC
330
2
100
AcDbEntity
  8
0
100
AcDbPolyline
 90
        9
 70
   128
 43
0.0
 10
479.8570309638412
 20
268.5731104566659
 10
479.8532519778295
 20
268.545203303679
 10
479.8589818450899
 20
268.5160429119576
 10
479.8733480405632
 20
268.4900623549392
 10
479.8941631577831
 20
268.4712203218536
 10
479.918258481859
 20
268.4623869335709
 10
479.9419665185387
 20
268.46490558401
 10
479.9616761965832
 20
268.4783946649452
 10
479.9743876186494
 20
268.5007946765393
  0
LINE
  5
BD
330
2
100
AcDbEntity
  8
0
100
AcDbLine
 10
480.3096092274895
 20
269.9538245844818
 30
0.0
 11
479.8570309638412
 21
268.5731104566659
 31
0.0
  0
LWPOLYLINE
  5
BE
330
2
100
AcDbEntity
  8
0
100
AcDbPolyline
 90
       58
 70
   128
 43
0.0
 10
490.6011409737145
 20
287.2096751213675
 10
490.0693809460724
 20
287.9116784717624
 10
489.3405873313684
 20
288.736851628009
 10
488.5572101184258
 20
289.4823403062778
 10
487.7270343252418
 20
290.1407257518099
 10
486.8583107983211
 20
290.7054724802003
 10
485.9596736087671
 20
291.170965599355
 10
485.0400533871524
 20
291.532578771659
 10
484.1085893033687
 20
291.7867201981491
 10
483.1745401439775
 20
291.9308603697214
 10
482.2471879418505
 20
291.9635658417998
 10
481.3357479249646
 20
291.8845201016681
 10
480.449280835402
 20
291.6944967894708
 10
479.5965956272905
 20
291.3953937277915
 10
478.7861663564335
 20
290.990179092363
 10
478.0260473478744
 20
290.4828800457069
 10
477.3237936395994
 20
289.8785429590197
 10
476.686385178541
 20
289.1831644601108
 10
476.1201545421402
 20
288.403667568837
 10
475.6307311647751
 20
287.547791128818
 10
475.2229789336486
 20
286.6240415448386
 10
474.9009494707293
 20
285.6416035303703
 10
474.6678435392609
 20
284.6102388506703
 10
474.5259780927705
 20
283.5401976355056
 10
474.4767632545379
 20
282.4421168743338
 10
474.5206878733957
 20
281.3269018989883
 10
474.6573145583625
 20
280.205645277976
 10
474.8852859979331
 20
279.0894876309482
 10
475.2023389533353
 20
277.9895175700607
 10
475.6053182511029
 20
276.91667444007
 10
476.0902219214305
 20
275.8816123840556
 10
476.6522282815713
 20
274.8946246111188
 10
477.285755066832
 20
273.9655202349614
 10
477.9845032148692
 20
273.1035321619454
 10
478.7415295383831
 20
272.3172228139585
 10
479.5493099192539
 20
271.6144140859757
 10
480.3998169461237
 20
271.0020850833624
 10
481.2845971012421
 20
270.4863232465053
 10
482.1948574262124
 20
270.0722550345141
 10
483.1215512849633
 20
269.7639965551801
 10
484.0554690916746
 20
269.5646067700131
 10
484.9873281363418
 20
269.4760721079914
 10
485.9078687296969
 20
269.4992740230889
 10
486.80794064297
 20
269.6339778754906
 10
487.6785992527423
 20
269.8788412861198
 10
488.5111915296286
 20
270.2314423270684
 10
489.2974429295971
 20
270.6882631245473
 10
490.0295393202661
 20
271.2447772141044
 10
490.7002043931168
 20
271.8954418547989
 10
491.3027730134581
 20
272.6337945465154
 10
491.8312564454141
 20
273.4525004468829
 10
492.2804032886063
 20
274.343422557036
 10
492.6457480021062
 20
275.2977003224267
 10
492.9236610079517
 20
276.3058551998944
 10
493.111379836793
 20
277.3578665286286
 10
493.207039370147
 20
278.4432788114223
 10
493.2096880909015
 20
279.5513020901834
 10
493.1859105410694
 20
279.9810805083139
  0
LWPOLYLINE
  5
BF
330
2
100
AcDbEntity
  8
0
100
AcDbPolyline
 90
       78
 70
   128
 43
0.0
 10
475.5602602072396
 20
295.7766287924918
 10
476.6398948935739
 20
295.9855937184657
 10
477.7436826810568
 20
296.0844471423595
 10
478.8642797794162
 20
296.0725263271444
 10
479.9942259411162
 20
295.9499132130988
 10
481.1260051728778
 20
295.7174165715632
 10
482.2520825231402
 20
295.3765966264906
 10
483.3649659219995
 20
294.9297061630066
 10
484.4572490623173
 20
294.3797294762262
 10
485.521661955071
 20
293.7303250593112
 10
486.5511232894315
 20
292.9858142321748
 10
487.5387783496702
 20
292.1511484689109
 10
488.4780604026482
 20
291.2318864728113
 10
489.3627132674728
 20
290.2341407444175
 10
490.1868518009662
 20
289.1645592575322
 10
490.9449916885651
 20
288.0302490109217
 10
491.6320873611589
 20
286.8387688065237
 10
492.2435662997306
 20
285.5980450367745
 10
492.7753579243035
 20
284.3163272756159
 10
493.2239269960811
 20
283.0021557837925
 10
493.5862835481805
 20
281.6642679080961
 10
493.8600198988047
 20
280.3115743405884
 10
494.0433124570672
 20
278.9530685867067
 10
494.1349415835701
 20
277.5977973562056
 10
494.1342979101729
 20
276.2547793277041
 10
494.0413859505469
 20
274.9329498160481
 10
493.856824100791
 20
273.6411090494056
 10
493.5818396736542
 20
272.3878481088571
 10
493.2182634822936
 20
271.1815112853855
 10
492.7685149443117
 20
270.0301263503345
 10
492.2355862837007
 20
268.9413556762012
 10
491.6230253779751
 20
267.9224439718312
 10
490.9349077722042
 20
266.9801708916157
 10
490.1758127562547
 20
266.1208122643365
 10
489.3507924443066
 20
265.3500815790547
 10
488.4653371317499
 20
264.6731076062072
 10
487.5253388171248
 20
264.0943948577466
 10
486.5370538789325
 20
263.6178025768299
 10
485.5070587830264
 20
263.246492987495
 10
484.4422080479379
 20
262.9829438528415
 10
483.3495874981669
 20
262.828906599579
 10
482.236469153998
 20
262.7854041617443
 10
481.1102599996337
 20
262.8527272089361
 10
479.9784559417904
 20
263.0304298103746
 10
478.8485874180836
 20
263.3173246256752
 10
477.728174484384
 20
263.7115092797877
 10
476.6246730999248
 20
264.210359275961
 10
475.5454268294731
 20
264.810549248558
 10
474.4976167394009
 20
265.5080862227634
 10
473.4882194194211
 20
266.298334478501
 10
472.5239478509061
 20
267.1760294048237
 10
471.6112216156439
 20
268.13532921713
 10
470.7561136326424
 20
269.1698516927384
 10
469.964315853009
 20
270.2727157797754
 10
469.2410968295106
 20
271.4365810412127
 10
468.5912683147083
 20
272.6536951318979
 10
468.0191563717361
 20
273.9159691657296
 10
467.528567069728
 20
275.2149911663311
 10
467.1227675254009
 20
276.5421267069998
 10
466.8044561116724
 20
277.8885391318874
 10
466.5757516246324
 20
279.2452694369144
 10
466.438176130742
 20
280.6032866380679
 10
466.3926450365117
 20
281.9535531214086
 10
466.4394616720541
 20
283.2870852107225
 10
466.5783136796403
 20
284.5950102149561
 10
466.808280236108
 20
285.8686216701027
 10
467.1278248306591
 20
287.0994462262108
 10
467.5348264102998
 20
288.2792849444039
 10
468.026574414748
 20
289.4002990025498
 10
468.599796762126
 20
290.4550176424385
 10
469.2506779042608
 20
291.4364245528594
 10
469.9748850070325
 20
292.3379932550903
 10
470.7676040612501
 20
293.1537194202117
 10
471.6235534238015
 20
293.8781750306229
 10
472.5370397895878
 20
294.5065369950939
 10
473.5019856269542
 20
295.0346285785512
 10
474.5119654437478
 20
295.4589359121534
 10
475.5602602072396
 20
295.7766287924918
  0
LWPOLYLINE
  5
C0
330
2
100
AcDbEntity
  8
0
100
AcDbPolyline
 90
       75
 70
   128
 43
0.0
 10
475.9528901748236
 20
294.8168140356554
 10
474.9294034706036
 20
294.504296778498
 10
473.9451495281809
 20
294.0835023008824
 10
473.0072188092403
 20
293.5574625881904
 10
472.1223707772886
 20
292.929970784468
 10
471.2969798791853
 20
292.205544526627
 10
470.5369924771879
 20
291.3894078391086
 10
469.8478863407218
 20
290.4874353162388
 10
469.2346226302604
 20
289.5061281139982
 10
468.7016244564972
 20
288.4525576448335
 10
468.2527290341444
 20
287.3343169237496
 10
467.8911700774368
 20
286.1594573359269
 10
467.6195561338666
 20
284.9364490975462
 10
467.4398421472054
 20
283.6741005147333
 10
467.353321783675
 20
282.3815067566274
 10
467.3606206613713
 20
281.0679840054225
 10
467.4616846142542
 20
279.7429907471904
 10
467.6557869141445
 20
278.4160794783003
 10
467.9415273682909
 20
277.0968108653377
 10
468.3168485687781
 20
275.7946834293173
 10
468.7790449206225
 20
274.5190862463153
 10
469.3247870160213
 20
273.2792079642201
 10
469.9501433012336
 20
272.0839771378585
 10
470.6506080622057
 20
270.9420137579585
 10
471.4211339241394
 20
269.861538810348
 10
472.256168865007
 20
268.850339975221
 10
473.1496977428734
 20
267.9157033910044
 10
474.0952802123922
 20
267.0643595885264
 10
475.0861057930722
 20
266.3024493729501
 10
476.1150353972857
 20
265.6354565814392
 10
477.1746545929163
 20
265.0681882267617
 10
478.2573286727913
 20
264.6047312648313
 10
479.3552572715271
 20
264.2484272785462
 10
480.4605298864516
 20
264.0018419275041
 10
481.5651832025703
 20
263.8667499222869
 10
482.661257967686
 20
263.8441264529267
 10
483.7408569947029
 20
263.9341325929536
 10
484.7962013591345
 20
264.1361276908106
 10
485.8196876120013
 20
264.4486451736788
 10
486.803941554424
 20
264.869439651226
 10
487.7418718219423
 20
265.3954795896289
 10
488.6267198538941
 20
266.0229713934199
 10
489.4521112034196
 20
266.74739742555
 10
490.2120981539948
 20
267.5635343387108
 10
490.9012056445897
 20
268.4655061845847
 10
491.5144680009224
 20
269.4468096412434
 10
492.0474670774609
 20
270.5003796589861
 10
492.4963629511672
 20
271.6186245770738
 10
492.8579205537459
 20
272.7934804192461
 10
493.1295344973163
 20
274.0164930803417
 10
493.3092493867527
 20
275.2788412117326
 10
493.3957688475078
 20
276.5714309986142
 10
493.3884699698116
 20
277.8849581724653
 10
493.2874060169285
 20
279.2099470080511
 10
493.0933046198135
 20
280.5368578255192
 10
492.8075641656672
 20
281.8561308611283
 10
492.4322429651801
 20
283.1582538745022
 10
491.9700466133355
 20
284.4338510575043
 10
491.4243036151615
 20
285.6737342136677
 10
490.7989473299492
 20
286.868960617383
 10
490.0984825689771
 20
288.0109284198608
 10
489.3279567070434
 20
289.0914033674714
 10
488.4929217661758
 20
290.1026022026668
 10
487.5993937910847
 20
291.0372383354616
 10
486.653811321566
 20
291.8885777153617
 10
485.6629848381105
 20
292.6504928048692
 10
484.6340552338971
 20
293.3174855963801
 10
483.5744369410418
 20
293.8847534997043
 10
482.4917633125887
 20
294.3482058133458
 10
481.3938338110091
 20
294.7045146736307
 10
480.2885607447311
 20
294.9511002503837
 10
479.1839074286124
 20
295.0861922555325
 10
478.0878335662721
 20
295.1088152735392
 10
477.0082336364798
 20
295.0188051622878
 10
475.9528901748236
 20
294.8168140356554
  0
ARC
  5
C1
330
2
100
AcDbEntity
  8
0
100
AcDbCircle
 10
484.6963021980214
 20
285.5621776486202
 30
0.0
 40
11.35621080479541
100
AcDbArc
 50
136.088262444601
 51
146.7941101751012
  0
ARC
  5
C2
330
2
100
AcDbEntity
  8
0
100
AcDbCircle
 10
487.6394374622052
 20
279.819877517696
 30
0.0
 40
14.39646335887712
100
AcDbArc
 50
237.7458430600018
 51
238.9718116701017
  0
LINE
  5
C3
330
2
100
AcDbEntity
  8
0
100
AcDbLine
 10
480.2186404756247
 20
267.4833492651284
 30
0.0
 11
480.9352000066581
 21
267.779945776615
 31
0.0
  0
ARC
  5
C4
330
2
100
AcDbEntity
  8
0
100
AcDbCircle
 10
487.6003597888614
 20
277.621464959435
 30
0.0
 40
11.46921587807982
100
AcDbArc
 50
252.6033388625988
 51
262.5909501980997
  0
ELLIPSE
  5
C5
330
2
100
AcDbEntity
  8
0
100
AcDbEllipse
 10
485.3282087852587
 20
281.4719451008031
 30
0.0
 11
20.50595722342829
 21
3.047589576001281
 31
0.0
210
0.0
220
0.0
230
1.0
 40
0.7338013613
 41
4.642222394877371
 42
4.652744832883335
  0
ARC
  5
C6
330
2
100
AcDbEntity
  8
0
100
AcDbCircle
 10
487.5437456087952
 20
276.5658587127039
 30
0.0
 40
10.36645479515292
100
AcDbArc
 50
263.3219168976026
 51
274.7051416924997
  0
ELLIPSE
  5
C7
330
2
100
AcDbEntity
  8
0
100
AcDbEllipse
 10
486.5244132387431
 20
281.4513468232129
 30
0.0
 11
-2.750268166861846
 21
15.41785379492507
 31
0.0
210
0.0
220
0.0
230
1.0
 40
0.2517492866
 41
2.929064527752073
 42
2.939586965758051
  0
LINE
  5
C8
330
2
100
AcDbEntity
  8
0
100
AcDbLine
 10
488.9240173157637
 20
266.2668779948269
 30
0.0
 11
488.4400077240761
 21
266.2080829529526
 31
0.0
  0
LWPOLYLINE
  5
C9
330
2
100
AcDbEntity
  8
0
100
AcDbPolyline
 90
        3
 70
   128
 43
0.0
 10
477.5845766264247
 20
294.4049663095709
 10
478.4790597863455
 20
295.0321582035963
 10
478.609681654849
 20
295.1120720894595
  0
LINE
  5
CA
330
2
100
AcDbEntity
  8
0
100
AcDbLine
 10
477.5845766264247
 20
294.4049663095709
 30
0.0
 11
476.4299862578391
 21
294.0903655529133
 31
0.0
  0
ARC
  5
CB
330
2
100
AcDbEntity
  8
0
100
AcDbCircle
 10
482.8218436111816
 20
285.9732449312218
 30
0.0
 40
10.33167399854773
100
AcDbArc
 50
128.2187976391004
 51
129.7492704600982
  0
LINE
  5
CC
330
2
100
AcDbEntity
  8
0
100
AcDbLine
 10
477.8877517837641
 20
293.9190649376089
 30
0.0
 11
477.5845766264247
 21
294.4049663095709
 31
0.0
  0
LINE
  5
CD
330
2
100
AcDbEntity
  8
0
100
AcDbLine
 10
477.0503615217262
 20
293.4162042364172
 30
0.0
 11
477.032473290554
 21
293.4165216776122
 31
0.0
  0
ELLIPSE
  5
CE
330
2
100
AcDbEntity
  8
0
100
AcDbEllipse
 10
476.9114674066725
 20
293.7123420164403
 30
0.0
 11
-0.2161965528434353
 21
0.2659169424433332
 31
0.0
210
0.0
220
0.0
230
1.0
 40
0.5998180689
 41
1.36463105348633
 42
2.673627992481996
  0
LINE
  5
CF
330
2
100
AcDbEntity
  8
0
100
AcDbLine
 10
476.7110862597927
 20
293.6398454656806
 30
0.0
 11
476.4299862578391
 21
294.0903655529133
 31
0.0
  0
ELLIPSE
  5
D0
330
2
100
AcDbEntity
  8
0
100
AcDbEllipse
 10
476.6932066917953
 20
293.535698977549
 30
0.0
 11
-0.2150218491902136
 21
0.2668676915529832
 31
0.0
210
0.0
220
0.0
230
1.0
 40
0.5860573836000002
 41
1.367246077683945
 42
2.676243016679582
  0
LINE
  5
D1
330
2
100
AcDbEntity
  8
0
100
AcDbLine
 10
476.2154694439069
 20
293.9167522154256
 30
0.0
 11
476.496569445792
 21
293.4662321281929
 31
0.0
  0
ELLIPSE
  5
D2
330
2
100
AcDbEntity
  8
0
100
AcDbEllipse
 10
489.5441676484919
 20
279.3429257975106
 30
0.0
 11
-3.629001430646049
 21
17.67921175598698
 31
0.0
210
0.0
220
0.0
230
1.0
 40
0.2913877334000001
 41
2.343574894900469
 42
2.344342288813806
  0
ELLIPSE
  5
D3
330
2
100
AcDbEntity
  8
0
100
AcDbEllipse
 10
471.3348811318804
 20
279.6564841849295
 30
0.0
 11
27.72377596958227
 21
3.874553835789084
 31
0.0
210
0.0
220
0.0
230
0.9999999999999998
 40
0.6186179487999999
 41
5.195588816757966
 42
5.196356210671313
  0
LINE
  5
D4
330
2
100
AcDbEntity
  8
0
100
AcDbLine
 10
480.2186404756247
 20
267.4833492651284
 30
0.0
 11
480.3698865823181
 21
267.9447676661807
 31
0.0
  0
ELLIPSE
  5
D5
330
2
100
AcDbEntity
  8
0
100
AcDbEllipse
 10
480.5706841405744
 20
268.0143394944417
 30
0.0
 11
0.1811578478880802
 21
0.2909231982732406
 31
0.0
210
0.0
220
0.0
230
1.0
 40
0.4451840725000002
 41
1.844547994472335
 42
2.073762113535972
  0
ELLIPSE
  5
D6
330
2
100
AcDbEntity
  8
0
100
AcDbEllipse
 10
480.3038587428037
 20
268.1787572431372
 30
0.0
 11
0.1784369675328972
 21
0.292599882024295
 31
0.0
210
0.0
220
0.0
230
0.9999999999999998
 40
0.4314236535000001
 41
1.870854156408643
 42
2.069674185637488
  0
LINE
  5
D7
330
2
100
AcDbEntity
  8
0
100
AcDbLine
 10
480.1076384033977
 20
268.1063637124704
 30
0.0
 11
479.9563922966357
 21
267.6449453114182
 31
0.0
  0
LINE
  5
D8
330
2
100
AcDbEntity
  8
0
100
AcDbLine
 10
493.1890522294535
 20
266.6670733547936
 30
0.0
 11
492.7310027415869
 21
266.4519638235833
 31
0.0
  0
LWPOLYLINE
  5
D9
330
2
100
AcDbEntity
  8
0
100
AcDbPolyline
 90
       37
 70
   128
 43
0.0
 10
481.6708639099821
 20
297.3828764396657
 10
482.4095250023914
 20
297.5600783232193
 10
483.4920830765615
 20
297.7193303883101
 10
484.5958595795241
 20
297.7660305604197
 10
485.7131132773027
 20
297.6998520191132
 10
486.8360061141405
 20
297.5212527683423
 10
487.9566627951922
 20
297.2314865609798
 10
489.0672220183216
 20
296.832594665476
 10
490.1598951543616
 20
296.3273632672137
 10
491.2270172532
 20
295.7193450872744
 10
492.2611025642918
 20
295.0127991362521
 10
493.25489825114
 20
294.2126836311932
 10
494.2014340433903
 20
293.3246077981816
 10
495.0940700839242
 20
292.3548093075485
 10
495.9265447753344
 20
291.3100796316038
 10
496.6930208208501
 20
290.1977571826261
 10
497.388119530005
 20
289.0256353403369
 10
498.0069664080033
 20
287.8019425475938
 10
498.5452204958843
 20
286.535256969162
 10
498.9991068700224
 20
285.2344656032778
 10
499.3654414684149
 20
283.9086933798908
 10
499.6416541111443
 20
282.5672411957713
 10
499.8258081355881
 20
281.2195139979106
 10
499.9166116809379
 20
279.8749662180821
 10
499.9134273932242
 20
278.5430302165009
 10
499.8162789700424
 20
277.233047207414
 10
499.6258459698863
 20
275.9542100074743
 10
499.3434651660711
 20
274.7154831981457
 10
498.9711172313628
 20
273.5255577874771
 10
498.511414098507
 20
272.392780803908
 10
497.9675796078943
 20
271.3250970003963
 10
497.3434283237678
 20
270.3299954457055
 10
496.6433392235066
 20
269.4144555191662
 10
495.8722220204257
 20
268.584900243408
 10
495.0354859829672
 20
267.8471484600912
 10
494.1389998634297
 20
267.2063779473782
 10
493.1890522294535
 20
266.6670733547936
  0
LINE
  5
DA
330
2
100
AcDbEntity
  8
0
100
AcDbLine
 10
496.1630408255789
 20
268.0258185308487
 30
0.0
 11
495.8432293785631
 21
267.8728562928697
 31
0.0
  0
ARC
  5
DB
330
2
100
AcDbEntity
  8
0
100
AcDbCircle
 10
487.6714807636224
 20
287.5123969602628
 30
0.0
 40
11.07748659548199
100
AcDbArc
 50
72.04449069119757
 51
104.0703031652995
  0
ARC
  5
DC
330
2
100
AcDbEntity
  8
0
100
AcDbCircle
 10
491.1025292968672
 20
277.8889252384305
 30
0.0
 40
11.08556046658467
100
AcDbArc
 50
297.161216464898
 51
327.3144335125992
  0
ARC
  5
DD
330
2
100
AcDbEntity
  8
0
100
AcDbCircle
 10
504.9583479246371
 20
280.2162316991287
 30
0.0
 40
4.746779601402789
100
AcDbArc
 50
110.6471960590959
 51
116.4543558123031
  0
LINE
  5
DE
330
2
100
AcDbEntity
  8
0
100
AcDbLine
 10
502.8437300961346
 20
284.4659738117186
 30
0.0
 11
502.6452209916432
 21
284.3949920685474
 31
0.0
  0
ARC
  5
DF
330
2
100
AcDbEntity
  8
0
100
AcDbCircle
 10
506.873914457178
 20
275.8967547102394
 30
0.0
 40
9.492201358155071
100
AcDbArc
 50
110.6467814056974
 51
116.4547785914016
  0
LINE
  5
E0
330
2
100
AcDbEntity
  8
0
100
AcDbLine
 10
503.5269090718145
 20
284.7792904728343
 30
0.0
 11
503.2845736936746
 21
284.6581227837987
 31
0.0
  0
ARC
  5
E1
330
2
100
AcDbEntity
  8
0
100
AcDbCircle
 10
506.4226740736031
 20
276.93161141547
 30
0.0
 40
11.27087496843889
100
AcDbArc
 50
113.6205612023018
 51
115.0347411862964
  0
ARC
  5
E2
330
2
100
AcDbEntity
  8
0
100
AcDbCircle
 10
503.3989528726768
 20
283.7123531856984
 30
0.0
 40
9.492143578840654
100
AcDbArc
 50
110.6467706648004
 51
116.4548026690998
  0
LINE
  5
E3
330
2
100
AcDbEntity
  8
0
100
AcDbLine
 10
502.8437300961346
 20
284.4659738117186
 30
0.0
 11
502.4460960865574
 21
284.2671568069643
 31
0.0
  0
LINE
  5
E4
330
2
100
AcDbEntity
  8
0
100
AcDbLine
 10
502.6452209916432
 20
284.3949920685474
 30
0.0
 11
502.4413561606687
 21
284.2930596530601
 31
0.0
  0
LINE
  5
E5
330
2
100
AcDbEntity
  8
0
100
AcDbLine
 10
499.1702815760305
 20
292.2105370378948
 30
0.0
 11
499.0017871876394
 21
292.1262898437335
 31
0.0
  0
LINE
  5
E6
330
2
100
AcDbEntity
  8
0
100
AcDbLine
 10
504.9750326250321
 20
285.2625863725389
 30
0.0
 11
503.2845736936746
 21
284.6581227837987
 31
0.0
  0
LINE
  5
E7
330
2
100
AcDbEntity
  8
0
100
AcDbLine
 10
507.4970913140833
 20
286.1989296834403
 30
0.0
 11
506.7503145647986
 21
285.9319019579598
 31
0.0
  0
LINE
  5
E8
330
2
100
AcDbEntity
  8
0
100
AcDbLine
 10
504.8849562590779
 20
285.2648941885761
 30
0.0
 11
503.5269090718145
 21
284.7792904728343
 31
0.0
  0
LINE
  5
E9
330
2
100
AcDbEntity
  8
0
100
AcDbLine
 10
500.6474970086085
 20
292.8077806523666
 30
0.0
 11
500.0519695257651
 21
292.594835507503
 31
0.0
  0
LINE
  5
EA
330
2
100
AcDbEntity
  8
0
100
AcDbLine
 10
500.9002943371094
 20
292.6267889082345
 30
0.0
 11
500.6474970086085
 21
292.8077806523666
 31
0.0
  0
LWPOLYLINE
  5
EB
330
2
100
AcDbEntity
  8
0
100
AcDbPolyline
 90
        9
 70
   128
 43
0.0
 10
507.4094397824518
 20
286.0985581866544
 10
507.4963654887478
 20
286.1431083417684
 10
507.5646932755338
 20
286.1804893121742
 10
507.6117978939397
 20
286.209267437249
 10
507.6358692947092
 20
286.2283349498348
 10
507.6359803351155
 20
286.2369590954817
 10
507.6121301125204
 20
286.2348078748084
 10
507.5652326792369
 20
286.221969692626
 10
507.4970913140833
 20
286.1989296834403
  0
LINE
  5
EC
330
2
100
AcDbEntity
  8
0
100
AcDbLine
 10
507.4094397824518
 20
286.0985581866544
 30
0.0
 11
507.2109306215497
 21
286.0275764716541
 31
0.0
  0
LINE
  5
ED
330
2
100
AcDbEntity
  8
0
100
AcDbLine
 10
504.5452468786635
 20
284.6947346002453
 30
0.0
 11
507.2109306215497
 21
286.0275764716541
 31
0.0
  0
LWPOLYLINE
  5
EE
330
2
100
AcDbEntity
  8
0
100
AcDbPolyline
 90
        9
 70
   128
 43
0.0
 10
504.4575948956785
 20
284.5943628777483
 10
504.389453530525
 20
284.5713228685627
 10
504.3425560972415
 20
284.5584846864488
 10
504.3187049718711
 20
284.5563330143536
 10
504.3188173664747
 20
284.564957385643
 10
504.3428878644002
 20
284.5840248982972
 10
504.3899929342281
 20
284.6128027976612
 10
504.458320721014
 20
284.6501837680669
 10
504.5452468786635
 20
284.6947346002453
  0
LINE
  5
EF
330
2
100
AcDbEntity
  8
0
100
AcDbLine
 10
505.5493950552375
 20
284.9847624230023
 30
0.0
 11
505.7917299820241
 21
285.1059298863269
 31
0.0
  0
LINE
  5
F0
330
2
100
AcDbEntity
  8
0
100
AcDbLine
 10
505.5493950552375
 20
284.9847624230023
 30
0.0
 11
504.4575948956785
 21
284.5943628777483
 31
0.0
  0
LINE
  5
F1
330
2
100
AcDbEntity
  8
0
100
AcDbLine
 10
505.7917299820241
 20
285.1059298863269
 30
0.0
 11
505.822637591936
 21
285.305155495792
 31
0.0
  0
LINE
  5
F2
330
2
100
AcDbEntity
  8
0
100
AcDbLine
 10
516.11025719385
 20
289.5354474156319
 30
0.0
 11
515.945833385504
 21
289.4597758360376
 31
0.0
  0
LWPOLYLINE
  5
F3
330
2
100
AcDbEntity
  8
0
100
AcDbPolyline
 90
        9
 70
   128
 43
0.0
 10
516.006893891456
 20
289.4808727739306
 10
516.0366030770871
 20
289.496130269873
 10
516.0618381454586
 20
289.5091447535703
 10
516.0823878489926
 20
289.5198070043552
 10
516.0980788561966
 20
289.5280288799352
 10
516.1087784601934
 20
289.5337414649871
 10
516.1143999953049
 20
289.5368959740694
 10
516.1148947120745
 20
289.5374650147261
 10
516.11025719385
 20
289.5354474156319
  0
LINE
  5
F4
330
2
100
AcDbEntity
  8
0
100
AcDbLine
 10
509.5254805702173
 20
286.1579465145737
 30
0.0
 11
516.006893891456
 21
289.4808727739306
 31
0.0
  0
ARC
  5
F5
330
2
100
AcDbEntity
  8
0
100
AcDbCircle
 10
518.2213090445045
 20
269.1872014146894
 30
0.0
 40
19.06891769610733
100
AcDbArc
 50
117.1306516850011
 51
117.2176446063016
  0
LINE
  5
F6
330
2
100
AcDbEntity
  8
0
100
AcDbLine
 10
508.0202226870683
 20
285.3838753399919
 30
0.0
 11
509.4997237020221
 21
286.1447239699845
 31
0.0
  0
ARC
  5
F7
330
2
100
AcDbEntity
  8
0
100
AcDbCircle
 10
477.4975584347677
 20
344.7572962807667
 30
0.0
 40
66.75953974726603
100
AcDbArc
 50
297.099110392398
 51
297.2067712716004
  0
LINE
  5
F8
330
2
100
AcDbEntity
  8
0
100
AcDbLine
 10
507.90860402443
 20
285.3266269810573
 30
0.0
 11
502.6988408853369
 21
282.6601495342202
 31
0.0
  0
LINE
  5
F9
330
2
100
AcDbEntity
  8
0
100
AcDbLine
 10
512.9789826922464
 20
296.2910006169644
 30
0.0
 11
507.7598017101356
 21
295.2392954253018
 31
0.0
  0
LWPOLYLINE
  5
FA
330
2
100
AcDbEntity
  8
0
100
AcDbPolyline
 90
        9
 70
   128
 43
0.0
 10
513.1112995636929
 20
296.2804526013591
 10
513.1129444066401
 20
296.2892029449354
 10
513.1092204894437
 20
296.2958962170037
 10
513.1001594090353
 20
296.3004784836093
 10
513.0858388033394
 20
296.3029096212517
 10
513.0663760322575
 20
296.3031699965724
 10
513.0419353995303
 20
296.3012596548097
 10
513.0127227361509
 20
296.2971907828475
 10
512.9789826922464
 20
296.2910006169644
  0
LINE
  5
FB
330
2
100
AcDbEntity
  8
0
100
AcDbLine
 10
513.0123679483926
 20
296.0574841019588
 30
0.0
 11
513.1112995636929
 21
296.2804526013591
 31
0.0
  0
LINE
  5
FC
330
2
100
AcDbEntity
  8
0
100
AcDbLine
 10
498.1179120572176
 20
293.2486426800673
 30
0.0
 11
501.6013690588414
 21
294.0137864811553
 31
0.0
  0
LINE
  5
FD
330
2
100
AcDbEntity
  8
0
100
AcDbLine
 10
508.1401224387396
 20
284.8676487229874
 30
0.0
 11
502.7627428528977
 21
282.1153800643304
 31
0.0
  0
ARC
  5
FE
330
2
100
AcDbEntity
  8
0
100
AcDbCircle
 10
515.9819866478069
 20
290.0349582295714
 30
0.0
 40
0.5477360197826204
100
AcDbArc
 50
204.7668629205002
 51
259.052939384196
  0
LINE
  5
FF
330
2
100
AcDbEntity
  8
0
100
AcDbLine
 10
515.945833385504
 20
289.4597758360376
 30
0.0
 11
515.8779705241758
 21
289.4971893262327
 31
0.0
  0
LINE
  5
100
330
2
100
AcDbEntity
  8
0
100
AcDbLine
 10
497.7391499572362
 20
293.6818085444955
 30
0.0
 11
501.6276414638438
 21
294.5359225128409
 31
0.0
  0
LINE
  5
101
330
2
100
AcDbEntity
  8
0
100
AcDbLine
 10
513.0107971324743
 20
295.9457987690434
 30
0.0
 11
513.0123679483926
 21
296.0574841019588
 31
0.0
  0
ARC
  5
102
330
2
100
AcDbEntity
  8
0
100
AcDbCircle
 10
513.5361240511608
 20
295.6596820531356
 30
0.0
 40
0.5981898918272269
100
AcDbArc
 50
151.4252972687004
 51
202.3006346135004
  0
ARC
  5
103
330
2
100
AcDbEntity
  8
0
100
AcDbCircle
 10
477.9985150487141
 20
343.7725165967004
 30
0.0
 40
66.16872339159709
100
AcDbArc
 50
297.0988156845968
 51
297.207437602597
  0
LINE
  5
104
330
2
100
AcDbEntity
  8
0
100
AcDbLine
 10
508.2517406500244
 20
284.9248973076329
 30
0.0
 11
509.7312421163317
 21
285.6857457119145
 31
0.0
  0
ARC
  5
105
330
2
100
AcDbEntity
  8
0
100
AcDbCircle
 10
517.7851653239271
 20
270.0287962412847
 30
0.0
 40
17.60698002953544
100
AcDbArc
 50
117.1270400987009
 51
117.2212561924996
  0
LINE
  5
106
330
2
100
AcDbEntity
  8
0
100
AcDbLine
 10
509.7569989845267
 20
285.6989682565037
 30
0.0
 11
516.2384123057656
 21
289.0218923044688
 31
0.0
  0
LINE
  5
107
330
2
100
AcDbEntity
  8
0
100
AcDbLine
 10
512.7948288935822
 20
296.766916313042
 30
0.0
 11
507.715681642029
 21
295.7434290622627
 31
0.0
  0
ARC
  5
108
330
2
100
AcDbEntity
  8
0
100
AcDbCircle
 10
514.6451955250122
 20
292.2011960946658
 30
0.0
 40
3.556165392728918
100
AcDbArc
 50
296.6164237516013
 51
298.5876554392973
  0
LWPOLYLINE
  5
109
330
2
100
AcDbEntity
  8
0
100
AcDbPolyline
 90
        8
 70
   128
 43
0.0
 10
512.7948288935822
 20
296.766916313042
 10
512.8285689374181
 20
296.7731064789252
 10
512.8577825035729
 20
296.7771748995338
 10
512.882222233525
 20
296.7790856927186
 10
512.9016850046066
 20
296.7788253173293
 10
512.916006513078
 20
296.7763937282649
 10
512.9250675934866
 20
296.7718114617278
 10
512.9281929756409
 20
296.7674602984104
  0
LWPOLYLINE
  5
10A
330
2
100
AcDbEntity
  8
0
100
AcDbPolyline
 90
        8
 70
   128
 43
0.0
 10
515.5213411310107
 20
289.7419365418423
 10
515.5860348259579
 20
289.7778369432245
 10
515.656693559186
 20
289.821003227993
 10
515.6927984033672
 20
289.8496051740388
 10
515.6929663181398
 20
289.8625416181515
 10
515.6571918870567
 20
289.8593178555566
 10
515.5868450600671
 20
289.8400564982372
 10
515.4846314324286
 20
289.8054968230252
  0
ARC
  5
10B
330
2
100
AcDbEntity
  8
0
100
AcDbCircle
 10
513.1863537746426
 20
295.0778101333898
 30
0.0
 40
0.4091746862392886
100
AcDbArc
 50
88.77008794939731
 51
119.8531270347984
  0
LINE
  5
10C
330
2
100
AcDbEntity
  8
0
100
AcDbLine
 10
510.4736467611465
 20
296.2991811153988
 30
0.0
 11
509.6404498555707
 21
298.1731392707251
 31
0.0
  0
LINE
  5
10D
330
2
100
AcDbEntity
  8
0
100
AcDbLine
 10
513.0546003290439
 20
287.389599634537
 30
0.0
 11
513.1429144922176
 21
287.1909729725349
 31
0.0
  0
LINE
  5
10E
330
2
100
AcDbEntity
  8
0
100
AcDbLine
 10
513.1429144922176
 20
287.1909729725349
 30
0.0
 11
514.1354589428048
 21
287.5458822244633
 31
0.0
  0
LINE
  5
10F
330
2
100
AcDbEntity
  8
0
100
AcDbLine
 10
514.4729659083785
 20
287.3042436188257
 30
0.0
 11
514.1354589428048
 21
287.5458822244633
 31
0.0
  0
LINE
  5
110
330
2
100
AcDbEntity
  8
0
100
AcDbLine
 10
515.4135506552626
 20
285.1887575591192
 30
0.0
 11
514.4729659083785
 21
287.3042436188257
 31
0.0
  0
LWPOLYLINE
  5
111
330
2
100
AcDbEntity
  8
0
100
AcDbPolyline
 90
        9
 70
   128
 43
0.0
 10
514.9718570630462
 20
281.4190465805991
 10
515.29136103305
 20
281.6492432708191
 10
515.5463261327397
 20
281.9774740671395
 10
515.7279178764645
 20
282.3923673841177
 10
515.8298439725244
 20
282.8795512869297
 10
515.8485745989118
 20
283.4221448322076
 10
515.7834615683526
 20
284.0013486142296
 10
515.6367599947096
 20
284.5971017500546
 10
515.4135506552626
 20
285.1887575591192
  0
LINE
  5
112
330
2
100
AcDbEntity
  8
0
100
AcDbLine
 10
501.8527364877924
 20
274.705239746695
 30
0.0
 11
514.9718570630462
 21
281.4190465805991
 31
0.0
  0
LINE
  5
113
330
2
100
AcDbEntity
  8
0
100
AcDbLine
 10
501.5419157899077
 20
299.5626720511805
 30
0.0
 11
492.4328532361641
 21
297.5613789117694
 31
0.0
  0
ARC
  5
114
330
2
100
AcDbEntity
  8
0
100
AcDbCircle
 10
505.6571382215416
 20
296.634793976348
 30
0.0
 40
4.270044240788292
100
AcDbArc
 50
21.11643990969966
 51
67.48184084850104
  0
ARC
  5
115
330
2
100
AcDbEntity
  8
0
100
AcDbCircle
 10
512.404617856879
 20
281.0103452636369
 30
0.0
 40
1.999176452225809
100
AcDbArc
 50
303.954069368101
 51
3.333990451000327
  0
LINE
  5
116
330
2
100
AcDbEntity
  8
0
100
AcDbLine
 10
513.5212141494248
 20
279.3520572287311
 30
0.0
 11
501.0896307001324
 21
272.9901013364008
 31
0.0
  0
LINE
  5
117
330
2
100
AcDbEntity
  8
0
100
AcDbLine
 10
491.3388148895571
 20
297.9824842373935
 30
0.0
 11
501.5125724509126
 21
300.217694432683
 31
0.0
  0
ARC
  5
118
330
2
100
AcDbEntity
  8
0
100
AcDbCircle
 10
511.0277469513336
 20
279.2839477596288
 30
0.0
 40
1.568420123319931
100
AcDbArc
 50
299.1211505510995
 51
343.818534686
  0
LINE
  5
119
330
2
100
AcDbEntity
  8
0
100
AcDbLine
 10
511.7910309908897
 20
277.9137874922562
 30
0.0
 11
500.6347939371627
 21
272.2044948577855
 31
0.0
  0
LWPOLYLINE
  5
11A
330
2
100
AcDbEntity
  8
0
100
AcDbPolyline
 90
       16
 70
   128
 43
0.0
 10
508.6372897583384
 20
286.8868409485343
 10
508.6177159468506
 20
286.8743687024362
 10
508.2071196586107
 20
286.6882631224212
 10
507.749522231705
 20
286.6137659647716
 10
507.2574056722945
 20
286.6529109876502
 10
506.7441937144592
 20
286.8046296138479
 10
506.2238854655917
 20
287.0647837382474
 10
505.7106735077564
 20
287.4262770699535
 10
505.218556948346
 20
287.8792486064853
 10
504.7609595214402
 20
288.4113431910407
 10
504.3503632332003
 20
289.008045059227
 10
503.9979680467556
 20
289.653077974299
 10
503.713386295118
 20
290.3288499147119
 10
503.504380878598
 20
291.0169245190132
 10
503.376652775919
 20
291.6985342129652
 10
503.3336859936692
 20
292.3550867313471
  0
ELLIPSE
  5
11B
330
2
100
AcDbEntity
  8
0
100
AcDbEllipse
 10
503.73353861506
 20
289.4046583983887
 30
0.0
 11
-2.059359289542295
 21
3.951210161134705
 31
0.0
210
0.0
220
0.0
230
1.0
 40
0.6035364256
 41
1.376901433834835
 42
3.131444470713673
  0
SPLINE
  5
11C
330
2
100
AcDbEntity
  8
0
100
AcDbSpline
210
0.0
220
0.0
230
1.0
 70
     8
 71
     3
 72
    10
 73
     6
 74
     0
 42
0.000000001
 43
0.0000000001
 40
0.0
 40
0.0
 40
0.0
 40
0.0
 40
0.4542022621516711
 40
0.9085434614620719
 40
1.0
 40
1.0
 40
1.0
 40
1.0
 10
500.9967234800752
 20
288.946377147884
 30
0.0
 10
500.9650648253538
 20
289.013636893171
 30
0.0
 10
500.9017378317596
 20
289.1481769580106
 30
0.0
 10
500.799623783597
 20
289.2696542007612
 30
0.0
 10
500.7339018652216
 20
289.2997191924967
 30
0.0
 10
500.7228891791225
 20
289.3047570295645
 30
0.0
  0
LWPOLYLINE
  5
11D
330
2
100
AcDbEntity
  8
0
100
AcDbPolyline
 90
        9
 70
   128
 43
0.0
 10
503.3336859936692
 20
292.3550867313471
 10
503.3582121636568
 20
292.8233391629137
 10
503.4314085771645
 20
293.2597733642546
 10
503.5521354898968
 20
293.6575955104016
 10
503.7185133391709
 20
294.0106116626782
 10
503.9279514071536
 20
294.3133284261953
 10
504.1771886708445
 20
294.5610254001257
 10
504.4623445827954
 20
294.7498447757733
 10
504.6615337536133
 20
294.8383495326338
  0
ELLIPSE
  5
11E
330
2
100
AcDbEntity
  8
0
100
AcDbEllipse
 10
503.2652853496033
 20
289.1705317656604
 30
0.0
 11
-0.7157725035303694
 21
4.504208641645853
 31
0.0
210
0.0
220
0.0
230
1.0
 40
0.7046140494
 41
0.5060573253065543
 42
0.6896980830251608
  0
ELLIPSE
  5
11F
330
2
100
AcDbEntity
  8
0
100
AcDbEllipse
 10
503.73353861506
 20
289.4046583983887
 30
0.0
 11
-2.059359289542295
 21
3.951210161134705
 31
0.0
210
0.0
220
0.0
230
1.0
 40
0.6035364256
 41
0.2364788249045963
 42
0.2768373766489846
  0
LINE
  5
120
330
2
100
AcDbEntity
  8
0
100
AcDbLine
 10
503.3999412512073
 20
294.0682821721344
 30
0.0
 11
501.1728040520493
 21
292.9547135724869
 31
0.0
  0
SPLINE
  5
121
330
2
100
AcDbEntity
  8
0
100
AcDbSpline
210
0.0
220
0.0
230
1.0
 70
     8
 71
     3
 72
    10
 73
     6
 74
     0
 42
0.000000001
 43
0.0000000001
 40
0.0
 40
0.0
 40
0.0
 40
0.0
 40
0.4197628641927463
 40
0.9937224298165304
 40
1.0
 40
1.0
 40
1.0
 40
1.0
 10
503.8650763379222
 20
294.4412971713823
 30
0.0
 10
503.8041099334935
 20
294.3995812139167
 30
0.0
 10
503.6597815788102
 20
294.3008252587073
 30
0.0
 10
503.4917413256486
 20
294.1568656591265
 30
0.0
 10
503.4009238035975
 20
294.0692302967842
 30
0.0
 10
503.3999412512351
 20
294.0682821721233
 30
0.0
  0
ELLIPSE
  5
122
330
2
100
AcDbEntity
  8
0
100
AcDbEllipse
 10
506.1916705022436
 20
290.6337243419805
 30
0.0
 11
-2.276017122295267
 21
3.838975165320432
 31
0.0
210
0.0
220
0.0
230
1.0
 40
0.5710500529
 41
6.242300552538697
 42
6.306541431029763
  0
ELLIPSE
  5
123
330
2
100
AcDbEntity
  8
0
100
AcDbEllipse
 10
501.4566774221833
 20
296.8240054562954
 30
0.0
 11
-1.83832152185386
 21
3.100710710451138
 31
0.0
210
0.0
220
0.0
230
1.0
 40
0.5710500528999999
 41
3.570752517316531
 42
3.96060508396162
  0
ELLIPSE
  5
124
330
2
100
AcDbEntity
  8
0
100
AcDbEllipse
 10
499.2030080712384
 20
295.6855275134001
 30
0.0
 11
-1.58412253041712
 21
3.039392431642103
 31
0.0
210
0.0
220
0.0
230
1.0
 40
0.6035364256
 41
3.378071478494421
 42
3.991341655726395
  0
LINE
  5
125
330
2
100
AcDbEntity
  8
0
100
AcDbLine
 10
502.938735122856
 20
319.287867692884
 30
0.0
 11
504.0055637093578
 21
295.4732288039285
 31
0.0
  0
LINE
  5
126
330
2
100
AcDbEntity
  8
0
100
AcDbLine
 10
500.8839800816032
 20
314.2496480597327
 30
0.0
 11
501.6470857563734
 21
297.2149720037474
 31
0.0
  0
ELLIPSE
  5
127
330
2
100
AcDbEntity
  8
0
100
AcDbEllipse
 10
499.6735516995097
 20
313.5304898446325
 30
0.0
 11
0.8045810802354711
 21
1.513319877128485
 31
0.0
210
0.0
220
0.0
230
1.0
 40
0.5990391722
 41
5.490632514423237
 42
6.982889024878352
  0
LINE
  5
128
330
2
100
AcDbEntity
  8
0
100
AcDbLine
 10
496.3875411229899
 20
313.3397471505208
 30
0.0
 11
499.7052809602702
 21
314.9986170691951
 31
0.0
  0
LINE
  5
129
330
2
100
AcDbEntity
  8
0
100
AcDbLine
 10
501.6470857563734
 20
297.2149720037474
 30
0.0
 11
501.6266335518213
 21
294.3971279263171
 31
0.0
  0
LINE
  5
12A
330
2
100
AcDbEntity
  8
0
100
AcDbLine
 10
485.7966258442234
 20
308.0442895111718
 30
0.0
 11
482.4788860069433
 21
306.3854195924974
 31
0.0
  0
SPLINE
  5
12B
330
2
100
AcDbEntity
  8
0
100
AcDbSpline
210
0.0
220
0.0
230
1.0
 70
     8
 71
     3
 72
    10
 73
     6
 74
     0
 42
0.000000001
 43
0.0000000001
 40
0.0
 40
0.0
 40
0.0
 40
0.0
 40
0.30638084296552
 40
0.6470077640333716
 40
1.0
 40
1.0
 40
1.0
 40
1.0
 10
488.480513335589
 20
310.4210565806304
 30
0.0
 10
488.3176166987732
 20
310.1508820160875
 30
0.0
 10
487.9736154624863
 20
309.5803338081392
 30
0.0
 10
487.0809835825893
 20
308.7642456905635
 30
0.0
 10
486.2298031561331
 20
308.2871102402885
 30
0.0
 10
485.7966258442054
 20
308.0442895111557
 30
0.0
  0
LWPOLYLINE
  5
12C
330
2
100
AcDbEntity
  8
0
100
AcDbPolyline
 90
        9
 70
   128
 43
0.0
 10
491.6340069840773
 20
311.9978034048559
 10
491.0766243748883
 20
311.9083976826004
 10
490.5485573446445
 20
311.7821102844672
 10
490.0595155841416
 20
311.6212633408733
 10
489.6184913095978
 20
311.4288144178336
 10
489.2335934635869
 20
311.2083022805959
 10
488.9118995763989
 20
310.9637814003787
 10
488.6593247801325
 20
310.6997478851882
 10
488.4805133356215
 20
310.4210565806281
  0
SPLINE
  5
12D
330
2
100
AcDbEntity
  8
0
100
AcDbSpline
210
0.0
220
0.0
230
1.0
 70
     8
 71
     3
 72
    10
 73
     6
 74
     0
 42
0.000000001
 43
0.0000000001
 40
0.0
 40
0.0
 40
0.0
 40
0.0
 40
0.30638084296552
 40
0.6470077640333716
 40
1.0
 40
1.0
 40
1.0
 40
1.0
 10
491.6340069840535
 20
311.9978034048626
 30
0.0
 10
492.1743561131393
 20
312.0792517232705
 30
0.0
 10
493.3154525290358
 20
312.2512523414139
 30
0.0
 10
494.947628764187
 20
312.6975682813626
 30
0.0
 10
495.9018996647374
 20
313.1231584945906
 30
0.0
 10
496.3875411230028
 20
313.3397471505544
 30
0.0
  0
ELLIPSE
  5
12E
330
2
100
AcDbEntity
  8
0
100
AcDbEllipse
 10
482.4471575586188
 20
304.9172927741186
 30
0.0
 11
0.8045810802353932
 21
1.513319877128485
 31
0.0
210
0.0
220
0.0
230
1.0
 40
0.5990391722
 41
0.6997037176987672
 42
2.191960228153924
  0
LINE
  5
12F
330
2
100
AcDbEntity
  8
0
100
AcDbLine
 10
481.2417080698753
 20
304.4285120538688
 30
0.0
 11
480.6280236696045
 21
297.1090543685668
 31
0.0
  0
SPLINE
  5
130
330
2
100
AcDbEntity
  8
0
100
AcDbSpline
210
0.0
220
0.0
230
1.0
 70
     8
 71
     3
 72
    10
 73
     6
 74
     0
 42
0.000000001
 43
0.0000000001
 40
0.0
 40
0.0
 40
0.0
 40
0.0
 40
0.3063809142611243
 40
0.6470078479371301
 40
1.0
 40
1.0
 40
1.0
 40
1.0
 10
499.5452762003006
 20
311.7608796119056
 30
0.0
 10
499.1667424276047
 20
311.5515802903102
 30
0.0
 10
498.3673639081103
 20
311.1095870154787
 30
0.0
 10
497.4308899549635
 20
310.3058757274476
 30
0.0
 10
497.0534652538495
 20
309.6949970032693
 30
0.0
 10
496.8613887089168
 20
309.3841125424309
 30
0.0
  0
LWPOLYLINE
  5
131
330
2
100
AcDbEntity
  8
0
100
AcDbPolyline
 90
        9
 70
   128
 43
0.0
 10
493.7078950604461
 20
307.8073657182159
 10
494.2652776696349
 20
307.8967714404713
 10
494.7933446998788
 20
308.0230588386045
 10
495.2823864603817
 20
308.1839057821984
 10
495.7234107349257
 20
308.3763547052381
 10
496.1083085809366
 20
308.5968668424758
 10
496.4300024681245
 20
308.841387722693
 10
496.6825772643908
 20
309.105421237815
 10
496.8613887089016
 20
309.3841125424436
  0
SPLINE
  5
132
330
2
100
AcDbEntity
  8
0
100
AcDbSpline
210
0.0
220
0.0
230
1.0
 70
     8
 71
     3
 72
    10
 73
     6
 74
     0
 42
0.000000001
 43
0.0000000001
 40
0.0
 40
0.0
 40
0.0
 40
0.0
 40
0.3063809142611243
 40
0.6470078479371301
 40
1.0
 40
1.0
 40
1.0
 40
1.0
 10
488.9543609215031
 20
306.4654219725068
 30
0.0
 10
489.3729595646939
 20
306.6546888588547
 30
0.0
 10
490.256946114357
 20
307.054378118602
 30
0.0
 10
491.8643686904191
 20
307.5226150951754
 30
0.0
 10
493.0861261387758
 20
307.7113274457325
 30
0.0
 10
493.7078950604525
 20
307.8073657181988
 30
0.0
  0
LINE
  5
133
330
2
100
AcDbEntity
  8
0
100
AcDbLine
 10
488.9543609215333
 20
306.4654219724824
 30
0.0
 11
485.6366210842533
 21
304.8065520538766
 31
0.0
  0
LINE
  5
134
330
2
100
AcDbEntity
  8
0
100
AcDbLine
 10
499.5452762003
 20
311.7608796119
 30
0.0
 11
500.9636995567761
 21
312.470091290138
 31
0.0
  0
SPLINE
  5
135
330
2
100
AcDbEntity
  8
0
100
AcDbSpline
210
0.0
220
0.0
230
1.0
 70
     8
 71
     3
 72
    11
 73
     7
 74
     0
 42
0.000000001
 43
0.0000000001
 40
0.0
 40
0.0
 40
0.0
 40
0.0
 40
0.1980443463972959
 40
0.3982966145169579
 40
0.7127538866679439
 40
1.0
 40
1.0
 40
1.0
 40
1.0
 10
491.6978174335628
 20
315.1336533106607
 30
0.0
 10
492.048884088932
 20
315.182699844437
 30
0.0
 10
492.7549313094007
 20
315.281339713296
 30
0.0
 10
493.959918950536
 20
315.5416308691029
 30
0.0
 10
495.2468932560394
 20
315.9119893270532
 30
0.0
 10
496.0683787552921
 20
316.2842915718295
 30
0.0
 10
496.4987475592607
 20
316.5154768860773
 30
0.0
  0
LINE
  5
136
330
2
100
AcDbEntity
  8
0
100
AcDbLine
 10
484.4579219629202
 20
302.8204051073462
 30
0.0
 11
484.2625301720159
 21
298.0684593782235
 31
0.0
  0
ELLIPSE
  5
137
330
2
100
AcDbEntity
  8
0
100
AcDbEllipse
 10
485.6683503449452
 20
303.3066963809212
 30
0.0
 11
0.7258726892008369
 21
1.552629575155815
 31
0.0
210
0.0
220
0.0
230
1.0
 40
0.6252013992000001
 41
0.6682574245714699
 42
2.160513935026629
  0
LWPOLYLINE
  5
138
330
2
100
AcDbEntity
  8
0
100
AcDbPolyline
 90
        7
 70
   128
 43
0.0
 10
503.3336859936692
 20
292.3550867313471
 10
503.3744822964043
 20
292.953615067772
 10
503.4958145148906
 20
293.495847795457
 10
503.6945401144479
 20
293.967735414037
 10
503.9655121901031
 20
294.3570620645801
 10
504.301713076243
 20
294.6537458042057
 10
504.6615337536133
 20
294.8383495326338
  0
LWPOLYLINE
  5
139
330
2
100
AcDbEntity
  8
0
100
AcDbPolyline
 90
       16
 70
   128
 43
0.0
 10
508.6372897583384
 20
286.8868409485343
 10
508.4764661879961
 20
286.7949776008065
 10
508.0592163881864
 20
286.6508659264606
 10
507.6011703985316
 20
286.6136945851343
 10
507.1141912649875
 20
286.6844269510653
 10
506.6108915424585
 20
286.8612324595634
 10
506.1043064222014
 20
287.1395262089689
 10
505.6075562095499
 20
287.5121067637456
 10
505.1335065164985
 20
287.9693216352347
 10
504.6944347876931
 20
288.4993268943697
 10
504.301713076243
 20
289.0884005759148
 10
503.9655121901031
 20
289.7212807791023
 10
503.6945401144479
 20
290.3815795052322
 10
503.4958145148906
 20
291.0521971460159
 10
503.3744822964043
 20
291.7157620921872
 10
503.3336859936692
 20
292.3550867313471
  0
LWPOLYLINE
  5
13A
330
2
100
AcDbEntity
  8
0
100
AcDbPolyline
 90
       10
 70
   128
 43
0.0
 10
510.489667504316
 20
289.6170256597017
 10
510.4488748126137
 20
289.1174034599695
 10
510.3244754405364
 20
288.577955916465
 10
510.120917099217
 20
288.1113726532916
 10
509.8437518108205
 20
287.7303790160654
 10
509.5005404812013
 20
287.4453691159438
 10
509.1006448126233
 20
287.2641118361885
 10
508.6549729484025
 20
287.1915551565887
 10
508.1756815597907
 20
287.2296832160442
 10
507.7962981016392
 20
287.3323815976401
  0
LWPOLYLINE
  5
13B
330
2
100
AcDbEntity
  8
0
100
AcDbPolyline
 90
       12
 70
   128
 43
0.0
 10
504.5054424920827
 20
293.8728326324652
 10
504.5204652253817
 20
293.9202902701603
 10
504.7240235666325
 20
294.3868735333337
 10
505.0011888550978
 20
294.7678671705599
 10
505.3444001847169
 20
295.0528814933278
 10
505.744295853295
 20
295.2341387730831
 10
506.1899677175156
 20
295.3066910300365
 10
506.6692591061276
 20
295.2685673932274
 10
507.1690961358187
 20
295.1208030390967
 10
507.6758445300995
 20
294.8674288419564
 10
508.1756815597907
 20
294.5153561663958
 10
508.1781421098411
 20
294.5133607745055
  0
ARC
  5
13C
330
2
100
AcDbEntity
  8
0
100
AcDbCircle
 10
504.2929832223287
 20
289.6626165036627
 30
0.0
 40
6.203616072644014
100
AcDbArc
 50
6.088416415800216
 51
54.79128979640365
  0
LWPOLYLINE
  5
13D
330
2
100
AcDbEntity
  8
0
100
AcDbPolyline
 90
       35
 70
   128
 43
0.0
 10
505.1423700036439
 20
292.5292552411188
 10
505.1835781941457
 20
293.0533038014893
 10
505.3057994132894
 20
293.5182972914222
 10
505.5048714499159
 20
293.9084006979904
 10
505.7740154208083
 20
294.2103345290351
 10
506.104065749947
 20
294.413812653718
 10
506.4837829782792
 20
294.5119033465111
 10
506.9002363675939
 20
294.5012714042609
 10
507.3392440563098
 20
294.382276498116
 10
507.7858561531908
 20
294.1589704497097
 10
508.2248638419064
 20
293.8389576670704
 10
508.6413172312211
 20
293.4331362200743
 10
509.0210344595533
 20
292.9553282988806
 10
509.351084788692
 20
292.421799845059
 10
509.6202287595158
 20
291.8507220431905
 10
509.819300796211
 20
291.2615465999271
 10
509.9415220152861
 20
290.6743318909192
 10
509.9827302058564
 20
290.1090751399782
 10
509.9415220152861
 20
289.5850265796077
 10
509.819300796211
 20
289.1200330896063
 10
509.6202287595158
 20
288.7299252604602
 10
509.351084788692
 20
288.427991429347
 10
509.0210344595533
 20
288.2245177273105
 10
508.6413172312211
 20
288.126422611871
 10
508.2248638419064
 20
288.1370589767676
 10
507.7858561531908
 20
288.2560538829125
 10
507.3392440563098
 20
288.4793599313873
 10
506.9002363675939
 20
288.7993727139581
 10
506.4837829782792
 20
289.2051897383763
 10
506.104065749947
 20
289.6830020821478
 10
505.7740154208083
 20
290.2165261133232
 10
505.5048714499159
 20
290.7876039152601
 10
505.3057994132894
 20
291.3767837811014
 10
505.1835781941457
 20
291.9639984901778
 10
505.1423700036439
 20
292.5292552411188
  0
ELLIPSE
  5
13E
330
2
100
AcDbEntity
  8
0
100
AcDbEllipse
 10
503.5684031446216
 20
338.1099454631006
 30
0.0
 11
-0.133588250479787
 21
0.3160502052338889
 31
0.0
210
0.0
220
0.0
230
1.0
 40
0.6414579437
 41
0.0409212336940158
 42
0.8397318948866292
  0
ARC
  5
13F
330
2
100
AcDbEntity
  8
0
100
AcDbCircle
 10
503.3386423546488
 20
338.2174767251203
 30
0.0
 40
0.0410189590528495
100
AcDbArc
 50
104.6271207017991
 51
165.5173517150998
  0
LWPOLYLINE
  5
140
330
2
100
AcDbEntity
  8
0
100
AcDbPolyline
 90
       10
 70
   128
 43
0.0
 10
500.0228955500894
 20
339.1223596844168
 10
500.0535543345981
 20
339.1314239809838
 10
500.4668334230699
 20
339.2170166941607
 10
500.9103370647483
 20
339.2462108508173
 10
501.3538407063582
 20
339.2170166941607
 10
501.7671202179439
 20
339.1314236565714
 10
502.1220118112961
 20
338.9952650426218
 10
502.3943290391952
 20
338.81781924598
 10
502.5655151144424
 20
338.6111794901529
 10
502.5949524541393
 20
338.5462569999546
  0
ELLIPSE
  5
141
330
2
100
AcDbEntity
  8
0
100
AcDbEllipse
 10
500.0621650765914
 20
338.8653729514178
 30
0.0
 11
0.5140699258048632
 21
0.0
 31
0.0
210
0.0
220
0.0
230
1.0
 40
0.5013714068999998
 41
0.7867676912678716
 42
2.354824962321814
  0
LINE
  5
142
330
2
100
AcDbEntity
  8
0
100
AcDbLine
 10
500.4251694476161
 20
339.0478719803076
 30
0.0
 11
500.4251694476161
 21
326.8145768270515
 31
0.0
  0
LINE
  5
143
330
2
100
AcDbEntity
  8
0
100
AcDbLine
 10
500.4251694476161
 20
339.0478719803076
 30
0.0
 11
513.2681265810192
 21
332.6263934135718
 31
0.0
  0
LINE
  5
144
330
2
100
AcDbEntity
  8
0
100
AcDbLine
 10
472.0737750120822
 20
325.235179050526
 30
0.0
 11
499.6991613229987
 21
339.0478722060185
 31
0.0
  0
ARC
  5
145
330
2
100
AcDbEntity
  8
0
100
AcDbCircle
 10
500.1769488466517
 20
326.8269425001482
 30
0.0
 40
0.2485284221375997
100
AcDbArc
 50
300.7897521409002
 51
357.1480383386988
  0
ELLIPSE
  5
146
330
2
100
AcDbEntity
  8
0
100
AcDbEllipse
 10
500.0621650765914
 20
326.4917773353633
 30
0.0
 11
0.3427132838698568
 21
0.0
 31
0.0
210
0.0
220
0.0
230
1.0
 40
0.5013714068999999
 41
0.7867676912678194
 42
2.354824962321813
  0
ARC
  5
147
330
2
100
AcDbEntity
  8
0
100
AcDbCircle
 10
496.0236592139018
 20
315.3595534914721
 30
0.0
 40
4.522005906867001
100
AcDbArc
 50
37.03095562999819
 51
65.74695689240103
  0
LWPOLYLINE
  5
148
330
2
100
AcDbEntity
  8
0
100
AcDbPolyline
 90
       20
 70
   128
 43
0.0
 10
485.3059891468874
 20
316.7658737318165
 10
485.3353164617747
 20
317.2240588605971
 10
485.4800687340086
 20
317.6810244628692
 10
485.7382260206788
 20
318.1253153180573
 10
486.1057161619008
 20
318.5499251580267
 10
486.5767438397167
 20
318.9481574769347
 10
487.1438807703614
 20
319.3137320154022
 10
487.7981831203705
 20
319.6408831903725
 10
488.5293321972372
 20
319.9244516556949
 10
489.3257968350532
 20
320.1599654946028
 10
490.1750165150603
 20
320.3437105652481
 10
491.0635982254366
 20
320.4727892085832
 10
491.9775294299808
 20
320.5451653447002
 10
492.9023960866752
 20
320.5596978751063
 10
493.8236124017804
 20
320.5161576096075
 10
494.7266512614052
 20
320.4152312160105
 10
495.5972699236947
 20
320.2585101610394
 10
496.4217390958603
 20
320.0484662230597
 10
497.1870559875139
 20
319.7884117698275
 10
497.8811512702832
 20
319.4824481884331
  0
ELLIPSE
  5
149
330
2
100
AcDbEntity
  8
0
100
AcDbEllipse
 10
473.4021593688394
 20
313.1576367285379
 30
0.0
 11
0.3436532825996208
 21
0.0
 31
0.0
210
0.0
220
0.0
230
1.0
 40
0.4986323443
 41
2.357564018062773
 42
3.925621289116911
  0
LINE
  5
14A
330
2
100
AcDbEntity
  8
0
100
AcDbLine
 10
499.8201620000372
 20
326.6134435688646
 30
0.0
 11
473.1588272356471
 21
313.2786381162771
 31
0.0
  0
LINE
  5
14B
330
2
100
AcDbEntity
  8
0
100
AcDbLine
 10
512.3725224491147
 20
320.5760979155081
 30
0.0
 11
500.3041678678023
 21
326.6134437945756
 31
0.0
  0
LWPOLYLINE
  5
14C
330
2
100
AcDbEntity
  8
0
100
AcDbPolyline
 90
       10
 70
   128
 43
0.0
 10
486.7622728923661
 20
311.7142315612031
 10
486.4914457109521
 20
311.925923163277
 10
486.0821366567538
 20
312.3275805832823
 10
485.7767369667491
 20
312.7517205890429
 10
485.5800629070333
 20
313.1916545739148
 10
485.4952167264083
 20
313.6404445981558
 10
485.5235361009648
 20
314.0910126235742
 10
485.6645746121736
 20
314.5362531904611
 10
485.9161076144113
 20
314.9691444580639
 10
486.2156876117983
 20
315.3241520852921
  0
ELLIPSE
  5
14D
330
2
100
AcDbEntity
  8
0
100
AcDbEllipse
 10
512.9031285233081
 20
332.4448912280936
 30
0.0
 11
0.5154799238994312
 21
0.0
 31
0.0
210
0.0
220
0.0
230
1.0
 40
0.4986323443
 41
6.240537456020986
 42
7.067213942706579
  0
ELLIPSE
  5
14E
330
2
100
AcDbEntity
  8
0
100
AcDbEllipse
 10
472.4387735212152
 20
325.053677173764
 30
0.0
 11
0.5154799238994312
 21
0.0
 31
0.0
210
0.0
220
0.0
230
1.0
 40
0.4986323443
 41
2.357564018062852
 42
3.184240504748441
  0
LINE
  5
14F
330
2
100
AcDbEntity
  8
0
100
AcDbLine
 10
477.032473290554
 20
293.4165216776122
 30
0.0
 11
476.9304667352851
 21
293.333961820172
 31
0.0
  0
LWPOLYLINE
  5
150
330
2
100
AcDbEntity
  8
0
100
AcDbPolyline
 90
       26
 70
   128
 43
0.0
 10
491.0864305773094
 20
298.0503676872908
 10
492.1112015816027
 20
297.6791095556015
 10
493.1853210337124
 20
297.1824584943584
 10
494.2343214230874
 20
296.5847652732329
 10
495.2508479004404
 20
295.8902171511324
 10
496.2277690514254
 20
295.1036864662265
 10
497.1582319657277
 20
294.2306922773509
 10
498.0357109862457
 20
293.2773605603966
 10
498.8540501393265
 20
292.2503751077081
 10
499.6075096273182
 20
291.1569387616597
 10
500.2908062272693
 20
290.0047190104981
 10
500.8991444366428
 20
288.8018042566191
 10
501.4282586775675
 20
287.5566290134305
 10
501.8744378972751
 20
286.2779253211518
 10
502.2345514099178
 20
284.9746646970098
 10
502.5060741739336
 20
283.6559897164382
 10
502.6871015185047
 20
282.3311471674009
 10
502.776363254572
 20
281.0094329752693
 10
502.77323307121
 20
279.7001146632573
 10
502.677734399726
 20
278.4123740807131
 10
502.4905348317516
 20
277.1552503476633
 10
502.2129491920095
 20
275.9375574426869
 10
501.8469237915978
 20
274.767837372721
 10
501.3950259891502
 20
273.6542966997508
 10
500.8604263053817
 20
272.6047430894328
 10
500.4326563267162
 20
271.902408683215
  0
LINE
  5
151
330
2
100
AcDbEntity
  8
0
100
AcDbLine
 10
502.1603926459254
 20
285.4854255303695
 30
0.0
 11
502.6452209916432
 21
284.3949920685474
 31
0.0
  0
LINE
  5
152
330
2
100
AcDbEntity
  8
0
100
AcDbLine
 10
500.0519695257651
 20
292.594835507503
 30
0.0
 11
500.4855264717681
 21
291.6197156360155
 31
0.0
  0
LINE
  5
153
330
2
100
AcDbEntity
  8
0
100
AcDbLine
 10
499.1702815760305
 20
292.2105370378948
 30
0.0
 11
499.5747003370361
 21
291.3009483506288
 31
0.0
  0
LINE
  5
154
330
2
100
AcDbEntity
  8
0
100
AcDbLine
 10
498.4425429583845
 20
292.8571994322831
 30
0.0
 11
501.4489196472188
 21
293.5175581954744
 31
0.0
  0
LINE
  5
155
330
2
100
AcDbEntity
  8
0
100
AcDbLine
 10
515.4846314324286
 20
289.8054968230252
 30
0.0
 11
502.6323033435033
 21
283.2273804892825
 31
0.0
  0
LINE
  5
156
330
2
100
AcDbEntity
  8
0
100
AcDbLine
 10
512.9826754640021
 20
295.432689084049
 30
0.0
 11
508.3109902037392
 21
294.406546207254
 31
0.0
  0
LINE
  5
157
330
2
100
AcDbEntity
  8
0
100
AcDbLine
 10
501.052398976084
 20
292.8121876212645
 30
0.0
 11
500.7378439791897
 21
292.7430966653215
 31
0.0
  0
LINE
  5
158
330
2
100
AcDbEntity
  8
0
100
AcDbLine
 10
500.035056163914
 20
292.5887261991301
 30
0.0
 11
498.8548978383037
 21
292.3295035070624
 31
0.0
  0
ELLIPSE
  5
159
330
2
100
AcDbEntity
  8
0
100
AcDbEllipse
 10
502.5758554405883
 20
319.0719961279944
 30
0.0
 11
0.2376193416423055
 21
0.4559083764291504
 31
0.0
210
0.0
220
0.0
230
1.0
 40
0.6035352904
 41
5.485797430235768
 42
6.284418309455515
  0
LWPOLYLINE
  5
15A
330
2
100
AcDbEntity
  8
0
100
AcDbPolyline
 90
       14
 70
   128
 43
0.0
 10
507.7962981016392
 20
287.3323815976401
 10
507.6758445300995
 20
287.377447570175
 10
507.1690961358187
 20
287.6308217673153
 10
506.6692591061276
 20
287.9828944428759
 10
506.1899677175156
 20
288.4240577720323
 10
505.744295853295
 20
288.9422863158527
 10
505.3444001847169
 20
289.5234392642545
 10
505.0011888550978
 20
290.1516604939267
 10
504.7240235666325
 20
290.8098194196182
 10
504.5204652253817
 20
291.4799610240424
 10
504.3960658533044
 20
292.1438079396927
 10
504.3542187287875
 20
292.7832511067217
 10
504.3960658533044
 20
293.3808427266558
 10
504.5054424920827
 20
293.8728326324652
  0
LINE
  5
15B
330
2
100
AcDbEntity
  8
0
100
AcDbLine
 10
503.5278307236573
 20
337.4965413366322
 30
0.0
 11
503.5278309493683
 21
338.0632401239027
 31
0.0
  0
ARC
  5
15C
330
2
100
AcDbEntity
  8
0
100
AcDbCircle
 10
503.5814855878148
 20
338.0649528081781
 30
0.0
 40
0.0536819663838769
100
AcDbArc
 50
120.4565069423966
 51
181.8282906006005
  0
LINE
  5
15D
330
2
100
AcDbEntity
  8
0
100
AcDbLine
 10
504.5186899325301
 20
337.6749990616907
 30
0.0
 11
504.5186898196403
 21
338.8523691871065
 31
0.0
  0
ELLIPSE
  5
15E
330
2
100
AcDbEntity
  8
0
100
AcDbEllipse
 10
504.7613965052784
 20
338.7064421434289
 30
0.0
 11
-0.1705318608277073
 21
0.2976923073474784
 31
0.0
210
0.0
220
0.0
230
1.0
 40
0.5805185719
 41
6.252134387652187
 42
7.049134881232111
  0
LWPOLYLINE
  5
15F
330
2
100
AcDbEntity
  8
0
100
AcDbPolyline
 90
       16
 70
   128
 43
0.0
 10
486.2156876117983
 20
315.3241520852921
 10
486.2741687972585
 20
315.3828594704987
 10
486.7331105582829
 20
315.7708739812719
 10
487.285695859316
 20
316.1270683531807
 10
487.9232099442657
 20
316.4458253956899
 10
488.6355986880833
 20
316.7221180462064
 10
489.4116277096982
 20
316.9515889267186
 10
490.2390577345679
 20
317.1306195181422
 10
491.1048402697734
 20
317.2563860192268
 10
491.9953214035472
 20
317.3269052748655
 10
492.8964574543843
 20
317.3410649621437
 10
493.7940375027974
 20
317.2986418718312
 10
494.67390547261
 20
317.2003048420076
 10
495.5221854841312
 20
317.0476049969709
 10
496.3255003240732
 20
316.8429504698718
 10
496.8276927878247
 20
316.6799499313556
  0
ARC
  5
160
330
2
100
AcDbEntity
  8
0
100
AcDbCircle
 10
504.8281695294723
 20
289.7435704156874
 30
0.0
 40
5.662912050740943
100
AcDbArc
 50
358.7195485406759
 51
11.35477096511661
  0
ARC
  5
161
330
2
100
AcDbEntity
  8
0
100
AcDbCircle
 10
506.2511579296252
 20
291.1203794513677
 30
0.0
 40
5.686418760594992
100
AcDbArc
 50
167.7765609836811
 51
202.4771280177591
  0
ARC
  5
162
330
2
100
AcDbEntity
  8
0
100
AcDbCircle
 10
484.5879275352457
 20
279.0341689772558
 30
0.0
 40
10.84129371795035
100
AcDbArc
 50
295.6540569564993
 51
316.8422656789076
  0
ENDSEC
  0
SECTION
  2
OBJECTS
  0
DICTIONARY
  5
9
330
0
100
AcDbDictionary
281
     1
  3
ACAD_COLOR
350
3E
  3
ACAD_GROUP
350
35
  3
ACAD_LAYOUT
350
16
  3
ACAD_MATERIAL
350
B
  3
ACAD_MLEADERSTYLE
350
41
  3
ACAD_MLINESTYLE
350
36
  3
ACAD_PLOTSETTINGS
350
37
  3
ACAD_PLOTSTYLENAME
350
8
  3
ACAD_SCALELIST
350
3F
  3
ACAD_TABLESTYLE
350
40
  3
ACAD_VISUALSTYLE
350
2B
  3
ACDB_RECOMPOSE_DATA
350
16A
  3
AcDbVariableDictionary
350
163
  0
DICTIONARY
  5
1E
330
1D
100
AcDbDictionary
280
     1
281
     1
  3
ACAD_LAYERSTATES
360
1F
  0
DICTIONARY
  5
6
330
5
100
AcDbDictionary
280
     1
281
     1
  0
DICTIONARY
  5
3
330
2
100
AcDbDictionary
280
     1
281
     1
  0
DICTIONARY
  5
3E
102
{ACAD_REACTORS
330
9
102
}
330
9
100
AcDbDictionary
281
     1
  0
DICTIONARY
  5
35
102
{ACAD_REACTORS
330
9
102
}
330
9
100
AcDbDictionary
281
     1
  0
DICTIONARY
  5
16
102
{ACAD_REACTORS
330
9
102
}
330
9
100
AcDbDictionary
281
     1
  3
Model
350
15
  3
レイアウト1
350
1C
  0
DICTIONARY
  5
B
102
{ACAD_REACTORS
330
9
102
}
330
9
100
AcDbDictionary
281
     1
  3
ByBlock
350
3B
  3
ByLayer
350
38
  3
Global
350
A
  0
DICTIONARY
  5
41
102
{ACAD_REACTORS
330
9
102
}
330
9
100
AcDbDictionary
281
     1
  0
DICTIONARY
  5
36
102
{ACAD_REACTORS
330
9
102
}
330
9
100
AcDbDictionary
281
     1
  3
Standard
350
42
  0
DICTIONARY
  5
37
102
{ACAD_REACTORS
330
9
102
}
330
9
100
AcDbDictionary
281
     1
  0
ACDBDICTIONARYWDFLT
  5
8
102
{ACAD_REACTORS
330
9
102
}
330
9
100
AcDbDictionary
281
     1
  3
Normal
350
7
100
AcDbDictionaryWithDefault
340
7
  0
DICTIONARY
  5
3F
102
{ACAD_REACTORS
330
9
102
}
330
9
100
AcDbDictionary
281
     1
  3
A0
350
47
  3
A1
350
48
  3
A2
350
49
  3
A3
350
4A
  3
A4
350
4B
  3
A5
350
4C
  3
A6
350
4D
  3
A7
350
4E
  3
A8
350
4F
  3
A9
350
50
  3
B0
350
51
  3
B1
350
52
  3
B2
350
53
  3
B3
350
54
  3
B4
350
55
  3
B5
350
56
  3
B6
350
57
  0
DICTIONARY
  5
40
102
{ACAD_REACTORS
330
9
102
}
330
9
100
AcDbDictionary
281
     1
  3
Standard
350
43
  0
DICTIONARY
  5
2B
102
{ACAD_REACTORS
330
9
102
}
330
9
100
AcDbDictionary
281
     1
  3
2dWireframe
350
2A
  3
Realistic
350
45
  3
Wireframe
350
46
  0
XRECORD
  5
16A
102
{ACAD_REACTORS
330
9
102
}
330
9
100
AcDbXrecord
280
     1
 90
        1
330
43
  0
DICTIONARY
  5
163
102
{ACAD_REACTORS
330
9
102
}
330
9
100
AcDbDictionary
281
     1
  3
CANNOSCALE
350
168
  3
CMLEADERSTYLE
350
165
  3
CTABLESTYLE
350
164
  3
CVIEWDETAILSTYLE
350
166
  3
CVIEWSECTIONSTYLE
350
167
  0
DICTIONARY
  5
1F
102
{ACAD_REACTORS
330
1E
102
}
330
1E
100
AcDbDictionary
281
     1
  0
LAYOUT
  5
15
102
{ACAD_XDICTIONARY
360
17
102
}
102
{ACAD_REACTORS
330
16
102
}
330
16
100
AcDbPlotSettings
  1

  2
none_device
  4
ISO_A4_(210.00_x_297.00_MM)
  6

 40
7.5
 41
20.0
 42
7.5
 43
20.0
 44
210.0
 45
297.0
 46
11.54999923706054
 47
-13.65000009536743
 48
0.0
 49
0.0
140
0.0
141
0.0
142
1.0
143
8.704084754739808
 70
 11952
 72
     1
 73
     0
 74
     0
  7

 75
     0
147
0.1148885871608098
 76
     0
 77
     2
 78
   300
148
0.0
149
0.0
100
AcDbLayout
  1
Model
 70
     1
 71
     0
 10
0.0
 20
0.0
 11
12.0
 21
9.0
 12
0.0
 22
0.0
 32
0.0
 14
0.0
 24
0.0
 34
0.0
 15
0.0
 25
0.0
 35
0.0
146
0.0
 13
0.0
 23
0.0
 33
0.0
 16
1.0
 26
0.0
 36
0.0
 17
0.0
 27
1.0
 37
0.0
 76
     0
330
2
331
29
1001
ACAD_PSEXT
1000
None
1000
None
1000
Not applicable
1000
The layout will not be plotted unless a new plotter configuration name is selected.
1070
     0
  0
LAYOUT
  5
1C
102
{ACAD_REACTORS
330
16
102
}
330
16
100
AcDbPlotSettings
  1

  2
C:\Documents and Settings\basas\Application Data\Autodesk\AutoCAD 2005\R16.1\enu\plotters\Default Windows System Printer.pc3
  4

  6

 40
0.0
 41
0.0
 42
0.0
 43
0.0
 44
0.0
 45
0.0
 46
0.0
 47
0.0
 48
0.0
 49
0.0
140
0.0
141
0.0
142
1.0
143
1.0
 70
   688
 72
     0
 73
     0
 74
     5
  7

 75
    16
147
1.0
 76
     0
 77
     2
 78
   300
148
0.0
149
0.0
100
AcDbLayout
  1
レイアウト1
 70
     1
 71
     1
 10
0.0
 20
0.0
 11
12.0
 21
9.0
 12
0.0
 22
0.0
 32
0.0
 14
0.0
 24
0.0
 34
0.0
 15
0.0
 25
0.0
 35
0.0
146
0.0
 13
0.0
 23
0.0
 33
0.0
 16
1.0
 26
0.0
 36
0.0
 17
0.0
 27
1.0
 37
0.0
 76
     0
330
19
  0
MATERIAL
  5
3B
102
{ACAD_XDICTIONARY
360
3C
102
}
102
{ACAD_REACTORS
330
B
102
}
330
B
100
AcDbMaterial
  1
ByBlock
 94
       63
  0
MATERIAL
  5
38
102
{ACAD_XDICTIONARY
360
39
102
}
102
{ACAD_REACTORS
330
B
102
}
330
B
100
AcDbMaterial
  1
ByLayer
 94
       63
  0
MATERIAL
  5
A
102
{ACAD_XDICTIONARY
360
C
102
}
102
{ACAD_REACTORS
330
B
102
}
330
B
100
AcDbMaterial
  1
Global
 43
0.0007999999797903
 43
0.0
 43
0.0
 43
0.0
 43
0.0
 43
0.0007999999797903
 43
0.0
 43
0.0
 43
0.0
 43
0.0
 43
1.0
 43
0.0
 43
0.0
 43
0.0
 43
0.0
 43
1.0
 49
0.0007999999797903
 49
0.0
 49
0.0
 49
0.0
 49
0.0
 49
0.0007999999797903
 49
0.0
 49
0.0
 49
0.0
 49
0.0
 49
1.0
 49
0.0
 49
0.0
 49
0.0
 49
0.0
 49
1.0
142
0.0007999999797903
142
0.0
142
0.0
142
0.0
142
0.0
142
0.0007999999797903
142
0.0
142
0.0
142
0.0
142
0.0
142
1.0
142
0.0
142
0.0
142
0.0
142
0.0
142
1.0
144
0.0007999999797903
144
0.0
144
0.0
144
0.0
144
0.0
144
0.0007999999797903
144
0.0
144
0.0
144
0.0
144
0.0
144
1.0
144
0.0
144
0.0
144
0.0
144
0.0
144
1.0
 94
       63
1001
ACAD
1070
    -1
1070
     3
1070
     0
1000

1071
        0
1070
     0
  0
MLINESTYLE
  5
42
102
{ACAD_REACTORS
330
36
102
}
330
36
100
AcDbMlineStyle
  2
STANDARD
 70
     0
  3

 62
   256
 51
90.0
 52
90.0
 71
     2
 49
0.5
 62
   256
  6
BYLAYER
 49
-0.5
 62
   256
  6
BYLAYER
  0
ACDBPLACEHOLDER
  5
7
102
{ACAD_REACTORS
330
8
102
}
330
8
  0
SCALE
  5
47
102
{ACAD_REACTORS
330
3F
102
}
330
3F
100
AcDbScale
 70
     0
300
1:1
140
1.0
141
1.0
290
     1
  0
SCALE
  5
48
102
{ACAD_REACTORS
330
3F
102
}
330
3F
100
AcDbScale
 70
     0
300
1:2
140
1.0
141
2.0
290
     0
  0
SCALE
  5
49
102
{ACAD_REACTORS
330
3F
102
}
330
3F
100
AcDbScale
 70
     0
300
1:4
140
1.0
141
4.0
290
     0
  0
SCALE
  5
4A
102
{ACAD_REACTORS
330
3F
102
}
330
3F
100
AcDbScale
 70
     0
300
1:5
140
1.0
141
5.0
290
     0
  0
SCALE
  5
4B
102
{ACAD_REACTORS
330
3F
102
}
330
3F
100
AcDbScale
 70
     0
300
1:8
140
1.0
141
8.0
290
     0
  0
SCALE
  5
4C
102
{ACAD_REACTORS
330
3F
102
}
330
3F
100
AcDbScale
 70
     0
300
1:10
140
1.0
141
10.0
290
     0
  0
SCALE
  5
4D
102
{ACAD_REACTORS
330
3F
102
}
330
3F
100
AcDbScale
 70
     0
300
1:16
140
1.0
141
16.0
290
     0
  0
SCALE
  5
4E
102
{ACAD_REACTORS
330
3F
102
}
330
3F
100
AcDbScale
 70
     0
300
1:20
140
1.0
141
20.0
290
     0
  0
SCALE
  5
4F
102
{ACAD_REACTORS
330
3F
102
}
330
3F
100
AcDbScale
 70
     0
300
1:30
140
1.0
141
30.0
290
     0
  0
SCALE
  5
50
102
{ACAD_REACTORS
330
3F
102
}
330
3F
100
AcDbScale
 70
     0
300
1:40
140
1.0
141
40.0
290
     0
  0
SCALE
  5
51
102
{ACAD_REACTORS
330
3F
102
}
330
3F
100
AcDbScale
 70
     0
300
1:50
140
1.0
141
50.0
290
     0
  0
SCALE
  5
52
102
{ACAD_REACTORS
330
3F
102
}
330
3F
100
AcDbScale
 70
     0
300
1:100
140
1.0
141
100.0
290
     0
  0
SCALE
  5
53
102
{ACAD_REACTORS
330
3F
102
}
330
3F
100
AcDbScale
 70
     0
300
2:1
140
2.0
141
1.0
290
     0
  0
SCALE
  5
54
102
{ACAD_REACTORS
330
3F
102
}
330
3F
100
AcDbScale
 70
     0
300
4:1
140
4.0
141
1.0
290
     0
  0
SCALE
  5
55
102
{ACAD_REACTORS
330
3F
102
}
330
3F
100
AcDbScale
 70
     0
300
8:1
140
8.0
141
1.0
290
     0
  0
SCALE
  5
56
102
{ACAD_REACTORS
330
3F
102
}
330
3F
100
AcDbScale
 70
     0
300
10:1
140
10.0
141
1.0
290
     0
  0
SCALE
  5
57
102
{ACAD_REACTORS
330
3F
102
}
330
3F
100
AcDbScale
 70
     0
300
100:1
140
100.0
141
1.0
290
     0
  0
TABLESTYLE
  5
43
102
{ACAD_XDICTIONARY
360
44
102
}
102
{ACAD_REACTORS
330
40
102
}
330
40
100
AcDbTableStyle
280
     0
  3
Standard
 70
     0
 71
     0
 40
1.5
 41
1.5
280
     0
281
     0
  7
Standard
140
4.5
170
     2
 62
     0
 63
     7
283
     0
 90
      512
 91
        0
  1

274
    -2
284
     1
 64
     0
275
    -2
285
     1
 65
     0
276
    -2
286
     1
 66
     0
277
    -2
287
     1
 67
     0
278
    -2
288
     1
 68
     0
279
    -2
289
     1
 69
     0
  7
Standard
140
6.0
170
     5
 62
     0
 63
     7
283
     0
 90
      512
 91
        0
  1

274
    -2
284
     1
 64
     0
275
    -2
285
     1
 65
     0
276
    -2
286
     1
 66
     0
277
    -2
287
     1
 67
     0
278
    -2
288
     1
 68
     0
279
    -2
289
     1
 69
     0
  7
Standard
140
4.5
170
     5
 62
     0
 63
     7
283
     0
 90
      512
 91
        0
  1

274
    -2
284
     1
 64
     0
275
    -2
285
     1
 65
     0
276
    -2
286
     1
 66
     0
277
    -2
287
     1
 67
     0
278
    -2
288
     1
 68
     0
279
    -2
289
     1
 69
     0
  0
VISUALSTYLE
  5
2A
102
{ACAD_REACTORS
330
2B
102
}
330
2B
100
AcDbVisualStyle
  2
2dWireframe
 70
     4
177
     3
291
     0
 70
    58
 90
        0
176
     1
 90
        2
176
     1
 90
        1
176
     1
 90
        0
176
     1
 40
0.6
176
     1
 40
30.0
176
     1
 62
     7
420
 16777215
176
     1
 90
        1
176
     1
 90
        4
176
     1
 62
     7
176
     1
 62
   257
176
     1
 90
        1
176
     1
 90
        1
176
     1
 40
1.0
176
     1
 90
        0
176
     1
 62
   257
176
     1
 40
1.0
176
     1
 90
        1
176
     1
 90
        6
176
     1
 90
        2
176
     1
 62
     7
176
     1
 90
        5
176
     1
 90
        0
176
     1
 90
        0
176
     1
290
     0
176
     1
 90
        1
176
     1
 40
0.0
176
     1
 90
        0
176
     1
290
     1
176
     1
290
     1
176
     1
290
     0
176
     1
290
     0
176
     1
290
     0
176
     1
290
     0
176
     1
290
     0
176
     1
290
     0
176
     1
290
     0
176
     1
 90
       50
176
     1
 40
0.0
176
     1
 40
1.0
176
     1
 90
        0
176
     1
 62
    18
420
        0
176
     1
 90
       50
176
     1
 90
        3
176
     1
 62
     5
420
      255
176
     1
290
     0
176
     1
 90
       50
176
     1
 90
       50
176
     1
 90
       50
176
     1
290
     0
176
     1
 90
       50
176
     1
 62
   256
176
     0
 40
1.0
176
     0
 90
        2
176
     1
  1
strokes_ogs.tif
176
     1
290
     0
176
     1
 40
1.0
176
     1
 40
1.0
176
     1
  0
VISUALSTYLE
  5
45
102
{ACAD_REACTORS
330
2B
102
}
330
2B
100
AcDbVisualStyle
  2
Realistic
 70
     8
177
     3
291
     0
 70
    58
 90
        2
176
     1
 90
        3
176
     1
 90
        0
176
     1
 90
        2
176
     1
 40
0.6
176
     1
 40
30.0
176
     1
 62
     7
420
 16777215
176
     1
 90
        0
176
     1
 90
        0
176
     1
 62
     7
176
     1
 62
   257
176
     1
 90
        1
176
     1
 90
        1
176
     1
 40
1.0
176
     1
 90
        8
176
     1
 62
   257
176
     1
 40
1.0
176
     1
 90
        1
176
     1
 90
        6
176
     1
 90
        2
176
     1
 62
     7
176
     1
 90
        3
176
     1
 90
        0
176
     1
 90
        0
176
     1
290
     0
176
     1
 90
       13
176
     1
 40
0.0
176
     1
 90
        0
176
     1
290
     0
176
     1
290
     1
176
     1
290
     1
176
     1
290
     0
176
     1
290
     0
176
     1
290
     0
176
     1
290
     0
176
     1
290
     0
176
     1
290
     0
176
     1
 90
       50
176
     1
 40
0.0
176
     1
 40
1.0
176
     1
 90
        0
176
     1
 62
    18
420
        0
176
     1
 90
       50
176
     1
 90
        3
176
     1
 62
     5
420
      255
176
     1
290
     0
176
     1
 90
       50
176
     1
 90
       50
176
     1
 90
       50
176
     1
290
     0
176
     1
 90
       50
176
     1
 62
   256
176
     0
 40
1.0
176
     0
 90
        2
176
     1
  1
strokes_ogs.tif
176
     1
290
     0
176
     1
 40
1.0
176
     1
 40
1.0
176
     1
  0
VISUALSTYLE
  5
46
102
{ACAD_REACTORS
330
2B
102
}
330
2B
100
AcDbVisualStyle
  2
Wireframe
 70
     5
177
     3
291
     0
 70
    58
 90
        0
176
     1
 90
        2
176
     1
 90
        0
176
     1
 90
        0
176
     1
 40
0.6
176
     1
 40
30.0
176
     1
 62
     7
420
 16777215
176
     1
 90
        1
176
     1
 90
        4
176
     1
 62
     7
176
     1
 62
   257
176
     1
 90
        1
176
     1
 90
        1
176
     1
 40
1.0
176
     1
 90
        0
176
     1
 62
   257
176
     1
 40
1.0
176
     1
 90
        1
176
     1
 90
        6
176
     1
 90
        2
176
     1
 62
     7
176
     1
 90
        3
176
     1
 90
        0
176
     1
 90
        0
176
     1
290
     0
176
     1
 90
        1
176
     1
 40
0.0
176
     1
 90
        0
176
     1
290
     0
176
     1
290
     1
176
     1
290
     1
176
     1
290
     0
176
     1
290
     0
176
     1
290
     0
176
     1
290
     0
176
     1
290
     0
176
     1
290
     0
176
     1
 90
       50
176
     1
 40
0.0
176
     1
 40
1.0
176
     1
 90
        0
176
     1
 62
    18
420
        0
176
     1
 90
       50
176
     1
 90
        3
176
     1
 62
     5
420
      255
176
     1
290
     0
176
     1
 90
       50
176
     1
 90
       50
176
     1
 90
       50
176
     1
290
     0
176
     1
 90
       50
176
     1
 62
   256
176
     0
 40
1.0
176
     0
 90
        2
176
     1
  1
strokes_ogs.tif
176
     1
290
     0
176
     1
 40
1.0
176
     1
 40
1.0
176
     1
  0
DICTIONARYVAR
  5
168
102
{ACAD_REACTORS
330
163
102
}
330
163
100
DictionaryVariables
280
     0
  1
1:1
  0
DICTIONARYVAR
  5
165
102
{ACAD_REACTORS
330
163
102
}
330
163
100
DictionaryVariables
280
     0
  1
STANDARD
  0
DICTIONARYVAR
  5
164
102
{ACAD_REACTORS
330
163
102
}
330
163
100
DictionaryVariables
280
     0
  1
STANDARD
  0
DICTIONARYVAR
  5
166
102
{ACAD_REACTORS
330
163
102
}
330
163
100
DictionaryVariables
280
     0
  1

  0
DICTIONARYVAR
  5
167
102
{ACAD_REACTORS
330
163
102
}
330
163
100
DictionaryVariables
280
     0
  1

  0
DICTIONARY
  5
17
330
15
100
AcDbDictionary
280
     1
281
     1
  0
DICTIONARY
  5
3C
330
3B
100
AcDbDictionary
280
     1
281
     1
  3
FBXASSET
360
3D
  0
DICTIONARY
  5
39
330
38
100
AcDbDictionary
280
     1
281
     1
  3
FBXASSET
360
3A
  0
DICTIONARY
  5
C
330
A
100
AcDbDictionary
280
     1
281
     1
  3
BUMPTILE
360
D
  3
DIFFUSETILE
360
E
  3
FBXASSET
360
F
  3
OPACITYTILE
360
10
  3
REFLECTIONTILE
360
11
  0
DICTIONARY
  5
44
330
43
100
AcDbDictionary
280
     1
281
     1
  3
ACAD_ROUNDTRIP_2008_TABLESTYLE_CELLSTYLEMAP
360
169
  0
XRECORD
  5
3D
102
{ACAD_REACTORS
330
3C
102
}
330
3C
100
AcDbXrecord
280
     1
 70
     1
 90
429727718
  1
D62C5603-E3A1-4AEA-B7FB-FE5D8D0755AF
310
504B03040A0000080000CC70623B3DEE336E79000000790000001B0000006175746F6465736B2D64657369676E2D7061636B6167652E786D6C3C3F786D6C2076657273696F6E3D22312E302220656E636F64696E673D227574662D3822203F3E3C666F726D6174733E3C666F726D61743E687474703A2F2F736368656D612E
310
6175746F6465736B2E636F6D2F64657369676E2D7061636B6167652F323030393C2F666F726D61743E3C2F666F726D6174733E504B0304140006080800CC70623BD486FD9CA0000000F4000000130000005B436F6E74656E745F54797065735D2E786D6C7D8EC10E82300C865F65E91D8A1E8C310C0EEA1BF002731658846E
310
D98AC1B77784ABF1D8FE5FBFBF75BBCE937A534CCEB38643598122B6FEE978D0B0485F9C41B54DDD7D022595594E1A469170414C76A4D9A4D207E29CF43ECE46F218070CC6BECC4078ACAA135ACF422C856C0E68EA1BF5669944DDD7BCDE7B1F8E415D77AECB980613C2E4AC91FC167A2B244592486606FC29C8FD7F045B9A
310
EF7053A7E60B504B0304140006080800CC70623B853B8169EB0000007C01000008000000636F72652E786D6C8D90416EC3201045AF62CDB6C206821CC7C244919D9CA01740401C94182C03558F5F9C3852BBEB6A467FFE9B197D7EFC9E1EC5975982F5AE035262288C535E5B377690E21535501C055FBC8FBF6C503839990E
310
5619041F179FE64D52DE45E362569DD7661365082642A11EB9E920A89B99642953CC8E702F67A9EE7234257977194EC9EAE275C4EABCCF5EAD5940D4AC6F0E35A568B8F43562CD7046CD199FD07E60174276A7BE677B5EADB0E0D14EEFFB6A31321A0D82627C4084204C3F096B71DD52F6819B16635EADF63F509AF53FA164
310
5DDCD1EDDD17164090FCC8732078B56691CB33A85CD7DCC40F504B0304140006080800CC70623B55019EA25F0000007C00000007000000636E782E786D6C4DCB3B0E80201045D1AD90E915ED2CF8AC45050C11660C8261F98AB1B07AC9C97D42D718D865D3E909258CFD00CCE24AC6E326A164D74DC0B4128928FF32603847
310
2BA13128B1252AC747C6BAB984FC68F0B87FE8960A5C09FE86CFB69FBA01504B0304140006080800CC70623BDBABAAF470010000D40300000C0000006662782F636F72652E786D6CC553D16E823014FD95A6AF4B694182CC941A83FA05FB810A9511A125A5257EFE2E82712ECEB8A7F100CD39F7F69E734AF9FADC366850B6
310
AF8DCE7018308C942E4C59EB2AC3DE1D498AD15A706B8CFB56869196ADCAF00863C12B6B7C374385D14E6907A836A59A41D9F7CA615434B0C8705F7CAA5606D23BA8E84F41278B93AC54100640439DE0BDB320004D43C63716C7C399D30917DCFBBA9CD9BA8469F5B156168B24CED3F7248AC8769F27244EB73B92EED8862C
310
B7F13E0C179B3C8F979C8ECD82BBBABDAA2BAC924E9558448CBD9330242CFA08E3154B5651FCC6D215639C8EE5774DBE2B5F6CF2B5768B68963BB5F5588420E442FC700B1139D4CB01F450C1E918227C2E09DF070D8140C84E1E9AAB8F1340832A9CB13130A5F1376A908D57309505ECF2A0DF179C4E9D30F5B239B87E3823
310
7A79C6F31DE1A8A5AEC08474B03C7837EAE4938639B44E5932B833D2C6B6B279CDC613877FA26EE21F4A2A4C63EC7F29A2F301D1F9F7A0E37D145F504B0304140006080800CC70623B9C113CC27E0000009D0000000B0000006662782F636E782E786D6C4DCCDF0A83201C86E15B91DFB94BFB330DD428C8FB886521330DA7
310
6397BF1A1DECE883878F57749FCDA1B7892F1BBC047A23808C7F84D9FA55424E0BE6803A256208E9EF06C84F9B91703228B1C690F78B66B34CD9A5439DF5CF0BFBF65E35BCA1B8D6A5C6F540381E886698B5741C695F9503EBA150A2F8958E3DC3EA0B504B0304140006080800CC70623B7DF2F77C2A010000120200003100
310
00006662782F41393633353835312D344632462D344230382D423046372D3739314545314133324237412F636F72652E786D6C8D51DB8EC22014FC15C2939B0D2DB4B45643319AE817EC0F6041255A68B86CFCFC856D4D76DF7CE190393373060EDB3DC707F856CE6B6B7A480A0C81328395DA5C7B18C3057510EC3873D686
310
3F34088C18550F330C39BB3A1BA7051AAC09CA84841A2BD5020AEF55806078A44B0FFD7053A328440C89E1EFC52486BBB8AA8214A99D789CF9E05200300FC927E4FB4D5B375D43103D5527440FB843077C5AA3F5861C8F645F5787F59E95B390B318B55CE45AA638FAA2957BD7248B390B7A7CC51F9C124149C82B8C378810
310
84AB2F42B7B8DD56F413775B8C5999E9FF4471926F8AA236A1AE96B8B3CC434E5839373893369E1FAF30EA395917409EB7F26AF8801C171837A4A6AC9C89E9F9C9B1A58BA30FD6A5EF5DDDCF894B9AD9B6A59C957943A9FCAE2FD5BC4DFE03504B0304140006080800CC70623BAD7543B64E01000033030000300000006662
310
782F41393633353835312D344632462D344230382D423046372D3739314545314133324237412F636E782E786D6CD593CD6EC32010845F0571AD6CE3D48AD20813A9873E410FBD12D82434182C7EAAE6EDBB2424CD25871E7B41D6EC30B3FA84F9E67BB2E40B4234DE8DB46F1925E094D7C6ED479AD3AE5951B2113C789FEE
310
6C943839C1488B4C05DF079FE72A69D8C96C13AAD6B8631503449F83828872B949AC57D26200B826A308D316B4064D6E46FCDA41C05550DC9E483A00797BFD207EFB092A45DE9514C1BBD22178396BD39D891265658C238DEA00936C654E5E433CB65A26D9F6EDB5EBC14EBF49A45CB856E66048291F6939A9A81BB5C89177
310
38143CA680F4AA299D66A042CEB3354A2684DC9D8D178FE0D9B8B41CAAD720F880EE7EF93C0C18769E099ECC04D5A102C8049A8A05632F4DDF376CF1DE0F6BB65C2F8627B65A33C6BB62177CEBBDAD973006829F89F22E814B54F4BC2BE347F8AA8F681390B50FA73F804400B5F542E796F19FF974E7F78DB802FE05E20750
310
4B0304140006080800CC70623BE75B7789680500003C100000340000006662782F41393633353835312D344632462D344230382D423046372D3739314545314133324237412F6F626A656374732E786D6CAD575B8F9B3818FD2B887D06C22499CB8AA1CA655245D5B455A356FB305264C061D8018C6C3393D95FBFC7600890
310
A4CD5EF210B0B1BFEBF98E3F7B1FF6596ABC522E1296DF9BAE3D320D9A872C4AF2F8DE2CE5CEBA358D0FBEC719939D65A691938CDE9B6ADAF4BD98B3B2D05311DD91329583D9D5FC0F438434A7A611A644887B5384CF34233629258BA878B12322891DEFF6B66BD70BFB62634E8AE781D082709A4B588AF91C528CDA28B73F
310
1C998EEF39EABBEFA97FBD6A7C7E9553F9D3D79FE442923C3C523610337627CB87ABE99D359D4CC6D6E4FACAB5E6ABF9D2726FC6A3C5F56271377BB88362213924694B38DD99FE47C48627A1E7D49F5A8BB5E1A74C0A599ED3B0F21F1E56366B89112D681E218F0915D0D6F17AD41FBA2A369DCF6335D62ABBD39779D5DDD1
310
11D4D8DE3CBB96B2E04FB8202E41051754A1AA8E8F76B4C6DFE810B580B1547F4B84911149794252234D024EF8BBE963A95AE27B3D310A9D5C215C7960FAEE415ED75694C6AFB17BCACA5D99A60A9AA65F217B0BFC53292ACB92BF283FAD0D3621576592CB5BED907C2FA8E9DF794E35E97BEA31BED21FEB401ABB94C44839
310
DCACBF0E1C5DA8DA5B2F4DFFD32AD86F543D9E565E7056502E157C00AD2671CD534549AB752FCA9CDA00677A313F04E51B22FF19E57B300579E3C97EB29F682D92935CEC18CF901B7B54FD8C51F362B56FC72FE0B3C1EAE335EDCCBF5AEC39ADB17DC238973F804BA5E6F6BFE7AF1FB32E523BE9F3BD571418E3631DCA4D48
310
5250CF639223210A9446CA30052EDF057BD35F8329C1ECD84552BF0DC8D18BE7BCE23BFE6BD960AB4A7DE79923A103BEBD80F911CBAA2C60DB19B01CF164A5583B772EE6D3FFA56666CBCDA74DC97724A48F9A58967497E489C4D979006FD7A05E227A1EBDD0F737C623387A9C844D3709995625106D157315F8B8392CD4E0
310
A0B9A720C4BE9829CEF37EA1E13111214D53925356365ADA634861B52519DD27A00AEB808EAF0628E6F435519D446F45CF2C9CF5214F0A15B2F6D06B79DA3EE3CBF7F56780D2F4E7EF73A0F5E5B02A38D07DC852C6B7C1FBB6664213E0C39E3EBA7FF4E1AD23EA2829407C85E586727488B751B2DB9502BC7B228A3FD68B6E
310
A65A22397E690AA8D158D7E404EC8CDA235CC3B7D1898680131CEC2CDF2638C65196279577750F15884AEE19F94199155B92B13297978469D4F8D358DF0AEF7631E28DC8F0D9F437D5D39A83B2231A1D52D543813A824EF8D44BCFF2FA6A31BD1E8DAD87F1CCB526B3879935BF59CDADD5C37479BB1CDD4CA7B3556B516589
310
EF352754B706114D9C885EC9131DE6EFEB43D99AFE2391C2F958179413D7CFEF6B1B6DB1E7600F00DE6E5C67454A339A4BA2E0FBA85ED26F045D454F463DBFCE484C2F90F2E5E3666003662ED8F755951A7D1BECD5B30B550B2785C8E7320B7292A4838DDA71BBC863ED7613CAF659337A3354231D4FF4A182A54904C2898C
310
98B28C4AD0CE056CCF332A80986E571EE9DBC305BB5FEB7E509220A58D25CF042D712A806AC0AD0C657FDEF80D2D9CEAA2EE4D1C76F60BFE74219A06527D6F82DF6412526107381E55E353090704D085B52408A8913C4ED159D79BDA71BB4BC506F4831350EB6F975CD22D69BF7AC49B91A2C0A9DDA3D5CA36AD20FC478E37
310
E61844E2352865EBCB61A275A65283CAAA9DD27703B4102F5AF51EF5F573B75CBB5AD38BC845F7A49F82A0966A49C2E3EA5EA0ECD326CD965F1DB402C6FA8B51A4658C5C5E2EC9E214602E55810345408596591009A82E7E7FFACA19EEA299B14A0081A705CB3296EBC14CDF658DCD336EA6D1136881AAEB87B81AB9EE53D5
310
F5EB8BC8362082DA24122F98680A4E7930C01A0079749CEA14382A0783E5EBA5A10F8C098456A03D6A4AEB6BB881E2513747552A5DB22C7EDAF83BD5528081A365F7FF06504B0304140006080000CC70623B000000000000000000000000350000006662782F41393633353835312D344632462D344230382D423046372D37
310
39314545314133324237412F76657274696365732E62696E504B0304140006080800CC70623BF270F1330600000004000000360000006662782F41393633353835312D344632462D344230382D423046372D3739314545314133324237412F747269616E676C65732E62696E636660600000504B0304140006080000CC7062
310
3B000000000000000000000000370000006662782F41393633353835312D344632462D344230382D423046372D3739314545314133324237412F617474726962757465732E62696E504B0304140006080800CC70623B08DA0BD19000000041010000360000006662782F41393633353835312D344632462D344230382D4230
310
46372D3739314545314133324237412F6469726563746F72792E786D6C858F410AC3201045AF22B36F53E9A60B35CBEEBAE80D244E44489C6234F4F835464A48035D0DF398FF9F8AF63D0E6CC63039F212F8F9020C7D47C6792B21C5FE7403D62A1188E2E60C98D7234A5830286103A55745067B9D86B8A3CF9C7F90C11DE6
310
07FB144396D7B6A82D282E9A152AD114D5EF2CB866EEE831B8EEA07A7BB5A8D7D61A2BAAEB7FD5F70921FF497D00504B0304140006080800CC70623BEDD1DC58FD000000A00100003B0000006662782F41393633353835312D344632462D344230382D423046372D3739314545314133324237412F7265736F75726365732F
310
636F72652E786D6C8D504B6E833010BD0A9A6D65B00922041947112427E8052C33A156828DFCA97AFC9A40A576D7CDCCE87D344F8F9FBFE667F689CE6B6B3A6039850C8DB2A336530731DC4903D95970676DF82583CCC8193B5861107C72362E3BA4AC096842428D1D7107A5F7182053CF7474E0D507CE32973124857FE48B
310
540F3961CEF244279DE03EB81420DB9EAC1384436FA353E879B1B182C7A8C75DA3C7F453DF353A1075D537A7BA6464B8F535A99AE14A9A2BBD90E350DD183B5CFABE3AF262350B1EF4FC9351399401471025A527C218A1E53BAB5A5AB765F5469B96525EACF23FA6B88CFF34456DC2A1DCE36E360F82A5202F42F062ED2BAD
310
579969AFDD8A6F504B010214000A0000080000CC70623B3DEE336E79000000790000001B00000000000000000000000000000000006175746F6465736B2D64657369676E2D7061636B6167652E786D6C504B01021400140006080800CC70623BD486FD9CA0000000F40000001300000000000000000000000000B20000005B
310
436F6E74656E745F54797065735D2E786D6C504B01021400140006080800CC70623B853B8169EB0000007C010000080000000000000000000000000083010000636F72652E786D6C504B01021400140006080800CC70623B55019EA25F0000007C000000070000000000000000000000000094020000636E782E786D6C504B
310
01021400140006080800CC70623BDBABAAF470010000D40300000C00000000000000000000000000180300006662782F636F72652E786D6C504B01021400140006080800CC70623B9C113CC27E0000009D0000000B00000000000000000000000000B20400006662782F636E782E786D6C504B01021400140006080800CC70
310
623B7DF2F77C2A010000120200003100000000000000000000000000590500006662782F41393633353835312D344632462D344230382D423046372D3739314545314133324237412F636F72652E786D6C504B01021400140006080800CC70623BAD7543B64E010000330300003000000000000000000000000000D2060000
310
6662782F41393633353835312D344632462D344230382D423046372D3739314545314133324237412F636E782E786D6C504B01021400140006080800CC70623BE75B7789680500003C10000034000000000000000000000000006E0800006662782F41393633353835312D344632462D344230382D423046372D3739314545
310
314133324237412F6F626A656374732E786D6C504B01021400140006080000CC70623B0000000000000000000000003500000000000000000000000000280E00006662782F41393633353835312D344632462D344230382D423046372D3739314545314133324237412F76657274696365732E62696E504B01021400140006
310
080800CC70623BF270F133060000000400000036000000000000000000000000007B0E00006662782F41393633353835312D344632462D344230382D423046372D3739314545314133324237412F747269616E676C65732E62696E504B01021400140006080000CC70623B0000000000000000000000003700000000000000
310
000000000000D50E00006662782F41393633353835312D344632462D344230382D423046372D3739314545314133324237412F617474726962757465732E62696E504B01021400140006080800CC70623B08DA0BD1900000004101000036000000000000000000000000002A0F00006662782F41393633353835312D344632
310
462D344230382D423046372D3739314545314133324237412F6469726563746F72792E786D6C504B01021400140006080800CC70623BEDD1DC58FD000000A00100003B000000000000000000000000000E1000006662782F41393633353835312D344632462D344230382D423046372D3739314545314133324237412F7265
310
736F75726365732F636F72652E786D6C504B0506000000000E000E0080040000641100000000
  0
XRECORD
  5
3A
102
{ACAD_REACTORS
330
39
102
}
330
39
100
AcDbXrecord
280
     1
 70
     1
 90
429727718
  1
30362254-06B7-45E0-A893-8CFA70E3D6BC
310
504B03040A0000080000CC70623B3DEE336E79000000790000001B0000006175746F6465736B2D64657369676E2D7061636B6167652E786D6C3C3F786D6C2076657273696F6E3D22312E302220656E636F64696E673D227574662D3822203F3E3C666F726D6174733E3C666F726D61743E687474703A2F2F736368656D612E
310
6175746F6465736B2E636F6D2F64657369676E2D7061636B6167652F323030393C2F666F726D61743E3C2F666F726D6174733E504B0304140006080800CC70623BD486FD9CA0000000F4000000130000005B436F6E74656E745F54797065735D2E786D6C7D8EC10E82300C865F65E91D8A1E8C310C0EEA1BF002731658846E
310
D98AC1B77784ABF1D8FE5FBFBF75BBCE937A534CCEB38643598122B6FEE978D0B0485F9C41B54DDD7D022595594E1A469170414C76A4D9A4D207E29CF43ECE46F218070CC6BECC4078ACAA135ACF422C856C0E68EA1BF5669944DDD7BCDE7B1F8E415D77AECB980613C2E4AC91FC167A2B244592486606FC29C8FD7F045B9A
310
EF7053A7E60B504B0304140006080800CC70623B1EC5D7A3EB0000007C01000008000000636F72652E786D6C8D90416EC3201045AF82665B6103C6756C6122AB4D4ED00B204C5C94182C03558F5F9C3852BBEB6A467FFE9B197D71FC9E6FE8CBACC17AD7032D0820E3B41FAD9B7A48F1820F808E52ACDEC75F36404ECDA687
310
4D0629A6D5A76597B477D1B89855E747B38B2A041301E95B6E7A08FAD3CCAA50296647B8168BD2573599823EBB0CA76447F43862C7BCCF5EAC59410E4DDD9C7973C2755553CCCFA4C603E3040F1565ED3B1FDE4E432BCA0D9622DAF9795FAF464533826484B498524CD807E51D79ED187F21878E10516EF63F505AC67F42C9
310
BA58B1FDDD071640D2FCC87D2045B96591CB3DA85CB7DCE40F504B0304140006080800CC70623B55019EA25F0000007C00000007000000636E782E786D6C4DCB3B0E80201045D1AD90E915ED2CF8AC45050C11660C8261F98AB1B07AC9C97D42D718D865D3E909258CFD00CCE24AC6E326A164D74DC0B4128928FF32603847
310
2BA13128B1252AC747C6BAB984FC68F0B87FE8960A5C09FE86CFB69FBA01504B0304140006080800CC70623B8C9102E971010000D40300000C0000006662782F636F72652E786D6CC5535B6E833010BC8AE5DF0A6C08340F1947A84D4ED00B38C6A128602363A31CBFCB234A53A551FA553EC09AD9F5CE8C31DB9E9B1AF5CA
310
7695D1198E428A91D2D214952E33ECDD315861B4E5CC1AE3BE9561A445A3323CC098B3D21ADFCE9034DA29ED00D5A6503328BA4E398C640D8B0C77F253352214DE4145770A5B214FA2546114020D759C75CE8200340D19DE981F0F6746269C33EFAB6266AB02A655C74A59CCF365BADC27CB5D902ED22848F6340DF238A141
310
BE88E2F57B92BFEDF23523433367AE6A2EEAA455C2A902F398D2751045018D3FA264435F3771F242571B4A1919CA6F9A7C5B3CD9E42BED16F12C776AEB308F40C848FC700B1139D4891EF410CEC810227CC6846F8386402064270EF5C5C709A05E49676C024C61FC95EA45ED154CA5211D1FF4FB8291A913A68E9B83EBBB33
310
E2A7673CDE118E5AE8124C0807CB8377834E366998436B950D7A7746DAD846D4CFD978E0F04FD455FC5D49D2D4C6FE9722321F10997F0F32DC47FE05504B0304140006080800CC70623BFFEA85907E0000009D0000000B0000006662782F636E782E786D6C4DCCD10A83201886E15B91FFDC95D95A811AB6F23E625948A6C3
310
E9D8E5AF46073BFAE0E1E365ED67B3E8ADC3CB78C7815C7240DA3DFC64DCC221C519D7805AC182F7F1EF06C88D9BE6703008B6049F9E274D7A1E938DBB5AE3D6131B2589BA0D3D965551E0B2EA732C9B9A624AAEB41E3A557677029960D9AFB4EF11165F504B0304140006080800CC70623B4FEEA4082C0100001202000031
310
0000006662782F39464131463745442D413632322D343644302D413938332D3331353338454246344243312F636F72652E786D6C8D515B6EC32010BC0AE2AB55850DD871ED0813254D72825EC00192A2C460F1A872FC42ED48ED5F7E00CDCECCCEB26C731F6FE05B39AFADE921293004CA082BB5B9F43086336A21D870E6AC
310
0D7F68109861543DCC30E4ECE26C9C164858139409093556AA051CBC570102714B8F1E7AF1A5C6A11862480C7F2DA6415C878B2A4891CA89C7990F2E050073937C42DE1DB7E4F87ED8A36D4329AA9B3D46DBAEAD504556557BD81DEBDD0761E52CE42C462D17B996298E3E6BE59E35C962CE821E1FF18553435012728A7187
310
0841987E927A8D9B35ADDF70BBC6989599FE4F1427F9A4286A132ABAC49D651EF234CD5CE04CDA78BA3DC2A8FB645D00B9DF8B57E215725C60BCA2A463E54C4CE327C7A65E1C7DB02E7DEFCBF594B864C5CA6CDBD49C957943E9FA5D5FBAF336F90F504B0304140006080800CC70623BAD7543B64E01000033030000300000
310
006662782F39464131463745442D413632322D343644302D413938332D3331353338454246344243312F636E782E786D6CD593CD6EC32010845F0571AD6CE3D48AD20813A9873E410FBD12D82434182C7EAAE6EDBB2424CD25871E7B41D6EC30B3FA84F9E67BB2E40B4234DE8DB46F1925E094D7C6ED479AD3AE5951B2113C
310
789FEE6C943839C1488B4C05DF079FE72A69D8C96C13AAD6B8631503449F83828872B949AC57D26200B826A308D316B4064D6E46FCDA41C05550DC9E483A00797BFD207EFB092A45DE9514C1BBD22178396BD39D891265658C238DEA00936C654E5E433CB65A26D9F6EDB5EBC14EBF49A45CB856E66048291F6939A9A81BB5
310
C8917738143CA680F4AA299D66A042CEB3354A2684DC9D8D178FE0D9B8B41CAAD720F880EE7EF93C0C18769E099ECC04D5A102C8049A8A05632F4DDF376CF1DE0F6BB65C2F8627B65A33C6BB62177CEBBDAD973006829F89F22E814B54F4BC2BE347F8AA8F681390B50FA73F804400B5F542E796F19FF974E7F78DB802FE05
310
E207504B0304140006080800CC70623B16AB87BA640500003C100000340000006662782F39464131463745442D413632322D343644302D413938332D3331353338454246344243312F6F626A656374732E786D6CAD575B6FA33818FD2B887DE6924B3BED8A326A92B68A663B534DD4D13E548A0C38942D60649B369D5FBFC7
310
600890A493BDE42160637FD7F31D7FF63E6FB3D478A55C242CBF3247B66B1A340F5994E4F19559CA8D75611A9F7D8F33263BCB4C232719BD32D5B4E97B316765A1A722BA21652A07B3B7B33F0D11D29C9A46981221AE4C113ED38CD8A4942CA2E2C58E882476BCD9DA23BB5ED8171B73523C0F841684D35CC252CCE79062D4
310
468DFA43D7747CCF51DF7D4FFDEB5593E3AB9CCA9FBEFE241792E4E19EB28198C968BAB8199F5D5A67D3E9C49A9E8F47D6EC76B6B0469F26EEFC7C3EBFBCBEB98462213924694B38DD98FE1D62C393D073EA4FADC5DAF04326852CCF6958F90F0F2B9BB5C48816348F90C7840A68EB78EDF68723159BCEE7891A6B95DDE9D3
310
BCEAEEE8086A6C6F9E5D4B59F0175C10A7A0820BAA5055C7473B5AE3CFDD452D602CD5DF12616444529E90D448938013FE6EFA58AA96F85E4F8C42275708571E98FE6827AF6B2B4AE3D7D83D64E5A64C53054DD3AF90BD06FEA9149565C94FCA0F6B834DC85599E4F2423B24DF0B6AFA979E534DFA9E7A4CC6FA631D486393
310
921829879BF5D781A373557BCB85E97FB90DB62B558F8795179C15944B051F40AB495CF35451D26A4727654E6D8033BD98EF82F21D91FF8AF2DD9982BCF1643BDD4EB516C9492E368C67C88DED563FC36D5EACF66DFF057C3658BDBFA69DF9578B3DA735B64F18C7F20770A9D45CFCF7FCF563D6456A277DBEF78A02637CA2
310
43B90A490AEAB94F72244481D24819A6C0E59B606BFA4B3025981DBB48EAB701D97BF19C577CC77F2D1B6C55A9EF3C732474C0B727303F625995056C3B02963D9EAC146BE78EC5FCEC7FA999EBC5EACBAAE41B12D27B4D2C0BBA49F244E2ECDC81B76B502F113D8F5EE8FB1BE3111CDD4FC2AA9B844CAB1288B68AB90A7CDC
310
1C166AB0D3DC5310625FCC14E779BFD0709F8890A629C9292B1B2DED31A4B0DA928CEE135085754027E3018A397D4D5427D15BD1330B677DC8934285AC3DF45A9EB68FF8F2B8FC0A509AFEECFD0FF2DE25CC6047F7214B195F07EFEB9A094D800F7BFAE8FED187B78EA8A3A400F115961BCAD1215E47C966530AF0EE8128FE
310
58CEBB996A8964FFA529A046635D9353B0336A8F700DDF46271A024E70B0B37C9DE01847591E54DED53D54202AB947E4076556AC49C6CA5C9E1226B7F1A7B1BE15DEED62C41B91E1B3E9AFAAA735036547343A925075041DF0A9979E893B391F8FCFA6967B3EFB644DCF6E5CEBFAE272625DCC6FAF3FB93793C5F90CE1EF57
310
407342756B10D1C489E8953CD1617E5CEECAD6F4EF8914CE5D5D504E5C3F1F9736DA62CFC11E00BCDDB8CC8A9466349744C1F75EBDA4DF09BA8A9E8C7A7E9991989E20E5DBDD6A6003664ED8F7A04A8DBE0DF6EAD9B9AA858342E47399053949D2C146EDB85DE4B176BB0965FBAC19BD19AA918E27FA50C1D22402E144464C
310
59462568E704B6E71915404CB72B8FF4EDE184DDAF753F284990D2C6926782963815403548A70C657FDEF80D2D9CEAA2AE4C1C76F60BFE74219A06527D6582DF6412526107381E55E353090704D085B52408D0933C4ED159D79BDA71BB4BC506F4831350EB6F979CD22D69BF7AC49B91A2C0A9DDA3D5CA36AD20FC478E37E6
310
1844E2352865EBCB6EA275A652E3836BE04EFB400BF1A2556F515F1FBB35B2AB35BD889C744FFA1004B5544B121E57F70215746DD2F5E2C1412B602CBF19455AC6C8E5E9922C4E01E65215385004546899059180EAFCF7A707CE7017CD8CDB0410789AB32C63B91E5CEBBBACB17AC6CD347A022D5075FD106377347AAABA7E
310
7D11590744509B44E205134DC1290F06580320F78E537D3D73540E06CB970B431F185308AD40BBD794D6D77003C5A36E8EAA54BA64597CD8F83BD552A080A365F7FF06504B0304140006080000CC70623B000000000000000000000000350000006662782F39464131463745442D413632322D343644302D413938332D3331
310
353338454246344243312F76657274696365732E62696E504B0304140006080800CC70623BF270F1330600000004000000360000006662782F39464131463745442D413632322D343644302D413938332D3331353338454246344243312F747269616E676C65732E62696E636660600000504B0304140006080000CC70623B
310
000000000000000000000000370000006662782F39464131463745442D413632322D343644302D413938332D3331353338454246344243312F617474726962757465732E62696E504B0304140006080800CC70623B08DA0BD19000000041010000360000006662782F39464131463745442D413632322D343644302D413938
310
332D3331353338454246344243312F6469726563746F72792E786D6C858F410AC3201045AF22B36F53E9A60B35CBEEBAE80D244E44489C6234F4F835464A48035D0DF398FF9F8AF63D0E6CC63039F212F8F9020C7D47C6792B21C5FE7403D62A1188E2E60C98D7234A5830286103A55745067B9D86B8A3CF9C7F90C11DE607
310
FB144396D7B6A82D282E9A152AD114D5EF2CB866EEE831B8EEA07A7BB5A8D7D61A2BAAEB7FD5F70921FF497D00504B0304140006080800CC70623B0D6EF93BFE000000A00100003B0000006662782F39464131463745442D413632322D343644302D413938332D3331353338454246344243312F7265736F75726365732F63
310
6F72652E786D6C8D50596E833010BD0A9ADFCA60B334011947A8694ED00B586642AC041B79A97AFC9A40A5F6AF3F33A3B7689E1E3F7DCD8FEC139DD7D6F4C0720A191A65476DA61E62B892236427C19DB5E1970C322367EC618541F0C9D9B8EC90B226A009093576C41D94DE63804C3DD2D18357379C652E63480A7FCF17A9
310
EE72C29CE5894E3AC17D702940B63D59270887DE46A7D0F36263058F518FBB468FE9A7BE6A7420864373B8D4873369AA8691FA421B3294352543C5CAF65C0F6FEF43CB8BD52C78D0F34F46E550061C419494B6843142CB0F5677F4B52BEB177AEC28E5C52AFF638ACBF84F53D42654E51E77B379102C05791282176B5F693D
310
CB4C7BED567C03504B010214000A0000080000CC70623B3DEE336E79000000790000001B00000000000000000000000000000000006175746F6465736B2D64657369676E2D7061636B6167652E786D6C504B01021400140006080800CC70623BD486FD9CA0000000F40000001300000000000000000000000000B20000005B
310
436F6E74656E745F54797065735D2E786D6C504B01021400140006080800CC70623B1EC5D7A3EB0000007C010000080000000000000000000000000083010000636F72652E786D6C504B01021400140006080800CC70623B55019EA25F0000007C000000070000000000000000000000000094020000636E782E786D6C504B
310
01021400140006080800CC70623B8C9102E971010000D40300000C00000000000000000000000000180300006662782F636F72652E786D6C504B01021400140006080800CC70623BFFEA85907E0000009D0000000B00000000000000000000000000B30400006662782F636E782E786D6C504B01021400140006080800CC70
310
623B4FEEA4082C0100001202000031000000000000000000000000005A0500006662782F39464131463745442D413632322D343644302D413938332D3331353338454246344243312F636F72652E786D6C504B01021400140006080800CC70623BAD7543B64E010000330300003000000000000000000000000000D5060000
310
6662782F39464131463745442D413632322D343644302D413938332D3331353338454246344243312F636E782E786D6C504B01021400140006080800CC70623B16AB87BA640500003C1000003400000000000000000000000000710800006662782F39464131463745442D413632322D343644302D413938332D3331353338
310
454246344243312F6F626A656374732E786D6C504B01021400140006080000CC70623B0000000000000000000000003500000000000000000000000000270E00006662782F39464131463745442D413632322D343644302D413938332D3331353338454246344243312F76657274696365732E62696E504B01021400140006
310
080800CC70623BF270F133060000000400000036000000000000000000000000007A0E00006662782F39464131463745442D413632322D343644302D413938332D3331353338454246344243312F747269616E676C65732E62696E504B01021400140006080000CC70623B0000000000000000000000003700000000000000
310
000000000000D40E00006662782F39464131463745442D413632322D343644302D413938332D3331353338454246344243312F617474726962757465732E62696E504B01021400140006080800CC70623B08DA0BD190000000410100003600000000000000000000000000290F00006662782F39464131463745442D413632
310
322D343644302D413938332D3331353338454246344243312F6469726563746F72792E786D6C504B01021400140006080800CC70623B0D6EF93BFE000000A00100003B000000000000000000000000000D1000006662782F39464131463745442D413632322D343644302D413938332D3331353338454246344243312F7265
310
736F75726365732F636F72652E786D6C504B0506000000000E000E0080040000641100000000
  0
XRECORD
  5
D
102
{ACAD_REACTORS
330
C
102
}
330
C
100
AcDbXrecord
280
     1
270
     1
271
     1
  0
XRECORD
  5
E
102
{ACAD_REACTORS
330
C
102
}
330
C
100
AcDbXrecord
280
     1
270
     1
271
     1
  0
XRECORD
  5
F
102
{ACAD_REACTORS
330
C
102
}
330
C
100
AcDbXrecord
280
     1
 70
     0
 90
1673772943
  1
ECE7A1D2-D628-4531-984C-D00F80459256
310
504B03040A0000080000CC70623B3DEE336E79000000790000001B0000006175746F6465736B2D64657369676E2D7061636B6167652E786D6C3C3F786D6C2076657273696F6E3D22312E302220656E636F64696E673D227574662D3822203F3E3C666F726D6174733E3C666F726D61743E687474703A2F2F736368656D612E
310
6175746F6465736B2E636F6D2F64657369676E2D7061636B6167652F323030393C2F666F726D61743E3C2F666F726D6174733E504B0304140006080800CC70623BD486FD9CA0000000F4000000130000005B436F6E74656E745F54797065735D2E786D6C7D8EC10E82300C865F65E91D8A1E8C310C0EEA1BF002731658846E
310
D98AC1B77784ABF1D8FE5FBFBF75BBCE937A534CCEB38643598122B6FEE978D0B0485F9C41B54DDD7D022595594E1A469170414C76A4D9A4D207E29CF43ECE46F218070CC6BECC4078ACAA135ACF422C856C0E68EA1BF5669944DDD7BCDE7B1F8E415D77AECB980613C2E4AC91FC167A2B244592486606FC29C8FD7F045B9A
310
EF7053A7E60B504B0304140006080800CC70623BD9DDAED0EC0000007C01000008000000636F72652E786D6C8D90416EC3201045AF82665B61836D9CD8C2444DD39CA01740405C94182C03558F5F9C3852BBEB6A467FFE9B197D7EF89E6EE8CB2CC17A37002D0820E394D7D68D03A478C17B4007C117EFE32F1B20272733C0
310
2A83E0E3E2D3BC49CABB685CCCAAF3DA6CA20CC14440EA969B0182FA34932C648AD911AEC52CD5558EA6A0CF2EC329598D1E47ACCEFBECC59A050463A7EA5833865FEBDD0E37353BE3EE8DBDE3F6786A48D375FBF6CC78B9C282473B3DEFABC5C86834888A900E538A49F5419B9EB47DD5BC907D4F082F57FB1F28CDFA9F50
310
B22ED6D5F6EE030B20687EE43E10BC5CB3C8E51E54AE6B6EE207504B0304140006080800CC70623B55019EA25F0000007C00000007000000636E782E786D6C4DCB3B0E80201045D1AD90E915ED2CF8AC45050C11660C8261F98AB1B07AC9C97D42D718D865D3E909258CFD00CCE24AC6E326A164D74DC0B4128928FF326038
310
472BA13128B1252AC747C6BAB984FC68F0B87FE8960A5C09FE86CFB69FBA01504B0304140006080800CC70623BA24EB22D72010000D40300000C0000006662782F636F72652E786D6CC5535B6E833010BC8AE5DF0A6C5E49888CA3A6694ED00B38E05014B091B1518EDFE511A5A9D228FD2A1F60CDEC7A67C6986DCE4D8D7A
310
69BA4AAB0C073EC548AA5C17952A33ECECD15B61B4E1CC686DBF9561A44423333CC098B3D268D7CE50AE9595CA02AA74216750749DB418E5352C32DCE59FB211BE70162ABA93DF8AFC244AE9073ED050C759670D0840D390E18DF9F1706664C23973AE2A66B62A605A75ACA4C13C4976E1364A12EF355A2EBD384AF65EFA96
310
BC7B8BED2EA6719AAE16FB8491A199335B351775B991C2CA02F390D2D40B028F861F41BCA68B7518BFD0D59A524686F29B26D7164F36B94AD9289CE54E6D1DE6010819891F6E21228B3AD1831EC219194284CF98F06DD01008846CC5A1BEF83801D4CBDC6A1303536877A57A513B0953A94FC707FDBE6064EA84A9E3E6E0FA
310
EE8CF0E9198F7784A316AA0413C2C2F2E0ECA0934D1AE6D05A69BCDE9E91D2A611F573361E38FC1375157F5752AE6B6DFE4B11990F88CCBF0719EE23FF02504B0304140006080800CC70623B408A7D3B7C0000009D0000000B0000006662782F636E782E786D6C4DCCD10A83201886E15B91FFDC552A92A0064DBC8F581632
310
D3703A76F9ABD1C18E3E78F878E5F0D9027ABBFCF2292AE86E2D20171F69F6715550CB827B40839639A5F2770314A7CD293819B45C73AAFB45B35BA61ACAA1C1C7E7855C58C15BC331339661262CC762340413D68D77DA5B42298546CBE6573AF60CEB2F504B0304140006080800CC70623B449FB9BD290100001202000031
310
0000006662782F36394639363044362D344446342D343946362D394244322D3234314243333846323333332F636F72652E786D6C8D515B6EC32010BC0AE22B55850D98B871848994463E412FE002495162B07854397EA176A4F62F3F2C9A9D991D587EB84F37F0AD7D30CEF6905418026DA553C65E7A98E219ED203808EE9D
310
8B7F6810D871D23D2C3014FCE25D9A57483A1BB58D19B54EE9151C43D0110279CB971E06F9A5A7B11A53CC8C70ADE6515EC78BAE4895DB992778883E0700CB907242D17643D7E2538BD869608875438BBAE38922CAC8F1BDD90DB4691A5E2F42C153326A951B95E398B3D1FE599322163C9AE9115F7A3D46ADA0A018778810
310
84E907617BDCEE297BC5BB3DC6BC2EF47FA234AB2745C9D8D8D035EE220B50105E2F0DC1954B9FB747187D9F9D8FA0CCDB042D5FA0C015C65B42DF78BD10F3F3B363CB56C7109DCFDFBBB97E662ED92EB62D13BC2E1BCAE5777DB9966D8A1F504B0304140006080800CC70623BAD7543B64E01000033030000300000006662
310
782F36394639363044362D344446342D343946362D394244322D3234314243333846323333332F636E782E786D6CD593CD6EC32010845F0571AD6CE3D48AD20813A9873E410FBD12D82434182C7EAAE6EDBB2424CD25871E7B41D6EC30B3FA84F9E67BB2E40B4234DE8DB46F1925E094D7C6ED479AD3AE5951B2113C789FEE
310
6C943839C1488B4C05DF079FE72A69D8C96C13AAD6B8631503449F83828872B949AC57D26200B826A308D316B4064D6E46FCDA41C05550DC9E483A00797BFD207EFB092A45DE9514C1BBD22178396BD39D891265658C238DEA00936C654E5E433CB65A26D9F6EDB5EBC14EBF49A45CB856E66048291F6939A9A81BB5C89177
310
38143CA680F4AA299D66A042CEB3354A2684DC9D8D178FE0D9B8B41CAAD720F880EE7EF93C0C18769E099ECC04D5A102C8049A8A05632F4DDF376CF1DE0F6BB65C2F8627B65A33C6BB62177CEBBDAD973006829F89F22E814B54F4BC2BE347F8AA8F681390B50FA73F804400B5F542E796F19FF974E7F78DB802FE05E20750
310
4B0304140006080800CC70623B8D05915C650500003B100000340000006662782F36394639363044362D344446342D343946362D394244322D3234314243333846323333332F6F626A656374732E786D6CAD575B6FA33814FE2B887D06429276DA1565D4266D158D3A339A6846FB502932E050B66023DB74D2FDF5FB190C01
310
9276B2973C046C8ECFF53B17071F77456EBD502133CEAE6CDF9DD81665314F32965ED995DA3A17B6F5310C04E7AA47665B8C14F4CAD6DB7618A48257A5D94AE89654B91AEDDEDDFC61C998326A5B714EA4BCB265FC440BE2924AF184CA6737218AB8E976E7FA6E4338649B0A523E8D98964450A6A029F619B8588D52FE7039
310
B1BD30F0F4F730D0FF866AF6369557DB33949F31A9088B0F848DD8CCFCF9F2767A76E99CCDE733677E3EF59D9BBB9BA5E37F984D16E78BC5E5F5ED25044B25C0C96822E8D60EEFE11B91C581D77CEA34368A1F5329E68CD1B8B61F16D63A1B8E092D294B10C78C4A48EB593D192E7DED9BDEE7995E1B91FDEDD3ACEA9FE831
310
6A756F9F7D4D79F4274C90A7A04248AA51D5F8C718DAE06FB2F75AC4796EBE65D22A88A22223B995679120E2D50E41AA49C260C046A35368846B0BECD0DFF3EBEB8AD4F835768F69B9ADF25C43D30E6B646F807FAA64AD59F61715C7A54127C4AACA98BA3006A9D792DAE165E0D59B61A01FB3A9F9D838D2DAE62445C86166
310
F37564E842E7DE6A69879FEEA2DD5AE7E371E1A5E025154AC307D06A03D73EB5978C58FFA4C8E9033066E0F3BD53BEC1F39F91BE7B55103791EDE6BBB991A2046172CB4581D8B893FA674DDA17A77B3B7C413D1B511FD2743BFF8A38F03A658705E3ADF8015C3A3417FF3D7E439FF591DA0B5F18BC20C1B8981957AE6392A3
310
F43C640C01D1A0B4728E2DD4F26DB4B3C3152A252A3B4E913CEC1C72F012782FF88EFF8637AA552DBEF76408E8A8DE9E50F9E1CB3A2DA0DB1B6039A893B56063DC5B3E3FFB5F72E67AB9FEB4AEC496C4F4C1149625DD662C53E89D7BF0F6151A046260D1337DFDC94502430F83B0EE07A130A224BCAD7DAE1D9FB6CD422FF6
310
920702629C4BB9AE79C12F243C6432A6794E18E5552BA56B431AAB5D91317302B2B071E86C3A42B1A02F999E24061403B5D0EB639195DA655DD3EBEAB4FB862DDF579F014AD0E73C22F99E28DA57FB98E75C6CA2D74D53086D600F4786E0FE3144B771A8A7B900F03594DB8A633CBC49B2EDB69228BB479CF863B5E807AAAB
310
23872F6DFEB4129B949CA33823F58830E86D65621E10047D9DB34D862E8EAC3C2ABC2F7B2C40D67CDFE01F5545B92105AF983AC54D93D69E56FB8E797F88913F898A9FEC705D3F9D1B54EC8426FB500D40A03BD0119B06E1B95DDC7EB8F6975367793EBD70E66733DFB9BC982F9CE564727731999F5D4ECFCE3B8D6A4DC2A0
310
6D50FD148437D110834A64C6CDDF57FBACB5C307A2A477DFE4939736CFEF2B175371E0E10CF0DD1D5C15654E0BCA14D1E87DD02FF93782A162C0A3D95F1524A52770F972BF1EE9809D13CE7DD599467F8ECE9ADD85CE85A34CD45355448C64F9E8A031DC2D596ACC6E5DD93D9B82DE2EF5CAF81363A8E47996A0DE24564A79
310
4115AACE09C55E14540231FDA13C319787134EBF34E3A022514E5B4D9E0826E25C02D5805B15ABE1BEF51B26383D445DD9E875EE33FE4C22DA16427D65A3BCA92CA6D28DD01DF5DC53330704308475351050232CCD31583787BA75774AFB06E5070DD0C8EF484E19968C5D83BA5B90B244D31E54D55A372320FE4786B7EA58
310
44E135AA5467CB7EA333A61683CC6A8C3257034C10CF46F40EF9F5BE59BE5BD30C3C72D235E95D10345C1D45445A5F0BB47E46A5EBE5570F9380B5FA629579952296A773720405982B9DE04011506178964401AA8BDF1FBF0A8EAB6861DD6580C0E38217056766716DAEB2D6FA0917D3E4116581EADB879C4E7CFFB11EFACD
310
3D641311495D92C8676CB409A72D18610D803CE8A626049E8EC1887CB5B44CC39883690DDA8399B4B9855B481E7D71D4A9D22F96E5BB73BF5793020C02137BF837504B0304140006080000CC70623B000000000000000000000000350000006662782F36394639363044362D344446342D343946362D394244322D32343142
310
43333846323333332F76657274696365732E62696E504B0304140006080800CC70623BF270F1330600000004000000360000006662782F36394639363044362D344446342D343946362D394244322D3234314243333846323333332F747269616E676C65732E62696E636660600000504B0304140006080000CC70623B0000
310
00000000000000000000370000006662782F36394639363044362D344446342D343946362D394244322D3234314243333846323333332F617474726962757465732E62696E504B0304140006080800CC70623B08DA0BD19000000041010000360000006662782F36394639363044362D344446342D343946362D394244322D
310
3234314243333846323333332F6469726563746F72792E786D6C858F410AC3201045AF22B36F53E9A60B35CBEEBAE80D244E44489C6234F4F835464A48035D0DF398FF9F8AF63D0E6CC63039F212F8F9020C7D47C6792B21C5FE7403D62A1188E2E60C98D7234A5830286103A55745067B9D86B8A3CF9C7F90C11DE607FB14
310
4396D7B6A82D282E9A152AD114D5EF2CB866EEE831B8EEA07A7BB5A8D7D61A2BAAEB7FD5F70921FF497D00504B0304140006080800CC70623BCA768048FE000000A00100003B0000006662782F36394639363044362D344446342D343946362D394244322D3234314243333846323333332F7265736F75726365732F636F72
310
652E786D6C8D50596E833010BD0A9ADFCA60D600328E9AA639412F609909B1126CE4A5EAF16B0295DABFFECC8CDEA2797AECF8353F924FB44E193D409E5248504B332A3D0D10FC95B4901C39B3C6F85F3248B49871801506CE266BC2B243D2688FDA47549B11775038871E12F988C7004EDE7016A9083E2ADC3D5D84BC8B09
310
D33C8D74D471E6BC8D0192EDC93A815B742658898E651BCB59086ADC356A8C3FD555A1055ED7E7E254D615792D0F075295F585746FF53B694EE78A565DD736979A65AB9933AFE69F8CD2A2F038022F28ED489E135A7CE4554F9BBEA85E68DB53CAB255FEC71496F19FA6A0B42F8B3DEE6673C0F318E4497096AD7DC5F52C33
310
EEB55BFE0D504B010214000A0000080000CC70623B3DEE336E79000000790000001B00000000000000000000000000000000006175746F6465736B2D64657369676E2D7061636B6167652E786D6C504B01021400140006080800CC70623BD486FD9CA0000000F40000001300000000000000000000000000B20000005B436F
310
6E74656E745F54797065735D2E786D6C504B01021400140006080800CC70623BD9DDAED0EC0000007C010000080000000000000000000000000083010000636F72652E786D6C504B01021400140006080800CC70623B55019EA25F0000007C000000070000000000000000000000000095020000636E782E786D6C504B0102
310
1400140006080800CC70623BA24EB22D72010000D40300000C00000000000000000000000000190300006662782F636F72652E786D6C504B01021400140006080800CC70623B408A7D3B7C0000009D0000000B00000000000000000000000000B50400006662782F636E782E786D6C504B01021400140006080800CC70623B
310
449FB9BD290100001202000031000000000000000000000000005A0500006662782F36394639363044362D344446342D343946362D394244322D3234314243333846323333332F636F72652E786D6C504B01021400140006080800CC70623BAD7543B64E010000330300003000000000000000000000000000D20600006662
310
782F36394639363044362D344446342D343946362D394244322D3234314243333846323333332F636E782E786D6C504B01021400140006080800CC70623B8D05915C650500003B10000034000000000000000000000000006E0800006662782F36394639363044362D344446342D343946362D394244322D32343142433338
310
46323333332F6F626A656374732E786D6C504B01021400140006080000CC70623B0000000000000000000000003500000000000000000000000000250E00006662782F36394639363044362D344446342D343946362D394244322D3234314243333846323333332F76657274696365732E62696E504B010214001400060808
310
00CC70623BF270F13306000000040000003600000000000000000000000000780E00006662782F36394639363044362D344446342D343946362D394244322D3234314243333846323333332F747269616E676C65732E62696E504B01021400140006080000CC70623B00000000000000000000000037000000000000000000
310
00000000D20E00006662782F36394639363044362D344446342D343946362D394244322D3234314243333846323333332F617474726962757465732E62696E504B01021400140006080800CC70623B08DA0BD190000000410100003600000000000000000000000000270F00006662782F36394639363044362D344446342D
310
343946362D394244322D3234314243333846323333332F6469726563746F72792E786D6C504B01021400140006080800CC70623BCA768048FE000000A00100003B000000000000000000000000000B1000006662782F36394639363044362D344446342D343946362D394244322D3234314243333846323333332F7265736F
310
75726365732F636F72652E786D6C504B0506000000000E000E0080040000621100000000
  0
XRECORD
  5
10
102
{ACAD_REACTORS
330
C
102
}
330
C
100
AcDbXrecord
280
     1
270
     1
271
     1
  0
XRECORD
  5
11
102
{ACAD_REACTORS
330
C
102
}
330
C
100
AcDbXrecord
280
     1
270
     1
271
     1
  0
CELLSTYLEMAP
  5
169
102
{ACAD_REACTORS
330
44
102
}
330
44
100
AcDbCellStyleMap
 90
        3
300
CELLSTYLE
  1
TABLEFORMAT_BEGIN
 90
        5
170
     1
 91
        0
 92
    32768
 62
   257
 93
        1
300
CONTENTFORMAT
  1
CONTENTFORMAT_BEGIN
 90
        0
 91
        0
 92
      512
 93
        0
300

 40
0.0
140
1.0
 94
        5
 62
     0
340
21
144
6.0
309
CONTENTFORMAT_END
171
     1
301
MARGIN
  1
CELLMARGIN_BEGIN
 40
1.5
 40
1.5
 40
1.5
 40
1.5
 40
4.5
 40
4.5
309
CELLMARGIN_END
 94
        6
 95
        1
302
GRIDFORMAT
  1
GRIDFORMAT_BEGIN
 90
        0
 91
        1
 62
     0
 92
       -2
340
24
 93
        0
 40
1.125
309
GRIDFORMAT_END
 95
        2
302
GRIDFORMAT
  1
GRIDFORMAT_BEGIN
 90
        0
 91
        1
 62
     0
 92
       -2
340
24
 93
        0
 40
1.125
309
GRIDFORMAT_END
 95
        4
302
GRIDFORMAT
  1
GRIDFORMAT_BEGIN
 90
        0
 91
        1
 62
     0
 92
       -2
340
24
 93
        0
 40
1.125
309
GRIDFORMAT_END
 95
        8
302
GRIDFORMAT
  1
GRIDFORMAT_BEGIN
 90
        0
 91
        1
 62
     0
 92
       -2
340
24
 93
        0
 40
1.125
309
GRIDFORMAT_END
 95
       16
302
GRIDFORMAT
  1
GRIDFORMAT_BEGIN
 90
        0
 91
        1
 62
     0
 92
       -2
340
24
 93
        0
 40
1.125
309
GRIDFORMAT_END
 95
       32
302
GRIDFORMAT
  1
GRIDFORMAT_BEGIN
 90
        0
 91
        1
 62
     0
 92
       -2
340
24
 93
        0
 40
1.125
309
GRIDFORMAT_END
309
TABLEFORMAT_END
  1
CELLSTYLE_BEGIN
 90
        1
 91
        1
300
_TITLE
309
CELLSTYLE_END
300
CELLSTYLE
  1
TABLEFORMAT_BEGIN
 90
        5
170
     1
 91
        0
 92
        0
 62
   257
 93
        1
300
CONTENTFORMAT
  1
CONTENTFORMAT_BEGIN
 90
        0
 91
        0
 92
      512
 93
        0
300

 40
0.0
140
1.0
 94
        5
 62
     0
340
21
144
4.5
309
CONTENTFORMAT_END
171
     1
301
MARGIN
  1
CELLMARGIN_BEGIN
 40
1.5
 40
1.5
 40
1.5
 40
1.5
 40
4.5
 40
4.5
309
CELLMARGIN_END
 94
        6
 95
        1
302
GRIDFORMAT
  1
GRIDFORMAT_BEGIN
 90
        0
 91
        1
 62
     0
 92
       -2
340
24
 93
        0
 40
1.125
309
GRIDFORMAT_END
 95
        2
302
GRIDFORMAT
  1
GRIDFORMAT_BEGIN
 90
        0
 91
        1
 62
     0
 92
       -2
340
24
 93
        0
 40
1.125
309
GRIDFORMAT_END
 95
        4
302
GRIDFORMAT
  1
GRIDFORMAT_BEGIN
 90
        0
 91
        1
 62
     0
 92
       -2
340
24
 93
        0
 40
1.125
309
GRIDFORMAT_END
 95
        8
302
GRIDFORMAT
  1
GRIDFORMAT_BEGIN
 90
        0
 91
        1
 62
     0
 92
       -2
340
24
 93
        0
 40
1.125
309
GRIDFORMAT_END
 95
       16
302
GRIDFORMAT
  1
GRIDFORMAT_BEGIN
 90
        0
 91
        1
 62
     0
 92
       -2
340
24
 93
        0
 40
1.125
309
GRIDFORMAT_END
 95
       32
302
GRIDFORMAT
  1
GRIDFORMAT_BEGIN
 90
        0
 91
        1
 62
     0
 92
       -2
340
24
 93
        0
 40
1.125
309
GRIDFORMAT_END
309
TABLEFORMAT_END
  1
CELLSTYLE_BEGIN
 90
        2
 91
        1
300
_HEADER
309
CELLSTYLE_END
300
CELLSTYLE
  1
TABLEFORMAT_BEGIN
 90
        5
170
     1
 91
        0
 92
        0
 62
   257
 93
        1
300
CONTENTFORMAT
  1
CONTENTFORMAT_BEGIN
 90
        0
 91
        0
 92
      512
 93
        0
300

 40
0.0
140
1.0
 94
        2
 62
     0
340
21
144
4.5
309
CONTENTFORMAT_END
171
     1
301
MARGIN
  1
CELLMARGIN_BEGIN
 40
1.5
 40
1.5
 40
1.5
 40
1.5
 40
4.5
 40
4.5
309
CELLMARGIN_END
 94
        6
 95
        1
302
GRIDFORMAT
  1
GRIDFORMAT_BEGIN
 90
        0
 91
        1
 62
     0
 92
       -2
340
24
 93
        0
 40
1.125
309
GRIDFORMAT_END
 95
        2
302
GRIDFORMAT
  1
GRIDFORMAT_BEGIN
 90
        0
 91
        1
 62
     0
 92
       -2
340
24
 93
        0
 40
1.125
309
GRIDFORMAT_END
 95
        4
302
GRIDFORMAT
  1
GRIDFORMAT_BEGIN
 90
        0
 91
        1
 62
     0
 92
       -2
340
24
 93
        0
 40
1.125
309
GRIDFORMAT_END
 95
        8
302
GRIDFORMAT
  1
GRIDFORMAT_BEGIN
 90
        0
 91
        1
 62
     0
 92
       -2
340
24
 93
        0
 40
1.125
309
GRIDFORMAT_END
 95
       16
302
GRIDFORMAT
  1
GRIDFORMAT_BEGIN
 90
        0
 91
        1
 62
     0
 92
       -2
340
24
 93
        0
 40
1.125
309
GRIDFORMAT_END
 95
       32
302
GRIDFORMAT
  1
GRIDFORMAT_BEGIN
 90
        0
 91
        1
 62
     0
 92
       -2
340
24
 93
        0
 40
1.125
309
GRIDFORMAT_END
309
TABLEFORMAT_END
  1
CELLSTYLE_BEGIN
 90
        3
 91
        2
300
_DATA
309
CELLSTYLE_END
  0
ENDSEC
  0
SECTION
  2
ACDSDATA
 70
     2
 71
     8
  0
ACDSSCHEMA
 90
        0
  1
AcDb_Thumbnail_Schema
  2
AcDbDs::ID
280
    10
 91
        8
  2
Thumbnail_Data
280
    15
 91
        0
101
ACDSRECORD
 95
        0
 90
        1
  2
AcDbDs::TreatedAsObjectData
280
     1
291
     1
101
ACDSRECORD
 95
        0
 90
        2
  2
AcDbDs::Legacy
280
     1
291
     1
101
ACDSRECORD
  1
AcDbDs::ID
 90
        3
  2
AcDs:Indexable
280
     1
291
     1
101
ACDSRECORD
  1
AcDbDs::ID
 90
        4
  2
AcDbDs::HandleAttribute
280
     7
282
     1
  0
ACDSSCHEMA
 90
        1
  1
AcDbDs::TreatedAsObjectDataSchema
  2
AcDbDs::TreatedAsObjectData
280
     1
 91
        0
  0
ACDSSCHEMA
 90
        2
  1
AcDbDs::LegacySchema
  2
AcDbDs::Legacy
280
     1
 91
        0
  0
ACDSSCHEMA
 90
        3
  1
AcDbDs::IndexedPropertySchema
  2
AcDs:Indexable
280
     1
 91
        0
  0
ACDSSCHEMA
 90
        4
  1
AcDbDs::HandleAttributeSchema
  2
AcDbDs::HandleAttribute
280
     7
 91
        1
284
     1
  0
ACDSRECORD
 90
        0
  2
AcDbDs::ID
280
    10
320
15
  2
Thumbnail_Data
280
    15
 94
      896
310
89504E470D0A1A0A0000000D49484452000001000000009108030000001BE1960600000300504C5445212830FFFFFF2128300000000000000000000000000000000000000000000000000000330000660000990000CC0000FF0033000033330033660033990033CC0033FF0066000066330066660066990066CC0066FF0099
310
000099330099660099990099CC0099FF00CC0000CC3300CC6600CC9900CCCC00CCFF00FF0000FF3300FF6600FF9900FFCC00FFFF3300003300333300663300993300CC3300FF3333003333333333663333993333CC3333FF3366003366333366663366993366CC3366FF3399003399333399663399993399CC3399FF33CC00
310
33CC3333CC6633CC9933CCCC33CCFF33FF0033FF3333FF6633FF9933FFCC33FFFF6600006600336600666600996600CC6600FF6633006633336633666633996633CC6633FF6666006666336666666666996666CC6666FF6699006699336699666699996699CC6699FF66CC0066CC3366CC6666CC9966CCCC66CCFF66FF0066
310
FF3366FF6666FF9966FFCC66FFFF9900009900339900669900999900CC9900FF9933009933339933669933999933CC9933FF9966009966339966669966999966CC9966FF9999009999339999669999999999CC9999FF99CC0099CC3399CC6699CC9999CCCC99CCFF99FF0099FF3399FF6699FF9999FFCC99FFFFCC0000CC00
310
33CC0066CC0099CC00CCCC00FFCC3300CC3333CC3366CC3399CC33CCCC33FFCC6600CC6633CC6666CC6699CC66CCCC66FFCC9900CC9933CC9966CC9999CC99CCCC99FFCCCC00CCCC33CCCC66CCCC99CCCCCCCCCCFFCCFF00CCFF33CCFF66CCFF99CCFFCCCCFFFFFF0000FF0033FF0066FF0099FF00CCFF00FFFF3300FF3333
310
FF3366FF3399FF33CCFF33FFFF6600FF6633FF6666FF6699FF66CCFF66FFFF9900FF9933FF9966FF9999FF99CCFF99FFFFCC00FFCC33FFCC66FFCC99FFCCCCFFCCFFFFFF00FFFF33FFFF66FFFF99FFFFCCFFFFFF0000000D0D0D1A1A1A2828283535354343435050505D5D5D6B6B6B787878868686939393A1A1A1AEAEAEBB
310
BBBBC9C9C9D6D6D6E4E4E4F1F1F1FFFFFF0000000000000000000000000000000000000000000000000000000000002E4550F10000003B4944415478DAEDC13101000000C2A0F54F6D0B2FA0000000000000000000000000000000000000000000000000000000000000000000000000CE06919100016C9A5B1B0000000049
310
454E44AE426082
  0
ENDSEC
  0
EOF
