  0
SECTION
  2
HEADER
  9
$ACADVER
  1
AC1032
  9
$ACADMAINTVER
 90
        4
  9
$DWGCODEPAGE
  3
ANSI_932
  9
$REQUIREDVERSIONS
160
                 0
  9
$INSBASE
 10
0.0
 20
0.0
 30
0.0
  9
$EXTMIN
 10
2694.801630817775
 20
1337.228005998452
 30
0.0
  9
$EXTMAX
 10
2744.801630817784
 20
1354.161601691918
 30
0.0
  9
$LIMMIN
 10
2688.4065219365
 20
1328.162308026828
  9
$LIMMAX
 10
2752.780624193341
 20
1363.842744365596
  9
$ORTHOMODE
 70
     0
  9
$REGENMODE
 70
     1
  9
$FILLMODE
 70
     1
  9
$QTEXTMODE
 70
     0
  9
$MIRRTEXT
 70
     0
  9
$LTSCALE
 40
1.0
  9
$ATTMODE
 70
     1
  9
$TEXTSIZE
 40
2.5
  9
$TRACEWID
 40
1.0
  9
$TEXTSTYLE
  7
Standard
  9
$CLAYER
  8
0
  9
$CELTYPE
  6
ByLayer
  9
$CECOLOR
 62
   256
  9
$CELTSCALE
 40
1.0
  9
$DISPSILH
 70
     0
  9
$DIMSCALE
 40
1.0
  9
$DIMASZ
 40
2.5
  9
$DIMEXO
 40
0.625
  9
$DIMDLI
 40
3.75
  9
$DIMRND
 40
0.0
  9
$DIMDLE
 40
0.0
  9
$DIMEXE
 40
1.25
  9
$DIMTP
 40
0.0
  9
$DIMTM
 40
0.0
  9
$DIMTXT
 40
2.5
  9
$DIMCEN
 40
2.5
  9
$DIMTSZ
 40
0.0
  9
$DIMTOL
 70
     0
  9
$DIMLIM
 70
     0
  9
$DIMTIH
 70
     0
  9
$DIMTOH
 70
     0
  9
$DIMSE1
 70
     0
  9
$DIMSE2
 70
     0
  9
$DIMTAD
 70
     1
  9
$DIMZIN
 70
     8
  9
$DIMBLK
  1

  9
$DIMASO
 70
     1
  9
$DIMSHO
 70
     1
  9
$DIMPOST
  1

  9
$DIMAPOST
  1

  9
$DIMALT
 70
     0
  9
$DIMALTD
 70
     3
  9
$DIMALTF
 40
0.03937007874016
  9
$DIMLFAC
 40
1.0
  9
$DIMTOFL
 70
     1
  9
$DIMTVP
 40
0.0
  9
$DIMTIX
 70
     0
  9
$DIMSOXD
 70
     0
  9
$DIMSAH
 70
     0
  9
$DIMBLK1
  1

  9
$DIMBLK2
  1

  9
$DIMSTYLE
  2
ISO-25
  9
$DIMCLRD
 70
     0
  9
$DIMCLRE
 70
     0
  9
$DIMCLRT
 70
     0
  9
$DIMTFAC
 40
1.0
  9
$DIMGAP
 40
0.625
  9
$DIMJUST
 70
     0
  9
$DIMSD1
 70
     0
  9
$DIMSD2
 70
     0
  9
$DIMTOLJ
 70
     0
  9
$DIMTZIN
 70
     8
  9
$DIMALTZ
 70
     0
  9
$DIMALTTZ
 70
     0
  9
$DIMUPT
 70
     0
  9
$DIMDEC
 70
     2
  9
$DIMTDEC
 70
     2
  9
$DIMALTU
 70
     2
  9
$DIMALTTD
 70
     3
  9
$DIMTXSTY
  7
Standard
  9
$DIMAUNIT
 70
     0
  9
$DIMADEC
 70
     0
  9
$DIMALTRND
 40
0.0
  9
$DIMAZIN
 70
     0
  9
$DIMDSEP
 70
    44
  9
$DIMATFIT
 70
     3
  9
$DIMFRAC
 70
     0
  9
$DIMLDRBLK
  1

  9
$DIMLUNIT
 70
     2
  9
$DIMLWD
 70
    -2
  9
$DIMLWE
 70
    -2
  9
$DIMTMOVE
 70
     0
  9
$DIMFXL
 40
1.0
  9
$DIMFXLON
 70
     0
  9
$DIMJOGANG
 40
0.7853981633974483
  9
$DIMTFILL
 70
     0
  9
$DIMTFILLCLR
 70
     0
  9
$DIMARCSYM
 70
     0
  9
$DIMLTYPE
  6

  9
$DIMLTEX1
  6

  9
$DIMLTEX2
  6

  9
$DIMTXTDIRECTION
 70
     0
  9
$LUNITS
 70
     2
  9
$LUPREC
 70
     4
  9
$SKETCHINC
 40
1.0
  9
$FILLETRAD
 40
0.0
  9
$AUNITS
 70
     0
  9
$AUPREC
 70
     0
  9
$MENU
  1
.
  9
$ELEVATION
 40
0.0
  9
$PELEVATION
 40
0.0
  9
$THICKNESS
 40
0.0
  9
$LIMCHECK
 70
     0
  9
$CHAMFERA
 40
0.0
  9
$CHAMFERB
 40
0.0
  9
$CHAMFERC
 40
0.0
  9
$CHAMFERD
 40
0.0
  9
$SKPOLY
 70
     0
  9
$TDCREATE
 40
2459032.629699074
  9
$TDUCREATE
 40
2459032.296365741
  9
$TDUPDATE
 40
2459032.629699074
  9
$TDUUPDATE
 40
2459032.296365741
  9
$TDINDWG
 40
0.0005787037
  9
$TDUSRTIMER
 40
0.0005787037
  9
$USRTIMER
 70
     1
  9
$ANGBASE
 50
0.0
  9
$ANGDIR
 70
     0
  9
$PDMODE
 70
     0
  9
$PDSIZE
 40
0.0
  9
$PLINEWID
 40
0.0
  9
$SPLFRAME
 70
     0
  9
$SPLINETYPE
 70
     6
  9
$SPLINESEGS
 70
     8
  9
$HANDSEED
  5
167
  9
$SURFTAB1
 70
     6
  9
$SURFTAB2
 70
     6
  9
$SURFTYPE
 70
     6
  9
$SURFU
 70
     6
  9
$SURFV
 70
     6
  9
$UCSBASE
  2

  9
$UCSNAME
  2

  9
$UCSORG
 10
0.0
 20
0.0
 30
0.0
  9
$UCSXDIR
 10
1.0
 20
0.0
 30
0.0
  9
$UCSYDIR
 10
0.0
 20
1.0
 30
0.0
  9
$UCSORTHOREF
  2

  9
$UCSORTHOVIEW
 70
     0
  9
$UCSORGTOP
 10
0.0
 20
0.0
 30
0.0
  9
$UCSORGBOTTOM
 10
0.0
 20
0.0
 30
0.0
  9
$UCSORGLEFT
 10
0.0
 20
0.0
 30
0.0
  9
$UCSORGRIGHT
 10
0.0
 20
0.0
 30
0.0
  9
$UCSORGFRONT
 10
0.0
 20
0.0
 30
0.0
  9
$UCSORGBACK
 10
0.0
 20
0.0
 30
0.0
  9
$PUCSBASE
  2

  9
$PUCSNAME
  2

  9
$PUCSORG
 10
0.0
 20
0.0
 30
0.0
  9
$PUCSXDIR
 10
1.0
 20
0.0
 30
0.0
  9
$PUCSYDIR
 10
0.0
 20
1.0
 30
0.0
  9
$PUCSORTHOREF
  2

  9
$PUCSORTHOVIEW
 70
     0
  9
$PUCSORGTOP
 10
0.0
 20
0.0
 30
0.0
  9
$PUCSORGBOTTOM
 10
0.0
 20
0.0
 30
0.0
  9
$PUCSORGLEFT
 10
0.0
 20
0.0
 30
0.0
  9
$PUCSORGRIGHT
 10
0.0
 20
0.0
 30
0.0
  9
$PUCSORGFRONT
 10
0.0
 20
0.0
 30
0.0
  9
$PUCSORGBACK
 10
0.0
 20
0.0
 30
0.0
  9
$USERI1
 70
     0
  9
$USERI2
 70
     0
  9
$USERI3
 70
     0
  9
$USERI4
 70
     0
  9
$USERI5
 70
     0
  9
$USERR1
 40
0.0
  9
$USERR2
 40
0.0
  9
$USERR3
 40
0.0
  9
$USERR4
 40
0.0
  9
$USERR5
 40
0.0
  9
$WORLDVIEW
 70
     1
  9
$SHADEDGE
 70
     3
  9
$SHADEDIF
 70
    70
  9
$TILEMODE
 70
     1
  9
$MAXACTVP
 70
    64
  9
$PINSBASE
 10
0.0
 20
0.0
 30
0.0
  9
$PLIMCHECK
 70
     0
  9
$PEXTMIN
 10
0.0
 20
0.0
 30
0.0
  9
$PEXTMAX
 10
0.0
 20
0.0
 30
0.0
  9
$PLIMMIN
 10
0.0
 20
0.0
  9
$PLIMMAX
 10
12.0
 20
9.0
  9
$UNITMODE
 70
     0
  9
$VISRETAIN
 70
     1
  9
$PLINEGEN
 70
     0
  9
$PSLTSCALE
 70
     1
  9
$TREEDEPTH
 70
  3020
  9
$CMLSTYLE
  2
Standard
  9
$CMLJUST
 70
     0
  9
$CMLSCALE
 40
20.0
  9
$PROXYGRAPHICS
 70
     1
  9
$MEASUREMENT
 70
     1
  9
$CELWEIGHT
370
    -1
  9
$ENDCAPS
280
     0
  9
$JOINSTYLE
280
     0
  9
$LWDISPLAY
290
     0
  9
$INSUNITS
 70
     4
  9
$HYPERLINKBASE
  1

  9
$STYLESHEET
  1

  9
$XEDIT
290
     1
  9
$CEPSNTYPE
380
     0
  9
$PSTYLEMODE
290
     1
  9
$FINGERPRINTGUID
  2
{DF0AB2F3-4B7C-0C4F-9A58-41B813F5E5C5}
  9
$VERSIONGUID
  2
{0884754D-1740-0B47-BF07-D960D6583E1A}
  9
$EXTNAMES
290
     1
  9
$PSVPSCALE
 40
0.0
  9
$OLESTARTUP
290
     0
  9
$SORTENTS
280
   127
  9
$INDEXCTL
280
     0
  9
$HIDETEXT
280
     1
  9
$XCLIPFRAME
280
     2
  9
$HALOGAP
280
     0
  9
$OBSCOLOR
 70
   257
  9
$OBSLTYPE
280
     0
  9
$INTERSECTIONDISPLAY
280
     0
  9
$INTERSECTIONCOLOR
 70
   257
  9
$DIMASSOC
280
     2
  9
$PROJECTNAME
  1

  9
$CAMERADISPLAY
290
     0
  9
$LENSLENGTH
 40
50.0
  9
$CAMERAHEIGHT
 40
0.0
  9
$STEPSPERSEC
 40
2.0
  9
$STEPSIZE
 40
6.0
  9
$3DDWFPREC
 40
2.0
  9
$PSOLWIDTH
 40
5.0
  9
$PSOLHEIGHT
 40
80.0
  9
$LOFTANG1
 40
1.570796326794896
  9
$LOFTANG2
 40
1.570796326794896
  9
$LOFTMAG1
 40
0.0
  9
$LOFTMAG2
 40
0.0
  9
$LOFTPARAM
 70
     7
  9
$LOFTNORMALS
280
     1
  9
$LATITUDE
 40
37.795
  9
$LONGITUDE
 40
-122.394
  9
$NORTHDIRECTION
 40
0.0
  9
$TIMEZONE
 70
 -8000
  9
$LIGHTGLYPHDISPLAY
280
     1
  9
$TILEMODELIGHTSYNCH
280
     1
  9
$CMATERIAL
347
38
  9
$SOLIDHIST
280
     0
  9
$SHOWHIST
280
     1
  9
$DWFFRAME
280
     2
  9
$DGNFRAME
280
     0
  9
$REALWORLDSCALE
290
     1
  9
$INTERFERECOLOR
 62
     1
  9
$INTERFEREOBJVS
345
45
  9
$INTERFEREVPVS
346
46
  9
$CSHADOW
280
     0
  9
$SHADOWPLANELOCATION
 40
0.0
  0
ENDSEC
  0
SECTION
  2
CLASSES
  0
CLASS
  1
ACDBDICTIONARYWDFLT
  2
AcDbDictionaryWithDefault
  3
ObjectDBX Classes
 90
        0
 91
        1
280
     0
281
     0
  0
CLASS
  1
DICTIONARYVAR
  2
AcDbDictionaryVar
  3
ObjectDBX Classes
 90
        0
 91
        5
280
     0
281
     0
  0
CLASS
  1
TABLESTYLE
  2
AcDbTableStyle
  3
ObjectDBX Classes
 90
     4095
 91
        1
280
     0
281
     0
  0
CLASS
  1
MATERIAL
  2
AcDbMaterial
  3
ObjectDBX Classes
 90
     1153
 91
        3
280
     0
281
     0
  0
CLASS
  1
VISUALSTYLE
  2
AcDbVisualStyle
  3
ObjectDBX Classes
 90
     4095
 91
        3
280
     0
281
     0
  0
CLASS
  1
SCALE
  2
AcDbScale
  3
ObjectDBX Classes
 90
     1153
 91
       17
280
     0
281
     0
  0
CLASS
  1
MLEADERSTYLE
  2
AcDbMLeaderStyle
  3
ACDB_MLEADERSTYLE_CLASS
 90
     4095
 91
        0
280
     0
281
     0
  0
CLASS
  1
CELLSTYLEMAP
  2
AcDbCellStyleMap
  3
ObjectDBX Classes
 90
     1152
 91
        1
280
     0
281
     0
  0
CLASS
  1
EXACXREFPANELOBJECT
  2
ExAcXREFPanelObject
  3
EXAC_ESW
 90
     1025
 91
        0
280
     1
281
     0
  0
CLASS
  1
NPOCOLLECTION
  2
AcDbImpNonPersistentObjectsCollection
  3
ObjectDBX Classes
 90
     1153
 91
        0
280
     0
281
     0
  0
CLASS
  1
LAYER_INDEX
  2
AcDbLayerIndex
  3
ObjectDBX Classes
 90
        0
 91
        0
280
     0
281
     0
  0
CLASS
  1
SPATIAL_INDEX
  2
AcDbSpatialIndex
  3
ObjectDBX Classes
 90
        0
 91
        0
280
     0
281
     0
  0
CLASS
  1
IDBUFFER
  2
AcDbIdBuffer
  3
ObjectDBX Classes
 90
        0
 91
        0
280
     0
281
     0
  0
CLASS
  1
ACDBSECTIONVIEWSTYLE
  2
AcDbSectionViewStyle
  3
ObjectDBX Classes
 90
     1025
 91
        0
280
     0
281
     0
  0
CLASS
  1
ACDBDETAILVIEWSTYLE
  2
AcDbDetailViewStyle
  3
ObjectDBX Classes
 90
     1025
 91
        0
280
     0
281
     0
  0
ENDSEC
  0
SECTION
  2
TABLES
  0
TABLE
  2
VPORT
  5
28
330
0
100
AcDbSymbolTable
 70
     1
  0
VPORT
  5
29
330
28
100
AcDbSymbolTableRecord
100
AcDbViewportTableRecord
  2
*Active
 70
     0
 10
0.0
 20
0.0
 11
1.0
 21
1.0
 12
2720.593573064921
 22
1346.002526196212
 13
0.0
 23
0.0
 14
10.0
 24
10.0
 15
10.0
 25
10.0
 16
0.0
 26
0.0
 36
1.0
 17
0.0
 27
0.0
 37
0.0
 40
35.94539007395724
 41
2.070631970260222
 42
50.0
 43
0.0
 44
0.0
 50
0.0
 51
0.0
 71
     0
 72
  1000
 73
     1
 74
     3
 75
     0
 76
     1
 77
     0
 78
     0
281
     0
 65
     1
110
0.0
120
0.0
130
0.0
111
1.0
121
0.0
131
0.0
112
0.0
122
1.0
132
0.0
 79
     0
146
0.0
348
2A
 60
     3
 61
     5
292
     1
282
     1
141
0.0
142
0.0
 63
   250
421
  3355443
1001
ACAD_NAV_VCDISPLAY
1070
     3
  0
ENDTAB
  0
TABLE
  2
LTYPE
  5
23
330
0
100
AcDbSymbolTable
 70
     1
  0
LTYPE
  5
24
330
23
100
AcDbSymbolTableRecord
100
AcDbLinetypeTableRecord
  2
ByBlock
 70
     0
  3

 72
    65
 73
     0
 40
0.0
  0
LTYPE
  5
25
330
23
100
AcDbSymbolTableRecord
100
AcDbLinetypeTableRecord
  2
ByLayer
 70
     0
  3

 72
    65
 73
     0
 40
0.0
  0
LTYPE
  5
13
330
23
100
AcDbSymbolTableRecord
100
AcDbLinetypeTableRecord
  2
Continuous
 70
     0
  3
Solid line
 72
    65
 73
     0
 40
0.0
  0
ENDTAB
  0
TABLE
  2
LAYER
  5
1D
102
{ACAD_XDICTIONARY
360
1E
102
}
330
0
100
AcDbSymbolTable
 70
     1
  0
LAYER
  5
5
102
{ACAD_XDICTIONARY
360
6
102
}
330
1D
100
AcDbSymbolTableRecord
100
AcDbLayerTableRecord
  2
0
 70
     0
 62
     7
  6
Continuous
370
    -3
390
7
347
A
348
0
  0
ENDTAB
  0
TABLE
  2
STYLE
  5
20
330
0
100
AcDbSymbolTable
 70
     1
  0
STYLE
  5
21
330
20
100
AcDbSymbolTableRecord
100
AcDbTextStyleTableRecord
  2
Standard
 70
     0
 40
0.0
 41
1.0
 50
0.0
 71
     0
 42
2.5
  3
arial.ttf
  4

1001
ACAD
1000
Arial
1071
       34
  0
ENDTAB
  0
TABLE
  2
VIEW
  5
26
330
0
100
AcDbSymbolTable
 70
     0
  0
ENDTAB
  0
TABLE
  2
UCS
  5
27
330
0
100
AcDbSymbolTable
 70
     0
  0
ENDTAB
  0
TABLE
  2
APPID
  5
2D
330
0
100
AcDbSymbolTable
 70
     6
  0
APPID
  5
12
330
2D
100
AcDbSymbolTableRecord
100
AcDbRegAppTableRecord
  2
ACAD
 70
     0
  0
APPID
  5
18
330
2D
100
AcDbSymbolTableRecord
100
AcDbRegAppTableRecord
  2
ACAD_PSEXT
 70
     0
  0
APPID
  5
31
330
2D
100
AcDbSymbolTableRecord
100
AcDbRegAppTableRecord
  2
AcadAnnotative
 70
     0
  0
APPID
  5
32
330
2D
100
AcDbSymbolTableRecord
100
AcDbRegAppTableRecord
  2
ACAD_DSTYLE_DIMJAG
 70
     0
  0
APPID
  5
33
330
2D
100
AcDbSymbolTableRecord
100
AcDbRegAppTableRecord
  2
ACAD_DSTYLE_DIMTALN
 70
     0
  0
APPID
  5
2C
330
2D
100
AcDbSymbolTableRecord
100
AcDbRegAppTableRecord
  2
ACAD_NAV_VCDISPLAY
 70
     0
  0
ENDTAB
  0
TABLE
  2
DIMSTYLE
  5
2E
330
0
100
AcDbSymbolTable
 70
     2
100
AcDbDimStyleTable
 71
     2
340
2F
340
30
  0
DIMSTYLE
105
30
330
2E
100
AcDbSymbolTableRecord
100
AcDbDimStyleTableRecord
  2
Annotative
 70
     0
 40
0.0
 41
2.5
 42
0.625
 43
3.75
 44
1.25
 73
     0
 74
     0
 77
     1
 78
     8
140
2.5
141
2.5
143
0.03937007874016
147
0.625
171
     3
172
     1
271
     2
272
     2
274
     3
278
    44
283
     0
284
     8
340
21
1001
AcadAnnotative
1000
AnnotativeData
1002
{
1070
     1
1070
     1
1002
}
1001
ACAD_DSTYLE_DIMJAG
1070
   388
1040
1.5
1001
ACAD_DSTYLE_DIMTALN
1070
   392
1070
     0
  0
DIMSTYLE
105
2F
330
2E
100
AcDbSymbolTableRecord
100
AcDbDimStyleTableRecord
  2
ISO-25
 70
     0
 41
2.5
 42
0.625
 43
3.75
 44
1.25
 73
     0
 74
     0
 77
     1
 78
     8
140
2.5
141
2.5
143
0.03937007874016
147
0.625
171
     3
172
     1
271
     2
272
     2
274
     3
278
    44
283
     0
284
     8
340
21
  0
ENDTAB
  0
TABLE
  2
BLOCK_RECORD
  5
1
330
0
100
AcDbSymbolTable
 70
     0
  0
BLOCK_RECORD
  5
2
102
{ACAD_XDICTIONARY
360
3
102
}
330
1
100
AcDbSymbolTableRecord
100
AcDbBlockTableRecord
  2
*Model_Space
340
15
 70
     0
280
     1
281
     0
  0
BLOCK_RECORD
  5
19
330
1
100
AcDbSymbolTableRecord
100
AcDbBlockTableRecord
  2
*Paper_Space
340
1C
 70
     0
280
     1
281
     0
  0
ENDTAB
  0
ENDSEC
  0
SECTION
  2
BLOCKS
  0
BLOCK
  5
4
330
2
100
AcDbEntity
  8
0
100
AcDbBlockBegin
  2
*Model_Space
 70
     0
 10
0.0
 20
0.0
 30
0.0
  3
*Model_Space
  1

  0
ENDBLK
  5
14
330
2
100
AcDbEntity
  8
0
100
AcDbBlockEnd
  0
BLOCK
  5
1A
330
19
100
AcDbEntity
 67
     1
  8
0
100
AcDbBlockBegin
  2
*Paper_Space
 70
     0
 10
0.0
 20
0.0
 30
0.0
  3
*Paper_Space
  1

  0
ENDBLK
  5
1B
330
19
100
AcDbEntity
 67
     1
  8
0
100
AcDbBlockEnd
  0
ENDSEC
  0
SECTION
  2
ENTITIES
  0
LINE
  5
58
330
2
100
AcDbEntity
  8
0
100
AcDbLine
 10
2695.132262892617
 20
1340.133905345592
 30
0.0
 11
2695.132262892617
 21
1340.041123123036
 31
0.0
  0
LINE
  5
59
330
2
100
AcDbEntity
  8
0
100
AcDbLine
 10
2695.186378075363
 20
1340.167299972904
 30
0.0
 11
2695.14582713227
 21
1340.15500113142
 31
0.0
  0
LINE
  5
5A
330
2
100
AcDbEntity
  8
0
100
AcDbLine
 10
2744.467512829137
 20
1353.47923087167
 30
0.0
 11
2743.686118797328
 21
1354.155937953597
 31
0.0
  0
LINE
  5
5B
330
2
100
AcDbEntity
  8
0
100
AcDbLine
 10
2743.665995468936
 20
1354.161567243997
 30
0.0
 11
2743.625033817341
 21
1354.150335421516
 31
0.0
  0
LINE
  5
5C
330
2
100
AcDbEntity
  8
0
100
AcDbLine
 10
2744.470998742928
 20
1353.059886138763
 30
0.0
 11
2744.470998742928
 21
1353.471597204313
 31
0.0
  0
SPLINE
  5
5D
330
2
100
AcDbEntity
  8
0
100
AcDbSpline
210
0.0
220
0.0
230
1.0
 70
     8
 71
     3
 72
    10
 73
     6
 74
     0
 42
0.000000001
 43
0.0000000001
 40
0.0
 40
0.0
 40
0.0
 40
0.0
 40
0.2088942594710831
 40
0.6474627907920003
 40
1.0
 40
1.0
 40
1.0
 40
1.0
 10
2744.470826001439
 20
1353.471518239118
 30
0.0
 10
2744.470865822925
 20
1353.472115483225
 30
0.0
 10
2744.470989248672
 20
1353.473966627137
 30
0.0
 10
2744.469798429202
 20
1353.476918997932
 30
0.0
 10
2744.468119404891
 20
1353.478515170128
 30
0.0
 10
2744.467371188168
 20
1353.479226465803
 30
0.0
  0
LINE
  5
5E
330
2
100
AcDbEntity
  8
0
100
AcDbLine
 10
2703.738310960715
 20
1342.525475232598
 30
0.0
 11
2703.741466580503
 21
1342.682025994356
 31
0.0
  0
LINE
  5
5F
330
2
100
AcDbEntity
  8
0
100
AcDbLine
 10
2703.122116624741
 20
1342.570817241203
 30
0.0
 11
2703.126589639757
 21
1342.34888650423
 31
0.0
  0
SPLINE
  5
60
330
2
100
AcDbEntity
  8
0
100
AcDbSpline
210
0.0
220
0.0
230
1.0
 70
     8
 71
     3
 72
    11
 73
     7
 74
     0
 42
0.000000001
 43
0.0000000001
 40
0.0
 40
0.0
 40
0.0
 40
0.0
 40
0.1283858496743248
 40
0.4291556754178265
 40
0.7629336669563327
 40
1.0
 40
1.0
 40
1.0
 40
1.0
 10
2702.930183708848
 20
1342.467058447678
 30
0.0
 10
2702.926582871665
 20
1342.470423202966
 30
0.0
 10
2702.914546344921
 20
1342.481670578216
 30
0.0
 10
2702.885415571774
 20
1342.493274475846
 30
0.0
 10
2702.848151776668
 20
1342.502081134922
 30
0.0
 10
2702.822348160358
 20
1342.501428001332
 30
0.0
 10
2702.811632158754
 20
1342.501156761034
 30
0.0
  0
SPLINE
  5
61
330
2
100
AcDbEntity
  8
0
100
AcDbSpline
210
0.0
220
0.0
230
1.0
 70
     8
 71
     3
 72
    13
 73
     9
 74
     0
 42
0.000000001
 43
0.0000000001
 40
0.0
 40
0.0
 40
0.0
 40
0.0
 40
0.0999798005064066
 40
0.2896927787648919
 40
0.4800483223266477
 40
0.6713257593704825
 40
0.8639762064718187
 40
1.0
 40
1.0
 40
1.0
 40
1.0
 10
2702.811532362924
 20
1342.501897745122
 30
0.0
 10
2702.795956892297
 20
1342.501115145423
 30
0.0
 10
2702.750826762573
 20
1342.498847552566
 30
0.0
 10
2702.677583019428
 20
1342.489250020171
 30
0.0
 10
2702.595077033859
 20
1342.470859929128
 30
0.0
 10
2702.519318528441
 20
1342.445138273585
 30
0.0
 10
2702.458187414721
 20
1342.416225795524
 30
0.0
 10
2702.426032336117
 20
1342.394284920247
 30
0.0
 10
2702.412724765178
 20
1342.385204558236
 30
0.0
  0
LINE
  5
62
330
2
100
AcDbEntity
  8
0
100
AcDbLine
 10
2703.022887798335
 20
1342.389903789642
 30
0.0
 11
2702.931035204496
 21
1342.467870780861
 31
0.0
  0
LINE
  5
63
330
2
100
AcDbEntity
  8
0
100
AcDbLine
 10
2702.377494375433
 20
1342.321372800995
 30
0.0
 11
2702.377494375433
 21
1342.280100595655
 31
0.0
  0
SPLINE
  5
64
330
2
100
AcDbEntity
  8
0
100
AcDbSpline
210
0.0
220
0.0
230
1.0
 70
     8
 71
     3
 72
    10
 73
     6
 74
     0
 42
0.000000001
 43
0.0000000001
 40
0.0
 40
0.0
 40
0.0
 40
0.0
 40
0.2775196381320963
 40
0.6989868493862854
 40
1.0
 40
1.0
 40
1.0
 40
1.0
 10
2702.413746148319
 20
1342.384190693162
 30
0.0
 10
2702.408133832209
 20
1342.380272411489
 30
0.0
 10
2702.393998129304
 20
1342.370403461745
 30
0.0
 10
2702.380434704454
 20
1342.348664099629
 30
0.0
 10
2702.379220351284
 20
1342.33072611655
 30
0.0
 10
2702.378714404972
 20
1342.32325246178
 30
0.0
  0
LINE
  5
65
330
2
100
AcDbEntity
  8
0
100
AcDbLine
 10
2702.613910788773
 20
1342.57603639331
 30
0.0
 11
2702.612401937365
 21
1342.501195301968
 31
0.0
  0
LINE
  5
66
330
2
100
AcDbEntity
  8
0
100
AcDbLine
 10
2737.598705392311
 20
1352.300129152567
 30
0.0
 11
2737.6018598036
 21
1352.456679565458
 31
0.0
  0
LINE
  5
67
330
2
100
AcDbEntity
  8
0
100
AcDbLine
 10
2736.982511056337
 20
1352.345471161196
 30
0.0
 11
2736.986984071353
 21
1352.123540424199
 31
0.0
  0
SPLINE
  5
68
330
2
100
AcDbEntity
  8
0
100
AcDbSpline
210
0.0
220
0.0
230
1.0
 70
     8
 71
     3
 72
    11
 73
     7
 74
     0
 42
0.000000001
 43
0.0000000001
 40
0.0
 40
0.0
 40
0.0
 40
0.0
 40
0.1283832436757562
 40
0.4291561029447716
 40
0.7629258120987376
 40
1.0
 40
1.0
 40
1.0
 40
1.0
 10
2736.790576931928
 20
1352.241712018784
 30
0.0
 10
2736.786976572914
 20
1352.245076933488
 30
0.0
 10
2736.774941388262
 20
1352.256325081142
 30
0.0
 10
2736.745808511579
 20
1352.267927293451
 30
0.0
 10
2736.708545710422
 20
1352.276735456948
 30
0.0
 10
2736.682741848519
 20
1352.27608179928
 30
0.0
 10
2736.672025381833
 20
1352.275810332139
 30
0.0
  0
SPLINE
  5
69
330
2
100
AcDbEntity
  8
0
100
AcDbSpline
210
0.0
220
0.0
230
1.0
 70
     8
 71
     3
 72
    13
 73
     9
 74
     0
 42
0.000000001
 43
0.0000000001
 40
0.0
 40
0.0
 40
0.0
 40
0.0
 40
0.099982544445736
 40
0.2896955535004662
 40
0.4800481750369423
 40
0.6713286129343482
 40
0.8639761843909781
 40
1.0
 40
1.0
 40
1.0
 40
1.0
 10
2736.671926794528
 20
1352.276551665099
 30
0.0
 10
2736.656350923349
 20
1352.275768938052
 30
0.0
 10
2736.611220439348
 20
1352.273501016723
 30
0.0
 10
2736.537976682514
 20
1352.263903705053
 30
0.0
 10
2736.455470664251
 20
1352.245513596422
 30
0.0
 10
2736.379712405171
 20
1352.219792203459
 30
0.0
 10
2736.318581593161
 20
1352.190879496551
 30
0.0
 10
2736.286426776862
 20
1352.168938832936
 30
0.0
 10
2736.273119196783
 20
1352.159858478213
 30
0.0
  0
LINE
  5
6A
330
2
100
AcDbEntity
  8
0
100
AcDbLine
 10
2736.883281021409
 20
1352.164557360745
 30
0.0
 11
2736.791429636116
 21
1352.242524700853
 31
0.0
  0
LINE
  5
6B
330
2
100
AcDbEntity
  8
0
100
AcDbLine
 10
2736.23788759853
 20
1352.096026372097
 30
0.0
 11
2736.23788759853
 21
1352.054754166757
 31
0.0
  0
SPLINE
  5
6C
330
2
100
AcDbEntity
  8
0
100
AcDbSpline
210
0.0
220
0.0
230
1.0
 70
     8
 71
     3
 72
    10
 73
     6
 74
     0
 42
0.000000001
 43
0.0000000001
 40
0.0
 40
0.0
 40
0.0
 40
0.0
 40
0.2775196381320963
 40
0.6989868493862854
 40
1.0
 40
1.0
 40
1.0
 40
1.0
 10
2736.274140579924
 20
1352.15884461314
 30
0.0
 10
2736.268528263814
 20
1352.154926331466
 30
0.0
 10
2736.254392560909
 20
1352.145057381722
 30
0.0
 10
2736.240829136059
 20
1352.123318019606
 30
0.0
 10
2736.239614782888
 20
1352.105380036527
 30
0.0
 10
2736.23788759853
 20
1352.096026372097
 30
0.0
  0
LINE
  5
6D
330
2
100
AcDbEntity
  8
0
100
AcDbLine
 10
2736.474305220369
 20
1352.350690313302
 30
0.0
 11
2736.472796368961
 21
1352.275849221937
 31
0.0
  0
LINE
  5
6E
330
2
100
AcDbEntity
  8
0
100
AcDbLine
 10
2735.897788102158
 20
1351.809116636694
 30
0.0
 11
2735.745151623116
 21
1351.869169717037
 31
0.0
  0
ARC
  5
6F
330
2
100
AcDbEntity
  8
0
100
AcDbCircle
 10
2735.736580348255
 20
1351.847383134181
 30
0.0
 40
0.0234123444845255
100
AcDbArc
 50
68.52327538541604
 51
106.1021137519217
  0
LINE
  5
70
330
2
100
AcDbEntity
  8
0
100
AcDbLine
 10
2735.730087191111
 20
1351.869877074763
 30
0.0
 11
2735.608347633048
 21
1351.834733891468
 31
0.0
  0
LINE
  5
71
330
2
100
AcDbEntity
  8
0
100
AcDbLine
 10
2736.04668554419
 20
1351.852099607729
 30
0.0
 11
2736.045185958358
 21
1351.873329965934
 31
0.0
  0
ARC
  5
72
330
2
100
AcDbEntity
  8
0
100
AcDbCircle
 10
2735.974380628966
 20
1351.924685301418
 30
0.0
 40
0.023412344484543
100
AcDbArc
 50
49.1066053509123
 51
106.102113752004
  0
LINE
  5
73
330
2
100
AcDbEntity
  8
0
100
AcDbLine
 10
2735.967886735644
 20
1351.947179019863
 30
0.0
 11
2735.761737748435
 21
1351.887668933247
 31
0.0
  0
LINE
  5
74
330
2
100
AcDbEntity
  8
0
100
AcDbLine
 10
2736.024706022984
 20
1351.911964665746
 30
0.0
 11
2735.989707876525
 21
1351.942383452368
 31
0.0
  0
SPLINE
  5
75
330
2
100
AcDbEntity
  8
0
100
AcDbSpline
210
0.0
220
0.0
230
1.0
 70
     8
 71
     3
 72
     9
 73
     5
 74
     0
 42
0.000000001
 43
0.0000000001
 40
0.0
 40
0.0
 40
0.0
 40
0.0
 40
0.1005969033265591
 40
1.0
 40
1.0
 40
1.0
 40
1.0
 10
2736.044036072641
 20
1351.880012994055
 30
0.0
 10
2736.044023741028
 20
1351.880611265548
 30
0.0
 10
2736.0439011566
 20
1351.886558481345
 30
0.0
 10
2736.040832090092
 20
1351.891824760086
 30
0.0
 10
2736.03807176217
 20
1351.896561267494
 30
0.0
  0
SPLINE
  5
76
330
2
100
AcDbEntity
  8
0
100
AcDbSpline
210
0.0
220
0.0
230
1.0
 70
     8
 71
     3
 72
     9
 73
     5
 74
     0
 42
0.000000001
 43
0.0000000001
 40
0.0
 40
0.0
 40
0.0
 40
0.0
 40
0.7515472419420846
 40
1.0
 40
1.0
 40
1.0
 40
1.0
 10
2736.03808884519
 20
1351.896557531546
 30
0.0
 10
2736.035090644525
 20
1351.900934621817
 30
0.0
 10
2736.031101273669
 20
1351.906758727112
 30
0.0
 10
2736.025978732472
 20
1351.91092863951
 30
0.0
 10
2736.024706022984
 20
1351.911964665746
 30
0.0
  0
ARC
  5
77
330
2
100
AcDbEntity
  8
0
100
AcDbCircle
 10
2735.768230892561
 20
1351.865174998519
 30
0.0
 40
0.0234123444845393
100
AcDbArc
 50
106.102113752004
 51
170.1843903977997
  0
LINE
  5
78
330
2
100
AcDbEntity
  8
0
100
AcDbLine
 10
2702.037393670562
 20
1342.034462716725
 30
0.0
 11
2701.884758400042
 21
1342.094516145935
 31
0.0
  0
ARC
  5
79
330
2
100
AcDbEntity
  8
0
100
AcDbCircle
 10
2701.876186255038
 20
1342.072729311889
 30
0.0
 40
0.0234123444845329
100
AcDbArc
 50
68.52327538541604
 51
106.102113752004
  0
LINE
  5
7A
330
2
100
AcDbEntity
  8
0
100
AcDbLine
 10
2701.869692759492
 20
1342.095223154793
 30
0.0
 11
2701.74795440995
 21
1342.060080320366
 31
0.0
  0
LINE
  5
7B
330
2
100
AcDbEntity
  8
0
100
AcDbLine
 10
2702.186292321093
 20
1342.077446036628
 30
0.0
 11
2702.184792735284
 21
1342.098676394832
 31
0.0
  0
ARC
  5
7C
330
2
100
AcDbEntity
  8
0
100
AcDbCircle
 10
2702.113986535748
 20
1342.150031479125
 30
0.0
 40
0.0234123444845329
100
AcDbArc
 50
49.10660535081059
 51
106.1021137519217
  0
LINE
  5
7D
330
2
100
AcDbEntity
  8
0
100
AcDbLine
 10
2702.107493512547
 20
1342.172525448761
 30
0.0
 11
2701.901343316839
 21
1342.113015013277
 31
0.0
  0
LINE
  5
7E
330
2
100
AcDbEntity
  8
0
100
AcDbLine
 10
2702.164311591379
 20
1342.137310745769
 30
0.0
 11
2702.129313444905
 21
1342.167729532375
 31
0.0
  0
SPLINE
  5
7F
330
2
100
AcDbEntity
  8
0
100
AcDbSpline
210
0.0
220
0.0
230
1.0
 70
     8
 71
     3
 72
     9
 73
     5
 74
     0
 42
0.000000001
 43
0.0000000001
 40
0.0
 40
0.0
 40
0.0
 40
0.0
 40
0.1005969116979224
 40
1.0
 40
1.0
 40
1.0
 40
1.0
 10
2702.183641641036
 20
1342.105359074078
 30
0.0
 10
2702.183629307158
 20
1342.105957344914
 30
0.0
 10
2702.183506700232
 20
1342.11190455369
 30
0.0
 10
2702.180438283013
 20
1342.11717102017
 30
0.0
 10
2702.17767853909
 20
1342.121907696387
 30
0.0
  0
SPLINE
  5
80
330
2
100
AcDbEntity
  8
0
100
AcDbSpline
210
0.0
220
0.0
230
1.0
 70
     8
 71
     3
 72
     9
 73
     5
 74
     0
 42
0.000000001
 43
0.0000000001
 40
0.0
 40
0.0
 40
0.0
 40
0.0
 40
0.7515472419420846
 40
1.0
 40
1.0
 40
1.0
 40
1.0
 10
2702.177694413585
 20
1342.121903611569
 30
0.0
 10
2702.174696212921
 20
1342.12628070184
 30
0.0
 10
2702.170706842065
 20
1342.132104807135
 30
0.0
 10
2702.165584300868
 20
1342.136274719533
 30
0.0
 10
2702.16431159138
 20
1342.137310745769
 30
0.0
  0
ARC
  5
81
330
2
100
AcDbEntity
  8
0
100
AcDbCircle
 10
2701.907836799343
 20
1342.090521176226
 30
0.0
 40
0.0234123444845255
100
AcDbArc
 50
106.1021137519217
 51
170.1843903977997
  0
LINE
  5
82
330
2
100
AcDbEntity
  8
0
100
AcDbLine
 10
2716.403237909268
 20
1346.377431159717
 30
0.0
 11
2716.382175497574
 21
1346.433992844736
 31
0.0
  0
LINE
  5
83
330
2
100
AcDbEntity
  8
0
100
AcDbLine
 10
2715.921839543468
 20
1346.433992772321
 30
0.0
 11
2715.898148451212
 21
1346.370371919477
 31
0.0
  0
LINE
  5
84
330
2
100
AcDbEntity
  8
0
100
AcDbLine
 10
2717.018884413917
 20
1346.359246561683
 30
0.0
 11
2717.022039882648
 21
1346.515797279847
 31
0.0
  0
LINE
  5
85
330
2
100
AcDbEntity
  8
0
100
AcDbLine
 10
2716.402690380079
 20
1346.404588657523
 30
0.0
 11
2716.407163697232
 21
1346.18265800776
 31
0.0
  0
SPLINE
  5
86
330
2
100
AcDbEntity
  8
0
100
AcDbSpline
210
0.0
220
0.0
230
1.0
 70
     8
 71
     3
 72
    11
 73
     7
 74
     0
 42
0.000000001
 43
0.0000000001
 40
0.0
 40
0.0
 40
0.0
 40
0.0
 40
0.1298121830907267
 40
0.4318144224726418
 40
0.7653928644263467
 40
1.0
 40
1.0
 40
1.0
 40
1.0
 10
2716.20556147603
 20
1346.300846320758
 30
0.0
 10
2716.20187697671
 20
1346.304213876464
 30
0.0
 10
2716.189620654476
 20
1346.31541589994
 30
0.0
 10
2716.160182669569
 20
1346.326857641101
 30
0.0
 10
2716.122765712237
 20
1346.335404869342
 30
0.0
 10
2716.097066804744
 20
1346.334580502218
 30
0.0
 10
2716.086455576102
 20
1346.334240116229
 30
0.0
  0
SPLINE
  5
87
330
2
100
AcDbEntity
  8
0
100
AcDbSpline
210
0.0
220
0.0
230
1.0
 70
     8
 71
     3
 72
    13
 73
     9
 74
     0
 42
0.000000001
 43
0.0000000001
 40
0.0
 40
0.0
 40
0.0
 40
0.0
 40
0.0982123184952231
 40
0.2845824107743832
 40
0.4716066224365263
 40
0.6595694218515061
 40
0.8489127856175649
 40
1.0
 40
1.0
 40
1.0
 40
1.0
 10
2716.086342504496
 20
1346.334994401291
 30
0.0
 10
2716.070796281438
 20
1346.334124027345
 30
0.0
 10
2716.025749166125
 20
1346.331602010559
 30
0.0
 10
2715.952762969861
 20
1346.321588972232
 30
0.0
 10
2715.870697950987
 20
1346.302724304806
 30
0.0
 10
2715.795533121494
 20
1346.276541327323
 30
0.0
 10
2715.73293574964
 20
1346.246257973858
 30
0.0
 10
2715.69999183483
 20
1346.222631711484
 30
0.0
 10
2715.685370926371
 20
1346.212146090047
 30
0.0
  0
LINE
  5
88
330
2
100
AcDbEntity
  8
0
100
AcDbLine
 10
2716.301542140184
 20
1346.222498564976
 30
0.0
 11
2716.206408757047
 21
1346.301662573528
 31
0.0
  0
LINE
  5
89
330
2
100
AcDbEntity
  8
0
100
AcDbLine
 10
2715.652686115864
 20
1346.150901513465
 30
0.0
 11
2715.652198126796
 21
1346.109703294035
 31
0.0
  0
SPLINE
  5
8A
330
2
100
AcDbEntity
  8
0
100
AcDbSpline
210
0.0
220
0.0
230
1.0
 70
     8
 71
     3
 72
    10
 73
     6
 74
     0
 42
0.000000001
 43
0.0000000001
 40
0.0
 40
0.0
 40
0.0
 40
0.0
 40
0.2776461666201384
 40
0.7102424172446189
 40
1.0
 40
1.0
 40
1.0
 40
1.0
 10
2715.686397373282
 20
1346.211135342185
 30
0.0
 10
2715.681074268521
 20
1346.207202368594
 30
0.0
 10
2715.667457315552
 20
1346.197141488935
 30
0.0
 10
2715.654870916258
 20
1346.175576427526
 30
0.0
 10
2715.654252583411
 20
1346.158153100778
 30
0.0
 10
2715.652689410537
 20
1346.15117966452
 30
0.0
  0
LINE
  5
8B
330
2
100
AcDbEntity
  8
0
100
AcDbLine
 10
2715.317967728037
 20
1345.868234220255
 30
0.0
 11
2715.165331853244
 21
1345.928287475043
 31
0.0
  0
ARC
  5
8C
330
2
100
AcDbEntity
  8
0
100
AcDbCircle
 10
2715.156759986215
 20
1345.906500721231
 30
0.0
 40
0.0234123444845337
100
AcDbArc
 50
68.52327538541604
 51
106.102113752004
  0
LINE
  5
8D
330
2
100
AcDbEntity
  8
0
100
AcDbLine
 10
2715.150266514854
 20
1345.928994571112
 30
0.0
 11
2715.02852756104
 21
1345.89385156224
 31
0.0
  0
ARC
  5
8E
330
2
100
AcDbEntity
  8
0
100
AcDbCircle
 10
2715.394560266925
 20
1345.983802888468
 30
0.0
 40
0.023412344484538
100
AcDbArc
 50
49.1066053509123
 51
106.1021137519217
  0
LINE
  5
8F
330
2
100
AcDbEntity
  8
0
100
AcDbLine
 10
2715.388066965772
 20
1346.006296777869
 30
0.0
 11
2715.181917072177
 21
1345.946786429596
 31
0.0
  0
LINE
  5
90
330
2
100
AcDbEntity
  8
0
100
AcDbLine
 10
2715.502319709262
 20
1345.921452047755
 30
0.0
 11
2715.409887200243
 21
1346.001500948695
 31
0.0
  0
ARC
  5
91
330
2
100
AcDbEntity
  8
0
100
AcDbCircle
 10
2715.188410530521
 20
1345.924292585568
 30
0.0
 40
0.0234123444845255
100
AcDbArc
 50
106.1021137519217
 51
170.1843903977997
  0
SPLINE
  5
92
330
2
100
AcDbEntity
  8
0
100
AcDbSpline
210
0.0
220
0.0
230
1.0
 70
     8
 71
     3
 72
    10
 73
     6
 74
     0
 42
0.000000001
 43
0.0000000001
 40
0.0
 40
0.0
 40
0.0
 40
0.0
 40
0.402576730420318
 40
0.7699404239602851
 40
1.0
 40
1.0
 40
1.0
 40
1.0
 10
2743.409994901037
 20
1353.978742295839
 30
0.0
 10
2743.407047647908
 20
1353.980848786643
 30
0.0
 10
2743.401410935321
 20
1353.98487751533
 30
0.0
 10
2743.39199842755
 20
1353.987057455903
 30
0.0
 10
2743.386574389591
 20
1353.985749481199
 30
0.0
 10
2743.384485666342
 20
1353.985245797928
 30
0.0
  0
LINE
  5
93
330
2
100
AcDbEntity
  8
0
100
AcDbLine
 10
2743.384374462773
 20
1353.985675025479
 30
0.0
 11
2743.321324457109
 21
1353.971071055033
 31
0.0
  0
LINE
  5
94
330
2
100
AcDbEntity
  8
0
100
AcDbLine
 10
2743.904402426238
 20
1353.550572819185
 30
0.0
 11
2743.40999490104
 21
1353.978742295831
 31
0.0
  0
LINE
  5
95
330
2
100
AcDbEntity
  8
0
100
AcDbLine
 10
2744.255587585662
 20
1353.246437549706
 30
0.0
 11
2743.938592471846
 21
1353.520963371148
 31
0.0
  0
SPLINE
  5
96
330
2
100
AcDbEntity
  8
0
100
AcDbSpline
210
0.0
220
0.0
230
1.0
 70
     8
 71
     3
 72
    12
 73
     8
 74
     0
 42
0.000000001
 43
0.0000000001
 40
0.0
 40
0.0
 40
0.0
 40
0.0
 40
0.0263630127361751
 40
0.2736113170811319
 40
0.4926996505531018
 40
0.7172601207574268
 40
1.0
 40
1.0
 40
1.0
 40
1.0
 10
2744.78162728861
 20
1351.247037931976
 30
0.0
 10
2744.781983830902
 20
1351.247095558501
 30
0.0
 10
2744.785684242809
 20
1351.247693641488
 30
0.0
 10
2744.791369757038
 20
1351.252099555183
 30
0.0
 10
2744.797281143307
 20
1351.25925740498
 30
0.0
 10
2744.80096189605
 20
1351.268322547559
 30
0.0
 10
2744.801391423833
 20
1351.275103819803
 30
0.0
 10
2744.801630817781
 20
1351.278883308812
 30
0.0
  0
LINE
  5
97
330
2
100
AcDbEntity
  8
0
100
AcDbLine
 10
2744.721362181269
 20
1351.225867677498
 30
0.0
 11
2744.78192960708
 21
1351.246949564821
 31
0.0
  0
LINE
  5
98
330
2
100
AcDbEntity
  8
0
100
AcDbLine
 10
2744.801630817784
 20
1351.278883308803
 30
0.0
 11
2744.801630817784
 21
1352.7466448609
 31
0.0
  0
LINE
  5
99
330
2
100
AcDbEntity
  8
0
100
AcDbLine
 10
2744.784185156468
 20
1352.788658625
 30
0.0
 11
2744.289777631271
 21
1353.216828101646
 31
0.0
  0
SPLINE
  5
9A
330
2
100
AcDbEntity
  8
0
100
AcDbSpline
210
0.0
220
0.0
230
1.0
 70
     8
 71
     3
 72
    11
 73
     7
 74
     0
 42
0.000000001
 43
0.0000000001
 40
0.0
 40
0.0
 40
0.0
 40
0.0
 40
0.2420888215664907
 40
0.5681137341673727
 40
0.906951770314496
 40
1.0
 40
1.0
 40
1.0
 40
1.0
 10
2744.801630817781
 20
1352.746644860898
 30
0.0
 10
2744.80139925712
 20
1352.750402827167
 30
0.0
 10
2744.800855849991
 20
1352.759221707098
 30
0.0
 10
2744.796055829558
 20
1352.77340590797
 30
0.0
 10
2744.789897757842
 20
1352.783337983528
 30
0.0
 10
2744.785197754131
 20
1352.787715504912
 30
0.0
 10
2744.784185156465
 20
1352.788658625005
 30
0.0
  0
SPLINE
  5
9B
330
2
100
AcDbEntity
  8
0
100
AcDbSpline
210
0.0
220
0.0
230
1.0
 70
     8
 71
     3
 72
    11
 73
     7
 74
     0
 42
0.000000001
 43
0.0000000001
 40
0.0
 40
0.0
 40
0.0
 40
0.0
 40
0.2420872761501629
 40
0.5681124308505352
 40
0.9069517012187672
 40
1.0
 40
1.0
 40
1.0
 40
1.0
 10
2694.801630817775
 20
1338.467036125253
 30
0.0
 10
2694.801862380141
 20
1338.463278182911
 30
0.0
 10
2694.802405793494
 20
1338.454459323065
 30
0.0
 10
2694.807205821704
 20
1338.440275154917
 30
0.0
 10
2694.813363865344
 20
1338.43034300982
 30
0.0
 10
2694.818063881128
 20
1338.42596548075
 30
0.0
 10
2694.819076479091
 20
1338.425022361146
 30
0.0
  0
LINE
  5
9C
330
2
100
AcDbEntity
  8
0
100
AcDbLine
 10
2694.801630817785
 20
1339.93479767734
 30
0.0
 11
2694.801630817785
 21
1338.467036125243
 31
0.0
  0
LINE
  5
9D
330
2
100
AcDbEntity
  8
0
100
AcDbLine
 10
2694.819076479102
 20
1338.425022361143
 30
0.0
 11
2696.193266734529
 21
1337.234938690311
 31
0.0
  0
LINE
  5
9E
330
2
100
AcDbEntity
  8
0
100
AcDbLine
 10
2694.8818994543
 20
1339.987813308645
 30
0.0
 11
2694.82133202849
 21
1339.966731459086
 31
0.0
  0
SPLINE
  5
9F
330
2
100
AcDbEntity
  8
0
100
AcDbSpline
210
0.0
220
0.0
230
1.0
 70
     8
 71
     3
 72
    12
 73
     8
 74
     0
 42
0.000000001
 43
0.0000000001
 40
0.0
 40
0.0
 40
0.0
 40
0.0
 40
0.0262921033184016
 40
0.2735583534603748
 40
0.4926617717140978
 40
0.7172375910624873
 40
1.0
 40
1.0
 40
1.0
 40
1.0
 10
2694.821631232154
 20
1339.966642431966
 30
0.0
 10
2694.821275740075
 20
1339.966584984816
 30
0.0
 10
2694.817576993469
 20
1339.965987271215
 30
0.0
 10
2694.811891727975
 20
1339.961581215027
 30
0.0
 10
2694.805980534539
 20
1339.954423679843
 30
0.0
 10
2694.802299709381
 20
1339.94535845652
 30
0.0
 10
2694.801870201713
 20
1339.938577184937
 30
0.0
 10
2694.801630817775
 20
1339.934797677339
 30
0.0
  0
LINE
  5
A0
330
2
100
AcDbEntity
  8
0
100
AcDbLine
 10
2696.218887172774
 20
1337.228005998452
 30
0.0
 11
2696.28193717846
 21
1337.242610044426
 31
0.0
  0
SPLINE
  5
A1
330
2
100
AcDbEntity
  8
0
100
AcDbSpline
210
0.0
220
0.0
230
1.0
 70
     8
 71
     3
 72
    10
 73
     6
 74
     0
 42
0.000000001
 43
0.0000000001
 40
0.0
 40
0.0
 40
0.0
 40
0.0
 40
0.4026243965174788
 40
0.7700312257442309
 40
1.0
 40
1.0
 40
1.0
 40
1.0
 10
2696.19326673452
 20
1337.234938690312
 30
0.0
 10
2696.196213979527
 20
1337.232832200023
 30
0.0
 10
2696.201850673937
 20
1337.22880347421
 30
0.0
 10
2696.211262161962
 20
1337.226623604831
 30
0.0
 10
2696.21668502372
 20
1337.227931245494
 30
0.0
 10
2696.218772636378
 20
1337.228434641546
 30
0.0
  0
LINE
  5
A2
330
2
100
AcDbEntity
  8
0
100
AcDbLine
 10
2743.30246168692
 20
1353.946661756028
 30
0.0
 11
2694.904399685591
 21
1339.975344693668
 31
0.0
  0
LINE
  5
A3
330
2
100
AcDbEntity
  8
0
100
AcDbLine
 10
2696.30079994865
 20
1337.267019230138
 30
0.0
 11
2744.698861949955
 21
1351.238336292498
 31
0.0
  0
LINE
  5
A4
330
2
100
AcDbEntity
  8
0
100
AcDbLine
 10
2743.625011271558
 20
1354.150328887927
 30
0.0
 11
2737.633546725094
 21
1352.420742053549
 31
0.0
  0
LINE
  5
A5
330
2
100
AcDbEntity
  8
0
100
AcDbLine
 10
2735.605978941632
 20
1351.835433650765
 30
0.0
 11
2717.053726653109
 21
1346.479859724344
 31
0.0
  0
LINE
  5
A6
330
2
100
AcDbEntity
  8
0
100
AcDbLine
 10
2715.026157963238
 20
1345.894551059904
 30
0.0
 11
2703.773152293498
 21
1342.646088133579
 31
0.0
  0
LINE
  5
A7
330
2
100
AcDbEntity
  8
0
100
AcDbLine
 10
2701.745584510036
 20
1342.060779730795
 30
0.0
 11
2695.18640083921
 21
1340.167306501788
 31
0.0
  0
LINE
  5
A8
330
2
100
AcDbEntity
  8
0
100
AcDbLine
 10
2703.781353460609
 20
1342.571081563318
 30
0.0
 11
2703.760819933215
 21
1342.531973008529
 31
0.0
  0
LINE
  5
A9
330
2
100
AcDbEntity
  8
0
100
AcDbLine
 10
2737.643718520502
 20
1352.339659607239
 30
0.0
 11
2737.627296871165
 21
1352.308382796857
 31
0.0
  0
ELLIPSE
  5
AA
330
2
100
AcDbEntity
  8
0
100
AcDbEllipse
 10
2695.188997773802
 20
1340.15830831027
 30
0.0
 11
-0.0025976970541313
 21
0.0089981595114187
 31
0.0
210
0.0
220
0.0
230
1.0
 40
0.4329822643000003
 41
0.0058131408037641
 42
0.9827342449343458
  0
LINE
  5
AB
330
2
100
AcDbEntity
  8
0
100
AcDbLine
 10
2695.184315723729
 20
1340.056149525129
 30
0.0
 11
2695.184315723729
 21
1340.162364418156
 31
0.0
  0
ELLIPSE
  5
AC
330
2
100
AcDbEntity
  8
0
100
AcDbEllipse
 10
2695.155674690869
 20
1340.127822496927
 30
0.0
 11
0.0189987585690857
 21
-0.0179335029859854
 31
0.0
210
0.0
220
0.0
230
1.0
 40
0.7629049752000001
 41
2.727229811145123
 42
3.765700716083151
  0
ARC
  5
AD
330
2
100
AcDbEntity
  8
0
100
AcDbCircle
 10
2695.14861419308
 20
1340.150965260907
 30
0.0
 40
0.004904687420599
100
AcDbArc
 50
124.6278877466141
 51
190.4744745834985
  0
LINE
  5
AE
330
2
100
AcDbEntity
  8
0
100
AcDbLine
 10
2743.69566457645
 20
1353.7313568002
 30
0.0
 11
2743.69566457645
 21
1354.140110633367
 31
0.0
  0
LINE
  5
AF
330
2
100
AcDbEntity
  8
0
100
AcDbLine
 10
2743.622926156076
 20
1353.794338435145
 30
0.0
 11
2743.622926156076
 21
1354.145386804295
 31
0.0
  0
LINE
  5
B0
330
2
100
AcDbEntity
  8
0
100
AcDbLine
 10
2743.69566457645
 20
1353.7313568002
 30
0.0
 11
2744.467862452771
 21
1353.062613822567
 31
0.0
  0
ELLIPSE
  5
B1
330
2
100
AcDbEntity
  8
0
100
AcDbEllipse
 10
2743.675389101086
 20
1354.134257584799
 30
0.0
 11
-0.0062146134772124
 21
0.0265696528171029
 31
0.0
210
0.0
220
0.0
230
1.0
 40
0.7729916775000003
 41
4.75203164021171
 42
6.314101320746343
  0
ARC
  5
B2
330
2
100
AcDbEntity
  8
0
100
AcDbCircle
 10
2743.666436498671
 20
1354.158761261563
 30
0.0
 40
0.0028404303551929
100
AcDbArc
 50
42.11966009888038
 51
98.93237613498028
  0
ELLIPSE
  5
B3
330
2
100
AcDbEntity
  8
0
100
AcDbEllipse
 10
2743.62760944368
 20
1354.141331053658
 30
0.0
 11
-0.0025976970541313
 21
0.0089981595114187
 31
0.0
210
0.0
220
0.0
230
1.0
 40
0.4329822643000003
 41
6.27737216638471
 42
7.265919552115886
  0
LWPOLYLINE
  5
B4
330
2
100
AcDbEntity
  8
0
100
AcDbPolyline
 90
        9
 70
   128
 43
0.0
 10
2703.741466580503
 20
1342.682025994356
 10
2703.741378671012
 20
1342.684948914543
 10
2703.735027530668
 20
1342.701769333491
 10
2703.71921459215
 20
1342.716951326416
 10
2703.695292565492
 20
1342.729196422945
 10
2703.66530947135
 20
1342.737458032629
 10
2703.631828452275
 20
1342.741029113998
 10
2703.597711553153
 20
1342.73960383286
 10
2703.565880092436
 20
1342.733305069208
  0
LINE
  5
B5
330
2
100
AcDbEntity
  8
0
100
AcDbLine
 10
2703.565880092436
 20
1342.733305069208
 30
0.0
 11
2703.180640992983
 21
1342.622096120329
 31
0.0
  0
LWPOLYLINE
  5
B6
330
2
100
AcDbEntity
  8
0
100
AcDbPolyline
 90
        6
 70
   128
 43
0.0
 10
2703.180640992983
 20
1342.622096120329
 10
2703.160093886452
 20
1342.614563788786
 10
2703.143292099166
 20
1342.604986636796
 10
2703.131032605708
 20
1342.593818761413
 10
2703.123895612275
 20
1342.581588952349
 10
2703.122116624741
 20
1342.570817241203
  0
LINE
  5
B7
330
2
100
AcDbEntity
  8
0
100
AcDbLine
 10
2702.599935551313
 20
1342.196854558074
 30
0.0
 11
2702.627005310889
 21
1342.213332203419
 31
0.0
  0
LINE
  5
B8
330
2
100
AcDbEntity
  8
0
100
AcDbLine
 10
2702.627005310889
 20
1342.213332203419
 30
0.0
 11
2702.709113952707
 21
1342.228371661944
 31
0.0
  0
LINE
  5
B9
330
2
100
AcDbEntity
  8
0
100
AcDbLine
 10
2703.124507911809
 20
1342.452204709852
 30
0.0
 11
2702.804166473866
 21
1342.255810951851
 31
0.0
  0
SPLINE
  5
BA
330
2
100
AcDbEntity
  8
0
100
AcDbSpline
210
0.0
220
0.0
230
1.0
 70
     8
 71
     3
 72
    11
 73
     7
 74
     0
 42
0.000000001
 43
0.0000000001
 40
0.0
 40
0.0
 40
0.0
 40
0.0
 40
0.2500038606672368
 40
0.4999999209361433
 40
0.7499991067540359
 40
1.0
 40
1.0
 40
1.0
 40
1.0
 10
2702.812872533935
 20
1342.373238334645
 30
0.0
 10
2702.776078407881
 20
1342.370901190155
 30
0.0
 10
2702.70249130379
 20
1342.366226974094
 30
0.0
 10
2702.600361500276
 20
1342.343238621137
 30
0.0
 10
2702.5091927396
 20
1342.310426694355
 30
0.0
 10
2702.46357125386
 20
1342.28068814787
 30
0.0
 10
2702.440760433095
 20
1342.265818823851
 30
0.0
  0
SPLINE
  5
BB
330
2
100
AcDbEntity
  8
0
100
AcDbSpline
210
0.0
220
0.0
230
1.0
 70
     8
 71
     3
 72
    11
 73
     7
 74
     0
 42
0.000000001
 43
0.0000000001
 40
0.0
 40
0.0
 40
0.0
 40
0.0
 40
0.2500132767092507
 40
0.5000179183216761
 40
0.7500149844505526
 40
1.0
 40
1.0
 40
1.0
 40
1.0
 10
2702.899596259635
 20
1342.349258111661
 30
0.0
 10
2702.894635408602
 20
1342.352918237884
 30
0.0
 10
2702.884713877878
 20
1342.360238363913
 30
0.0
 10
2702.863207521718
 20
1342.368020668251
 30
0.0
 10
2702.838759285161
 20
1342.372945939367
 30
0.0
 10
2702.82150131236
 20
1342.373140871119
 30
0.0
 10
2702.812872533935
 20
1342.373238334645
 30
0.0
  0
LINE
  5
BC
330
2
100
AcDbEntity
  8
0
100
AcDbLine
 10
2702.923019631862
 20
1342.328677135869
 30
0.0
 11
2702.899596259625
 21
1342.349258111658
 31
0.0
  0
ELLIPSE
  5
BD
330
2
100
AcDbEntity
  8
0
100
AcDbEllipse
 10
2702.871433771176
 20
1342.100287753374
 30
0.0
 11
0.3184034747564647
 21
-0.0032664438844642
 31
0.0
210
0.0
220
0.0
230
1.0
 40
0.5130515173
 41
1.760012788525106
 42
2.324456932443468
  0
LINE
  5
BE
330
2
100
AcDbEntity
  8
0
100
AcDbLine
 10
2702.436767437651
 20
1342.215650939189
 30
0.0
 11
2702.491540350859
 21
1342.165563568427
 31
0.0
  0
SPLINE
  5
BF
330
2
100
AcDbEntity
  8
0
100
AcDbSpline
210
0.0
220
0.0
230
1.0
 70
     8
 71
     3
 72
    11
 73
     7
 74
     0
 42
0.000000001
 43
0.0000000001
 40
0.0
 40
0.0
 40
0.0
 40
0.0
 40
0.2499939743542754
 40
0.4999887196946645
 40
0.7499910404482774
 40
1.0
 40
1.0
 40
1.0
 40
1.0
 10
2702.440760433095
 20
1342.265818823851
 30
0.0
 10
2702.436499968964
 20
1342.262000606825
 30
0.0
 10
2702.427979027564
 20
1342.254364160997
 30
0.0
 10
2702.423756405536
 20
1342.241162026543
 30
0.0
 10
2702.425863810181
 20
1342.22777983492
 30
0.0
 10
2702.433132862996
 20
1342.219693940215
 30
0.0
 10
2702.436767437661
 20
1342.215650939184
 30
0.0
  0
LINE
  5
C0
330
2
100
AcDbEntity
  8
0
100
AcDbLine
 10
2702.941087367179
 20
1342.44405520552
 30
0.0
 11
2702.941080738629
 21
1342.444060946016
 31
0.0
  0
LINE
  5
C1
330
2
100
AcDbEntity
  8
0
100
AcDbLine
 10
2702.941073145093
 20
1342.444761290926
 30
0.0
 11
2702.941080738629
 21
1342.444060946016
 31
0.0
  0
LINE
  5
C2
330
2
100
AcDbEntity
  8
0
100
AcDbLine
 10
2702.811533478202
 20
1342.501897916001
 30
0.0
 11
2702.811597298778
 21
1342.501889084654
 31
0.0
  0
LWPOLYLINE
  5
C3
330
2
100
AcDbEntity
  8
0
100
AcDbPolyline
 90
       12
 70
   128
 43
0.0
 10
2702.574860295732
 20
1342.463975415693
 10
2702.583194765663
 20
1342.474700692411
 10
2702.619637252039
 20
1342.506261127286
 10
2702.669655026797
 20
1342.532768924946
 10
2702.730549762335
 20
1342.552794493104
 10
2702.799040923564
 20
1342.565258942534
 10
2702.871433712177
 20
1342.569489593077
 10
2702.943827131589
 20
1342.565258874942
 10
2703.012317924776
 20
1342.552794708451
 10
2703.073212428368
 20
1342.532768677501
 10
2703.123229810337
 20
1342.506260964593
 10
2703.123420671281
 20
1342.506133352239
  0
LINE
  5
C4
330
2
100
AcDbEntity
  8
0
100
AcDbLine
 10
2702.485169941852
 20
1342.163724583459
 30
0.0
 11
2702.395705410499
 21
1342.245534698803
 31
0.0
  0
LWPOLYLINE
  5
C5
330
2
100
AcDbEntity
  8
0
100
AcDbPolyline
 90
       13
 70
   128
 43
0.0
 10
2702.613910788773
 20
1342.57603639331
 10
2702.62267387402
 20
1342.608066538626
 10
2702.648401289564
 20
1342.63912275537
 10
2702.68932876925
 20
1342.665791532308
 10
2702.742666312262
 20
1342.686255181088
 10
2702.804779163192
 20
1342.699119190318
 10
2702.871433371106
 20
1342.703506571524
 10
2702.938089232681
 20
1342.699119109756
 10
2703.000201559994
 20
1342.686255025139
 10
2703.053539498113
 20
1342.665791563025
 10
2703.094466287766
 20
1342.639122729874
 10
2703.120194666939
 20
1342.608066493534
 10
2703.127421639748
 20
1342.58883672328
  0
LWPOLYLINE
  5
C6
330
2
100
AcDbEntity
  8
0
100
AcDbPolyline
 90
        9
 70
   128
 43
0.0
 10
2737.6018598036
 20
1352.456679565458
 10
2737.601773102631
 20
1352.459602834513
 10
2737.595420753742
 20
1352.476422904593
 10
2737.579607815224
 20
1352.491604897518
 10
2737.555686997088
 20
1352.503850342937
 10
2737.525703902946
 20
1352.512111952598
 10
2737.49222167535
 20
1352.515682685124
 10
2737.458105984772
 20
1352.514257752853
 10
2737.42627331551
 20
1352.507958640311
  0
LINE
  5
C7
330
2
100
AcDbEntity
  8
0
100
AcDbLine
 10
2737.42627331551
 20
1352.507958640311
 30
0.0
 11
2737.041035424579
 21
1352.396750040298
 31
0.0
  0
LWPOLYLINE
  5
C8
330
2
100
AcDbEntity
  8
0
100
AcDbPolyline
 90
        6
 70
   128
 43
0.0
 10
2737.041035424579
 20
1352.396750040298
 10
2737.020487109527
 20
1352.389217359888
 10
2737.003685322263
 20
1352.379640207898
 10
2736.991425828806
 20
1352.368472332514
 10
2736.984290043871
 20
1352.356242872319
 10
2736.982511056337
 20
1352.345471161196
  0
LINE
  5
C9
330
2
100
AcDbEntity
  8
0
100
AcDbLine
 10
2736.984901134883
 20
1352.226858280954
 30
0.0
 11
2736.664560905485
 21
1352.030464871821
 31
0.0
  0
SPLINE
  5
CA
330
2
100
AcDbEntity
  8
0
100
AcDbSpline
210
0.0
220
0.0
230
1.0
 70
     8
 71
     3
 72
    11
 73
     7
 74
     0
 42
0.000000001
 43
0.0000000001
 40
0.0
 40
0.0
 40
0.0
 40
0.0
 40
0.2500008932459639
 40
0.5000000790638567
 40
0.7499961393327634
 40
1.0
 40
1.0
 40
1.0
 40
1.0
 10
2736.673265757015
 20
1352.147891905751
 30
0.0
 10
2736.636472037591
 20
1352.145554881108
 30
0.0
 10
2736.562884850032
 20
1352.140880847784
 30
0.0
 10
2736.460755490591
 20
1352.117892413724
 30
0.0
 10
2736.369586639104
 20
1352.085080251432
 30
0.0
 10
2736.323964887729
 20
1352.055341835096
 30
0.0
 10
2736.301153656174
 20
1352.040472394957
 30
0.0
  0
SPLINE
  5
CB
330
2
100
AcDbEntity
  8
0
100
AcDbSpline
210
0.0
220
0.0
230
1.0
 70
     8
 71
     3
 72
    11
 73
     7
 74
     0
 42
0.000000001
 43
0.0000000001
 40
0.0
 40
0.0
 40
0.0
 40
0.0
 40
0.2500089595517225
 40
0.5000112803053354
 40
0.7500060256457246
 40
1.0
 40
1.0
 40
1.0
 40
1.0
 10
2736.759989482715
 20
1352.123911682767
 30
0.0
 10
2736.755029126906
 20
1352.127571963749
 30
0.0
 10
2736.745108547007
 20
1352.134892428515
 30
0.0
 10
2736.723601872742
 20
1352.14267453337
 30
0.0
 10
2736.699153376636
 20
1352.147600028938
 30
0.0
 10
2736.681894954684
 20
1352.14779461358
 30
0.0
 10
2736.673265757015
 20
1352.147891905751
 30
0.0
  0
LINE
  5
CC
330
2
100
AcDbEntity
  8
0
100
AcDbLine
 10
2736.783414063458
 20
1352.103331055839
 30
0.0
 11
2736.759989482723
 21
1352.123911682759
 31
0.0
  0
LINE
  5
CD
330
2
100
AcDbEntity
  8
0
100
AcDbLine
 10
2736.297160660748
 20
1351.990304510291
 30
0.0
 11
2736.351934782455
 21
1351.940217488396
 31
0.0
  0
SPLINE
  5
CE
330
2
100
AcDbEntity
  8
0
100
AcDbSpline
210
0.0
220
0.0
230
1.0
 70
     8
 71
     3
 72
    11
 73
     7
 74
     0
 42
0.000000001
 43
0.0000000001
 40
0.0
 40
0.0
 40
0.0
 40
0.0
 40
0.2499850155494474
 40
0.4999820816783239
 40
0.7499867232907494
 40
1.0
 40
1.0
 40
1.0
 40
1.0
 10
2736.301153656174
 20
1352.040472394957
 30
0.0
 10
2736.296893696239
 20
1352.036654273149
 30
0.0
 10
2736.288373571017
 20
1352.029017845481
 30
0.0
 10
2736.284150703231
 20
1352.01581593946
 30
0.0
 10
2736.286258607684
 20
1352.002433784466
 30
0.0
 10
2736.293526601217
 20
1351.994347648229
 30
0.0
 10
2736.29716066074
 20
1351.990304510289
 30
0.0
  0
LINE
  5
CF
330
2
100
AcDbEntity
  8
0
100
AcDbLine
 10
2736.671927909798
 20
1352.276551835994
 30
0.0
 11
2736.671991730374
 21
1352.276543004647
 31
0.0
  0
LWPOLYLINE
  5
D0
330
2
100
AcDbEntity
  8
0
100
AcDbPolyline
 90
       12
 70
   128
 43
0.0
 10
2736.435254727329
 20
1352.238629335686
 10
2736.443587988737
 20
1352.249354263536
 10
2736.480031683635
 20
1352.280915047255
 10
2736.530048249872
 20
1352.307422496048
 10
2736.59094419393
 20
1352.327448413074
 10
2736.659434146638
 20
1352.339912513659
 10
2736.731828143773
 20
1352.344143513046
 10
2736.804221563185
 20
1352.339912794912
 10
2736.87271114785
 20
1352.327448279553
 10
2736.933606859964
 20
1352.30742259747
 10
2736.983624241956
 20
1352.280914884562
 10
2736.983815102901
 20
1352.280787272231
  0
LINE
  5
D1
330
2
100
AcDbEntity
  8
0
100
AcDbLine
 10
2736.297160660748
 20
1351.990304510291
 30
0.0
 11
2736.256099842095
 21
1352.020188618772
 31
0.0
  0
LINE
  5
D2
330
2
100
AcDbEntity
  8
0
100
AcDbLine
 10
2736.345564373448
 20
1351.938378503428
 30
0.0
 11
2736.256099842095
 21
1352.020188618772
 31
0.0
  0
LWPOLYLINE
  5
D3
330
2
100
AcDbEntity
  8
0
100
AcDbPolyline
 90
       13
 70
   128
 43
0.0
 10
2736.474305220369
 20
1352.350690313302
 10
2736.483067097117
 20
1352.382720109752
 10
2736.508795721183
 20
1352.413776675363
 10
2736.549721992324
 20
1352.44044510341
 10
2736.60305953536
 20
1352.460908752191
 10
2736.665172386266
 20
1352.47377276142
 10
2736.731827802702
 20
1352.478160491516
 10
2736.798482455755
 20
1352.473772680858
 10
2736.86059599159
 20
1352.460908945108
 10
2736.913932721186
 20
1352.440445134127
 10
2736.954860719386
 20
1352.413776649844
 10
2736.980587890037
 20
1352.382720064637
 10
2736.987816071344
 20
1352.363490643273
  0
LINE
  5
D4
330
2
100
AcDbEntity
  8
0
100
AcDbLine
 10
2716.128902719165
 20
1346.326144545364
 30
0.0
 11
2716.091442966211
 21
1346.358585643045
 31
0.0
  0
ARC
  5
D5
330
2
100
AcDbEntity
  8
0
100
AcDbCircle
 10
2715.988758314925
 20
1346.199638408643
 30
0.0
 40
0.1892309724635576
100
AcDbArc
 50
57.13633496978858
 51
107.6021565135877
  0
ARC
  5
D6
330
2
100
AcDbEntity
  8
0
100
AcDbCircle
 10
2715.988758314925
 20
1346.175307552324
 30
0.0
 40
0.1892309724635408
100
AcDbArc
 50
57.13633496978858
 51
107.6021565135877
  0
LINE
  5
D7
330
2
100
AcDbEntity
  8
0
100
AcDbLine
 10
2715.931533777573
 20
1346.355678595631
 30
0.0
 11
2715.809879722656
 21
1346.320560094965
 31
0.0
  0
LINE
  5
D8
330
2
100
AcDbEntity
  8
0
100
AcDbLine
 10
2715.843315617925
 20
1346.291603760241
 30
0.0
 11
2715.809879722656
 21
1346.320560094965
 31
0.0
  0
LINE
  5
D9
330
2
100
AcDbEntity
  8
0
100
AcDbLine
 10
2715.931533777573
 20
1346.38000945195
 30
0.0
 11
2715.809879722656
 21
1346.34489095126
 31
0.0
  0
LINE
  5
DA
330
2
100
AcDbEntity
  8
0
100
AcDbLine
 10
2715.809879722656
 20
1346.34489095126
 30
0.0
 11
2715.809879722656
 21
1346.320560094965
 31
0.0
  0
LWPOLYLINE
  5
DB
330
2
100
AcDbEntity
  8
0
100
AcDbPolyline
 90
       10
 70
   128
 43
0.0
 10
2715.9425689199
 20
1346.382816968828
 10
2715.983530145929
 20
1346.401891599195
 10
2716.044022563036
 20
1346.419354255838
 10
2716.111300146256
 20
1346.428746386929
 10
2716.181135380705
 20
1346.429477784263
 10
2716.249140361166
 20
1346.421502530051
 10
2716.311042326807
 20
1346.405321795517
 10
2716.362951432439
 20
1346.381952196378
 10
2716.401606220733
 20
1346.352862175436
 10
2716.403778218792
 20
1346.350624623655
  0
LWPOLYLINE
  5
DC
330
2
100
AcDbEntity
  8
0
100
AcDbPolyline
 90
       12
 70
   128
 43
0.0
 10
2715.921839543468
 20
1346.433992772321
 10
2715.933244141114
 20
1346.454267636388
 10
2715.963858610722
 20
1346.482231999838
 10
2716.008427506229
 20
1346.505029590263
 10
2716.063644711659
 20
1346.520969424461
 10
2716.125415744326
 20
1346.528869527131
 10
2716.189158677423
 20
1346.528143799611
 10
2716.250146643539
 20
1346.518846250505
 10
2716.303855750525
 20
1346.501666232017
 10
2716.346303209459
 20
1346.47787807794
 10
2716.374340513413
 20
1346.449245939851
 10
2716.382175497574
 20
1346.433992844736
  0
LWPOLYLINE
  5
DD
330
2
100
AcDbEntity
  8
0
100
AcDbPolyline
 90
        9
 70
   128
 43
0.0
 10
2717.022039882648
 20
1346.515797279847
 10
2717.021952879566
 20
1346.518720461691
 10
2717.015600832814
 20
1346.535540618982
 10
2716.999787894295
 20
1346.550722611908
 10
2716.975866774022
 20
1346.562967970092
 10
2716.945883226689
 20
1346.571229448948
 10
2716.912401754421
 20
1346.574800399513
 10
2716.878285761707
 20
1346.573375380007
 10
2716.846453394581
 20
1346.567076354699
  0
LINE
  5
DE
330
2
100
AcDbEntity
  8
0
100
AcDbLine
 10
2716.846453394581
 20
1346.567076354699
 30
0.0
 11
2716.461215352571
 21
1346.45586771107
 31
0.0
  0
LWPOLYLINE
  5
DF
330
2
100
AcDbEntity
  8
0
100
AcDbPolyline
 90
        6
 70
   128
 43
0.0
 10
2716.461215352571
 20
1346.45586771107
 10
2716.440667037518
 20
1346.448335030684
 10
2716.423865250255
 20
1346.438757878694
 10
2716.411605756797
 20
1346.427590003286
 10
2716.404469367613
 20
1346.415360368668
 10
2716.402690380079
 20
1346.404588657523
  0
LINE
  5
E0
330
2
100
AcDbEntity
  8
0
100
AcDbLine
 10
2716.405081062874
 20
1346.285975951726
 30
0.0
 11
2716.084740229228
 21
1346.089582368171
 31
0.0
  0
SPLINE
  5
E1
330
2
100
AcDbEntity
  8
0
100
AcDbSpline
210
0.0
220
0.0
230
1.0
 70
     8
 71
     3
 72
    11
 73
     7
 74
     0
 42
0.000000001
 43
0.0000000001
 40
0.0
 40
0.0
 40
0.0
 40
0.0
 40
0.2500011333904011
 40
0.4999993481826956
 40
0.7499972737631142
 40
1.0
 40
1.0
 40
1.0
 40
1.0
 10
2716.088212819404
 20
1346.20679740943
 30
0.0
 10
2716.050755171099
 20
1346.204182180982
 30
0.0
 10
2715.975840311784
 20
1346.198951754617
 30
0.0
 10
2715.872510119903
 20
1346.174556512273
 30
0.0
 10
2715.780971489165
 20
1346.140052148369
 30
0.0
 10
2715.736089947716
 20
1346.109073897401
 30
0.0
 10
2715.713648961531
 20
1346.093584623201
 30
0.0
  0
SPLINE
  5
E2
330
2
100
AcDbEntity
  8
0
100
AcDbSpline
210
0.0
220
0.0
230
1.0
 70
     8
 71
     3
 72
    11
 73
     7
 74
     0
 42
0.000000001
 43
0.0000000001
 40
0.0
 40
0.0
 40
0.0
 40
0.0
 40
0.2505462256749907
 40
0.5005841791224142
 40
0.7504646979323751
 40
1.0
 40
1.0
 40
1.0
 40
1.0
 10
2716.175912902034
 20
1346.183109211313
 30
0.0
 10
2716.170844989723
 20
1346.186777243341
 30
0.0
 10
2716.160719446154
 20
1346.194105866218
 30
0.0
 10
2716.138909762625
 20
1346.201828335977
 30
0.0
 10
2716.11422741654
 20
1346.206647221738
 30
0.0
 10
2716.096880354782
 20
1346.206747369941
 30
0.0
 10
2716.088212819404
 20
1346.20679740943
 30
0.0
  0
LINE
  5
E3
330
2
100
AcDbEntity
  8
0
100
AcDbLine
 10
2716.201438305427
 20
1346.161127229563
 30
0.0
 11
2716.175912902033
 21
1346.183109211306
 31
0.0
  0
LINE
  5
E4
330
2
100
AcDbEntity
  8
0
100
AcDbLine
 10
2716.086343370646
 20
1346.334994449905
 30
0.0
 11
2716.086417984195
 21
1346.334986140934
 31
0.0
  0
ARC
  5
E5
330
2
100
AcDbEntity
  8
0
100
AcDbCircle
 10
2716.165551188191
 20
1345.846533884614
 30
0.0
 40
0.4896392031638185
100
AcDbArc
 50
62.13844938279423
 51
92.3502559439953
  0
LINE
  5
E6
330
2
100
AcDbEntity
  8
0
100
AcDbLine
 10
2715.760743198962
 20
1345.996052470825
 30
0.0
 11
2715.672243099597
 21
1346.072319799418
 31
0.0
  0
ELLIPSE
  5
E7
330
2
100
AcDbEntity
  8
0
100
AcDbEllipse
 10
2743.39467998954
 20
1352.477082099965
 30
0.0
 11
-0.0119245890008284
 21
0.040420328915921
 31
0.0
210
0.0
220
0.0
230
1.0
 40
0.4087260198
 41
0.9809890605317072
 42
2.550567412153693
  0
ELLIPSE
  5
E8
330
2
100
AcDbEntity
  8
0
100
AcDbEllipse
 10
2743.332626568645
 20
1352.45846077782
 30
0.0
 11
-0.0116785715688258
 21
0.0404937570844121
 31
0.0
210
0.0
220
0.0
230
1.0
 40
0.4334997358000001
 41
0.9837454725843963
 42
2.55332382420944
  0
LINE
  5
E9
330
2
100
AcDbEntity
  8
0
100
AcDbLine
 10
2743.374318285715
 20
1353.963275137272
 30
0.0
 11
2743.374318285715
 21
1352.495513585176
 31
0.0
  0
LINE
  5
EA
330
2
100
AcDbEntity
  8
0
100
AcDbLine
 10
2743.311541980098
 20
1352.476675424568
 30
0.0
 11
2743.311541980098
 21
1353.948734567128
 31
0.0
  0
LINE
  5
EB
330
2
100
AcDbEntity
  8
0
100
AcDbLine
 10
2744.219101866987
 20
1352.9672033423
 30
0.0
 11
2743.984978427363
 21
1353.169960188643
 31
0.0
  0
LWPOLYLINE
  5
EC
330
2
100
AcDbEntity
  8
0
100
AcDbPolyline
 90
        9
 70
   128
 43
0.0
 10
2744.294757687197
 20
1353.032723166777
 10
2744.293303984854
 20
1353.008417576218
 10
2744.288998719006
 20
1352.987563891825
 10
2744.282007374494
 20
1352.970963488465
 10
2744.27259860385
 20
1352.959254448468
 10
2744.261133990252
 20
1352.952886588574
 10
2744.248054092446
 20
1352.952104767324
 10
2744.233861590138
 20
1352.95693893344
 10
2744.219101866987
 20
1352.9672033423
  0
LINE
  5
ED
330
2
100
AcDbEntity
  8
0
100
AcDbLine
 10
2744.294757687197
 20
1353.204957581067
 30
0.0
 11
2744.294757687197
 21
1353.032723166777
 31
0.0
  0
LINE
  5
EE
330
2
100
AcDbEntity
  8
0
100
AcDbLine
 10
2743.909322607153
 20
1353.366519737602
 30
0.0
 11
2743.909322607153
 21
1353.538754151892
 31
0.0
  0
ARC
  5
EF
330
2
100
AcDbEntity
  8
0
100
AcDbCircle
 10
2744.196171850677
 20
1353.364088337463
 30
0.0
 40
0.2868595478882585
100
AcDbArc
 50
179.5143594279023
 51
222.5890968238108
  0
LINE
  5
F0
330
2
100
AcDbEntity
  8
0
100
AcDbLine
 10
2744.769566837978
 20
1351.250718854279
 30
0.0
 11
2743.39537658255
 21
1352.440802525111
 31
0.0
  0
LINE
  5
F1
330
2
100
AcDbEntity
  8
0
100
AcDbLine
 10
2743.332600276933
 20
1352.421964364503
 30
0.0
 11
2744.709271790985
 21
1351.229731860676
 31
0.0
  0
ELLIPSE
  5
F2
330
2
100
AcDbEntity
  8
0
100
AcDbEllipse
 10
2743.332626568645
 20
1353.930431022888
 30
0.0
 11
-0.011711949362736
 21
0.0405334663208129
 31
0.0
210
0.0
220
0.0
230
1.0
 40
0.4325260765
 41
6.259951843208253
 42
7.265028142779446
  0
ELLIPSE
  5
F3
330
2
100
AcDbEntity
  8
0
100
AcDbEllipse
 10
2743.889168773951
 20
1353.532794675934
 30
0.0
 11
0.0151178120376002
 21
0.0178780161648278
 31
0.0
210
0.0
220
0.0
230
1.0
 40
0.7454190373000003
 41
5.560675965669558
 42
6.274400344616307
  0
ARC
  5
F4
330
2
100
AcDbEntity
  8
0
100
AcDbCircle
 10
2744.100563073939
 20
1353.335527731227
 30
0.0
 40
0.1569961967933912
100
AcDbArc
 50
179.5143497825946
 51
222.589105831302
  0
LINE
  5
F5
330
2
100
AcDbEntity
  8
0
100
AcDbLine
 10
2743.984978427363
 20
1353.229282753524
 30
0.0
 11
2744.219101866987
 21
1353.026525907205
 31
0.0
  0
LINE
  5
F6
330
2
100
AcDbEntity
  8
0
100
AcDbLine
 10
2743.943572516886
 20
1353.509092860004
 30
0.0
 11
2743.943572516886
 21
1353.336858445715
 31
0.0
  0
LINE
  5
F7
330
2
100
AcDbEntity
  8
0
100
AcDbLine
 10
2744.260507777488
 20
1353.062384458665
 30
0.0
 11
2744.260507777488
 21
1353.234618872955
 31
0.0
  0
LWPOLYLINE
  5
F8
330
2
100
AcDbEntity
  8
0
100
AcDbPolyline
 90
        9
 70
   128
 43
0.0
 10
2744.219101866987
 20
1353.026525907205
 10
2744.2271797597
 20
1353.020908267537
 10
2744.234947222542
 20
1353.018262560816
 10
2744.242105763549
 20
1353.018690482518
 10
2744.248380265128
 20
1353.022175519307
 10
2744.253529624661
 20
1353.028583855329
 10
2744.257355944976
 20
1353.037669102583
 10
2744.259712176904
 20
1353.049082148386
 10
2744.260507777488
 20
1353.062384458665
  0
ELLIPSE
  5
F9
330
2
100
AcDbEntity
  8
0
100
AcDbEllipse
 10
2743.923173474751
 20
1353.503345741175
 30
0.0
 11
0.0155414927627455
 21
0.0175109900886122
 31
0.0
210
0.0
220
0.0
230
0.9999999999999998
 40
0.7544869248999998
 41
5.578633561702206
 42
7.084392171657625
  0
ELLIPSE
  5
FA
330
2
100
AcDbEntity
  8
0
100
AcDbEllipse
 10
2743.911472651714
 20
1353.513478951166
 30
0.0
 11
0.0238313708696782
 21
0.0101505964857751
 31
0.0
210
0.0
220
0.0
230
1.0
 40
0.2231835507
 41
0.9006318172141636
 42
0.930762949012764
  0
ELLIPSE
  5
FB
330
2
100
AcDbEntity
  8
0
100
AcDbEllipse
 10
2744.240353941219
 20
1353.228659399642
 30
0.0
 11
0.0151178120376002
 21
0.0178780161648211
 31
0.0
210
0.0
220
0.0
230
1.0
 40
0.7454190373000004
 41
5.560675965669465
 42
6.274400344614255
  0
LINE
  5
FC
330
2
100
AcDbEntity
  8
0
100
AcDbLine
 10
2743.909322607153
 20
1353.520273769986
 30
0.0
 11
2743.923888603619
 21
1353.523807283078
 31
0.0
  0
ELLIPSE
  5
FD
330
2
100
AcDbEntity
  8
0
100
AcDbEllipse
 10
2744.709246736779
 20
1351.266272740848
 30
0.0
 11
-0.0117119493627892
 21
0.0405334663208062
 31
0.0
210
0.0
220
0.0
230
0.9999999999999998
 40
0.4325260765
 41
2.553857137561919
 42
3.164826117555898
  0
ELLIPSE
  5
FE
330
2
100
AcDbEntity
  8
0
100
AcDbEllipse
 10
2744.274358642019
 20
1353.199210464906
 30
0.0
 11
0.0155414927627455
 21
0.0175109900886122
 31
0.0
210
0.0
220
0.0
230
0.9999999999999998
 40
0.7544869248999998
 41
5.578633561702618
 42
7.075573793606812
  0
LINE
  5
FF
330
2
100
AcDbEntity
  8
0
100
AcDbLine
 10
2744.783907195702
 20
1352.788894678301
 30
0.0
 11
2744.784185156468
 21
1352.788658625
 31
0.0
  0
ELLIPSE
  5
100
330
2
100
AcDbEntity
  8
0
100
AcDbEllipse
 10
2744.262646403146
 20
1353.209353561275
 30
0.0
 11
0.0238394914178208
 21
0.0101441620068883
 31
0.0
210
0.0
220
0.0
230
1.0
 40
0.2226158350000001
 41
0.8916351129874559
 42
0.9305846228405959
  0
LINE
  5
101
330
2
100
AcDbEntity
  8
0
100
AcDbLine
 10
2744.261761206867
 20
1353.216439415475
 30
0.0
 11
2744.27507663033
 21
1353.219669530439
 31
0.0
  0
LINE
  5
102
330
2
100
AcDbEntity
  8
0
100
AcDbLine
 10
2696.291719655471
 20
1337.264946494567
 30
0.0
 11
2696.291719655471
 21
1337.272160482467
 31
0.0
  0
ELLIPSE
  5
103
330
2
100
AcDbEntity
  8
0
100
AcDbEllipse
 10
2696.270635066901
 20
1337.28324999746
 30
0.0
 11
-0.011711949362736
 21
0.0405334663208062
 31
0.0
210
0.0
220
0.0
230
1.0
 40
0.4325260765000002
 41
2.553857137566786
 42
4.12343548918916
  0
LINE
  5
104
330
2
100
AcDbEntity
  8
0
100
AcDbLine
 10
2696.270661358636
 20
1337.246709474537
 30
0.0
 11
2694.893989844585
 21
1338.438941978364
 31
0.0
  0
ELLIPSE
  5
105
330
2
100
AcDbEntity
  8
0
100
AcDbEllipse
 10
2694.894014898767
 20
1338.475438034432
 30
0.0
 11
-0.0116785715688524
 21
0.0404937570844054
 31
0.0
210
0.0
220
0.0
230
1.0
 40
0.4334997358000001
 41
0.9837454725838712
 42
2.553323824207733
  0
LINE
  5
106
330
2
100
AcDbEntity
  8
0
100
AcDbLine
 10
2694.872931547751
 20
1338.493653038429
 30
0.0
 11
2694.872931547751
 21
1339.965712180989
 31
0.0
  0
ELLIPSE
  5
107
330
2
100
AcDbEntity
  8
0
100
AcDbEllipse
 10
2694.894014898767
 20
1339.9474082795
 30
0.0
 11
-0.011711949362736
 21
0.0405334663208129
 31
0.0
210
0.0
220
0.0
230
1.0
 40
0.4325260765
 41
5.695449791155916
 42
7.265028142779382
  0
LINE
  5
108
330
2
100
AcDbEntity
  8
0
100
AcDbLine
 10
2694.893989844585
 20
1339.983949163231
 30
0.0
 11
2694.904060619964
 21
1339.975227615932
 31
0.0
  0
LINE
  5
109
330
2
100
AcDbEntity
  8
0
100
AcDbLine
 10
2694.819354439843
 20
1338.424786421158
 30
0.0
 11
2694.819076479102
 21
1338.425022361143
 31
0.0
  0
ARC
  5
10A
330
2
100
AcDbEntity
  8
0
100
AcDbCircle
 10
2744.697703831411
 20
1351.243521120773
 30
0.0
 40
0.0052843057466135
100
AcDbArc
 50
220.1918642470989
 51
286.4755354984002
  0
LINE
  5
10B
330
2
100
AcDbEntity
  8
0
100
AcDbLine
 10
2744.693667215378
 20
1351.240110898155
 30
0.0
 11
2743.307656421473
 21
1352.440431455605
 31
0.0
  0
ARC
  5
10C
330
2
100
AcDbEntity
  8
0
100
AcDbCircle
 10
2743.333798227859
 20
1352.464461112019
 30
0.0
 40
0.0355080051217032
100
AcDbArc
 50
179.5140993740013
 51
222.5893494965017
  0
LINE
  5
10D
330
2
100
AcDbEntity
  8
0
100
AcDbLine
 10
2743.298291499599
 20
1352.464762236373
 30
0.0
 11
2743.298291499599
 21
1353.936776965621
 31
0.0
  0
LWPOLYLINE
  5
10E
330
2
100
AcDbEntity
  8
0
100
AcDbPolyline
 90
        9
 70
   128
 43
0.0
 10
2743.298291499599
 20
1353.936776965621
 10
2743.298471429882
 20
1353.939785588639
 10
2743.299004330499
 20
1353.942366960274
 10
2743.299869748919
 20
1353.944421792683
 10
2743.301034411542
 20
1353.945871191837
 10
2743.302453532049
 20
1353.946659414513
 10
2743.304072599293
 20
1353.946756209808
 10
2743.305829427043
 20
1353.946157801099
 10
2743.307656421473
 20
1353.944887225877
  0
LINE
  5
10F
330
2
100
AcDbEntity
  8
0
100
AcDbLine
 10
2743.307656421473
 20
1353.944887225877
 30
0.0
 11
2743.31154345627
 21
1353.941520954995
 31
0.0
  0
LINE
  5
110
330
2
100
AcDbEntity
  8
0
100
AcDbLine
 10
2694.909594420167
 20
1338.469114393245
 30
0.0
 11
2743.307656421473
 21
1352.440431455605
 31
0.0
  0
ARC
  5
111
330
2
100
AcDbEntity
  8
0
100
AcDbCircle
 10
2694.935736226554
 20
1338.493144049659
 30
0.0
 40
0.0355080051215947
100
AcDbArc
 50
179.5140993741057
 51
222.589349496705
  0
LINE
  5
112
330
2
100
AcDbEntity
  8
0
100
AcDbLine
 10
2694.900229498294
 20
1338.493445174012
 30
0.0
 11
2694.900229498294
 21
1339.965459903261
 31
0.0
  0
LINE
  5
113
330
2
100
AcDbEntity
  8
0
100
AcDbLine
 10
2696.295605214073
 20
1337.268793835794
 30
0.0
 11
2694.909594420167
 21
1338.469114393245
 31
0.0
  0
LWPOLYLINE
  5
114
330
2
100
AcDbEntity
  8
0
100
AcDbPolyline
 90
        7
 70
   128
 43
0.0
 10
2694.900229498294
 20
1339.965459903261
 10
2694.900409428576
 20
1339.968468526279
 10
2694.900942329194
 20
1339.971049897913
 10
2694.901807747614
 20
1339.973104730322
 10
2694.902972410236
 20
1339.974554129477
 10
2694.904391530744
 20
1339.975342352153
 10
2694.904399685591
 20
1339.975344693668
  0
ARC
  5
115
330
2
100
AcDbEntity
  8
0
100
AcDbCircle
 10
2696.299841435888
 20
1337.272703888462
 30
0.0
 40
0.0057649012999538
100
AcDbArc
 50
222.7071556452972
 51
279.5708441190094
  0
LINE
  5
116
330
2
100
AcDbEntity
  8
0
100
AcDbLine
 10
2743.622926156076
 20
1353.794338435145
 30
0.0
 11
2743.622926156076
 21
1353.988220100417
 31
0.0
  0
LINE
  5
117
330
2
100
AcDbEntity
  8
0
100
AcDbLine
 10
2743.622926156076
 20
1354.108428787763
 30
0.0
 11
2743.622926156076
 21
1354.145386492723
 31
0.0
  0
LWPOLYLINE
  5
118
330
2
100
AcDbEntity
  8
0
100
AcDbPolyline
 90
        7
 70
   128
 43
0.0
 10
2743.625011271558
 20
1354.150328887927
 10
2743.625007215931
 20
1354.15032768884
 10
2743.624297655665
 20
1354.149933568056
 10
2743.623715302557
 20
1354.149208901537
 10
2743.623282615156
 20
1354.148181457003
 10
2743.623016164836
 20
1354.146890780621
 10
2743.622926156076
 20
1354.145386492723
  0
LINE
  5
119
330
2
100
AcDbEntity
  8
0
100
AcDbLine
 10
2737.651588595014
 20
1352.315395230811
 30
0.0
 11
2737.631957966019
 21
1352.375915500648
 31
0.0
  0
ARC
  5
11A
330
2
100
AcDbEntity
  8
0
100
AcDbCircle
 10
2737.641177092504
 20
1352.378984478934
 30
0.0
 40
0.0097165282256744
100
AcDbArc
 50
180.8404653418039
 51
198.412215022197
  0
LINE
  5
11B
330
2
100
AcDbEntity
  8
0
100
AcDbLine
 10
2737.631461609637
 20
1352.378841953384
 30
0.0
 11
2737.631461609637
 21
1352.415799658368
 31
0.0
  0
LWPOLYLINE
  5
11C
330
2
100
AcDbEntity
  8
0
100
AcDbPolyline
 90
        7
 70
   128
 43
0.0
 10
2737.633546725094
 20
1352.420742053549
 10
2737.633542669467
 20
1352.420740854485
 10
2737.632833109225
 20
1352.4203467337
 10
2737.632250756117
 20
1352.419622067181
 10
2737.631818068715
 20
1352.418594622648
 10
2737.631551618395
 20
1352.417303946266
 10
2737.631461609637
 20
1352.415799658368
  0
LINE
  5
11D
330
2
100
AcDbEntity
  8
0
100
AcDbLine
 10
2735.604390182558
 20
1351.790607097864
 30
0.0
 11
2735.624020811552
 21
1351.730086828027
 31
0.0
  0
ARC
  5
11E
330
2
100
AcDbEntity
  8
0
100
AcDbCircle
 10
2735.613609309043
 20
1351.79367607615
 30
0.0
 40
0.0097165282247408
100
AcDbArc
 50
180.8404653409959
 51
198.4122150231033
  0
LINE
  5
11F
330
2
100
AcDbEntity
  8
0
100
AcDbLine
 10
2735.603893826175
 20
1351.830491255561
 30
0.0
 11
2735.603893826175
 21
1351.7935335506
 31
0.0
  0
LWPOLYLINE
  5
120
330
2
100
AcDbEntity
  8
0
100
AcDbPolyline
 90
        9
 70
   128
 43
0.0
 10
2735.603893826175
 20
1351.830491255561
 10
2735.603983834934
 20
1351.831995543459
 10
2735.604250285254
 20
1351.833286219841
 10
2735.604682972655
 20
1351.834313664374
 10
2735.605265325764
 20
1351.835038330917
 10
2735.605974886005
 20
1351.835432451678
 10
2735.606784397831
 20
1351.83548086349
 10
2735.607662811693
 20
1351.835181659136
 10
2735.608576330729
 20
1351.834546362101
  0
LINE
  5
121
330
2
100
AcDbEntity
  8
0
100
AcDbLine
 10
2735.608576330729
 20
1351.834546362101
 30
0.0
 11
2735.613258791666
 21
1351.830491231961
 31
0.0
  0
ARC
  5
122
330
2
100
AcDbEntity
  8
0
100
AcDbCircle
 10
2735.600187742391
 20
1351.818476347354
 30
0.0
 40
0.0177541482979716
100
AcDbArc
 50
359.5142397061039
 51
42.5891644434005
  0
LINE
  5
123
330
2
100
AcDbEntity
  8
0
100
AcDbLine
 10
2735.617941252626
 20
1351.789745891606
 30
0.0
 11
2735.617941252626
 21
1351.818325827425
 31
0.0
  0
ARC
  5
124
330
2
100
AcDbEntity
  8
0
100
AcDbCircle
 10
2735.627656712807
 20
1351.789888325427
 30
0.0
 40
0.0097165042235489
100
AcDbArc
 50
180.8399265223988
 51
198.4113987295995
  0
LINE
  5
125
330
2
100
AcDbEntity
  8
0
100
AcDbLine
 10
2735.635742096206
 20
1351.733470471454
 30
0.0
 11
2735.618437565391
 21
1351.78681948607
 31
0.0
  0
LINE
  5
126
330
2
100
AcDbEntity
  8
0
100
AcDbLine
 10
2717.071768523029
 20
1346.374512901606
 30
0.0
 11
2717.052137894035
 21
1346.43503317142
 31
0.0
  0
ARC
  5
127
330
2
100
AcDbEntity
  8
0
100
AcDbCircle
 10
2717.061357020496
 20
1346.438102149706
 30
0.0
 40
0.0097165282250062
100
AcDbArc
 50
180.8404653406963
 51
198.4122150222917
  0
LINE
  5
128
330
2
100
AcDbEntity
  8
0
100
AcDbLine
 10
2717.051641537651
 20
1346.437959624179
 30
0.0
 11
2717.051641537651
 21
1346.47491732914
 31
0.0
  0
LWPOLYLINE
  5
129
330
2
100
AcDbEntity
  8
0
100
AcDbPolyline
 90
        7
 70
   128
 43
0.0
 10
2717.053726653109
 20
1346.479859724344
 10
2717.053722597482
 20
1346.479858525257
 10
2717.053013037217
 20
1346.479464404472
 10
2717.052430684109
 20
1346.478739737953
 10
2717.051997996707
 20
1346.47771229342
 10
2717.051731546387
 20
1346.476421617037
 10
2717.051641537651
 20
1346.47491732914
  0
LINE
  5
12A
330
2
100
AcDbEntity
  8
0
100
AcDbLine
 10
2715.024569204164
 20
1345.84972450698
 30
0.0
 11
2715.044199833182
 21
1345.789204237143
 31
0.0
  0
ARC
  5
12B
330
2
100
AcDbEntity
  8
0
100
AcDbCircle
 10
2715.033788330649
 20
1345.852793485266
 30
0.0
 40
0.0097165282239922
100
AcDbArc
 50
180.8404653397975
 51
198.4122150232104
  0
LINE
  5
12C
330
2
100
AcDbEntity
  8
0
100
AcDbLine
 10
2715.024072847781
 20
1345.8896086647
 30
0.0
 11
2715.024072847781
 21
1345.852650959716
 31
0.0
  0
LWPOLYLINE
  5
12D
330
2
100
AcDbEntity
  8
0
100
AcDbPolyline
 90
        9
 70
   128
 43
0.0
 10
2715.024072847781
 20
1345.8896086647
 10
2715.024162856539
 20
1345.891112952598
 10
2715.02442930686
 20
1345.89240362898
 10
2715.024861994261
 20
1345.893431073513
 10
2715.025444347369
 20
1345.894155740032
 10
2715.026153907612
 20
1345.894549860817
 10
2715.026963419437
 20
1345.894598272629
 10
2715.027841833323
 20
1345.894299068275
 10
2715.028755352335
 20
1345.893663771217
  0
LINE
  5
12E
330
2
100
AcDbEntity
  8
0
100
AcDbLine
 10
2715.028755352335
 20
1345.893663771217
 30
0.0
 11
2715.033437813271
 21
1345.8896086411
 31
0.0
  0
ARC
  5
12F
330
2
100
AcDbEntity
  8
0
100
AcDbCircle
 10
2715.020366763997
 20
1345.87759375647
 30
0.0
 40
0.0177541482983068
100
AcDbArc
 50
359.5142397065992
 51
42.58916444309639
  0
LINE
  5
130
330
2
100
AcDbEntity
  8
0
100
AcDbLine
 10
2715.038120274232
 20
1345.848863300722
 30
0.0
 11
2715.038120274232
 21
1345.877443236541
 31
0.0
  0
ARC
  5
131
330
2
100
AcDbEntity
  8
0
100
AcDbCircle
 10
2715.047835734413
 20
1345.849005734566
 30
0.0
 40
0.0097165042221593
100
AcDbArc
 50
180.8399265200925
 51
198.4113987297972
  0
LINE
  5
132
330
2
100
AcDbEntity
  8
0
100
AcDbLine
 10
2715.055921117812
 20
1345.79258788057
 30
0.0
 11
2715.038616586997
 21
1345.845936895185
 31
0.0
  0
LINE
  5
133
330
2
100
AcDbEntity
  8
0
100
AcDbLine
 10
2703.791194163418
 20
1342.540741310842
 30
0.0
 11
2703.771563534423
 21
1342.601261580679
 31
0.0
  0
ARC
  5
134
330
2
100
AcDbEntity
  8
0
100
AcDbCircle
 10
2703.780782660885
 20
1342.604330558965
 30
0.0
 40
0.0097165282243116
100
AcDbArc
 50
180.8404653396022
 51
198.4122150225018
  0
LINE
  5
135
330
2
100
AcDbEntity
  8
0
100
AcDbLine
 10
2703.771067178041
 20
1342.604188033414
 30
0.0
 11
2703.771067178041
 21
1342.641145738375
 31
0.0
  0
LWPOLYLINE
  5
136
330
2
100
AcDbEntity
  8
0
100
AcDbPolyline
 90
        7
 70
   128
 43
0.0
 10
2703.773152293498
 20
1342.646088133579
 10
2703.773148237871
 20
1342.646086934492
 10
2703.772438677629
 20
1342.645692813731
 10
2703.771856324498
 20
1342.644968147189
 10
2703.771423637096
 20
1342.643940702655
 10
2703.771157186775
 20
1342.642650026273
 10
2703.771067178041
 20
1342.641145738375
  0
LINE
  5
137
330
2
100
AcDbEntity
  8
0
100
AcDbLine
 10
2701.743995750962
 20
1342.015953177872
 30
0.0
 11
2701.763626379956
 21
1341.955432908058
 31
0.0
  0
ARC
  5
138
330
2
100
AcDbEntity
  8
0
100
AcDbCircle
 10
2701.753214877447
 20
1342.019022156181
 30
0.0
 40
0.0097165282259667
100
AcDbArc
 50
180.8404653415955
 51
198.4122150215007
  0
LINE
  5
139
330
2
100
AcDbEntity
  8
0
100
AcDbLine
 10
2701.743499394579
 20
1342.055837335592
 30
0.0
 11
2701.743499394579
 21
1342.018879630631
 31
0.0
  0
LWPOLYLINE
  5
13A
330
2
100
AcDbEntity
  8
0
100
AcDbPolyline
 90
        9
 70
   128
 43
0.0
 10
2701.743499394579
 20
1342.055837335592
 10
2701.743589403314
 20
1342.057341623489
 10
2701.743855853634
 20
1342.058632299871
 10
2701.744288541036
 20
1342.059659744405
 10
2701.744870894167
 20
1342.060384410924
 10
2701.745580454409
 20
1342.060778531709
 10
2701.746389966235
 20
1342.060826943521
 10
2701.747268380098
 20
1342.060527739166
 10
2701.748181899133
 20
1342.059892442108
  0
LINE
  5
13B
330
2
100
AcDbEntity
  8
0
100
AcDbLine
 10
2701.748181899133
 20
1342.059892442108
 30
0.0
 11
2701.75286436007
 21
1342.055837311992
 31
0.0
  0
ARC
  5
13C
330
2
100
AcDbEntity
  8
0
100
AcDbCircle
 10
2701.739793310772
 20
1342.043822427385
 30
0.0
 40
0.0177541482981808
100
AcDbArc
 50
359.5142397064038
 51
42.58916444320683
  0
LINE
  5
13D
330
2
100
AcDbEntity
  8
0
100
AcDbLine
 10
2701.757546821006
 20
1342.015091971637
 30
0.0
 11
2701.757546821006
 21
1342.043671907432
 31
0.0
  0
ARC
  5
13E
330
2
100
AcDbEntity
  8
0
100
AcDbCircle
 10
2701.767262281211
 20
1342.015234405457
 30
0.0
 40
0.0097165042228285
100
AcDbArc
 50
180.8399265213043
 51
198.4113987296942
  0
LINE
  5
13F
330
2
100
AcDbEntity
  8
0
100
AcDbLine
 10
2701.77534766461
 20
1341.958816551485
 30
0.0
 11
2701.758043133795
 21
1342.012165566077
 31
0.0
  0
ARC
  5
140
330
2
100
AcDbEntity
  8
0
100
AcDbCircle
 10
2695.194031206597
 20
1340.12554892715
 30
0.0
 40
0.0097165282243095
100
AcDbArc
 50
180.8404653396022
 51
198.4122150223988
  0
LINE
  5
141
330
2
100
AcDbEntity
  8
0
100
AcDbLine
 10
2695.184315723729
 20
1340.162364106584
 30
0.0
 11
2695.184315723729
 21
1340.1254064016
 31
0.0
  0
LWPOLYLINE
  5
142
330
2
100
AcDbEntity
  8
0
100
AcDbPolyline
 90
        7
 70
   128
 43
0.0
 10
2695.184315723729
 20
1340.162364106584
 10
2695.184405732487
 20
1340.163868394482
 10
2695.184672182808
 20
1340.165159070864
 10
2695.185104870209
 20
1340.166186515398
 10
2695.185687223317
 20
1340.166911181916
 10
2695.186396783583
 20
1340.167305302701
 10
2695.18640083921
 20
1340.167306501788
  0
LINE
  5
143
330
2
100
AcDbEntity
  8
0
100
AcDbLine
 10
2703.565880092436
 20
1342.733305069208
 30
0.0
 11
2703.568446301183
 21
1342.476439503964
 31
0.0
  0
LINE
  5
144
330
2
100
AcDbEntity
  8
0
100
AcDbLine
 10
2703.180640992983
 20
1342.622096120329
 30
0.0
 11
2703.183207201707
 21
1342.365230555061
 31
0.0
  0
LINE
  5
145
330
2
100
AcDbEntity
  8
0
100
AcDbLine
 10
2737.42627331551
 20
1352.507958640311
 30
0.0
 11
2737.428839524258
 21
1352.251093075066
 31
0.0
  0
LINE
  5
146
330
2
100
AcDbEntity
  8
0
100
AcDbLine
 10
2737.041035424579
 20
1352.396750040298
 30
0.0
 11
2737.043601633303
 21
1352.139884475053
 31
0.0
  0
LINE
  5
147
330
2
100
AcDbEntity
  8
0
100
AcDbLine
 10
2735.751003494395
 20
1351.858314904289
 30
0.0
 11
2735.758896358998
 21
1351.769022032246
 31
0.0
  0
ARC
  5
148
330
2
100
AcDbEntity
  8
0
100
AcDbCircle
 10
2735.739738993971
 20
1351.859246958339
 30
0.0
 40
0.0113029949347411
100
AcDbArc
 50
355.2699730967999
 51
61.38858215380921
  0
LINE
  5
149
330
2
100
AcDbEntity
  8
0
100
AcDbLine
 10
2735.994579440817
 20
1351.932283328608
 30
0.0
 11
2735.998317934591
 21
1351.838137087808
 31
0.0
  0
ARC
  5
14A
330
2
100
AcDbEntity
  8
0
100
AcDbCircle
 10
2735.97987591928
 20
1351.931416326226
 30
0.0
 40
0.0147290610272779
100
AcDbArc
 50
3.374574144802275
 51
48.12398011178706
  0
LINE
  5
14B
330
2
100
AcDbEntity
  8
0
100
AcDbLine
 10
2701.890609062775
 20
1342.08366098432
 30
0.0
 11
2701.898503135924
 21
1341.994368461144
 31
0.0
  0
ARC
  5
14C
330
2
100
AcDbEntity
  8
0
100
AcDbCircle
 10
2701.879343489176
 20
1342.084593381524
 30
0.0
 40
0.0113040927655518
100
AcDbArc
 50
355.2686882579058
 51
61.37844321278262
  0
LINE
  5
14D
330
2
100
AcDbEntity
  8
0
100
AcDbLine
 10
2702.134185009221
 20
1342.157629408616
 30
0.0
 11
2702.137924711517
 21
1342.063483516706
 31
0.0
  0
ARC
  5
14E
330
2
100
AcDbEntity
  8
0
100
AcDbCircle
 10
2702.11949748836
 20
1342.156770123808
 30
0.0
 40
0.0147126353688944
100
AcDbArc
 50
3.348239454699614
 51
48.15031480139499
  0
LINE
  5
14F
330
2
100
AcDbEntity
  8
0
100
AcDbLine
 10
2716.846453394581
 20
1346.567076354699
 30
0.0
 11
2716.849019603329
 21
1346.310210789455
 31
0.0
  0
LINE
  5
150
330
2
100
AcDbEntity
  8
0
100
AcDbLine
 10
2716.461215352571
 20
1346.45586771107
 30
0.0
 11
2716.463781561318
 21
1346.199002145825
 31
0.0
  0
LINE
  5
151
330
2
100
AcDbEntity
  8
0
100
AcDbLine
 10
2715.171182818114
 20
1345.917432400639
 30
0.0
 11
2715.179076287013
 21
1345.828139703018
 31
0.0
  0
ARC
  5
152
330
2
100
AcDbEntity
  8
0
100
AcDbCircle
 10
2715.159917514225
 20
1345.918364712786
 30
0.0
 40
0.0113038169508864
100
AcDbArc
 50
355.2690051507004
 51
61.38098231108805
  0
LINE
  5
153
330
2
100
AcDbEntity
  8
0
100
AcDbLine
 10
2715.41475876456
 20
1345.991400824935
 30
0.0
 11
2715.418498164718
 21
1345.897254845815
 31
0.0
  0
ARC
  5
154
330
2
100
AcDbEntity
  8
0
100
AcDbCircle
 10
2715.400062944958
 20
1345.990537537413
 30
0.0
 40
0.0147211541330889
100
AcDbArc
 50
3.361905252805307
 51
48.13664900338943
  0
ELLIPSE
  5
155
330
2
100
AcDbEntity
  8
0
100
AcDbEllipse
 10
2743.394679989539
 20
1353.944804089906
 30
0.0
 11
-0.010483984110587
 21
0.0408273332293917
 31
0.0
210
0.0
220
0.0
230
0.9999999999999998
 40
0.4279130417000001
 41
6.274088224273781
 42
7.278098349426256
  0
ELLIPSE
  5
156
330
2
100
AcDbEntity
  8
0
100
AcDbEllipse
 10
2744.768847426407
 20
1351.287018190558
 30
0.0
 11
-0.01289755872488
 21
0.0401303691467099
 31
0.0
210
0.0
220
0.0
230
1.0
 40
0.4375948954
 41
2.541124650377045
 42
3.147430624455022
  0
LINE
  5
157
330
2
100
AcDbEntity
  8
0
100
AcDbLine
 10
2743.622926156076
 20
1353.988220100417
 30
0.0
 11
2743.455020942755
 21
1353.939750040365
 31
0.0
  0
LINE
  5
158
330
2
100
AcDbEntity
  8
0
100
AcDbLine
 10
2743.435010685005
 20
1353.957077981347
 30
0.0
 11
2743.622926655416
 21
1354.011324649411
 31
0.0
  0
LINE
  5
159
330
2
100
AcDbEntity
  8
0
100
AcDbLine
 10
2736.044036072641
 20
1351.880012994055
 30
0.0
 11
2736.045185958358
 21
1351.873329965934
 31
0.0
  0
LINE
  5
15A
330
2
100
AcDbEntity
  8
0
100
AcDbLine
 10
2736.23788759853
 20
1352.054754166757
 30
0.0
 11
2736.256099842095
 21
1352.020188618772
 31
0.0
  0
LINE
  5
15B
330
2
100
AcDbEntity
  8
0
100
AcDbLine
 10
2715.652198126796
 20
1346.109703294035
 30
0.0
 11
2715.672243099597
 21
1346.072319799418
 31
0.0
  0
LINE
  5
15C
330
2
100
AcDbEntity
  8
0
100
AcDbLine
 10
2715.713648961531
 20
1346.093584623201
 30
0.0
 11
2715.685487416874
 21
1346.060906154631
 31
0.0
  0
LINE
  5
15D
330
2
100
AcDbEntity
  8
0
100
AcDbLine
 10
2702.183641641036
 20
1342.105359074078
 30
0.0
 11
2702.184792735284
 21
1342.098676394832
 31
0.0
  0
LINE
  5
15E
330
2
100
AcDbEntity
  8
0
100
AcDbLine
 10
2702.377494375433
 20
1342.280100595655
 30
0.0
 11
2702.395705410499
 21
1342.245534698803
 31
0.0
  0
ENDSEC
  0
SECTION
  2
OBJECTS
  0
DICTIONARY
  5
9
330
0
100
AcDbDictionary
281
     1
  3
ACAD_COLOR
350
3E
  3
ACAD_GROUP
350
35
  3
ACAD_LAYOUT
350
16
  3
ACAD_MATERIAL
350
B
  3
ACAD_MLEADERSTYLE
350
41
  3
ACAD_MLINESTYLE
350
36
  3
ACAD_PLOTSETTINGS
350
37
  3
ACAD_PLOTSTYLENAME
350
8
  3
ACAD_SCALELIST
350
3F
  3
ACAD_TABLESTYLE
350
40
  3
ACAD_VISUALSTYLE
350
2B
  3
ACDB_RECOMPOSE_DATA
350
166
  3
AcDbVariableDictionary
350
15F
  0
DICTIONARY
  5
1E
330
1D
100
AcDbDictionary
280
     1
281
     1
  3
ACAD_LAYERSTATES
360
1F
  0
DICTIONARY
  5
6
330
5
100
AcDbDictionary
280
     1
281
     1
  0
DICTIONARY
  5
3
330
2
100
AcDbDictionary
280
     1
281
     1
  0
DICTIONARY
  5
3E
102
{ACAD_REACTORS
330
9
102
}
330
9
100
AcDbDictionary
281
     1
  0
DICTIONARY
  5
35
102
{ACAD_REACTORS
330
9
102
}
330
9
100
AcDbDictionary
281
     1
  0
DICTIONARY
  5
16
102
{ACAD_REACTORS
330
9
102
}
330
9
100
AcDbDictionary
281
     1
  3
Model
350
15
  3
レイアウト1
350
1C
  0
DICTIONARY
  5
B
102
{ACAD_REACTORS
330
9
102
}
330
9
100
AcDbDictionary
281
     1
  3
ByBlock
350
3B
  3
ByLayer
350
38
  3
Global
350
A
  0
DICTIONARY
  5
41
102
{ACAD_REACTORS
330
9
102
}
330
9
100
AcDbDictionary
281
     1
  0
DICTIONARY
  5
36
102
{ACAD_REACTORS
330
9
102
}
330
9
100
AcDbDictionary
281
     1
  3
Standard
350
42
  0
DICTIONARY
  5
37
102
{ACAD_REACTORS
330
9
102
}
330
9
100
AcDbDictionary
281
     1
  0
ACDBDICTIONARYWDFLT
  5
8
102
{ACAD_REACTORS
330
9
102
}
330
9
100
AcDbDictionary
281
     1
  3
Normal
350
7
100
AcDbDictionaryWithDefault
340
7
  0
DICTIONARY
  5
3F
102
{ACAD_REACTORS
330
9
102
}
330
9
100
AcDbDictionary
281
     1
  3
A0
350
47
  3
A1
350
48
  3
A2
350
49
  3
A3
350
4A
  3
A4
350
4B
  3
A5
350
4C
  3
A6
350
4D
  3
A7
350
4E
  3
A8
350
4F
  3
A9
350
50
  3
B0
350
51
  3
B1
350
52
  3
B2
350
53
  3
B3
350
54
  3
B4
350
55
  3
B5
350
56
  3
B6
350
57
  0
DICTIONARY
  5
40
102
{ACAD_REACTORS
330
9
102
}
330
9
100
AcDbDictionary
281
     1
  3
Standard
350
43
  0
DICTIONARY
  5
2B
102
{ACAD_REACTORS
330
9
102
}
330
9
100
AcDbDictionary
281
     1
  3
2dWireframe
350
2A
  3
Realistic
350
45
  3
Wireframe
350
46
  0
XRECORD
  5
166
102
{ACAD_REACTORS
330
9
102
}
330
9
100
AcDbXrecord
280
     1
 90
        1
330
43
  0
DICTIONARY
  5
15F
102
{ACAD_REACTORS
330
9
102
}
330
9
100
AcDbDictionary
281
     1
  3
CANNOSCALE
350
164
  3
CMLEADERSTYLE
350
161
  3
CTABLESTYLE
350
160
  3
CVIEWDETAILSTYLE
350
162
  3
CVIEWSECTIONSTYLE
350
163
  0
DICTIONARY
  5
1F
102
{ACAD_REACTORS
330
1E
102
}
330
1E
100
AcDbDictionary
281
     1
  0
LAYOUT
  5
15
102
{ACAD_XDICTIONARY
360
17
102
}
102
{ACAD_REACTORS
330
16
102
}
330
16
100
AcDbPlotSettings
  1

  2
none_device
  4
ISO_A4_(210.00_x_297.00_MM)
  6

 40
7.5
 41
20.0
 42
7.5
 43
20.0
 44
210.0
 45
297.0
 46
11.54999923706054
 47
-13.65000009536743
 48
0.0
 49
0.0
140
0.0
141
0.0
142
1.0
143
8.704084754739808
 70
 11952
 72
     1
 73
     0
 74
     0
  7

 75
     0
147
0.1148885871608098
 76
     0
 77
     2
 78
   300
148
0.0
149
0.0
100
AcDbLayout
  1
Model
 70
     1
 71
     0
 10
0.0
 20
0.0
 11
12.0
 21
9.0
 12
0.0
 22
0.0
 32
0.0
 14
0.0
 24
0.0
 34
0.0
 15
0.0
 25
0.0
 35
0.0
146
0.0
 13
0.0
 23
0.0
 33
0.0
 16
1.0
 26
0.0
 36
0.0
 17
0.0
 27
1.0
 37
0.0
 76
     0
330
2
331
29
1001
ACAD_PSEXT
1000
None
1000
None
1000
Not applicable
1000
The layout will not be plotted unless a new plotter configuration name is selected.
1070
     0
  0
LAYOUT
  5
1C
102
{ACAD_REACTORS
330
16
102
}
330
16
100
AcDbPlotSettings
  1

  2
C:\Documents and Settings\basas\Application Data\Autodesk\AutoCAD 2005\R16.1\enu\plotters\Default Windows System Printer.pc3
  4

  6

 40
0.0
 41
0.0
 42
0.0
 43
0.0
 44
0.0
 45
0.0
 46
0.0
 47
0.0
 48
0.0
 49
0.0
140
0.0
141
0.0
142
1.0
143
1.0
 70
   688
 72
     0
 73
     0
 74
     5
  7

 75
    16
147
1.0
 76
     0
 77
     2
 78
   300
148
0.0
149
0.0
100
AcDbLayout
  1
レイアウト1
 70
     1
 71
     1
 10
0.0
 20
0.0
 11
12.0
 21
9.0
 12
0.0
 22
0.0
 32
0.0
 14
0.0
 24
0.0
 34
0.0
 15
0.0
 25
0.0
 35
0.0
146
0.0
 13
0.0
 23
0.0
 33
0.0
 16
1.0
 26
0.0
 36
0.0
 17
0.0
 27
1.0
 37
0.0
 76
     0
330
19
  0
MATERIAL
  5
3B
102
{ACAD_XDICTIONARY
360
3C
102
}
102
{ACAD_REACTORS
330
B
102
}
330
B
100
AcDbMaterial
  1
ByBlock
 94
       63
  0
MATERIAL
  5
38
102
{ACAD_XDICTIONARY
360
39
102
}
102
{ACAD_REACTORS
330
B
102
}
330
B
100
AcDbMaterial
  1
ByLayer
 94
       63
  0
MATERIAL
  5
A
102
{ACAD_XDICTIONARY
360
C
102
}
102
{ACAD_REACTORS
330
B
102
}
330
B
100
AcDbMaterial
  1
Global
 43
0.0007999999797903
 43
0.0
 43
0.0
 43
0.0
 43
0.0
 43
0.0007999999797903
 43
0.0
 43
0.0
 43
0.0
 43
0.0
 43
1.0
 43
0.0
 43
0.0
 43
0.0
 43
0.0
 43
1.0
 49
0.0007999999797903
 49
0.0
 49
0.0
 49
0.0
 49
0.0
 49
0.0007999999797903
 49
0.0
 49
0.0
 49
0.0
 49
0.0
 49
1.0
 49
0.0
 49
0.0
 49
0.0
 49
0.0
 49
1.0
142
0.0007999999797903
142
0.0
142
0.0
142
0.0
142
0.0
142
0.0007999999797903
142
0.0
142
0.0
142
0.0
142
0.0
142
1.0
142
0.0
142
0.0
142
0.0
142
0.0
142
1.0
144
0.0007999999797903
144
0.0
144
0.0
144
0.0
144
0.0
144
0.0007999999797903
144
0.0
144
0.0
144
0.0
144
0.0
144
1.0
144
0.0
144
0.0
144
0.0
144
0.0
144
1.0
 94
       63
1001
ACAD
1070
    -1
1070
     3
1070
     0
1000

1071
        0
1070
     0
  0
MLINESTYLE
  5
42
102
{ACAD_REACTORS
330
36
102
}
330
36
100
AcDbMlineStyle
  2
STANDARD
 70
     0
  3

 62
   256
 51
90.0
 52
90.0
 71
     2
 49
0.5
 62
   256
  6
BYLAYER
 49
-0.5
 62
   256
  6
BYLAYER
  0
ACDBPLACEHOLDER
  5
7
102
{ACAD_REACTORS
330
8
102
}
330
8
  0
SCALE
  5
47
102
{ACAD_REACTORS
330
3F
102
}
330
3F
100
AcDbScale
 70
     0
300
1:1
140
1.0
141
1.0
290
     1
  0
SCALE
  5
48
102
{ACAD_REACTORS
330
3F
102
}
330
3F
100
AcDbScale
 70
     0
300
1:2
140
1.0
141
2.0
290
     0
  0
SCALE
  5
49
102
{ACAD_REACTORS
330
3F
102
}
330
3F
100
AcDbScale
 70
     0
300
1:4
140
1.0
141
4.0
290
     0
  0
SCALE
  5
4A
102
{ACAD_REACTORS
330
3F
102
}
330
3F
100
AcDbScale
 70
     0
300
1:5
140
1.0
141
5.0
290
     0
  0
SCALE
  5
4B
102
{ACAD_REACTORS
330
3F
102
}
330
3F
100
AcDbScale
 70
     0
300
1:8
140
1.0
141
8.0
290
     0
  0
SCALE
  5
4C
102
{ACAD_REACTORS
330
3F
102
}
330
3F
100
AcDbScale
 70
     0
300
1:10
140
1.0
141
10.0
290
     0
  0
SCALE
  5
4D
102
{ACAD_REACTORS
330
3F
102
}
330
3F
100
AcDbScale
 70
     0
300
1:16
140
1.0
141
16.0
290
     0
  0
SCALE
  5
4E
102
{ACAD_REACTORS
330
3F
102
}
330
3F
100
AcDbScale
 70
     0
300
1:20
140
1.0
141
20.0
290
     0
  0
SCALE
  5
4F
102
{ACAD_REACTORS
330
3F
102
}
330
3F
100
AcDbScale
 70
     0
300
1:30
140
1.0
141
30.0
290
     0
  0
SCALE
  5
50
102
{ACAD_REACTORS
330
3F
102
}
330
3F
100
AcDbScale
 70
     0
300
1:40
140
1.0
141
40.0
290
     0
  0
SCALE
  5
51
102
{ACAD_REACTORS
330
3F
102
}
330
3F
100
AcDbScale
 70
     0
300
1:50
140
1.0
141
50.0
290
     0
  0
SCALE
  5
52
102
{ACAD_REACTORS
330
3F
102
}
330
3F
100
AcDbScale
 70
     0
300
1:100
140
1.0
141
100.0
290
     0
  0
SCALE
  5
53
102
{ACAD_REACTORS
330
3F
102
}
330
3F
100
AcDbScale
 70
     0
300
2:1
140
2.0
141
1.0
290
     0
  0
SCALE
  5
54
102
{ACAD_REACTORS
330
3F
102
}
330
3F
100
AcDbScale
 70
     0
300
4:1
140
4.0
141
1.0
290
     0
  0
SCALE
  5
55
102
{ACAD_REACTORS
330
3F
102
}
330
3F
100
AcDbScale
 70
     0
300
8:1
140
8.0
141
1.0
290
     0
  0
SCALE
  5
56
102
{ACAD_REACTORS
330
3F
102
}
330
3F
100
AcDbScale
 70
     0
300
10:1
140
10.0
141
1.0
290
     0
  0
SCALE
  5
57
102
{ACAD_REACTORS
330
3F
102
}
330
3F
100
AcDbScale
 70
     0
300
100:1
140
100.0
141
1.0
290
     0
  0
TABLESTYLE
  5
43
102
{ACAD_XDICTIONARY
360
44
102
}
102
{ACAD_REACTORS
330
40
102
}
330
40
100
AcDbTableStyle
280
     0
  3
Standard
 70
     0
 71
     0
 40
1.5
 41
1.5
280
     0
281
     0
  7
Standard
140
4.5
170
     2
 62
     0
 63
     7
283
     0
 90
      512
 91
        0
  1

274
    -2
284
     1
 64
     0
275
    -2
285
     1
 65
     0
276
    -2
286
     1
 66
     0
277
    -2
287
     1
 67
     0
278
    -2
288
     1
 68
     0
279
    -2
289
     1
 69
     0
  7
Standard
140
6.0
170
     5
 62
     0
 63
     7
283
     0
 90
      512
 91
        0
  1

274
    -2
284
     1
 64
     0
275
    -2
285
     1
 65
     0
276
    -2
286
     1
 66
     0
277
    -2
287
     1
 67
     0
278
    -2
288
     1
 68
     0
279
    -2
289
     1
 69
     0
  7
Standard
140
4.5
170
     5
 62
     0
 63
     7
283
     0
 90
      512
 91
        0
  1

274
    -2
284
     1
 64
     0
275
    -2
285
     1
 65
     0
276
    -2
286
     1
 66
     0
277
    -2
287
     1
 67
     0
278
    -2
288
     1
 68
     0
279
    -2
289
     1
 69
     0
  0
VISUALSTYLE
  5
2A
102
{ACAD_REACTORS
330
2B
102
}
330
2B
100
AcDbVisualStyle
  2
2dWireframe
 70
     4
177
     3
291
     0
 70
    58
 90
        0
176
     1
 90
        2
176
     1
 90
        1
176
     1
 90
        0
176
     1
 40
0.6
176
     1
 40
30.0
176
     1
 62
     7
420
 16777215
176
     1
 90
        1
176
     1
 90
        4
176
     1
 62
     7
176
     1
 62
   257
176
     1
 90
        1
176
     1
 90
        1
176
     1
 40
1.0
176
     1
 90
        0
176
     1
 62
   257
176
     1
 40
1.0
176
     1
 90
        1
176
     1
 90
        6
176
     1
 90
        2
176
     1
 62
     7
176
     1
 90
        5
176
     1
 90
        0
176
     1
 90
        0
176
     1
290
     0
176
     1
 90
        1
176
     1
 40
0.0
176
     1
 90
        0
176
     1
290
     1
176
     1
290
     1
176
     1
290
     0
176
     1
290
     0
176
     1
290
     0
176
     1
290
     0
176
     1
290
     0
176
     1
290
     0
176
     1
290
     0
176
     1
 90
       50
176
     1
 40
0.0
176
     1
 40
1.0
176
     1
 90
        0
176
     1
 62
    18
420
        0
176
     1
 90
       50
176
     1
 90
        3
176
     1
 62
     5
420
      255
176
     1
290
     0
176
     1
 90
       50
176
     1
 90
       50
176
     1
 90
       50
176
     1
290
     0
176
     1
 90
       50
176
     1
 62
   256
176
     0
 40
1.0
176
     0
 90
        2
176
     1
  1
strokes_ogs.tif
176
     1
290
     0
176
     1
 40
1.0
176
     1
 40
1.0
176
     1
  0
VISUALSTYLE
  5
45
102
{ACAD_REACTORS
330
2B
102
}
330
2B
100
AcDbVisualStyle
  2
Realistic
 70
     8
177
     3
291
     0
 70
    58
 90
        2
176
     1
 90
        3
176
     1
 90
        0
176
     1
 90
        2
176
     1
 40
0.6
176
     1
 40
30.0
176
     1
 62
     7
420
 16777215
176
     1
 90
        0
176
     1
 90
        0
176
     1
 62
     7
176
     1
 62
   257
176
     1
 90
        1
176
     1
 90
        1
176
     1
 40
1.0
176
     1
 90
        8
176
     1
 62
   257
176
     1
 40
1.0
176
     1
 90
        1
176
     1
 90
        6
176
     1
 90
        2
176
     1
 62
     7
176
     1
 90
        3
176
     1
 90
        0
176
     1
 90
        0
176
     1
290
     0
176
     1
 90
       13
176
     1
 40
0.0
176
     1
 90
        0
176
     1
290
     0
176
     1
290
     1
176
     1
290
     1
176
     1
290
     0
176
     1
290
     0
176
     1
290
     0
176
     1
290
     0
176
     1
290
     0
176
     1
290
     0
176
     1
 90
       50
176
     1
 40
0.0
176
     1
 40
1.0
176
     1
 90
        0
176
     1
 62
    18
420
        0
176
     1
 90
       50
176
     1
 90
        3
176
     1
 62
     5
420
      255
176
     1
290
     0
176
     1
 90
       50
176
     1
 90
       50
176
     1
 90
       50
176
     1
290
     0
176
     1
 90
       50
176
     1
 62
   256
176
     0
 40
1.0
176
     0
 90
        2
176
     1
  1
strokes_ogs.tif
176
     1
290
     0
176
     1
 40
1.0
176
     1
 40
1.0
176
     1
  0
VISUALSTYLE
  5
46
102
{ACAD_REACTORS
330
2B
102
}
330
2B
100
AcDbVisualStyle
  2
Wireframe
 70
     5
177
     3
291
     0
 70
    58
 90
        0
176
     1
 90
        2
176
     1
 90
        0
176
     1
 90
        0
176
     1
 40
0.6
176
     1
 40
30.0
176
     1
 62
     7
420
 16777215
176
     1
 90
        1
176
     1
 90
        4
176
     1
 62
     7
176
     1
 62
   257
176
     1
 90
        1
176
     1
 90
        1
176
     1
 40
1.0
176
     1
 90
        0
176
     1
 62
   257
176
     1
 40
1.0
176
     1
 90
        1
176
     1
 90
        6
176
     1
 90
        2
176
     1
 62
     7
176
     1
 90
        3
176
     1
 90
        0
176
     1
 90
        0
176
     1
290
     0
176
     1
 90
        1
176
     1
 40
0.0
176
     1
 90
        0
176
     1
290
     0
176
     1
290
     1
176
     1
290
     1
176
     1
290
     0
176
     1
290
     0
176
     1
290
     0
176
     1
290
     0
176
     1
290
     0
176
     1
290
     0
176
     1
 90
       50
176
     1
 40
0.0
176
     1
 40
1.0
176
     1
 90
        0
176
     1
 62
    18
420
        0
176
     1
 90
       50
176
     1
 90
        3
176
     1
 62
     5
420
      255
176
     1
290
     0
176
     1
 90
       50
176
     1
 90
       50
176
     1
 90
       50
176
     1
290
     0
176
     1
 90
       50
176
     1
 62
   256
176
     0
 40
1.0
176
     0
 90
        2
176
     1
  1
strokes_ogs.tif
176
     1
290
     0
176
     1
 40
1.0
176
     1
 40
1.0
176
     1
  0
DICTIONARYVAR
  5
164
102
{ACAD_REACTORS
330
15F
102
}
330
15F
100
DictionaryVariables
280
     0
  1
1:1
  0
DICTIONARYVAR
  5
161
102
{ACAD_REACTORS
330
15F
102
}
330
15F
100
DictionaryVariables
280
     0
  1
STANDARD
  0
DICTIONARYVAR
  5
160
102
{ACAD_REACTORS
330
15F
102
}
330
15F
100
DictionaryVariables
280
     0
  1
STANDARD
  0
DICTIONARYVAR
  5
162
102
{ACAD_REACTORS
330
15F
102
}
330
15F
100
DictionaryVariables
280
     0
  1

  0
DICTIONARYVAR
  5
163
102
{ACAD_REACTORS
330
15F
102
}
330
15F
100
DictionaryVariables
280
     0
  1

  0
DICTIONARY
  5
17
330
15
100
AcDbDictionary
280
     1
281
     1
  0
DICTIONARY
  5
3C
330
3B
100
AcDbDictionary
280
     1
281
     1
  3
FBXASSET
360
3D
  0
DICTIONARY
  5
39
330
38
100
AcDbDictionary
280
     1
281
     1
  3
FBXASSET
360
3A
  0
DICTIONARY
  5
C
330
A
100
AcDbDictionary
280
     1
281
     1
  3
BUMPTILE
360
D
  3
DIFFUSETILE
360
E
  3
FBXASSET
360
F
  3
OPACITYTILE
360
10
  3
REFLECTIONTILE
360
11
  0
DICTIONARY
  5
44
330
43
100
AcDbDictionary
280
     1
281
     1
  3
ACAD_ROUNDTRIP_2008_TABLESTYLE_CELLSTYLEMAP
360
165
  0
XRECORD
  5
3D
102
{ACAD_REACTORS
330
3C
102
}
330
3C
100
AcDbXrecord
280
     1
 70
     1
 90
429727718
  1
D62C5603-E3A1-4AEA-B7FB-FE5D8D0755AF
310
504B03040A0000080000CC70623B3DEE336E79000000790000001B0000006175746F6465736B2D64657369676E2D7061636B6167652E786D6C3C3F786D6C2076657273696F6E3D22312E302220656E636F64696E673D227574662D3822203F3E3C666F726D6174733E3C666F726D61743E687474703A2F2F736368656D612E
310
6175746F6465736B2E636F6D2F64657369676E2D7061636B6167652F323030393C2F666F726D61743E3C2F666F726D6174733E504B0304140006080800CC70623BD486FD9CA0000000F4000000130000005B436F6E74656E745F54797065735D2E786D6C7D8EC10E82300C865F65E91D8A1E8C310C0EEA1BF002731658846E
310
D98AC1B77784ABF1D8FE5FBFBF75BBCE937A534CCEB38643598122B6FEE978D0B0485F9C41B54DDD7D022595594E1A469170414C76A4D9A4D207E29CF43ECE46F218070CC6BECC4078ACAA135ACF422C856C0E68EA1BF5669944DDD7BCDE7B1F8E415D77AECB980613C2E4AC91FC167A2B244592486606FC29C8FD7F045B9A
310
EF7053A7E60B504B0304140006080800CC70623B853B8169EB0000007C01000008000000636F72652E786D6C8D90416EC3201045AF62CDB6C206821CC7C244919D9CA01740401C94182C03558F5F9C3852BBEB6A467FFE9B197D7EFC9E1EC5975982F5AE035262288C535E5B377690E21535501C055FBC8FBF6C503839990E
310
5619041F179FE64D52DE45E362569DD7661365082642A11EB9E920A89B99642953CC8E702F67A9EE7234257977194EC9EAE275C4EABCCF5EAD5940D4AC6F0E35A568B8F43562CD7046CD199FD07E60174276A7BE677B5EADB0E0D14EEFFB6A31321A0D82627C4084204C3F096B71DD52F6819B16635EADF63F509AF53FA164
310
5DDCD1EDDD17164090FCC8732078B56691CB33A85CD7DCC40F504B0304140006080800CC70623B55019EA25F0000007C00000007000000636E782E786D6C4DCB3B0E80201045D1AD90E915ED2CF8AC45050C11660C8261F98AB1B07AC9C97D42D718D865D3E909258CFD00CCE24AC6E326A164D74DC0B4128928FF32603847
310
2BA13128B1252AC747C6BAB984FC68F0B87FE8960A5C09FE86CFB69FBA01504B0304140006080800CC70623BDBABAAF470010000D40300000C0000006662782F636F72652E786D6CC553D16E823014FD95A6AF4B694182CC941A83FA05FB810A9511A125A5257EFE2E82712ECEB8A7F100CD39F7F69E734AF9FADC366850B6
310
AF8DCE7018308C942E4C59EB2AC3DE1D498AD15A706B8CFB56869196ADCAF00863C12B6B7C374385D14E6907A836A59A41D9F7CA615434B0C8705F7CAA5606D23BA8E84F41278B93AC54100640439DE0BDB320004D43C63716C7C399D30917DCFBBA9CD9BA8469F5B156168B24CED3F7248AC8769F27244EB73B92EED8862C
310
B7F13E0C179B3C8F979C8ECD82BBBABDAA2BAC924E9558448CBD9330242CFA08E3154B5651FCC6D215639C8EE5774DBE2B5F6CF2B5768B68963BB5F5588420E442FC700B1139D4CB01F450C1E918227C2E09DF070D8140C84E1E9AAB8F1340832A9CB13130A5F1376A908D57309505ECF2A0DF179C4E9D30F5B239B87E3823
310
7A79C6F31DE1A8A5AEC08474B03C7837EAE4938639B44E5932B833D2C6B6B279CDC613877FA26EE21F4A2A4C63EC7F29A2F301D1F9F7A0E37D145F504B0304140006080800CC70623B9C113CC27E0000009D0000000B0000006662782F636E782E786D6C4DCCDF0A83201C86E15B91DFB94BFB330DD428C8FB886521330DA7
310
6397BF1A1DECE883878F57749FCDA1B7892F1BBC047A23808C7F84D9FA55424E0BE6803A256208E9EF06C84F9B91703228B1C690F78B66B34CD9A5439DF5CF0BFBF65E35BCA1B8D6A5C6F540381E886698B5741C695F9503EBA150A2F8958E3DC3EA0B504B0304140006080800CC70623B7DF2F77C2A010000120200003100
310
00006662782F41393633353835312D344632462D344230382D423046372D3739314545314133324237412F636F72652E786D6C8D51DB8EC22014FC15C2939B0D2DB4B45643319AE817EC0F6041255A68B86CFCFC856D4D76DF7CE190393373060EDB3DC707F856CE6B6B7A480A0C81328395DA5C7B18C3057510EC3873D686
310
3F34088C18550F330C39BB3A1BA7051AAC09CA84841A2BD5020AEF55806078A44B0FFD7053A328440C89E1EFC52486BBB8AA8214A99D789CF9E05200300FC927E4FB4D5B375D43103D5527440FB843077C5AA3F5861C8F645F5787F59E95B390B318B55CE45AA638FAA2957BD7248B390B7A7CC51F9C124149C82B8C378810
310
84AB2F42B7B8DD56F413775B8C5999E9FF4471926F8AA236A1AE96B8B3CC434E5839373893369E1FAF30EA395917409EB7F26AF8801C171837A4A6AC9C89E9F9C9B1A58BA30FD6A5EF5DDDCF894B9AD9B6A59C957943A9FCAE2FD5BC4DFE03504B0304140006080800CC70623BAD7543B64E01000033030000300000006662
310
782F41393633353835312D344632462D344230382D423046372D3739314545314133324237412F636E782E786D6CD593CD6EC32010845F0571AD6CE3D48AD20813A9873E410FBD12D82434182C7EAAE6EDBB2424CD25871E7B41D6EC30B3FA84F9E67BB2E40B4234DE8DB46F1925E094D7C6ED479AD3AE5951B2113C789FEE
310
6C943839C1488B4C05DF079FE72A69D8C96C13AAD6B8631503449F83828872B949AC57D26200B826A308D316B4064D6E46FCDA41C05550DC9E483A00797BFD207EFB092A45DE9514C1BBD22178396BD39D891265658C238DEA00936C654E5E433CB65A26D9F6EDB5EBC14EBF49A45CB856E66048291F6939A9A81BB5C89177
310
38143CA680F4AA299D66A042CEB3354A2684DC9D8D178FE0D9B8B41CAAD720F880EE7EF93C0C18769E099ECC04D5A102C8049A8A05632F4DDF376CF1DE0F6BB65C2F8627B65A33C6BB62177CEBBDAD973006829F89F22E814B54F4BC2BE347F8AA8F681390B50FA73F804400B5F542E796F19FF974E7F78DB802FE05E20750
310
4B0304140006080800CC70623BE75B7789680500003C100000340000006662782F41393633353835312D344632462D344230382D423046372D3739314545314133324237412F6F626A656374732E786D6CAD575B8F9B3818FD2B887D06C22499CB8AA1CA655245D5B455A356FB305264C061D8018C6C3393D95FBFC7600890
310
A4CD5EF210B0B1BFEBF98E3F7B1FF6596ABC522E1296DF9BAE3D320D9A872C4AF2F8DE2CE5CEBA358D0FBEC719939D65A691938CDE9B6ADAF4BD98B3B2D05311DD91329583D9D5FC0F438434A7A611A644887B5384CF34233629258BA878B12322891DEFF6B66BD70BFB62634E8AE781D082709A4B588AF91C528CDA28B73F
310
1C998EEF39EABBEFA97FBD6A7C7E9553F9D3D79FE442923C3C523610337627CB87ABE99D359D4CC6D6E4FACAB5E6ABF9D2726FC6A3C5F56271377BB88362213924694B38DD99FE47C48627A1E7D49F5A8BB5E1A74C0A599ED3B0F21F1E56366B89112D681E218F0915D0D6F17AD41FBA2A369DCF6335D62ABBD39779D5DDD1
310
11D4D8DE3CBB96B2E04FB8202E41051754A1AA8E8F76B4C6DFE810B580B1547F4B84911149794252234D024EF8BBE963A95AE27B3D310A9D5C215C7960FAEE415ED75694C6AFB17BCACA5D99A60A9AA65F217B0BFC53292ACB92BF283FAD0D3621576592CB5BED907C2FA8E9DF794E35E97BEA31BED21FEB401ABB94C44839
310
DCACBF0E1C5DA8DA5B2F4DFFD32AD86F543D9E565E7056502E157C00AD2671CD534549AB752FCA9CDA00677A313F04E51B22FF19E57B300579E3C97EB29F682D92935CEC18CF901B7B54FD8C51F362B56FC72FE0B3C1EAE335EDCCBF5AEC39ADB17DC238973F804BA5E6F6BFE7AF1FB32E523BE9F3BD571418E3631DCA4D48
310
5250CF639223210A9446CA30052EDF057BD35F8329C1ECD84552BF0DC8D18BE7BCE23BFE6BD960AB4A7DE79923A103BEBD80F911CBAA2C60DB19B01CF164A5583B772EE6D3FFA56666CBCDA74DC97724A48F9A58967497E489C4D979006FD7A05E227A1EBDD0F737C623387A9C844D3709995625106D157315F8B8392CD4E0
310
A0B9A720C4BE9829CEF37EA1E13111214D53925356365ADA634861B52519DD27A00AEB808EAF0628E6F435519D446F45CF2C9CF5214F0A15B2F6D06B79DA3EE3CBF7F56780D2F4E7EF73A0F5E5B02A38D07DC852C6B7C1FBB6664213E0C39E3EBA7FF4E1AD23EA2829407C85E586727488B751B2DB9502BC7B228A3FD68B6E
310
A65A22397E690AA8D158D7E404EC8CDA235CC3B7D1898680131CEC2CDF2638C65196279577750F15884AEE19F94199155B92B13297978469D4F8D358DF0AEF7631E28DC8F0D9F437D5D39A83B2231A1D52D543813A824EF8D44BCFF2FA6A31BD1E8DAD87F1CCB526B3879935BF59CDADD5C37479BB1CDD4CA7B3556B516589
310
EF352754B706114D9C885EC9131DE6EFEB43D99AFE2391C2F958179413D7CFEF6B1B6DB1E7600F00DE6E5C67454A339A4BA2E0FBA85ED26F045D454F463DBFCE484C2F90F2E5E3666003662ED8F755951A7D1BECD5B30B550B2785C8E7320B7292A4838DDA71BBC863ED7613CAF659337A3354231D4FF4A182A54904C2898C
310
98B28C4AD0CE056CCF332A80986E571EE9DBC305BB5FEB7E509220A58D25CF042D712A806AC0AD0C657FDEF80D2D9CEAA2EE4D1C76F60BFE74219A06527D6F82DF6412526107381E55E353090704D085B52408A8913C4ED159D79BDA71BB4BC506F4831350EB6F975CD22D69BF7AC49B91A2C0A9DDA3D5CA36AD20FC478E37
310
E61844E2352865EBCB61A275A65283CAAA9DD27703B4102F5AF51EF5F573B75CBB5AD38BC845F7A49F82A0966A49C2E3EA5EA0ECD326CD965F1DB402C6FA8B51A4658C5C5E2EC9E214602E55810345408596591009A82E7E7FFACA19EEA299B14A0081A705CB3296EBC14CDF658DCD336EA6D1136881AAEB87B81AB9EE53D5
310
F5EB8BC8362082DA24122F98680A4E7930C01A0079749CEA14382A0783E5EBA5A10F8C098456A03D6A4AEB6BB881E2513747552A5DB22C7EDAF83BD5528081A365F7FF06504B0304140006080000CC70623B000000000000000000000000350000006662782F41393633353835312D344632462D344230382D423046372D37
310
39314545314133324237412F76657274696365732E62696E504B0304140006080800CC70623BF270F1330600000004000000360000006662782F41393633353835312D344632462D344230382D423046372D3739314545314133324237412F747269616E676C65732E62696E636660600000504B0304140006080000CC7062
310
3B000000000000000000000000370000006662782F41393633353835312D344632462D344230382D423046372D3739314545314133324237412F617474726962757465732E62696E504B0304140006080800CC70623B08DA0BD19000000041010000360000006662782F41393633353835312D344632462D344230382D4230
310
46372D3739314545314133324237412F6469726563746F72792E786D6C858F410AC3201045AF22B36F53E9A60B35CBEEBAE80D244E44489C6234F4F835464A48035D0DF398FF9F8AF63D0E6CC63039F212F8F9020C7D47C6792B21C5FE7403D62A1188E2E60C98D7234A5830286103A55745067B9D86B8A3CF9C7F90C11DE6
310
07FB144396D7B6A82D282E9A152AD114D5EF2CB866EEE831B8EEA07A7BB5A8D7D61A2BAAEB7FD5F70921FF497D00504B0304140006080800CC70623BEDD1DC58FD000000A00100003B0000006662782F41393633353835312D344632462D344230382D423046372D3739314545314133324237412F7265736F75726365732F
310
636F72652E786D6C8D504B6E833010BD0A9A6D65B00922041947112427E8052C33A156828DFCA97AFC9A40A576D7CDCCE87D344F8F9FBFE667F689CE6B6B3A6039850C8DB2A336530731DC4903D95970676DF82583CCC8193B5861107C72362E3BA4AC096842428D1D7107A5F7182053CF7474E0D507CE32973124857FE48B
310
540F3961CEF244279DE03EB81420DB9EAC1384436FA353E879B1B182C7A8C75DA3C7F453DF353A1075D537A7BA6464B8F535A99AE14A9A2BBD90E350DD183B5CFABE3AF262350B1EF4FC9351399401471025A527C218A1E53BAB5A5AB765F5469B96525EACF23FA6B88CFF34456DC2A1DCE36E360F82A5202F42F062ED2BAD
310
579969AFDD8A6F504B010214000A0000080000CC70623B3DEE336E79000000790000001B00000000000000000000000000000000006175746F6465736B2D64657369676E2D7061636B6167652E786D6C504B01021400140006080800CC70623BD486FD9CA0000000F40000001300000000000000000000000000B20000005B
310
436F6E74656E745F54797065735D2E786D6C504B01021400140006080800CC70623B853B8169EB0000007C010000080000000000000000000000000083010000636F72652E786D6C504B01021400140006080800CC70623B55019EA25F0000007C000000070000000000000000000000000094020000636E782E786D6C504B
310
01021400140006080800CC70623BDBABAAF470010000D40300000C00000000000000000000000000180300006662782F636F72652E786D6C504B01021400140006080800CC70623B9C113CC27E0000009D0000000B00000000000000000000000000B20400006662782F636E782E786D6C504B01021400140006080800CC70
310
623B7DF2F77C2A010000120200003100000000000000000000000000590500006662782F41393633353835312D344632462D344230382D423046372D3739314545314133324237412F636F72652E786D6C504B01021400140006080800CC70623BAD7543B64E010000330300003000000000000000000000000000D2060000
310
6662782F41393633353835312D344632462D344230382D423046372D3739314545314133324237412F636E782E786D6C504B01021400140006080800CC70623BE75B7789680500003C10000034000000000000000000000000006E0800006662782F41393633353835312D344632462D344230382D423046372D3739314545
310
314133324237412F6F626A656374732E786D6C504B01021400140006080000CC70623B0000000000000000000000003500000000000000000000000000280E00006662782F41393633353835312D344632462D344230382D423046372D3739314545314133324237412F76657274696365732E62696E504B01021400140006
310
080800CC70623BF270F133060000000400000036000000000000000000000000007B0E00006662782F41393633353835312D344632462D344230382D423046372D3739314545314133324237412F747269616E676C65732E62696E504B01021400140006080000CC70623B0000000000000000000000003700000000000000
310
000000000000D50E00006662782F41393633353835312D344632462D344230382D423046372D3739314545314133324237412F617474726962757465732E62696E504B01021400140006080800CC70623B08DA0BD1900000004101000036000000000000000000000000002A0F00006662782F41393633353835312D344632
310
462D344230382D423046372D3739314545314133324237412F6469726563746F72792E786D6C504B01021400140006080800CC70623BEDD1DC58FD000000A00100003B000000000000000000000000000E1000006662782F41393633353835312D344632462D344230382D423046372D3739314545314133324237412F7265
310
736F75726365732F636F72652E786D6C504B0506000000000E000E0080040000641100000000
  0
XRECORD
  5
3A
102
{ACAD_REACTORS
330
39
102
}
330
39
100
AcDbXrecord
280
     1
 70
     1
 90
429727718
  1
30362254-06B7-45E0-A893-8CFA70E3D6BC
310
504B03040A0000080000CC70623B3DEE336E79000000790000001B0000006175746F6465736B2D64657369676E2D7061636B6167652E786D6C3C3F786D6C2076657273696F6E3D22312E302220656E636F64696E673D227574662D3822203F3E3C666F726D6174733E3C666F726D61743E687474703A2F2F736368656D612E
310
6175746F6465736B2E636F6D2F64657369676E2D7061636B6167652F323030393C2F666F726D61743E3C2F666F726D6174733E504B0304140006080800CC70623BD486FD9CA0000000F4000000130000005B436F6E74656E745F54797065735D2E786D6C7D8EC10E82300C865F65E91D8A1E8C310C0EEA1BF002731658846E
310
D98AC1B77784ABF1D8FE5FBFBF75BBCE937A534CCEB38643598122B6FEE978D0B0485F9C41B54DDD7D022595594E1A469170414C76A4D9A4D207E29CF43ECE46F218070CC6BECC4078ACAA135ACF422C856C0E68EA1BF5669944DDD7BCDE7B1F8E415D77AECB980613C2E4AC91FC167A2B244592486606FC29C8FD7F045B9A
310
EF7053A7E60B504B0304140006080800CC70623B1EC5D7A3EB0000007C01000008000000636F72652E786D6C8D90416EC3201045AF82665B6103C6756C6122AB4D4ED00B204C5C94182C03558F5F9C3852BBEB6A467FFE9B197D71FC9E6FE8CBACC17AD7032D0820E3B41FAD9B7A48F1820F808E52ACDEC75F36404ECDA687
310
4D0629A6D5A76597B477D1B89855E747B38B2A041301E95B6E7A08FAD3CCAA50296647B8168BD2573599823EBB0CA76447F43862C7BCCF5EAC59410E4DDD9C7973C2755553CCCFA4C603E3040F1565ED3B1FDE4E432BCA0D9622DAF9795FAF464533826484B498524CD807E51D79ED187F21878E10516EF63F505AC67F42C9
310
BA58B1FDDD071640D2FCC87D2045B96591CB3DA85CB7DCE40F504B0304140006080800CC70623B55019EA25F0000007C00000007000000636E782E786D6C4DCB3B0E80201045D1AD90E915ED2CF8AC45050C11660C8261F98AB1B07AC9C97D42D718D865D3E909258CFD00CCE24AC6E326A164D74DC0B4128928FF32603847
310
2BA13128B1252AC747C6BAB984FC68F0B87FE8960A5C09FE86CFB69FBA01504B0304140006080800CC70623B8C9102E971010000D40300000C0000006662782F636F72652E786D6CC5535B6E833010BC8AE5DF0A6C08340F1947A84D4ED00B38C6A128602363A31CBFCB234A53A551FA553EC09AD9F5CE8C31DB9E9B1AF5CA
310
7695D1198E428A91D2D214952E33ECDD315861B4E5CC1AE3BE9561A445A3323CC098B3D21ADFCE9034DA29ED00D5A6503328BA4E398C640D8B0C77F253352214DE4145770A5B214FA2546114020D759C75CE8200340D19DE981F0F6746269C33EFAB6266AB02A655C74A59CCF365BADC27CB5D902ED22848F6340DF238A141
310
BE88E2F57B92BFEDF23523433367AE6A2EEAA455C2A902F398D2751045018D3FA264435F3771F242571B4A1919CA6F9A7C5B3CD9E42BED16F12C776AEB308F40C848FC700B1139D4891EF410CEC810227CC6846F8386402064270EF5C5C709A05E49676C024C61FC95EA45ED154CA5211D1FF4FB8291A913A68E9B83EBBB33
310
E2A7673CDE118E5AE8124C0807CB8377834E366998436B950D7A7746DAD846D4CFD978E0F04FD455FC5D49D2D4C6FE9722321F10997F0F32DC47FE05504B0304140006080800CC70623BFFEA85907E0000009D0000000B0000006662782F636E782E786D6C4DCCD10A83201886E15B91FFDC95D95A811AB6F23E625948A6C3
310
E9D8E5AF46073BFAE0E1E365ED67B3E8ADC3CB78C7815C7240DA3DFC64DCC221C519D7805AC182F7F1EF06C88D9BE6703008B6049F9E274D7A1E938DBB5AE3D6131B2589BA0D3D965551E0B2EA732C9B9A624AAEB41E3A557677029960D9AFB4EF11165F504B0304140006080800CC70623B4FEEA4082C0100001202000031
310
0000006662782F39464131463745442D413632322D343644302D413938332D3331353338454246344243312F636F72652E786D6C8D515B6EC32010BC0AE2AB55850DD871ED0813254D72825EC00192A2C460F1A872FC42ED48ED5F7E00CDCECCCEB26C731F6FE05B39AFADE921293004CA082BB5B9F43086336A21D870E6AC
310
0D7F68109861543DCC30E4ECE26C9C164858139409093556AA051CBC570102714B8F1E7AF1A5C6A11862480C7F2DA6415C878B2A4891CA89C7990F2E050073937C42DE1DB7E4F87ED8A36D4329AA9B3D46DBAEAD504556557BD81DEBDD0761E52CE42C462D17B996298E3E6BE59E35C962CE821E1FF18553435012728A7187
310
0841987E927A8D9B35ADDF70BBC6989599FE4F1427F9A4286A132ABAC49D651EF234CD5CE04CDA78BA3DC2A8FB645D00B9DF8B57E215725C60BCA2A463E54C4CE327C7A65E1C7DB02E7DEFCBF594B864C5CA6CDBD49C957943E9FA5D5FBAF336F90F504B0304140006080800CC70623BAD7543B64E01000033030000300000
310
006662782F39464131463745442D413632322D343644302D413938332D3331353338454246344243312F636E782E786D6CD593CD6EC32010845F0571AD6CE3D48AD20813A9873E410FBD12D82434182C7EAAE6EDBB2424CD25871E7B41D6EC30B3FA84F9E67BB2E40B4234DE8DB46F1925E094D7C6ED479AD3AE5951B2113C
310
789FEE6C943839C1488B4C05DF079FE72A69D8C96C13AAD6B8631503449F83828872B949AC57D26200B826A308D316B4064D6E46FCDA41C05550DC9E483A00797BFD207EFB092A45DE9514C1BBD22178396BD39D891265658C238DEA00936C654E5E433CB65A26D9F6EDB5EBC14EBF49A45CB856E66048291F6939A9A81BB5
310
C8917738143CA680F4AA299D66A042CEB3354A2684DC9D8D178FE0D9B8B41CAAD720F880EE7EF93C0C18769E099ECC04D5A102C8049A8A05632F4DDF376CF1DE0F6BB65C2F8627B65A33C6BB62177CEBBDAD973006829F89F22E814B54F4BC2BE347F8AA8F681390B50FA73F804400B5F542E796F19FF974E7F78DB802FE05
310
E207504B0304140006080800CC70623B16AB87BA640500003C100000340000006662782F39464131463745442D413632322D343644302D413938332D3331353338454246344243312F6F626A656374732E786D6CAD575B6FA33818FD2B887DE6924B3BED8A326A92B68A663B534DD4D13E548A0C38942D60649B369D5FBFC7
310
600890A493BDE42160637FD7F31D7FF63E6FB3D478A55C242CBF3247B66B1A340F5994E4F19559CA8D75611A9F7D8F33263BCB4C232719BD32D5B4E97B316765A1A722BA21652A07B3B7B33F0D11D29C9A46981221AE4C113ED38CD8A4942CA2E2C58E882476BCD9DA23BB5ED8171B73523C0F841684D35CC252CCE79062D4
310
468DFA43D7747CCF51DF7D4FFDEB5593E3AB9CCA9FBEFE241792E4E19EB28198C968BAB8199F5D5A67D3E9C49A9E8F47D6EC76B6B0469F26EEFC7C3EBFBCBEB98462213924694B38DD98FE1D62C393D073EA4FADC5DAF04326852CCF6958F90F0F2B9BB5C48816348F90C7840A68EB78EDF68723159BCEE7891A6B95DDE9D3
310
BCEAEEE8086A6C6F9E5D4B59F0175C10A7A0820BAA5055C7473B5AE3CFDD452D602CD5DF12616444529E90D448938013FE6EFA58AA96F85E4F8C42275708571E98FE6827AF6B2B4AE3D7D83D64E5A64C53054DD3AF90BD06FEA9149565C94FCA0F6B834DC85599E4F2423B24DF0B6AFA979E534DFA9E7A4CC6FA631D486393
310
921829879BF5D781A373557BCB85E97FB90DB62B558F8795179C15944B051F40AB495CF35451D26A4727654E6D8033BD98EF82F21D91FF8AF2DD9982BCF1643BDD4EB516C9492E368C67C88DED563FC36D5EACF66DFF057C3658BDBFA69DF9578B3DA735B64F18C7F20770A9D45CFCF7FCF563D6456A277DBEF78A02637CA2
310
43B90A490AEAB94F72244481D24819A6C0E59B606BFA4B3025981DBB48EAB701D97BF19C577CC77F2D1B6C55A9EF3C732474C0B727303F625995056C3B02963D9EAC146BE78EC5FCEC7FA999EBC5EACBAAE41B12D27B4D2C0BBA49F244E2ECDC81B76B502F113D8F5EE8FB1BE3111CDD4FC2AA9B844CAB1288B68AB90A7CDC
310
1C166AB0D3DC5310625FCC14E779BFD0709F8890A629C9292B1B2DED31A4B0DA928CEE135085754027E3018A397D4D5427D15BD1330B677DC8934285AC3DF45A9EB68FF8F2B8FC0A509AFEECFD0FF2DE25CC6047F7214B195F07EFEB9A094D800F7BFAE8FED187B78EA8A3A400F115961BCAD1215E47C966530AF0EE8128FE
310
58CEBB996A8964FFA529A046635D9353B0336A8F700DDF46271A024E70B0B37C9DE01847591E54DED53D54202AB947E4076556AC49C6CA5C9E1226B7F1A7B1BE15DEED62C41B91E1B3E9AFAAA735036547343A925075041DF0A9979E893B391F8FCFA6967B3EFB644DCF6E5CEBFAE272625DCC6FAF3FB93793C5F90CE1EF57
310
407342756B10D1C489E8953CD1617E5CEECAD6F4EF8914CE5D5D504E5C3F1F9736DA62CFC11E00BCDDB8CC8A9466349744C1F75EBDA4DF09BA8A9E8C7A7E9991989E20E5DBDD6A6003664ED8F7A04A8DBE0DF6EAD9B9AA858342E47399053949D2C146EDB85DE4B176BB0965FBAC19BD19AA918E27FA50C1D22402E144464C
310
59462568E704B6E71915404CB72B8FF4EDE184DDAF753F284990D2C6926782963815403548A70C657FDEF80D2D9CEAA2AE4C1C76F60BFE74219A06527D6582DF6412526107381E55E353090704D085B52408D0933C4ED159D79BDA71BB4BC506F4831350EB6F979CD22D69BF7AC49B91A2C0A9DDA3D5CA36AD20FC478E37E6
310
1844E2352865EBCB6EA275A652E3836BE04EFB400BF1A2556F515F1FBB35B2AB35BD889C744FFA1004B5544B121E57F70215746DD2F5E2C1412B602CBF19455AC6C8E5E9922C4E01E65215385004546899059180EAFCF7A707CE7017CD8CDB0410789AB32C63B91E5CEBBBACB17AC6CD347A022D5075FD106377347AAABA7E
310
7D11590744509B44E205134DC1290F06580320F78E537D3D73540E06CB970B431F185308AD40BBD794D6D77003C5A36E8EAA54BA64597CD8F83BD552A080A365F7FF06504B0304140006080000CC70623B000000000000000000000000350000006662782F39464131463745442D413632322D343644302D413938332D3331
310
353338454246344243312F76657274696365732E62696E504B0304140006080800CC70623BF270F1330600000004000000360000006662782F39464131463745442D413632322D343644302D413938332D3331353338454246344243312F747269616E676C65732E62696E636660600000504B0304140006080000CC70623B
310
000000000000000000000000370000006662782F39464131463745442D413632322D343644302D413938332D3331353338454246344243312F617474726962757465732E62696E504B0304140006080800CC70623B08DA0BD19000000041010000360000006662782F39464131463745442D413632322D343644302D413938
310
332D3331353338454246344243312F6469726563746F72792E786D6C858F410AC3201045AF22B36F53E9A60B35CBEEBAE80D244E44489C6234F4F835464A48035D0DF398FF9F8AF63D0E6CC63039F212F8F9020C7D47C6792B21C5FE7403D62A1188E2E60C98D7234A5830286103A55745067B9D86B8A3CF9C7F90C11DE607
310
FB144396D7B6A82D282E9A152AD114D5EF2CB866EEE831B8EEA07A7BB5A8D7D61A2BAAEB7FD5F70921FF497D00504B0304140006080800CC70623B0D6EF93BFE000000A00100003B0000006662782F39464131463745442D413632322D343644302D413938332D3331353338454246344243312F7265736F75726365732F63
310
6F72652E786D6C8D50596E833010BD0A9ADFCA60B334011947A8694ED00B586642AC041B79A97AFC9A40A5F6AF3F33A3B7689E1E3F7DCD8FEC139DD7D6F4C0720A191A65476DA61E62B892236427C19DB5E1970C322367EC618541F0C9D9B8EC90B226A009093576C41D94DE63804C3DD2D18357379C652E63480A7FCF17A9
310
EE72C29CE5894E3AC17D702940B63D59270887DE46A7D0F36263058F518FBB468FE9A7BE6A7420864373B8D4873369AA8691FA421B3294352543C5CAF65C0F6FEF43CB8BD52C78D0F34F46E550061C419494B6843142CB0F5677F4B52BEB177AEC28E5C52AFF638ACBF84F53D42654E51E77B379102C05791282176B5F693D
310
CB4C7BED567C03504B010214000A0000080000CC70623B3DEE336E79000000790000001B00000000000000000000000000000000006175746F6465736B2D64657369676E2D7061636B6167652E786D6C504B01021400140006080800CC70623BD486FD9CA0000000F40000001300000000000000000000000000B20000005B
310
436F6E74656E745F54797065735D2E786D6C504B01021400140006080800CC70623B1EC5D7A3EB0000007C010000080000000000000000000000000083010000636F72652E786D6C504B01021400140006080800CC70623B55019EA25F0000007C000000070000000000000000000000000094020000636E782E786D6C504B
310
01021400140006080800CC70623B8C9102E971010000D40300000C00000000000000000000000000180300006662782F636F72652E786D6C504B01021400140006080800CC70623BFFEA85907E0000009D0000000B00000000000000000000000000B30400006662782F636E782E786D6C504B01021400140006080800CC70
310
623B4FEEA4082C0100001202000031000000000000000000000000005A0500006662782F39464131463745442D413632322D343644302D413938332D3331353338454246344243312F636F72652E786D6C504B01021400140006080800CC70623BAD7543B64E010000330300003000000000000000000000000000D5060000
310
6662782F39464131463745442D413632322D343644302D413938332D3331353338454246344243312F636E782E786D6C504B01021400140006080800CC70623B16AB87BA640500003C1000003400000000000000000000000000710800006662782F39464131463745442D413632322D343644302D413938332D3331353338
310
454246344243312F6F626A656374732E786D6C504B01021400140006080000CC70623B0000000000000000000000003500000000000000000000000000270E00006662782F39464131463745442D413632322D343644302D413938332D3331353338454246344243312F76657274696365732E62696E504B01021400140006
310
080800CC70623BF270F133060000000400000036000000000000000000000000007A0E00006662782F39464131463745442D413632322D343644302D413938332D3331353338454246344243312F747269616E676C65732E62696E504B01021400140006080000CC70623B0000000000000000000000003700000000000000
310
000000000000D40E00006662782F39464131463745442D413632322D343644302D413938332D3331353338454246344243312F617474726962757465732E62696E504B01021400140006080800CC70623B08DA0BD190000000410100003600000000000000000000000000290F00006662782F39464131463745442D413632
310
322D343644302D413938332D3331353338454246344243312F6469726563746F72792E786D6C504B01021400140006080800CC70623B0D6EF93BFE000000A00100003B000000000000000000000000000D1000006662782F39464131463745442D413632322D343644302D413938332D3331353338454246344243312F7265
310
736F75726365732F636F72652E786D6C504B0506000000000E000E0080040000641100000000
  0
XRECORD
  5
D
102
{ACAD_REACTORS
330
C
102
}
330
C
100
AcDbXrecord
280
     1
270
     1
271
     1
  0
XRECORD
  5
E
102
{ACAD_REACTORS
330
C
102
}
330
C
100
AcDbXrecord
280
     1
270
     1
271
     1
  0
XRECORD
  5
F
102
{ACAD_REACTORS
330
C
102
}
330
C
100
AcDbXrecord
280
     1
 70
     0
 90
1673772943
  1
ECE7A1D2-D628-4531-984C-D00F80459256
310
504B03040A0000080000CC70623B3DEE336E79000000790000001B0000006175746F6465736B2D64657369676E2D7061636B6167652E786D6C3C3F786D6C2076657273696F6E3D22312E302220656E636F64696E673D227574662D3822203F3E3C666F726D6174733E3C666F726D61743E687474703A2F2F736368656D612E
310
6175746F6465736B2E636F6D2F64657369676E2D7061636B6167652F323030393C2F666F726D61743E3C2F666F726D6174733E504B0304140006080800CC70623BD486FD9CA0000000F4000000130000005B436F6E74656E745F54797065735D2E786D6C7D8EC10E82300C865F65E91D8A1E8C310C0EEA1BF002731658846E
310
D98AC1B77784ABF1D8FE5FBFBF75BBCE937A534CCEB38643598122B6FEE978D0B0485F9C41B54DDD7D022595594E1A469170414C76A4D9A4D207E29CF43ECE46F218070CC6BECC4078ACAA135ACF422C856C0E68EA1BF5669944DDD7BCDE7B1F8E415D77AECB980613C2E4AC91FC167A2B244592486606FC29C8FD7F045B9A
310
EF7053A7E60B504B0304140006080800CC70623BD9DDAED0EC0000007C01000008000000636F72652E786D6C8D90416EC3201045AF82665B61836D9CD8C2444DD39CA01740405C94182C03558F5F9C3852BBEB6A467FFE9B197D7EF89E6EE8CB2CC17A37002D0820E394D7D68D03A478C17B4007C117EFE32F1B20272733C0
310
2A83E0E3E2D3BC49CABB685CCCAAF3DA6CA20CC14440EA969B0182FA34932C648AD911AEC52CD5558EA6A0CF2EC329598D1E47ACCEFBECC59A050463A7EA5833865FEBDD0E37353BE3EE8DBDE3F6786A48D375FBF6CC78B9C282473B3DEFABC5C86834888A900E538A49F5419B9EB47DD5BC907D4F082F57FB1F28CDFA9F50
310
B22ED6D5F6EE030B20687EE43E10BC5CB3C8E51E54AE6B6EE207504B0304140006080800CC70623B55019EA25F0000007C00000007000000636E782E786D6C4DCB3B0E80201045D1AD90E915ED2CF8AC45050C11660C8261F98AB1B07AC9C97D42D718D865D3E909258CFD00CCE24AC6E326A164D74DC0B4128928FF326038
310
472BA13128B1252AC747C6BAB984FC68F0B87FE8960A5C09FE86CFB69FBA01504B0304140006080800CC70623BA24EB22D72010000D40300000C0000006662782F636F72652E786D6CC5535B6E833010BC8AE5DF0A6C5E49888CA3A6694ED00B38E05014B091B1518EDFE511A5A9D228FD2A1F60CDEC7A67C6986DCE4D8D7A
310
69BA4AAB0C073EC548AA5C17952A33ECECD15B61B4E1CC686DBF9561A44423333CC098B3D268D7CE50AE9595CA02AA74216750749DB418E5352C32DCE59FB211BE70162ABA93DF8AFC244AE9073ED050C759670D0840D390E18DF9F1706664C23973AE2A66B62A605A75ACA4C13C4976E1364A12EF355A2EBD384AF65EFA96
310
BC7B8BED2EA6719AAE16FB8491A199335B351775B991C2CA02F390D2D40B028F861F41BCA68B7518BFD0D59A524686F29B26D7164F36B94AD9289CE54E6D1DE6010819891F6E21228B3AD1831EC219194284CF98F06DD01008846CC5A1BEF83801D4CBDC6A1303536877A57A513B0953A94FC707FDBE6064EA84A9E3E6E0FA
310
EE8CF0E9198F7784A316AA0413C2C2F2E0ECA0934D1AE6D05A69BCDE9E91D2A611F573361E38FC1375157F5752AE6B6DFE4B11990F88CCBF0719EE23FF02504B0304140006080800CC70623B408A7D3B7C0000009D0000000B0000006662782F636E782E786D6C4DCCD10A83201886E15B91FFDC552A92A0064DBC8F581632
310
D3703A76F9ABD1C18E3E78F878E5F0D9027ABBFCF2292AE86E2D20171F69F6715550CB827B40839639A5F2770314A7CD293819B45C73AAFB45B35BA61ACAA1C1C7E7855C58C15BC331339661262CC762340413D68D77DA5B42298546CBE6573AF60CEB2F504B0304140006080800CC70623B449FB9BD290100001202000031
310
0000006662782F36394639363044362D344446342D343946362D394244322D3234314243333846323333332F636F72652E786D6C8D515B6EC32010BC0AE22B55850D98B871848994463E412FE002495162B07854397EA176A4F62F3F2C9A9D991D587EB84F37F0AD7D30CEF6905418026DA553C65E7A98E219ED203808EE9D
310
8B7F6810D871D23D2C3014FCE25D9A57483A1BB58D19B54EE9151C43D0110279CB971E06F9A5A7B11A53CC8C70ADE6515EC78BAE4895DB992778883E0700CB907242D17643D7E2538BD869608875438BBAE38922CAC8F1BDD90DB4691A5E2F42C153326A951B95E398B3D1FE599322163C9AE9115F7A3D46ADA0A018778810
310
84E907617BDCEE297BC5BB3DC6BC2EF47FA234AB2745C9D8D8D035EE220B50105E2F0DC1954B9FB747187D9F9D8FA0CCDB042D5FA0C015C65B42DF78BD10F3F3B363CB56C7109DCFDFBBB97E662ED92EB62D13BC2E1BCAE5777DB9966D8A1F504B0304140006080800CC70623BAD7543B64E01000033030000300000006662
310
782F36394639363044362D344446342D343946362D394244322D3234314243333846323333332F636E782E786D6CD593CD6EC32010845F0571AD6CE3D48AD20813A9873E410FBD12D82434182C7EAAE6EDBB2424CD25871E7B41D6EC30B3FA84F9E67BB2E40B4234DE8DB46F1925E094D7C6ED479AD3AE5951B2113C789FEE
310
6C943839C1488B4C05DF079FE72A69D8C96C13AAD6B8631503449F83828872B949AC57D26200B826A308D316B4064D6E46FCDA41C05550DC9E483A00797BFD207EFB092A45DE9514C1BBD22178396BD39D891265658C238DEA00936C654E5E433CB65A26D9F6EDB5EBC14EBF49A45CB856E66048291F6939A9A81BB5C89177
310
38143CA680F4AA299D66A042CEB3354A2684DC9D8D178FE0D9B8B41CAAD720F880EE7EF93C0C18769E099ECC04D5A102C8049A8A05632F4DDF376CF1DE0F6BB65C2F8627B65A33C6BB62177CEBBDAD973006829F89F22E814B54F4BC2BE347F8AA8F681390B50FA73F804400B5F542E796F19FF974E7F78DB802FE05E20750
310
4B0304140006080800CC70623B8D05915C650500003B100000340000006662782F36394639363044362D344446342D343946362D394244322D3234314243333846323333332F6F626A656374732E786D6CAD575B6FA33814FE2B887D06429276DA1565D4266D158D3A339A6846FB502932E050B66023DB74D2FDF5FB190C01
310
9276B2973C046C8ECFF53B17071F77456EBD502133CEAE6CDF9DD81665314F32965ED995DA3A17B6F5310C04E7AA47665B8C14F4CAD6DB7618A48257A5D94AE89654B91AEDDEDDFC61C998326A5B714EA4BCB265FC440BE2924AF184CA6737218AB8E976E7FA6E4338649B0A523E8D98964450A6A029F619B8588D52FE7039
310
B1BD30F0F4F730D0FF866AF6369557DB33949F31A9088B0F848DD8CCFCF9F2767A76E99CCDE733677E3EF59D9BBB9BA5E37F984D16E78BC5E5F5ED25044B25C0C96822E8D60EEFE11B91C581D77CEA34368A1F5329E68CD1B8B61F16D63A1B8E092D294B10C78C4A48EB593D192E7DED9BDEE7995E1B91FDEDD3ACEA9FE831
310
6A756F9F7D4D79F4274C90A7A04248AA51D5F8C718DAE06FB2F75AC4796EBE65D22A88A22223B995679120E2D50E41AA49C260C046A35368846B0BECD0DFF3EBEB8AD4F835768F69B9ADF25C43D30E6B646F807FAA64AD59F61715C7A54127C4AACA98BA3006A9D792DAE165E0D59B61A01FB3A9F9D838D2DAE62445C86166
310
F37564E842E7DE6A69879FEEA2DD5AE7E371E1A5E025154AC307D06A03D73EB5978C58FFA4C8E9033066E0F3BD53BEC1F39F91BE7B55103791EDE6BBB991A2046172CB4581D8B893FA674DDA17A77B3B7C413D1B511FD2743BFF8A38F03A658705E3ADF8015C3A3417FF3D7E439FF591DA0B5F18BC20C1B8981957AE6392A3
310
F43C640C01D1A0B4728E2DD4F26DB4B3C3152A252A3B4E913CEC1C72F012782FF88EFF8637AA552DBEF76408E8A8DE9E50F9E1CB3A2DA0DB1B6039A893B56063DC5B3E3FFB5F72E67AB9FEB4AEC496C4F4C1149625DD662C53E89D7BF0F6151A046260D1337DFDC94502430F83B0EE07A130A224BCAD7DAE1D9FB6CD422FF6
310
920702629C4BB9AE79C12F243C6432A6794E18E5552BA56B431AAB5D91317302B2B071E86C3A42B1A02F999E24061403B5D0EB639195DA655DD3EBEAB4FB862DDF579F014AD0E73C22F99E28DA57FB98E75C6CA2D74D53086D600F4786E0FE3144B771A8A7B900F03594DB8A633CBC49B2EDB69228BB479CF863B5E807AAAB
310
23872F6DFEB4129B949CA33823F58830E86D65621E10047D9DB34D862E8EAC3C2ABC2F7B2C40D67CDFE01F5545B92105AF983AC54D93D69E56FB8E797F88913F898A9FEC705D3F9D1B54EC8426FB500D40A03BD0119B06E1B95DDC7EB8F6975367793EBD70E66733DFB9BC982F9CE564727731999F5D4ECFCE3B8D6A4DC2A0
310
6D50FD148437D110834A64C6CDDF57FBACB5C307A2A477DFE4939736CFEF2B175371E0E10CF0DD1D5C15654E0BCA14D1E87DD02FF93782A162C0A3D95F1524A52770F972BF1EE9809D13CE7DD599467F8ECE9ADD85CE85A34CD45355448C64F9E8A031DC2D596ACC6E5DD93D9B82DE2EF5CAF81363A8E47996A0DE24564A79
310
4115AACE09C55E14540231FDA13C319787134EBF34E3A022514E5B4D9E0826E25C02D5805B15ABE1BEF51B26383D445DD9E875EE33FE4C22DA16427D65A3BCA92CA6D28DD01DF5DC53330704308475351050232CCD31583787BA75774AFB06E5070DD0C8EF484E19968C5D83BA5B90B244D31E54D55A372320FE4786B7EA58
310
44E135AA5467CB7EA333A61683CC6A8C3257034C10CF46F40EF9F5BE59BE5BD30C3C72D235E95D10345C1D45445A5F0BB47E46A5EBE5570F9380B5FA629579952296A773720405982B9DE04011506178964401AA8BDF1FBF0A8EAB6861DD6580C0E38217056766716DAEB2D6FA0917D3E4116581EADB879C4E7CFFB11EFACD
310
3D641311495D92C8676CB409A72D18610D803CE8A626049E8EC1887CB5B44CC39883690DDA8399B4B9855B481E7D71D4A9D22F96E5BB73BF5793020C02137BF837504B0304140006080000CC70623B000000000000000000000000350000006662782F36394639363044362D344446342D343946362D394244322D32343142
310
43333846323333332F76657274696365732E62696E504B0304140006080800CC70623BF270F1330600000004000000360000006662782F36394639363044362D344446342D343946362D394244322D3234314243333846323333332F747269616E676C65732E62696E636660600000504B0304140006080000CC70623B0000
310
00000000000000000000370000006662782F36394639363044362D344446342D343946362D394244322D3234314243333846323333332F617474726962757465732E62696E504B0304140006080800CC70623B08DA0BD19000000041010000360000006662782F36394639363044362D344446342D343946362D394244322D
310
3234314243333846323333332F6469726563746F72792E786D6C858F410AC3201045AF22B36F53E9A60B35CBEEBAE80D244E44489C6234F4F835464A48035D0DF398FF9F8AF63D0E6CC63039F212F8F9020C7D47C6792B21C5FE7403D62A1188E2E60C98D7234A5830286103A55745067B9D86B8A3CF9C7F90C11DE607FB14
310
4396D7B6A82D282E9A152AD114D5EF2CB866EEE831B8EEA07A7BB5A8D7D61A2BAAEB7FD5F70921FF497D00504B0304140006080800CC70623BCA768048FE000000A00100003B0000006662782F36394639363044362D344446342D343946362D394244322D3234314243333846323333332F7265736F75726365732F636F72
310
652E786D6C8D50596E833010BD0A9ADFCA60D600328E9AA639412F609909B1126CE4A5EAF16B0295DABFFECC8CDEA2797AECF8353F924FB44E193D409E5248504B332A3D0D10FC95B4901C39B3C6F85F3248B49871801506CE266BC2B243D2688FDA47549B11775038871E12F988C7004EDE7016A9083E2ADC3D5D84BC8B09
310
D33C8D74D471E6BC8D0192EDC93A815B742658898E651BCB59086ADC356A8C3FD555A1055ED7E7E254D615792D0F075295F585746FF53B694EE78A565DD736979A65AB9933AFE69F8CD2A2F038022F28ED489E135A7CE4554F9BBEA85E68DB53CAB255FEC71496F19FA6A0B42F8B3DEE6673C0F318E4497096AD7DC5F52C33
310
EEB55BFE0D504B010214000A0000080000CC70623B3DEE336E79000000790000001B00000000000000000000000000000000006175746F6465736B2D64657369676E2D7061636B6167652E786D6C504B01021400140006080800CC70623BD486FD9CA0000000F40000001300000000000000000000000000B20000005B436F
310
6E74656E745F54797065735D2E786D6C504B01021400140006080800CC70623BD9DDAED0EC0000007C010000080000000000000000000000000083010000636F72652E786D6C504B01021400140006080800CC70623B55019EA25F0000007C000000070000000000000000000000000095020000636E782E786D6C504B0102
310
1400140006080800CC70623BA24EB22D72010000D40300000C00000000000000000000000000190300006662782F636F72652E786D6C504B01021400140006080800CC70623B408A7D3B7C0000009D0000000B00000000000000000000000000B50400006662782F636E782E786D6C504B01021400140006080800CC70623B
310
449FB9BD290100001202000031000000000000000000000000005A0500006662782F36394639363044362D344446342D343946362D394244322D3234314243333846323333332F636F72652E786D6C504B01021400140006080800CC70623BAD7543B64E010000330300003000000000000000000000000000D20600006662
310
782F36394639363044362D344446342D343946362D394244322D3234314243333846323333332F636E782E786D6C504B01021400140006080800CC70623B8D05915C650500003B10000034000000000000000000000000006E0800006662782F36394639363044362D344446342D343946362D394244322D32343142433338
310
46323333332F6F626A656374732E786D6C504B01021400140006080000CC70623B0000000000000000000000003500000000000000000000000000250E00006662782F36394639363044362D344446342D343946362D394244322D3234314243333846323333332F76657274696365732E62696E504B010214001400060808
310
00CC70623BF270F13306000000040000003600000000000000000000000000780E00006662782F36394639363044362D344446342D343946362D394244322D3234314243333846323333332F747269616E676C65732E62696E504B01021400140006080000CC70623B00000000000000000000000037000000000000000000
310
00000000D20E00006662782F36394639363044362D344446342D343946362D394244322D3234314243333846323333332F617474726962757465732E62696E504B01021400140006080800CC70623B08DA0BD190000000410100003600000000000000000000000000270F00006662782F36394639363044362D344446342D
310
343946362D394244322D3234314243333846323333332F6469726563746F72792E786D6C504B01021400140006080800CC70623BCA768048FE000000A00100003B000000000000000000000000000B1000006662782F36394639363044362D344446342D343946362D394244322D3234314243333846323333332F7265736F
310
75726365732F636F72652E786D6C504B0506000000000E000E0080040000621100000000
  0
XRECORD
  5
10
102
{ACAD_REACTORS
330
C
102
}
330
C
100
AcDbXrecord
280
     1
270
     1
271
     1
  0
XRECORD
  5
11
102
{ACAD_REACTORS
330
C
102
}
330
C
100
AcDbXrecord
280
     1
270
     1
271
     1
  0
CELLSTYLEMAP
  5
165
102
{ACAD_REACTORS
330
44
102
}
330
44
100
AcDbCellStyleMap
 90
        3
300
CELLSTYLE
  1
TABLEFORMAT_BEGIN
 90
        5
170
     1
 91
        0
 92
    32768
 62
   257
 93
        1
300
CONTENTFORMAT
  1
CONTENTFORMAT_BEGIN
 90
        0
 91
        0
 92
      512
 93
        0
300

 40
0.0
140
1.0
 94
        5
 62
     0
340
21
144
6.0
309
CONTENTFORMAT_END
171
     1
301
MARGIN
  1
CELLMARGIN_BEGIN
 40
1.5
 40
1.5
 40
1.5
 40
1.5
 40
4.5
 40
4.5
309
CELLMARGIN_END
 94
        6
 95
        1
302
GRIDFORMAT
  1
GRIDFORMAT_BEGIN
 90
        0
 91
        1
 62
     0
 92
       -2
340
24
 93
        0
 40
1.125
309
GRIDFORMAT_END
 95
        2
302
GRIDFORMAT
  1
GRIDFORMAT_BEGIN
 90
        0
 91
        1
 62
     0
 92
       -2
340
24
 93
        0
 40
1.125
309
GRIDFORMAT_END
 95
        4
302
GRIDFORMAT
  1
GRIDFORMAT_BEGIN
 90
        0
 91
        1
 62
     0
 92
       -2
340
24
 93
        0
 40
1.125
309
GRIDFORMAT_END
 95
        8
302
GRIDFORMAT
  1
GRIDFORMAT_BEGIN
 90
        0
 91
        1
 62
     0
 92
       -2
340
24
 93
        0
 40
1.125
309
GRIDFORMAT_END
 95
       16
302
GRIDFORMAT
  1
GRIDFORMAT_BEGIN
 90
        0
 91
        1
 62
     0
 92
       -2
340
24
 93
        0
 40
1.125
309
GRIDFORMAT_END
 95
       32
302
GRIDFORMAT
  1
GRIDFORMAT_BEGIN
 90
        0
 91
        1
 62
     0
 92
       -2
340
24
 93
        0
 40
1.125
309
GRIDFORMAT_END
309
TABLEFORMAT_END
  1
CELLSTYLE_BEGIN
 90
        1
 91
        1
300
_TITLE
309
CELLSTYLE_END
300
CELLSTYLE
  1
TABLEFORMAT_BEGIN
 90
        5
170
     1
 91
        0
 92
        0
 62
   257
 93
        1
300
CONTENTFORMAT
  1
CONTENTFORMAT_BEGIN
 90
        0
 91
        0
 92
      512
 93
        0
300

 40
0.0
140
1.0
 94
        5
 62
     0
340
21
144
4.5
309
CONTENTFORMAT_END
171
     1
301
MARGIN
  1
CELLMARGIN_BEGIN
 40
1.5
 40
1.5
 40
1.5
 40
1.5
 40
4.5
 40
4.5
309
CELLMARGIN_END
 94
        6
 95
        1
302
GRIDFORMAT
  1
GRIDFORMAT_BEGIN
 90
        0
 91
        1
 62
     0
 92
       -2
340
24
 93
        0
 40
1.125
309
GRIDFORMAT_END
 95
        2
302
GRIDFORMAT
  1
GRIDFORMAT_BEGIN
 90
        0
 91
        1
 62
     0
 92
       -2
340
24
 93
        0
 40
1.125
309
GRIDFORMAT_END
 95
        4
302
GRIDFORMAT
  1
GRIDFORMAT_BEGIN
 90
        0
 91
        1
 62
     0
 92
       -2
340
24
 93
        0
 40
1.125
309
GRIDFORMAT_END
 95
        8
302
GRIDFORMAT
  1
GRIDFORMAT_BEGIN
 90
        0
 91
        1
 62
     0
 92
       -2
340
24
 93
        0
 40
1.125
309
GRIDFORMAT_END
 95
       16
302
GRIDFORMAT
  1
GRIDFORMAT_BEGIN
 90
        0
 91
        1
 62
     0
 92
       -2
340
24
 93
        0
 40
1.125
309
GRIDFORMAT_END
 95
       32
302
GRIDFORMAT
  1
GRIDFORMAT_BEGIN
 90
        0
 91
        1
 62
     0
 92
       -2
340
24
 93
        0
 40
1.125
309
GRIDFORMAT_END
309
TABLEFORMAT_END
  1
CELLSTYLE_BEGIN
 90
        2
 91
        1
300
_HEADER
309
CELLSTYLE_END
300
CELLSTYLE
  1
TABLEFORMAT_BEGIN
 90
        5
170
     1
 91
        0
 92
        0
 62
   257
 93
        1
300
CONTENTFORMAT
  1
CONTENTFORMAT_BEGIN
 90
        0
 91
        0
 92
      512
 93
        0
300

 40
0.0
140
1.0
 94
        2
 62
     0
340
21
144
4.5
309
CONTENTFORMAT_END
171
     1
301
MARGIN
  1
CELLMARGIN_BEGIN
 40
1.5
 40
1.5
 40
1.5
 40
1.5
 40
4.5
 40
4.5
309
CELLMARGIN_END
 94
        6
 95
        1
302
GRIDFORMAT
  1
GRIDFORMAT_BEGIN
 90
        0
 91
        1
 62
     0
 92
       -2
340
24
 93
        0
 40
1.125
309
GRIDFORMAT_END
 95
        2
302
GRIDFORMAT
  1
GRIDFORMAT_BEGIN
 90
        0
 91
        1
 62
     0
 92
       -2
340
24
 93
        0
 40
1.125
309
GRIDFORMAT_END
 95
        4
302
GRIDFORMAT
  1
GRIDFORMAT_BEGIN
 90
        0
 91
        1
 62
     0
 92
       -2
340
24
 93
        0
 40
1.125
309
GRIDFORMAT_END
 95
        8
302
GRIDFORMAT
  1
GRIDFORMAT_BEGIN
 90
        0
 91
        1
 62
     0
 92
       -2
340
24
 93
        0
 40
1.125
309
GRIDFORMAT_END
 95
       16
302
GRIDFORMAT
  1
GRIDFORMAT_BEGIN
 90
        0
 91
        1
 62
     0
 92
       -2
340
24
 93
        0
 40
1.125
309
GRIDFORMAT_END
 95
       32
302
GRIDFORMAT
  1
GRIDFORMAT_BEGIN
 90
        0
 91
        1
 62
     0
 92
       -2
340
24
 93
        0
 40
1.125
309
GRIDFORMAT_END
309
TABLEFORMAT_END
  1
CELLSTYLE_BEGIN
 90
        3
 91
        2
300
_DATA
309
CELLSTYLE_END
  0
ENDSEC
  0
SECTION
  2
ACDSDATA
 70
     2
 71
     8
  0
ACDSSCHEMA
 90
        0
  1
AcDb_Thumbnail_Schema
  2
AcDbDs::ID
280
    10
 91
        8
  2
Thumbnail_Data
280
    15
 91
        0
101
ACDSRECORD
 95
        0
 90
        1
  2
AcDbDs::TreatedAsObjectData
280
     1
291
     1
101
ACDSRECORD
 95
        0
 90
        2
  2
AcDbDs::Legacy
280
     1
291
     1
101
ACDSRECORD
  1
AcDbDs::ID
 90
        3
  2
AcDs:Indexable
280
     1
291
     1
101
ACDSRECORD
  1
AcDbDs::ID
 90
        4
  2
AcDbDs::HandleAttribute
280
     7
282
     1
  0
ACDSSCHEMA
 90
        1
  1
AcDbDs::TreatedAsObjectDataSchema
  2
AcDbDs::TreatedAsObjectData
280
     1
 91
        0
  0
ACDSSCHEMA
 90
        2
  1
AcDbDs::LegacySchema
  2
AcDbDs::Legacy
280
     1
 91
        0
  0
ACDSSCHEMA
 90
        3
  1
AcDbDs::IndexedPropertySchema
  2
AcDs:Indexable
280
     1
 91
        0
  0
ACDSSCHEMA
 90
        4
  1
AcDbDs::HandleAttributeSchema
  2
AcDbDs::HandleAttribute
280
     7
 91
        1
284
     1
  0
ACDSRECORD
 90
        0
  2
AcDbDs::ID
280
    10
320
15
  2
Thumbnail_Data
280
    15
 94
      896
310
89504E470D0A1A0A0000000D49484452000001000000009108030000001BE1960600000300504C5445212830FFFFFF2128300000000000000000000000000000000000000000000000000000330000660000990000CC0000FF0033000033330033660033990033CC0033FF0066000066330066660066990066CC0066FF0099
310
000099330099660099990099CC0099FF00CC0000CC3300CC6600CC9900CCCC00CCFF00FF0000FF3300FF6600FF9900FFCC00FFFF3300003300333300663300993300CC3300FF3333003333333333663333993333CC3333FF3366003366333366663366993366CC3366FF3399003399333399663399993399CC3399FF33CC00
310
33CC3333CC6633CC9933CCCC33CCFF33FF0033FF3333FF6633FF9933FFCC33FFFF6600006600336600666600996600CC6600FF6633006633336633666633996633CC6633FF6666006666336666666666996666CC6666FF6699006699336699666699996699CC6699FF66CC0066CC3366CC6666CC9966CCCC66CCFF66FF0066
310
FF3366FF6666FF9966FFCC66FFFF9900009900339900669900999900CC9900FF9933009933339933669933999933CC9933FF9966009966339966669966999966CC9966FF9999009999339999669999999999CC9999FF99CC0099CC3399CC6699CC9999CCCC99CCFF99FF0099FF3399FF6699FF9999FFCC99FFFFCC0000CC00
310
33CC0066CC0099CC00CCCC00FFCC3300CC3333CC3366CC3399CC33CCCC33FFCC6600CC6633CC6666CC6699CC66CCCC66FFCC9900CC9933CC9966CC9999CC99CCCC99FFCCCC00CCCC33CCCC66CCCC99CCCCCCCCCCFFCCFF00CCFF33CCFF66CCFF99CCFFCCCCFFFFFF0000FF0033FF0066FF0099FF00CCFF00FFFF3300FF3333
310
FF3366FF3399FF33CCFF33FFFF6600FF6633FF6666FF6699FF66CCFF66FFFF9900FF9933FF9966FF9999FF99CCFF99FFFFCC00FFCC33FFCC66FFCC99FFCCCCFFCCFFFFFF00FFFF33FFFF66FFFF99FFFFCCFFFFFF0000000D0D0D1A1A1A2828283535354343435050505D5D5D6B6B6B787878868686939393A1A1A1AEAEAEBB
310
BBBBC9C9C9D6D6D6E4E4E4F1F1F1FFFFFF0000000000000000000000000000000000000000000000000000000000002E4550F10000003B4944415478DAEDC13101000000C2A0F54F6D0B2FA0000000000000000000000000000000000000000000000000000000000000000000000000CE06919100016C9A5B1B0000000049
310
454E44AE426082
  0
ENDSEC
  0
EOF
