  0
SECTION
  2
HEADER
  9
$ACADVER
  1
AC1032
  9
$ACADMAINTVER
 90
        4
  9
$DWGCODEPAGE
  3
ANSI_932
  9
$REQUIREDVERSIONS
160
                 0
  9
$INSBASE
 10
0.0
 20
0.0
 30
0.0
  9
$EXTMIN
 10
2606.068217757575
 20
1255.12001923466
 30
0.0
  9
$EXTMAX
 10
2656.06821775758
 20
1272.857418299529
 30
0.0
  9
$LIMMIN
 10
2598.38915143104
 20
1247.579924154564
  9
$LIMMAX
 10
2664.308841216703
 20
1279.012687952534
  9
$ORTHOMODE
 70
     0
  9
$REGENMODE
 70
     1
  9
$FILLMODE
 70
     1
  9
$QTEXTMODE
 70
     0
  9
$MIRRTEXT
 70
     0
  9
$LTSCALE
 40
1.0
  9
$ATTMODE
 70
     1
  9
$TEXTSIZE
 40
2.5
  9
$TRACEWID
 40
1.0
  9
$TEXTSTYLE
  7
Standard
  9
$CLAYER
  8
0
  9
$CELTYPE
  6
ByLayer
  9
$CECOLOR
 62
   256
  9
$CELTSCALE
 40
1.0
  9
$DISPSILH
 70
     0
  9
$DIMSCALE
 40
1.0
  9
$DIMASZ
 40
2.5
  9
$DIMEXO
 40
0.625
  9
$DIMDLI
 40
3.75
  9
$DIMRND
 40
0.0
  9
$DIMDLE
 40
0.0
  9
$DIMEXE
 40
1.25
  9
$DIMTP
 40
0.0
  9
$DIMTM
 40
0.0
  9
$DIMTXT
 40
2.5
  9
$DIMCEN
 40
2.5
  9
$DIMTSZ
 40
0.0
  9
$DIMTOL
 70
     0
  9
$DIMLIM
 70
     0
  9
$DIMTIH
 70
     0
  9
$DIMTOH
 70
     0
  9
$DIMSE1
 70
     0
  9
$DIMSE2
 70
     0
  9
$DIMTAD
 70
     1
  9
$DIMZIN
 70
     8
  9
$DIMBLK
  1

  9
$DIMASO
 70
     1
  9
$DIMSHO
 70
     1
  9
$DIMPOST
  1

  9
$DIMAPOST
  1

  9
$DIMALT
 70
     0
  9
$DIMALTD
 70
     3
  9
$DIMALTF
 40
0.03937007874016
  9
$DIMLFAC
 40
1.0
  9
$DIMTOFL
 70
     1
  9
$DIMTVP
 40
0.0
  9
$DIMTIX
 70
     0
  9
$DIMSOXD
 70
     0
  9
$DIMSAH
 70
     0
  9
$DIMBLK1
  1

  9
$DIMBLK2
  1

  9
$DIMSTYLE
  2
ISO-25
  9
$DIMCLRD
 70
     0
  9
$DIMCLRE
 70
     0
  9
$DIMCLRT
 70
     0
  9
$DIMTFAC
 40
1.0
  9
$DIMGAP
 40
0.625
  9
$DIMJUST
 70
     0
  9
$DIMSD1
 70
     0
  9
$DIMSD2
 70
     0
  9
$DIMTOLJ
 70
     0
  9
$DIMTZIN
 70
     8
  9
$DIMALTZ
 70
     0
  9
$DIMALTTZ
 70
     0
  9
$DIMUPT
 70
     0
  9
$DIMDEC
 70
     2
  9
$DIMTDEC
 70
     2
  9
$DIMALTU
 70
     2
  9
$DIMALTTD
 70
     3
  9
$DIMTXSTY
  7
Standard
  9
$DIMAUNIT
 70
     0
  9
$DIMADEC
 70
     0
  9
$DIMALTRND
 40
0.0
  9
$DIMAZIN
 70
     0
  9
$DIMDSEP
 70
    44
  9
$DIMATFIT
 70
     3
  9
$DIMFRAC
 70
     0
  9
$DIMLDRBLK
  1

  9
$DIMLUNIT
 70
     2
  9
$DIMLWD
 70
    -2
  9
$DIMLWE
 70
    -2
  9
$DIMTMOVE
 70
     0
  9
$DIMFXL
 40
1.0
  9
$DIMFXLON
 70
     0
  9
$DIMJOGANG
 40
0.7853981633974483
  9
$DIMTFILL
 70
     0
  9
$DIMTFILLCLR
 70
     0
  9
$DIMARCSYM
 70
     0
  9
$DIMLTYPE
  6

  9
$DIMLTEX1
  6

  9
$DIMLTEX2
  6

  9
$DIMTXTDIRECTION
 70
     0
  9
$LUNITS
 70
     2
  9
$LUPREC
 70
     4
  9
$SKETCHINC
 40
1.0
  9
$FILLETRAD
 40
0.0
  9
$AUNITS
 70
     0
  9
$AUPREC
 70
     0
  9
$MENU
  1
.
  9
$ELEVATION
 40
0.0
  9
$PELEVATION
 40
0.0
  9
$THICKNESS
 40
0.0
  9
$LIMCHECK
 70
     0
  9
$CHAMFERA
 40
0.0
  9
$CHAMFERB
 40
0.0
  9
$CHAMFERC
 40
0.0
  9
$CHAMFERD
 40
0.0
  9
$SKPOLY
 70
     0
  9
$TDCREATE
 40
2459032.628368056
  9
$TDUCREATE
 40
2459032.295034722
  9
$TDUPDATE
 40
2459032.628368056
  9
$TDUUPDATE
 40
2459032.295034722
  9
$TDINDWG
 40
0.0003703704
  9
$TDUSRTIMER
 40
0.0003703704
  9
$USRTIMER
 70
     1
  9
$ANGBASE
 50
0.0
  9
$ANGDIR
 70
     0
  9
$PDMODE
 70
     0
  9
$PDSIZE
 40
0.0
  9
$PLINEWID
 40
0.0
  9
$SPLFRAME
 70
     0
  9
$SPLINETYPE
 70
     6
  9
$SPLINESEGS
 70
     8
  9
$HANDSEED
  5
148
  9
$SURFTAB1
 70
     6
  9
$SURFTAB2
 70
     6
  9
$SURFTYPE
 70
     6
  9
$SURFU
 70
     6
  9
$SURFV
 70
     6
  9
$UCSBASE
  2

  9
$UCSNAME
  2

  9
$UCSORG
 10
0.0
 20
0.0
 30
0.0
  9
$UCSXDIR
 10
1.0
 20
0.0
 30
0.0
  9
$UCSYDIR
 10
0.0
 20
1.0
 30
0.0
  9
$UCSORTHOREF
  2

  9
$UCSORTHOVIEW
 70
     0
  9
$UCSORGTOP
 10
0.0
 20
0.0
 30
0.0
  9
$UCSORGBOTTOM
 10
0.0
 20
0.0
 30
0.0
  9
$UCSORGLEFT
 10
0.0
 20
0.0
 30
0.0
  9
$UCSORGRIGHT
 10
0.0
 20
0.0
 30
0.0
  9
$UCSORGFRONT
 10
0.0
 20
0.0
 30
0.0
  9
$UCSORGBACK
 10
0.0
 20
0.0
 30
0.0
  9
$PUCSBASE
  2

  9
$PUCSNAME
  2

  9
$PUCSORG
 10
0.0
 20
0.0
 30
0.0
  9
$PUCSXDIR
 10
1.0
 20
0.0
 30
0.0
  9
$PUCSYDIR
 10
0.0
 20
1.0
 30
0.0
  9
$PUCSORTHOREF
  2

  9
$PUCSORTHOVIEW
 70
     0
  9
$PUCSORGTOP
 10
0.0
 20
0.0
 30
0.0
  9
$PUCSORGBOTTOM
 10
0.0
 20
0.0
 30
0.0
  9
$PUCSORGLEFT
 10
0.0
 20
0.0
 30
0.0
  9
$PUCSORGRIGHT
 10
0.0
 20
0.0
 30
0.0
  9
$PUCSORGFRONT
 10
0.0
 20
0.0
 30
0.0
  9
$PUCSORGBACK
 10
0.0
 20
0.0
 30
0.0
  9
$USERI1
 70
     0
  9
$USERI2
 70
     0
  9
$USERI3
 70
     0
  9
$USERI4
 70
     0
  9
$USERI5
 70
     0
  9
$USERR1
 40
0.0
  9
$USERR2
 40
0.0
  9
$USERR3
 40
0.0
  9
$USERR4
 40
0.0
  9
$USERR5
 40
0.0
  9
$WORLDVIEW
 70
     1
  9
$SHADEDGE
 70
     3
  9
$SHADEDIF
 70
    70
  9
$TILEMODE
 70
     1
  9
$MAXACTVP
 70
    64
  9
$PINSBASE
 10
0.0
 20
0.0
 30
0.0
  9
$PLIMCHECK
 70
     0
  9
$PEXTMIN
 10
0.0
 20
0.0
 30
0.0
  9
$PEXTMAX
 10
0.0
 20
0.0
 30
0.0
  9
$PLIMMIN
 10
0.0
 20
0.0
  9
$PLIMMAX
 10
12.0
 20
9.0
  9
$UNITMODE
 70
     0
  9
$VISRETAIN
 70
     1
  9
$PLINEGEN
 70
     0
  9
$PSLTSCALE
 70
     1
  9
$TREEDEPTH
 70
  3020
  9
$CMLSTYLE
  2
Standard
  9
$CMLJUST
 70
     0
  9
$CMLSCALE
 40
20.0
  9
$PROXYGRAPHICS
 70
     1
  9
$MEASUREMENT
 70
     1
  9
$CELWEIGHT
370
    -1
  9
$ENDCAPS
280
     0
  9
$JOINSTYLE
280
     0
  9
$LWDISPLAY
290
     0
  9
$INSUNITS
 70
     4
  9
$HYPERLINKBASE
  1

  9
$STYLESHEET
  1

  9
$XEDIT
290
     1
  9
$CEPSNTYPE
380
     0
  9
$PSTYLEMODE
290
     1
  9
$FINGERPRINTGUID
  2
{B43423E9-42C3-D840-9937-4E6EC42B5260}
  9
$VERSIONGUID
  2
{0884754D-1740-0B47-BF07-D960D6583E1A}
  9
$EXTNAMES
290
     1
  9
$PSVPSCALE
 40
0.0
  9
$OLESTARTUP
290
     0
  9
$SORTENTS
280
   127
  9
$INDEXCTL
280
     0
  9
$HIDETEXT
280
     1
  9
$XCLIPFRAME
280
     2
  9
$HALOGAP
280
     0
  9
$OBSCOLOR
 70
   257
  9
$OBSLTYPE
280
     0
  9
$INTERSECTIONDISPLAY
280
     0
  9
$INTERSECTIONCOLOR
 70
   257
  9
$DIMASSOC
280
     2
  9
$PROJECTNAME
  1

  9
$CAMERADISPLAY
290
     0
  9
$LENSLENGTH
 40
50.0
  9
$CAMERAHEIGHT
 40
0.0
  9
$STEPSPERSEC
 40
2.0
  9
$STEPSIZE
 40
6.0
  9
$3DDWFPREC
 40
2.0
  9
$PSOLWIDTH
 40
5.0
  9
$PSOLHEIGHT
 40
80.0
  9
$LOFTANG1
 40
1.570796326794896
  9
$LOFTANG2
 40
1.570796326794896
  9
$LOFTMAG1
 40
0.0
  9
$LOFTMAG2
 40
0.0
  9
$LOFTPARAM
 70
     7
  9
$LOFTNORMALS
280
     1
  9
$LATITUDE
 40
37.795
  9
$LONGITUDE
 40
-122.394
  9
$NORTHDIRECTION
 40
0.0
  9
$TIMEZONE
 70
 -8000
  9
$LIGHTGLYPHDISPLAY
280
     1
  9
$TILEMODELIGHTSYNCH
280
     1
  9
$CMATERIAL
347
38
  9
$SOLIDHIST
280
     0
  9
$SHOWHIST
280
     1
  9
$DWFFRAME
280
     2
  9
$DGNFRAME
280
     0
  9
$REALWORLDSCALE
290
     1
  9
$INTERFERECOLOR
 62
     1
  9
$INTERFEREOBJVS
345
45
  9
$INTERFEREVPVS
346
46
  9
$CSHADOW
280
     0
  9
$SHADOWPLANELOCATION
 40
0.0
  0
ENDSEC
  0
SECTION
  2
CLASSES
  0
CLASS
  1
ACDBDICTIONARYWDFLT
  2
AcDbDictionaryWithDefault
  3
ObjectDBX Classes
 90
        0
 91
        1
280
     0
281
     0
  0
CLASS
  1
DICTIONARYVAR
  2
AcDbDictionaryVar
  3
ObjectDBX Classes
 90
        0
 91
        5
280
     0
281
     0
  0
CLASS
  1
TABLESTYLE
  2
AcDbTableStyle
  3
ObjectDBX Classes
 90
     4095
 91
        1
280
     0
281
     0
  0
CLASS
  1
MATERIAL
  2
AcDbMaterial
  3
ObjectDBX Classes
 90
     1153
 91
        3
280
     0
281
     0
  0
CLASS
  1
VISUALSTYLE
  2
AcDbVisualStyle
  3
ObjectDBX Classes
 90
     4095
 91
        3
280
     0
281
     0
  0
CLASS
  1
SCALE
  2
AcDbScale
  3
ObjectDBX Classes
 90
     1153
 91
       17
280
     0
281
     0
  0
CLASS
  1
MLEADERSTYLE
  2
AcDbMLeaderStyle
  3
ACDB_MLEADERSTYLE_CLASS
 90
     4095
 91
        0
280
     0
281
     0
  0
CLASS
  1
CELLSTYLEMAP
  2
AcDbCellStyleMap
  3
ObjectDBX Classes
 90
     1152
 91
        1
280
     0
281
     0
  0
CLASS
  1
EXACXREFPANELOBJECT
  2
ExAcXREFPanelObject
  3
EXAC_ESW
 90
     1025
 91
        0
280
     1
281
     0
  0
CLASS
  1
NPOCOLLECTION
  2
AcDbImpNonPersistentObjectsCollection
  3
ObjectDBX Classes
 90
     1153
 91
        0
280
     0
281
     0
  0
CLASS
  1
LAYER_INDEX
  2
AcDbLayerIndex
  3
ObjectDBX Classes
 90
        0
 91
        0
280
     0
281
     0
  0
CLASS
  1
SPATIAL_INDEX
  2
AcDbSpatialIndex
  3
ObjectDBX Classes
 90
        0
 91
        0
280
     0
281
     0
  0
CLASS
  1
IDBUFFER
  2
AcDbIdBuffer
  3
ObjectDBX Classes
 90
        0
 91
        0
280
     0
281
     0
  0
CLASS
  1
ACDBSECTIONVIEWSTYLE
  2
AcDbSectionViewStyle
  3
ObjectDBX Classes
 90
     1025
 91
        0
280
     0
281
     0
  0
CLASS
  1
ACDBDETAILVIEWSTYLE
  2
AcDbDetailViewStyle
  3
ObjectDBX Classes
 90
     1025
 91
        0
280
     0
281
     0
  0
ENDSEC
  0
SECTION
  2
TABLES
  0
TABLE
  2
VPORT
  5
28
330
0
100
AcDbSymbolTable
 70
     1
  0
VPORT
  5
29
330
28
100
AcDbSymbolTableRecord
100
AcDbViewportTableRecord
  2
*Active
 70
     0
 10
0.0
 20
0.0
 11
1.0
 21
1.0
 12
2640.468017942995
 22
1261.365549058717
 13
0.0
 23
0.0
 14
10.0
 24
10.0
 15
10.0
 25
10.0
 16
0.0
 26
0.0
 36
1.0
 17
0.0
 27
0.0
 37
0.0
 40
62.40213863497229
 41
2.070631970260222
 42
50.0
 43
0.0
 44
0.0
 50
0.0
 51
0.0
 71
     0
 72
  1000
 73
     1
 74
     3
 75
     0
 76
     1
 77
     0
 78
     0
281
     0
 65
     1
110
0.0
120
0.0
130
0.0
111
1.0
121
0.0
131
0.0
112
0.0
122
1.0
132
0.0
 79
     0
146
0.0
348
2A
 60
     3
 61
     5
292
     1
282
     1
141
0.0
142
0.0
 63
   250
421
  3355443
1001
ACAD_NAV_VCDISPLAY
1070
     3
  0
ENDTAB
  0
TABLE
  2
LTYPE
  5
23
330
0
100
AcDbSymbolTable
 70
     1
  0
LTYPE
  5
24
330
23
100
AcDbSymbolTableRecord
100
AcDbLinetypeTableRecord
  2
ByBlock
 70
     0
  3

 72
    65
 73
     0
 40
0.0
  0
LTYPE
  5
25
330
23
100
AcDbSymbolTableRecord
100
AcDbLinetypeTableRecord
  2
ByLayer
 70
     0
  3

 72
    65
 73
     0
 40
0.0
  0
LTYPE
  5
13
330
23
100
AcDbSymbolTableRecord
100
AcDbLinetypeTableRecord
  2
Continuous
 70
     0
  3
Solid line
 72
    65
 73
     0
 40
0.0
  0
ENDTAB
  0
TABLE
  2
LAYER
  5
1D
102
{ACAD_XDICTIONARY
360
1E
102
}
330
0
100
AcDbSymbolTable
 70
     1
  0
LAYER
  5
5
102
{ACAD_XDICTIONARY
360
6
102
}
330
1D
100
AcDbSymbolTableRecord
100
AcDbLayerTableRecord
  2
0
 70
     0
 62
     7
  6
Continuous
370
    -3
390
7
347
A
348
0
  0
ENDTAB
  0
TABLE
  2
STYLE
  5
20
330
0
100
AcDbSymbolTable
 70
     1
  0
STYLE
  5
21
330
20
100
AcDbSymbolTableRecord
100
AcDbTextStyleTableRecord
  2
Standard
 70
     0
 40
0.0
 41
1.0
 50
0.0
 71
     0
 42
2.5
  3
arial.ttf
  4

1001
ACAD
1000
Arial
1071
       34
  0
ENDTAB
  0
TABLE
  2
VIEW
  5
26
330
0
100
AcDbSymbolTable
 70
     0
  0
ENDTAB
  0
TABLE
  2
UCS
  5
27
330
0
100
AcDbSymbolTable
 70
     0
  0
ENDTAB
  0
TABLE
  2
APPID
  5
2D
330
0
100
AcDbSymbolTable
 70
     6
  0
APPID
  5
12
330
2D
100
AcDbSymbolTableRecord
100
AcDbRegAppTableRecord
  2
ACAD
 70
     0
  0
APPID
  5
18
330
2D
100
AcDbSymbolTableRecord
100
AcDbRegAppTableRecord
  2
ACAD_PSEXT
 70
     0
  0
APPID
  5
31
330
2D
100
AcDbSymbolTableRecord
100
AcDbRegAppTableRecord
  2
AcadAnnotative
 70
     0
  0
APPID
  5
32
330
2D
100
AcDbSymbolTableRecord
100
AcDbRegAppTableRecord
  2
ACAD_DSTYLE_DIMJAG
 70
     0
  0
APPID
  5
33
330
2D
100
AcDbSymbolTableRecord
100
AcDbRegAppTableRecord
  2
ACAD_DSTYLE_DIMTALN
 70
     0
  0
APPID
  5
2C
330
2D
100
AcDbSymbolTableRecord
100
AcDbRegAppTableRecord
  2
ACAD_NAV_VCDISPLAY
 70
     0
  0
ENDTAB
  0
TABLE
  2
DIMSTYLE
  5
2E
330
0
100
AcDbSymbolTable
 70
     2
100
AcDbDimStyleTable
 71
     2
340
2F
340
30
  0
DIMSTYLE
105
30
330
2E
100
AcDbSymbolTableRecord
100
AcDbDimStyleTableRecord
  2
Annotative
 70
     0
 40
0.0
 41
2.5
 42
0.625
 43
3.75
 44
1.25
 73
     0
 74
     0
 77
     1
 78
     8
140
2.5
141
2.5
143
0.03937007874016
147
0.625
171
     3
172
     1
271
     2
272
     2
274
     3
278
    44
283
     0
284
     8
340
21
1001
AcadAnnotative
1000
AnnotativeData
1002
{
1070
     1
1070
     1
1002
}
1001
ACAD_DSTYLE_DIMJAG
1070
   388
1040
1.5
1001
ACAD_DSTYLE_DIMTALN
1070
   392
1070
     0
  0
DIMSTYLE
105
2F
330
2E
100
AcDbSymbolTableRecord
100
AcDbDimStyleTableRecord
  2
ISO-25
 70
     0
 41
2.5
 42
0.625
 43
3.75
 44
1.25
 73
     0
 74
     0
 77
     1
 78
     8
140
2.5
141
2.5
143
0.03937007874016
147
0.625
171
     3
172
     1
271
     2
272
     2
274
     3
278
    44
283
     0
284
     8
340
21
  0
ENDTAB
  0
TABLE
  2
BLOCK_RECORD
  5
1
330
0
100
AcDbSymbolTable
 70
     0
  0
BLOCK_RECORD
  5
2
102
{ACAD_XDICTIONARY
360
3
102
}
330
1
100
AcDbSymbolTableRecord
100
AcDbBlockTableRecord
  2
*Model_Space
340
15
 70
     0
280
     1
281
     0
  0
BLOCK_RECORD
  5
19
330
1
100
AcDbSymbolTableRecord
100
AcDbBlockTableRecord
  2
*Paper_Space
340
1C
 70
     0
280
     1
281
     0
  0
ENDTAB
  0
ENDSEC
  0
SECTION
  2
BLOCKS
  0
BLOCK
  5
4
330
2
100
AcDbEntity
  8
0
100
AcDbBlockBegin
  2
*Model_Space
 70
     0
 10
0.0
 20
0.0
 30
0.0
  3
*Model_Space
  1

  0
ENDBLK
  5
14
330
2
100
AcDbEntity
  8
0
100
AcDbBlockEnd
  0
BLOCK
  5
1A
330
19
100
AcDbEntity
 67
     1
  8
0
100
AcDbBlockBegin
  2
*Paper_Space
 70
     0
 10
0.0
 20
0.0
 30
0.0
  3
*Paper_Space
  1

  0
ENDBLK
  5
1B
330
19
100
AcDbEntity
 67
     1
  8
0
100
AcDbBlockEnd
  0
ENDSEC
  0
SECTION
  2
ENTITIES
  0
LINE
  5
58
330
2
100
AcDbEntity
  8
0
100
AcDbLine
 10
2606.505160353923
 20
1258.960286984535
 30
0.0
 11
2606.505160353923
 21
1258.837671374988
 31
0.0
  0
LINE
  5
59
330
2
100
AcDbEntity
  8
0
100
AcDbLine
 10
2606.576675844036
 20
1259.004419389156
 30
0.0
 11
2606.523087664287
 21
1258.988166413881
 31
0.0
  0
LINE
  5
5A
330
2
100
AcDbEntity
  8
0
100
AcDbLine
 10
2655.626666782398
 20
1271.955636559715
 30
0.0
 11
2654.594021703506
 21
1272.849933431116
 31
0.0
  0
LINE
  5
5B
330
2
100
AcDbEntity
  8
0
100
AcDbLine
 10
2654.567427878637
 20
1272.857372775151
 30
0.0
 11
2654.513296930298
 21
1272.84252991037
 31
0.0
  0
LINE
  5
5C
330
2
100
AcDbEntity
  8
0
100
AcDbLine
 10
2655.631275161205
 20
1271.401455318354
 30
0.0
 11
2655.631275161205
 21
1271.945548808238
 31
0.0
  0
SPLINE
  5
5D
330
2
100
AcDbEntity
  8
0
100
AcDbSpline
210
0.0
220
0.0
230
1.0
 70
     8
 71
     3
 72
    10
 73
     6
 74
     0
 42
0.000000001
 43
0.0000000001
 40
0.0
 40
0.0
 40
0.0
 40
0.0
 40
0.2089038234271307
 40
0.6475254059593288
 40
1.0
 40
1.0
 40
1.0
 40
1.0
 10
2655.631046876065
 20
1271.945444452428
 30
0.0
 10
2655.631099560947
 20
1271.946233775361
 30
0.0
 10
2655.631262864802
 20
1271.948680387605
 30
0.0
 10
2655.629686777493
 20
1271.952580319368
 30
0.0
 10
2655.627469228648
 20
1271.954690847763
 30
0.0
 10
2655.626481195015
 20
1271.955631198204
 30
0.0
  0
LINE
  5
5E
330
2
100
AcDbEntity
  8
0
100
AcDbLine
 10
2649.362740680765
 20
1271.209589177514
 30
0.0
 11
2649.366910965073
 21
1271.416477593787
 31
0.0
  0
LINE
  5
5F
330
2
100
AcDbEntity
  8
0
100
AcDbLine
 10
2648.548415545451
 20
1271.269511010038
 30
0.0
 11
2648.554326822932
 21
1270.976220206601
 31
0.0
  0
SPLINE
  5
60
330
2
100
AcDbEntity
  8
0
100
AcDbSpline
210
0.0
220
0.0
230
1.0
 70
     8
 71
     3
 72
    11
 73
     7
 74
     0
 42
0.000000001
 43
0.0000000001
 40
0.0
 40
0.0
 40
0.0
 40
0.0
 40
0.1283855827273105
 40
0.429154783093427
 40
0.762925263958191
 40
1.0
 40
1.0
 40
1.0
 40
1.0
 10
2648.294766527173
 20
1271.132388939198
 30
0.0
 10
2648.290007872283
 20
1271.136835610181
 30
0.0
 10
2648.274101105623
 20
1271.151699507515
 30
0.0
 10
2648.235603752017
 20
1271.167034122473
 30
0.0
 10
2648.186358673943
 20
1271.178673791857
 30
0.0
 10
2648.15225788667
 20
1271.177810022159
 30
0.0
 10
2648.138095667381
 20
1271.177451294491
 30
0.0
  0
SPLINE
  5
61
330
2
100
AcDbEntity
  8
0
100
AcDbSpline
210
0.0
220
0.0
230
1.0
 70
     8
 71
     3
 72
    13
 73
     9
 74
     0
 42
0.000000001
 43
0.0000000001
 40
0.0
 40
0.0
 40
0.0
 40
0.0
 40
0.0999825347091754
 40
0.2896955252891588
 40
0.4800510812141459
 40
0.6713285306810874
 40
0.8639789902947047
 40
1.0
 40
1.0
 40
1.0
 40
1.0
 10
2648.137965380111
 20
1271.178430997178
 30
0.0
 10
2648.117381211162
 20
1271.17739659056
 30
0.0
 10
2648.05773937818
 20
1271.174399437414
 30
0.0
 10
2647.960944079504
 20
1271.161716104788
 30
0.0
 10
2647.85190894859
 20
1271.137412746886
 30
0.0
 10
2647.751790974006
 20
1271.103420477076
 30
0.0
 10
2647.671003791499
 20
1271.065211772104
 30
0.0
 10
2647.628510327393
 20
1271.036215979653
 30
0.0
 10
2647.610924365626
 20
1271.024216042529
 30
0.0
  0
LINE
  5
62
330
2
100
AcDbEntity
  8
0
100
AcDbLine
 10
2648.417278880593
 20
1271.03042581344
 30
0.0
 11
2648.29589341161
 21
1271.133462932711
 31
0.0
  0
LINE
  5
63
330
2
100
AcDbEntity
  8
0
100
AcDbLine
 10
2647.564364326662
 20
1270.939859229492
 30
0.0
 11
2647.564364326662
 21
1270.885316274203
 31
0.0
  0
SPLINE
  5
64
330
2
100
AcDbEntity
  8
0
100
AcDbSpline
210
0.0
220
0.0
230
1.0
 70
     8
 71
     3
 72
    10
 73
     6
 74
     0
 42
0.000000001
 43
0.0000000001
 40
0.0
 40
0.0
 40
0.0
 40
0.0
 40
0.2775196381320963
 40
0.6989868493862854
 40
1.0
 40
1.0
 40
1.0
 40
1.0
 10
2647.612274166407
 20
1271.022876177191
 30
0.0
 10
2647.604857254612
 20
1271.017698003155
 30
0.0
 10
2647.586176328666
 20
1271.004655770975
 30
0.0
 10
2647.568251692242
 20
1270.975926289569
 30
0.0
 10
2647.566646873451
 20
1270.952220490448
 30
0.0
 10
2647.56597824412
 20
1270.942343741324
 30
0.0
  0
LINE
  5
65
330
2
100
AcDbEntity
  8
0
100
AcDbLine
 10
2647.564399824704
 20
1270.941866363461
 30
0.0
 11
2647.564380004532
 21
1270.941006608699
 31
0.0
  0
LINE
  5
66
330
2
100
AcDbEntity
  8
0
100
AcDbLine
 10
2647.876800157807
 20
1271.276408339098
 30
0.0
 11
2647.874806147207
 21
1271.177502689002
 31
0.0
  0
LINE
  5
67
330
2
100
AcDbEntity
  8
0
100
AcDbLine
 10
2647.114908537468
 20
1270.560695946578
 30
0.0
 11
2646.91319301041
 21
1270.640058618115
 31
0.0
  0
ARC
  5
68
330
2
100
AcDbEntity
  8
0
100
AcDbCircle
 10
2646.901865518524
 20
1270.611266677195
 30
0.0
 40
0.0309403979722184
100
AcDbArc
 50
68.52327538541127
 51
106.1021137518967
  0
LINE
  5
69
330
2
100
AcDbEntity
  8
0
100
AcDbLine
 10
2646.893284729897
 20
1270.640993421102
 30
0.0
 11
2646.732400783485
 21
1270.594550226207
 31
0.0
  0
LINE
  5
6A
330
2
100
AcDbEntity
  8
0
100
AcDbLine
 10
2647.31168276979
 20
1270.617499750657
 30
0.0
 11
2647.309701004069
 21
1270.645556562016
 31
0.0
  0
ARC
  5
6B
330
2
100
AcDbEntity
  8
0
100
AcDbCircle
 10
2647.216128591492
 20
1270.71342474257
 30
0.0
 40
0.0309403979722197
100
AcDbArc
 50
49.10660535080205
 51
106.102113752004
  0
LINE
  5
6C
330
2
100
AcDbEntity
  8
0
100
AcDbLine
 10
2647.207546829976
 20
1270.743151192914
 30
0.0
 11
2646.935112272672
 21
1270.664506110424
 31
0.0
  0
LINE
  5
6D
330
2
100
AcDbEntity
  8
0
100
AcDbLine
 10
2647.282635908058
 20
1270.696613942807
 30
0.0
 11
2647.236384385458
 21
1270.736813648735
 31
0.0
  0
SPLINE
  5
6E
330
2
100
AcDbEntity
  8
0
100
AcDbSpline
210
0.0
220
0.0
230
1.0
 70
     8
 71
     3
 72
     9
 73
     5
 74
     0
 42
0.000000001
 43
0.0000000001
 40
0.0
 40
0.0
 40
0.0
 40
0.0
 40
0.1006168419170412
 40
1.0
 40
1.0
 40
1.0
 40
1.0
 10
2647.308179784595
 20
1270.654388003714
 30
0.0
 10
2647.308164052829
 20
1270.655178798608
 30
0.0
 10
2647.308007699619
 20
1270.663038267053
 30
0.0
 10
2647.303949326761
 20
1270.669998125063
 30
0.0
 10
2647.300299294563
 20
1270.67625770414
 30
0.0
  0
SPLINE
  5
6F
330
2
100
AcDbEntity
  8
0
100
AcDbSpline
210
0.0
220
0.0
230
1.0
 70
     8
 71
     3
 72
     9
 73
     5
 74
     0
 42
0.000000001
 43
0.0000000001
 40
0.0
 40
0.0
 40
0.0
 40
0.0
 40
0.7515472419420846
 40
1.0
 40
1.0
 40
1.0
 40
1.0
 10
2647.300321870492
 20
1270.676252766929
 30
0.0
 10
2647.296359622208
 20
1270.682037275824
 30
0.0
 10
2647.291087500827
 20
1270.689734075936
 30
0.0
 10
2647.284317847178
 20
1270.695244790559
 30
0.0
 10
2647.282635908058
 20
1270.696613942807
 30
0.0
  0
ARC
  5
70
330
2
100
AcDbEntity
  8
0
100
AcDbCircle
 10
2646.943693044094
 20
1270.634779374252
 30
0.0
 40
0.0309403979722452
100
AcDbArc
 50
106.102113752004
 51
170.1843903977997
  0
LINE
  5
71
330
2
100
AcDbEntity
  8
0
100
AcDbLine
 10
2614.251319869459
 20
1261.332693643592
 30
0.0
 11
2614.223485405795
 21
1261.407442404612
 31
0.0
  0
LINE
  5
72
330
2
100
AcDbEntity
  8
0
100
AcDbLine
 10
2613.615131281892
 20
1261.407442078377
 30
0.0
 11
2613.583822507016
 21
1261.323364445415
 31
0.0
  0
LINE
  5
73
330
2
100
AcDbEntity
  8
0
100
AcDbLine
 10
2615.064923019034
 20
1261.308662047689
 30
0.0
 11
2615.06909330334
 21
1261.515550463961
 31
0.0
  0
LINE
  5
74
330
2
100
AcDbEntity
  8
0
100
AcDbLine
 10
2614.250596286607
 20
1261.368583419201
 30
0.0
 11
2614.256507564088
 21
1261.075292615733
 31
0.0
  0
SPLINE
  5
75
330
2
100
AcDbEntity
  8
0
100
AcDbSpline
210
0.0
220
0.0
230
1.0
 70
     8
 71
     3
 72
    11
 73
     7
 74
     0
 42
0.000000001
 43
0.0000000001
 40
0.0
 40
0.0
 40
0.0
 40
0.0
 40
0.1298118544594385
 40
0.4318145639462134
 40
0.7653969728019822
 40
1.0
 40
1.0
 40
1.0
 40
1.0
 10
2613.990082547822
 20
1261.231483672953
 30
0.0
 10
2613.985213476087
 20
1261.235934083116
 30
0.0
 10
2613.969016680369
 20
1261.25073821585
 30
0.0
 10
2613.930112746627
 20
1261.265858995053
 30
0.0
 10
2613.880664491191
 20
1261.27715392828
 30
0.0
 10
2613.846702395717
 20
1261.276064795145
 30
0.0
 10
2613.832679490689
 20
1261.275615093492
 30
0.0
  0
SPLINE
  5
76
330
2
100
AcDbEntity
  8
0
100
AcDbSpline
210
0.0
220
0.0
230
1.0
 70
     8
 71
     3
 72
    13
 73
     9
 74
     0
 42
0.000000001
 43
0.0000000001
 40
0.0
 40
0.0
 40
0.0
 40
0.0
 40
0.0982111695572108
 40
0.2845823417605071
 40
0.4716054774267363
 40
0.6595693854492976
 40
0.8489138438153357
 40
1.0
 40
1.0
 40
1.0
 40
1.0
 10
2613.832528863968
 20
1261.27661156714
 30
0.0
 10
2613.811984139428
 20
1261.275461417247
 30
0.0
 10
2613.75245256225
 20
1261.27212867667
 30
0.0
 10
2613.655998756746
 20
1261.258895849269
 30
0.0
 10
2613.547546282917
 20
1261.233965538709
 30
0.0
 10
2613.448212886179
 20
1261.199363569962
 30
0.0
 10
2613.365487561142
 20
1261.159342994139
 30
0.0
 10
2613.321951119164
 20
1261.128119824792
 30
0.0
 10
2613.302629256232
 20
1261.11426270255
 30
0.0
  0
LINE
  5
77
330
2
100
AcDbEntity
  8
0
100
AcDbLine
 10
2614.116924233949
 20
1261.127943587808
 30
0.0
 11
2613.991201866059
 21
1261.232562270045
 31
0.0
  0
LINE
  5
78
330
2
100
AcDbEntity
  8
0
100
AcDbLine
 10
2613.259434505146
 20
1261.033325303362
 30
0.0
 11
2613.258789207751
 21
1260.978880008315
 31
0.0
  0
SPLINE
  5
79
330
2
100
AcDbEntity
  8
0
100
AcDbSpline
210
0.0
220
0.0
230
1.0
 70
     8
 71
     3
 72
    10
 73
     6
 74
     0
 42
0.000000001
 43
0.0000000001
 40
0.0
 40
0.0
 40
0.0
 40
0.0
 40
0.2776530084991697
 40
0.710247722740241
 40
1.0
 40
1.0
 40
1.0
 40
1.0
 10
2613.303985748997
 20
1261.112926956739
 30
0.0
 10
2613.296950762213
 20
1261.10772931888
 30
0.0
 10
2613.278954979023
 20
1261.094433549196
 30
0.0
 10
2613.262321155535
 20
1261.065934309713
 30
0.0
 10
2613.261504753201
 20
1261.042908624917
 30
0.0
 10
2613.261177272866
 20
1261.033672420318
 30
0.0
  0
LINE
  5
7A
330
2
100
AcDbEntity
  8
0
100
AcDbLine
 10
2612.817089278624
 20
1260.659768355741
 30
0.0
 11
2612.615375348678
 21
1260.73913148829
 31
0.0
  0
ARC
  5
7B
330
2
100
AcDbEntity
  8
0
100
AcDbCircle
 10
2612.604047090182
 20
1260.710339326085
 30
0.0
 40
0.0309403979722289
100
AcDbArc
 50
68.52327538541127
 51
106.102113752004
  0
LINE
  5
7C
330
2
100
AcDbEntity
  8
0
100
AcDbLine
 10
2612.595465471053
 20
1260.740065830265
 30
0.0
 11
2612.434583121753
 21
1260.693623096412
 31
0.0
  0
ARC
  5
7D
330
2
100
AcDbEntity
  8
0
100
AcDbCircle
 10
2612.918310163149
 20
1260.81249739146
 30
0.0
 40
0.0309403979722232
100
AcDbArc
 50
49.10660535090379
 51
106.102113752004
  0
LINE
  5
7E
330
2
100
AcDbEntity
  8
0
100
AcDbLine
 10
2612.909729168244
 20
1260.84222406312
 30
0.0
 11
2612.637293013827
 21
1260.763578519556
 31
0.0
  0
LINE
  5
7F
330
2
100
AcDbEntity
  8
0
100
AcDbLine
 10
2613.060718575043
 20
1260.730098068374
 30
0.0
 11
2612.938565126614
 21
1260.835886057898
 31
0.0
  0
ARC
  5
80
330
2
100
AcDbEntity
  8
0
100
AcDbCircle
 10
2612.645874615752
 20
1260.733852023142
 30
0.0
 40
0.0309403979722232
100
AcDbArc
 50
106.102113752004
 51
170.1843903977997
  0
SPLINE
  5
81
330
2
100
AcDbEntity
  8
0
100
AcDbSpline
210
0.0
220
0.0
230
1.0
 70
     8
 71
     3
 72
    10
 73
     6
 74
     0
 42
0.000000001
 43
0.0000000001
 40
0.0
 40
0.0
 40
0.0
 40
0.0
 40
0.4026133818480865
 40
0.769942655454761
 40
1.0
 40
1.0
 40
1.0
 40
1.0
 10
2654.229113957751
 20
1272.615762377504
 30
0.0
 10
2654.225217757988
 20
1272.618545692862
 30
0.0
 10
2654.217766812424
 20
1272.62386840024
 30
0.0
 10
2654.205329060848
 20
1272.626750889617
 30
0.0
 10
2654.19816121614
 20
1272.625022270214
 30
0.0
 10
2654.195400834052
 20
1272.624356568008
 30
0.0
  0
LINE
  5
82
330
2
100
AcDbEntity
  8
0
100
AcDbLine
 10
2654.19525387386
 20
1272.624923810257
 30
0.0
 11
2654.111932236571
 21
1272.605624510136
 31
0.0
  0
LINE
  5
83
330
2
100
AcDbEntity
  8
0
100
AcDbLine
 10
2654.882494297349
 20
1272.04991840508
 30
0.0
 11
2654.229113957753
 21
1272.615762377508
 31
0.0
  0
LINE
  5
84
330
2
100
AcDbEntity
  8
0
100
AcDbLine
 10
2654.890651555863
 20
1271.803589599747
 30
0.0
 11
2654.890651555863
 21
1272.031204622504
 31
0.0
  0
LINE
  5
85
330
2
100
AcDbEntity
  8
0
100
AcDbLine
 10
2655.346600256568
 20
1271.647990854338
 30
0.0
 11
2654.927677880673
 21
1272.010788274078
 31
0.0
  0
SPLINE
  5
86
330
2
100
AcDbEntity
  8
0
100
AcDbSpline
210
0.0
220
0.0
230
1.0
 70
     8
 71
     3
 72
    12
 73
     8
 74
     0
 42
0.000000001
 43
0.0000000001
 40
0.0
 40
0.0
 40
0.0
 40
0.0
 40
0.0263638011818405
 40
0.2735960255564769
 40
0.492672400379994
 40
0.7172516647803179
 40
1.0
 40
1.0
 40
1.0
 40
1.0
 10
2656.041783849531
 20
1269.005700163691
 30
0.0
 10
2656.0422550356
 20
1269.005776318692
 30
0.0
 10
2656.047144870532
 20
1269.006566633615
 30
0.0
 10
2656.054657743009
 20
1269.012388853569
 30
0.0
 10
2656.062467375792
 20
1269.021848394053
 30
0.0
 10
2656.06733440826
 20
1269.033827927815
 30
0.0
 10
2656.067901629039
 20
1269.042789926603
 30
0.0
 10
2656.068217757574
 20
1269.047784707567
 30
0.0
  0
LINE
  5
87
330
2
100
AcDbEntity
  8
0
100
AcDbLine
 10
2655.962140975394
 20
1268.97772278198
 30
0.0
 11
2656.042180181877
 21
1269.005582460708
 31
0.0
  0
LINE
  5
88
330
2
100
AcDbEntity
  8
0
100
AcDbLine
 10
2656.06821775758
 20
1269.047784707574
 30
0.0
 11
2656.06821775758
 21
1270.987493333486
 31
0.0
  0
LINE
  5
89
330
2
100
AcDbEntity
  8
0
100
AcDbLine
 10
2656.045164179488
 20
1271.04301675094
 30
0.0
 11
2655.391783839892
 21
1271.608860723368
 31
0.0
  0
SPLINE
  5
8A
330
2
100
AcDbEntity
  8
0
100
AcDbSpline
210
0.0
220
0.0
230
1.0
 70
     8
 71
     3
 72
    11
 73
     7
 74
     0
 42
0.000000001
 43
0.0000000001
 40
0.0
 40
0.0
 40
0.0
 40
0.0
 40
0.2420896901782215
 40
0.5681157725525025
 40
0.906951436458586
 40
1.0
 40
1.0
 40
1.0
 40
1.0
 10
2656.068217757574
 20
1270.987493333495
 30
0.0
 10
2656.067911771082
 20
1270.992459657213
 30
0.0
 10
2656.067193707658
 20
1271.004114209019
 30
0.0
 10
2656.060849610042
 20
1271.022858853507
 30
0.0
 10
2656.052713689564
 20
1271.035985399881
 30
0.0
 10
2656.04650239093
 20
1271.041770387347
 30
0.0
 10
2656.045164179487
 20
1271.043016750932
 30
0.0
  0
SPLINE
  5
8B
330
2
100
AcDbEntity
  8
0
100
AcDbSpline
210
0.0
220
0.0
230
1.0
 70
     8
 71
     3
 72
    11
 73
     7
 74
     0
 42
0.000000001
 43
0.0000000001
 40
0.0
 40
0.0
 40
0.0
 40
0.0
 40
0.2420881447544749
 40
0.5681144692265912
 40
0.9069513673633295
 40
1.0
 40
1.0
 40
1.0
 40
1.0
 10
2606.068217757575
 20
1256.757449661503
 30
0.0
 10
2606.06852374632
 20
1256.752483369406
 30
0.0
 10
2606.06924181797
 20
1256.740828844144
 30
0.0
 10
2606.07558592586
 20
1256.7220842429
 30
0.0
 10
2606.083721809236
 20
1256.708957604629
 30
0.0
 10
2606.089933123826
 20
1256.703172607004
 30
0.0
 10
2606.091271335662
 20
1256.701926244067
 30
0.0
  0
LINE
  5
8C
330
2
100
AcDbEntity
  8
0
100
AcDbLine
 10
2606.06821775758
 20
1258.697158287438
 30
0.0
 11
2606.06821775758
 21
1256.757449661494
 31
0.0
  0
LINE
  5
8D
330
2
100
AcDbEntity
  8
0
100
AcDbLine
 10
2606.091271335671
 20
1256.701926244072
 30
0.0
 11
2607.907321557407
 21
1255.129180617503
 31
0.0
  0
LINE
  5
8E
330
2
100
AcDbEntity
  8
0
100
AcDbLine
 10
2606.174294539766
 20
1258.767220213031
 30
0.0
 11
2606.094255333283
 21
1258.73936058421
 31
0.0
  0
SPLINE
  5
8F
330
2
100
AcDbEntity
  8
0
100
AcDbSpline
210
0.0
220
0.0
230
1.0
 70
     8
 71
     3
 72
    12
 73
     8
 74
     0
 42
0.000000001
 43
0.0000000001
 40
0.0
 40
0.0
 40
0.0
 40
0.0
 40
0.0263167943260592
 40
0.2735608938507325
 40
0.4926469742527286
 40
0.7172360758510151
 40
1.0
 40
1.0
 40
1.0
 40
1.0
 10
2606.094649146406
 20
1258.739242470079
 30
0.0
 10
2606.094178806693
 20
1258.739166407548
 30
0.0
 10
2606.089289664402
 20
1258.738375743844
 30
0.0
 10
2606.081777885987
 20
1258.732554162673
 30
0.0
 10
2606.073968114495
 20
1258.723094652198
 30
0.0
 10
2606.069101093723
 20
1258.711115117003
 30
0.0
 10
2606.068533882416
 20
1258.702153102311
 30
0.0
 10
2606.068217757575
 20
1258.697158287432
 30
0.0
  0
LINE
  5
90
330
2
100
AcDbEntity
  8
0
100
AcDbLine
 10
2607.9411816413
 20
1255.12001923466
 30
0.0
 11
2608.024503278589
 21
1255.139318634596
 31
0.0
  0
SPLINE
  5
91
330
2
100
AcDbEntity
  8
0
100
AcDbSpline
210
0.0
220
0.0
230
1.0
 70
     8
 71
     3
 72
    10
 73
     6
 74
     0
 42
0.000000001
 43
0.0000000001
 40
0.0
 40
0.0
 40
0.0
 40
0.0
 40
0.4026610517660953
 40
0.7700334566109244
 40
1.0
 40
1.0
 40
1.0
 40
1.0
 10
2607.907321557398
 20
1255.129180617495
 30
0.0
 10
2607.911217746434
 20
1255.126397302829
 30
0.0
 10
2607.91866866799
 20
1255.121074599271
 30
0.0
 10
2607.931105072001
 20
1255.118192204071
 30
0.0
 10
2607.938271362257
 20
1255.11992038195
 30
0.0
 10
2607.941030276613
 20
1255.120585704534
 30
0.0
  0
LINE
  5
92
330
2
100
AcDbEntity
  8
0
100
AcDbLine
 10
2654.087001098132
 20
1272.573365672717
 30
0.0
 11
2606.204032736044
 21
1258.750743335988
 31
0.0
  0
LINE
  5
93
330
2
100
AcDbEntity
  8
0
100
AcDbLine
 10
2608.049434416997
 20
1255.171577322294
 30
0.0
 11
2655.932402779117
 21
1268.994199659023
 31
0.0
  0
LINE
  5
94
330
2
100
AcDbEntity
  8
0
100
AcDbLine
 10
2654.513267135097
 20
1272.842521275957
 30
0.0
 11
2649.408786564626
 21
1271.368984660247
 31
0.0
  0
LINE
  5
95
330
2
100
AcDbEntity
  8
0
100
AcDbLine
 10
2646.729268861069
 20
1270.595474526537
 30
0.0
 11
2615.110968902895
 21
1261.468057530453
 31
0.0
  0
LINE
  5
96
330
2
100
AcDbEntity
  8
0
100
AcDbLine
 10
2612.431451199336
 20
1260.694547396712
 30
0.0
 11
2606.576705927416
 21
1259.004428017319
 31
0.0
  0
LINE
  5
97
330
2
100
AcDbEntity
  8
0
100
AcDbLine
 10
2649.422229020059
 20
1271.261830797078
 30
0.0
 11
2649.400527119787
 21
1271.220497176638
 31
0.0
  0
ELLIPSE
  5
98
330
2
100
AcDbEntity
  8
0
100
AcDbEllipse
 10
2606.580139163393
 20
1258.992536897631
 30
0.0
 11
-0.0034329659175817
 21
0.0118914462618188
 31
0.0
210
0.0
220
0.0
230
1.0
 40
0.4329822642999999
 41
0.0058131408042048
 42
0.9827342449340056
  0
LINE
  5
99
330
2
100
AcDbEntity
  8
0
100
AcDbLine
 10
2606.573950359607
 20
1258.857529397342
 30
0.0
 11
2606.573950359607
 21
1258.997896845963
 31
0.0
  0
LINE
  5
9A
330
2
100
AcDbEntity
  8
0
100
AcDbLine
 10
2606.573950359607
 20
1258.997896845963
 30
0.0
 11
2606.520397143528
 21
1258.981654475417
 31
0.0
  0
ELLIPSE
  5
9B
330
2
100
AcDbEntity
  8
0
100
AcDbEllipse
 10
2606.536101307709
 20
1258.952248613016
 30
0.0
 11
0.0251076585471032
 21
-0.0236998784888523
 31
0.0
210
0.0
220
0.0
230
0.9999999999999998
 40
0.7629049752000004
 41
2.727229811146519
 42
3.765700716083089
  0
ARC
  5
9C
330
2
100
AcDbEntity
  8
0
100
AcDbCircle
 10
2606.526770882342
 20
1258.982832841247
 30
0.0
 40
0.0064817507200969
100
AcDbArc
 50
124.6278877465927
 51
190.4744745838971
  0
LINE
  5
9D
330
2
100
AcDbEntity
  8
0
100
AcDbLine
 10
2654.606636852115
 20
1272.28883157882
 30
0.0
 11
2654.606636852115
 21
1272.829016961758
 31
0.0
  0
LINE
  5
9E
330
2
100
AcDbEntity
  8
0
100
AcDbLine
 10
2654.510511567288
 20
1272.372064919484
 30
0.0
 11
2654.510511567288
 21
1272.835990104601
 31
0.0
  0
LINE
  5
9F
330
2
100
AcDbEntity
  8
0
100
AcDbLine
 10
2654.606636852115
 20
1272.28883157882
 30
0.0
 11
2655.627128824736
 21
1271.405059606155
 31
0.0
  0
LINE
  5
A0
330
2
100
AcDbEntity
  8
0
100
AcDbLine
 10
2655.627128824736
 20
1271.405059606155
 30
0.0
 11
2655.627128824736
 21
1271.945244989093
 31
0.0
  0
ELLIPSE
  5
A1
330
2
100
AcDbEntity
  8
0
100
AcDbEllipse
 10
2654.579842278054
 20
1272.821282004065
 30
0.0
 11
-0.0082128731001855
 21
0.0351129137318209
 31
0.0
210
0.0
220
0.0
230
1.0
 40
0.7729916775
 41
4.752031640211408
 42
6.314101320746495
  0
ARC
  5
A2
330
2
100
AcDbEntity
  8
0
100
AcDbCircle
 10
2654.568010717982
 20
1272.853664551344
 30
0.0
 40
0.0037537481845837
100
AcDbArc
 50
42.11966010050331
 51
98.93237613411066
  0
ELLIPSE
  5
A3
330
2
100
AcDbEntity
  8
0
100
AcDbEllipse
 10
2654.516699451153
 20
1272.830629890706
 30
0.0
 11
-0.0034329659176169
 21
0.0118914462618012
 31
0.0
210
0.0
220
0.0
230
1.0
 40
0.4329822643
 41
6.277372166378821
 42
7.265919552114266
  0
LWPOLYLINE
  5
A4
330
2
100
AcDbEntity
  8
0
100
AcDbPolyline
 90
        9
 70
   128
 43
0.0
 10
2649.366910965073
 20
1271.416477593787
 10
2649.366796386095
 20
1271.420340816797
 10
2649.358401489886
 20
1271.442569246869
 10
2649.337504026534
 20
1271.462632889083
 10
2649.305891659244
 20
1271.478815760255
 10
2649.2662677392
 20
1271.489733824909
 10
2649.222019567151
 20
1271.494452698097
 10
2649.176934247128
 20
1271.492569590168
 10
2649.13486603583
 20
1271.484245048031
  0
LINE
  5
A5
330
2
100
AcDbEntity
  8
0
100
AcDbLine
 10
2649.13486603583
 20
1271.484245048031
 30
0.0
 11
2648.625757959619
 21
1271.33727820562
 31
0.0
  0
LWPOLYLINE
  5
A6
330
2
100
AcDbEntity
  8
0
100
AcDbPolyline
 90
        6
 70
   128
 43
0.0
 10
2648.625757959619
 20
1271.33727820562
 10
2648.598602497004
 20
1271.32732345163
 10
2648.576398228443
 20
1271.314666842455
 10
2648.560196792198
 20
1271.299908025408
 10
2648.550766552272
 20
1271.283746279382
 10
2648.548415545451
 20
1271.269511010038
  0
LINE
  5
A7
330
2
100
AcDbEntity
  8
0
100
AcDbLine
 10
2648.551574134746
 20
1271.112759099908
 30
0.0
 11
2648.128231047914
 21
1270.853216949324
 31
0.0
  0
SPLINE
  5
A8
330
2
100
AcDbEntity
  8
0
100
AcDbSpline
210
0.0
220
0.0
230
1.0
 70
     8
 71
     3
 72
    11
 73
     7
 74
     0
 42
0.000000001
 43
0.0000000001
 40
0.0
 40
0.0
 40
0.0
 40
0.0
 40
0.2500008932459639
 40
0.5000000790638567
 40
0.7499961393327634
 40
1.0
 40
1.0
 40
1.0
 40
1.0
 10
2648.139734875355
 20
1271.008401713701
 30
0.0
 10
2648.091110427572
 20
1271.005313237339
 30
0.0
 10
2647.993861864096
 20
1270.999136305708
 30
0.0
 10
2647.858893619978
 20
1270.968756123192
 30
0.0
 10
2647.738410148126
 20
1270.925393470626
 30
0.0
 10
2647.67811908481
 20
1270.886092902624
 30
0.0
 10
2647.647973082857
 20
1270.866442312063
 30
0.0
  0
LINE
  5
A9
330
2
100
AcDbEntity
  8
0
100
AcDbLine
 10
2647.647973082861
 20
1270.866442312073
 30
0.0
 11
2647.596419521529
 21
1270.939135259328
 31
0.0
  0
SPLINE
  5
AA
330
2
100
AcDbEntity
  8
0
100
AcDbSpline
210
0.0
220
0.0
230
1.0
 70
     8
 71
     3
 72
    11
 73
     7
 74
     0
 42
0.000000001
 43
0.0000000001
 40
0.0
 40
0.0
 40
0.0
 40
0.0
 40
0.2500103791723708
 40
0.5000197207753362
 40
0.7500158856556613
 40
1.0
 40
1.0
 40
1.0
 40
1.0
 10
2648.254343926514
 20
1270.976710840406
 30
0.0
 10
2648.247788712444
 20
1270.981548128466
 30
0.0
 10
2648.234678311509
 20
1270.991222684509
 30
0.0
 10
2648.206254455062
 20
1271.001506001039
 30
0.0
 10
2648.173945422167
 20
1271.008015375648
 30
0.0
 10
2648.151138207725
 20
1271.008272936419
 30
0.0
 10
2648.139734875355
 20
1271.008401713701
 30
0.0
  0
LINE
  5
AB
330
2
100
AcDbEntity
  8
0
100
AcDbLine
 10
2648.25434392651
 20
1270.976710840403
 30
0.0
 11
2648.309177767394
 21
1271.047697664838
 31
0.0
  0
LINE
  5
AC
330
2
100
AcDbEntity
  8
0
100
AcDbLine
 10
2648.285300495203
 20
1270.949512676295
 30
0.0
 11
2648.25434392651
 21
1270.976710840403
 31
0.0
  0
LINE
  5
AD
330
2
100
AcDbEntity
  8
0
100
AcDbLine
 10
2647.64269617144
 20
1270.800143342397
 30
0.0
 11
2647.715082477136
 21
1270.733951236275
 31
0.0
  0
SPLINE
  5
AE
330
2
100
AcDbEntity
  8
0
100
AcDbSpline
210
0.0
220
0.0
230
1.0
 70
     8
 71
     3
 72
    11
 73
     7
 74
     0
 42
0.000000001
 43
0.0000000001
 40
0.0
 40
0.0
 40
0.0
 40
0.0
 40
0.2499850155494474
 40
0.4999820816783239
 40
0.7499867232907494
 40
1.0
 40
1.0
 40
1.0
 40
1.0
 10
2647.647973082857
 20
1270.866442312063
 30
0.0
 10
2647.642343366627
 20
1270.861396503502
 30
0.0
 10
2647.631083662784
 20
1270.851304643145
 30
0.0
 10
2647.625502965389
 20
1270.83385776906
 30
0.0
 10
2647.628288649784
 20
1270.816172688374
 30
0.0
 10
2647.637893608932
 20
1270.805486519231
 30
0.0
 10
2647.642696171442
 20
1270.800143342387
 30
0.0
  0
LINE
  5
AF
330
2
100
AcDbEntity
  8
0
100
AcDbLine
 10
2647.596419521529
 20
1270.991774513996
 30
0.0
 11
2647.596419521529
 21
1270.939135259328
 31
0.0
  0
LINE
  5
B0
330
2
100
AcDbEntity
  8
0
100
AcDbLine
 10
2648.309177767394
 20
1271.101989648203
 30
0.0
 11
2648.309169007487
 21
1271.10199723451
 31
0.0
  0
LINE
  5
B1
330
2
100
AcDbEntity
  8
0
100
AcDbLine
 10
2648.309177767394
 20
1271.101989648203
 30
0.0
 11
2648.309177767394
 21
1271.047697664838
 31
0.0
  0
LINE
  5
B2
330
2
100
AcDbEntity
  8
0
100
AcDbLine
 10
2648.309157375197
 20
1271.102922308722
 30
0.0
 11
2648.309169007487
 21
1271.10199723451
 31
0.0
  0
LINE
  5
B3
330
2
100
AcDbEntity
  8
0
100
AcDbLine
 10
2648.137966853973
 20
1271.178431223
 30
0.0
 11
2648.138051195579
 21
1271.178419552034
 31
0.0
  0
LWPOLYLINE
  5
B4
330
2
100
AcDbEntity
  8
0
100
AcDbPolyline
 90
        9
 70
   128
 43
0.0
 10
2647.596419521529
 20
1270.991774513996
 10
2647.596416990048
 20
1270.991773017934
 10
2647.596416026873
 20
1270.991772007854
 10
2647.596413495392
 20
1270.991770511793
 10
2647.596412532217
 20
1270.991769501744
 10
2647.59640997193
 20
1270.991768030652
 10
2647.596409037561
 20
1270.991766995634
 10
2647.596408074386
 20
1270.991765985584
 10
2647.596405542905
 20
1270.991764489523
  0
LINE
  5
B5
330
2
100
AcDbEntity
  8
0
100
AcDbLine
 10
2647.596429751013
 20
1270.992700941447
 30
0.0
 11
2647.596405542905
 21
1270.991764489523
 31
0.0
  0
LWPOLYLINE
  5
B6
330
2
100
AcDbEntity
  8
0
100
AcDbPolyline
 90
       12
 70
   128
 43
0.0
 10
2647.825191691655
 20
1271.128314582759
 10
2647.83620604419
 20
1271.142488487052
 10
2647.884367919839
 20
1271.184197390231
 10
2647.950466915876
 20
1271.219228098729
 10
2648.030943467266
 20
1271.245693190379
 10
2648.121455820494
 20
1271.262165023518
 10
2648.217127532638
 20
1271.267756467197
 10
2648.312796884186
 20
1271.262164934193
 10
2648.403310348111
 20
1271.245693013895
 10
2648.483786592976
 20
1271.219228232763
 10
2648.549886667038
 20
1271.184197175226
 10
2648.55013730069
 20
1271.184028069089
  0
LINE
  5
B7
330
2
100
AcDbEntity
  8
0
100
AcDbLine
 10
2647.64269617144
 20
1270.800143342397
 30
0.0
 11
2647.58843257258
 21
1270.839636448696
 31
0.0
  0
LINE
  5
B8
330
2
100
AcDbEntity
  8
0
100
AcDbLine
 10
2647.706663713689
 20
1270.731520940291
 30
0.0
 11
2647.58843257258
 21
1270.839636448696
 31
0.0
  0
LWPOLYLINE
  5
B9
330
2
100
AcDbEntity
  8
0
100
AcDbPolyline
 90
       13
 70
   128
 43
0.0
 10
2647.876800157807
 20
1271.276408339098
 10
2647.888379346428
 20
1271.318737062266
 10
2647.922380805291
 20
1271.359779619977
 10
2647.976466594016
 20
1271.39502306936
 10
2648.046954400511
 20
1271.422066641936
 10
2648.129039145485
 20
1271.439066971169
 10
2648.217127081899
 20
1271.444865541073
 10
2648.30521400944
 20
1271.439066864734
 10
2648.387299659574
 20
1271.422066896885
 10
2648.457786391108
 20
1271.395023109954
 10
2648.511874462151
 20
1271.359779586283
 10
2648.545874000265
 20
1271.318737002675
 10
2648.555424748771
 20
1271.293324052469
  0
LINE
  5
BA
330
2
100
AcDbEntity
  8
0
100
AcDbLine
 10
2613.888773977766
 20
1261.264916110328
 30
0.0
 11
2613.839269338658
 21
1261.307788385404
 31
0.0
  0
ARC
  5
BB
330
2
100
AcDbEntity
  8
0
100
AcDbCircle
 10
2613.703567804804
 20
1261.097737048397
 30
0.0
 40
0.2500729302738924
100
AcDbArc
 50
57.13592909279868
 51
107.6025623906128
  0
ARC
  5
BC
330
2
100
AcDbEntity
  8
0
100
AcDbCircle
 10
2613.703567804804
 20
1261.065582798433
 30
0.0
 40
0.2500729302738647
100
AcDbArc
 50
57.13592909270474
 51
107.6025623906128
  0
LINE
  5
BD
330
2
100
AcDbEntity
  8
0
100
AcDbLine
 10
2613.627942620006
 20
1261.303946599944
 30
0.0
 11
2613.467172068853
 21
1261.257536139463
 31
0.0
  0
LINE
  5
BE
330
2
100
AcDbEntity
  8
0
100
AcDbLine
 10
2613.511359010782
 20
1261.219269125238
 30
0.0
 11
2613.467172068853
 21
1261.257536139463
 31
0.0
  0
LINE
  5
BF
330
2
100
AcDbEntity
  8
0
100
AcDbLine
 10
2613.627942620006
 20
1261.336100849938
 30
0.0
 11
2613.467172068853
 21
1261.289690389427
 31
0.0
  0
LINE
  5
C0
330
2
100
AcDbEntity
  8
0
100
AcDbLine
 10
2613.467172068853
 20
1261.289690389427
 30
0.0
 11
2613.467172068853
 21
1261.257536139463
 31
0.0
  0
LWPOLYLINE
  5
C1
330
2
100
AcDbEntity
  8
0
100
AcDbPolyline
 90
       10
 70
   128
 43
0.0
 10
2613.642526024736
 20
1261.339811101579
 10
2613.696658007785
 20
1261.365019027899
 10
2613.776601680622
 20
1261.388096778423
 10
2613.865511437291
 20
1261.400508759415
 10
2613.957802834783
 20
1261.401475677544
 10
2614.047673877501
 20
1261.390935928376
 10
2614.129480328013
 20
1261.369552522403
 10
2614.198079196542
 20
1261.338668268413
 10
2614.249163125145
 20
1261.300224582195
 10
2614.252034310507
 20
1261.297267793942
  0
LWPOLYLINE
  5
C2
330
2
100
AcDbEntity
  8
0
100
AcDbPolyline
 90
       12
 70
   128
 43
0.0
 10
2613.615131281892
 20
1261.407442078377
 10
2613.630203735905
 20
1261.43423639455
 10
2613.670661645868
 20
1261.471192361762
 10
2613.729561715158
 20
1261.50132045167
 10
2613.802533973916
 20
1261.522385728285
 10
2613.88416579382
 20
1261.532825700425
 10
2613.968405958828
 20
1261.531866966774
 10
2614.049004121236
 20
1261.51957986457
 10
2614.119982565866
 20
1261.496875632284
 10
2614.176078668212
 20
1261.465438586129
 10
2614.213131144652
 20
1261.427600011361
 10
2614.223485405795
 20
1261.407442404612
  0
LWPOLYLINE
  5
C3
330
2
100
AcDbEntity
  8
0
100
AcDbPolyline
 90
        9
 70
   128
 43
0.0
 10
2615.06909330334
 20
1261.515550463961
 10
2615.068977127251
 20
1261.519413225929
 10
2615.060583828155
 20
1261.541642117075
 10
2615.039686364802
 20
1261.561705759258
 10
2615.008073997512
 20
1261.57788863043
 10
2614.968448480356
 20
1261.588806234042
 10
2614.924201905419
 20
1261.593525568303
 10
2614.879116585396
 20
1261.591642460374
 10
2614.837048374098
 20
1261.583317918236
  0
LINE
  5
C4
330
2
100
AcDbEntity
  8
0
100
AcDbLine
 10
2614.837048374098
 20
1261.583317918236
 30
0.0
 11
2614.327940297918
 21
1261.436351075795
 31
0.0
  0
LWPOLYLINE
  5
C5
330
2
100
AcDbEntity
  8
0
100
AcDbPolyline
 90
        6
 70
   128
 43
0.0
 10
2614.327940297918
 20
1261.436351075795
 10
2614.300784835303
 20
1261.426396321836
 10
2614.278580566711
 20
1261.413739712661
 10
2614.262379130466
 20
1261.398980895583
 10
2614.252947293428
 20
1261.382818688545
 10
2614.250596286607
 20
1261.368583419201
  0
LINE
  5
C6
330
2
100
AcDbEntity
  8
0
100
AcDbLine
 10
2614.253756473014
 20
1261.211831970082
 30
0.0
 11
2613.83041178907
 21
1260.952289358456
 31
0.0
  0
SPLINE
  5
C7
330
2
100
AcDbEntity
  8
0
100
AcDbSpline
210
0.0
220
0.0
230
1.0
 70
     8
 71
     3
 72
    11
 73
     7
 74
     0
 42
0.000000001
 43
0.0000000001
 40
0.0
 40
0.0
 40
0.0
 40
0.0
 40
0.2499996877628571
 40
0.4999979185857985
 40
0.7499950959270063
 40
1.0
 40
1.0
 40
1.0
 40
1.0
 10
2613.835000563786
 20
1261.107193850361
 30
0.0
 10
2613.785498977224
 20
1261.103737793302
 30
0.0
 10
2613.686496092585
 20
1261.096825699325
 30
0.0
 10
2613.549941263636
 20
1261.064586426895
 30
0.0
 10
2613.428969111566
 20
1261.018987275977
 30
0.0
 10
2613.369655790218
 20
1260.978048230587
 30
0.0
 10
2613.339998671247
 20
1260.957578391567
 30
0.0
  0
SPLINE
  5
C8
330
2
100
AcDbEntity
  8
0
100
AcDbSpline
210
0.0
220
0.0
230
1.0
 70
     8
 71
     3
 72
    11
 73
     7
 74
     0
 42
0.000000001
 43
0.0000000001
 40
0.0
 40
0.0
 40
0.0
 40
0.0
 40
0.250544217639273
 40
0.500582642620902
 40
0.7504600028093888
 40
1.0
 40
1.0
 40
1.0
 40
1.0
 10
2613.950899911694
 20
1261.075888900211
 30
0.0
 10
2613.944202807865
 20
1261.080736484851
 30
0.0
 10
2613.930822120159
 20
1261.090421867944
 30
0.0
 10
2613.901999074121
 20
1261.10062692743
 30
0.0
 10
2613.869380478976
 20
1261.106995790054
 30
0.0
 10
2613.846455373446
 20
1261.107127859997
 30
0.0
 10
2613.835000563786
 20
1261.107193850361
 30
0.0
  0
LINE
  5
C9
330
2
100
AcDbEntity
  8
0
100
AcDbLine
 10
2613.984634003723
 20
1261.046839132538
 30
0.0
 11
2613.950899911698
 21
1261.075888900196
 31
0.0
  0
LINE
  5
CA
330
2
100
AcDbEntity
  8
0
100
AcDbLine
 10
2613.338240054534
 20
1260.891031068901
 30
0.0
 11
2613.408488659513
 21
1260.830490648496
 31
0.0
  0
SPLINE
  5
CB
330
2
100
AcDbEntity
  8
0
100
AcDbSpline
210
0.0
220
0.0
230
1.0
 70
     8
 71
     3
 72
    11
 73
     7
 74
     0
 42
0.000000001
 43
0.0000000001
 40
0.0
 40
0.0
 40
0.0
 40
0.0
 40
0.2505146604252857
 40
0.500565601333704
 40
0.7504606539758734
 40
1.0
 40
1.0
 40
1.0
 40
1.0
 10
2613.339998671247
 20
1260.957578391567
 30
0.0
 10
2613.334629399603
 20
1260.9524271716
 30
0.0
 10
2613.323900795196
 20
1260.942134266921
 30
0.0
 10
2613.319267039842
 20
1260.924554666198
 30
0.0
 10
2613.323004106208
 20
1260.906880453267
 30
0.0
 10
2613.333163817064
 20
1260.896311687923
 30
0.0
 10
2613.338240054523
 20
1260.891031068889
 30
0.0
  0
LINE
  5
CC
330
2
100
AcDbEntity
  8
0
100
AcDbLine
 10
2613.832530008597
 20
1261.27661163138
 30
0.0
 11
2613.832629412114
 21
1261.276600881263
 31
0.0
  0
ARC
  5
CD
330
2
100
AcDbEntity
  8
0
100
AcDbCircle
 10
2613.937206103466
 20
1260.631081304874
 30
0.0
 40
0.6470879232633349
100
AcDbArc
 50
62.13871955269631
 51
92.35019022190357
  0
LINE
  5
CE
330
2
100
AcDbEntity
  8
0
100
AcDbLine
 10
2613.338240054534
 20
1260.891031068901
 30
0.0
 11
2613.285279881695
 21
1260.929476263061
 31
0.0
  0
LINE
  5
CF
330
2
100
AcDbEntity
  8
0
100
AcDbLine
 10
2613.402236485369
 20
1260.828685780479
 30
0.0
 11
2613.285279881695
 21
1260.929476263061
 31
0.0
  0
ELLIPSE
  5
D0
330
2
100
AcDbEntity
  8
0
100
AcDbEllipse
 10
2654.208873380336
 20
1270.631254899188
 30
0.0
 11
-0.0157588459193471
 21
0.0534171647633329
 31
0.0
210
0.0
220
0.0
230
1.0
 40
0.4087260198
 41
0.980989060529882
 42
2.550567412154641
  0
ELLIPSE
  5
D1
330
2
100
AcDbEntity
  8
0
100
AcDbEllipse
 10
2654.126867174654
 20
1270.606646038719
 30
0.0
 11
-0.0154337235352587
 21
0.0535142031764577
 31
0.0
210
0.0
220
0.0
230
1.0
 40
0.4334997358
 41
0.9837454725854364
 42
2.553323824208189
  0
LINE
  5
D2
330
2
100
AcDbEntity
  8
0
100
AcDbLine
 10
2654.181964212911
 20
1272.595321415841
 30
0.0
 11
2654.181964212911
 21
1270.655612789929
 31
0.0
  0
LINE
  5
D3
330
2
100
AcDbEntity
  8
0
100
AcDbLine
 10
2654.099004281745
 20
1270.630717829386
 30
0.0
 11
2654.099004281745
 21
1272.576105901854
 31
0.0
  0
LINE
  5
D4
330
2
100
AcDbEntity
  8
0
100
AcDbLine
 10
2655.298381247618
 20
1271.278970643497
 30
0.0
 11
2654.988977274795
 21
1271.54692234397
 31
0.0
  0
LWPOLYLINE
  5
D5
330
2
100
AcDbEntity
  8
0
100
AcDbPolyline
 90
        9
 70
   128
 43
0.0
 10
2655.39836359615
 20
1271.365557847342
 10
2655.39644246736
 20
1271.333436987081
 10
2655.390752877459
 20
1271.305877966069
 10
2655.381513521596
 20
1271.283939834807
 10
2655.369079435484
 20
1271.268465845932
 10
2655.353928466375
 20
1271.260050451276
 10
2655.336642831308
 20
1271.25901724158
 10
2655.317886842564
 20
1271.26540579543
 10
2655.298381247618
 20
1271.278970643497
  0
LINE
  5
D6
330
2
100
AcDbEntity
  8
0
100
AcDbLine
 10
2655.39836359615
 20
1271.593172870068
 30
0.0
 11
2655.39836359615
 21
1271.365557847342
 31
0.0
  0
LINE
  5
D7
330
2
100
AcDbEntity
  8
0
100
AcDbLine
 10
2654.888994926263
 20
1271.806684055353
 30
0.0
 11
2654.888994926263
 21
1272.034299078078
 31
0.0
  0
ARC
  5
D8
330
2
100
AcDbEntity
  8
0
100
AcDbCircle
 10
2655.268078266614
 20
1271.803470857771
 30
0.0
 40
0.3790969580027047
100
AcDbArc
 50
179.5143594279023
 51
222.5890968238108
  0
LINE
  5
D9
330
2
100
AcDbEntity
  8
0
100
AcDbLine
 10
2656.025843859637
 20
1269.010564196308
 30
0.0
 11
2654.209793637901
 21
1270.583309822877
 31
0.0
  0
LINE
  5
DA
330
2
100
AcDbEntity
  8
0
100
AcDbLine
 10
2654.126833706735
 20
1270.558414862334
 30
0.0
 11
2655.946163016105
 21
1268.98282946258
 31
0.0
  0
ELLIPSE
  5
DB
330
2
100
AcDbEntity
  8
0
100
AcDbEllipse
 10
2654.126867174654
 20
1272.551916629475
 30
0.0
 11
-0.0154778336937991
 21
0.0535666806025182
 31
0.0
210
0.0
220
0.0
230
0.9999999999999998
 40
0.4325260765000002
 41
6.259951843209605
 42
7.265028142779377
  0
ELLIPSE
  5
DC
330
2
100
AcDbEntity
  8
0
100
AcDbEllipse
 10
2654.862361107402
 20
1272.026423472143
 30
0.0
 11
0.0199788244710639
 21
0.0236265503208868
 31
0.0
210
0.0
220
0.0
230
1.0
 40
0.7454190373000002
 41
5.560675965668481
 42
6.274400344614905
  0
ARC
  5
DD
330
2
100
AcDbEntity
  8
0
100
AcDbCircle
 10
2654.886533549999
 20
1271.803375677867
 30
0.0
 40
0.0041235584948673
100
AcDbArc
 50
2.973724352895276
 51
53.35138331699567
  0
ARC
  5
DE
330
2
100
AcDbEntity
  8
0
100
AcDbCircle
 10
2655.141727246798
 20
1271.765726815355
 30
0.0
 40
0.2074770774081601
100
AcDbArc
 50
179.5143497827119
 51
222.5891058311916
  0
ARC
  5
DF
330
2
100
AcDbEntity
  8
0
100
AcDbCircle
 10
2654.886533549999
 20
1272.030990700592
 30
0.0
 40
0.0041235584948923
100
AcDbArc
 50
2.973724352399544
 51
53.35138331640943
  0
LINE
  5
E0
330
2
100
AcDbEntity
  8
0
100
AcDbLine
 10
2654.988977274795
 20
1271.6253196086
 30
0.0
 11
2655.298381247618
 21
1271.357367908127
 31
0.0
  0
LINE
  5
E1
330
2
100
AcDbEntity
  8
0
100
AcDbLine
 10
2654.934257622544
 20
1271.995100433279
 30
0.0
 11
2654.934257622544
 21
1271.767485410522
 31
0.0
  0
LINE
  5
E2
330
2
100
AcDbEntity
  8
0
100
AcDbLine
 10
2655.353100899899
 20
1271.404756492142
 30
0.0
 11
2655.353100899899
 21
1271.632371514868
 31
0.0
  0
LWPOLYLINE
  5
E3
330
2
100
AcDbEntity
  8
0
100
AcDbPolyline
 90
        9
 70
   128
 43
0.0
 10
2655.298381247618
 20
1271.357367908127
 10
2655.309056522598
 20
1271.349943961024
 10
2655.319321551447
 20
1271.346447548313
 10
2655.328781864481
 20
1271.347013064871
 10
2655.337073882226
 20
1271.351618687539
 10
2655.343878977434
 20
1271.360087573162
 10
2655.348935620665
 20
1271.372094109538
 10
2655.352049480263
 20
1271.387176929606
 10
2655.353100899899
 20
1271.404756492142
  0
ELLIPSE
  5
E4
330
2
100
AcDbEntity
  8
0
100
AcDbEllipse
 10
2654.907299749766
 20
1271.987505466252
 30
0.0
 11
0.0205387363695493
 21
0.023141509923852
 31
0.0
210
0.0
220
0.0
230
1.0
 40
0.7544869248999998
 41
5.578633561701715
 42
7.084392171655
  0
ELLIPSE
  5
E5
330
2
100
AcDbEntity
  8
0
100
AcDbEllipse
 10
2654.89183661998
 20
1272.000896929464
 30
0.0
 11
0.0314941589646663
 21
0.0134144401955375
 31
0.0
210
0.0
220
0.0
230
1.0
 40
0.2231835507
 41
0.9006318172131202
 42
0.9307629490118738
  0
ELLIPSE
  5
E6
330
2
100
AcDbEntity
  8
0
100
AcDbEllipse
 10
2655.326467076985
 20
1271.624495912459
 30
0.0
 11
0.0199788244710287
 21
0.0236265503208868
 31
0.0
210
0.0
220
0.0
230
1.0
 40
0.7454190373000003
 41
5.560675965668396
 42
6.274400344613094
  0
LINE
  5
E7
330
2
100
AcDbEntity
  8
0
100
AcDbLine
 10
2654.890652431259
 20
1272.010278637952
 30
0.0
 11
2654.908244503246
 21
1272.014546162268
 31
0.0
  0
ARC
  5
E8
330
2
100
AcDbEntity
  8
0
100
AcDbCircle
 10
2655.350639502473
 20
1271.629063107772
 30
0.0
 40
0.0041235948936346
100
AcDbArc
 50
2.973936770801314
 51
53.35139332239954
  0
ELLIPSE
  5
E9
330
2
100
AcDbEntity
  8
0
100
AcDbEllipse
 10
2655.946128628235
 20
1269.031119403785
 30
0.0
 11
-0.0154778336937991
 21
0.0535666806025357
 31
0.0
210
0.0
220
0.0
230
1.0
 40
0.4325260765
 41
2.553857137566239
 42
3.164826117560153
  0
ELLIPSE
  5
EA
330
2
100
AcDbEntity
  8
0
100
AcDbEllipse
 10
2655.371405719349
 20
1271.585577906537
 30
0.0
 11
0.0205387363695845
 21
0.0231415099238696
 31
0.0
210
0.0
220
0.0
230
1.0
 40
0.7544869249
 41
5.578633561701646
 42
7.075573793606567
  0
LINE
  5
EB
330
2
100
AcDbEntity
  8
0
100
AcDbLine
 10
2656.044793648421
 20
1271.043327783189
 30
0.0
 11
2656.045164179488
 21
1271.04301675094
 31
0.0
  0
ELLIPSE
  5
EC
330
2
100
AcDbEntity
  8
0
100
AcDbEllipse
 10
2655.355927503087
 20
1271.598982435044
 30
0.0
 11
0.0315048906106617
 21
0.0134059367610686
 31
0.0
210
0.0
220
0.0
230
1.0
 40
0.222615835
 41
0.8916351129878663
 42
0.9305846228390631
  0
LINE
  5
ED
330
2
100
AcDbEntity
  8
0
100
AcDbLine
 10
2655.354758956656
 20
1271.608347058245
 30
0.0
 11
2655.372354251704
 21
1271.612615329988
 31
0.0
  0
LINE
  5
EE
330
2
100
AcDbEntity
  8
0
100
AcDbLine
 10
2608.037431233415
 20
1255.16883719294
 30
0.0
 11
2608.037431233415
 21
1255.178370781375
 31
0.0
  0
ELLIPSE
  5
EF
330
2
100
AcDbEntity
  8
0
100
AcDbEllipse
 10
2608.009568340505
 20
1255.19302641071
 30
0.0
 11
-0.0154778336938167
 21
0.0535666806025357
 31
0.0
210
0.0
220
0.0
230
0.9999999999999998
 40
0.4325260765
 41
2.553857137564314
 42
4.123435489189337
  0
LINE
  5
F0
330
2
100
AcDbEntity
  8
0
100
AcDbLine
 10
2608.009601808424
 20
1255.144736203943
 30
0.0
 11
2606.190272499055
 21
1256.720321603696
 31
0.0
  0
ELLIPSE
  5
F1
330
2
100
AcDbEntity
  8
0
100
AcDbEllipse
 10
2606.190306886924
 20
1256.768553045643
 30
0.0
 11
-0.0154337235352763
 21
0.0535142031764401
 31
0.0
210
0.0
220
0.0
230
1.0
 40
0.4334997358
 41
0.9837454725842636
 42
2.553323824208244
  0
LINE
  5
F2
330
2
100
AcDbEntity
  8
0
100
AcDbLine
 10
2606.162443074064
 20
1256.792624570749
 30
0.0
 11
2606.162443074064
 21
1258.738012643217
 31
0.0
  0
ELLIPSE
  5
F3
330
2
100
AcDbEntity
  8
0
100
AcDbEllipse
 10
2606.190306886924
 20
1258.713823636399
 30
0.0
 11
-0.0154778336937991
 21
0.0535666806025357
 31
0.0
210
0.0
220
0.0
230
1.0
 40
0.4325260765
 41
5.695449791155561
 42
7.265028142778791
  0
LINE
  5
F4
330
2
100
AcDbEntity
  8
0
100
AcDbLine
 10
2606.190272499055
 20
1258.762113582337
 30
0.0
 11
2606.203581452301
 21
1258.750587690718
 31
0.0
  0
LINE
  5
F5
330
2
100
AcDbEntity
  8
0
100
AcDbLine
 10
2606.091641866708
 20
1256.701615361543
 30
0.0
 11
2606.091271335671
 21
1256.701926244072
 31
0.0
  0
LINE
  5
F6
330
2
100
AcDbEntity
  8
0
100
AcDbLine
 10
2606.210897796279
 20
1256.760196641115
 30
0.0
 11
2654.093866158368
 21
1270.582818977844
 31
0.0
  0
ARC
  5
F7
330
2
100
AcDbEntity
  8
0
100
AcDbCircle
 10
2606.245445292926
 20
1256.791952842766
 30
0.0
 40
0.0469253222540204
100
AcDbArc
 50
179.5140993740013
 51
222.5893494966953
  0
ARC
  5
F8
330
2
100
AcDbEntity
  8
0
100
AcDbCircle
 10
2654.128413655045
 20
1270.614575179495
 30
0.0
 40
0.0469253222539935
100
AcDbArc
 50
179.5140993740013
 51
222.5893494968058
  0
ARC
  5
F9
330
2
100
AcDbEntity
  8
0
100
AcDbCircle
 10
2655.93087227675
 20
1269.001051627697
 30
0.0
 40
0.0069834323048267
100
AcDbArc
 50
220.1918642467019
 51
286.4755354989979
  0
LINE
  5
FA
330
2
100
AcDbEntity
  8
0
100
AcDbLine
 10
2655.92553771888
 20
1268.99654487507
 30
0.0
 11
2654.093866158368
 21
1270.582818977844
 31
0.0
  0
LINE
  5
FB
330
2
100
AcDbEntity
  8
0
100
AcDbLine
 10
2654.081490020218
 20
1270.614973127994
 30
0.0
 11
2654.081490020218
 21
1272.560302506434
 31
0.0
  0
LWPOLYLINE
  5
FC
330
2
100
AcDbEntity
  8
0
100
AcDbPolyline
 90
        9
 70
   128
 43
0.0
 10
2654.081490020218
 20
1272.560302506434
 10
2654.081727805654
 20
1272.564278528296
 10
2654.082432056235
 20
1272.567689919485
 10
2654.083575743076
 20
1272.570405466942
 10
2654.085114893718
 20
1272.572320908886
 10
2654.086990321158
 20
1272.573362578305
 10
2654.08912998662
 20
1272.573490497359
 10
2654.091451708385
 20
1272.572699675081
 10
2654.093866158368
 20
1272.571020556484
  0
LINE
  5
FD
330
2
100
AcDbEntity
  8
0
100
AcDbLine
 10
2654.093866158368
 20
1272.571020556484
 30
0.0
 11
2654.099003038343
 21
1272.566571887957
 31
0.0
  0
LINE
  5
FE
330
2
100
AcDbEntity
  8
0
100
AcDbLine
 10
2606.198521658099
 20
1256.792350791265
 30
0.0
 11
2606.198521658099
 21
1258.737680169705
 31
0.0
  0
LINE
  5
FF
330
2
100
AcDbEntity
  8
0
100
AcDbLine
 10
2608.042569356761
 20
1255.17392253831
 30
0.0
 11
2606.210897796279
 21
1256.760196641115
 31
0.0
  0
LWPOLYLINE
  5
100
330
2
100
AcDbEntity
  8
0
100
AcDbPolyline
 90
        7
 70
   128
 43
0.0
 10
2606.198521658099
 20
1258.737680169705
 10
2606.198759443535
 20
1258.741656191567
 10
2606.199463694146
 20
1258.745067582756
 10
2606.200607380989
 20
1258.747783130212
 10
2606.20214653163
 20
1258.749698572157
 10
2606.204021959039
 20
1258.750740241576
 10
2606.204032736044
 20
1258.750743335988
  0
ARC
  5
101
330
2
100
AcDbEntity
  8
0
100
AcDbCircle
 10
2608.048167702067
 20
1255.179089837369
 30
0.0
 40
0.0076185595428631
100
AcDbArc
 50
222.7071556451963
 51
279.5708441185875
  0
LINE
  5
102
330
2
100
AcDbEntity
  8
0
100
AcDbLine
 10
2654.510511567288
 20
1272.372064919484
 30
0.0
 11
2654.510511567288
 21
1272.62828769491
 31
0.0
  0
LINE
  5
103
330
2
100
AcDbEntity
  8
0
100
AcDbLine
 10
2654.510511567288
 20
1272.787148531248
 30
0.0
 11
2654.510511567288
 21
1272.835989692846
 31
0.0
  0
LWPOLYLINE
  5
104
330
2
100
AcDbEntity
  8
0
100
AcDbPolyline
 90
        7
 70
   128
 43
0.0
 10
2654.513267135097
 20
1272.842521275957
 10
2654.513261775415
 20
1272.842519691344
 10
2654.51232406168
 20
1272.84199884415
 10
2654.511554457554
 20
1272.841041166866
 10
2654.510982642954
 20
1272.8396833557
 10
2654.510630517648
 20
1272.837977672574
 10
2654.510511567288
 20
1272.835989692846
  0
LINE
  5
105
330
2
100
AcDbEntity
  8
0
100
AcDbLine
 10
2649.406686952686
 20
1271.309744485161
 30
0.0
 11
2649.432629654578
 21
1271.229764403055
 31
0.0
  0
ARC
  5
106
330
2
100
AcDbEntity
  8
0
100
AcDbCircle
 10
2649.418870416066
 20
1271.313800269048
 30
0.0
 40
0.0128408007305281
100
AcDbArc
 50
180.8404653399017
 51
198.4122150232928
  0
LINE
  5
107
330
2
100
AcDbEntity
  8
0
100
AcDbLine
 10
2649.406030996849
 20
1271.313611915539
 30
0.0
 11
2649.406030996849
 21
1271.362453077106
 31
0.0
  0
LWPOLYLINE
  5
108
330
2
100
AcDbEntity
  8
0
100
AcDbPolyline
 90
        7
 70
   128
 43
0.0
 10
2649.406030996849
 20
1271.362453077106
 10
2649.406149947179
 20
1271.364441056834
 10
2649.406502072483
 20
1271.366146739959
 10
2649.407073887084
 20
1271.367504551125
 10
2649.407843491241
 20
1271.368462228441
 10
2649.408781204945
 20
1271.368983075604
 10
2649.408786564626
 20
1271.368984660247
  0
LINE
  5
109
330
2
100
AcDbEntity
  8
0
100
AcDbLine
 10
2646.753111951019
 20
1270.456254269345
 30
0.0
 11
2646.727169249128
 21
1270.536234351419
 31
0.0
  0
ARC
  5
10A
330
2
100
AcDbEntity
  8
0
100
AcDbCircle
 10
2646.739352712508
 20
1270.540290135307
 30
0.0
 40
0.0128408007321801
100
AcDbArc
 50
180.8404653403967
 51
198.4122150216079
  0
LINE
  5
10B
330
2
100
AcDbEntity
  8
0
100
AcDbLine
 10
2646.72651329326
 20
1270.588942943395
 30
0.0
 11
2646.72651329326
 21
1270.540101781828
 31
0.0
  0
LWPOLYLINE
  5
10C
330
2
100
AcDbEntity
  8
0
100
AcDbPolyline
 90
        9
 70
   128
 43
0.0
 10
2646.732701419977
 20
1270.594301937217
 10
2646.73149416618
 20
1270.595141509
 10
2646.730333305313
 20
1270.595536920139
 10
2646.729263501387
 20
1270.595472941894
 10
2646.728325787652
 20
1270.594952094699
 10
2646.727556183526
 20
1270.593994417415
 10
2646.726984368926
 20
1270.592636606249
 10
2646.72663224362
 20
1270.590930923123
 10
2646.72651329326
 20
1270.588942943395
  0
LINE
  5
10D
330
2
100
AcDbEntity
  8
0
100
AcDbLine
 10
2646.738889489082
 20
1270.588942912208
 30
0.0
 11
2646.732701419977
 21
1270.594301937217
 31
0.0
  0
ARC
  5
10E
330
2
100
AcDbEntity
  8
0
100
AcDbCircle
 10
2646.72161554766
 20
1270.573064736816
 30
0.0
 40
0.0234628537253235
100
AcDbArc
 50
359.5142397066122
 51
42.58916444320683
  0
LINE
  5
10F
330
2
100
AcDbEntity
  8
0
100
AcDbLine
 10
2646.745077558157
 20
1270.572865818398
 30
0.0
 11
2646.745077558157
 21
1270.535096231126
 31
0.0
  0
ARC
  5
110
330
2
100
AcDbEntity
  8
0
100
AcDbCircle
 10
2646.757916947455
 20
1270.535284463442
 30
0.0
 40
0.0128407690111722
100
AcDbArc
 50
180.8399265203921
 51
198.4113987298096
  0
LINE
  5
111
330
2
100
AcDbEntity
  8
0
100
AcDbLine
 10
2646.745733456352
 20
1270.531228863123
 30
0.0
 11
2646.768602121661
 21
1270.46072589642
 31
0.0
  0
LINE
  5
112
330
2
100
AcDbEntity
  8
0
100
AcDbLine
 10
2615.108869290954
 20
1261.408817355335
 30
0.0
 11
2615.134811992846
 21
1261.328837273261
 31
0.0
  0
ARC
  5
113
330
2
100
AcDbEntity
  8
0
100
AcDbCircle
 10
2615.121052754334
 20
1261.412873139223
 30
0.0
 40
0.0128408007304539
100
AcDbArc
 50
180.8404653397975
 51
198.4122150231981
  0
LINE
  5
114
330
2
100
AcDbEntity
  8
0
100
AcDbLine
 10
2615.108213335118
 20
1261.412684785745
 30
0.0
 11
2615.108213335118
 21
1261.461525947312
 31
0.0
  0
LWPOLYLINE
  5
115
330
2
100
AcDbEntity
  8
0
100
AcDbPolyline
 90
        7
 70
   128
 43
0.0
 10
2615.108213335118
 20
1261.461525947312
 10
2615.108332285446
 20
1261.463513927039
 10
2615.108684410752
 20
1261.465219610165
 10
2615.109256225352
 20
1261.466577421331
 10
2615.110025829509
 20
1261.467535098615
 10
2615.110963543213
 20
1261.46805594581
 10
2615.110968902895
 20
1261.468057530453
  0
LINE
  5
116
330
2
100
AcDbEntity
  8
0
100
AcDbLine
 10
2612.455294289288
 20
1260.55532713952
 30
0.0
 11
2612.429351587396
 21
1260.635307221625
 31
0.0
  0
ARC
  5
117
330
2
100
AcDbEntity
  8
0
100
AcDbCircle
 10
2612.441535050776
 20
1260.639363005513
 30
0.0
 40
0.0128408007318853
100
AcDbArc
 50
180.8404653412959
 51
198.4122150227985
  0
LINE
  5
118
330
2
100
AcDbEntity
  8
0
100
AcDbLine
 10
2612.428695631559
 20
1260.68801581357
 30
0.0
 11
2612.428695631559
 21
1260.639174652004
 31
0.0
  0
LWPOLYLINE
  5
119
330
2
100
AcDbEntity
  8
0
100
AcDbPolyline
 90
        9
 70
   128
 43
0.0
 10
2612.434883758245
 20
1260.693374807423
 10
2612.433676504448
 20
1260.694214379175
 10
2612.432515643581
 20
1260.694609790314
 10
2612.431445839656
 20
1260.694545812068
 10
2612.430508125951
 20
1260.694024964905
 10
2612.429738521794
 20
1260.69306728759
 10
2612.429166707193
 20
1260.691709476455
 10
2612.428814581889
 20
1260.690003793329
 10
2612.428695631559
 20
1260.68801581357
  0
LINE
  5
11A
330
2
100
AcDbEntity
  8
0
100
AcDbLine
 10
2612.44107182735
 20
1260.688015782382
 30
0.0
 11
2612.434883758245
 21
1260.693374807423
 31
0.0
  0
ARC
  5
11B
330
2
100
AcDbEntity
  8
0
100
AcDbCircle
 10
2612.423797885929
 20
1260.672137607022
 30
0.0
 40
0.0234628537251873
100
AcDbArc
 50
359.5142397064038
 51
42.58916444309639
  0
LINE
  5
11C
330
2
100
AcDbEntity
  8
0
100
AcDbLine
 10
2612.447259896426
 20
1260.671938688604
 30
0.0
 11
2612.447259896426
 21
1260.634169101332
 31
0.0
  0
ARC
  5
11D
330
2
100
AcDbEntity
  8
0
100
AcDbCircle
 10
2612.460099285723
 20
1260.634357333616
 30
0.0
 40
0.0128407690125045
100
AcDbArc
 50
180.8399265217993
 51
198.4113987295047
  0
LINE
  5
11E
330
2
100
AcDbEntity
  8
0
100
AcDbLine
 10
2612.44791579462
 20
1260.630301733329
 30
0.0
 11
2612.470784459929
 21
1260.559798766626
 31
0.0
  0
LINE
  5
11F
330
2
100
AcDbEntity
  8
0
100
AcDbLine
 10
2606.574606315475
 20
1258.945187842232
 30
0.0
 11
2606.600549017367
 21
1258.865207760127
 31
0.0
  0
ARC
  5
120
330
2
100
AcDbEntity
  8
0
100
AcDbCircle
 10
2606.586789778856
 20
1258.94924362612
 30
0.0
 40
0.0128408007323233
100
AcDbArc
 50
180.8404653412959
 51
198.412215022197
  0
LINE
  5
121
330
2
100
AcDbEntity
  8
0
100
AcDbLine
 10
2606.573950359607
 20
1258.997896434209
 30
0.0
 11
2606.573950359607
 21
1258.949055272611
 31
0.0
  0
LWPOLYLINE
  5
122
330
2
100
AcDbEntity
  8
0
100
AcDbPolyline
 90
        7
 70
   128
 43
0.0
 10
2606.573950359607
 20
1258.997896434209
 10
2606.574069309968
 20
1258.999884413936
 10
2606.574421435273
 20
1259.001590097062
 10
2606.574993249873
 20
1259.002947908197
 10
2606.575762853999
 20
1259.003905585513
 10
2606.576700567734
 20
1259.004426432676
 10
2606.576705927416
 20
1259.004428017319
  0
LINE
  5
123
330
2
100
AcDbEntity
  8
0
100
AcDbLine
 10
2606.520397143528
 20
1258.981654475417
 30
0.0
 11
2606.520397143528
 21
1258.842069907168
 31
0.0
  0
LINE
  5
124
330
2
100
AcDbEntity
  8
0
100
AcDbLine
 10
2655.363424426676
 20
1271.610449101791
 30
0.0
 11
2655.354758254186
 21
1271.61795422734
 31
0.0
  0
LINE
  5
125
330
2
100
AcDbEntity
  8
0
100
AcDbLine
 10
2654.899314678218
 20
1272.012379934103
 30
0.0
 11
2654.890652294966
 21
1272.019881778051
 31
0.0
  0
ELLIPSE
  5
126
330
2
100
AcDbEntity
  8
0
100
AcDbEllipse
 10
2655.600334207451
 20
1271.937510068869
 30
0.0
 11
0.0274880443392084
 21
0.0167688599559844
 31
0.0
210
0.0
220
0.0
230
1.0
 40
0.4155034736000001
 41
5.701465993776313
 42
6.415190372720814
  0
ELLIPSE
  5
127
330
2
100
AcDbEntity
  8
0
100
AcDbEllipse
 10
2655.600334207451
 20
1271.937510068869
 30
0.0
 11
0.0309380972572399
 21
0.0080568190797823
 31
0.0
210
0.0
220
0.0
230
1.0
 40
0.0468314573
 41
6.270990185080088
 42
6.794588960681115
  0
LINE
  5
128
330
2
100
AcDbEntity
  8
0
100
AcDbLine
 10
2649.13486603583
 20
1271.484245048031
 30
0.0
 11
2649.138257388595
 21
1271.144786399655
 31
0.0
  0
LINE
  5
129
330
2
100
AcDbEntity
  8
0
100
AcDbLine
 10
2648.625757959619
 20
1271.33727820562
 30
0.0
 11
2648.629149312414
 21
1270.997819557244
 31
0.0
  0
ARC
  5
12A
330
2
100
AcDbEntity
  8
0
100
AcDbCircle
 10
2648.269361330316
 20
1271.103785964851
 30
0.0
 40
0.0398054153339614
100
AcDbArc
 50
358.7567587439035
 51
48.31559728359683
  0
ARC
  5
12B
330
2
100
AcDbEntity
  8
0
100
AcDbCircle
 10
2647.635123882982
 20
1270.99399487774
 30
0.0
 40
0.038715760602413
100
AcDbArc
 50
128.6567623902046
 51
181.9152638566018
  0
LINE
  5
12C
330
2
100
AcDbEntity
  8
0
100
AcDbLine
 10
2648.403464348713
 20
1271.021956117829
 30
0.0
 11
2648.309177767394
 21
1271.101989648203
 31
0.0
  0
LINE
  5
12D
330
2
100
AcDbEntity
  8
0
100
AcDbLine
 10
2646.920926504437
 20
1270.62571352651
 30
0.0
 11
2646.93135725702
 21
1270.507709240399
 31
0.0
  0
ARC
  5
12E
330
2
100
AcDbEntity
  8
0
100
AcDbCircle
 10
2646.906035367066
 20
1270.626942781096
 30
0.0
 40
0.014941788349279
100
AcDbArc
 50
355.2809670270989
 51
61.37758822341765
  0
LINE
  5
12F
330
2
100
AcDbEntity
  8
0
100
AcDbLine
 10
2647.242822362571
 20
1270.723465910369
 30
0.0
 11
2647.247762939367
 21
1270.599047693341
 31
0.0
  0
ARC
  5
130
330
2
100
AcDbEntity
  8
0
100
AcDbCircle
 10
2647.223382727294
 20
1270.722316120626
 30
0.0
 40
0.0194736087146401
100
AcDbArc
 50
3.384911240312044
 51
48.11364301570246
  0
LINE
  5
131
330
2
100
AcDbEntity
  8
0
100
AcDbLine
 10
2614.837048374098
 20
1261.583317918236
 30
0.0
 11
2614.840439726862
 21
1261.243859269829
 31
0.0
  0
LINE
  5
132
330
2
100
AcDbEntity
  8
0
100
AcDbLine
 10
2614.327940297918
 20
1261.436351075795
 30
0.0
 11
2614.331331650683
 21
1261.096892427419
 31
0.0
  0
LINE
  5
133
330
2
100
AcDbEntity
  8
0
100
AcDbLine
 10
2612.623107245593
 20
1260.724785935642
 30
0.0
 11
2612.633539595288
 21
1260.606782110605
 31
0.0
  0
LINE
  5
134
330
2
100
AcDbEntity
  8
0
100
AcDbLine
 10
2612.800519361019
 20
1260.654985011736
 30
0.0
 11
2612.623107245593
 21
1260.724785935642
 31
0.0
  0
ARC
  5
135
330
2
100
AcDbEntity
  8
0
100
AcDbCircle
 10
2612.608219316246
 20
1260.726018137765
 30
0.0
 40
0.014938834046199
100
AcDbArc
 50
355.2686882584944
 51
61.3784432121879
  0
LINE
  5
136
330
2
100
AcDbEntity
  8
0
100
AcDbLine
 10
2612.945003103727
 20
1260.822538319532
 30
0.0
 11
2612.949945277634
 21
1260.698120563516
 31
0.0
  0
ARC
  5
137
330
2
100
AcDbEntity
  8
0
100
AcDbCircle
 10
2612.925592927143
 20
1260.821402738486
 30
0.0
 40
0.0194433664614279
100
AcDbArc
 50
3.348239454699614
 51
48.15031480159837
  0
ELLIPSE
  5
138
330
2
100
AcDbEntity
  8
0
100
AcDbEllipse
 10
2654.208873380336
 20
1272.570911242047
 30
0.0
 11
-0.0138550259641997
 21
0.0539550380824067
 31
0.0
210
0.0
220
0.0
230
1.0
 40
0.4279130417000001
 41
6.274088224272276
 42
7.278098349425383
  0
ELLIPSE
  5
139
330
2
100
AcDbEntity
  8
0
100
AcDbEllipse
 10
2656.024893446415
 20
1269.058535388172
 30
0.0
 11
-0.0170446663332454
 21
0.0530339707324552
 31
0.0
210
0.0
220
0.0
230
0.9999999999999998
 40
0.4375948954
 41
2.5411246503788
 42
3.147430624453531
  0
LINE
  5
13A
330
2
100
AcDbEntity
  8
0
100
AcDbLine
 10
2654.510511567288
 20
1272.62828769491
 30
0.0
 11
2654.288616168586
 21
1272.5642320108
 31
0.0
  0
LINE
  5
13B
330
2
100
AcDbEntity
  8
0
100
AcDbLine
 10
2654.510511028399
 20
1272.652021307987
 30
0.0
 11
2654.26806233576
 21
1272.58203239901
 31
0.0
  0
LINE
  5
13C
330
2
100
AcDbEntity
  8
0
100
AcDbLine
 10
2654.510511108195
 20
1272.783091610208
 30
0.0
 11
2649.406686952686
 21
1271.309744485161
 31
0.0
  0
LINE
  5
13D
330
2
100
AcDbEntity
  8
0
100
AcDbLine
 10
2647.564364326662
 20
1270.885316274203
 30
0.0
 11
2647.58843257258
 21
1270.839636448696
 31
0.0
  0
LINE
  5
13E
330
2
100
AcDbEntity
  8
0
100
AcDbLine
 10
2647.308179784595
 20
1270.654388003714
 30
0.0
 11
2647.309701004069
 21
1270.645556562016
 31
0.0
  0
LINE
  5
13F
330
2
100
AcDbEntity
  8
0
100
AcDbLine
 10
2613.258789207751
 20
1260.978880008315
 30
0.0
 11
2613.285279881695
 21
1260.929476263061
 31
0.0
  0
ENDSEC
  0
SECTION
  2
OBJECTS
  0
DICTIONARY
  5
9
330
0
100
AcDbDictionary
281
     1
  3
ACAD_COLOR
350
3E
  3
ACAD_GROUP
350
35
  3
ACAD_LAYOUT
350
16
  3
ACAD_MATERIAL
350
B
  3
ACAD_MLEADERSTYLE
350
41
  3
ACAD_MLINESTYLE
350
36
  3
ACAD_PLOTSETTINGS
350
37
  3
ACAD_PLOTSTYLENAME
350
8
  3
ACAD_SCALELIST
350
3F
  3
ACAD_TABLESTYLE
350
40
  3
ACAD_VISUALSTYLE
350
2B
  3
ACDB_RECOMPOSE_DATA
350
147
  3
AcDbVariableDictionary
350
140
  0
DICTIONARY
  5
1E
330
1D
100
AcDbDictionary
280
     1
281
     1
  3
ACAD_LAYERSTATES
360
1F
  0
DICTIONARY
  5
6
330
5
100
AcDbDictionary
280
     1
281
     1
  0
DICTIONARY
  5
3
330
2
100
AcDbDictionary
280
     1
281
     1
  0
DICTIONARY
  5
3E
102
{ACAD_REACTORS
330
9
102
}
330
9
100
AcDbDictionary
281
     1
  0
DICTIONARY
  5
35
102
{ACAD_REACTORS
330
9
102
}
330
9
100
AcDbDictionary
281
     1
  0
DICTIONARY
  5
16
102
{ACAD_REACTORS
330
9
102
}
330
9
100
AcDbDictionary
281
     1
  3
Model
350
15
  3
レイアウト1
350
1C
  0
DICTIONARY
  5
B
102
{ACAD_REACTORS
330
9
102
}
330
9
100
AcDbDictionary
281
     1
  3
ByBlock
350
3B
  3
ByLayer
350
38
  3
Global
350
A
  0
DICTIONARY
  5
41
102
{ACAD_REACTORS
330
9
102
}
330
9
100
AcDbDictionary
281
     1
  0
DICTIONARY
  5
36
102
{ACAD_REACTORS
330
9
102
}
330
9
100
AcDbDictionary
281
     1
  3
Standard
350
42
  0
DICTIONARY
  5
37
102
{ACAD_REACTORS
330
9
102
}
330
9
100
AcDbDictionary
281
     1
  0
ACDBDICTIONARYWDFLT
  5
8
102
{ACAD_REACTORS
330
9
102
}
330
9
100
AcDbDictionary
281
     1
  3
Normal
350
7
100
AcDbDictionaryWithDefault
340
7
  0
DICTIONARY
  5
3F
102
{ACAD_REACTORS
330
9
102
}
330
9
100
AcDbDictionary
281
     1
  3
A0
350
47
  3
A1
350
48
  3
A2
350
49
  3
A3
350
4A
  3
A4
350
4B
  3
A5
350
4C
  3
A6
350
4D
  3
A7
350
4E
  3
A8
350
4F
  3
A9
350
50
  3
B0
350
51
  3
B1
350
52
  3
B2
350
53
  3
B3
350
54
  3
B4
350
55
  3
B5
350
56
  3
B6
350
57
  0
DICTIONARY
  5
40
102
{ACAD_REACTORS
330
9
102
}
330
9
100
AcDbDictionary
281
     1
  3
Standard
350
43
  0
DICTIONARY
  5
2B
102
{ACAD_REACTORS
330
9
102
}
330
9
100
AcDbDictionary
281
     1
  3
2dWireframe
350
2A
  3
Realistic
350
45
  3
Wireframe
350
46
  0
XRECORD
  5
147
102
{ACAD_REACTORS
330
9
102
}
330
9
100
AcDbXrecord
280
     1
 90
        1
330
43
  0
DICTIONARY
  5
140
102
{ACAD_REACTORS
330
9
102
}
330
9
100
AcDbDictionary
281
     1
  3
CANNOSCALE
350
145
  3
CMLEADERSTYLE
350
142
  3
CTABLESTYLE
350
141
  3
CVIEWDETAILSTYLE
350
143
  3
CVIEWSECTIONSTYLE
350
144
  0
DICTIONARY
  5
1F
102
{ACAD_REACTORS
330
1E
102
}
330
1E
100
AcDbDictionary
281
     1
  0
LAYOUT
  5
15
102
{ACAD_XDICTIONARY
360
17
102
}
102
{ACAD_REACTORS
330
16
102
}
330
16
100
AcDbPlotSettings
  1

  2
none_device
  4
ISO_A4_(210.00_x_297.00_MM)
  6

 40
7.5
 41
20.0
 42
7.5
 43
20.0
 44
210.0
 45
297.0
 46
11.54999923706054
 47
-13.65000009536743
 48
0.0
 49
0.0
140
0.0
141
0.0
142
1.0
143
8.704084754739808
 70
 11952
 72
     1
 73
     0
 74
     0
  7

 75
     0
147
0.1148885871608098
 76
     0
 77
     2
 78
   300
148
0.0
149
0.0
100
AcDbLayout
  1
Model
 70
     1
 71
     0
 10
0.0
 20
0.0
 11
12.0
 21
9.0
 12
0.0
 22
0.0
 32
0.0
 14
0.0
 24
0.0
 34
0.0
 15
0.0
 25
0.0
 35
0.0
146
0.0
 13
0.0
 23
0.0
 33
0.0
 16
1.0
 26
0.0
 36
0.0
 17
0.0
 27
1.0
 37
0.0
 76
     0
330
2
331
29
1001
ACAD_PSEXT
1000
None
1000
None
1000
Not applicable
1000
The layout will not be plotted unless a new plotter configuration name is selected.
1070
     0
  0
LAYOUT
  5
1C
102
{ACAD_REACTORS
330
16
102
}
330
16
100
AcDbPlotSettings
  1

  2
C:\Documents and Settings\basas\Application Data\Autodesk\AutoCAD 2005\R16.1\enu\plotters\Default Windows System Printer.pc3
  4

  6

 40
0.0
 41
0.0
 42
0.0
 43
0.0
 44
0.0
 45
0.0
 46
0.0
 47
0.0
 48
0.0
 49
0.0
140
0.0
141
0.0
142
1.0
143
1.0
 70
   688
 72
     0
 73
     0
 74
     5
  7

 75
    16
147
1.0
 76
     0
 77
     2
 78
   300
148
0.0
149
0.0
100
AcDbLayout
  1
レイアウト1
 70
     1
 71
     1
 10
0.0
 20
0.0
 11
12.0
 21
9.0
 12
0.0
 22
0.0
 32
0.0
 14
0.0
 24
0.0
 34
0.0
 15
0.0
 25
0.0
 35
0.0
146
0.0
 13
0.0
 23
0.0
 33
0.0
 16
1.0
 26
0.0
 36
0.0
 17
0.0
 27
1.0
 37
0.0
 76
     0
330
19
  0
MATERIAL
  5
3B
102
{ACAD_XDICTIONARY
360
3C
102
}
102
{ACAD_REACTORS
330
B
102
}
330
B
100
AcDbMaterial
  1
ByBlock
 94
       63
  0
MATERIAL
  5
38
102
{ACAD_XDICTIONARY
360
39
102
}
102
{ACAD_REACTORS
330
B
102
}
330
B
100
AcDbMaterial
  1
ByLayer
 94
       63
  0
MATERIAL
  5
A
102
{ACAD_XDICTIONARY
360
C
102
}
102
{ACAD_REACTORS
330
B
102
}
330
B
100
AcDbMaterial
  1
Global
 43
0.0007999999797903
 43
0.0
 43
0.0
 43
0.0
 43
0.0
 43
0.0007999999797903
 43
0.0
 43
0.0
 43
0.0
 43
0.0
 43
1.0
 43
0.0
 43
0.0
 43
0.0
 43
0.0
 43
1.0
 49
0.0007999999797903
 49
0.0
 49
0.0
 49
0.0
 49
0.0
 49
0.0007999999797903
 49
0.0
 49
0.0
 49
0.0
 49
0.0
 49
1.0
 49
0.0
 49
0.0
 49
0.0
 49
0.0
 49
1.0
142
0.0007999999797903
142
0.0
142
0.0
142
0.0
142
0.0
142
0.0007999999797903
142
0.0
142
0.0
142
0.0
142
0.0
142
1.0
142
0.0
142
0.0
142
0.0
142
0.0
142
1.0
144
0.0007999999797903
144
0.0
144
0.0
144
0.0
144
0.0
144
0.0007999999797903
144
0.0
144
0.0
144
0.0
144
0.0
144
1.0
144
0.0
144
0.0
144
0.0
144
0.0
144
1.0
 94
       63
1001
ACAD
1070
    -1
1070
     3
1070
     0
1000

1071
        0
1070
     0
  0
MLINESTYLE
  5
42
102
{ACAD_REACTORS
330
36
102
}
330
36
100
AcDbMlineStyle
  2
STANDARD
 70
     0
  3

 62
   256
 51
90.0
 52
90.0
 71
     2
 49
0.5
 62
   256
  6
BYLAYER
 49
-0.5
 62
   256
  6
BYLAYER
  0
ACDBPLACEHOLDER
  5
7
102
{ACAD_REACTORS
330
8
102
}
330
8
  0
SCALE
  5
47
102
{ACAD_REACTORS
330
3F
102
}
330
3F
100
AcDbScale
 70
     0
300
1:1
140
1.0
141
1.0
290
     1
  0
SCALE
  5
48
102
{ACAD_REACTORS
330
3F
102
}
330
3F
100
AcDbScale
 70
     0
300
1:2
140
1.0
141
2.0
290
     0
  0
SCALE
  5
49
102
{ACAD_REACTORS
330
3F
102
}
330
3F
100
AcDbScale
 70
     0
300
1:4
140
1.0
141
4.0
290
     0
  0
SCALE
  5
4A
102
{ACAD_REACTORS
330
3F
102
}
330
3F
100
AcDbScale
 70
     0
300
1:5
140
1.0
141
5.0
290
     0
  0
SCALE
  5
4B
102
{ACAD_REACTORS
330
3F
102
}
330
3F
100
AcDbScale
 70
     0
300
1:8
140
1.0
141
8.0
290
     0
  0
SCALE
  5
4C
102
{ACAD_REACTORS
330
3F
102
}
330
3F
100
AcDbScale
 70
     0
300
1:10
140
1.0
141
10.0
290
     0
  0
SCALE
  5
4D
102
{ACAD_REACTORS
330
3F
102
}
330
3F
100
AcDbScale
 70
     0
300
1:16
140
1.0
141
16.0
290
     0
  0
SCALE
  5
4E
102
{ACAD_REACTORS
330
3F
102
}
330
3F
100
AcDbScale
 70
     0
300
1:20
140
1.0
141
20.0
290
     0
  0
SCALE
  5
4F
102
{ACAD_REACTORS
330
3F
102
}
330
3F
100
AcDbScale
 70
     0
300
1:30
140
1.0
141
30.0
290
     0
  0
SCALE
  5
50
102
{ACAD_REACTORS
330
3F
102
}
330
3F
100
AcDbScale
 70
     0
300
1:40
140
1.0
141
40.0
290
     0
  0
SCALE
  5
51
102
{ACAD_REACTORS
330
3F
102
}
330
3F
100
AcDbScale
 70
     0
300
1:50
140
1.0
141
50.0
290
     0
  0
SCALE
  5
52
102
{ACAD_REACTORS
330
3F
102
}
330
3F
100
AcDbScale
 70
     0
300
1:100
140
1.0
141
100.0
290
     0
  0
SCALE
  5
53
102
{ACAD_REACTORS
330
3F
102
}
330
3F
100
AcDbScale
 70
     0
300
2:1
140
2.0
141
1.0
290
     0
  0
SCALE
  5
54
102
{ACAD_REACTORS
330
3F
102
}
330
3F
100
AcDbScale
 70
     0
300
4:1
140
4.0
141
1.0
290
     0
  0
SCALE
  5
55
102
{ACAD_REACTORS
330
3F
102
}
330
3F
100
AcDbScale
 70
     0
300
8:1
140
8.0
141
1.0
290
     0
  0
SCALE
  5
56
102
{ACAD_REACTORS
330
3F
102
}
330
3F
100
AcDbScale
 70
     0
300
10:1
140
10.0
141
1.0
290
     0
  0
SCALE
  5
57
102
{ACAD_REACTORS
330
3F
102
}
330
3F
100
AcDbScale
 70
     0
300
100:1
140
100.0
141
1.0
290
     0
  0
TABLESTYLE
  5
43
102
{ACAD_XDICTIONARY
360
44
102
}
102
{ACAD_REACTORS
330
40
102
}
330
40
100
AcDbTableStyle
280
     0
  3
Standard
 70
     0
 71
     0
 40
1.5
 41
1.5
280
     0
281
     0
  7
Standard
140
4.5
170
     2
 62
     0
 63
     7
283
     0
 90
      512
 91
        0
  1

274
    -2
284
     1
 64
     0
275
    -2
285
     1
 65
     0
276
    -2
286
     1
 66
     0
277
    -2
287
     1
 67
     0
278
    -2
288
     1
 68
     0
279
    -2
289
     1
 69
     0
  7
Standard
140
6.0
170
     5
 62
     0
 63
     7
283
     0
 90
      512
 91
        0
  1

274
    -2
284
     1
 64
     0
275
    -2
285
     1
 65
     0
276
    -2
286
     1
 66
     0
277
    -2
287
     1
 67
     0
278
    -2
288
     1
 68
     0
279
    -2
289
     1
 69
     0
  7
Standard
140
4.5
170
     5
 62
     0
 63
     7
283
     0
 90
      512
 91
        0
  1

274
    -2
284
     1
 64
     0
275
    -2
285
     1
 65
     0
276
    -2
286
     1
 66
     0
277
    -2
287
     1
 67
     0
278
    -2
288
     1
 68
     0
279
    -2
289
     1
 69
     0
  0
VISUALSTYLE
  5
2A
102
{ACAD_REACTORS
330
2B
102
}
330
2B
100
AcDbVisualStyle
  2
2dWireframe
 70
     4
177
     3
291
     0
 70
    58
 90
        0
176
     1
 90
        2
176
     1
 90
        1
176
     1
 90
        0
176
     1
 40
0.6
176
     1
 40
30.0
176
     1
 62
     7
420
 16777215
176
     1
 90
        1
176
     1
 90
        4
176
     1
 62
     7
176
     1
 62
   257
176
     1
 90
        1
176
     1
 90
        1
176
     1
 40
1.0
176
     1
 90
        0
176
     1
 62
   257
176
     1
 40
1.0
176
     1
 90
        1
176
     1
 90
        6
176
     1
 90
        2
176
     1
 62
     7
176
     1
 90
        5
176
     1
 90
        0
176
     1
 90
        0
176
     1
290
     0
176
     1
 90
        1
176
     1
 40
0.0
176
     1
 90
        0
176
     1
290
     1
176
     1
290
     1
176
     1
290
     0
176
     1
290
     0
176
     1
290
     0
176
     1
290
     0
176
     1
290
     0
176
     1
290
     0
176
     1
290
     0
176
     1
 90
       50
176
     1
 40
0.0
176
     1
 40
1.0
176
     1
 90
        0
176
     1
 62
    18
420
        0
176
     1
 90
       50
176
     1
 90
        3
176
     1
 62
     5
420
      255
176
     1
290
     0
176
     1
 90
       50
176
     1
 90
       50
176
     1
 90
       50
176
     1
290
     0
176
     1
 90
       50
176
     1
 62
   256
176
     0
 40
1.0
176
     0
 90
        2
176
     1
  1
strokes_ogs.tif
176
     1
290
     0
176
     1
 40
1.0
176
     1
 40
1.0
176
     1
  0
VISUALSTYLE
  5
45
102
{ACAD_REACTORS
330
2B
102
}
330
2B
100
AcDbVisualStyle
  2
Realistic
 70
     8
177
     3
291
     0
 70
    58
 90
        2
176
     1
 90
        3
176
     1
 90
        0
176
     1
 90
        2
176
     1
 40
0.6
176
     1
 40
30.0
176
     1
 62
     7
420
 16777215
176
     1
 90
        0
176
     1
 90
        0
176
     1
 62
     7
176
     1
 62
   257
176
     1
 90
        1
176
     1
 90
        1
176
     1
 40
1.0
176
     1
 90
        8
176
     1
 62
   257
176
     1
 40
1.0
176
     1
 90
        1
176
     1
 90
        6
176
     1
 90
        2
176
     1
 62
     7
176
     1
 90
        3
176
     1
 90
        0
176
     1
 90
        0
176
     1
290
     0
176
     1
 90
       13
176
     1
 40
0.0
176
     1
 90
        0
176
     1
290
     0
176
     1
290
     1
176
     1
290
     1
176
     1
290
     0
176
     1
290
     0
176
     1
290
     0
176
     1
290
     0
176
     1
290
     0
176
     1
290
     0
176
     1
 90
       50
176
     1
 40
0.0
176
     1
 40
1.0
176
     1
 90
        0
176
     1
 62
    18
420
        0
176
     1
 90
       50
176
     1
 90
        3
176
     1
 62
     5
420
      255
176
     1
290
     0
176
     1
 90
       50
176
     1
 90
       50
176
     1
 90
       50
176
     1
290
     0
176
     1
 90
       50
176
     1
 62
   256
176
     0
 40
1.0
176
     0
 90
        2
176
     1
  1
strokes_ogs.tif
176
     1
290
     0
176
     1
 40
1.0
176
     1
 40
1.0
176
     1
  0
VISUALSTYLE
  5
46
102
{ACAD_REACTORS
330
2B
102
}
330
2B
100
AcDbVisualStyle
  2
Wireframe
 70
     5
177
     3
291
     0
 70
    58
 90
        0
176
     1
 90
        2
176
     1
 90
        0
176
     1
 90
        0
176
     1
 40
0.6
176
     1
 40
30.0
176
     1
 62
     7
420
 16777215
176
     1
 90
        1
176
     1
 90
        4
176
     1
 62
     7
176
     1
 62
   257
176
     1
 90
        1
176
     1
 90
        1
176
     1
 40
1.0
176
     1
 90
        0
176
     1
 62
   257
176
     1
 40
1.0
176
     1
 90
        1
176
     1
 90
        6
176
     1
 90
        2
176
     1
 62
     7
176
     1
 90
        3
176
     1
 90
        0
176
     1
 90
        0
176
     1
290
     0
176
     1
 90
        1
176
     1
 40
0.0
176
     1
 90
        0
176
     1
290
     0
176
     1
290
     1
176
     1
290
     1
176
     1
290
     0
176
     1
290
     0
176
     1
290
     0
176
     1
290
     0
176
     1
290
     0
176
     1
290
     0
176
     1
 90
       50
176
     1
 40
0.0
176
     1
 40
1.0
176
     1
 90
        0
176
     1
 62
    18
420
        0
176
     1
 90
       50
176
     1
 90
        3
176
     1
 62
     5
420
      255
176
     1
290
     0
176
     1
 90
       50
176
     1
 90
       50
176
     1
 90
       50
176
     1
290
     0
176
     1
 90
       50
176
     1
 62
   256
176
     0
 40
1.0
176
     0
 90
        2
176
     1
  1
strokes_ogs.tif
176
     1
290
     0
176
     1
 40
1.0
176
     1
 40
1.0
176
     1
  0
DICTIONARYVAR
  5
145
102
{ACAD_REACTORS
330
140
102
}
330
140
100
DictionaryVariables
280
     0
  1
1:1
  0
DICTIONARYVAR
  5
142
102
{ACAD_REACTORS
330
140
102
}
330
140
100
DictionaryVariables
280
     0
  1
STANDARD
  0
DICTIONARYVAR
  5
141
102
{ACAD_REACTORS
330
140
102
}
330
140
100
DictionaryVariables
280
     0
  1
STANDARD
  0
DICTIONARYVAR
  5
143
102
{ACAD_REACTORS
330
140
102
}
330
140
100
DictionaryVariables
280
     0
  1

  0
DICTIONARYVAR
  5
144
102
{ACAD_REACTORS
330
140
102
}
330
140
100
DictionaryVariables
280
     0
  1

  0
DICTIONARY
  5
17
330
15
100
AcDbDictionary
280
     1
281
     1
  0
DICTIONARY
  5
3C
330
3B
100
AcDbDictionary
280
     1
281
     1
  3
FBXASSET
360
3D
  0
DICTIONARY
  5
39
330
38
100
AcDbDictionary
280
     1
281
     1
  3
FBXASSET
360
3A
  0
DICTIONARY
  5
C
330
A
100
AcDbDictionary
280
     1
281
     1
  3
BUMPTILE
360
D
  3
DIFFUSETILE
360
E
  3
FBXASSET
360
F
  3
OPACITYTILE
360
10
  3
REFLECTIONTILE
360
11
  0
DICTIONARY
  5
44
330
43
100
AcDbDictionary
280
     1
281
     1
  3
ACAD_ROUNDTRIP_2008_TABLESTYLE_CELLSTYLEMAP
360
146
  0
XRECORD
  5
3D
102
{ACAD_REACTORS
330
3C
102
}
330
3C
100
AcDbXrecord
280
     1
 70
     1
 90
429727718
  1
D62C5603-E3A1-4AEA-B7FB-FE5D8D0755AF
310
504B03040A0000080000CC70623B3DEE336E79000000790000001B0000006175746F6465736B2D64657369676E2D7061636B6167652E786D6C3C3F786D6C2076657273696F6E3D22312E302220656E636F64696E673D227574662D3822203F3E3C666F726D6174733E3C666F726D61743E687474703A2F2F736368656D612E
310
6175746F6465736B2E636F6D2F64657369676E2D7061636B6167652F323030393C2F666F726D61743E3C2F666F726D6174733E504B0304140006080800CC70623BD486FD9CA0000000F4000000130000005B436F6E74656E745F54797065735D2E786D6C7D8EC10E82300C865F65E91D8A1E8C310C0EEA1BF002731658846E
310
D98AC1B77784ABF1D8FE5FBFBF75BBCE937A534CCEB38643598122B6FEE978D0B0485F9C41B54DDD7D022595594E1A469170414C76A4D9A4D207E29CF43ECE46F218070CC6BECC4078ACAA135ACF422C856C0E68EA1BF5669944DDD7BCDE7B1F8E415D77AECB980613C2E4AC91FC167A2B244592486606FC29C8FD7F045B9A
310
EF7053A7E60B504B0304140006080800CC70623B853B8169EB0000007C01000008000000636F72652E786D6C8D90416EC3201045AF62CDB6C206821CC7C244919D9CA01740401C94182C03558F5F9C3852BBEB6A467FFE9B197D7EFC9E1EC5975982F5AE035262288C535E5B377690E21535501C055FBC8FBF6C503839990E
310
5619041F179FE64D52DE45E362569DD7661365082642A11EB9E920A89B99642953CC8E702F67A9EE7234257977194EC9EAE275C4EABCCF5EAD5940D4AC6F0E35A568B8F43562CD7046CD199FD07E60174276A7BE677B5EADB0E0D14EEFFB6A31321A0D82627C4084204C3F096B71DD52F6819B16635EADF63F509AF53FA164
310
5DDCD1EDDD17164090FCC8732078B56691CB33A85CD7DCC40F504B0304140006080800CC70623B55019EA25F0000007C00000007000000636E782E786D6C4DCB3B0E80201045D1AD90E915ED2CF8AC45050C11660C8261F98AB1B07AC9C97D42D718D865D3E909258CFD00CCE24AC6E326A164D74DC0B4128928FF32603847
310
2BA13128B1252AC747C6BAB984FC68F0B87FE8960A5C09FE86CFB69FBA01504B0304140006080800CC70623BDBABAAF470010000D40300000C0000006662782F636F72652E786D6CC553D16E823014FD95A6AF4B694182CC941A83FA05FB810A9511A125A5257EFE2E82712ECEB8A7F100CD39F7F69E734AF9FADC366850B6
310
AF8DCE7018308C942E4C59EB2AC3DE1D498AD15A706B8CFB56869196ADCAF00863C12B6B7C374385D14E6907A836A59A41D9F7CA615434B0C8705F7CAA5606D23BA8E84F41278B93AC54100640439DE0BDB320004D43C63716C7C399D30917DCFBBA9CD9BA8469F5B156168B24CED3F7248AC8769F27244EB73B92EED8862C
310
B7F13E0C179B3C8F979C8ECD82BBBABDAA2BAC924E9558448CBD9330242CFA08E3154B5651FCC6D215639C8EE5774DBE2B5F6CF2B5768B68963BB5F5588420E442FC700B1139D4CB01F450C1E918227C2E09DF070D8140C84E1E9AAB8F1340832A9CB13130A5F1376A908D57309505ECF2A0DF179C4E9D30F5B239B87E3823
310
7A79C6F31DE1A8A5AEC08474B03C7837EAE4938639B44E5932B833D2C6B6B279CDC613877FA26EE21F4A2A4C63EC7F29A2F301D1F9F7A0E37D145F504B0304140006080800CC70623B9C113CC27E0000009D0000000B0000006662782F636E782E786D6C4DCCDF0A83201C86E15B91DFB94BFB330DD428C8FB886521330DA7
310
6397BF1A1DECE883878F57749FCDA1B7892F1BBC047A23808C7F84D9FA55424E0BE6803A256208E9EF06C84F9B91703228B1C690F78B66B34CD9A5439DF5CF0BFBF65E35BCA1B8D6A5C6F540381E886698B5741C695F9503EBA150A2F8958E3DC3EA0B504B0304140006080800CC70623B7DF2F77C2A010000120200003100
310
00006662782F41393633353835312D344632462D344230382D423046372D3739314545314133324237412F636F72652E786D6C8D51DB8EC22014FC15C2939B0D2DB4B45643319AE817EC0F6041255A68B86CFCFC856D4D76DF7CE190393373060EDB3DC707F856CE6B6B7A480A0C81328395DA5C7B18C3057510EC3873D686
310
3F34088C18550F330C39BB3A1BA7051AAC09CA84841A2BD5020AEF55806078A44B0FFD7053A328440C89E1EFC52486BBB8AA8214A99D789CF9E05200300FC927E4FB4D5B375D43103D5527440FB843077C5AA3F5861C8F645F5787F59E95B390B318B55CE45AA638FAA2957BD7248B390B7A7CC51F9C124149C82B8C378810
310
84AB2F42B7B8DD56F413775B8C5999E9FF4471926F8AA236A1AE96B8B3CC434E5839373893369E1FAF30EA395917409EB7F26AF8801C171837A4A6AC9C89E9F9C9B1A58BA30FD6A5EF5DDDCF894B9AD9B6A59C957943A9FCAE2FD5BC4DFE03504B0304140006080800CC70623BAD7543B64E01000033030000300000006662
310
782F41393633353835312D344632462D344230382D423046372D3739314545314133324237412F636E782E786D6CD593CD6EC32010845F0571AD6CE3D48AD20813A9873E410FBD12D82434182C7EAAE6EDBB2424CD25871E7B41D6EC30B3FA84F9E67BB2E40B4234DE8DB46F1925E094D7C6ED479AD3AE5951B2113C789FEE
310
6C943839C1488B4C05DF079FE72A69D8C96C13AAD6B8631503449F83828872B949AC57D26200B826A308D316B4064D6E46FCDA41C05550DC9E483A00797BFD207EFB092A45DE9514C1BBD22178396BD39D891265658C238DEA00936C654E5E433CB65A26D9F6EDB5EBC14EBF49A45CB856E66048291F6939A9A81BB5C89177
310
38143CA680F4AA299D66A042CEB3354A2684DC9D8D178FE0D9B8B41CAAD720F880EE7EF93C0C18769E099ECC04D5A102C8049A8A05632F4DDF376CF1DE0F6BB65C2F8627B65A33C6BB62177CEBBDAD973006829F89F22E814B54F4BC2BE347F8AA8F681390B50FA73F804400B5F542E796F19FF974E7F78DB802FE05E20750
310
4B0304140006080800CC70623BE75B7789680500003C100000340000006662782F41393633353835312D344632462D344230382D423046372D3739314545314133324237412F6F626A656374732E786D6CAD575B8F9B3818FD2B887D06C22499CB8AA1CA655245D5B455A356FB305264C061D8018C6C3393D95FBFC7600890
310
A4CD5EF210B0B1BFEBF98E3F7B1FF6596ABC522E1296DF9BAE3D320D9A872C4AF2F8DE2CE5CEBA358D0FBEC719939D65A691938CDE9B6ADAF4BD98B3B2D05311DD91329583D9D5FC0F438434A7A611A644887B5384CF34233629258BA878B12322891DEFF6B66BD70BFB62634E8AE781D082709A4B588AF91C528CDA28B73F
310
1C998EEF39EABBEFA97FBD6A7C7E9553F9D3D79FE442923C3C523610337627CB87ABE99D359D4CC6D6E4FACAB5E6ABF9D2726FC6A3C5F56271377BB88362213924694B38DD99FE47C48627A1E7D49F5A8BB5E1A74C0A599ED3B0F21F1E56366B89112D681E218F0915D0D6F17AD41FBA2A369DCF6335D62ABBD39779D5DDD1
310
11D4D8DE3CBB96B2E04FB8202E41051754A1AA8E8F76B4C6DFE810B580B1547F4B84911149794252234D024EF8BBE963A95AE27B3D310A9D5C215C7960FAEE415ED75694C6AFB17BCACA5D99A60A9AA65F217B0BFC53292ACB92BF283FAD0D3621576592CB5BED907C2FA8E9DF794E35E97BEA31BED21FEB401ABB94C44839
310
DCACBF0E1C5DA8DA5B2F4DFFD32AD86F543D9E565E7056502E157C00AD2671CD534549AB752FCA9CDA00677A313F04E51B22FF19E57B300579E3C97EB29F682D92935CEC18CF901B7B54FD8C51F362B56FC72FE0B3C1EAE335EDCCBF5AEC39ADB17DC238973F804BA5E6F6BFE7AF1FB32E523BE9F3BD571418E3631DCA4D48
310
5250CF639223210A9446CA30052EDF057BD35F8329C1ECD84552BF0DC8D18BE7BCE23BFE6BD960AB4A7DE79923A103BEBD80F911CBAA2C60DB19B01CF164A5583B772EE6D3FFA56666CBCDA74DC97724A48F9A58967497E489C4D979006FD7A05E227A1EBDD0F737C623387A9C844D3709995625106D157315F8B8392CD4E0
310
A0B9A720C4BE9829CEF37EA1E13111214D53925356365ADA634861B52519DD27A00AEB808EAF0628E6F435519D446F45CF2C9CF5214F0A15B2F6D06B79DA3EE3CBF7F56780D2F4E7EF73A0F5E5B02A38D07DC852C6B7C1FBB6664213E0C39E3EBA7FF4E1AD23EA2829407C85E586727488B751B2DB9502BC7B228A3FD68B6E
310
A65A22397E690AA8D158D7E404EC8CDA235CC3B7D1898680131CEC2CDF2638C65196279577750F15884AEE19F94199155B92B13297978469D4F8D358DF0AEF7631E28DC8F0D9F437D5D39A83B2231A1D52D543813A824EF8D44BCFF2FA6A31BD1E8DAD87F1CCB526B3879935BF59CDADD5C37479BB1CDD4CA7B3556B516589
310
EF352754B706114D9C885EC9131DE6EFEB43D99AFE2391C2F958179413D7CFEF6B1B6DB1E7600F00DE6E5C67454A339A4BA2E0FBA85ED26F045D454F463DBFCE484C2F90F2E5E3666003662ED8F755951A7D1BECD5B30B550B2785C8E7320B7292A4838DDA71BBC863ED7613CAF659337A3354231D4FF4A182A54904C2898C
310
98B28C4AD0CE056CCF332A80986E571EE9DBC305BB5FEB7E509220A58D25CF042D712A806AC0AD0C657FDEF80D2D9CEAA2EE4D1C76F60BFE74219A06527D6F82DF6412526107381E55E353090704D085B52408A8913C4ED159D79BDA71BB4BC506F4831350EB6F975CD22D69BF7AC49B91A2C0A9DDA3D5CA36AD20FC478E37
310
E61844E2352865EBCB61A275A65283CAAA9DD27703B4102F5AF51EF5F573B75CBB5AD38BC845F7A49F82A0966A49C2E3EA5EA0ECD326CD965F1DB402C6FA8B51A4658C5C5E2EC9E214602E55810345408596591009A82E7E7FFACA19EEA299B14A0081A705CB3296EBC14CDF658DCD336EA6D1136881AAEB87B81AB9EE53D5
310
F5EB8BC8362082DA24122F98680A4E7930C01A0079749CEA14382A0783E5EBA5A10F8C098456A03D6A4AEB6BB881E2513747552A5DB22C7EDAF83BD5528081A365F7FF06504B0304140006080000CC70623B000000000000000000000000350000006662782F41393633353835312D344632462D344230382D423046372D37
310
39314545314133324237412F76657274696365732E62696E504B0304140006080800CC70623BF270F1330600000004000000360000006662782F41393633353835312D344632462D344230382D423046372D3739314545314133324237412F747269616E676C65732E62696E636660600000504B0304140006080000CC7062
310
3B000000000000000000000000370000006662782F41393633353835312D344632462D344230382D423046372D3739314545314133324237412F617474726962757465732E62696E504B0304140006080800CC70623B08DA0BD19000000041010000360000006662782F41393633353835312D344632462D344230382D4230
310
46372D3739314545314133324237412F6469726563746F72792E786D6C858F410AC3201045AF22B36F53E9A60B35CBEEBAE80D244E44489C6234F4F835464A48035D0DF398FF9F8AF63D0E6CC63039F212F8F9020C7D47C6792B21C5FE7403D62A1188E2E60C98D7234A5830286103A55745067B9D86B8A3CF9C7F90C11DE6
310
07FB144396D7B6A82D282E9A152AD114D5EF2CB866EEE831B8EEA07A7BB5A8D7D61A2BAAEB7FD5F70921FF497D00504B0304140006080800CC70623BEDD1DC58FD000000A00100003B0000006662782F41393633353835312D344632462D344230382D423046372D3739314545314133324237412F7265736F75726365732F
310
636F72652E786D6C8D504B6E833010BD0A9A6D65B00922041947112427E8052C33A156828DFCA97AFC9A40A576D7CDCCE87D344F8F9FBFE667F689CE6B6B3A6039850C8DB2A336530731DC4903D95970676DF82583CCC8193B5861107C72362E3BA4AC096842428D1D7107A5F7182053CF7474E0D507CE32973124857FE48B
310
540F3961CEF244279DE03EB81420DB9EAC1384436FA353E879B1B182C7A8C75DA3C7F453DF353A1075D537A7BA6464B8F535A99AE14A9A2BBD90E350DD183B5CFABE3AF262350B1EF4FC9351399401471025A527C218A1E53BAB5A5AB765F5469B96525EACF23FA6B88CFF34456DC2A1DCE36E360F82A5202F42F062ED2BAD
310
579969AFDD8A6F504B010214000A0000080000CC70623B3DEE336E79000000790000001B00000000000000000000000000000000006175746F6465736B2D64657369676E2D7061636B6167652E786D6C504B01021400140006080800CC70623BD486FD9CA0000000F40000001300000000000000000000000000B20000005B
310
436F6E74656E745F54797065735D2E786D6C504B01021400140006080800CC70623B853B8169EB0000007C010000080000000000000000000000000083010000636F72652E786D6C504B01021400140006080800CC70623B55019EA25F0000007C000000070000000000000000000000000094020000636E782E786D6C504B
310
01021400140006080800CC70623BDBABAAF470010000D40300000C00000000000000000000000000180300006662782F636F72652E786D6C504B01021400140006080800CC70623B9C113CC27E0000009D0000000B00000000000000000000000000B20400006662782F636E782E786D6C504B01021400140006080800CC70
310
623B7DF2F77C2A010000120200003100000000000000000000000000590500006662782F41393633353835312D344632462D344230382D423046372D3739314545314133324237412F636F72652E786D6C504B01021400140006080800CC70623BAD7543B64E010000330300003000000000000000000000000000D2060000
310
6662782F41393633353835312D344632462D344230382D423046372D3739314545314133324237412F636E782E786D6C504B01021400140006080800CC70623BE75B7789680500003C10000034000000000000000000000000006E0800006662782F41393633353835312D344632462D344230382D423046372D3739314545
310
314133324237412F6F626A656374732E786D6C504B01021400140006080000CC70623B0000000000000000000000003500000000000000000000000000280E00006662782F41393633353835312D344632462D344230382D423046372D3739314545314133324237412F76657274696365732E62696E504B01021400140006
310
080800CC70623BF270F133060000000400000036000000000000000000000000007B0E00006662782F41393633353835312D344632462D344230382D423046372D3739314545314133324237412F747269616E676C65732E62696E504B01021400140006080000CC70623B0000000000000000000000003700000000000000
310
000000000000D50E00006662782F41393633353835312D344632462D344230382D423046372D3739314545314133324237412F617474726962757465732E62696E504B01021400140006080800CC70623B08DA0BD1900000004101000036000000000000000000000000002A0F00006662782F41393633353835312D344632
310
462D344230382D423046372D3739314545314133324237412F6469726563746F72792E786D6C504B01021400140006080800CC70623BEDD1DC58FD000000A00100003B000000000000000000000000000E1000006662782F41393633353835312D344632462D344230382D423046372D3739314545314133324237412F7265
310
736F75726365732F636F72652E786D6C504B0506000000000E000E0080040000641100000000
  0
XRECORD
  5
3A
102
{ACAD_REACTORS
330
39
102
}
330
39
100
AcDbXrecord
280
     1
 70
     1
 90
429727718
  1
30362254-06B7-45E0-A893-8CFA70E3D6BC
310
504B03040A0000080000CC70623B3DEE336E79000000790000001B0000006175746F6465736B2D64657369676E2D7061636B6167652E786D6C3C3F786D6C2076657273696F6E3D22312E302220656E636F64696E673D227574662D3822203F3E3C666F726D6174733E3C666F726D61743E687474703A2F2F736368656D612E
310
6175746F6465736B2E636F6D2F64657369676E2D7061636B6167652F323030393C2F666F726D61743E3C2F666F726D6174733E504B0304140006080800CC70623BD486FD9CA0000000F4000000130000005B436F6E74656E745F54797065735D2E786D6C7D8EC10E82300C865F65E91D8A1E8C310C0EEA1BF002731658846E
310
D98AC1B77784ABF1D8FE5FBFBF75BBCE937A534CCEB38643598122B6FEE978D0B0485F9C41B54DDD7D022595594E1A469170414C76A4D9A4D207E29CF43ECE46F218070CC6BECC4078ACAA135ACF422C856C0E68EA1BF5669944DDD7BCDE7B1F8E415D77AECB980613C2E4AC91FC167A2B244592486606FC29C8FD7F045B9A
310
EF7053A7E60B504B0304140006080800CC70623B1EC5D7A3EB0000007C01000008000000636F72652E786D6C8D90416EC3201045AF82665B6103C6756C6122AB4D4ED00B204C5C94182C03558F5F9C3852BBEB6A467FFE9B197D71FC9E6FE8CBACC17AD7032D0820E3B41FAD9B7A48F1820F808E52ACDEC75F36404ECDA687
310
4D0629A6D5A76597B477D1B89855E747B38B2A041301E95B6E7A08FAD3CCAA50296647B8168BD2573599823EBB0CA76447F43862C7BCCF5EAC59410E4DDD9C7973C2755553CCCFA4C603E3040F1565ED3B1FDE4E432BCA0D9622DAF9795FAF464533826484B498524CD807E51D79ED187F21878E10516EF63F505AC67F42C9
310
BA58B1FDDD071640D2FCC87D2045B96591CB3DA85CB7DCE40F504B0304140006080800CC70623B55019EA25F0000007C00000007000000636E782E786D6C4DCB3B0E80201045D1AD90E915ED2CF8AC45050C11660C8261F98AB1B07AC9C97D42D718D865D3E909258CFD00CCE24AC6E326A164D74DC0B4128928FF32603847
310
2BA13128B1252AC747C6BAB984FC68F0B87FE8960A5C09FE86CFB69FBA01504B0304140006080800CC70623B8C9102E971010000D40300000C0000006662782F636F72652E786D6CC5535B6E833010BC8AE5DF0A6C08340F1947A84D4ED00B38C6A128602363A31CBFCB234A53A551FA553EC09AD9F5CE8C31DB9E9B1AF5CA
310
7695D1198E428A91D2D214952E33ECDD315861B4E5CC1AE3BE9561A445A3323CC098B3D21ADFCE9034DA29ED00D5A6503328BA4E398C640D8B0C77F253352214DE4145770A5B214FA2546114020D759C75CE8200340D19DE981F0F6746269C33EFAB6266AB02A655C74A59CCF365BADC27CB5D902ED22848F6340DF238A141
310
BE88E2F57B92BFEDF23523433367AE6A2EEAA455C2A902F398D2751045018D3FA264435F3771F242571B4A1919CA6F9A7C5B3CD9E42BED16F12C776AEB308F40C848FC700B1139D4891EF410CEC810227CC6846F8386402064270EF5C5C709A05E49676C024C61FC95EA45ED154CA5211D1FF4FB8291A913A68E9B83EBBB33
310
E2A7673CDE118E5AE8124C0807CB8377834E366998436B950D7A7746DAD846D4CFD978E0F04FD455FC5D49D2D4C6FE9722321F10997F0F32DC47FE05504B0304140006080800CC70623BFFEA85907E0000009D0000000B0000006662782F636E782E786D6C4DCCD10A83201886E15B91FFDC95D95A811AB6F23E625948A6C3
310
E9D8E5AF46073BFAE0E1E365ED67B3E8ADC3CB78C7815C7240DA3DFC64DCC221C519D7805AC182F7F1EF06C88D9BE6703008B6049F9E274D7A1E938DBB5AE3D6131B2589BA0D3D965551E0B2EA732C9B9A624AAEB41E3A557677029960D9AFB4EF11165F504B0304140006080800CC70623B4FEEA4082C0100001202000031
310
0000006662782F39464131463745442D413632322D343644302D413938332D3331353338454246344243312F636F72652E786D6C8D515B6EC32010BC0AE2AB55850DD871ED0813254D72825EC00192A2C460F1A872FC42ED48ED5F7E00CDCECCCEB26C731F6FE05B39AFADE921293004CA082BB5B9F43086336A21D870E6AC
310
0D7F68109861543DCC30E4ECE26C9C164858139409093556AA051CBC570102714B8F1E7AF1A5C6A11862480C7F2DA6415C878B2A4891CA89C7990F2E050073937C42DE1DB7E4F87ED8A36D4329AA9B3D46DBAEAD504556557BD81DEBDD0761E52CE42C462D17B996298E3E6BE59E35C962CE821E1FF18553435012728A7187
310
0841987E927A8D9B35ADDF70BBC6989599FE4F1427F9A4286A132ABAC49D651EF234CD5CE04CDA78BA3DC2A8FB645D00B9DF8B57E215725C60BCA2A463E54C4CE327C7A65E1C7DB02E7DEFCBF594B864C5CA6CDBD49C957943E9FA5D5FBAF336F90F504B0304140006080800CC70623BAD7543B64E01000033030000300000
310
006662782F39464131463745442D413632322D343644302D413938332D3331353338454246344243312F636E782E786D6CD593CD6EC32010845F0571AD6CE3D48AD20813A9873E410FBD12D82434182C7EAAE6EDBB2424CD25871E7B41D6EC30B3FA84F9E67BB2E40B4234DE8DB46F1925E094D7C6ED479AD3AE5951B2113C
310
789FEE6C943839C1488B4C05DF079FE72A69D8C96C13AAD6B8631503449F83828872B949AC57D26200B826A308D316B4064D6E46FCDA41C05550DC9E483A00797BFD207EFB092A45DE9514C1BBD22178396BD39D891265658C238DEA00936C654E5E433CB65A26D9F6EDB5EBC14EBF49A45CB856E66048291F6939A9A81BB5
310
C8917738143CA680F4AA299D66A042CEB3354A2684DC9D8D178FE0D9B8B41CAAD720F880EE7EF93C0C18769E099ECC04D5A102C8049A8A05632F4DDF376CF1DE0F6BB65C2F8627B65A33C6BB62177CEBBDAD973006829F89F22E814B54F4BC2BE347F8AA8F681390B50FA73F804400B5F542E796F19FF974E7F78DB802FE05
310
E207504B0304140006080800CC70623B16AB87BA640500003C100000340000006662782F39464131463745442D413632322D343644302D413938332D3331353338454246344243312F6F626A656374732E786D6CAD575B6FA33818FD2B887DE6924B3BED8A326A92B68A663B534DD4D13E548A0C38942D60649B369D5FBFC7
310
600890A493BDE42160637FD7F31D7FF63E6FB3D478A55C242CBF3247B66B1A340F5994E4F19559CA8D75611A9F7D8F33263BCB4C232719BD32D5B4E97B316765A1A722BA21652A07B3B7B33F0D11D29C9A46981221AE4C113ED38CD8A4942CA2E2C58E882476BCD9DA23BB5ED8171B73523C0F841684D35CC252CCE79062D4
310
468DFA43D7747CCF51DF7D4FFDEB5593E3AB9CCA9FBEFE241792E4E19EB28198C968BAB8199F5D5A67D3E9C49A9E8F47D6EC76B6B0469F26EEFC7C3EBFBCBEB98462213924694B38DD98FE1D62C393D073EA4FADC5DAF04326852CCF6958F90F0F2B9BB5C48816348F90C7840A68EB78EDF68723159BCEE7891A6B95DDE9D3
310
BCEAEEE8086A6C6F9E5D4B59F0175C10A7A0820BAA5055C7473B5AE3CFDD452D602CD5DF12616444529E90D448938013FE6EFA58AA96F85E4F8C42275708571E98FE6827AF6B2B4AE3D7D83D64E5A64C53054DD3AF90BD06FEA9149565C94FCA0F6B834DC85599E4F2423B24DF0B6AFA979E534DFA9E7A4CC6FA631D486393
310
921829879BF5D781A373557BCB85E97FB90DB62B558F8795179C15944B051F40AB495CF35451D26A4727654E6D8033BD98EF82F21D91FF8AF2DD9982BCF1643BDD4EB516C9492E368C67C88DED563FC36D5EACF66DFF057C3658BDBFA69DF9578B3DA735B64F18C7F20770A9D45CFCF7FCF563D6456A277DBEF78A02637CA2
310
43B90A490AEAB94F72244481D24819A6C0E59B606BFA4B3025981DBB48EAB701D97BF19C577CC77F2D1B6C55A9EF3C732474C0B727303F625995056C3B02963D9EAC146BE78EC5FCEC7FA999EBC5EACBAAE41B12D27B4D2C0BBA49F244E2ECDC81B76B502F113D8F5EE8FB1BE3111CDD4FC2AA9B844CAB1288B68AB90A7CDC
310
1C166AB0D3DC5310625FCC14E779BFD0709F8890A629C9292B1B2DED31A4B0DA928CEE135085754027E3018A397D4D5427D15BD1330B677DC8934285AC3DF45A9EB68FF8F2B8FC0A509AFEECFD0FF2DE25CC6047F7214B195F07EFEB9A094D800F7BFAE8FED187B78EA8A3A400F115961BCAD1215E47C966530AF0EE8128FE
310
58CEBB996A8964FFA529A046635D9353B0336A8F700DDF46271A024E70B0B37C9DE01847591E54DED53D54202AB947E4076556AC49C6CA5C9E1226B7F1A7B1BE15DEED62C41B91E1B3E9AFAAA735036547343A925075041DF0A9979E893B391F8FCFA6967B3EFB644DCF6E5CEBFAE272625DCC6FAF3FB93793C5F90CE1EF57
310
407342756B10D1C489E8953CD1617E5CEECAD6F4EF8914CE5D5D504E5C3F1F9736DA62CFC11E00BCDDB8CC8A9466349744C1F75EBDA4DF09BA8A9E8C7A7E9991989E20E5DBDD6A6003664ED8F7A04A8DBE0DF6EAD9B9AA858342E47399053949D2C146EDB85DE4B176BB0965FBAC19BD19AA918E27FA50C1D22402E144464C
310
59462568E704B6E71915404CB72B8FF4EDE184DDAF753F284990D2C6926782963815403548A70C657FDEF80D2D9CEAA2AE4C1C76F60BFE74219A06527D6582DF6412526107381E55E353090704D085B52408D0933C4ED159D79BDA71BB4BC506F4831350EB6F979CD22D69BF7AC49B91A2C0A9DDA3D5CA36AD20FC478E37E6
310
1844E2352865EBCB6EA275A652E3836BE04EFB400BF1A2556F515F1FBB35B2AB35BD889C744FFA1004B5544B121E57F70215746DD2F5E2C1412B602CBF19455AC6C8E5E9922C4E01E65215385004546899059180EAFCF7A707CE7017CD8CDB0410789AB32C63B91E5CEBBBACB17AC6CD347A022D5075FD106377347AAABA7E
310
7D11590744509B44E205134DC1290F06580320F78E537D3D73540E06CB970B431F185308AD40BBD794D6D77003C5A36E8EAA54BA64597CD8F83BD552A080A365F7FF06504B0304140006080000CC70623B000000000000000000000000350000006662782F39464131463745442D413632322D343644302D413938332D3331
310
353338454246344243312F76657274696365732E62696E504B0304140006080800CC70623BF270F1330600000004000000360000006662782F39464131463745442D413632322D343644302D413938332D3331353338454246344243312F747269616E676C65732E62696E636660600000504B0304140006080000CC70623B
310
000000000000000000000000370000006662782F39464131463745442D413632322D343644302D413938332D3331353338454246344243312F617474726962757465732E62696E504B0304140006080800CC70623B08DA0BD19000000041010000360000006662782F39464131463745442D413632322D343644302D413938
310
332D3331353338454246344243312F6469726563746F72792E786D6C858F410AC3201045AF22B36F53E9A60B35CBEEBAE80D244E44489C6234F4F835464A48035D0DF398FF9F8AF63D0E6CC63039F212F8F9020C7D47C6792B21C5FE7403D62A1188E2E60C98D7234A5830286103A55745067B9D86B8A3CF9C7F90C11DE607
310
FB144396D7B6A82D282E9A152AD114D5EF2CB866EEE831B8EEA07A7BB5A8D7D61A2BAAEB7FD5F70921FF497D00504B0304140006080800CC70623B0D6EF93BFE000000A00100003B0000006662782F39464131463745442D413632322D343644302D413938332D3331353338454246344243312F7265736F75726365732F63
310
6F72652E786D6C8D50596E833010BD0A9ADFCA60B334011947A8694ED00B586642AC041B79A97AFC9A40A5F6AF3F33A3B7689E1E3F7DCD8FEC139DD7D6F4C0720A191A65476DA61E62B892236427C19DB5E1970C322367EC618541F0C9D9B8EC90B226A009093576C41D94DE63804C3DD2D18357379C652E63480A7FCF17A9
310
EE72C29CE5894E3AC17D702940B63D59270887DE46A7D0F36263058F518FBB468FE9A7BE6A7420864373B8D4873369AA8691FA421B3294352543C5CAF65C0F6FEF43CB8BD52C78D0F34F46E550061C419494B6843142CB0F5677F4B52BEB177AEC28E5C52AFF638ACBF84F53D42654E51E77B379102C05791282176B5F693D
310
CB4C7BED567C03504B010214000A0000080000CC70623B3DEE336E79000000790000001B00000000000000000000000000000000006175746F6465736B2D64657369676E2D7061636B6167652E786D6C504B01021400140006080800CC70623BD486FD9CA0000000F40000001300000000000000000000000000B20000005B
310
436F6E74656E745F54797065735D2E786D6C504B01021400140006080800CC70623B1EC5D7A3EB0000007C010000080000000000000000000000000083010000636F72652E786D6C504B01021400140006080800CC70623B55019EA25F0000007C000000070000000000000000000000000094020000636E782E786D6C504B
310
01021400140006080800CC70623B8C9102E971010000D40300000C00000000000000000000000000180300006662782F636F72652E786D6C504B01021400140006080800CC70623BFFEA85907E0000009D0000000B00000000000000000000000000B30400006662782F636E782E786D6C504B01021400140006080800CC70
310
623B4FEEA4082C0100001202000031000000000000000000000000005A0500006662782F39464131463745442D413632322D343644302D413938332D3331353338454246344243312F636F72652E786D6C504B01021400140006080800CC70623BAD7543B64E010000330300003000000000000000000000000000D5060000
310
6662782F39464131463745442D413632322D343644302D413938332D3331353338454246344243312F636E782E786D6C504B01021400140006080800CC70623B16AB87BA640500003C1000003400000000000000000000000000710800006662782F39464131463745442D413632322D343644302D413938332D3331353338
310
454246344243312F6F626A656374732E786D6C504B01021400140006080000CC70623B0000000000000000000000003500000000000000000000000000270E00006662782F39464131463745442D413632322D343644302D413938332D3331353338454246344243312F76657274696365732E62696E504B01021400140006
310
080800CC70623BF270F133060000000400000036000000000000000000000000007A0E00006662782F39464131463745442D413632322D343644302D413938332D3331353338454246344243312F747269616E676C65732E62696E504B01021400140006080000CC70623B0000000000000000000000003700000000000000
310
000000000000D40E00006662782F39464131463745442D413632322D343644302D413938332D3331353338454246344243312F617474726962757465732E62696E504B01021400140006080800CC70623B08DA0BD190000000410100003600000000000000000000000000290F00006662782F39464131463745442D413632
310
322D343644302D413938332D3331353338454246344243312F6469726563746F72792E786D6C504B01021400140006080800CC70623B0D6EF93BFE000000A00100003B000000000000000000000000000D1000006662782F39464131463745442D413632322D343644302D413938332D3331353338454246344243312F7265
310
736F75726365732F636F72652E786D6C504B0506000000000E000E0080040000641100000000
  0
XRECORD
  5
D
102
{ACAD_REACTORS
330
C
102
}
330
C
100
AcDbXrecord
280
     1
270
     1
271
     1
  0
XRECORD
  5
E
102
{ACAD_REACTORS
330
C
102
}
330
C
100
AcDbXrecord
280
     1
270
     1
271
     1
  0
XRECORD
  5
F
102
{ACAD_REACTORS
330
C
102
}
330
C
100
AcDbXrecord
280
     1
 70
     0
 90
1673772943
  1
ECE7A1D2-D628-4531-984C-D00F80459256
310
504B03040A0000080000CC70623B3DEE336E79000000790000001B0000006175746F6465736B2D64657369676E2D7061636B6167652E786D6C3C3F786D6C2076657273696F6E3D22312E302220656E636F64696E673D227574662D3822203F3E3C666F726D6174733E3C666F726D61743E687474703A2F2F736368656D612E
310
6175746F6465736B2E636F6D2F64657369676E2D7061636B6167652F323030393C2F666F726D61743E3C2F666F726D6174733E504B0304140006080800CC70623BD486FD9CA0000000F4000000130000005B436F6E74656E745F54797065735D2E786D6C7D8EC10E82300C865F65E91D8A1E8C310C0EEA1BF002731658846E
310
D98AC1B77784ABF1D8FE5FBFBF75BBCE937A534CCEB38643598122B6FEE978D0B0485F9C41B54DDD7D022595594E1A469170414C76A4D9A4D207E29CF43ECE46F218070CC6BECC4078ACAA135ACF422C856C0E68EA1BF5669944DDD7BCDE7B1F8E415D77AECB980613C2E4AC91FC167A2B244592486606FC29C8FD7F045B9A
310
EF7053A7E60B504B0304140006080800CC70623BD9DDAED0EC0000007C01000008000000636F72652E786D6C8D90416EC3201045AF82665B61836D9CD8C2444DD39CA01740405C94182C03558F5F9C3852BBEB6A467FFE9B197D7EF89E6EE8CB2CC17A37002D0820E394D7D68D03A478C17B4007C117EFE32F1B20272733C0
310
2A83E0E3E2D3BC49CABB685CCCAAF3DA6CA20CC14440EA969B0182FA34932C648AD911AEC52CD5558EA6A0CF2EC329598D1E47ACCEFBECC59A050463A7EA5833865FEBDD0E37353BE3EE8DBDE3F6786A48D375FBF6CC78B9C282473B3DEFABC5C86834888A900E538A49F5419B9EB47DD5BC907D4F082F57FB1F28CDFA9F50
310
B22ED6D5F6EE030B20687EE43E10BC5CB3C8E51E54AE6B6EE207504B0304140006080800CC70623B55019EA25F0000007C00000007000000636E782E786D6C4DCB3B0E80201045D1AD90E915ED2CF8AC45050C11660C8261F98AB1B07AC9C97D42D718D865D3E909258CFD00CCE24AC6E326A164D74DC0B4128928FF326038
310
472BA13128B1252AC747C6BAB984FC68F0B87FE8960A5C09FE86CFB69FBA01504B0304140006080800CC70623BA24EB22D72010000D40300000C0000006662782F636F72652E786D6CC5535B6E833010BC8AE5DF0A6C5E49888CA3A6694ED00B38E05014B091B1518EDFE511A5A9D228FD2A1F60CDEC7A67C6986DCE4D8D7A
310
69BA4AAB0C073EC548AA5C17952A33ECECD15B61B4E1CC686DBF9561A44423333CC098B3D268D7CE50AE9595CA02AA74216750749DB418E5352C32DCE59FB211BE70162ABA93DF8AFC244AE9073ED050C759670D0840D390E18DF9F1706664C23973AE2A66B62A605A75ACA4C13C4976E1364A12EF355A2EBD384AF65EFA96
310
BC7B8BED2EA6719AAE16FB8491A199335B351775B991C2CA02F390D2D40B028F861F41BCA68B7518BFD0D59A524686F29B26D7164F36B94AD9289CE54E6D1DE6010819891F6E21228B3AD1831EC219194284CF98F06DD01008846CC5A1BEF83801D4CBDC6A1303536877A57A513B0953A94FC707FDBE6064EA84A9E3E6E0FA
310
EE8CF0E9198F7784A316AA0413C2C2F2E0ECA0934D1AE6D05A69BCDE9E91D2A611F573361E38FC1375157F5752AE6B6DFE4B11990F88CCBF0719EE23FF02504B0304140006080800CC70623B408A7D3B7C0000009D0000000B0000006662782F636E782E786D6C4DCCD10A83201886E15B91FFDC552A92A0064DBC8F581632
310
D3703A76F9ABD1C18E3E78F878E5F0D9027ABBFCF2292AE86E2D20171F69F6715550CB827B40839639A5F2770314A7CD293819B45C73AAFB45B35BA61ACAA1C1C7E7855C58C15BC331339661262CC762340413D68D77DA5B42298546CBE6573AF60CEB2F504B0304140006080800CC70623B449FB9BD290100001202000031
310
0000006662782F36394639363044362D344446342D343946362D394244322D3234314243333846323333332F636F72652E786D6C8D515B6EC32010BC0AE22B55850D98B871848994463E412FE002495162B07854397EA176A4F62F3F2C9A9D991D587EB84F37F0AD7D30CEF6905418026DA553C65E7A98E219ED203808EE9D
310
8B7F6810D871D23D2C3014FCE25D9A57483A1BB58D19B54EE9151C43D0110279CB971E06F9A5A7B11A53CC8C70ADE6515EC78BAE4895DB992778883E0700CB907242D17643D7E2538BD869608875438BBAE38922CAC8F1BDD90DB4691A5E2F42C153326A951B95E398B3D1FE599322163C9AE9115F7A3D46ADA0A018778810
310
84E907617BDCEE297BC5BB3DC6BC2EF47FA234AB2745C9D8D8D035EE220B50105E2F0DC1954B9FB747187D9F9D8FA0CCDB042D5FA0C015C65B42DF78BD10F3F3B363CB56C7109DCFDFBBB97E662ED92EB62D13BC2E1BCAE5777DB9966D8A1F504B0304140006080800CC70623BAD7543B64E01000033030000300000006662
310
782F36394639363044362D344446342D343946362D394244322D3234314243333846323333332F636E782E786D6CD593CD6EC32010845F0571AD6CE3D48AD20813A9873E410FBD12D82434182C7EAAE6EDBB2424CD25871E7B41D6EC30B3FA84F9E67BB2E40B4234DE8DB46F1925E094D7C6ED479AD3AE5951B2113C789FEE
310
6C943839C1488B4C05DF079FE72A69D8C96C13AAD6B8631503449F83828872B949AC57D26200B826A308D316B4064D6E46FCDA41C05550DC9E483A00797BFD207EFB092A45DE9514C1BBD22178396BD39D891265658C238DEA00936C654E5E433CB65A26D9F6EDB5EBC14EBF49A45CB856E66048291F6939A9A81BB5C89177
310
38143CA680F4AA299D66A042CEB3354A2684DC9D8D178FE0D9B8B41CAAD720F880EE7EF93C0C18769E099ECC04D5A102C8049A8A05632F4DDF376CF1DE0F6BB65C2F8627B65A33C6BB62177CEBBDAD973006829F89F22E814B54F4BC2BE347F8AA8F681390B50FA73F804400B5F542E796F19FF974E7F78DB802FE05E20750
310
4B0304140006080800CC70623B8D05915C650500003B100000340000006662782F36394639363044362D344446342D343946362D394244322D3234314243333846323333332F6F626A656374732E786D6CAD575B6FA33814FE2B887D06429276DA1565D4266D158D3A339A6846FB502932E050B66023DB74D2FDF5FB190C01
310
9276B2973C046C8ECFF53B17071F77456EBD502133CEAE6CDF9DD81665314F32965ED995DA3A17B6F5310C04E7AA47665B8C14F4CAD6DB7618A48257A5D94AE89654B91AEDDEDDFC61C998326A5B714EA4BCB265FC440BE2924AF184CA6737218AB8E976E7FA6E4338649B0A523E8D98964450A6A029F619B8588D52FE7039
310
B1BD30F0F4F730D0FF866AF6369557DB33949F31A9088B0F848DD8CCFCF9F2767A76E99CCDE733677E3EF59D9BBB9BA5E37F984D16E78BC5E5F5ED25044B25C0C96822E8D60EEFE11B91C581D77CEA34368A1F5329E68CD1B8B61F16D63A1B8E092D294B10C78C4A48EB593D192E7DED9BDEE7995E1B91FDEDD3ACEA9FE831
310
6A756F9F7D4D79F4274C90A7A04248AA51D5F8C718DAE06FB2F75AC4796EBE65D22A88A22223B995679120E2D50E41AA49C260C046A35368846B0BECD0DFF3EBEB8AD4F835768F69B9ADF25C43D30E6B646F807FAA64AD59F61715C7A54127C4AACA98BA3006A9D792DAE165E0D59B61A01FB3A9F9D838D2DAE62445C86166
310
F37564E842E7DE6A69879FEEA2DD5AE7E371E1A5E025154AC307D06A03D73EB5978C58FFA4C8E9033066E0F3BD53BEC1F39F91BE7B55103791EDE6BBB991A2046172CB4581D8B893FA674DDA17A77B3B7C413D1B511FD2743BFF8A38F03A658705E3ADF8015C3A3417FF3D7E439FF591DA0B5F18BC20C1B8981957AE6392A3
310
F43C640C01D1A0B4728E2DD4F26DB4B3C3152A252A3B4E913CEC1C72F012782FF88EFF8637AA552DBEF76408E8A8DE9E50F9E1CB3A2DA0DB1B6039A893B56063DC5B3E3FFB5F72E67AB9FEB4AEC496C4F4C1149625DD662C53E89D7BF0F6151A046260D1337DFDC94502430F83B0EE07A130A224BCAD7DAE1D9FB6CD422FF6
310
920702629C4BB9AE79C12F243C6432A6794E18E5552BA56B431AAB5D91317302B2B071E86C3A42B1A02F999E24061403B5D0EB639195DA655DD3EBEAB4FB862DDF579F014AD0E73C22F99E28DA57FB98E75C6CA2D74D53086D600F4786E0FE3144B771A8A7B900F03594DB8A633CBC49B2EDB69228BB479CF863B5E807AAAB
310
23872F6DFEB4129B949CA33823F58830E86D65621E10047D9DB34D862E8EAC3C2ABC2F7B2C40D67CDFE01F5545B92105AF983AC54D93D69E56FB8E797F88913F898A9FEC705D3F9D1B54EC8426FB500D40A03BD0119B06E1B95DDC7EB8F6975367793EBD70E66733DFB9BC982F9CE564727731999F5D4ECFCE3B8D6A4DC2A0
310
6D50FD148437D110834A64C6CDDF57FBACB5C307A2A477DFE4939736CFEF2B175371E0E10CF0DD1D5C15654E0BCA14D1E87DD02FF93782A162C0A3D95F1524A52770F972BF1EE9809D13CE7DD599467F8ECE9ADD85CE85A34CD45355448C64F9E8A031DC2D596ACC6E5DD93D9B82DE2EF5CAF81363A8E47996A0DE24564A79
310
4115AACE09C55E14540231FDA13C319787134EBF34E3A022514E5B4D9E0826E25C02D5805B15ABE1BEF51B26383D445DD9E875EE33FE4C22DA16427D65A3BCA92CA6D28DD01DF5DC53330704308475351050232CCD31583787BA75774AFB06E5070DD0C8EF484E19968C5D83BA5B90B244D31E54D55A372320FE4786B7EA58
310
44E135AA5467CB7EA333A61683CC6A8C3257034C10CF46F40EF9F5BE59BE5BD30C3C72D235E95D10345C1D45445A5F0BB47E46A5EBE5570F9380B5FA629579952296A773720405982B9DE04011506178964401AA8BDF1FBF0A8EAB6861DD6580C0E38217056766716DAEB2D6FA0917D3E4116581EADB879C4E7CFFB11EFACD
310
3D641311495D92C8676CB409A72D18610D803CE8A626049E8EC1887CB5B44CC39883690DDA8399B4B9855B481E7D71D4A9D22F96E5BB73BF5793020C02137BF837504B0304140006080000CC70623B000000000000000000000000350000006662782F36394639363044362D344446342D343946362D394244322D32343142
310
43333846323333332F76657274696365732E62696E504B0304140006080800CC70623BF270F1330600000004000000360000006662782F36394639363044362D344446342D343946362D394244322D3234314243333846323333332F747269616E676C65732E62696E636660600000504B0304140006080000CC70623B0000
310
00000000000000000000370000006662782F36394639363044362D344446342D343946362D394244322D3234314243333846323333332F617474726962757465732E62696E504B0304140006080800CC70623B08DA0BD19000000041010000360000006662782F36394639363044362D344446342D343946362D394244322D
310
3234314243333846323333332F6469726563746F72792E786D6C858F410AC3201045AF22B36F53E9A60B35CBEEBAE80D244E44489C6234F4F835464A48035D0DF398FF9F8AF63D0E6CC63039F212F8F9020C7D47C6792B21C5FE7403D62A1188E2E60C98D7234A5830286103A55745067B9D86B8A3CF9C7F90C11DE607FB14
310
4396D7B6A82D282E9A152AD114D5EF2CB866EEE831B8EEA07A7BB5A8D7D61A2BAAEB7FD5F70921FF497D00504B0304140006080800CC70623BCA768048FE000000A00100003B0000006662782F36394639363044362D344446342D343946362D394244322D3234314243333846323333332F7265736F75726365732F636F72
310
652E786D6C8D50596E833010BD0A9ADFCA60D600328E9AA639412F609909B1126CE4A5EAF16B0295DABFFECC8CDEA2797AECF8353F924FB44E193D409E5248504B332A3D0D10FC95B4901C39B3C6F85F3248B49871801506CE266BC2B243D2688FDA47549B11775038871E12F988C7004EDE7016A9083E2ADC3D5D84BC8B09
310
D33C8D74D471E6BC8D0192EDC93A815B742658898E651BCB59086ADC356A8C3FD555A1055ED7E7E254D615792D0F075295F585746FF53B694EE78A565DD736979A65AB9933AFE69F8CD2A2F038022F28ED489E135A7CE4554F9BBEA85E68DB53CAB255FEC71496F19FA6A0B42F8B3DEE6673C0F318E4497096AD7DC5F52C33
310
EEB55BFE0D504B010214000A0000080000CC70623B3DEE336E79000000790000001B00000000000000000000000000000000006175746F6465736B2D64657369676E2D7061636B6167652E786D6C504B01021400140006080800CC70623BD486FD9CA0000000F40000001300000000000000000000000000B20000005B436F
310
6E74656E745F54797065735D2E786D6C504B01021400140006080800CC70623BD9DDAED0EC0000007C010000080000000000000000000000000083010000636F72652E786D6C504B01021400140006080800CC70623B55019EA25F0000007C000000070000000000000000000000000095020000636E782E786D6C504B0102
310
1400140006080800CC70623BA24EB22D72010000D40300000C00000000000000000000000000190300006662782F636F72652E786D6C504B01021400140006080800CC70623B408A7D3B7C0000009D0000000B00000000000000000000000000B50400006662782F636E782E786D6C504B01021400140006080800CC70623B
310
449FB9BD290100001202000031000000000000000000000000005A0500006662782F36394639363044362D344446342D343946362D394244322D3234314243333846323333332F636F72652E786D6C504B01021400140006080800CC70623BAD7543B64E010000330300003000000000000000000000000000D20600006662
310
782F36394639363044362D344446342D343946362D394244322D3234314243333846323333332F636E782E786D6C504B01021400140006080800CC70623B8D05915C650500003B10000034000000000000000000000000006E0800006662782F36394639363044362D344446342D343946362D394244322D32343142433338
310
46323333332F6F626A656374732E786D6C504B01021400140006080000CC70623B0000000000000000000000003500000000000000000000000000250E00006662782F36394639363044362D344446342D343946362D394244322D3234314243333846323333332F76657274696365732E62696E504B010214001400060808
310
00CC70623BF270F13306000000040000003600000000000000000000000000780E00006662782F36394639363044362D344446342D343946362D394244322D3234314243333846323333332F747269616E676C65732E62696E504B01021400140006080000CC70623B00000000000000000000000037000000000000000000
310
00000000D20E00006662782F36394639363044362D344446342D343946362D394244322D3234314243333846323333332F617474726962757465732E62696E504B01021400140006080800CC70623B08DA0BD190000000410100003600000000000000000000000000270F00006662782F36394639363044362D344446342D
310
343946362D394244322D3234314243333846323333332F6469726563746F72792E786D6C504B01021400140006080800CC70623BCA768048FE000000A00100003B000000000000000000000000000B1000006662782F36394639363044362D344446342D343946362D394244322D3234314243333846323333332F7265736F
310
75726365732F636F72652E786D6C504B0506000000000E000E0080040000621100000000
  0
XRECORD
  5
10
102
{ACAD_REACTORS
330
C
102
}
330
C
100
AcDbXrecord
280
     1
270
     1
271
     1
  0
XRECORD
  5
11
102
{ACAD_REACTORS
330
C
102
}
330
C
100
AcDbXrecord
280
     1
270
     1
271
     1
  0
CELLSTYLEMAP
  5
146
102
{ACAD_REACTORS
330
44
102
}
330
44
100
AcDbCellStyleMap
 90
        3
300
CELLSTYLE
  1
TABLEFORMAT_BEGIN
 90
        5
170
     1
 91
        0
 92
    32768
 62
   257
 93
        1
300
CONTENTFORMAT
  1
CONTENTFORMAT_BEGIN
 90
        0
 91
        0
 92
      512
 93
        0
300

 40
0.0
140
1.0
 94
        5
 62
     0
340
21
144
6.0
309
CONTENTFORMAT_END
171
     1
301
MARGIN
  1
CELLMARGIN_BEGIN
 40
1.5
 40
1.5
 40
1.5
 40
1.5
 40
4.5
 40
4.5
309
CELLMARGIN_END
 94
        6
 95
        1
302
GRIDFORMAT
  1
GRIDFORMAT_BEGIN
 90
        0
 91
        1
 62
     0
 92
       -2
340
24
 93
        0
 40
1.125
309
GRIDFORMAT_END
 95
        2
302
GRIDFORMAT
  1
GRIDFORMAT_BEGIN
 90
        0
 91
        1
 62
     0
 92
       -2
340
24
 93
        0
 40
1.125
309
GRIDFORMAT_END
 95
        4
302
GRIDFORMAT
  1
GRIDFORMAT_BEGIN
 90
        0
 91
        1
 62
     0
 92
       -2
340
24
 93
        0
 40
1.125
309
GRIDFORMAT_END
 95
        8
302
GRIDFORMAT
  1
GRIDFORMAT_BEGIN
 90
        0
 91
        1
 62
     0
 92
       -2
340
24
 93
        0
 40
1.125
309
GRIDFORMAT_END
 95
       16
302
GRIDFORMAT
  1
GRIDFORMAT_BEGIN
 90
        0
 91
        1
 62
     0
 92
       -2
340
24
 93
        0
 40
1.125
309
GRIDFORMAT_END
 95
       32
302
GRIDFORMAT
  1
GRIDFORMAT_BEGIN
 90
        0
 91
        1
 62
     0
 92
       -2
340
24
 93
        0
 40
1.125
309
GRIDFORMAT_END
309
TABLEFORMAT_END
  1
CELLSTYLE_BEGIN
 90
        1
 91
        1
300
_TITLE
309
CELLSTYLE_END
300
CELLSTYLE
  1
TABLEFORMAT_BEGIN
 90
        5
170
     1
 91
        0
 92
        0
 62
   257
 93
        1
300
CONTENTFORMAT
  1
CONTENTFORMAT_BEGIN
 90
        0
 91
        0
 92
      512
 93
        0
300

 40
0.0
140
1.0
 94
        5
 62
     0
340
21
144
4.5
309
CONTENTFORMAT_END
171
     1
301
MARGIN
  1
CELLMARGIN_BEGIN
 40
1.5
 40
1.5
 40
1.5
 40
1.5
 40
4.5
 40
4.5
309
CELLMARGIN_END
 94
        6
 95
        1
302
GRIDFORMAT
  1
GRIDFORMAT_BEGIN
 90
        0
 91
        1
 62
     0
 92
       -2
340
24
 93
        0
 40
1.125
309
GRIDFORMAT_END
 95
        2
302
GRIDFORMAT
  1
GRIDFORMAT_BEGIN
 90
        0
 91
        1
 62
     0
 92
       -2
340
24
 93
        0
 40
1.125
309
GRIDFORMAT_END
 95
        4
302
GRIDFORMAT
  1
GRIDFORMAT_BEGIN
 90
        0
 91
        1
 62
     0
 92
       -2
340
24
 93
        0
 40
1.125
309
GRIDFORMAT_END
 95
        8
302
GRIDFORMAT
  1
GRIDFORMAT_BEGIN
 90
        0
 91
        1
 62
     0
 92
       -2
340
24
 93
        0
 40
1.125
309
GRIDFORMAT_END
 95
       16
302
GRIDFORMAT
  1
GRIDFORMAT_BEGIN
 90
        0
 91
        1
 62
     0
 92
       -2
340
24
 93
        0
 40
1.125
309
GRIDFORMAT_END
 95
       32
302
GRIDFORMAT
  1
GRIDFORMAT_BEGIN
 90
        0
 91
        1
 62
     0
 92
       -2
340
24
 93
        0
 40
1.125
309
GRIDFORMAT_END
309
TABLEFORMAT_END
  1
CELLSTYLE_BEGIN
 90
        2
 91
        1
300
_HEADER
309
CELLSTYLE_END
300
CELLSTYLE
  1
TABLEFORMAT_BEGIN
 90
        5
170
     1
 91
        0
 92
        0
 62
   257
 93
        1
300
CONTENTFORMAT
  1
CONTENTFORMAT_BEGIN
 90
        0
 91
        0
 92
      512
 93
        0
300

 40
0.0
140
1.0
 94
        2
 62
     0
340
21
144
4.5
309
CONTENTFORMAT_END
171
     1
301
MARGIN
  1
CELLMARGIN_BEGIN
 40
1.5
 40
1.5
 40
1.5
 40
1.5
 40
4.5
 40
4.5
309
CELLMARGIN_END
 94
        6
 95
        1
302
GRIDFORMAT
  1
GRIDFORMAT_BEGIN
 90
        0
 91
        1
 62
     0
 92
       -2
340
24
 93
        0
 40
1.125
309
GRIDFORMAT_END
 95
        2
302
GRIDFORMAT
  1
GRIDFORMAT_BEGIN
 90
        0
 91
        1
 62
     0
 92
       -2
340
24
 93
        0
 40
1.125
309
GRIDFORMAT_END
 95
        4
302
GRIDFORMAT
  1
GRIDFORMAT_BEGIN
 90
        0
 91
        1
 62
     0
 92
       -2
340
24
 93
        0
 40
1.125
309
GRIDFORMAT_END
 95
        8
302
GRIDFORMAT
  1
GRIDFORMAT_BEGIN
 90
        0
 91
        1
 62
     0
 92
       -2
340
24
 93
        0
 40
1.125
309
GRIDFORMAT_END
 95
       16
302
GRIDFORMAT
  1
GRIDFORMAT_BEGIN
 90
        0
 91
        1
 62
     0
 92
       -2
340
24
 93
        0
 40
1.125
309
GRIDFORMAT_END
 95
       32
302
GRIDFORMAT
  1
GRIDFORMAT_BEGIN
 90
        0
 91
        1
 62
     0
 92
       -2
340
24
 93
        0
 40
1.125
309
GRIDFORMAT_END
309
TABLEFORMAT_END
  1
CELLSTYLE_BEGIN
 90
        3
 91
        2
300
_DATA
309
CELLSTYLE_END
  0
ENDSEC
  0
SECTION
  2
ACDSDATA
 70
     2
 71
     8
  0
ACDSSCHEMA
 90
        0
  1
AcDb_Thumbnail_Schema
  2
AcDbDs::ID
280
    10
 91
        8
  2
Thumbnail_Data
280
    15
 91
        0
101
ACDSRECORD
 95
        0
 90
        1
  2
AcDbDs::TreatedAsObjectData
280
     1
291
     1
101
ACDSRECORD
 95
        0
 90
        2
  2
AcDbDs::Legacy
280
     1
291
     1
101
ACDSRECORD
  1
AcDbDs::ID
 90
        3
  2
AcDs:Indexable
280
     1
291
     1
101
ACDSRECORD
  1
AcDbDs::ID
 90
        4
  2
AcDbDs::HandleAttribute
280
     7
282
     1
  0
ACDSSCHEMA
 90
        1
  1
AcDbDs::TreatedAsObjectDataSchema
  2
AcDbDs::TreatedAsObjectData
280
     1
 91
        0
  0
ACDSSCHEMA
 90
        2
  1
AcDbDs::LegacySchema
  2
AcDbDs::Legacy
280
     1
 91
        0
  0
ACDSSCHEMA
 90
        3
  1
AcDbDs::IndexedPropertySchema
  2
AcDs:Indexable
280
     1
 91
        0
  0
ACDSSCHEMA
 90
        4
  1
AcDbDs::HandleAttributeSchema
  2
AcDbDs::HandleAttribute
280
     7
 91
        1
284
     1
  0
ACDSRECORD
 90
        0
  2
AcDbDs::ID
280
    10
320
15
  2
Thumbnail_Data
280
    15
 94
      896
310
89504E470D0A1A0A0000000D49484452000001000000009108030000001BE1960600000300504C5445212830FFFFFF2128300000000000000000000000000000000000000000000000000000330000660000990000CC0000FF0033000033330033660033990033CC0033FF0066000066330066660066990066CC0066FF0099
310
000099330099660099990099CC0099FF00CC0000CC3300CC6600CC9900CCCC00CCFF00FF0000FF3300FF6600FF9900FFCC00FFFF3300003300333300663300993300CC3300FF3333003333333333663333993333CC3333FF3366003366333366663366993366CC3366FF3399003399333399663399993399CC3399FF33CC00
310
33CC3333CC6633CC9933CCCC33CCFF33FF0033FF3333FF6633FF9933FFCC33FFFF6600006600336600666600996600CC6600FF6633006633336633666633996633CC6633FF6666006666336666666666996666CC6666FF6699006699336699666699996699CC6699FF66CC0066CC3366CC6666CC9966CCCC66CCFF66FF0066
310
FF3366FF6666FF9966FFCC66FFFF9900009900339900669900999900CC9900FF9933009933339933669933999933CC9933FF9966009966339966669966999966CC9966FF9999009999339999669999999999CC9999FF99CC0099CC3399CC6699CC9999CCCC99CCFF99FF0099FF3399FF6699FF9999FFCC99FFFFCC0000CC00
310
33CC0066CC0099CC00CCCC00FFCC3300CC3333CC3366CC3399CC33CCCC33FFCC6600CC6633CC6666CC6699CC66CCCC66FFCC9900CC9933CC9966CC9999CC99CCCC99FFCCCC00CCCC33CCCC66CCCC99CCCCCCCCCCFFCCFF00CCFF33CCFF66CCFF99CCFFCCCCFFFFFF0000FF0033FF0066FF0099FF00CCFF00FFFF3300FF3333
310
FF3366FF3399FF33CCFF33FFFF6600FF6633FF6666FF6699FF66CCFF66FFFF9900FF9933FF9966FF9999FF99CCFF99FFFFCC00FFCC33FFCC66FFCC99FFCCCCFFCCFFFFFF00FFFF33FFFF66FFFF99FFFFCCFFFFFF0000000D0D0D1A1A1A2828283535354343435050505D5D5D6B6B6B787878868686939393A1A1A1AEAEAEBB
310
BBBBC9C9C9D6D6D6E4E4E4F1F1F1FFFFFF0000000000000000000000000000000000000000000000000000000000002E4550F10000003B4944415478DAEDC13101000000C2A0F54F6D0B2FA0000000000000000000000000000000000000000000000000000000000000000000000000CE06919100016C9A5B1B0000000049
310
454E44AE426082
  0
ENDSEC
  0
EOF
