  0
SECTION
  2
HEADER
  9
$ACADVER
  1
AC1018
  9
$ACADMAINTVER
 70
   104
  9
$DWGCODEPAGE
  3
ANSI_932
  9
$INSBASE
 10
0.0
 20
0.0
 30
0.0
  9
$EXTMIN
 10
10.20655655227075
 20
6.293401802986899
 30
0.0
  9
$EXTMAX
 10
60.20836630536955
 20
33.2377206291519
 30
0.0
  9
$LIMMIN
 10
-12.87082021264359
 20
-11.12439879006706
  9
$LIMMAX
 10
75.30956682609394
 20
41.20658020640258
  9
$ORTHOMODE
 70
     0
  9
$REGENMODE
 70
     1
  9
$FILLMODE
 70
     1
  9
$QTEXTMODE
 70
     0
  9
$MIRRTEXT
 70
     0
  9
$LTSCALE
 40
1.0
  9
$ATTMODE
 70
     1
  9
$TEXTSIZE
 40
2.5
  9
$TRACEWID
 40
1.0
  9
$TEXTSTYLE
  7
Standard
  9
$CLAYER
  8
0
  9
$CELTYPE
  6
ByLayer
  9
$CECOLOR
 62
   256
  9
$CELTSCALE
 40
1.0
  9
$DISPSILH
 70
     0
  9
$DIMSCALE
 40
1.0
  9
$DIMASZ
 40
2.5
  9
$DIMEXO
 40
0.625
  9
$DIMDLI
 40
3.75
  9
$DIMRND
 40
0.0
  9
$DIMDLE
 40
0.0
  9
$DIMEXE
 40
1.25
  9
$DIMTP
 40
0.0
  9
$DIMTM
 40
0.0
  9
$DIMTXT
 40
2.5
  9
$DIMCEN
 40
2.5
  9
$DIMTSZ
 40
0.0
  9
$DIMTOL
 70
     0
  9
$DIMLIM
 70
     0
  9
$DIMTIH
 70
     0
  9
$DIMTOH
 70
     0
  9
$DIMSE1
 70
     0
  9
$DIMSE2
 70
     0
  9
$DIMTAD
 70
     1
  9
$DIMZIN
 70
     8
  9
$DIMBLK
  1

  9
$DIMASO
 70
     1
  9
$DIMSHO
 70
     1
  9
$DIMPOST
  1

  9
$DIMAPOST
  1

  9
$DIMALT
 70
     0
  9
$DIMALTD
 70
     3
  9
$DIMALTF
 40
0.03937007874016
  9
$DIMLFAC
 40
1.0
  9
$DIMTOFL
 70
     1
  9
$DIMTVP
 40
0.0
  9
$DIMTIX
 70
     0
  9
$DIMSOXD
 70
     0
  9
$DIMSAH
 70
     0
  9
$DIMBLK1
  1

  9
$DIMBLK2
  1

  9
$DIMSTYLE
  2
ISO-25
  9
$DIMCLRD
 70
     0
  9
$DIMCLRE
 70
     0
  9
$DIMCLRT
 70
     0
  9
$DIMTFAC
 40
1.0
  9
$DIMGAP
 40
0.625
  9
$DIMJUST
 70
     0
  9
$DIMSD1
 70
     0
  9
$DIMSD2
 70
     0
  9
$DIMTOLJ
 70
     0
  9
$DIMTZIN
 70
     8
  9
$DIMALTZ
 70
     0
  9
$DIMALTTZ
 70
     0
  9
$DIMUPT
 70
     0
  9
$DIMDEC
 70
     2
  9
$DIMTDEC
 70
     2
  9
$DIMALTU
 70
     2
  9
$DIMALTTD
 70
     3
  9
$DIMTXSTY
  7
Standard
  9
$DIMAUNIT
 70
     0
  9
$DIMADEC
 70
     0
  9
$DIMALTRND
 40
0.0
  9
$DIMAZIN
 70
     0
  9
$DIMDSEP
 70
    44
  9
$DIMATFIT
 70
     3
  9
$DIMFRAC
 70
     0
  9
$DIMLDRBLK
  1

  9
$DIMLUNIT
 70
     2
  9
$DIMLWD
 70
    -2
  9
$DIMLWE
 70
    -2
  9
$DIMTMOVE
 70
     0
  9
$LUNITS
 70
     2
  9
$LUPREC
 70
     4
  9
$SKETCHINC
 40
1.0
  9
$FILLETRAD
 40
0.0
  9
$AUNITS
 70
     0
  9
$AUPREC
 70
     0
  9
$MENU
  1
.
  9
$ELEVATION
 40
0.0
  9
$PELEVATION
 40
0.0
  9
$THICKNESS
 40
0.0
  9
$LIMCHECK
 70
     0
  9
$CHAMFERA
 40
0.0
  9
$CHAMFERB
 40
0.0
  9
$CHAMFERC
 40
0.0
  9
$CHAMFERD
 40
0.0
  9
$SKPOLY
 70
     0
  9
$TDCREATE
 40
2459272.581631945
  9
$TDUCREATE
 40
2459272.248298611
  9
$TDUPDATE
 40
2459272.586956019
  9
$TDUUPDATE
 40
2459272.253622685
  9
$TDINDWG
 40
0.0023032407
  9
$TDUSRTIMER
 40
0.0023032407
  9
$USRTIMER
 70
     1
  9
$ANGBASE
 50
0.0
  9
$ANGDIR
 70
     0
  9
$PDMODE
 70
     0
  9
$PDSIZE
 40
0.0
  9
$PLINEWID
 40
0.0
  9
$SPLFRAME
 70
     0
  9
$SPLINETYPE
 70
     6
  9
$SPLINESEGS
 70
     8
  9
$HANDSEED
  5
BC
  9
$SURFTAB1
 70
     6
  9
$SURFTAB2
 70
     6
  9
$SURFTYPE
 70
     6
  9
$SURFU
 70
     6
  9
$SURFV
 70
     6
  9
$UCSBASE
  2

  9
$UCSNAME
  2

  9
$UCSORG
 10
0.0
 20
0.0
 30
0.0
  9
$UCSXDIR
 10
1.0
 20
0.0
 30
0.0
  9
$UCSYDIR
 10
0.0
 20
1.0
 30
0.0
  9
$UCSORTHOREF
  2

  9
$UCSORTHOVIEW
 70
     0
  9
$UCSORGTOP
 10
0.0
 20
0.0
 30
0.0
  9
$UCSORGBOTTOM
 10
0.0
 20
0.0
 30
0.0
  9
$UCSORGLEFT
 10
0.0
 20
0.0
 30
0.0
  9
$UCSORGRIGHT
 10
0.0
 20
0.0
 30
0.0
  9
$UCSORGFRONT
 10
0.0
 20
0.0
 30
0.0
  9
$UCSORGBACK
 10
0.0
 20
0.0
 30
0.0
  9
$PUCSBASE
  2

  9
$PUCSNAME
  2

  9
$PUCSORG
 10
0.0
 20
0.0
 30
0.0
  9
$PUCSXDIR
 10
1.0
 20
0.0
 30
0.0
  9
$PUCSYDIR
 10
0.0
 20
1.0
 30
0.0
  9
$PUCSORTHOREF
  2

  9
$PUCSORTHOVIEW
 70
     0
  9
$PUCSORGTOP
 10
0.0
 20
0.0
 30
0.0
  9
$PUCSORGBOTTOM
 10
0.0
 20
0.0
 30
0.0
  9
$PUCSORGLEFT
 10
0.0
 20
0.0
 30
0.0
  9
$PUCSORGRIGHT
 10
0.0
 20
0.0
 30
0.0
  9
$PUCSORGFRONT
 10
0.0
 20
0.0
 30
0.0
  9
$PUCSORGBACK
 10
0.0
 20
0.0
 30
0.0
  9
$USERI1
 70
     0
  9
$USERI2
 70
     0
  9
$USERI3
 70
     0
  9
$USERI4
 70
     0
  9
$USERI5
 70
     0
  9
$USERR1
 40
0.0
  9
$USERR2
 40
0.0
  9
$USERR3
 40
0.0
  9
$USERR4
 40
0.0
  9
$USERR5
 40
0.0
  9
$WORLDVIEW
 70
     1
  9
$SHADEDGE
 70
     3
  9
$SHADEDIF
 70
    70
  9
$TILEMODE
 70
     1
  9
$MAXACTVP
 70
    64
  9
$PINSBASE
 10
0.0
 20
0.0
 30
0.0
  9
$PLIMCHECK
 70
     0
  9
$PEXTMIN
 10
0.0
 20
0.0
 30
0.0
  9
$PEXTMAX
 10
0.0
 20
0.0
 30
0.0
  9
$PLIMMIN
 10
0.0
 20
0.0
  9
$PLIMMAX
 10
12.0
 20
9.0
  9
$UNITMODE
 70
     0
  9
$VISRETAIN
 70
     1
  9
$PLINEGEN
 70
     0
  9
$PSLTSCALE
 70
     1
  9
$TREEDEPTH
 70
  3020
  9
$CMLSTYLE
  2
Standard
  9
$CMLJUST
 70
     0
  9
$CMLSCALE
 40
20.0
  9
$PROXYGRAPHICS
 70
     1
  9
$MEASUREMENT
 70
     1
  9
$CELWEIGHT
370
    -1
  9
$ENDCAPS
280
     0
  9
$JOINSTYLE
280
     0
  9
$LWDISPLAY
290
     0
  9
$INSUNITS
 70
     4
  9
$HYPERLINKBASE
  1

  9
$STYLESHEET
  1

  9
$XEDIT
290
     1
  9
$CEPSNTYPE
380
     0
  9
$PSTYLEMODE
290
     1
  9
$FINGERPRINTGUID
  2
{458E73FB-10E4-444D-97DA-0A45261207AE}
  9
$VERSIONGUID
  2
{00559A78-3E8D-B649-B3AB-07C8B00607C9}
  9
$EXTNAMES
290
     1
  9
$PSVPSCALE
 40
0.0
  9
$OLESTARTUP
290
     0
  9
$SORTENTS
280
   127
  9
$INDEXCTL
280
     0
  9
$HIDETEXT
280
     1
  9
$XCLIPFRAME
290
     0
  9
$HALOGAP
280
     0
  9
$OBSCOLOR
 70
   257
  9
$OBSLTYPE
280
     0
  9
$INTERSECTIONDISPLAY
280
     0
  9
$INTERSECTIONCOLOR
 70
   257
  9
$DIMASSOC
280
     2
  9
$PROJECTNAME
  1

  0
ENDSEC
  0
SECTION
  2
CLASSES
  0
CLASS
  1
ACDBDICTIONARYWDFLT
  2
AcDbDictionaryWithDefault
  3
ObjectDBX Classes
 90
        0
 91
        1
280
     0
281
     0
  0
CLASS
  1
DICTIONARYVAR
  2
AcDbDictionaryVar
  3
ObjectDBX Classes
 90
        0
 91
       12
280
     0
281
     0
  0
CLASS
  1
TABLESTYLE
  2
AcDbTableStyle
  3
ObjectDBX Classes
 90
     4095
 91
        1
280
     0
281
     0
  0
CLASS
  1
MATERIAL
  2
AcDbMaterial
  3
ObjectDBX Classes
 90
     1153
 91
        3
280
     0
281
     0
  0
CLASS
  1
VISUALSTYLE
  2
AcDbVisualStyle
  3
ObjectDBX Classes
 90
     4095
 91
        3
280
     0
281
     0
  0
CLASS
  1
SCALE
  2
AcDbScale
  3
ObjectDBX Classes
 90
     1153
 91
       17
280
     0
281
     0
  0
CLASS
  1
MLEADERSTYLE
  2
AcDbMLeaderStyle
  3
ACDB_MLEADERSTYLE_CLASS
 90
     4095
 91
        0
280
     0
281
     0
  0
CLASS
  1
CELLSTYLEMAP
  2
AcDbCellStyleMap
  3
ObjectDBX Classes
 90
     1152
 91
        1
280
     0
281
     0
  0
CLASS
  1
EXACXREFPANELOBJECT
  2
ExAcXREFPanelObject
  3
EXAC_ESW
 90
     1025
 91
        0
280
     1
281
     0
  0
CLASS
  1
NPOCOLLECTION
  2
AcDbImpNonPersistentObjectsCollection
  3
ObjectDBX Classes
 90
     1153
 91
        0
280
     0
281
     0
  0
CLASS
  1
LAYER_INDEX
  2
AcDbLayerIndex
  3
ObjectDBX Classes
 90
        0
 91
        0
280
     0
281
     0
  0
CLASS
  1
SPATIAL_INDEX
  2
AcDbSpatialIndex
  3
ObjectDBX Classes
 90
        0
 91
        0
280
     0
281
     0
  0
CLASS
  1
IDBUFFER
  2
AcDbIdBuffer
  3
ObjectDBX Classes
 90
        0
 91
        0
280
     0
281
     0
  0
CLASS
  1
ACDBSECTIONVIEWSTYLE
  2
AcDbSectionViewStyle
  3
ObjectDBX Classes
 90
     1025
 91
        0
280
     0
281
     0
  0
CLASS
  1
ACDBDETAILVIEWSTYLE
  2
AcDbDetailViewStyle
  3
ObjectDBX Classes
 90
     1025
 91
        0
280
     0
281
     0
  0
CLASS
  1
SORTENTSTABLE
  2
AcDbSortentsTable
  3
ObjectDBX Classes
 90
        0
 91
        0
280
     0
281
     0
  0
CLASS
  1
DIMASSOC
  2
AcDbDimAssoc
  3
"AcDbDimAssoc|Product Desc:     AcDim ARX App For Dimension|Company:          Autodesk, Inc.|WEB Address:      www.autodesk.com"
 90
        0
 91
        0
280
     0
281
     0
  0
ENDSEC
  0
SECTION
  2
TABLES
  0
TABLE
  2
VPORT
  5
28
330
0
100
AcDbSymbolTable
 70
     1
  0
VPORT
  5
29
330
28
100
AcDbSymbolTableRecord
100
AcDbViewportTableRecord
  2
*Active
 70
     0
 10
0.0
 20
0.0
 11
1.0
 21
1.0
 12
31.21937330672518
 22
17.58590823553854
 13
0.0
 23
0.0
 14
10.0
 24
10.0
 15
10.0
 25
10.0
 16
0.0
 26
0.0
 36
1.0
 17
0.0
 27
0.0
 37
0.0
 40
52.81044040783442
 41
2.396084337349397
 42
50.0
 43
0.0
 44
0.0
 50
0.0
 51
0.0
 71
     0
 72
  1000
 73
     1
 74
     3
 75
     0
 76
     1
 77
     0
 78
     0
281
     0
 65
     1
110
0.0
120
0.0
130
0.0
111
1.0
121
0.0
131
0.0
112
0.0
122
1.0
132
0.0
 79
     0
146
0.0
1001
ACAD_NAV_VCDISPLAY
1070
     3
  0
ENDTAB
  0
TABLE
  2
LTYPE
  5
23
330
0
100
AcDbSymbolTable
 70
     1
  0
LTYPE
  5
24
330
23
100
AcDbSymbolTableRecord
100
AcDbLinetypeTableRecord
  2
ByBlock
 70
     0
  3

 72
    65
 73
     0
 40
0.0
  0
LTYPE
  5
25
330
23
100
AcDbSymbolTableRecord
100
AcDbLinetypeTableRecord
  2
ByLayer
 70
     0
  3

 72
    65
 73
     0
 40
0.0
  0
LTYPE
  5
13
330
23
100
AcDbSymbolTableRecord
100
AcDbLinetypeTableRecord
  2
Continuous
 70
     0
  3
Solid line
 72
    65
 73
     0
 40
0.0
  0
ENDTAB
  0
TABLE
  2
LAYER
  5
1D
102
{ACAD_XDICTIONARY
360
1E
102
}
330
0
100
AcDbSymbolTable
 70
     2
  0
LAYER
  5
5
102
{ACAD_XDICTIONARY
360
6
102
}
330
1D
100
AcDbSymbolTableRecord
100
AcDbLayerTableRecord
  2
0
 70
     0
 62
     7
  6
Continuous
370
    -3
390
7
  0
LAYER
  5
55
330
1D
100
AcDbSymbolTableRecord
100
AcDbLayerTableRecord
  2
PDF_レイヤー 1
 70
     0
 62
     7
  6
Continuous
370
    -3
390
7
  0
ENDTAB
  0
TABLE
  2
STYLE
  5
20
330
0
100
AcDbSymbolTable
 70
     1
  0
STYLE
  5
21
330
20
100
AcDbSymbolTableRecord
100
AcDbTextStyleTableRecord
  2
Standard
 70
     0
 40
0.0
 41
1.0
 50
0.0
 71
     0
 42
2.5
  3
arial.ttf
  4

1001
ACAD
1000
Arial
1071
       34
  0
ENDTAB
  0
TABLE
  2
VIEW
  5
26
330
0
100
AcDbSymbolTable
 70
     0
  0
ENDTAB
  0
TABLE
  2
UCS
  5
27
330
0
100
AcDbSymbolTable
 70
     0
  0
ENDTAB
  0
TABLE
  2
APPID
  5
2D
330
0
100
AcDbSymbolTable
 70
     3
  0
APPID
  5
12
330
2D
100
AcDbSymbolTableRecord
100
AcDbRegAppTableRecord
  2
ACAD
 70
     0
  0
APPID
  5
18
330
2D
100
AcDbSymbolTableRecord
100
AcDbRegAppTableRecord
  2
ACAD_PSEXT
 70
     0
  0
APPID
  5
2C
330
2D
100
AcDbSymbolTableRecord
100
AcDbRegAppTableRecord
  2
ACAD_NAV_VCDISPLAY
 70
     0
  0
ENDTAB
  0
TABLE
  2
DIMSTYLE
  5
2E
330
0
100
AcDbSymbolTable
 70
     1
100
AcDbDimStyleTable
 71
     1
340
2F
  0
DIMSTYLE
105
2F
330
2E
100
AcDbSymbolTableRecord
100
AcDbDimStyleTableRecord
  2
ISO-25
 70
     0
 41
2.5
 42
0.625
 43
3.75
 44
1.25
 73
     0
 74
     0
 77
     1
 78
     8
140
2.5
141
2.5
143
0.03937007874016
147
0.625
171
     3
172
     1
271
     2
272
     2
274
     3
278
    44
283
     0
284
     8
340
21
  0
ENDTAB
  0
TABLE
  2
BLOCK_RECORD
  5
1
330
0
100
AcDbSymbolTable
 70
     0
  0
BLOCK_RECORD
  5
2
102
{ACAD_XDICTIONARY
360
3
102
}
330
1
100
AcDbSymbolTableRecord
100
AcDbBlockTableRecord
  2
*Model_Space
340
15
  0
BLOCK_RECORD
  5
19
330
1
100
AcDbSymbolTableRecord
100
AcDbBlockTableRecord
  2
*Paper_Space
340
1C
  0
ENDTAB
  0
ENDSEC
  0
SECTION
  2
BLOCKS
  0
BLOCK
  5
4
330
2
100
AcDbEntity
  8
0
100
AcDbBlockBegin
  2
*Model_Space
 70
     0
 10
0.0
 20
0.0
 30
0.0
  3
*Model_Space
  1

  0
ENDBLK
  5
14
330
2
100
AcDbEntity
  8
0
100
AcDbBlockEnd
  0
BLOCK
  5
1A
330
19
100
AcDbEntity
 67
     1
  8
0
100
AcDbBlockBegin
  2
*Paper_Space
 70
     0
 10
0.0
 20
0.0
 30
0.0
  3
*Paper_Space
  1

  0
ENDBLK
  5
1B
330
19
100
AcDbEntity
 67
     1
  8
0
100
AcDbBlockEnd
  0
ENDSEC
  0
SECTION
  2
ENTITIES
  0
LWPOLYLINE
  5
54
330
2
100
AcDbEntity
  8
PDF_レイヤー 1
100
AcDbPolyline
 90
       39
 70
     0
 43
0.0
 10
35.20744729012406
 20
32.32427251456113
 10
34.1244231700741
 20
32.3123960098504
 10
33.04366124139759
 20
32.27733204356159
 10
31.96685814762466
 20
32.21879784177295
 10
30.89599330620712
 20
32.13707617840626
 10
29.83304613459671
 20
32.03188427953981
 10
28.78056159808861
 20
31.90407046693858
 10
27.73967079236957
 20
31.75363474060268
 10
26.71320145665641
 20
31.58057710053203
 10
25.70256746055756
 20
31.38546309457002
 10
24.71003099544649
 20
31.16885827056001
 10
23.73672315700993
 20
30.93076262850204
 10
22.78518891054305
 20
30.67202449016114
 10
21.85684212565427
 20
30.39264385553727
 10
20.95394499371704
 20
30.09375182031721
 10
20.07734583649643
 20
29.77534838450095
 10
19.22930684536592
 20
29.43828186985354
 10
18.41152466385561
 20
29.08311782421836
 10
17.62484761373054
 20
28.71070456936045
 10
16.87153788636418
 20
28.32132487920151
 10
16.15272657744328
 20
27.91639262334991
 10
15.46954478265458
 20
27.49590780180569
 10
14.82312359768481
 20
27.06128428417731
 10
14.21515966606406
 20
26.61308761830805
 10
13.6467840834791
 20
26.15188335204135
 10
13.11856239777326
 20
25.67908535498558
 10
12.63219125247666
 20
25.19497640106246
 10
12.187953421511
 20
24.70097035988039
 10
11.78698000056299
 20
24.19791555320444
 10
11.42983653747602
 20
23.68637752887796
 10
11.11765412793682
 20
23.16777015650939
 10
10.85071554586706
 20
22.64294175786375
 10
10.62930356518843
 20
22.11274065470616
 10
10.45370095982262
 20
21.57829794272325
 10
10.32503882545636
 20
21.04046194368016
 10
10.243034388168
 20
20.5003637532636
 10
10.20768764795748
 20
19.95913446716031
 10
10.20655655227075
 20
19.76062717413808
 10
10.2074048740358
 20
19.68795427626526
  0
LWPOLYLINE
  5
56
330
2
100
AcDbEntity
  8
PDF_レイヤー 1
100
AcDbPolyline
 90
      152
 70
     0
 43
0.0
 10
35.20756039969274
 20
32.25123201059009
 10
34.12453627964277
 20
32.23935550587936
 10
33.04377435096628
 20
32.20429153959055
 10
31.96668848327167
 20
32.14575733780191
 10
30.89582364185411
 20
32.06375290051355
 10
29.83315924416539
 20
31.95884377556877
 10
28.7803919337356
 20
31.83102996296756
 10
27.73978390193824
 20
31.68059423663164
 10
26.71359734014676
 20
31.50753659656101
 10
25.70268057012623
 20
31.312422590599
 10
24.71014410501516
 20
31.09581776658899
 10
23.7371190405003
 20
30.85772212453099
 10
22.78558479403341
 20
30.59870121226842
 10
21.85752078306631
 20
30.31960335156623
 10
20.95405810328571
 20
30.0207113163462
 10
20.07802449390848
 20
29.70230788052993
 10
19.22998550277796
 20
29.36524136588253
 10
18.41192054734597
 20
29.01007732024732
 10
17.62552627114257
 20
28.6376640653894
 10
16.87221654377622
 20
28.24856714915217
 10
16.15312246093364
 20
27.84335211937889
 10
15.46994066614494
 20
27.42315007175634
 10
14.82380225509685
 20
26.98824378020626
 10
14.21583832347611
 20
26.54004711433703
 10
13.64746274089114
 20
26.07912562199201
 10
13.1192410551853
 20
25.60604485101453
 10
12.63286990988871
 20
25.12221867101312
 10
12.18834930500136
 20
24.62821262983104
 10
11.78737588405336
 20
24.12487504923343
 10
11.43079796880975
 20
23.61361979882861
 10
11.11833278534886
 20
23.09501242646005
 10
10.85111142935741
 20
22.57018402781441
 10
10.62998222260047
 20
22.03998292465681
 10
10.45466239115635
 20
21.50554021267391
 10
10.32571748286841
 20
20.96770421363081
 10
10.24399581950172
 20
20.42760602321425
 10
10.20864907929121
 20
19.88637673711096
 10
10.21221203070443
 20
19.67350452886723
 42
0.0106309782388818
 10
10.22267466580674
 20
19.27479329929269
 42
0.0218831331487804
 10
10.28007777190861
 20
18.70585216886437
 42
0.0175452918542592
 10
10.37933141841971
 20
18.1403043254962
 42
0.017753616106785
 10
10.51987005749669
 20
17.57814976918828
 42
0.0169321392937413
 10
10.7025420109046
 20
17.02080236954899
 42
0.0168909547178658
 10
10.92678173080006
 20
16.46797935265667
 42
0.0162445007456902
 10
11.19258921718308
 20
15.92081181419797
 42
0.0157198519083552
 10
11.50053001789703
 20
15.37958252809469
 42
0.0148649917536049
 10
11.85032135902022
 20
14.84570536395515
 42
0.0146260828381749
 10
12.24224601447432
 20
14.31974586962281
 42
0.0142133227231881
 10
12.67517288857263
 20
13.80340068862767
 42
0.0133582540467082
 10
13.14938475523681
 20
13.2972353688132
 42
0.0127471414294076
 10
13.66261942309339
 20
12.80322932763113
 42
0.0121657212386212
 10
14.21487689214238
 20
12.32223088684657
 42
0.0113834384256701
 10
14.80417774493197
 20
11.85537114214617
 42
0.0108997445320843
 10
15.42939088577545
 20
11.40406396313838
 42
0.010327218570568
 10
16.08853689722099
 20
10.96859212374494
 42
0.0095141835206875
 10
16.78020190966021
 20
10.55008671965254
 42
0.0089441751495613
 10
17.50297205348469
 20
10.14939607262619
 42
0.0085817374764619
 10
18.25486791124262
 20
9.766520182665971
 42
0.008456838289075
 10
19.03475838724726
 20
9.402024597615209
 42
0.0077182930884065
 10
19.84066406404687
 20
9.056474865317284
 42
0.0075162788042701
 10
20.67173661987633
 20
8.730153759693877
 42
0.007563154862149
 10
21.52656218512725
 20
8.423061280744988
 42
0.007032234315829
 10
22.40287856842617
 20
8.135762976313969
 42
0.0066755038142242
 10
23.30012022192974
 20
7.868258846400848
 42
0.0062451351941286
 10
24.2160249542644
 20
7.621397212770673
 42
0.0062911259241284
 10
25.15002721758689
 20
7.394895301501705
 42
0.0060896059650338
 10
26.09986482052363
 20
7.188753112594042
 42
0.0060339891666602
 10
27.064406667388
 20
7.003818967812634
 42
0.0060545939881224
 10
28.04167334072814
 20
6.839810093235911
 42
0.0056449732279731
 10
29.03081651877901
 20
6.697009262785428
 42
0.005745704678547
 10
30.02957401016713
 20
6.575699250382982
 42
0.0056469076606728
 10
31.03709749312744
 20
6.475880056028515
 42
0.0055693310813353
 10
32.05055922844312
 20
6.397551679721999
 42
0.0052456104604732
 10
33.06939366827084
 20
6.340996895385188
 42
0.0054160314393504
 10
34.09162139515875
 20
6.306498476939722
 42
0.0051799229890155
 10
35.11554576557674
 20
6.293490876542279
 42
0.0053851750939917
 10
36.13975290991641
 20
6.302539642036151
 42
0.0056075200350566
 10
37.16226341072598
 20
6.333361999499715
 42
0.0052406930505503
 10
38.18166339839706
 20
6.385675175011272
 42
0.0052892692236524
 10
39.1962562293995
 20
6.460044716414174
 42
0.0053709498203785
 10
40.20434526020318
 20
6.555905075865112
 42
0.0055006771365777
 10
41.204233847278
 20
6.673256253363973
 42
0.0056635581714923
 10
42.19450812101564
 20
6.812381022832525
 42
0.0057903045201195
 10
43.17375421180755
 20
6.972148288584037
 42
0.0057251367608851
 10
44.13999270220201
 20
7.1534063723835
 42
0.0059767402541978
 10
45.09180972259058
 20
7.355306952465937
 42
0.0063798392322821
 10
46.0280741772865
 20
7.578132802752975
 42
0.0063782682983492
 10
46.94652387491635
 20
7.821035601479621
 42
0.0068631079663516
 10
47.84631049371506
 20
8.084580896489143
 42
0.0068523644005361
 10
48.72602016407419
 20
8.367637592094894
 42
0.0072288458419609
 10
49.58395624246363
 20
8.670771236140211
 42
0.0073375660652155
 10
50.41898763319671
 20
8.993133506860033
 42
0.0075677587154379
 10
51.22970046666492
 20
9.335007178176098
 42
0.0079680225751662
 10
52.01439809933821
 20
9.695826702244971
 42
0.0083994894874028
 10
52.77194943552981
 20
10.07530930514498
 42
0.0087686641346178
 10
53.50065783170965
 20
10.47317221295446
 42
0.0095441684434038
 10
54.19995774003435
 20
10.88941542567339
 42
0.0099744510624132
 10
54.86815251697379
 20
11.32319062153675
 42
0.0104295311865067
 10
55.5032627450762
 20
11.77449780054451
 42
0.0114127190234202
 10
56.10387455473315
 20
12.24277141485333
 42
0.011721942682094
 10
56.66857407633624
 20
12.72688036877648
 42
0.0126811399821985
 10
57.19538189243363
 20
13.2265418883922
 42
0.0141116777644713
 10
57.68316690733866
 20
13.74005933017048
 42
0.0143354278512863
 10
58.13051525144286
 20
14.26686714626785
 42
0.0149731437031727
 10
58.53601305513781
 20
14.80498591923268
 42
0.0159546901348216
 10
58.8979636748934
 20
15.35328455337807
 42
0.0167075076997452
 10
59.21608433678798
 20
15.90950085733061
 42
0.0173048042951921
 10
59.49037504082152
 20
16.47222096148192
 42
0.0176239206214491
 10
59.71942191738563
 20
17.03974822230182
 42
0.0178988613463122
 10
59.90435606216699
 20
17.61066877018197
 42
0.0177921773098284
 10
60.04517747516565
 20
18.18356873551386
 42
0.0172042354624532
 10
60.14188615638161
 20
18.75703424868916
 42
0.0224534948392963
 10
60.19589597542327
 20
19.33078253578614
 42
0.0093576989457799
 10
60.20768764795748
 20
19.68786944408876
 10
60.20836630536955
 20
19.76054234196161
 10
60.20723520968281
 20
19.95904963498384
 10
60.17188846947231
 20
20.5005616950088
 10
60.08988403218392
 20
21.04037711150369
 10
59.96150467173936
 20
21.57821311054679
 10
59.78590206637356
 20
22.11293859645136
 10
59.56449008569492
 20
22.64313969960898
 10
59.29726872970348
 20
23.16796809825459
 10
58.98508632016429
 20
23.68657547062316
 10
58.6279428570773
 20
24.19783072102797
 10
58.22725221005097
 20
24.70116830162562
 10
57.7830143790853
 20
25.19517434280766
 10
57.29636045986703
 20
25.67900052280911
 10
56.76870432200456
 20
26.15179851986488
 10
56.19976319157622
 20
26.61300278613158
 10
55.59179925995549
 20
27.06148222592251
 10
54.94566084890741
 20
27.49610574355092
 10
54.26247905411869
 20
27.91630779117344
 10
53.54338497127611
 20
28.32152282094671
 10
52.79007524390976
 20
28.71061973718397
 10
52.00368096770637
 20
29.08303299204187
 10
51.18561601227438
 20
29.43819703767707
 10
50.33757702114385
 20
29.77526355232448
 10
49.46126063784494
 20
30.09366698814074
 10
48.55808073198602
 20
30.3925590233608
 10
47.63001672101892
 20
30.67193965798467
 10
46.67819970063037
 20
30.93096057024729
 10
45.7051746361155
 20
31.16877343838357
 10
44.71235539708274
 20
31.38566103631524
 10
43.70200417490555
 20
31.58077504227725
 10
42.67525206527072
 20
31.75354990842621
 10
41.63464403347336
 20
31.90426840868381
 10
40.58215949696527
 20
32.03208222128501
 10
39.51949509927656
 20
32.13699134622979
 10
38.44834748393731
 20
32.21871300959648
 10
37.37154439016439
 20
32.27724721138512
 10
36.2904996875662
 20
32.31231117767393
 10
35.20747556751624
 20
32.32418768238466
  0
LWPOLYLINE
  5
57
330
2
100
AcDbEntity
  8
PDF_レイヤー 1
100
AcDbPolyline
 90
        4
 70
     0
 43
0.0
 10
14.23345513879702
 20
20.77753875129833
 10
17.35239494018793
 20
20.61364298629022
 42
0.1349441181412643
 10
17.37145390250943
 20
20.97514116777114
 10
14.34322797519477
 20
21.1343428856793
  0
LWPOLYLINE
  5
58
330
2
100
AcDbEntity
  8
PDF_レイヤー 1
100
AcDbPolyline
 90
        3
 70
     0
 43
0.0
 10
14.18583601038544
 20
20.5982035301663
 10
17.31444667989794
 20
20.43362910774618
 42
0.0921196259182288
 10
17.34057499026105
 20
20.61584862287936
  0
LWPOLYLINE
  5
59
330
2
100
AcDbEntity
  8
PDF_レイヤー 1
100
AcDbPolyline
 90
       37
 70
     0
 43
0.0
 10
60.19264407532391
 20
20.24708315161118
 10
60.17030493551087
 20
20.5004485854401
 10
60.08830049822249
 20
21.04054677585668
 10
59.95935558993455
 20
21.57810000097808
 10
59.78431853241211
 20
22.11254271296099
 10
59.56262377781181
 20
22.64274381611858
 10
59.29596796966373
 20
23.16785498868589
 10
58.98350278620284
 20
23.68617958713278
 10
58.62635932311587
 20
24.19771761145927
 10
58.22538590216787
 20
24.70077241813522
 10
57.78143084512388
 20
25.19477845931729
 10
57.29477692590561
 20
25.67860463931871
 10
56.76683801412145
 20
26.15140263637446
 10
56.19846243153649
 20
26.6126069026412
 10
55.59049849991573
 20
27.06080356851044
 10
54.94407731494596
 20
27.49542708613885
 10
54.26117829407894
 20
27.91591190768307
 10
53.54236698515805
 20
28.32084416353462
 10
52.78849170994831
 20
28.70994107977191
 10
52.0026629815883
 20
29.0826371085515
 10
51.18459802615632
 20
29.437518380265
 10
50.3365590350258
 20
29.77458489491241
 10
49.46024265172688
 20
30.09298833072867
 10
48.55734551978965
 20
30.39188036594874
 10
47.62899873490086
 20
30.6712610005726
 10
46.67746448843399
 20
30.9299991389135
 10
45.70443942391911
 20
31.16809478097148
 10
44.71190295880804
 20
31.38469960498148
 10
43.70126896270917
 20
31.57981361094349
 10
42.67479962699603
 20
31.75258847709248
 10
41.63419159519867
 20
31.90330697735004
 10
40.5814242847689
 20
32.03112078995128
 10
39.51904266100185
 20
32.13602991489606
 10
38.44846059350599
 20
32.21775157826272
 10
37.37137472581139
 20
32.27656855397305
 10
36.29061279713488
 20
32.31163252026187
 10
35.20758867708492
 20
32.32350902497259
  0
LWPOLYLINE
  5
5A
330
2
100
AcDbEntity
  8
PDF_レイヤー 1
100
AcDbPolyline
 90
        2
 70
     0
 43
0.0
 10
14.09441520150497
 20
19.79045982287576
 10
14.09469797542665
 20
19.80403297111661
  0
LWPOLYLINE
  5
5B
330
2
100
AcDbEntity
  8
PDF_レイヤー 1
100
AcDbPolyline
 90
       69
 70
     0
 43
0.0
 10
56.31968761176242
 20
19.87690381073457
 10
56.31883928999737
 20
19.71657099713971
 10
56.28518919331696
 20
19.21747502536732
 10
56.20431585171532
 20
18.72007569712505
 10
56.07650203911411
 20
18.22522133417794
 10
55.90203052943505
 20
17.73376025829103
 10
55.6811840965998
 20
17.24710633907276
 10
55.41509383629509
 20
16.76610789828814
 10
55.10319420067756
 20
16.29189603162399
 10
54.74718183327734
 20
15.82588460868865
 10
54.34733950801606
 20
15.36835640340382
 10
53.90508109450218
 20
14.92100805929962
 10
53.42068936665737
 20
14.48468789814112
 10
52.89557819409006
 20
14.06024424169331
 10
52.33116144640867
 20
13.64880818564302
 10
51.72828744537824
 20
13.25094527783352
 10
51.08837006060719
 20
12.86778661395161
 10
50.41310593562565
 20
12.50018051576234
 10
49.70390894004201
 20
12.14925807895241
 10
48.96191016954301
 20
11.81501930352186
 10
48.18993736334554
 20
11.49916083300076
 10
47.3882732953712
 20
11.20139989346745
 10
46.5594629309152
 20
10.9231503545303
 10
45.70548568742933
 20
10.66497776403277
 10
44.82775543452198
 20
10.42716489589648
 10
43.92909991141002
 20
10.21027729796478
 10
43.01065021378017
 20
10.0148805180811
 10
42.07438575908423
 20
9.841540104088764
 10
41.12313428653902
 20
9.690256055987774
 10
40.15887521359637
 20
9.561876695543219
 10
39.18302240986466
 20
9.456119248833374
 10
38.19868638848243
 20
9.37383203762333
 10
37.20756379297978
 20
9.314732287991333
 10
36.21191681473019
 20
9.279385547780833
 10
35.21400764510712
 20
9.267509043070106
 10
34.21609847548405
 20
9.27910277385915
 10
33.22045149723447
 20
9.314166740147967
 10
32.22932890173181
 20
9.372983715858239
 10
31.24471010642789
 20
9.455270927068326
 10
30.26914007661786
 20
9.560462825934777
 10
29.30403268191014
 20
9.688559412457692
 10
28.35278120936493
 20
9.839277912715274
 10
27.41679952859069
 20
10.01261832670761
 10
26.49778428311747
 20
10.20773233266961
 10
25.59856321216214
 20
10.42405438275794
 10
24.72055018533311
 20
10.66186725089425
 10
23.86657294184724
 20
10.9197570674701
 10
23.03747980346956
 20
11.19800660640723
 10
22.23553296157355
 20
11.49491922417547
 10
21.4624290596893
 20
11.81106046861828
 10
20.720713063112
 20
12.14473369620549
 10
20.010950519685
 20
12.49565613301539
 10
19.33512084686008
 20
12.86297945728299
 10
18.69520346208904
 20
13.24585534724323
 10
18.09176391321524
 20
13.64343548113103
 10
17.52649884376879
 20
14.05487153718133
 10
17.0011048972798
 20
14.47931519362913
 10
16.51586484766994
 20
14.91535258086594
 10
16.07304088631268
 20
15.36270092497014
 10
15.67263301320806
 20
15.81966358241158
 10
15.31633787188614
 20
16.28595777926861
 10
15.00387268842525
 20
16.76016964593279
 10
14.7366513324338
 20
17.24088531279571
 10
14.51552212567686
 20
17.72753923201398
 10
14.34048506815442
 20
18.21900030790087
 10
14.21210570770987
 20
18.71385467084803
 10
14.13066681826485
 20
19.21125399909027
 10
14.09645117374107
 20
19.71006719694094
 10
14.09532007805433
 20
19.87690381073457
  0
LWPOLYLINE
  5
5C
330
2
100
AcDbEntity
  8
PDF_レイヤー 1
100
AcDbPolyline
 90
       40
 70
     0
 43
0.0
 10
36.32375390075625
 20
10.19314119831004
 42
0.0118229765492913
 10
36.23730991289742
 20
10.19237770872227
 42
0.0065746163982893
 10
36.20620478151217
 20
10.19209493480045
 42
0.0008288367689544
 10
36.12193815285032
 20
10.18926719558367
 42
-0.0050016753288972
 10
35.98055119200828
 20
10.18530836068009
 42
-0.0012982658129546
 10
35.83209488312415
 20
10.18417726499333
 42
-0.0016815224573143
 10
35.71502647954694
 20
10.18635462419034
 42
-0.0027294329455803
 10
35.17040390638343
 20
10.18098191967836
 42
-0.0064614000556919
 10
34.21943520775992
 20
10.19201010262401
 42
-0.0049244936282973
 10
33.27016315266647
 20
10.22339800793097
 42
-0.0054206215772752
 10
32.32541548032003
 20
10.27542840952083
 42
-0.0055089659582001
 10
31.38632328640722
 20
10.34753575955027
 42
-0.005614058032553
 10
30.45514876230161
 20
10.43972005801926
 42
-0.0057789765713051
 10
29.53443687329832
 20
10.55169853100615
 42
-0.005554045249266
 10
28.62503594116237
 20
10.68318840458926
 42
-0.0059576956342638
 10
27.72977370511059
 20
10.83390690484685
 42
-0.0059626006151368
 10
26.84978126082977
 20
11.0032884839356
 42
-0.0060569927981935
 10
25.98760357361506
 20
11.19105036793382
 42
-0.0060249888971768
 10
25.14493728699654
 20
11.39634423507647
 42
-0.0064380883708658
 10
24.32319627058266
 20
11.61917008536352
 42
-0.0068428847561854
 10
23.52435994182517
 20
11.85839682310822
 42
-0.0068893484367186
 10
22.74984217033253
 20
12.11317612654559
 42
-0.0075774715393786
 10
22.00218792139985
 20
12.38322522175386
 42
-0.0069914849489489
 10
21.28196274287055
 20
12.66713023912464
 42
-0.0103054358441158
 10
20.59086327827469
 20
12.96460840473631
 42
-0.0031577866340379
 10
20.35025094831372
 20
13.07361775154547
 10
20.38192162754233
 20
13.05919628153958
 10
20.52161194485426
 20
12.97097081797415
 10
20.62341055666053
 20
12.82845276144539
 10
20.63613538313631
 20
12.73230962807281
 10
20.60955463449801
 20
12.63531817293517
 10
20.58212556409465
 20
12.59968865880296
 10
20.53857838015531
 20
12.57904616252006
 10
20.50973544014352
 20
12.58243944958025
 10
20.47551979561976
 20
12.59940588488129
 10
20.43706254227073
 20
12.63079379018822
 10
20.37513505342191
 20
12.69809398354903
 10
20.20292573511632
 20
12.91780932069753
 10
20.06210432211765
 20
13.0854942562562
 10
19.91958626558889
 20
13.2311228259235
  0
LWPOLYLINE
  5
5D
330
2
100
AcDbEntity
  8
PDF_レイヤー 1
100
AcDbPolyline
 90
       38
 70
     0
 43
0.0
 10
35.20747556751624
 20
32.25114717841362
 10
36.2904996875662
 20
32.23927067370289
 10
37.37154439016439
 20
32.20420670741408
 10
38.44834748393731
 20
32.14567250562544
 10
39.51949509927656
 20
32.06366806833708
 10
40.58187672304359
 20
31.9587589433923
 10
41.63464403347336
 20
31.83094513079109
 10
42.67496929134904
 20
31.68050940445517
 10
43.7014386270622
 20
31.50745176438454
 10
44.71207262316106
 20
31.3126205323442
 10
45.7051746361155
 20
31.09573293441255
 10
46.67819970063037
 20
30.85792006627625
 10
47.62945117317556
 20
30.59889915401362
 10
48.55779795806434
 20
30.31951851938976
 10
49.46069509000158
 20
30.0206264841697
 10
50.33729424722217
 20
29.70222304835346
 10
51.185050464431
 20
29.36515653370605
 10
52.00311541986301
 20
29.01027526199252
 10
52.78950969606639
 20
28.63757923321293
 10
53.54310219735443
 20
28.2484823169757
 10
54.26191350627533
 20
27.84355006112409
 10
54.94509530106402
 20
27.42306523957987
 10
55.59123371211211
 20
26.98844172195149
 10
56.19948041765454
 20
26.53996228216056
 10
56.76757322631782
 20
26.07904078981554
 10
57.29551213810198
 20
25.60596001883806
 10
57.78216605732026
 20
25.12213383883665
 10
58.22640388828593
 20
24.62812779765457
 10
58.62766008315562
 20
24.12507299097863
 10
58.9845207723209
 20
23.61381774057386
 10
59.29698595578179
 20
23.09521036820525
 10
59.56392453785156
 20
22.57009919563794
 10
59.78533651853019
 20
22.03989809248032
 10
59.96037357605262
 20
21.50545538049744
 10
60.08903571041888
 20
20.96761938145434
 10
60.17132292162893
 20
20.42752119103778
 10
60.20666966183944
 20
19.88629190493447
 10
60.20780075752618
 20
19.69287454250255
  0
LWPOLYLINE
  5
5E
330
2
100
AcDbEntity
  8
PDF_レイヤー 1
100
AcDbPolyline
 90
      141
 70
     0
 43
0.0
 10
14.12028901533907
 20
20.20746652518324
 42
-0.0224422135235937
 10
14.18815475654324
 20
20.61183323319142
 42
-0.0249097243291303
 10
14.29730549031329
 20
21.01252388021777
 42
-0.0217920258330224
 10
14.44547902527574
 20
21.40699350096705
 42
-0.0205161083080453
 10
14.63097871790048
 20
21.79609041720431
 42
-0.0184399767109491
 10
14.85267347250079
 20
22.18066295069466
 42
-0.0172608184448263
 10
15.11112883692003
 20
22.56212497104645
 42
-0.0159608570095463
 10
15.40521371547145
 20
22.94047647825974
 42
-0.0140303475528537
 10
15.73605920384182
 20
23.31600024625618
 42
-0.0138296421939576
 10
16.10394807595279
 20
23.68841350111407
 42
-0.0131591192235002
 10
16.508314783961
 20
24.0568679210684
 42
-0.0122967471681146
 10
16.94915932786646
 20
24.42079795827581
 42
-0.0111770061300113
 10
17.42591615982579
 20
24.77878974312782
 42
-0.0104374074096639
 10
17.93886805376069
 20
25.13027772778114
 42
-0.0102095639733657
 10
18.48631836614104
 20
25.47384804262728
 42
-0.0094351348912132
 10
19.06798432304517
 20
25.8086523659012
 42
-0.0086322878246913
 10
19.683017602708
 20
26.13355960191621
 42
-0.0082195929688896
 10
20.33000433552115
 20
26.44715588106382
 42
-0.0080120872508001
 10
21.00809619971955
 20
26.74915842942241
 42
-0.0077219565890051
 10
21.71587932569474
 20
27.03815337738351
 42
-0.007230653769508
 10
22.45165706991669
 20
27.31329240318212
 42
-0.0070284182931373
 10
23.21486388454199
 20
27.57372718505314
 42
-0.0070474915678002
 10
24.00267203035379
 20
27.81889217515325
 42
-0.006858264310637
 10
24.81423318558706
 20
28.04765627779563
 42
-0.0067183546807988
 10
25.64756793279001
 20
28.25973671905871
 42
-0.0063804839106761
 10
26.5012624023542
 20
28.454567951099
 42
-0.0063684032418371
 10
27.37305440290618
 20
28.63101887822987
 42
-0.0059808927226403
 10
28.26153006483753
 20
28.78937227437294
 42
-0.0056115639440742
 10
29.16470997069642
 20
28.92849704384151
 42
-0.0056234316859404
 10
30.08061470303112
 20
29.04839318663557
 42
-0.0054742005863088
 10
31.00698207046811
 20
29.1487779288334
 42
-0.0055349234512656
 10
31.94268097732069
 20
29.22880294866997
 42
-0.0054788352311503
 10
32.88516645829367
 20
29.28903379398867
 42
-0.0053918526678456
 10
33.83245909593529
 20
29.32890491694616
 42
-0.0058084971739265
 10
34.78286224671544
 20
29.34813354362066
 42
-0.0019949669464289
 10
35.20747556751624
 20
29.3502260706411
 42
-0.0017035225804721
 10
35.70544044360187
 20
29.34739833142425
 42
-0.0058088555878025
 10
36.65584359438202
 20
29.32647306121964
 42
-0.0051687088778155
 10
37.60313623202364
 20
29.28518806865375
 42
-0.0054803856167393
 10
38.54562171299664
 20
29.22326057980496
 42
-0.0055787823501777
 10
39.48075507200583
 20
29.14153891643826
 42
-0.0052731904921822
 10
40.40740521336452
 20
29.03974030463201
 42
-0.0054003997922537
 10
41.32302717177752
 20
28.91814751830785
 42
-0.0056189737513661
 10
42.22564152979306
 20
28.77732610530922
 42
-0.0058374087796653
 10
43.11383441780271
 20
28.61755883955769
 42
-0.0058133370461054
 10
43.985343644433
 20
28.43912849497503
 42
-0.0062810929342899
 10
44.83847256615383
 20
28.24260061940461
 42
-0.0064281907874766
 10
45.6712417655134
 20
28.02882353461146
 42
-0.0065619242053293
 10
46.48195459898161
 20
27.79808001451727
 42
-0.0068157816516254
 10
47.26891442302838
 20
27.55150115480876
 42
-0.0067170240365608
 10
48.03070736804524
 20
27.28908695548594
 42
-0.007251832646919
 10
48.76535401658045
 20
27.01196851223557
 42
-0.007594082032523
 10
49.47172327294724
 20
26.72155969466601
 42
-0.0077542410358537
 10
50.14811849361553
 20
26.41786050277733
 42
-0.0085159295545658
 10
50.79312580897689
 20
26.10256758009962
 42
-0.0089719343929526
 10
51.40533134942288
 20
25.77624647447621
 42
-0.0096522218087322
 10
51.98416956711017
 20
25.44031105551554
 42
-0.0102779499993774
 10
52.528509366352
 20
25.09617519282603
 42
-0.0104551742849796
 10
53.03693687753995
 20
24.74440443425104
 42
-0.0112937056236769
 10
53.50916932675234
 20
24.3866954233207
 42
-0.0116889099554685
 10
53.9446411661458
 20
24.02417925572172
 42
-0.0125453310331515
 10
54.34278684787696
 20
23.65798702714085
 42
-0.0132343902112079
 10
54.70332359802414
 20
23.28953260718652
 42
-0.0143787825228559
 10
55.02681696443072
 20
22.91966431762376
 42
-0.0156550848863673
 10
55.31326694709668
 20
22.54951325413933
 42
-0.0163855092044995
 10
55.56323909386539
 20
22.17964496457657
 42
-0.0178681230410389
 10
55.77673340473687
 20
21.80977667501381
 42
-0.0203033414316302
 10
55.95516374931951
 20
21.44019115937272
 42
-0.0198492258999189
 10
56.09881290153501
 20
21.06947454804492
 42
-0.0219600531822702
 10
56.20768086138338
 20
20.69593019750028
 42
-0.0224509817640324
 10
56.28063653317787
 20
20.31644759460025
 42
-0.035042913970547
 10
56.31711436907512
 20
19.92876454797141
 42
-0.0050671563170159
 10
56.32025315960579
 20
19.80290187542985
 10
56.31968761176242
 20
19.64370015752172
 10
56.28575474116032
 20
19.14488695967103
 10
56.20516417348037
 20
18.64748763142879
 10
56.07735036087918
 20
18.15263326848165
 10
55.90259607727841
 20
17.66088941867306
 10
55.68231519228653
 20
17.17423549945479
 10
55.41565938413845
 20
16.6932370586702
 10
55.10404252244263
 20
16.21902519200603
 10
54.74774738112071
 20
15.75301376907066
 10
54.34790505585944
 20
15.29548556378586
 10
53.90564664234554
 20
14.84813721968166
 10
53.42125491450075
 20
14.41181705852313
 10
52.89614374193345
 20
13.98737340207538
 10
52.33172699425203
 20
13.57565457210336
 10
51.72857021929992
 20
13.17779166429386
 10
51.08865283452887
 20
12.79491577433367
 10
50.41338870954733
 20
12.42730967614437
 10
49.70419171396369
 20
12.07610446541275
 10
48.96219294346471
 20
11.7421484639039
 10
48.18993736334554
 20
11.42600721946107
 10
47.38883884321457
 20
11.12852905384946
 10
46.5597457048369
 20
10.85027951491233
 10
45.70576846135101
 20
10.59182415049311
 10
44.82832098236535
 20
10.35401128235682
 10
43.92909991141002
 20
10.13712368442512
 10
43.01065021378017
 20
9.941726904541425
 10
42.07438575908423
 20
9.768386490549104
 10
41.12313428653904
 20
9.617102442448114
 10
40.15859243967469
 20
9.488723082003559
 10
39.18302240986466
 20
9.383248409215397
 10
38.19868638848243
 20
9.300678424083656
 10
37.20756379297978
 20
9.241861448373384
 10
36.21163404080851
 20
9.206231934241174
 10
35.21344209726375
 20
9.194355429530446
 10
34.21609847548405
 20
9.205949160319491
 10
33.22016872331277
 20
9.241295900529991
 10
32.22876335388843
 20
9.299830102318622
 10
31.24386178466284
 20
9.381834539606984
 10
30.2682917548528
 20
9.48730921239516
 10
29.30374990798846
 20
9.615405798918018
 10
28.35221566152157
 20
9.766407073097298
 10
27.41595120682564
 20
9.939464713167978
 10
26.49693596135242
 20
10.13457871912994
 10
25.59799766431877
 20
10.35118354313997
 10
24.71998463748975
 20
10.58899641127627
 10
23.86572462008219
 20
10.84688622785212
 10
23.0366314817045
 20
11.12485299286757
 10
22.23468463980849
 20
11.42204838455751
 10
21.46214628576762
 20
11.73790685507862
 10
20.71986474134696
 20
12.0718628565875
 10
20.01010219791994
 20
12.42278529339742
 10
19.33427252509504
 20
12.79010861766503
 10
18.6940723664023
 20
13.17298450762524
 10
18.0909155914502
 20
13.57056464151304
 10
17.52565052200375
 20
13.98228347148503
 10
16.99997380159306
 20
14.40644435401114
 10
16.5150165259049
 20
14.84276451516968
 10
16.07219256454765
 20
15.29011285927387
 10
15.67178469144302
 20
15.74707551671531
 10
15.3152067761994
 20
16.21336971357232
 10
15.0030243666602
 20
16.68729880631483
 10
14.73580301066876
 20
17.16829724709944
 10
14.5149565778335
 20
17.65495116631771
 10
14.33963674638938
 20
18.1464122422046
 10
14.21125738594481
 20
18.64154937907341
 10
14.1298184964998
 20
19.13866593339401
 10
14.09560285197602
 20
19.63776190516637
 10
14.09447175628928
 20
19.79045982287576
  0
ARC
  5
5F
330
2
100
AcDbEntity
  8
PDF_レイヤー 1
100
AcDbCircle
 10
53.22565739274373
 20
19.60543274187515
 30
0.0
 40
3.088550900079988
100
AcDbArc
 50
358.6298309986607
 51
0.2718809802618458
  0
ARC
  5
60
330
2
100
AcDbEntity
  8
PDF_レイヤー 1
100
AcDbCircle
 10
20.50943381307739
 20
12.67993989390797
 30
0.0
 40
0.076098425472092
100
AcDbArc
 50
246.6103775837193
 51
252.7433489215807
  0
ARC
  5
61
330
2
100
AcDbEntity
  8
PDF_レイヤー 1
100
AcDbCircle
 10
35.74700484062289
 20
10.11409032191231
 30
0.0
 40
0.5261680944738658
100
AcDbArc
 50
302.6877935592183
 51
312.0346229379258
  0
ARC
  5
62
330
2
100
AcDbEntity
  8
PDF_レイヤー 1
100
AcDbCircle
 10
35.9950116182188
 20
10.23491019986046
 30
0.0
 40
0.4166451384410097
100
AcDbArc
 50
326.7897619272324
 51
333.9521292570956
  0
ARC
  5
63
330
2
100
AcDbEntity
  8
PDF_レイヤー 1
100
AcDbCircle
 10
36.30414209401988
 20
10.37623716680958
 30
0.0
 40
0.8321605853269769
100
AcDbArc
 50
235.7006225053624
 51
238.871209655745
  0
ARC
  5
64
330
2
100
AcDbEntity
  8
PDF_レイヤー 1
100
AcDbCircle
 10
19.47704291822534
 20
12.82444093430993
 30
0.0
 40
0.6010223540208099
100
AcDbArc
 50
59.52317121962966
 51
63.11875624265493
  0
ARC
  5
65
330
2
100
AcDbEntity
  8
PDF_レイヤー 1
100
AcDbCircle
 10
34.7988386286001
 20
11.09405287786003
 30
0.0
 40
1.919209389347686
100
AcDbArc
 50
316.0788539736056
 51
319.4319954267534
  0
ELLIPSE
  5
66
330
2
100
AcDbEntity
  8
PDF_レイヤー 1
100
AcDbEllipse
 10
35.216630780788
 20
19.8185972185517
 30
0.0
 11
-25.00845222578191
 21
0.0054365415910066
 31
0.0
210
0.0
220
0.0
230
0.9999999999999998
 40
0.5000216996005069
 41
4.712863763939175
 42
6.25270741599945
  0
ELLIPSE
  5
67
330
2
100
AcDbEntity
  8
PDF_レイヤー 1
100
AcDbEllipse
 10
35.20746331826918
 20
19.8241023827951
 30
0.0
 11
-21.11442882637139
 21
0.0000007104396335
 31
0.0
210
0.0
220
0.0
230
1.0
 40
0.5000231132595793
 41
0.0202304333150463
 42
3.122514273870092
  0
SPLINE
  5
68
330
2
100
AcDbEntity
  8
PDF_レイヤー 1
100
AcDbSpline
210
0.0
220
0.0
230
1.0
 70
     8
 71
     3
 72
     8
 73
     4
 74
     0
 42
0.000000001
 43
0.0000000001
 40
0.0
 40
0.0
 40
0.0
 40
0.0
 40
1.0
 40
1.0
 40
1.0
 40
1.0
 10
56.31332519852453
 20
19.53158029757398
 30
0.0
 10
56.30993191146433
 20
19.39754545869573
 30
0.0
 10
56.29126883263317
 20
19.26294507197411
 30
0.0
 10
56.26723304929003
 20
19.12749636348744
 30
0.0
  0
SPLINE
  5
69
330
2
100
AcDbEntity
  8
PDF_レイヤー 1
100
AcDbSpline
210
0.0
220
0.0
230
1.0
 70
     8
 71
     3
 72
     8
 73
     4
 74
     0
 42
0.000000001
 43
0.0000000001
 40
0.0
 40
0.0
 40
0.0
 40
0.0
 40
1.0
 40
1.0
 40
1.0
 40
1.0
 10
20.52531628322834
 20
12.70425845504178
 30
0.0
 10
20.52559905715003
 20
12.6878575675841
 30
0.0
 10
20.5261646049934
 20
12.67145668012642
 30
0.0
 10
20.52164022224645
 20
12.65533856659041
 30
0.0
  0
SPLINE
  5
6A
330
2
100
AcDbEntity
  8
PDF_レイヤー 1
100
AcDbSpline
210
0.0
220
0.0
230
1.0
 70
     8
 71
     3
 72
     8
 73
     4
 74
     0
 42
0.000000001
 43
0.0000000001
 40
0.0
 40
0.0
 40
0.0
 40
0.0
 40
1.0
 40
1.0
 40
1.0
 40
1.0
 10
20.52164022224645
 20
12.65533856659041
 30
0.0
 10
20.51768138734287
 20
12.63950322697613
 30
0.0
 10
20.50891539577067
 20
12.62423343520518
 30
0.0
 10
20.50099772596352
 20
12.61603299147634
 30
0.0
  0
SPLINE
  5
6B
330
2
100
AcDbEntity
  8
PDF_レイヤー 1
100
AcDbSpline
210
0.0
220
0.0
230
1.0
 70
     8
 71
     3
 72
     8
 73
     4
 74
     0
 42
0.000000001
 43
0.0000000001
 40
0.0
 40
0.0
 40
0.0
 40
0.0
 40
1.0
 40
1.0
 40
1.0
 40
1.0
 10
20.50099772596352
 20
12.61603299147634
 30
0.0
 10
20.49590779537319
 20
12.61094306088606
 30
0.0
 10
20.49166618654794
 20
12.60839809559087
 30
0.0
 10
20.4905350908612
 20
12.60726699990417
 30
0.0
  0
SPLINE
  5
6C
330
2
100
AcDbEntity
  8
PDF_レイヤー 1
100
AcDbSpline
210
0.0
220
0.0
230
1.0
 70
     8
 71
     3
 72
     8
 73
     4
 74
     0
 42
0.000000001
 43
0.0000000001
 40
0.0
 40
0.0
 40
0.0
 40
0.0
 40
1.0
 40
1.0
 40
1.0
 40
1.0
 10
20.4905350908612
 20
12.60726699990417
 30
0.0
 10
20.48996954301783
 20
12.60641867813908
 30
0.0
 10
20.49110063870457
 20
12.60613590421741
 30
0.0
 10
20.48685902987931
 20
12.60726699990417
 30
0.0
  0
SPLINE
  5
6D
330
2
100
AcDbEntity
  8
PDF_レイヤー 1
100
AcDbSpline
210
0.0
220
0.0
230
1.0
 70
     8
 71
     3
 72
     8
 73
     4
 74
     0
 42
0.000000001
 43
0.0000000001
 40
0.0
 40
0.0
 40
0.0
 40
0.0
 40
1.0
 40
1.0
 40
1.0
 40
1.0
 10
20.47922413399384
 20
12.61009473912096
 30
0.0
 10
20.47583084693362
 20
12.61150860872942
 30
0.0
 10
20.47158923810837
 20
12.61405357402455
 30
0.0
 10
20.46678208143974
 20
12.61716408716307
 30
0.0
  0
SPLINE
  5
6E
330
2
100
AcDbEntity
  8
PDF_レイヤー 1
100
AcDbSpline
210
0.0
220
0.0
230
1.0
 70
     8
 71
     3
 72
     8
 73
     4
 74
     0
 42
0.000000001
 43
0.0000000001
 40
0.0
 40
0.0
 40
0.0
 40
0.0
 40
1.0
 40
1.0
 40
1.0
 40
1.0
 10
36.29245082762583
 20
9.935081717381834
 30
0.0
 10
36.26982891389109
 20
9.903411038153222
 30
0.0
 10
36.23730991289743
 20
9.866084880490916
 30
0.0
 10
36.20337704229534
 20
9.828475948906927
 30
0.0
  0
SPLINE
  5
6F
330
2
100
AcDbEntity
  8
PDF_レイヤー 1
100
AcDbSpline
210
0.0
220
0.0
230
1.0
 70
     8
 71
     3
 72
     8
 73
     4
 74
     0
 42
0.000000001
 43
0.0000000001
 40
0.0
 40
0.0
 40
0.0
 40
0.0
 40
1.0
 40
1.0
 40
1.0
 40
1.0
 10
36.20337704229534
 20
9.828475948906927
 30
0.0
 10
36.17198913698842
 20
9.79341198261811
 30
0.0
 10
36.13890458815138
 20
9.757782468485928
 30
0.0
 10
36.09931623911561
 20
9.723284050040476
 30
0.0
  0
SPLINE
  5
70
330
2
100
AcDbEntity
  8
PDF_レイヤー 1
100
AcDbSpline
210
0.0
220
0.0
230
1.0
 70
     8
 71
     3
 72
     8
 73
     4
 74
     0
 42
0.000000001
 43
0.0000000001
 40
0.0
 40
0.0
 40
0.0
 40
0.0
 40
1.0
 40
1.0
 40
1.0
 40
1.0
 10
36.03116772398974
 20
9.671253648450587
 30
0.0
 10
36.01561515829712
 20
9.661639335113349
 30
0.0
 10
35.99893149691776
 20
9.652873343541116
 30
0.0
 10
35.97942009632156
 20
9.64721786510745
 30
0.0
  0
SPLINE
  5
71
330
2
100
AcDbEntity
  8
PDF_レイヤー 1
100
AcDbSpline
210
0.0
220
0.0
230
1.0
 70
     8
 71
     3
 72
     8
 73
     4
 74
     0
 42
0.000000001
 43
0.0000000001
 40
0.0
 40
0.0
 40
0.0
 40
0.0
 40
1.0
 40
1.0
 40
1.0
 40
1.0
 10
35.93163130355696
 20
9.643259030203878
 30
0.0
 10
35.92343085982812
 20
9.644390125890609
 30
0.0
 10
35.91579596394266
 20
9.646369543342402
 30
0.0
 10
35.90872661590055
 20
9.64834896079418
 30
0.0
  0
SPLINE
  5
72
330
2
100
AcDbEntity
  8
PDF_レイヤー 1
100
AcDbSpline
210
0.0
220
0.0
230
1.0
 70
     8
 71
     3
 72
     8
 73
     4
 74
     0
 42
0.000000001
 43
0.0000000001
 40
0.0
 40
0.0
 40
0.0
 40
0.0
 40
1.0
 40
1.0
 40
1.0
 40
1.0
 10
35.90872661590055
 20
9.64834896079418
 30
0.0
 10
35.89600178942476
 20
9.652590569619434
 30
0.0
 10
35.8849736064791
 20
9.658246048053129
 30
0.0
 10
35.8739454235334
 20
9.663901526486796
 30
0.0
  0
SPLINE
  5
73
330
2
100
AcDbEntity
  8
PDF_レイヤー 1
100
AcDbSpline
210
0.0
220
0.0
230
1.0
 70
     8
 71
     3
 72
     8
 73
     4
 74
     0
 42
0.000000001
 43
0.0000000001
 40
0.0
 40
0.0
 40
0.0
 40
0.0
 40
1.0
 40
1.0
 40
1.0
 40
1.0
 10
36.37612363105214
 20
10.07202912765346
 30
0.0
 10
36.37527530928709
 20
10.06722197098484
 30
0.0
 10
36.37442698752203
 20
10.0624148143162
 30
0.0
 10
36.36933705693173
 20
10.05195217921391
 30
0.0
  0
SPLINE
  5
74
330
2
100
AcDbEntity
  8
PDF_レイヤー 1
100
AcDbSpline
210
0.0
220
0.0
230
1.0
 70
     8
 71
     3
 72
     8
 73
     4
 74
     0
 42
0.000000001
 43
0.0000000001
 40
0.0
 40
0.0
 40
0.0
 40
0.0
 40
1.0
 40
1.0
 40
1.0
 40
1.0
 10
36.34360463005847
 20
10.00670835174445
 30
0.0
 10
36.32918316005258
 20
9.984369211931408
 30
0.0
 10
36.31108562906481
 20
9.960050654666588
 30
0.0
 10
36.29242255023366
 20
9.935166549558374
 30
0.0
  0
SPLINE
  5
75
330
2
100
AcDbEntity
  8
PDF_レイヤー 1
100
AcDbSpline
210
0.0
220
0.0
230
1.0
 70
     8
 71
     3
 72
     8
 73
     4
 74
     0
 42
0.000000001
 43
0.0000000001
 40
0.0
 40
0.0
 40
0.0
 40
0.0
 40
1.0
 40
1.0
 40
1.0
 40
1.0
 10
35.83520539626268
 20
9.688785631594981
 30
0.0
 10
35.80579690840755
 20
9.709428127877941
 30
0.0
 10
35.78204389898608
 20
9.733181137299396
 30
0.0
 10
35.75913921132967
 20
9.756085824955803
 30
0.0
  0
SPLINE
  5
76
330
2
100
AcDbEntity
  8
PDF_レイヤー 1
100
AcDbSpline
210
0.0
220
0.0
230
1.0
 70
     8
 71
     3
 72
     8
 73
     4
 74
     0
 42
0.000000001
 43
0.0000000001
 40
0.0
 40
0.0
 40
0.0
 40
0.0
 40
1.0
 40
1.0
 40
1.0
 40
1.0
 10
35.59795807596974
 20
9.953179248369579
 30
0.0
 10
35.58297105812049
 20
9.976083936025986
 30
0.0
 10
35.57109455340977
 20
9.99559533662223
 30
0.0
 10
35.56402520536767
 20
10.01341009368829
 30
0.0
  0
SPLINE
  5
77
330
2
100
AcDbEntity
  8
PDF_レイヤー 1
100
AcDbSpline
210
0.0
220
0.0
230
1.0
 70
     8
 71
     3
 72
     8
 73
     4
 74
     0
 42
0.000000001
 43
0.0000000001
 40
0.0
 40
0.0
 40
0.0
 40
0.0
 40
1.0
 40
1.0
 40
1.0
 40
1.0
 10
35.56402520536767
 20
10.01341009368829
 30
0.0
 10
35.55808695301229
 20
10.02839711153756
 30
0.0
 10
35.55582476163882
 20
10.04197025977841
 30
0.0
 10
35.55497643987377
 20
10.04140471193501
 30
0.0
  0
SPLINE
  5
78
330
2
100
AcDbEntity
  8
PDF_レイヤー 1
100
AcDbSpline
210
0.0
220
0.0
230
1.0
 70
     8
 71
     3
 72
     8
 73
     4
 74
     0
 42
0.000000001
 43
0.0000000001
 40
0.0
 40
0.0
 40
0.0
 40
0.0
 40
1.0
 40
1.0
 40
1.0
 40
1.0
 10
14.09540491023087
 20
19.79433382560282
 30
0.0
 10
14.09512213630918
 20
19.79829266050638
 30
0.0
 10
14.0948393623875
 20
19.80196872148826
 30
0.0
 10
14.0948393623875
 20
19.80621033031354
 30
0.0
  0
SPLINE
  5
79
330
2
100
AcDbEntity
  8
PDF_レイヤー 1
100
AcDbSpline
210
0.0
220
0.0
230
1.0
 70
     8
 71
     3
 72
     8
 73
     4
 74
     0
 42
0.000000001
 43
0.0000000001
 40
0.0
 40
0.0
 40
0.0
 40
0.0
 40
1.0
 40
1.0
 40
1.0
 40
1.0
 10
14.0948393623875
 20
19.80621033031354
 30
0.0
 10
14.0894666578755
 20
19.93967962134843
 30
0.0
 10
14.10275703219465
 20
20.07314891238332
 30
0.0
 10
14.12028901533907
 20
20.20746652518324
 30
0.0
  0
SPLINE
  5
7A
330
2
100
AcDbEntity
  8
PDF_レイヤー 1
100
AcDbSpline
210
0.0
220
0.0
230
1.0
 70
     8
 71
     3
 72
     8
 73
     4
 74
     0
 42
0.000000001
 43
0.0000000001
 40
0.0
 40
0.0
 40
0.0
 40
0.0
 40
1.0
 40
1.0
 40
1.0
 40
1.0
 10
19.9195862655889
 20
13.2310097163548
 30
0.0
 10
19.86896973360745
 20
13.27512244813752
 30
0.0
 10
19.81835320162599
 20
13.31923517992021
 30
0.0
 10
19.78187536572876
 20
13.3424226414983
 30
0.0
  0
SPLINE
  5
7B
330
2
100
AcDbEntity
  8
PDF_レイヤー 1
100
AcDbSpline
210
0.0
220
0.0
230
1.0
 70
     8
 71
     3
 72
     8
 73
     4
 74
     0
 42
0.000000001
 43
0.0000000001
 40
0.0
 40
0.0
 40
0.0
 40
0.0
 40
1.0
 40
1.0
 40
1.0
 40
1.0
 10
35.55794556605146
 20
9.950577728290099
 30
0.0
 10
35.52118495623253
 20
10.00656696478356
 30
0.0
 10
35.49488698151592
 20
10.05463853146986
 30
0.0
 10
35.48866595523887
 20
10.09168191521045
 30
0.0
  0
SPLINE
  5
7C
330
2
100
AcDbEntity
  8
PDF_レイヤー 1
100
AcDbSpline
210
0.0
220
0.0
230
1.0
 70
     8
 71
     3
 72
     8
 73
     4
 74
     0
 42
0.000000001
 43
0.0000000001
 40
0.0
 40
0.0
 40
0.0
 40
0.0
 40
1.0
 40
1.0
 40
1.0
 40
1.0
 10
35.48866595523887
 20
10.09168191521045
 30
0.0
 10
35.48414157249192
 20
10.11713156816203
 30
0.0
 10
35.48894872916056
 20
10.13749129052327
 30
0.0
 10
35.50817735583506
 20
10.15219553445085
 30
0.0
  0
SPLINE
  5
7D
330
2
100
AcDbEntity
  8
PDF_レイヤー 1
100
AcDbSpline
210
0.0
220
0.0
230
1.0
 70
     8
 71
     3
 72
     8
 73
     4
 74
     0
 42
0.000000001
 43
0.0000000001
 40
0.0
 40
0.0
 40
0.0
 40
0.0
 40
1.0
 40
1.0
 40
1.0
 40
1.0
 10
35.50817735583506
 20
10.15219553445085
 30
0.0
 10
35.52372992152769
 20
10.1637892652399
 30
0.0
 10
35.54833125271421
 20
10.17170693504705
 30
0.0
 10
35.58085025370786
 20
10.17651409171567
 30
0.0
  0
SPLINE
  5
7E
330
2
100
AcDbEntity
  8
PDF_レイヤー 1
100
AcDbSpline
210
0.0
220
0.0
230
1.0
 70
     8
 71
     3
 72
     8
 73
     4
 74
     0
 42
0.000000001
 43
0.0000000001
 40
0.0
 40
0.0
 40
0.0
 40
0.0
 40
1.0
 40
1.0
 40
1.0
 40
1.0
 10
35.58085025370786
 20
10.17651409171567
 30
0.0
 10
35.60827932411122
 20
10.18075570054095
 30
0.0
 10
35.64136387294826
 20
10.18301789191442
 30
0.0
 10
35.68802157002614
 20
10.18358343975778
 30
0.0
  0
SPLINE
  5
7F
330
2
100
AcDbEntity
  8
PDF_レイヤー 1
100
AcDbSpline
210
0.0
220
0.0
230
1.0
 70
    24
 71
     3
 72
     8
 73
     4
 74
     0
 42
0.000000001
 43
0.0000000001
 40
0.0
 40
0.0
 40
0.0
 40
0.0
 40
1.0
 40
1.0
 40
1.0
 40
1.0
 10
35.68802157002614
 20
10.18358343975778
 30
0.0
 10
35.69650478767666
 20
10.18358343975778
 30
0.0
 10
35.70583632709223
 20
10.18358343975778
 30
0.0
 10
35.7151678665078
 20
10.18358343975778
 30
0.0
  0
SPLINE
  5
80
330
2
100
AcDbEntity
  8
PDF_レイヤー 1
100
AcDbSpline
210
0.0
220
0.0
230
1.0
 70
     8
 71
     3
 72
     8
 73
     4
 74
     0
 42
0.000000001
 43
0.0000000001
 40
0.0
 40
0.0
 40
0.0
 40
0.0
 40
1.0
 40
1.0
 40
1.0
 40
1.0
 10
36.32375390075625
 20
10.1931411983107
 30
0.0
 10
36.35796954528003
 20
10.19229287654566
 30
0.0
 10
36.38172255470148
 20
10.18946513732881
 30
0.0
 10
36.39953731176758
 20
10.18380965889514
 30
0.0
  0
SPLINE
  5
81
330
2
100
AcDbEntity
  8
PDF_レイヤー 1
100
AcDbSpline
210
0.0
220
0.0
230
1.0
 70
     8
 71
     3
 72
     8
 73
     4
 74
     0
 42
0.000000001
 43
0.0000000001
 40
0.0
 40
0.0
 40
0.0
 40
0.0
 40
1.0
 40
1.0
 40
1.0
 40
1.0
 10
36.39953731176758
 20
10.18380965889514
 30
0.0
 10
36.42357309511073
 20
10.17589198908798
 30
0.0
 10
36.4365806955082
 20
10.16373271045557
 30
0.0
 10
36.4399739825684
 20
10.14648350123283
 30
0.0
  0
SPLINE
  5
82
330
2
100
AcDbEntity
  8
PDF_レイヤー 1
100
AcDbSpline
210
0.0
220
0.0
230
1.0
 70
     8
 71
     3
 72
     8
 73
     4
 74
     0
 42
0.000000001
 43
0.0000000001
 40
0.0
 40
0.0
 40
0.0
 40
0.0
 40
1.0
 40
1.0
 40
1.0
 40
1.0
 10
36.4399739825684
 20
10.14648350123283
 30
0.0
 10
36.44421559139367
 20
10.12273049181138
 30
0.0
 10
36.4312079909962
 20
10.08992871689601
 30
0.0
 10
36.4080205294181
 20
10.05005759393857
 30
0.0
  0
SPLINE
  5
83
330
2
100
AcDbEntity
  8
PDF_レイヤー 1
100
AcDbSpline
210
0.0
220
0.0
230
1.0
 70
     8
 71
     3
 72
     8
 73
     4
 74
     0
 42
0.000000001
 43
0.0000000001
 40
0.0
 40
0.0
 40
0.0
 40
0.0
 40
1.0
 40
1.0
 40
1.0
 40
1.0
 10
36.4080205294181
 20
10.05005759393857
 30
0.0
 10
36.37521875450275
 20
9.993785583523433
 30
0.0
 10
36.3231883529129
 20
9.923092103102433
 30
0.0
 10
36.25673648131712
 20
9.845894822482691
 30
0.0
  0
SPLINE
  5
84
330
2
100
AcDbEntity
  8
PDF_レイヤー 1
100
AcDbSpline
210
0.0
220
0.0
230
1.0
 70
     8
 71
     3
 72
     8
 73
     4
 74
     0
 42
0.000000001
 43
0.0000000001
 40
0.0
 40
0.0
 40
0.0
 40
0.0
 40
1.0
 40
1.0
 40
1.0
 40
1.0
 10
36.18123584422749
 20
9.76275928950757
 30
0.0
 10
36.15324122598077
 20
9.734199123417454
 30
0.0
 10
36.1224188685172
 20
9.705073409484015
 30
0.0
 10
36.08622380654164
 20
9.678492660845705
 30
0.0
  0
SPLINE
  5
85
330
2
100
AcDbEntity
  8
PDF_レイヤー 1
100
AcDbSpline
210
0.0
220
0.0
230
1.0
 70
     8
 71
     3
 72
     8
 73
     4
 74
     0
 42
0.000000001
 43
0.0000000001
 40
0.0
 40
0.0
 40
0.0
 40
0.0
 40
1.0
 40
1.0
 40
1.0
 40
1.0
 10
36.08622380654164
 20
9.678492660845705
 30
0.0
 10
36.06982291908396
 20
9.666616156134978
 30
0.0
 10
36.05257370986123
 20
9.655305199267615
 30
0.0
 10
36.03306230926504
 20
9.645690885930349
 30
0.0
  0
SPLINE
  5
86
330
2
100
AcDbEntity
  8
PDF_レイヤー 1
100
AcDbSpline
210
0.0
220
0.0
230
1.0
 70
     8
 71
     3
 72
     8
 73
     4
 74
     0
 42
0.000000001
 43
0.0000000001
 40
0.0
 40
0.0
 40
0.0
 40
0.0
 40
1.0
 40
1.0
 40
1.0
 40
1.0
 10
35.83936217291145
 20
9.653891329659217
 30
0.0
 10
35.81758858094178
 20
9.666616156134978
 30
0.0
 10
35.79864272818894
 20
9.68132040006256
 30
0.0
 10
35.7799796493578
 20
9.695741870068417
 30
0.0
  0
SPLINE
  5
87
330
2
100
AcDbEntity
  8
PDF_レイヤー 1
100
AcDbSpline
210
0.0
220
0.0
230
1.0
 70
     8
 71
     3
 72
     8
 73
     4
 74
     0
 42
0.000000001
 43
0.0000000001
 40
0.0
 40
0.0
 40
0.0
 40
0.0
 40
1.0
 40
1.0
 40
1.0
 40
1.0
 10
20.51329839155677
 20
12.70536127333631
 30
0.0
 10
20.5181055482254
 20
12.73194202197462
 30
0.0
 10
20.52234715705066
 20
12.75823999669123
 30
0.0
 10
20.51980219175551
 20
12.78453797140787
 30
0.0
  0
SPLINE
  5
88
330
2
100
AcDbEntity
  8
PDF_レイヤー 1
100
AcDbSpline
210
0.0
220
0.0
230
1.0
 70
     8
 71
     3
 72
     8
 73
     4
 74
     0
 42
0.000000001
 43
0.0000000001
 40
0.0
 40
0.0
 40
0.0
 40
0.0
 40
1.0
 40
1.0
 40
1.0
 40
1.0
 10
20.51980219175551
 20
12.78453797140787
 30
0.0
 10
20.51471226116519
 20
12.83628559907603
 30
0.0
 10
20.48304158193658
 20
12.88718490497916
 30
0.0
 10
20.43666665878039
 20
12.93525647166547
 30
0.0
  0
SPLINE
  5
89
330
2
100
AcDbEntity
  8
PDF_レイヤー 1
100
AcDbSpline
210
0.0
220
0.0
230
1.0
 70
     8
 71
     3
 72
     8
 73
     4
 74
     0
 42
0.000000001
 43
0.0000000001
 40
0.0
 40
0.0
 40
0.0
 40
0.0
 40
1.0
 40
1.0
 40
1.0
 40
1.0
 10
36.37224962832507
 20
10.07078492239805
 30
0.0
 10
36.37366349793348
 20
10.07530930514498
 30
0.0
 10
36.37507736754191
 20
10.07983368789192
 30
0.0
 10
36.37564291538527
 20
10.08379252279549
 30
0.0
  0
SPLINE
  5
8A
330
2
100
AcDbEntity
  8
PDF_レイヤー 1
100
AcDbSpline
210
0.0
220
0.0
230
1.0
 70
     8
 71
     3
 72
     8
 73
     4
 74
     0
 42
0.000000001
 43
0.0000000001
 40
0.0
 40
0.0
 40
0.0
 40
0.0
 40
1.0
 40
1.0
 40
1.0
 40
1.0
 10
36.37564291538527
 20
10.08379252279549
 30
0.0
 10
36.37988452421054
 20
10.10811108006035
 30
0.0
 10
36.36404918459623
 20
10.1211186804578
 30
0.0
 10
36.34086172301812
 20
10.13158131556012
 30
0.0
  0
SPLINE
  5
8B
330
2
100
AcDbEntity
  8
PDF_レイヤー 1
100
AcDbSpline
210
0.0
220
0.0
230
1.0
 70
     8
 71
     3
 72
     8
 73
     4
 74
     0
 42
0.000000001
 43
0.0000000001
 40
0.0
 40
0.0
 40
0.0
 40
0.0
 40
1.0
 40
1.0
 40
1.0
 40
1.0
 10
36.34086172301812
 20
10.13158131556012
 30
0.0
 10
36.32417806163878
 20
10.1392162114456
 30
0.0
 10
36.30325279143415
 20
10.14515446380093
 30
0.0
 10
36.27497539926574
 20
10.14883052478284
 30
0.0
  0
SPLINE
  5
8C
330
2
100
AcDbEntity
  8
PDF_レイヤー 1
100
AcDbSpline
210
0.0
220
0.0
230
1.0
 70
     8
 71
     3
 72
     8
 73
     4
 74
     0
 42
0.000000001
 43
0.0000000001
 40
0.0
 40
0.0
 40
0.0
 40
0.0
 40
1.0
 40
1.0
 40
1.0
 40
1.0
 10
36.27497539926574
 20
10.14883052478284
 30
0.0
 10
36.24782910278407
 20
10.15278935968641
 30
0.0
 10
36.21333068433862
 20
10.15392045537317
 30
0.0
 10
36.17374233530285
 20
10.15448600321653
 30
0.0
  0
SPLINE
  5
8D
330
2
100
AcDbEntity
  8
PDF_レイヤー 1
100
AcDbSpline
210
0.0
220
0.0
230
1.0
 70
     8
 71
     3
 72
     8
 73
     4
 74
     0
 42
0.000000001
 43
0.0000000001
 40
0.0
 40
0.0
 40
0.0
 40
0.0
 40
1.0
 40
1.0
 40
1.0
 40
1.0
 10
35.72724231296371
 20
10.14430614203589
 30
0.0
 10
35.69048170314477
 20
10.14147840281904
 30
0.0
 10
35.65965934568122
 20
10.13667124615043
 30
0.0
 10
35.63534078841639
 20
10.13016744595168
 30
0.0
  0
SPLINE
  5
8E
330
2
100
AcDbEntity
  8
PDF_レイヤー 1
100
AcDbSpline
210
0.0
220
0.0
230
1.0
 70
     8
 71
     3
 72
     8
 73
     4
 74
     0
 42
0.000000001
 43
0.0000000001
 40
0.0
 40
0.0
 40
0.0
 40
0.0
 40
1.0
 40
1.0
 40
1.0
 40
1.0
 10
35.63534078841639
 20
10.13016744595168
 30
0.0
 10
35.60536675271789
 20
10.12253255006624
 30
0.0
 10
35.58415870859157
 20
10.11206991496392
 30
0.0
 10
35.57284775172421
 20
10.09680012319299
 30
0.0
  0
SPLINE
  5
8F
330
2
100
AcDbEntity
  8
PDF_レイヤー 1
100
AcDbSpline
210
0.0
220
0.0
230
1.0
 70
     8
 71
     3
 72
     8
 73
     4
 74
     0
 42
0.000000001
 43
0.0000000001
 40
0.0
 40
0.0
 40
0.0
 40
0.0
 40
1.0
 40
1.0
 40
1.0
 40
1.0
 10
35.57284775172421
 20
10.09680012319299
 30
0.0
 10
35.56097124701347
 20
10.08096478357868
 30
0.0
 10
35.56012292524842
 20
10.06003951337403
 30
0.0
 10
35.55927460348338
 20
10.03939701709112
 30
0.0
  0
LWPOLYLINE
  5
90
330
2
100
AcDbEntity
  8
PDF_レイヤー 1
100
AcDbPolyline
 90
       76
 70
     0
 43
0.0
 10
60.19680085197265
 20
20.08703311193798
 42
0.0087820130847148
 10
60.17559280784635
 20
20.47358506288012
 42
0.021543978981833
 10
60.1020715882087
 20
21.04139509762175
 42
0.0174702808451143
 10
59.98698260208328
 20
21.60581184530315
 42
0.0177302066467781
 10
59.83032584947017
 20
22.16626975808091
 42
0.0171178565100922
 10
59.63181855644773
 20
22.72192051419003
 42
0.0170471189720422
 10
59.39174349693813
 20
23.27248133970901
 42
0.0164996032422768
 10
59.10981789701884
 20
23.81766946071571
 42
0.0156227481990102
 10
58.78575898276911
 20
24.35607100760231
 42
0.01517673628321
 10
58.42013230203133
 20
24.88712043252474
 42
0.0139497078964115
 10
58.01265508088471
 20
25.40940386587531
 42
0.0139669303974762
 10
57.56389286717222
 20
25.9220729858886
 42
0.0133332803661754
 10
57.07469398265887
 20
26.42371392295621
 42
0.0125116316247829
 10
56.54647229695318
 20
26.91319558139148
 42
0.0117281646495133
 10
55.97979335789829
 20
27.38882131766406
 42
0.0111731822030202
 10
55.37663658294611
 20
27.84974281000899
 42
0.0105517746565961
 10
54.73841584170506
 20
28.29511173666129
 42
0.0100648738162085
 10
54.06626222986204
 20
28.72407977585599
 42
0.0097092553840487
 10
53.36272071271219
 20
29.13579860582817
 42
0.009268622166954
 10
52.62863961202031
 20
29.52998545265567
 42
0.0088922126854921
 10
51.86599834523843
 20
29.90579199457386
 42
0.008228626144833
 10
51.07592800805306
 20
30.26293545766069
 42
0.0077320891846027
 10
50.26012524399455
 20
30.60141584191652
 42
0.0071472139712602
 10
49.42000392267124
 20
30.92066759949799
 42
0.0069564164079256
 10
48.55697791369145
 20
31.22012518256136
 42
0.0068744793265033
 10
47.6724610866637
 20
31.49978859110695
 42
0.0062573567719968
 10
46.7678673111964
 20
31.75937505121289
 42
0.006397480862938
 10
45.84517600474124
 20
31.99860178895756
 42
0.0060299608408595
 10
44.90466994122008
 20
32.21746880434106
 42
0.0061142918278778
 10
43.94917685984961
 20
32.41541054951992
 42
0.0059468481401361
 10
42.97926230847326
 20
32.59242702449413
 42
0.0058027372468538
 10
41.99747125238618
 20
32.74823545534204
 42
0.0058217433987718
 10
41.00436923943175
 20
32.88283584206368
 42
0.0054838374028043
 10
40.00221846098341
 20
32.99622818465897
 42
0.0051506579960133
 10
38.99243278664961
 20
33.08784693528461
 42
0.0052939166747182
 10
37.97642608603877
 20
33.15769209394057
 42
0.0052342906427108
 10
36.95617777660266
 20
33.2060464345486
 42
0.0054005449269184
 10
35.93281895402804
 20
33.23206163534349
 42
0.004097879171038
 10
35.20750384490839
 20
33.23771711377716
 42
0.0027399931963661
 10
34.66570901096175
 20
33.23460660063867
 42
0.0051875655015773
 10
33.64235018838709
 20
33.21226746082559
 42
0.0052216267456561
 10
32.6218191050293
 20
33.1678719551212
 42
0.005301487609329
 10
31.60524685657509
 20
33.10198563136882
 42
0.0055763512580977
 10
30.59433008655455
 20
33.01432571564675
 42
0.0054728795419081
 10
29.59104821241947
 20
32.90517498187668
 42
0.0053632189126277
 10
28.59681510377832
 20
32.77453343005865
 42
0.0055105536196592
 10
27.61332740416113
 20
32.62240106019266
 42
0.0058938754580012
 10
26.64199898317637
 20
32.44934342012198
 42
0.0057127149400155
 10
25.68452648435412
 20
32.25536050984672
 42
0.0062742833511072
 10
24.74204100338113
 20
32.04045232936679
 42
0.0063168474067387
 10
23.81680473163087
 20
31.80518442652567
 42
0.0064443494988663
 10
22.90938321694668
 20
31.54955680132329
 42
0.0067040409587183
 10
22.02175587678041
 20
31.27385222768135
 42
0.0067708809859399
 10
21.15561935466211
 20
30.97835347952153
 42
0.0072420725278532
 10
20.31182197235687
 20
30.66306055684376
 42
0.0079037278203804
 10
19.49177759947307
 20
30.32853900749146
 42
0.0082935083821401
 10
18.69690010561916
 20
29.97507160538641
 42
0.008493118780404
 10
17.92860336040355
 20
29.60265835052851
 42
0.0086114169162458
 10
17.18858400735636
 20
29.21186479076112
 42
0.0092240803560827
 10
16.47797314216432
 20
28.80240815216254
 42
0.0101786844727025
 10
15.79818463443583
 20
28.37541953041963
 42
0.0104033417474719
 10
15.15006680593594
 20
27.9306161516106
 42
0.0111058841907132
 10
14.53616462195985
 20
27.46884633750051
 42
0.0119542720222732
 10
13.95760917819418
 20
26.9906756359328
 42
0.0124622765171515
 10
13.4158143442475
 20
26.49695236867243
 42
0.0132399506499228
 10
12.91304231149325
 20
25.98852485748449
 42
0.0138342749609764
 10
12.44985862777479
 20
25.46652419805565
 42
0.0144929472835871
 10
12.02852548446552
 20
24.93264703391614
 42
0.0150988760554032
 10
11.64989120333052
 20
24.38802446075263
 42
0.016066618117536
 10
11.31480410613487
 20
23.83463589601698
 42
0.0163303979948561
 10
11.02382974072208
 20
23.27417798323907
 42
0.0169125540212671
 10
10.77781642885687
 20
22.70834736594929
 42
0.0176059156333589
 10
10.57619862269612
 20
22.13827513983421
 42
0.0178348450986277
 10
10.41869354831824
 20
21.5662234962673
 42
0.0208472236802956
 10
10.30501843180116
 20
20.99275798309205
 42
0.0106117280017593
 10
10.24139429942223
 20
20.47358506288012
  0
LWPOLYLINE
  5
91
330
2
100
AcDbEntity
  8
PDF_レイヤー 1
100
AcDbPolyline
 90
       17
 70
     0
 43
0.0
 10
14.19624209070341
 20
18.90054201394383
 42
0.0115871447082789
 10
14.2559073881788
 20
18.65368038031369
 42
0.0253956393528495
 10
14.38174178332809
 20
18.28183267329908
 42
0.0197812542735457
 10
14.54179182300131
 20
17.91168160981465
 42
0.0180765810231711
 10
14.73718860288509
 20
17.54209609417364
 42
0.017267556962033
 10
14.96849767082241
 20
17.17251057853238
 42
0.0165005584149976
 10
15.23600180073566
 20
16.80235951504804
 42
0.0155112708996596
 10
15.54026654046765
 20
16.43220845156355
 42
0.0142389373151877
 10
15.88185743786203
 20
16.06290570984416
 42
0.0134645331024849
 10
16.26049171899708
 20
15.69558238557664
 42
0.0120140576688838
 10
16.67673493171604
 20
15.3308040266042
 42
0.0112934542435132
 10
17.13002152817559
 20
14.9705500503787
 42
0.0109079197422817
 10
17.6200687344541
 20
14.61538600474358
 42
0.0104200449477911
 10
18.14574545486478
 20
14.26729130715048
 42
0.0091292726708889
 10
18.70705168940762
 20
13.92683150544283
 42
0.0106291487353267
 10
19.30200802063088
 20
13.59542046922911
 42
0.004563381630322
 10
19.73097605982562
 20
13.37655345384561
  0
LWPOLYLINE
  5
92
330
2
100
AcDbEntity
  8
PDF_レイヤー 1
100
AcDbPolyline
 90
       34
 70
     0
 43
0.0
 10
36.23722508072092
 20
10.19410262964445
 42
0.003574231885708
 10
37.07084260184554
 20
10.2204006043611
 42
0.0061136258691333
 10
38.01587304811368
 20
10.27073436242087
 42
0.0055076279864201
 10
38.95496524202648
 20
10.34114506892015
 42
0.0054305801442293
 10
39.88613976613212
 20
10.43163272385907
 42
0.0053461145058929
 10
40.80741720297878
 20
10.54191455331579
 42
0.0055157146191954
 10
41.71710090903644
 20
10.67170778336882
 42
0.0057202628003838
 10
42.61292869293154
 20
10.821012414018
 42
0.0061908901078321
 10
43.49292113721239
 20
10.98869734957667
 42
0.0062814615860069
 10
44.35566437227044
 20
11.17447981612308
 42
0.0060119756483144
 10
45.19946175457568
 20
11.37835981365731
 42
0.0066024003541703
 10
46.02176831883295
 20
11.59920624649254
 42
0.006514216100934
 10
46.82117019543383
 20
11.83645356678545
 42
0.0067922631527532
 10
47.59625351476983
 20
12.08953622669276
 42
0.0070513646556142
 10
48.34532163331092
 20
12.35760590444923
 42
0.0073697235455122
 10
49.06696068144866
 20
12.64009705221161
 42
0.0079017626002616
 10
49.75975678957462
 20
12.93587857429313
 42
0.0083590917613413
 10
50.42201331415874
 20
13.2441021489287
 42
0.0088918516237081
 10
51.05288193343591
 20
13.5636366804317
 42
0.0088126396079399
 10
51.65094877779766
 20
13.89363384703702
 42
0.009237346869597
 10
52.21508275155739
 20
14.23296255305789
 42
0.009867948674914
 10
52.74471830687177
 20
14.58077447672917
 42
0.0105146542969912
 10
53.239289895897
 20
14.93593852236461
 42
0.0113854686267799
 10
53.69766642294687
 20
15.29704082035516
 42
0.0120893882803319
 10
54.11984788802127
 20
15.66351582285762
 42
0.0129560298358218
 10
54.50526874327643
 20
16.03394966026394
 42
0.0139685076221714
 10
54.85364621479168
 20
16.40805955865153
 42
0.0153979975669898
 10
55.16611139825247
 20
16.78527997017818
 42
0.0160287498431285
 10
55.44181597189411
 20
17.16504534700013
 42
0.0176326690260128
 10
55.68104270963903
 20
17.5479212369602
 42
0.0196913291555035
 10
55.88407438540804
 20
17.93475596182406
 42
0.0218356044762291
 10
56.05034545135857
 20
18.3266806172781
 42
0.0243448221426008
 10
56.17872481180319
 20
18.72454352508757
 42
0.0223258888261799
 10
56.26723304929003
 20
19.12749636348744
  0
LWPOLYLINE
  5
93
330
2
100
AcDbEntity
  8
PDF_レイヤー 1
100
AcDbPolyline
 90
        6
 70
     0
 43
0.0
 10
20.21228555192408
 20
12.91379393100968
 42
0.002667741245197
 10
20.32256738138085
 20
12.77353806585438
 42
0.0134778097252255
 10
20.3893020268981
 20
12.69238195033088
 42
0.0183732978347895
 10
20.42719373240391
 20
12.6510969577651
 42
0.0198315031025612
 10
20.44981564613794
 20
12.63017168755971
 42
0.0254809642332725
 10
20.46678208143974
 20
12.61716408716307
  0
LWPOLYLINE
  5
94
330
2
100
AcDbEntity
  8
PDF_レイヤー 1
100
AcDbPolyline
 90
        5
 70
     0
 43
0.0
 10
20.30523333998162
 20
13.0944581895736
 42
0.0054976841126723
 10
20.185902745031
 20
13.14196420841665
 42
0.0030973501619242
 10
20.06176499341162
 20
13.18777358372926
 42
-0.0112236656873225
 10
19.93253731120222
 20
13.2366934721812
 42
-0.0012500257539548
 10
19.88899012726269
 20
13.25563932493355
  0
LWPOLYLINE
  5
95
330
2
100
AcDbEntity
  8
PDF_レイヤー 1
100
AcDbPolyline
 90
        3
 70
     0
 43
0.0
 10
35.93163130355588
 20
9.643259030195011
 42
0.0479334427667894
 10
35.95397044336991
 20
9.642693482361778
 42
0.0513432652572077
 10
35.97942009632156
 20
9.64721786510745
  0
LWPOLYLINE
  5
96
330
2
100
AcDbEntity
  8
PDF_レイヤー 1
100
AcDbPolyline
 90
        3
 70
     0
 43
0.0
 10
35.59795807596987
 20
9.95317924836965
 42
0.0262651334102126
 10
35.67374148698154
 20
9.850532314798698
 42
0.0218586984839635
 10
35.75913921132967
 20
9.756085824955803
  0
LWPOLYLINE
  5
97
330
2
100
AcDbEntity
  8
PDF_レイヤー 1
100
AcDbPolyline
 90
        3
 70
     0
 43
0.0
 10
35.55794556605269
 20
9.950577728290895
 42
0.0578970517690008
 10
35.72421663200157
 20
9.747263278599149
 42
0.0075909089967262
 10
35.77992309457345
 20
9.695798424852767
  0
LWPOLYLINE
  5
98
330
2
100
AcDbEntity
  8
PDF_レイヤー 1
100
AcDbPolyline
 90
        5
 70
     0
 43
0.0
 10
35.83936217291206
 20
9.653891329660226
 42
0.0627702353971639
 10
35.89648250509069
 20
9.629289998469133
 42
0.0522073295060363
 10
35.93861581942247
 20
9.622786198269409
 42
0.0599983383964373
 10
35.98131468159869
 20
9.627027807090911
 42
0.063873063972403
 10
36.03306230926504
 20
9.645690885930349
  0
LWPOLYLINE
  5
99
330
2
100
AcDbEntity
  8
PDF_レイヤー 1
100
AcDbPolyline
 90
        6
 70
     0
 43
0.0
 10
20.43666665878039
 20
12.93525647166547
 42
0.0616192017206461
 10
20.32072935088924
 20
13.02885463974178
 42
0.0226459053292578
 10
20.23787659183665
 20
13.07494678897768
 42
0.0152446510868693
 10
20.12080818825931
 20
13.12867383409741
 42
0.0012783897821681
 10
20.00289146291705
 20
13.17787649647042
 42
-0.0028753929564907
 10
19.92343199092372
 20
13.21152659315058
  0
LWPOLYLINE
  5
9A
330
2
100
AcDbEntity
  8
PDF_レイヤー 1
100
AcDbPolyline
 90
        5
 70
     0
 43
0.0
 10
36.17374233530285
 20
10.15448600321653
 42
0.0057497889047311
 10
36.10135221135174
 20
10.15420322929434
 42
0.0032453580375312
 10
35.97975942502758
 20
10.15250658576454
 42
0.0019843203787603
 10
35.85166283850469
 20
10.14996162046959
 42
0.0145035776280797
 10
35.72724231296371
 20
10.14430614203586
  0
ENDSEC
  0
SECTION
  2
OBJECTS
  0
DICTIONARY
  5
9
330
0
100
AcDbDictionary
281
     1
  3
ACAD_COLOR
350
3A
  3
ACAD_GROUP
350
31
  3
ACAD_LAYOUT
350
16
  3
ACAD_MATERIAL
350
B
  3
ACAD_MLEADERSTYLE
350
3D
  3
ACAD_MLINESTYLE
350
32
  3
ACAD_PLOTSETTINGS
350
33
  3
ACAD_PLOTSTYLENAME
350
8
  3
ACAD_SCALELIST
350
3B
  3
ACAD_TABLESTYLE
350
3C
  3
ACAD_VISUALSTYLE
350
2B
  3
ACDB_RECOMPOSE_DATA
350
A9
  3
AcDbVariableDictionary
350
9B
  3
AcDsDecomposeData
350
AF
  0
DICTIONARY
  5
1E
330
1D
100
AcDbDictionary
280
     1
281
     1
  3
ACAD_LAYERSTATES
360
1F
  0
DICTIONARY
  5
6
330
5
100
AcDbDictionary
280
     1
281
     1
  0
DICTIONARY
  5
3
330
2
100
AcDbDictionary
280
     1
281
     1
  0
DICTIONARY
  5
3A
102
{ACAD_REACTORS
330
9
102
}
330
9
100
AcDbDictionary
281
     1
  0
DICTIONARY
  5
31
102
{ACAD_REACTORS
330
9
102
}
330
9
100
AcDbDictionary
281
     1
  0
DICTIONARY
  5
16
102
{ACAD_REACTORS
330
9
102
}
330
9
100
AcDbDictionary
281
     1
  3
Model
350
15
  3
レイアウト1
350
1C
  0
DICTIONARY
  5
B
102
{ACAD_REACTORS
330
9
102
}
330
9
100
AcDbDictionary
281
     1
  3
ByBlock
350
37
  3
ByLayer
350
34
  3
Global
350
A
  0
DICTIONARY
  5
3D
102
{ACAD_REACTORS
330
9
102
}
330
9
100
AcDbDictionary
281
     1
  0
DICTIONARY
  5
32
102
{ACAD_REACTORS
330
9
102
}
330
9
100
AcDbDictionary
281
     1
  3
Standard
350
3E
  0
DICTIONARY
  5
33
102
{ACAD_REACTORS
330
9
102
}
330
9
100
AcDbDictionary
281
     1
  0
ACDBDICTIONARYWDFLT
  5
8
102
{ACAD_REACTORS
330
9
102
}
330
9
100
AcDbDictionary
281
     1
  3
Normal
350
7
100
AcDbDictionaryWithDefault
340
7
  0
DICTIONARY
  5
3B
102
{ACAD_REACTORS
330
9
102
}
330
9
100
AcDbDictionary
281
     1
  3
A0
350
43
  3
A1
350
44
  3
A2
350
45
  3
A3
350
46
  3
A4
350
47
  3
A5
350
48
  3
A6
350
49
  3
A7
350
4A
  3
A8
350
4B
  3
A9
350
4C
  3
B0
350
4D
  3
B1
350
4E
  3
B2
350
4F
  3
B3
350
50
  3
B4
350
51
  3
B5
350
52
  3
B6
350
53
  0
DICTIONARY
  5
3C
102
{ACAD_REACTORS
330
9
102
}
330
9
100
AcDbDictionary
281
     1
  3
Standard
350
3F
  0
DICTIONARY
  5
2B
102
{ACAD_REACTORS
330
9
102
}
330
9
100
AcDbDictionary
281
     1
  3
2dWireframe
350
2A
  3
Realistic
350
41
  3
Wireframe
350
42
  0
XRECORD
  5
A9
102
{ACAD_REACTORS
330
9
102
}
330
9
100
AcDbXrecord
280
     1
 90
        1
330
3F
  0
DICTIONARY
  5
9B
102
{ACAD_REACTORS
330
9
102
}
330
9
100
AcDbDictionary
281
     1
  3
CANNOSCALE
350
A1
  3
CMLEADERSTYLE
350
9D
  3
CTABLESTYLE
350
9C
  3
CVIEWDETAILSTYLE
350
9E
  3
CVIEWSECTIONSTYLE
350
9F
  3
LAYEREVAL
350
A3
  3
LAYERNOTIFY
350
A4
  3
LIGHTINGUNITS
350
A2
  3
MSLTSCALE
350
A0
  3
PSOLHEIGHT
350
A6
  3
PSOLWIDTH
350
A5
  3
XCLIPFRAME
350
A7
  0
DICTIONARY
  5
AF
102
{ACAD_REACTORS
330
9
102
}
330
9
100
AcDbDictionary
281
     1
  3
AcDsRecords
350
B1
  3
AcDsSchemas
350
B0
1001
ACAD
1070
     2
  0
DICTIONARY
  5
1F
102
{ACAD_REACTORS
330
1E
102
}
330
1E
100
AcDbDictionary
281
     1
  0
LAYOUT
  5
15
102
{ACAD_XDICTIONARY
360
17
102
}
102
{ACAD_REACTORS
330
16
102
}
330
16
100
AcDbPlotSettings
  1

  2
none_device
  4
ISO_A4_(210.00_x_297.00_MM)
  6

 40
7.5
 41
20.0
 42
7.5
 43
20.0
 44
210.0
 45
297.0
 46
11.54999923706054
 47
-13.65000009536743
 48
0.0
 49
0.0
140
0.0
141
0.0
142
1.0
143
8.704084754739808
 70
 11952
 72
     1
 73
     0
 74
     0
  7

 75
     0
147
0.1148885871608098
 76
     0
 77
     2
 78
   300
148
0.0
149
0.0
100
AcDbLayout
  1
Model
 70
     1
 71
     0
 10
0.0
 20
0.0
 11
12.0
 21
9.0
 12
0.0
 22
0.0
 32
0.0
 14
0.0
 24
0.0
 34
0.0
 15
0.0
 25
0.0
 35
0.0
146
0.0
 13
0.0
 23
0.0
 33
0.0
 16
1.0
 26
0.0
 36
0.0
 17
0.0
 27
1.0
 37
0.0
 76
     0
330
2
331
29
1001
ACAD_PSEXT
1000
None
1000
None
1000
Not applicable
1000
The layout will not be plotted unless a new plotter configuration name is selected.
1070
     0
  0
LAYOUT
  5
1C
102
{ACAD_REACTORS
330
16
102
}
330
16
100
AcDbPlotSettings
  1

  2
C:\Documents and Settings\basas\Application Data\Autodesk\AutoCAD 2005\R16.1\enu\plotters\Default Windows System Printer.pc3
  4

  6

 40
0.0
 41
0.0
 42
0.0
 43
0.0
 44
0.0
 45
0.0
 46
0.0
 47
0.0
 48
0.0
 49
0.0
140
0.0
141
0.0
142
1.0
143
1.0
 70
   688
 72
     0
 73
     0
 74
     5
  7

 75
    16
147
1.0
 76
     0
 77
     2
 78
   300
148
0.0
149
0.0
100
AcDbLayout
  1
レイアウト1
 70
     1
 71
     1
 10
0.0
 20
0.0
 11
12.0
 21
9.0
 12
0.0
 22
0.0
 32
0.0
 14
0.0
 24
0.0
 34
0.0
 15
0.0
 25
0.0
 35
0.0
146
0.0
 13
0.0
 23
0.0
 33
0.0
 16
1.0
 26
0.0
 36
0.0
 17
0.0
 27
1.0
 37
0.0
 76
     0
330
19
  0
MATERIAL
  5
37
102
{ACAD_XDICTIONARY
360
38
102
}
102
{ACAD_REACTORS
330
B
102
}
330
B
100
AcDbMaterial
  1
ByBlock
  0
MATERIAL
  5
34
102
{ACAD_XDICTIONARY
360
35
102
}
102
{ACAD_REACTORS
330
B
102
}
330
B
100
AcDbMaterial
  1
ByLayer
  0
MATERIAL
  5
A
102
{ACAD_XDICTIONARY
360
C
102
}
102
{ACAD_REACTORS
330
B
102
}
330
B
100
AcDbMaterial
  1
Global
 43
0.0007999999797903
 43
0.0
 43
0.0
 43
0.0
 43
0.0
 43
0.0007999999797903
 43
0.0
 43
0.0
 43
0.0
 43
0.0
 43
1.0
 43
0.0
 43
0.0
 43
0.0
 43
0.0
 43
1.0
 49
0.0007999999797903
 49
0.0
 49
0.0
 49
0.0
 49
0.0
 49
0.0007999999797903
 49
0.0
 49
0.0
 49
0.0
 49
0.0
 49
1.0
 49
0.0
 49
0.0
 49
0.0
 49
0.0
 49
1.0
142
0.0007999999797903
142
0.0
142
0.0
142
0.0
142
0.0
142
0.0007999999797903
142
0.0
142
0.0
142
0.0
142
0.0
142
1.0
142
0.0
142
0.0
142
0.0
142
0.0
142
1.0
144
0.0007999999797903
144
0.0
144
0.0
144
0.0
144
0.0
144
0.0007999999797903
144
0.0
144
0.0
144
0.0
144
0.0
144
1.0
144
0.0
144
0.0
144
0.0
144
0.0
144
1.0
1001
ACAD
1070
    -1
1070
     3
1070
     0
1000

1071
        0
1070
     0
  0
MLINESTYLE
  5
3E
102
{ACAD_REACTORS
330
32
102
}
330
32
100
AcDbMlineStyle
  2
STANDARD
 70
     0
  3

 62
   256
 51
90.0
 52
90.0
 71
     2
 49
0.5
 62
   256
  6
BYLAYER
 49
-0.5
 62
   256
  6
BYLAYER
  0
ACDBPLACEHOLDER
  5
7
102
{ACAD_REACTORS
330
8
102
}
330
8
  0
SCALE
  5
43
102
{ACAD_REACTORS
330
3B
102
}
330
3B
100
AcDbScale
 70
     0
300
1:1
140
1.0
141
1.0
290
     1
  0
SCALE
  5
44
102
{ACAD_REACTORS
330
3B
102
}
330
3B
100
AcDbScale
 70
     0
300
1:2
140
1.0
141
2.0
290
     0
  0
SCALE
  5
45
102
{ACAD_REACTORS
330
3B
102
}
330
3B
100
AcDbScale
 70
     0
300
1:4
140
1.0
141
4.0
290
     0
  0
SCALE
  5
46
102
{ACAD_REACTORS
330
3B
102
}
330
3B
100
AcDbScale
 70
     0
300
1:5
140
1.0
141
5.0
290
     0
  0
SCALE
  5
47
102
{ACAD_REACTORS
330
3B
102
}
330
3B
100
AcDbScale
 70
     0
300
1:8
140
1.0
141
8.0
290
     0
  0
SCALE
  5
48
102
{ACAD_REACTORS
330
3B
102
}
330
3B
100
AcDbScale
 70
     0
300
1:10
140
1.0
141
10.0
290
     0
  0
SCALE
  5
49
102
{ACAD_REACTORS
330
3B
102
}
330
3B
100
AcDbScale
 70
     0
300
1:16
140
1.0
141
16.0
290
     0
  0
SCALE
  5
4A
102
{ACAD_REACTORS
330
3B
102
}
330
3B
100
AcDbScale
 70
     0
300
1:20
140
1.0
141
20.0
290
     0
  0
SCALE
  5
4B
102
{ACAD_REACTORS
330
3B
102
}
330
3B
100
AcDbScale
 70
     0
300
1:30
140
1.0
141
30.0
290
     0
  0
SCALE
  5
4C
102
{ACAD_REACTORS
330
3B
102
}
330
3B
100
AcDbScale
 70
     0
300
1:40
140
1.0
141
40.0
290
     0
  0
SCALE
  5
4D
102
{ACAD_REACTORS
330
3B
102
}
330
3B
100
AcDbScale
 70
     0
300
1:50
140
1.0
141
50.0
290
     0
  0
SCALE
  5
4E
102
{ACAD_REACTORS
330
3B
102
}
330
3B
100
AcDbScale
 70
     0
300
1:100
140
1.0
141
100.0
290
     0
  0
SCALE
  5
4F
102
{ACAD_REACTORS
330
3B
102
}
330
3B
100
AcDbScale
 70
     0
300
2:1
140
2.0
141
1.0
290
     0
  0
SCALE
  5
50
102
{ACAD_REACTORS
330
3B
102
}
330
3B
100
AcDbScale
 70
     0
300
4:1
140
4.0
141
1.0
290
     0
  0
SCALE
  5
51
102
{ACAD_REACTORS
330
3B
102
}
330
3B
100
AcDbScale
 70
     0
300
8:1
140
8.0
141
1.0
290
     0
  0
SCALE
  5
52
102
{ACAD_REACTORS
330
3B
102
}
330
3B
100
AcDbScale
 70
     0
300
10:1
140
10.0
141
1.0
290
     0
  0
SCALE
  5
53
102
{ACAD_REACTORS
330
3B
102
}
330
3B
100
AcDbScale
 70
     0
300
100:1
140
100.0
141
1.0
290
     0
  0
TABLESTYLE
  5
3F
102
{ACAD_XDICTIONARY
360
40
102
}
102
{ACAD_REACTORS
330
3C
102
}
330
3C
100
AcDbTableStyle
  3
Standard
 70
     0
 71
     0
 40
1.5
 41
1.5
280
     0
281
     0
  7
Standard
140
4.5
170
     2
 62
     0
 63
     7
283
     0
274
    -2
284
     1
 64
     0
275
    -2
285
     1
 65
     0
276
    -2
286
     1
 66
     0
277
    -2
287
     1
 67
     0
278
    -2
288
     1
 68
     0
279
    -2
289
     1
 69
     0
  7
Standard
140
6.0
170
     5
 62
     0
 63
     7
283
     0
274
    -2
284
     1
 64
     0
275
    -2
285
     1
 65
     0
276
    -2
286
     1
 66
     0
277
    -2
287
     1
 67
     0
278
    -2
288
     1
 68
     0
279
    -2
289
     1
 69
     0
  7
Standard
140
4.5
170
     5
 62
     0
 63
     7
283
     0
274
    -2
284
     1
 64
     0
275
    -2
285
     1
 65
     0
276
    -2
286
     1
 66
     0
277
    -2
287
     1
 67
     0
278
    -2
288
     1
 68
     0
279
    -2
289
     1
 69
     0
  0
VISUALSTYLE
  5
2A
102
{ACAD_XDICTIONARY
360
B3
102
}
102
{ACAD_REACTORS
330
2B
102
}
330
2B
100
AcDbVisualStyle
  2
2dWireframe
 70
     4
 71
     0
 72
     2
 73
     1
 90
        0
 40
-0.6
 41
-30.0
 62
     5
 63
     7
421
 16777215
 74
     1
 91
        4
 64
     7
 65
   257
 75
     1
175
     1
 42
1.0
 92
        0
 66
   257
 43
1.0
 76
     1
 77
     6
 78
     2
 67
     7
 79
     5
170
     0
171
     0
290
     0
174
     0
 93
        1
 44
0.0
173
     0
291
     0
 45
0.0
1001
ACAD
1000
AcDbSavedByObjectVersion
1070
     0
  0
VISUALSTYLE
  5
41
102
{ACAD_XDICTIONARY
360
B8
102
}
102
{ACAD_REACTORS
330
2B
102
}
330
2B
100
AcDbVisualStyle
  2
Realistic
 70
     8
 71
     2
 72
     3
 73
     0
 90
        2
 40
-0.6
 41
30.0
 62
     5
 63
     7
421
 16777215
 74
     0
 91
        0
 64
     7
 65
   257
 75
     1
175
     1
 42
1.0
 92
        8
 66
   257
 43
1.0
 76
     1
 77
     6
 78
     2
 67
     7
 79
     3
170
     0
171
     0
290
     0
174
     0
 93
       13
 44
0.0
173
     0
291
     0
 45
0.0
1001
ACAD
1000
AcDbSavedByObjectVersion
1070
     0
  0
VISUALSTYLE
  5
42
102
{ACAD_XDICTIONARY
360
BA
102
}
102
{ACAD_REACTORS
330
2B
102
}
330
2B
100
AcDbVisualStyle
  2
Wireframe
 70
     5
 71
     0
 72
     2
 73
     0
 90
        0
 40
-0.6
 41
-30.0
 62
     5
 63
     7
421
 16777215
 74
     1
 91
        4
 64
     7
 65
   257
 75
     1
175
     1
 42
1.0
 92
        0
 66
   257
 43
1.0
 76
     1
 77
     6
 78
     2
 67
     7
 79
     3
170
     0
171
     0
290
     0
174
     0
 93
        1
 44
0.0
173
     0
291
     0
 45
0.0
1001
ACAD
1000
AcDbSavedByObjectVersion
1070
     0
  0
DICTIONARYVAR
  5
A1
102
{ACAD_REACTORS
330
9B
102
}
330
9B
100
DictionaryVariables
280
     0
  1
1:1
  0
DICTIONARYVAR
  5
9D
102
{ACAD_REACTORS
330
9B
102
}
330
9B
100
DictionaryVariables
280
     0
  1
STANDARD
  0
DICTIONARYVAR
  5
9C
102
{ACAD_REACTORS
330
9B
102
}
330
9B
100
DictionaryVariables
280
     0
  1
STANDARD
  0
DICTIONARYVAR
  5
9E
102
{ACAD_REACTORS
330
9B
102
}
330
9B
100
DictionaryVariables
280
     0
  1

  0
DICTIONARYVAR
  5
9F
102
{ACAD_REACTORS
330
9B
102
}
330
9B
100
DictionaryVariables
280
     0
  1

  0
DICTIONARYVAR
  5
A3
102
{ACAD_REACTORS
330
9B
102
}
330
9B
100
DictionaryVariables
280
     0
  1
0
  0
DICTIONARYVAR
  5
A4
102
{ACAD_REACTORS
330
9B
102
}
330
9B
100
DictionaryVariables
280
     0
  1
0
  0
DICTIONARYVAR
  5
A2
102
{ACAD_REACTORS
330
9B
102
}
330
9B
100
DictionaryVariables
280
     0
  1
2
  0
DICTIONARYVAR
  5
A0
102
{ACAD_REACTORS
330
9B
102
}
330
9B
100
DictionaryVariables
280
     0
  1
1
  0
DICTIONARYVAR
  5
A6
102
{ACAD_REACTORS
330
9B
102
}
330
9B
100
DictionaryVariables
280
     0
  1
80.000000
  0
DICTIONARYVAR
  5
A5
102
{ACAD_REACTORS
330
9B
102
}
330
9B
100
DictionaryVariables
280
     0
  1
5.000000
  0
DICTIONARYVAR
  5
A7
102
{ACAD_REACTORS
330
9B
102
}
330
9B
100
DictionaryVariables
280
     0
  1
2
  0
DICTIONARY
  5
B1
102
{ACAD_REACTORS
330
AF
102
}
330
AF
100
AcDbDictionary
281
     1
  0
DICTIONARY
  5
B0
102
{ACAD_REACTORS
330
AF
102
}
330
AF
100
AcDbDictionary
281
     1
  3
2370912355104
350
AA
  3
2370912355120
350
AB
  3
2370912355136
350
AC
  3
2370912355152
350
AD
  3
2370912355168
350
AE
  0
DICTIONARY
  5
17
330
15
100
AcDbDictionary
280
     1
281
     1
  0
DICTIONARY
  5
38
330
37
100
AcDbDictionary
280
     1
281
     1
  3
ACAD_XREC_ROUNDTRIP
360
B6
  3
FBXASSET
360
39
  0
DICTIONARY
  5
35
330
34
100
AcDbDictionary
280
     1
281
     1
  3
ACAD_XREC_ROUNDTRIP
360
B5
  3
FBXASSET
360
36
  0
DICTIONARY
  5
C
330
A
100
AcDbDictionary
280
     1
281
     1
  3
ACAD_XREC_ROUNDTRIP
360
B2
  3
BUMPTILE
360
D
  3
DIFFUSETILE
360
E
  3
FBXASSET
360
F
  3
OPACITYTILE
360
10
  3
REFLECTIONTILE
360
11
  0
DICTIONARY
  5
40
330
3F
100
AcDbDictionary
280
     1
281
     1
  3
ACAD_ROUNDTRIP_2008_TABLESTYLE_CELLSTYLEMAP
360
A8
  3
ACAD_XREC_ROUNDTRIP
360
B7
  0
DICTIONARY
  5
B3
330
2A
100
AcDbDictionary
280
     1
281
     1
  3
ACAD_XREC_ROUNDTRIP
360
B4
  0
DICTIONARY
  5
B8
330
41
100
AcDbDictionary
280
     1
281
     1
  3
ACAD_XREC_ROUNDTRIP
360
B9
  0
DICTIONARY
  5
BA
330
42
100
AcDbDictionary
280
     1
281
     1
  3
ACAD_XREC_ROUNDTRIP
360
BB
  0
XRECORD
  5
AA
102
{ACAD_REACTORS
330
B0
102
}
330
B0
100
AcDbXrecord
280
     1
  1
AcDb_Thumbnail_Schema
102
{ATTRRECORD
341
AB
  2
AcDbDs::TreatedAsObjectData
280
     1
291
     1
102
ATTRRECORD}
102
{ATTRRECORD
341
AC
  2
AcDbDs::Legacy
280
     1
291
     1
102
ATTRRECORD}
  2
AcDbDs::ID
280
    10
 91
        8
102
{ATTRRECORD
341
AD
  2
AcDs:Indexable
280
     1
291
     1
102
ATTRRECORD}
102
{ATTRRECORD
341
AE
  2
AcDbDs::HandleAttribute
280
     7
282
     1
102
ATTRRECORD}
  2
Thumbnail_Data
280
    15
 91
        0
  0
XRECORD
  5
AB
102
{ACAD_REACTORS
330
B0
102
}
330
B0
100
AcDbXrecord
280
     1
  1
AcDbDs::TreatedAsObjectDataSchema
  2
AcDbDs::TreatedAsObjectData
280
     1
 91
        0
  0
XRECORD
  5
AC
102
{ACAD_REACTORS
330
B0
102
}
330
B0
100
AcDbXrecord
280
     1
  1
AcDbDs::LegacySchema
  2
AcDbDs::Legacy
280
     1
 91
        0
  0
XRECORD
  5
AD
102
{ACAD_REACTORS
330
B0
102
}
330
B0
100
AcDbXrecord
280
     1
  1
AcDbDs::IndexedPropertySchema
  2
AcDs:Indexable
280
     1
 91
        0
  0
XRECORD
  5
AE
102
{ACAD_REACTORS
330
B0
102
}
330
B0
100
AcDbXrecord
280
     1
  1
AcDbDs::HandleAttributeSchema
  2
AcDbDs::HandleAttribute
280
     7
 91
        1
284
     1
  0
XRECORD
  5
B6
102
{ACAD_REACTORS
330
38
102
}
330
38
100
AcDbXrecord
280
     1
102
MATERIAL
148
0.0
149
0.0
149
0.0
 93
        0
 94
       63
282
     0
 72
     1
 77
     1
171
     1
175
     1
179
     1
273
     0
  0
XRECORD
  5
39
102
{ACAD_REACTORS
330
38
102
}
330
38
100
AcDbXrecord
280
     1
 70
     1
 90
429727718
  1
D62C5603-E3A1-4AEA-B7FB-FE5D8D0755AF
310
504B03040A0000080000CC70623B3DEE336E79000000790000001B0000006175746F6465736B2D64657369676E2D7061636B6167652E786D6C3C3F786D6C2076657273696F6E3D22312E302220656E636F64696E673D227574662D3822203F3E3C666F726D6174733E3C666F726D61743E687474703A2F2F736368656D612E
310
6175746F6465736B2E636F6D2F64657369676E2D7061636B6167652F323030393C2F666F726D61743E3C2F666F726D6174733E504B0304140006080800CC70623BD486FD9CA0000000F4000000130000005B436F6E74656E745F54797065735D2E786D6C7D8EC10E82300C865F65E91D8A1E8C310C0EEA1BF002731658846E
310
D98AC1B77784ABF1D8FE5FBFBF75BBCE937A534CCEB38643598122B6FEE978D0B0485F9C41B54DDD7D022595594E1A469170414C76A4D9A4D207E29CF43ECE46F218070CC6BECC4078ACAA135ACF422C856C0E68EA1BF5669944DDD7BCDE7B1F8E415D77AECB980613C2E4AC91FC167A2B244592486606FC29C8FD7F045B9A
310
EF7053A7E60B504B0304140006080800CC70623B853B8169EB0000007C01000008000000636F72652E786D6C8D90416EC3201045AF62CDB6C206821CC7C244919D9CA01740401C94182C03558F5F9C3852BBEB6A467FFE9B197D7EFC9E1EC5975982F5AE035262288C535E5B377690E21535501C055FBC8FBF6C503839990E
310
5619041F179FE64D52DE45E362569DD7661365082642A11EB9E920A89B99642953CC8E702F67A9EE7234257977194EC9EAE275C4EABCCF5EAD5940D4AC6F0E35A568B8F43562CD7046CD199FD07E60174276A7BE677B5EADB0E0D14EEFFB6A31321A0D82627C4084204C3F096B71DD52F6819B16635EADF63F509AF53FA164
310
5DDCD1EDDD17164090FCC8732078B56691CB33A85CD7DCC40F504B0304140006080800CC70623B55019EA25F0000007C00000007000000636E782E786D6C4DCB3B0E80201045D1AD90E915ED2CF8AC45050C11660C8261F98AB1B07AC9C97D42D718D865D3E909258CFD00CCE24AC6E326A164D74DC0B4128928FF32603847
310
2BA13128B1252AC747C6BAB984FC68F0B87FE8960A5C09FE86CFB69FBA01504B0304140006080800CC70623BDBABAAF470010000D40300000C0000006662782F636F72652E786D6CC553D16E823014FD95A6AF4B694182CC941A83FA05FB810A9511A125A5257EFE2E82712ECEB8A7F100CD39F7F69E734AF9FADC366850B6
310
AF8DCE7018308C942E4C59EB2AC3DE1D498AD15A706B8CFB56869196ADCAF00863C12B6B7C374385D14E6907A836A59A41D9F7CA615434B0C8705F7CAA5606D23BA8E84F41278B93AC54100640439DE0BDB320004D43C63716C7C399D30917DCFBBA9CD9BA8469F5B156168B24CED3F7248AC8769F27244EB73B92EED8862C
310
B7F13E0C179B3C8F979C8ECD82BBBABDAA2BAC924E9558448CBD9330242CFA08E3154B5651FCC6D215639C8EE5774DBE2B5F6CF2B5768B68963BB5F5588420E442FC700B1139D4CB01F450C1E918227C2E09DF070D8140C84E1E9AAB8F1340832A9CB13130A5F1376A908D57309505ECF2A0DF179C4E9D30F5B239B87E3823
310
7A79C6F31DE1A8A5AEC08474B03C7837EAE4938639B44E5932B833D2C6B6B279CDC613877FA26EE21F4A2A4C63EC7F29A2F301D1F9F7A0E37D145F504B0304140006080800CC70623B9C113CC27E0000009D0000000B0000006662782F636E782E786D6C4DCCDF0A83201C86E15B91DFB94BFB330DD428C8FB886521330DA7
310
6397BF1A1DECE883878F57749FCDA1B7892F1BBC047A23808C7F84D9FA55424E0BE6803A256208E9EF06C84F9B91703228B1C690F78B66B34CD9A5439DF5CF0BFBF65E35BCA1B8D6A5C6F540381E886698B5741C695F9503EBA150A2F8958E3DC3EA0B504B0304140006080800CC70623B7DF2F77C2A010000120200003100
310
00006662782F41393633353835312D344632462D344230382D423046372D3739314545314133324237412F636F72652E786D6C8D51DB8EC22014FC15C2939B0D2DB4B45643319AE817EC0F6041255A68B86CFCFC856D4D76DF7CE190393373060EDB3DC707F856CE6B6B7A480A0C81328395DA5C7B18C3057510EC3873D686
310
3F34088C18550F330C39BB3A1BA7051AAC09CA84841A2BD5020AEF55806078A44B0FFD7053A328440C89E1EFC52486BBB8AA8214A99D789CF9E05200300FC927E4FB4D5B375D43103D5527440FB843077C5AA3F5861C8F645F5787F59E95B390B318B55CE45AA638FAA2957BD7248B390B7A7CC51F9C124149C82B8C378810
310
84AB2F42B7B8DD56F413775B8C5999E9FF4471926F8AA236A1AE96B8B3CC434E5839373893369E1FAF30EA395917409EB7F26AF8801C171837A4A6AC9C89E9F9C9B1A58BA30FD6A5EF5DDDCF894B9AD9B6A59C957943A9FCAE2FD5BC4DFE03504B0304140006080800CC70623BAD7543B64E01000033030000300000006662
310
782F41393633353835312D344632462D344230382D423046372D3739314545314133324237412F636E782E786D6CD593CD6EC32010845F0571AD6CE3D48AD20813A9873E410FBD12D82434182C7EAAE6EDBB2424CD25871E7B41D6EC30B3FA84F9E67BB2E40B4234DE8DB46F1925E094D7C6ED479AD3AE5951B2113C789FEE
310
6C943839C1488B4C05DF079FE72A69D8C96C13AAD6B8631503449F83828872B949AC57D26200B826A308D316B4064D6E46FCDA41C05550DC9E483A00797BFD207EFB092A45DE9514C1BBD22178396BD39D891265658C238DEA00936C654E5E433CB65A26D9F6EDB5EBC14EBF49A45CB856E66048291F6939A9A81BB5C89177
310
38143CA680F4AA299D66A042CEB3354A2684DC9D8D178FE0D9B8B41CAAD720F880EE7EF93C0C18769E099ECC04D5A102C8049A8A05632F4DDF376CF1DE0F6BB65C2F8627B65A33C6BB62177CEBBDAD973006829F89F22E814B54F4BC2BE347F8AA8F681390B50FA73F804400B5F542E796F19FF974E7F78DB802FE05E20750
310
4B0304140006080800CC70623BE75B7789680500003C100000340000006662782F41393633353835312D344632462D344230382D423046372D3739314545314133324237412F6F626A656374732E786D6CAD575B8F9B3818FD2B887D06C22499CB8AA1CA655245D5B455A356FB305264C061D8018C6C3393D95FBFC7600890
310
A4CD5EF210B0B1BFEBF98E3F7B1FF6596ABC522E1296DF9BAE3D320D9A872C4AF2F8DE2CE5CEBA358D0FBEC719939D65A691938CDE9B6ADAF4BD98B3B2D05311DD91329583D9D5FC0F438434A7A611A644887B5384CF34233629258BA878B12322891DEFF6B66BD70BFB62634E8AE781D082709A4B588AF91C528CDA28B73F
310
1C998EEF39EABBEFA97FBD6A7C7E9553F9D3D79FE442923C3C523610337627CB87ABE99D359D4CC6D6E4FACAB5E6ABF9D2726FC6A3C5F56271377BB88362213924694B38DD99FE47C48627A1E7D49F5A8BB5E1A74C0A599ED3B0F21F1E56366B89112D681E218F0915D0D6F17AD41FBA2A369DCF6335D62ABBD39779D5DDD1
310
11D4D8DE3CBB96B2E04FB8202E41051754A1AA8E8F76B4C6DFE810B580B1547F4B84911149794252234D024EF8BBE963A95AE27B3D310A9D5C215C7960FAEE415ED75694C6AFB17BCACA5D99A60A9AA65F217B0BFC53292ACB92BF283FAD0D3621576592CB5BED907C2FA8E9DF794E35E97BEA31BED21FEB401ABB94C44839
310
DCACBF0E1C5DA8DA5B2F4DFFD32AD86F543D9E565E7056502E157C00AD2671CD534549AB752FCA9CDA00677A313F04E51B22FF19E57B300579E3C97EB29F682D92935CEC18CF901B7B54FD8C51F362B56FC72FE0B3C1EAE335EDCCBF5AEC39ADB17DC238973F804BA5E6F6BFE7AF1FB32E523BE9F3BD571418E3631DCA4D48
310
5250CF639223210A9446CA30052EDF057BD35F8329C1ECD84552BF0DC8D18BE7BCE23BFE6BD960AB4A7DE79923A103BEBD80F911CBAA2C60DB19B01CF164A5583B772EE6D3FFA56666CBCDA74DC97724A48F9A58967497E489C4D979006FD7A05E227A1EBDD0F737C623387A9C844D3709995625106D157315F8B8392CD4E0
310
A0B9A720C4BE9829CEF37EA1E13111214D53925356365ADA634861B52519DD27A00AEB808EAF0628E6F435519D446F45CF2C9CF5214F0A15B2F6D06B79DA3EE3CBF7F56780D2F4E7EF73A0F5E5B02A38D07DC852C6B7C1FBB6664213E0C39E3EBA7FF4E1AD23EA2829407C85E586727488B751B2DB9502BC7B228A3FD68B6E
310
A65A22397E690AA8D158D7E404EC8CDA235CC3B7D1898680131CEC2CDF2638C65196279577750F15884AEE19F94199155B92B13297978469D4F8D358DF0AEF7631E28DC8F0D9F437D5D39A83B2231A1D52D543813A824EF8D44BCFF2FA6A31BD1E8DAD87F1CCB526B3879935BF59CDADD5C37479BB1CDD4CA7B3556B516589
310
EF352754B706114D9C885EC9131DE6EFEB43D99AFE2391C2F958179413D7CFEF6B1B6DB1E7600F00DE6E5C67454A339A4BA2E0FBA85ED26F045D454F463DBFCE484C2F90F2E5E3666003662ED8F755951A7D1BECD5B30B550B2785C8E7320B7292A4838DDA71BBC863ED7613CAF659337A3354231D4FF4A182A54904C2898C
310
98B28C4AD0CE056CCF332A80986E571EE9DBC305BB5FEB7E509220A58D25CF042D712A806AC0AD0C657FDEF80D2D9CEAA2EE4D1C76F60BFE74219A06527D6F82DF6412526107381E55E353090704D085B52408A8913C4ED159D79BDA71BB4BC506F4831350EB6F975CD22D69BF7AC49B91A2C0A9DDA3D5CA36AD20FC478E37
310
E61844E2352865EBCB61A275A65283CAAA9DD27703B4102F5AF51EF5F573B75CBB5AD38BC845F7A49F82A0966A49C2E3EA5EA0ECD326CD965F1DB402C6FA8B51A4658C5C5E2EC9E214602E55810345408596591009A82E7E7FFACA19EEA299B14A0081A705CB3296EBC14CDF658DCD336EA6D1136881AAEB87B81AB9EE53D5
310
F5EB8BC8362082DA24122F98680A4E7930C01A0079749CEA14382A0783E5EBA5A10F8C098456A03D6A4AEB6BB881E2513747552A5DB22C7EDAF83BD5528081A365F7FF06504B0304140006080000CC70623B000000000000000000000000350000006662782F41393633353835312D344632462D344230382D423046372D37
310
39314545314133324237412F76657274696365732E62696E504B0304140006080800CC70623BF270F1330600000004000000360000006662782F41393633353835312D344632462D344230382D423046372D3739314545314133324237412F747269616E676C65732E62696E636660600000504B0304140006080000CC7062
310
3B000000000000000000000000370000006662782F41393633353835312D344632462D344230382D423046372D3739314545314133324237412F617474726962757465732E62696E504B0304140006080800CC70623B08DA0BD19000000041010000360000006662782F41393633353835312D344632462D344230382D4230
310
46372D3739314545314133324237412F6469726563746F72792E786D6C858F410AC3201045AF22B36F53E9A60B35CBEEBAE80D244E44489C6234F4F835464A48035D0DF398FF9F8AF63D0E6CC63039F212F8F9020C7D47C6792B21C5FE7403D62A1188E2E60C98D7234A5830286103A55745067B9D86B8A3CF9C7F90C11DE6
310
07FB144396D7B6A82D282E9A152AD114D5EF2CB866EEE831B8EEA07A7BB5A8D7D61A2BAAEB7FD5F70921FF497D00504B0304140006080800CC70623BEDD1DC58FD000000A00100003B0000006662782F41393633353835312D344632462D344230382D423046372D3739314545314133324237412F7265736F75726365732F
310
636F72652E786D6C8D504B6E833010BD0A9A6D65B00922041947112427E8052C33A156828DFCA97AFC9A40A576D7CDCCE87D344F8F9FBFE667F689CE6B6B3A6039850C8DB2A336530731DC4903D95970676DF82583CCC8193B5861107C72362E3BA4AC096842428D1D7107A5F7182053CF7474E0D507CE32973124857FE48B
310
540F3961CEF244279DE03EB81420DB9EAC1384436FA353E879B1B182C7A8C75DA3C7F453DF353A1075D537A7BA6464B8F535A99AE14A9A2BBD90E350DD183B5CFABE3AF262350B1EF4FC9351399401471025A527C218A1E53BAB5A5AB765F5469B96525EACF23FA6B88CFF34456DC2A1DCE36E360F82A5202F42F062ED2BAD
310
579969AFDD8A6F504B010214000A0000080000CC70623B3DEE336E79000000790000001B00000000000000000000000000000000006175746F6465736B2D64657369676E2D7061636B6167652E786D6C504B01021400140006080800CC70623BD486FD9CA0000000F40000001300000000000000000000000000B20000005B
310
436F6E74656E745F54797065735D2E786D6C504B01021400140006080800CC70623B853B8169EB0000007C010000080000000000000000000000000083010000636F72652E786D6C504B01021400140006080800CC70623B55019EA25F0000007C000000070000000000000000000000000094020000636E782E786D6C504B
310
01021400140006080800CC70623BDBABAAF470010000D40300000C00000000000000000000000000180300006662782F636F72652E786D6C504B01021400140006080800CC70623B9C113CC27E0000009D0000000B00000000000000000000000000B20400006662782F636E782E786D6C504B01021400140006080800CC70
310
623B7DF2F77C2A010000120200003100000000000000000000000000590500006662782F41393633353835312D344632462D344230382D423046372D3739314545314133324237412F636F72652E786D6C504B01021400140006080800CC70623BAD7543B64E010000330300003000000000000000000000000000D2060000
310
6662782F41393633353835312D344632462D344230382D423046372D3739314545314133324237412F636E782E786D6C504B01021400140006080800CC70623BE75B7789680500003C10000034000000000000000000000000006E0800006662782F41393633353835312D344632462D344230382D423046372D3739314545
310
314133324237412F6F626A656374732E786D6C504B01021400140006080000CC70623B0000000000000000000000003500000000000000000000000000280E00006662782F41393633353835312D344632462D344230382D423046372D3739314545314133324237412F76657274696365732E62696E504B01021400140006
310
080800CC70623BF270F133060000000400000036000000000000000000000000007B0E00006662782F41393633353835312D344632462D344230382D423046372D3739314545314133324237412F747269616E676C65732E62696E504B01021400140006080000CC70623B0000000000000000000000003700000000000000
310
000000000000D50E00006662782F41393633353835312D344632462D344230382D423046372D3739314545314133324237412F617474726962757465732E62696E504B01021400140006080800CC70623B08DA0BD1900000004101000036000000000000000000000000002A0F00006662782F41393633353835312D344632
310
462D344230382D423046372D3739314545314133324237412F6469726563746F72792E786D6C504B01021400140006080800CC70623BEDD1DC58FD000000A00100003B000000000000000000000000000E1000006662782F41393633353835312D344632462D344230382D423046372D3739314545314133324237412F7265
310
736F75726365732F636F72652E786D6C504B0506000000000E000E0080040000641100000000
  0
XRECORD
  5
B5
102
{ACAD_REACTORS
330
35
102
}
330
35
100
AcDbXrecord
280
     1
102
MATERIAL
148
0.0
149
0.0
149
0.0
 93
        0
 94
       63
282
     0
 72
     1
 77
     1
171
     1
175
     1
179
     1
273
     0
  0
XRECORD
  5
36
102
{ACAD_REACTORS
330
35
102
}
330
35
100
AcDbXrecord
280
     1
 70
     1
 90
429727718
  1
30362254-06B7-45E0-A893-8CFA70E3D6BC
310
504B03040A0000080000CC70623B3DEE336E79000000790000001B0000006175746F6465736B2D64657369676E2D7061636B6167652E786D6C3C3F786D6C2076657273696F6E3D22312E302220656E636F64696E673D227574662D3822203F3E3C666F726D6174733E3C666F726D61743E687474703A2F2F736368656D612E
310
6175746F6465736B2E636F6D2F64657369676E2D7061636B6167652F323030393C2F666F726D61743E3C2F666F726D6174733E504B0304140006080800CC70623BD486FD9CA0000000F4000000130000005B436F6E74656E745F54797065735D2E786D6C7D8EC10E82300C865F65E91D8A1E8C310C0EEA1BF002731658846E
310
D98AC1B77784ABF1D8FE5FBFBF75BBCE937A534CCEB38643598122B6FEE978D0B0485F9C41B54DDD7D022595594E1A469170414C76A4D9A4D207E29CF43ECE46F218070CC6BECC4078ACAA135ACF422C856C0E68EA1BF5669944DDD7BCDE7B1F8E415D77AECB980613C2E4AC91FC167A2B244592486606FC29C8FD7F045B9A
310
EF7053A7E60B504B0304140006080800CC70623B1EC5D7A3EB0000007C01000008000000636F72652E786D6C8D90416EC3201045AF82665B6103C6756C6122AB4D4ED00B204C5C94182C03558F5F9C3852BBEB6A467FFE9B197D71FC9E6FE8CBACC17AD7032D0820E3B41FAD9B7A48F1820F808E52ACDEC75F36404ECDA687
310
4D0629A6D5A76597B477D1B89855E747B38B2A041301E95B6E7A08FAD3CCAA50296647B8168BD2573599823EBB0CA76447F43862C7BCCF5EAC59410E4DDD9C7973C2755553CCCFA4C603E3040F1565ED3B1FDE4E432BCA0D9622DAF9795FAF464533826484B498524CD807E51D79ED187F21878E10516EF63F505AC67F42C9
310
BA58B1FDDD071640D2FCC87D2045B96591CB3DA85CB7DCE40F504B0304140006080800CC70623B55019EA25F0000007C00000007000000636E782E786D6C4DCB3B0E80201045D1AD90E915ED2CF8AC45050C11660C8261F98AB1B07AC9C97D42D718D865D3E909258CFD00CCE24AC6E326A164D74DC0B4128928FF32603847
310
2BA13128B1252AC747C6BAB984FC68F0B87FE8960A5C09FE86CFB69FBA01504B0304140006080800CC70623B8C9102E971010000D40300000C0000006662782F636F72652E786D6CC5535B6E833010BC8AE5DF0A6C08340F1947A84D4ED00B38C6A128602363A31CBFCB234A53A551FA553EC09AD9F5CE8C31DB9E9B1AF5CA
310
7695D1198E428A91D2D214952E33ECDD315861B4E5CC1AE3BE9561A445A3323CC098B3D21ADFCE9034DA29ED00D5A6503328BA4E398C640D8B0C77F253352214DE4145770A5B214FA2546114020D759C75CE8200340D19DE981F0F6746269C33EFAB6266AB02A655C74A59CCF365BADC27CB5D902ED22848F6340DF238A141
310
BE88E2F57B92BFEDF23523433367AE6A2EEAA455C2A902F398D2751045018D3FA264435F3771F242571B4A1919CA6F9A7C5B3CD9E42BED16F12C776AEB308F40C848FC700B1139D4891EF410CEC810227CC6846F8386402064270EF5C5C709A05E49676C024C61FC95EA45ED154CA5211D1FF4FB8291A913A68E9B83EBBB33
310
E2A7673CDE118E5AE8124C0807CB8377834E366998436B950D7A7746DAD846D4CFD978E0F04FD455FC5D49D2D4C6FE9722321F10997F0F32DC47FE05504B0304140006080800CC70623BFFEA85907E0000009D0000000B0000006662782F636E782E786D6C4DCCD10A83201886E15B91FFDC95D95A811AB6F23E625948A6C3
310
E9D8E5AF46073BFAE0E1E365ED67B3E8ADC3CB78C7815C7240DA3DFC64DCC221C519D7805AC182F7F1EF06C88D9BE6703008B6049F9E274D7A1E938DBB5AE3D6131B2589BA0D3D965551E0B2EA732C9B9A624AAEB41E3A557677029960D9AFB4EF11165F504B0304140006080800CC70623B4FEEA4082C0100001202000031
310
0000006662782F39464131463745442D413632322D343644302D413938332D3331353338454246344243312F636F72652E786D6C8D515B6EC32010BC0AE2AB55850DD871ED0813254D72825EC00192A2C460F1A872FC42ED48ED5F7E00CDCECCCEB26C731F6FE05B39AFADE921293004CA082BB5B9F43086336A21D870E6AC
310
0D7F68109861543DCC30E4ECE26C9C164858139409093556AA051CBC570102714B8F1E7AF1A5C6A11862480C7F2DA6415C878B2A4891CA89C7990F2E050073937C42DE1DB7E4F87ED8A36D4329AA9B3D46DBAEAD504556557BD81DEBDD0761E52CE42C462D17B996298E3E6BE59E35C962CE821E1FF18553435012728A7187
310
0841987E927A8D9B35ADDF70BBC6989599FE4F1427F9A4286A132ABAC49D651EF234CD5CE04CDA78BA3DC2A8FB645D00B9DF8B57E215725C60BCA2A463E54C4CE327C7A65E1C7DB02E7DEFCBF594B864C5CA6CDBD49C957943E9FA5D5FBAF336F90F504B0304140006080800CC70623BAD7543B64E01000033030000300000
310
006662782F39464131463745442D413632322D343644302D413938332D3331353338454246344243312F636E782E786D6CD593CD6EC32010845F0571AD6CE3D48AD20813A9873E410FBD12D82434182C7EAAE6EDBB2424CD25871E7B41D6EC30B3FA84F9E67BB2E40B4234DE8DB46F1925E094D7C6ED479AD3AE5951B2113C
310
789FEE6C943839C1488B4C05DF079FE72A69D8C96C13AAD6B8631503449F83828872B949AC57D26200B826A308D316B4064D6E46FCDA41C05550DC9E483A00797BFD207EFB092A45DE9514C1BBD22178396BD39D891265658C238DEA00936C654E5E433CB65A26D9F6EDB5EBC14EBF49A45CB856E66048291F6939A9A81BB5
310
C8917738143CA680F4AA299D66A042CEB3354A2684DC9D8D178FE0D9B8B41CAAD720F880EE7EF93C0C18769E099ECC04D5A102C8049A8A05632F4DDF376CF1DE0F6BB65C2F8627B65A33C6BB62177CEBBDAD973006829F89F22E814B54F4BC2BE347F8AA8F681390B50FA73F804400B5F542E796F19FF974E7F78DB802FE05
310
E207504B0304140006080800CC70623B16AB87BA640500003C100000340000006662782F39464131463745442D413632322D343644302D413938332D3331353338454246344243312F6F626A656374732E786D6CAD575B6FA33818FD2B887DE6924B3BED8A326A92B68A663B534DD4D13E548A0C38942D60649B369D5FBFC7
310
600890A493BDE42160637FD7F31D7FF63E6FB3D478A55C242CBF3247B66B1A340F5994E4F19559CA8D75611A9F7D8F33263BCB4C232719BD32D5B4E97B316765A1A722BA21652A07B3B7B33F0D11D29C9A46981221AE4C113ED38CD8A4942CA2E2C58E882476BCD9DA23BB5ED8171B73523C0F841684D35CC252CCE79062D4
310
468DFA43D7747CCF51DF7D4FFDEB5593E3AB9CCA9FBEFE241792E4E19EB28198C968BAB8199F5D5A67D3E9C49A9E8F47D6EC76B6B0469F26EEFC7C3EBFBCBEB98462213924694B38DD98FE1D62C393D073EA4FADC5DAF04326852CCF6958F90F0F2B9BB5C48816348F90C7840A68EB78EDF68723159BCEE7891A6B95DDE9D3
310
BCEAEEE8086A6C6F9E5D4B59F0175C10A7A0820BAA5055C7473B5AE3CFDD452D602CD5DF12616444529E90D448938013FE6EFA58AA96F85E4F8C42275708571E98FE6827AF6B2B4AE3D7D83D64E5A64C53054DD3AF90BD06FEA9149565C94FCA0F6B834DC85599E4F2423B24DF0B6AFA979E534DFA9E7A4CC6FA631D486393
310
921829879BF5D781A373557BCB85E97FB90DB62B558F8795179C15944B051F40AB495CF35451D26A4727654E6D8033BD98EF82F21D91FF8AF2DD9982BCF1643BDD4EB516C9492E368C67C88DED563FC36D5EACF66DFF057C3658BDBFA69DF9578B3DA735B64F18C7F20770A9D45CFCF7FCF563D6456A277DBEF78A02637CA2
310
43B90A490AEAB94F72244481D24819A6C0E59B606BFA4B3025981DBB48EAB701D97BF19C577CC77F2D1B6C55A9EF3C732474C0B727303F625995056C3B02963D9EAC146BE78EC5FCEC7FA999EBC5EACBAAE41B12D27B4D2C0BBA49F244E2ECDC81B76B502F113D8F5EE8FB1BE3111CDD4FC2AA9B844CAB1288B68AB90A7CDC
310
1C166AB0D3DC5310625FCC14E779BFD0709F8890A629C9292B1B2DED31A4B0DA928CEE135085754027E3018A397D4D5427D15BD1330B677DC8934285AC3DF45A9EB68FF8F2B8FC0A509AFEECFD0FF2DE25CC6047F7214B195F07EFEB9A094D800F7BFAE8FED187B78EA8A3A400F115961BCAD1215E47C966530AF0EE8128FE
310
58CEBB996A8964FFA529A046635D9353B0336A8F700DDF46271A024E70B0B37C9DE01847591E54DED53D54202AB947E4076556AC49C6CA5C9E1226B7F1A7B1BE15DEED62C41B91E1B3E9AFAAA735036547343A925075041DF0A9979E893B391F8FCFA6967B3EFB644DCF6E5CEBFAE272625DCC6FAF3FB93793C5F90CE1EF57
310
407342756B10D1C489E8953CD1617E5CEECAD6F4EF8914CE5D5D504E5C3F1F9736DA62CFC11E00BCDDB8CC8A9466349744C1F75EBDA4DF09BA8A9E8C7A7E9991989E20E5DBDD6A6003664ED8F7A04A8DBE0DF6EAD9B9AA858342E47399053949D2C146EDB85DE4B176BB0965FBAC19BD19AA918E27FA50C1D22402E144464C
310
59462568E704B6E71915404CB72B8FF4EDE184DDAF753F284990D2C6926782963815403548A70C657FDEF80D2D9CEAA2AE4C1C76F60BFE74219A06527D6582DF6412526107381E55E353090704D085B52408D0933C4ED159D79BDA71BB4BC506F4831350EB6F979CD22D69BF7AC49B91A2C0A9DDA3D5CA36AD20FC478E37E6
310
1844E2352865EBCB6EA275A652E3836BE04EFB400BF1A2556F515F1FBB35B2AB35BD889C744FFA1004B5544B121E57F70215746DD2F5E2C1412B602CBF19455AC6C8E5E9922C4E01E65215385004546899059180EAFCF7A707CE7017CD8CDB0410789AB32C63B91E5CEBBBACB17AC6CD347A022D5075FD106377347AAABA7E
310
7D11590744509B44E205134DC1290F06580320F78E537D3D73540E06CB970B431F185308AD40BBD794D6D77003C5A36E8EAA54BA64597CD8F83BD552A080A365F7FF06504B0304140006080000CC70623B000000000000000000000000350000006662782F39464131463745442D413632322D343644302D413938332D3331
310
353338454246344243312F76657274696365732E62696E504B0304140006080800CC70623BF270F1330600000004000000360000006662782F39464131463745442D413632322D343644302D413938332D3331353338454246344243312F747269616E676C65732E62696E636660600000504B0304140006080000CC70623B
310
000000000000000000000000370000006662782F39464131463745442D413632322D343644302D413938332D3331353338454246344243312F617474726962757465732E62696E504B0304140006080800CC70623B08DA0BD19000000041010000360000006662782F39464131463745442D413632322D343644302D413938
310
332D3331353338454246344243312F6469726563746F72792E786D6C858F410AC3201045AF22B36F53E9A60B35CBEEBAE80D244E44489C6234F4F835464A48035D0DF398FF9F8AF63D0E6CC63039F212F8F9020C7D47C6792B21C5FE7403D62A1188E2E60C98D7234A5830286103A55745067B9D86B8A3CF9C7F90C11DE607
310
FB144396D7B6A82D282E9A152AD114D5EF2CB866EEE831B8EEA07A7BB5A8D7D61A2BAAEB7FD5F70921FF497D00504B0304140006080800CC70623B0D6EF93BFE000000A00100003B0000006662782F39464131463745442D413632322D343644302D413938332D3331353338454246344243312F7265736F75726365732F63
310
6F72652E786D6C8D50596E833010BD0A9ADFCA60B334011947A8694ED00B586642AC041B79A97AFC9A40A5F6AF3F33A3B7689E1E3F7DCD8FEC139DD7D6F4C0720A191A65476DA61E62B892236427C19DB5E1970C322367EC618541F0C9D9B8EC90B226A009093576C41D94DE63804C3DD2D18357379C652E63480A7FCF17A9
310
EE72C29CE5894E3AC17D702940B63D59270887DE46A7D0F36263058F518FBB468FE9A7BE6A7420864373B8D4873369AA8691FA421B3294352543C5CAF65C0F6FEF43CB8BD52C78D0F34F46E550061C419494B6843142CB0F5677F4B52BEB177AEC28E5C52AFF638ACBF84F53D42654E51E77B379102C05791282176B5F693D
310
CB4C7BED567C03504B010214000A0000080000CC70623B3DEE336E79000000790000001B00000000000000000000000000000000006175746F6465736B2D64657369676E2D7061636B6167652E786D6C504B01021400140006080800CC70623BD486FD9CA0000000F40000001300000000000000000000000000B20000005B
310
436F6E74656E745F54797065735D2E786D6C504B01021400140006080800CC70623B1EC5D7A3EB0000007C010000080000000000000000000000000083010000636F72652E786D6C504B01021400140006080800CC70623B55019EA25F0000007C000000070000000000000000000000000094020000636E782E786D6C504B
310
01021400140006080800CC70623B8C9102E971010000D40300000C00000000000000000000000000180300006662782F636F72652E786D6C504B01021400140006080800CC70623BFFEA85907E0000009D0000000B00000000000000000000000000B30400006662782F636E782E786D6C504B01021400140006080800CC70
310
623B4FEEA4082C0100001202000031000000000000000000000000005A0500006662782F39464131463745442D413632322D343644302D413938332D3331353338454246344243312F636F72652E786D6C504B01021400140006080800CC70623BAD7543B64E010000330300003000000000000000000000000000D5060000
310
6662782F39464131463745442D413632322D343644302D413938332D3331353338454246344243312F636E782E786D6C504B01021400140006080800CC70623B16AB87BA640500003C1000003400000000000000000000000000710800006662782F39464131463745442D413632322D343644302D413938332D3331353338
310
454246344243312F6F626A656374732E786D6C504B01021400140006080000CC70623B0000000000000000000000003500000000000000000000000000270E00006662782F39464131463745442D413632322D343644302D413938332D3331353338454246344243312F76657274696365732E62696E504B01021400140006
310
080800CC70623BF270F133060000000400000036000000000000000000000000007A0E00006662782F39464131463745442D413632322D343644302D413938332D3331353338454246344243312F747269616E676C65732E62696E504B01021400140006080000CC70623B0000000000000000000000003700000000000000
310
000000000000D40E00006662782F39464131463745442D413632322D343644302D413938332D3331353338454246344243312F617474726962757465732E62696E504B01021400140006080800CC70623B08DA0BD190000000410100003600000000000000000000000000290F00006662782F39464131463745442D413632
310
322D343644302D413938332D3331353338454246344243312F6469726563746F72792E786D6C504B01021400140006080800CC70623B0D6EF93BFE000000A00100003B000000000000000000000000000D1000006662782F39464131463745442D413632322D343644302D413938332D3331353338454246344243312F7265
310
736F75726365732F636F72652E786D6C504B0506000000000E000E0080040000641100000000
  0
XRECORD
  5
B2
102
{ACAD_REACTORS
330
C
102
}
330
C
100
AcDbXrecord
280
     1
102
MATERIAL
148
0.0
149
0.0
149
0.0
 93
        0
 94
       63
282
     0
 72
     1
 77
     1
171
     1
175
     1
179
     1
273
     0
  0
XRECORD
  5
D
102
{ACAD_REACTORS
330
C
102
}
330
C
100
AcDbXrecord
280
     1
270
     1
271
     1
  0
XRECORD
  5
E
102
{ACAD_REACTORS
330
C
102
}
330
C
100
AcDbXrecord
280
     1
270
     1
271
     1
  0
XRECORD
  5
F
102
{ACAD_REACTORS
330
C
102
}
330
C
100
AcDbXrecord
280
     1
 70
     0
 90
1673772943
  1
ECE7A1D2-D628-4531-984C-D00F80459256
310
504B03040A0000080000CC70623B3DEE336E79000000790000001B0000006175746F6465736B2D64657369676E2D7061636B6167652E786D6C3C3F786D6C2076657273696F6E3D22312E302220656E636F64696E673D227574662D3822203F3E3C666F726D6174733E3C666F726D61743E687474703A2F2F736368656D612E
310
6175746F6465736B2E636F6D2F64657369676E2D7061636B6167652F323030393C2F666F726D61743E3C2F666F726D6174733E504B0304140006080800CC70623BD486FD9CA0000000F4000000130000005B436F6E74656E745F54797065735D2E786D6C7D8EC10E82300C865F65E91D8A1E8C310C0EEA1BF002731658846E
310
D98AC1B77784ABF1D8FE5FBFBF75BBCE937A534CCEB38643598122B6FEE978D0B0485F9C41B54DDD7D022595594E1A469170414C76A4D9A4D207E29CF43ECE46F218070CC6BECC4078ACAA135ACF422C856C0E68EA1BF5669944DDD7BCDE7B1F8E415D77AECB980613C2E4AC91FC167A2B244592486606FC29C8FD7F045B9A
310
EF7053A7E60B504B0304140006080800CC70623BD9DDAED0EC0000007C01000008000000636F72652E786D6C8D90416EC3201045AF82665B61836D9CD8C2444DD39CA01740405C94182C03558F5F9C3852BBEB6A467FFE9B197D7EF89E6EE8CB2CC17A37002D0820E394D7D68D03A478C17B4007C117EFE32F1B20272733C0
310
2A83E0E3E2D3BC49CABB685CCCAAF3DA6CA20CC14440EA969B0182FA34932C648AD911AEC52CD5558EA6A0CF2EC329598D1E47ACCEFBECC59A050463A7EA5833865FEBDD0E37353BE3EE8DBDE3F6786A48D375FBF6CC78B9C282473B3DEFABC5C86834888A900E538A49F5419B9EB47DD5BC907D4F082F57FB1F28CDFA9F50
310
B22ED6D5F6EE030B20687EE43E10BC5CB3C8E51E54AE6B6EE207504B0304140006080800CC70623B55019EA25F0000007C00000007000000636E782E786D6C4DCB3B0E80201045D1AD90E915ED2CF8AC45050C11660C8261F98AB1B07AC9C97D42D718D865D3E909258CFD00CCE24AC6E326A164D74DC0B4128928FF326038
310
472BA13128B1252AC747C6BAB984FC68F0B87FE8960A5C09FE86CFB69FBA01504B0304140006080800CC70623BA24EB22D72010000D40300000C0000006662782F636F72652E786D6CC5535B6E833010BC8AE5DF0A6C5E49888CA3A6694ED00B38E05014B091B1518EDFE511A5A9D228FD2A1F60CDEC7A67C6986DCE4D8D7A
310
69BA4AAB0C073EC548AA5C17952A33ECECD15B61B4E1CC686DBF9561A44423333CC098B3D268D7CE50AE9595CA02AA74216750749DB418E5352C32DCE59FB211BE70162ABA93DF8AFC244AE9073ED050C759670D0840D390E18DF9F1706664C23973AE2A66B62A605A75ACA4C13C4976E1364A12EF355A2EBD384AF65EFA96
310
BC7B8BED2EA6719AAE16FB8491A199335B351775B991C2CA02F390D2D40B028F861F41BCA68B7518BFD0D59A524686F29B26D7164F36B94AD9289CE54E6D1DE6010819891F6E21228B3AD1831EC219194284CF98F06DD01008846CC5A1BEF83801D4CBDC6A1303536877A57A513B0953A94FC707FDBE6064EA84A9E3E6E0FA
310
EE8CF0E9198F7784A316AA0413C2C2F2E0ECA0934D1AE6D05A69BCDE9E91D2A611F573361E38FC1375157F5752AE6B6DFE4B11990F88CCBF0719EE23FF02504B0304140006080800CC70623B408A7D3B7C0000009D0000000B0000006662782F636E782E786D6C4DCCD10A83201886E15B91FFDC552A92A0064DBC8F581632
310
D3703A76F9ABD1C18E3E78F878E5F0D9027ABBFCF2292AE86E2D20171F69F6715550CB827B40839639A5F2770314A7CD293819B45C73AAFB45B35BA61ACAA1C1C7E7855C58C15BC331339661262CC762340413D68D77DA5B42298546CBE6573AF60CEB2F504B0304140006080800CC70623B449FB9BD290100001202000031
310
0000006662782F36394639363044362D344446342D343946362D394244322D3234314243333846323333332F636F72652E786D6C8D515B6EC32010BC0AE22B55850D98B871848994463E412FE002495162B07854397EA176A4F62F3F2C9A9D991D587EB84F37F0AD7D30CEF6905418026DA553C65E7A98E219ED203808EE9D
310
8B7F6810D871D23D2C3014FCE25D9A57483A1BB58D19B54EE9151C43D0110279CB971E06F9A5A7B11A53CC8C70ADE6515EC78BAE4895DB992778883E0700CB907242D17643D7E2538BD869608875438BBAE38922CAC8F1BDD90DB4691A5E2F42C153326A951B95E398B3D1FE599322163C9AE9115F7A3D46ADA0A018778810
310
84E907617BDCEE297BC5BB3DC6BC2EF47FA234AB2745C9D8D8D035EE220B50105E2F0DC1954B9FB747187D9F9D8FA0CCDB042D5FA0C015C65B42DF78BD10F3F3B363CB56C7109DCFDFBBB97E662ED92EB62D13BC2E1BCAE5777DB9966D8A1F504B0304140006080800CC70623BAD7543B64E01000033030000300000006662
310
782F36394639363044362D344446342D343946362D394244322D3234314243333846323333332F636E782E786D6CD593CD6EC32010845F0571AD6CE3D48AD20813A9873E410FBD12D82434182C7EAAE6EDBB2424CD25871E7B41D6EC30B3FA84F9E67BB2E40B4234DE8DB46F1925E094D7C6ED479AD3AE5951B2113C789FEE
310
6C943839C1488B4C05DF079FE72A69D8C96C13AAD6B8631503449F83828872B949AC57D26200B826A308D316B4064D6E46FCDA41C05550DC9E483A00797BFD207EFB092A45DE9514C1BBD22178396BD39D891265658C238DEA00936C654E5E433CB65A26D9F6EDB5EBC14EBF49A45CB856E66048291F6939A9A81BB5C89177
310
38143CA680F4AA299D66A042CEB3354A2684DC9D8D178FE0D9B8B41CAAD720F880EE7EF93C0C18769E099ECC04D5A102C8049A8A05632F4DDF376CF1DE0F6BB65C2F8627B65A33C6BB62177CEBBDAD973006829F89F22E814B54F4BC2BE347F8AA8F681390B50FA73F804400B5F542E796F19FF974E7F78DB802FE05E20750
310
4B0304140006080800CC70623B8D05915C650500003B100000340000006662782F36394639363044362D344446342D343946362D394244322D3234314243333846323333332F6F626A656374732E786D6CAD575B6FA33814FE2B887D06429276DA1565D4266D158D3A339A6846FB502932E050B66023DB74D2FDF5FB190C01
310
9276B2973C046C8ECFF53B17071F77456EBD502133CEAE6CDF9DD81665314F32965ED995DA3A17B6F5310C04E7AA47665B8C14F4CAD6DB7618A48257A5D94AE89654B91AEDDEDDFC61C998326A5B714EA4BCB265FC440BE2924AF184CA6737218AB8E976E7FA6E4338649B0A523E8D98964450A6A029F619B8588D52FE7039
310
B1BD30F0F4F730D0FF866AF6369557DB33949F31A9088B0F848DD8CCFCF9F2767A76E99CCDE733677E3EF59D9BBB9BA5E37F984D16E78BC5E5F5ED25044B25C0C96822E8D60EEFE11B91C581D77CEA34368A1F5329E68CD1B8B61F16D63A1B8E092D294B10C78C4A48EB593D192E7DED9BDEE7995E1B91FDEDD3ACEA9FE831
310
6A756F9F7D4D79F4274C90A7A04248AA51D5F8C718DAE06FB2F75AC4796EBE65D22A88A22223B995679120E2D50E41AA49C260C046A35368846B0BECD0DFF3EBEB8AD4F835768F69B9ADF25C43D30E6B646F807FAA64AD59F61715C7A54127C4AACA98BA3006A9D792DAE165E0D59B61A01FB3A9F9D838D2DAE62445C86166
310
F37564E842E7DE6A69879FEEA2DD5AE7E371E1A5E025154AC307D06A03D73EB5978C58FFA4C8E9033066E0F3BD53BEC1F39F91BE7B55103791EDE6BBB991A2046172CB4581D8B893FA674DDA17A77B3B7C413D1B511FD2743BFF8A38F03A658705E3ADF8015C3A3417FF3D7E439FF591DA0B5F18BC20C1B8981957AE6392A3
310
F43C640C01D1A0B4728E2DD4F26DB4B3C3152A252A3B4E913CEC1C72F012782FF88EFF8637AA552DBEF76408E8A8DE9E50F9E1CB3A2DA0DB1B6039A893B56063DC5B3E3FFB5F72E67AB9FEB4AEC496C4F4C1149625DD662C53E89D7BF0F6151A046260D1337DFDC94502430F83B0EE07A130A224BCAD7DAE1D9FB6CD422FF6
310
920702629C4BB9AE79C12F243C6432A6794E18E5552BA56B431AAB5D91317302B2B071E86C3A42B1A02F999E24061403B5D0EB639195DA655DD3EBEAB4FB862DDF579F014AD0E73C22F99E28DA57FB98E75C6CA2D74D53086D600F4786E0FE3144B771A8A7B900F03594DB8A633CBC49B2EDB69228BB479CF863B5E807AAAB
310
23872F6DFEB4129B949CA33823F58830E86D65621E10047D9DB34D862E8EAC3C2ABC2F7B2C40D67CDFE01F5545B92105AF983AC54D93D69E56FB8E797F88913F898A9FEC705D3F9D1B54EC8426FB500D40A03BD0119B06E1B95DDC7EB8F6975367793EBD70E66733DFB9BC982F9CE564727731999F5D4ECFCE3B8D6A4DC2A0
310
6D50FD148437D110834A64C6CDDF57FBACB5C307A2A477DFE4939736CFEF2B175371E0E10CF0DD1D5C15654E0BCA14D1E87DD02FF93782A162C0A3D95F1524A52770F972BF1EE9809D13CE7DD599467F8ECE9ADD85CE85A34CD45355448C64F9E8A031DC2D596ACC6E5DD93D9B82DE2EF5CAF81363A8E47996A0DE24564A79
310
4115AACE09C55E14540231FDA13C319787134EBF34E3A022514E5B4D9E0826E25C02D5805B15ABE1BEF51B26383D445DD9E875EE33FE4C22DA16427D65A3BCA92CA6D28DD01DF5DC53330704308475351050232CCD31583787BA75774AFB06E5070DD0C8EF484E19968C5D83BA5B90B244D31E54D55A372320FE4786B7EA58
310
44E135AA5467CB7EA333A61683CC6A8C3257034C10CF46F40EF9F5BE59BE5BD30C3C72D235E95D10345C1D45445A5F0BB47E46A5EBE5570F9380B5FA629579952296A773720405982B9DE04011506178964401AA8BDF1FBF0A8EAB6861DD6580C0E38217056766716DAEB2D6FA0917D3E4116581EADB879C4E7CFFB11EFACD
310
3D641311495D92C8676CB409A72D18610D803CE8A626049E8EC1887CB5B44CC39883690DDA8399B4B9855B481E7D71D4A9D22F96E5BB73BF5793020C02137BF837504B0304140006080000CC70623B000000000000000000000000350000006662782F36394639363044362D344446342D343946362D394244322D32343142
310
43333846323333332F76657274696365732E62696E504B0304140006080800CC70623BF270F1330600000004000000360000006662782F36394639363044362D344446342D343946362D394244322D3234314243333846323333332F747269616E676C65732E62696E636660600000504B0304140006080000CC70623B0000
310
00000000000000000000370000006662782F36394639363044362D344446342D343946362D394244322D3234314243333846323333332F617474726962757465732E62696E504B0304140006080800CC70623B08DA0BD19000000041010000360000006662782F36394639363044362D344446342D343946362D394244322D
310
3234314243333846323333332F6469726563746F72792E786D6C858F410AC3201045AF22B36F53E9A60B35CBEEBAE80D244E44489C6234F4F835464A48035D0DF398FF9F8AF63D0E6CC63039F212F8F9020C7D47C6792B21C5FE7403D62A1188E2E60C98D7234A5830286103A55745067B9D86B8A3CF9C7F90C11DE607FB14
310
4396D7B6A82D282E9A152AD114D5EF2CB866EEE831B8EEA07A7BB5A8D7D61A2BAAEB7FD5F70921FF497D00504B0304140006080800CC70623BCA768048FE000000A00100003B0000006662782F36394639363044362D344446342D343946362D394244322D3234314243333846323333332F7265736F75726365732F636F72
310
652E786D6C8D50596E833010BD0A9ADFCA60D600328E9AA639412F609909B1126CE4A5EAF16B0295DABFFECC8CDEA2797AECF8353F924FB44E193D409E5248504B332A3D0D10FC95B4901C39B3C6F85F3248B49871801506CE266BC2B243D2688FDA47549B11775038871E12F988C7004EDE7016A9083E2ADC3D5D84BC8B09
310
D33C8D74D471E6BC8D0192EDC93A815B742658898E651BCB59086ADC356A8C3FD555A1055ED7E7E254D615792D0F075295F585746FF53B694EE78A565DD736979A65AB9933AFE69F8CD2A2F038022F28ED489E135A7CE4554F9BBEA85E68DB53CAB255FEC71496F19FA6A0B42F8B3DEE6673C0F318E4497096AD7DC5F52C33
310
EEB55BFE0D504B010214000A0000080000CC70623B3DEE336E79000000790000001B00000000000000000000000000000000006175746F6465736B2D64657369676E2D7061636B6167652E786D6C504B01021400140006080800CC70623BD486FD9CA0000000F40000001300000000000000000000000000B20000005B436F
310
6E74656E745F54797065735D2E786D6C504B01021400140006080800CC70623BD9DDAED0EC0000007C010000080000000000000000000000000083010000636F72652E786D6C504B01021400140006080800CC70623B55019EA25F0000007C000000070000000000000000000000000095020000636E782E786D6C504B0102
310
1400140006080800CC70623BA24EB22D72010000D40300000C00000000000000000000000000190300006662782F636F72652E786D6C504B01021400140006080800CC70623B408A7D3B7C0000009D0000000B00000000000000000000000000B50400006662782F636E782E786D6C504B01021400140006080800CC70623B
310
449FB9BD290100001202000031000000000000000000000000005A0500006662782F36394639363044362D344446342D343946362D394244322D3234314243333846323333332F636F72652E786D6C504B01021400140006080800CC70623BAD7543B64E010000330300003000000000000000000000000000D20600006662
310
782F36394639363044362D344446342D343946362D394244322D3234314243333846323333332F636E782E786D6C504B01021400140006080800CC70623B8D05915C650500003B10000034000000000000000000000000006E0800006662782F36394639363044362D344446342D343946362D394244322D32343142433338
310
46323333332F6F626A656374732E786D6C504B01021400140006080000CC70623B0000000000000000000000003500000000000000000000000000250E00006662782F36394639363044362D344446342D343946362D394244322D3234314243333846323333332F76657274696365732E62696E504B010214001400060808
310
00CC70623BF270F13306000000040000003600000000000000000000000000780E00006662782F36394639363044362D344446342D343946362D394244322D3234314243333846323333332F747269616E676C65732E62696E504B01021400140006080000CC70623B00000000000000000000000037000000000000000000
310
00000000D20E00006662782F36394639363044362D344446342D343946362D394244322D3234314243333846323333332F617474726962757465732E62696E504B01021400140006080800CC70623B08DA0BD190000000410100003600000000000000000000000000270F00006662782F36394639363044362D344446342D
310
343946362D394244322D3234314243333846323333332F6469726563746F72792E786D6C504B01021400140006080800CC70623BCA768048FE000000A00100003B000000000000000000000000000B1000006662782F36394639363044362D344446342D343946362D394244322D3234314243333846323333332F7265736F
310
75726365732F636F72652E786D6C504B0506000000000E000E0080040000621100000000
  0
XRECORD
  5
10
102
{ACAD_REACTORS
330
C
102
}
330
C
100
AcDbXrecord
280
     1
270
     1
271
     1
  0
XRECORD
  5
11
102
{ACAD_REACTORS
330
C
102
}
330
C
100
AcDbXrecord
280
     1
270
     1
271
     1
  0
CELLSTYLEMAP
  5
A8
102
{ACAD_REACTORS
330
40
102
}
330
40
100
AcDbCellStyleMap
 90
        3
300
CELLSTYLE
  1
TABLEFORMAT_BEGIN
 90
        5
170
     1
 91
        0
 92
    32768
 62
   257
 93
        1
300
CONTENTFORMAT
  1
CONTENTFORMAT_BEGIN
 90
        0
 91
        0
 92
      512
 93
        0
300

 40
0.0
140
1.0
 94
        5
 62
     0
340
21
144
6.0
309
CONTENTFORMAT_END
171
     1
301
MARGIN
  1
CELLMARGIN_BEGIN
 40
1.5
 40
1.5
 40
1.5
 40
1.5
 40
4.5
 40
4.5
309
CELLMARGIN_END
 94
        6
 95
        1
302
GRIDFORMAT
  1
GRIDFORMAT_BEGIN
 90
        0
 91
        1
 62
     0
 92
       -2
340
24
 93
        0
 40
1.125
309
GRIDFORMAT_END
 95
        2
302
GRIDFORMAT
  1
GRIDFORMAT_BEGIN
 90
        0
 91
        1
 62
     0
 92
       -2
340
24
 93
        0
 40
1.125
309
GRIDFORMAT_END
 95
        4
302
GRIDFORMAT
  1
GRIDFORMAT_BEGIN
 90
        0
 91
        1
 62
     0
 92
       -2
340
24
 93
        0
 40
1.125
309
GRIDFORMAT_END
 95
        8
302
GRIDFORMAT
  1
GRIDFORMAT_BEGIN
 90
        0
 91
        1
 62
     0
 92
       -2
340
24
 93
        0
 40
1.125
309
GRIDFORMAT_END
 95
       16
302
GRIDFORMAT
  1
GRIDFORMAT_BEGIN
 90
        0
 91
        1
 62
     0
 92
       -2
340
24
 93
        0
 40
1.125
309
GRIDFORMAT_END
 95
       32
302
GRIDFORMAT
  1
GRIDFORMAT_BEGIN
 90
        0
 91
        1
 62
     0
 92
       -2
340
24
 93
        0
 40
1.125
309
GRIDFORMAT_END
309
TABLEFORMAT_END
  1
CELLSTYLE_BEGIN
 90
        1
 91
        1
300
_TITLE
309
CELLSTYLE_END
300
CELLSTYLE
  1
TABLEFORMAT_BEGIN
 90
        5
170
     1
 91
        0
 92
        0
 62
   257
 93
        1
300
CONTENTFORMAT
  1
CONTENTFORMAT_BEGIN
 90
        0
 91
        0
 92
      512
 93
        0
300

 40
0.0
140
1.0
 94
        5
 62
     0
340
21
144
4.5
309
CONTENTFORMAT_END
171
     1
301
MARGIN
  1
CELLMARGIN_BEGIN
 40
1.5
 40
1.5
 40
1.5
 40
1.5
 40
4.5
 40
4.5
309
CELLMARGIN_END
 94
        6
 95
        1
302
GRIDFORMAT
  1
GRIDFORMAT_BEGIN
 90
        0
 91
        1
 62
     0
 92
       -2
340
24
 93
        0
 40
1.125
309
GRIDFORMAT_END
 95
        2
302
GRIDFORMAT
  1
GRIDFORMAT_BEGIN
 90
        0
 91
        1
 62
     0
 92
       -2
340
24
 93
        0
 40
1.125
309
GRIDFORMAT_END
 95
        4
302
GRIDFORMAT
  1
GRIDFORMAT_BEGIN
 90
        0
 91
        1
 62
     0
 92
       -2
340
24
 93
        0
 40
1.125
309
GRIDFORMAT_END
 95
        8
302
GRIDFORMAT
  1
GRIDFORMAT_BEGIN
 90
        0
 91
        1
 62
     0
 92
       -2
340
24
 93
        0
 40
1.125
309
GRIDFORMAT_END
 95
       16
302
GRIDFORMAT
  1
GRIDFORMAT_BEGIN
 90
        0
 91
        1
 62
     0
 92
       -2
340
24
 93
        0
 40
1.125
309
GRIDFORMAT_END
 95
       32
302
GRIDFORMAT
  1
GRIDFORMAT_BEGIN
 90
        0
 91
        1
 62
     0
 92
       -2
340
24
 93
        0
 40
1.125
309
GRIDFORMAT_END
309
TABLEFORMAT_END
  1
CELLSTYLE_BEGIN
 90
        2
 91
        1
300
_HEADER
309
CELLSTYLE_END
300
CELLSTYLE
  1
TABLEFORMAT_BEGIN
 90
        5
170
     1
 91
        0
 92
        0
 62
   257
 93
        1
300
CONTENTFORMAT
  1
CONTENTFORMAT_BEGIN
 90
        0
 91
        0
 92
      512
 93
        0
300

 40
0.0
140
1.0
 94
        2
 62
     0
340
21
144
4.5
309
CONTENTFORMAT_END
171
     1
301
MARGIN
  1
CELLMARGIN_BEGIN
 40
1.5
 40
1.5
 40
1.5
 40
1.5
 40
4.5
 40
4.5
309
CELLMARGIN_END
 94
        6
 95
        1
302
GRIDFORMAT
  1
GRIDFORMAT_BEGIN
 90
        0
 91
        1
 62
     0
 92
       -2
340
24
 93
        0
 40
1.125
309
GRIDFORMAT_END
 95
        2
302
GRIDFORMAT
  1
GRIDFORMAT_BEGIN
 90
        0
 91
        1
 62
     0
 92
       -2
340
24
 93
        0
 40
1.125
309
GRIDFORMAT_END
 95
        4
302
GRIDFORMAT
  1
GRIDFORMAT_BEGIN
 90
        0
 91
        1
 62
     0
 92
       -2
340
24
 93
        0
 40
1.125
309
GRIDFORMAT_END
 95
        8
302
GRIDFORMAT
  1
GRIDFORMAT_BEGIN
 90
        0
 91
        1
 62
     0
 92
       -2
340
24
 93
        0
 40
1.125
309
GRIDFORMAT_END
 95
       16
302
GRIDFORMAT
  1
GRIDFORMAT_BEGIN
 90
        0
 91
        1
 62
     0
 92
       -2
340
24
 93
        0
 40
1.125
309
GRIDFORMAT_END
 95
       32
302
GRIDFORMAT
  1
GRIDFORMAT_BEGIN
 90
        0
 91
        1
 62
     0
 92
       -2
340
24
 93
        0
 40
1.125
309
GRIDFORMAT_END
309
TABLEFORMAT_END
  1
CELLSTYLE_BEGIN
 90
        3
 91
        2
300
_DATA
309
CELLSTYLE_END
  0
XRECORD
  5
B7
102
{ACAD_REACTORS
330
40
102
}
330
40
100
AcDbXrecord
280
     1
102
ACAD_ROUNDTRIP_PRE2007_TABLESTYLE
 90
      512
 91
        0
  1

 92
      512
 93
        0
  2

 94
      512
 95
        0
  3

  0
XRECORD
  5
B4
102
{ACAD_REACTORS
330
B3
102
}
330
B3
100
AcDbXrecord
280
     1
102
RTVSPost2010Prop28
280
     1
102
RTVSPost2010PropOp28
 70
     1
102
RTVSPost2010Prop29
280
     1
102
RTVSPost2010PropOp29
 70
     1
102
RTVSPost2010Prop30
280
     0
102
RTVSPost2010PropOp30
 70
     1
102
RTVSPost2010Prop31
280
     0
102
RTVSPost2010PropOp31
 70
     1
102
RTVSPost2010Prop32
280
     0
102
RTVSPost2010PropOp32
 70
     1
102
RTVSPost2010Prop33
280
     0
102
RTVSPost2010PropOp33
 70
     1
102
RTVSPost2010Prop34
280
     0
102
RTVSPost2010PropOp34
 70
     1
102
RTVSPost2010Prop35
280
     0
102
RTVSPost2010PropOp35
 70
     1
102
RTVSPost2010Prop36
280
     0
102
RTVSPost2010PropOp36
 70
     1
102
RTVSPost2010Prop37
 90
       50
102
RTVSPost2010PropOp37
 70
     1
102
RTVSPost2010Prop38
140
0.0
102
RTVSPost2010PropOp38
 70
     1
102
RTVSPost2010Prop39
140
1.0
102
RTVSPost2010PropOp39
 70
     1
102
RTVSPost2010Prop40
 90
        0
102
RTVSPost2010PropOp40
 70
     1
102
RTVSPost2010Prop41ColorIndex
 90
       18
102
RTVSPost2010Prop41ColorRGB
 90
        0
102
RTVSPost2010PropOp41
 70
     1
102
RTVSPost2010Prop42
 90
       50
102
RTVSPost2010PropOp42
 70
     1
102
RTVSPost2010Prop43
 90
        3
102
RTVSPost2010PropOp43
 70
     1
102
RTVSPost2010Prop44ColorIndex
 90
        5
102
RTVSPost2010Prop44ColorRGB
 90
      255
102
RTVSPost2010PropOp44
 70
     1
102
RTVSPost2010Prop45
280
     0
102
RTVSPost2010PropOp45
 70
     1
102
RTVSPost2010Prop46
 90
       50
102
RTVSPost2010PropOp46
 70
     1
102
RTVSPost2010Prop47
 90
       50
102
RTVSPost2010PropOp47
 70
     1
102
RTVSPost2010Prop48
 90
       50
102
RTVSPost2010PropOp48
 70
     1
102
RTVSPost2010Prop49
280
     0
102
RTVSPost2010PropOp49
 70
     1
102
RTVSPost2010Prop50
 90
       50
102
RTVSPost2010PropOp50
 70
     1
102
RTVSPost2010Prop51ColorIndex
 90
      256
102
RTVSPost2010Prop51ColorRGB
 90
-16777216
102
RTVSPost2010PropOp51
 70
     0
102
RTVSPost2010Prop52
140
1.0
102
RTVSPost2010PropOp52
 70
     0
102
RTVSPost2010Prop53
 90
        2
102
RTVSPost2010PropOp53
 70
     1
102
RTVSPost2010Prop54
  1
strokes_ogs.tif
102
RTVSPost2010PropOp54
 70
     1
102
RTVSPost2010Prop55
280
     0
102
RTVSPost2010PropOp55
 70
     1
102
RTVSPost2010Prop56
140
1.0
102
RTVSPost2010PropOp56
 70
     1
102
RTVSPost2010Prop57
140
1.0
102
RTVSPost2010PropOp57
 70
     1
102
RTVSPropertyOp0
 70
     1
102
RTVSPropertyOp1
 70
     1
102
RTVSPropertyOp2
 70
     1
102
RTVSPropertyOp3
 70
     1
102
RTVSPropertyOp4
 70
     1
102
RTVSPropertyOp5
 70
     1
102
RTVSPropertyOp6
 70
     1
102
RTVSPropertyOp7
 70
     1
102
RTVSPropertyOp8
 70
     1
102
RTVSPropertyOp9
 70
     1
102
RTVSPropertyOp10
 70
     1
102
RTVSPropertyOp11
 70
     1
102
RTVSPropertyOp12
 70
     1
102
RTVSPropertyOp13
 70
     1
102
RTVSPropertyOp14
 70
     1
102
RTVSPropertyOp15
 70
     1
102
RTVSPropertyOp16
 70
     1
102
RTVSPropertyOp17
 70
     1
102
RTVSPropertyOp18
 70
     1
102
RTVSPropertyOp19
 70
     1
102
RTVSPropertyOp20
 70
     1
102
RTVSPropertyOp21
 70
     1
102
RTVSPropertyOp22
 70
     1
102
RTVSPropertyOp23
 70
     1
102
RTVSPropertyOp24
 70
     1
102
RTVSPropertyOp25
 70
     1
102
RTVSPropertyOp26
 70
     1
102
RTVSPropertyOp27
 70
     1
102
RTVSPropertyOp28
 70
     1
102
RTVSPropertyOp29
 70
     1
102
RTVSPropertyOp30
 70
     1
102
RTVSPropertyOp31
 70
     1
102
RTVSPropertyOp32
 70
     1
102
RTVSPropertyOp33
 70
     1
102
RTVSPropertyOp34
 70
     1
102
RTVSPropertyOp35
 70
     1
102
RTVSPropertyOp36
 70
     1
102
RTVSPropertyOp37
 70
     1
102
RTVSPropertyOp38
 70
     1
102
RTVSPropertyOp39
 70
     1
102
RTVSPropertyOp40
 70
     1
102
RTVSPropertyOp41
 70
     1
102
RTVSPropertyOp42
 70
     1
102
RTVSPropertyOp43
 70
     1
102
RTVSPropertyOp44
 70
     1
102
RTVSPropertyOp45
 70
     1
102
RTVSPropertyOp46
 70
     1
102
RTVSPropertyOp47
 70
     1
102
RTVSPropertyOp48
 70
     1
102
RTVSPropertyOp49
 70
     1
102
RTVSPropertyOp50
 70
     1
102
RTVSPropertyOp51
 70
     0
102
RTVSPropertyOp52
 70
     0
102
RTVSPropertyOp53
 70
     1
102
RTVSPropertyOp54
 70
     1
102
RTVSPropertyOp55
 70
     1
102
RTVSPropertyOp56
 70
     1
102
RTVSPropertyOp57
 70
     1
102
RTVSPropertyOp58
 70
     1
102
RTVSPropertyOp59
 70
     1
102
RTVSPropertyOp60
 70
     1
102
RTVSPropertyOp61
 70
     1
102
RTVSPropertyOp62
 70
     1
  0
XRECORD
  5
B9
102
{ACAD_REACTORS
330
B8
102
}
330
B8
100
AcDbXrecord
280
     1
102
RTVSPost2010Prop28
280
     0
102
RTVSPost2010PropOp28
 70
     1
102
RTVSPost2010Prop29
280
     1
102
RTVSPost2010PropOp29
 70
     1
102
RTVSPost2010Prop30
280
     1
102
RTVSPost2010PropOp30
 70
     1
102
RTVSPost2010Prop31
280
     0
102
RTVSPost2010PropOp31
 70
     1
102
RTVSPost2010Prop32
280
     0
102
RTVSPost2010PropOp32
 70
     1
102
RTVSPost2010Prop33
280
     0
102
RTVSPost2010PropOp33
 70
     1
102
RTVSPost2010Prop34
280
     0
102
RTVSPost2010PropOp34
 70
     1
102
RTVSPost2010Prop35
280
     0
102
RTVSPost2010PropOp35
 70
     1
102
RTVSPost2010Prop36
280
     0
102
RTVSPost2010PropOp36
 70
     1
102
RTVSPost2010Prop37
 90
       50
102
RTVSPost2010PropOp37
 70
     1
102
RTVSPost2010Prop38
140
0.0
102
RTVSPost2010PropOp38
 70
     1
102
RTVSPost2010Prop39
140
1.0
102
RTVSPost2010PropOp39
 70
     1
102
RTVSPost2010Prop40
 90
        0
102
RTVSPost2010PropOp40
 70
     1
102
RTVSPost2010Prop41ColorIndex
 90
       18
102
RTVSPost2010Prop41ColorRGB
 90
        0
102
RTVSPost2010PropOp41
 70
     1
102
RTVSPost2010Prop42
 90
       50
102
RTVSPost2010PropOp42
 70
     1
102
RTVSPost2010Prop43
 90
        3
102
RTVSPost2010PropOp43
 70
     1
102
RTVSPost2010Prop44ColorIndex
 90
        5
102
RTVSPost2010Prop44ColorRGB
 90
      255
102
RTVSPost2010PropOp44
 70
     1
102
RTVSPost2010Prop45
280
     0
102
RTVSPost2010PropOp45
 70
     1
102
RTVSPost2010Prop46
 90
       50
102
RTVSPost2010PropOp46
 70
     1
102
RTVSPost2010Prop47
 90
       50
102
RTVSPost2010PropOp47
 70
     1
102
RTVSPost2010Prop48
 90
       50
102
RTVSPost2010PropOp48
 70
     1
102
RTVSPost2010Prop49
280
     0
102
RTVSPost2010PropOp49
 70
     1
102
RTVSPost2010Prop50
 90
       50
102
RTVSPost2010PropOp50
 70
     1
102
RTVSPost2010Prop51ColorIndex
 90
      256
102
RTVSPost2010Prop51ColorRGB
 90
-16777216
102
RTVSPost2010PropOp51
 70
     0
102
RTVSPost2010Prop52
140
1.0
102
RTVSPost2010PropOp52
 70
     0
102
RTVSPost2010Prop53
 90
        2
102
RTVSPost2010PropOp53
 70
     1
102
RTVSPost2010Prop54
  1
strokes_ogs.tif
102
RTVSPost2010PropOp54
 70
     1
102
RTVSPost2010Prop55
280
     0
102
RTVSPost2010PropOp55
 70
     1
102
RTVSPost2010Prop56
140
1.0
102
RTVSPost2010PropOp56
 70
     1
102
RTVSPost2010Prop57
140
1.0
102
RTVSPost2010PropOp57
 70
     1
102
RTVSPropertyOp0
 70
     1
102
RTVSPropertyOp1
 70
     1
102
RTVSPropertyOp2
 70
     1
102
RTVSPropertyOp3
 70
     1
102
RTVSPropertyOp4
 70
     1
102
RTVSPropertyOp5
 70
     1
102
RTVSPropertyOp6
 70
     1
102
RTVSPropertyOp7
 70
     1
102
RTVSPropertyOp8
 70
     1
102
RTVSPropertyOp9
 70
     1
102
RTVSPropertyOp10
 70
     1
102
RTVSPropertyOp11
 70
     1
102
RTVSPropertyOp12
 70
     1
102
RTVSPropertyOp13
 70
     1
102
RTVSPropertyOp14
 70
     1
102
RTVSPropertyOp15
 70
     1
102
RTVSPropertyOp16
 70
     1
102
RTVSPropertyOp17
 70
     1
102
RTVSPropertyOp18
 70
     1
102
RTVSPropertyOp19
 70
     1
102
RTVSPropertyOp20
 70
     1
102
RTVSPropertyOp21
 70
     1
102
RTVSPropertyOp22
 70
     1
102
RTVSPropertyOp23
 70
     1
102
RTVSPropertyOp24
 70
     1
102
RTVSPropertyOp25
 70
     1
102
RTVSPropertyOp26
 70
     1
102
RTVSPropertyOp27
 70
     1
102
RTVSPropertyOp28
 70
     1
102
RTVSPropertyOp29
 70
     1
102
RTVSPropertyOp30
 70
     1
102
RTVSPropertyOp31
 70
     1
102
RTVSPropertyOp32
 70
     1
102
RTVSPropertyOp33
 70
     1
102
RTVSPropertyOp34
 70
     1
102
RTVSPropertyOp35
 70
     1
102
RTVSPropertyOp36
 70
     1
102
RTVSPropertyOp37
 70
     1
102
RTVSPropertyOp38
 70
     1
102
RTVSPropertyOp39
 70
     1
102
RTVSPropertyOp40
 70
     1
102
RTVSPropertyOp41
 70
     1
102
RTVSPropertyOp42
 70
     1
102
RTVSPropertyOp43
 70
     1
102
RTVSPropertyOp44
 70
     1
102
RTVSPropertyOp45
 70
     1
102
RTVSPropertyOp46
 70
     1
102
RTVSPropertyOp47
 70
     1
102
RTVSPropertyOp48
 70
     1
102
RTVSPropertyOp49
 70
     1
102
RTVSPropertyOp50
 70
     1
102
RTVSPropertyOp51
 70
     0
102
RTVSPropertyOp52
 70
     0
102
RTVSPropertyOp53
 70
     1
102
RTVSPropertyOp54
 70
     1
102
RTVSPropertyOp55
 70
     1
102
RTVSPropertyOp56
 70
     1
102
RTVSPropertyOp57
 70
     1
102
RTVSPropertyOp58
 70
     1
102
RTVSPropertyOp59
 70
     1
102
RTVSPropertyOp60
 70
     1
102
RTVSPropertyOp61
 70
     1
102
RTVSPropertyOp62
 70
     1
  0
XRECORD
  5
BB
102
{ACAD_REACTORS
330
BA
102
}
330
BA
100
AcDbXrecord
280
     1
102
RTVSPost2010Prop28
280
     0
102
RTVSPost2010PropOp28
 70
     1
102
RTVSPost2010Prop29
280
     1
102
RTVSPost2010PropOp29
 70
     1
102
RTVSPost2010Prop30
280
     1
102
RTVSPost2010PropOp30
 70
     1
102
RTVSPost2010Prop31
280
     0
102
RTVSPost2010PropOp31
 70
     1
102
RTVSPost2010Prop32
280
     0
102
RTVSPost2010PropOp32
 70
     1
102
RTVSPost2010Prop33
280
     0
102
RTVSPost2010PropOp33
 70
     1
102
RTVSPost2010Prop34
280
     0
102
RTVSPost2010PropOp34
 70
     1
102
RTVSPost2010Prop35
280
     0
102
RTVSPost2010PropOp35
 70
     1
102
RTVSPost2010Prop36
280
     0
102
RTVSPost2010PropOp36
 70
     1
102
RTVSPost2010Prop37
 90
       50
102
RTVSPost2010PropOp37
 70
     1
102
RTVSPost2010Prop38
140
0.0
102
RTVSPost2010PropOp38
 70
     1
102
RTVSPost2010Prop39
140
1.0
102
RTVSPost2010PropOp39
 70
     1
102
RTVSPost2010Prop40
 90
        0
102
RTVSPost2010PropOp40
 70
     1
102
RTVSPost2010Prop41ColorIndex
 90
       18
102
RTVSPost2010Prop41ColorRGB
 90
        0
102
RTVSPost2010PropOp41
 70
     1
102
RTVSPost2010Prop42
 90
       50
102
RTVSPost2010PropOp42
 70
     1
102
RTVSPost2010Prop43
 90
        3
102
RTVSPost2010PropOp43
 70
     1
102
RTVSPost2010Prop44ColorIndex
 90
        5
102
RTVSPost2010Prop44ColorRGB
 90
      255
102
RTVSPost2010PropOp44
 70
     1
102
RTVSPost2010Prop45
280
     0
102
RTVSPost2010PropOp45
 70
     1
102
RTVSPost2010Prop46
 90
       50
102
RTVSPost2010PropOp46
 70
     1
102
RTVSPost2010Prop47
 90
       50
102
RTVSPost2010PropOp47
 70
     1
102
RTVSPost2010Prop48
 90
       50
102
RTVSPost2010PropOp48
 70
     1
102
RTVSPost2010Prop49
280
     0
102
RTVSPost2010PropOp49
 70
     1
102
RTVSPost2010Prop50
 90
       50
102
RTVSPost2010PropOp50
 70
     1
102
RTVSPost2010Prop51ColorIndex
 90
      256
102
RTVSPost2010Prop51ColorRGB
 90
-16777216
102
RTVSPost2010PropOp51
 70
     0
102
RTVSPost2010Prop52
140
1.0
102
RTVSPost2010PropOp52
 70
     0
102
RTVSPost2010Prop53
 90
        2
102
RTVSPost2010PropOp53
 70
     1
102
RTVSPost2010Prop54
  1
strokes_ogs.tif
102
RTVSPost2010PropOp54
 70
     1
102
RTVSPost2010Prop55
280
     0
102
RTVSPost2010PropOp55
 70
     1
102
RTVSPost2010Prop56
140
1.0
102
RTVSPost2010PropOp56
 70
     1
102
RTVSPost2010Prop57
140
1.0
102
RTVSPost2010PropOp57
 70
     1
102
RTVSPropertyOp0
 70
     1
102
RTVSPropertyOp1
 70
     1
102
RTVSPropertyOp2
 70
     1
102
RTVSPropertyOp3
 70
     1
102
RTVSPropertyOp4
 70
     1
102
RTVSPropertyOp5
 70
     1
102
RTVSPropertyOp6
 70
     1
102
RTVSPropertyOp7
 70
     1
102
RTVSPropertyOp8
 70
     1
102
RTVSPropertyOp9
 70
     1
102
RTVSPropertyOp10
 70
     1
102
RTVSPropertyOp11
 70
     1
102
RTVSPropertyOp12
 70
     1
102
RTVSPropertyOp13
 70
     1
102
RTVSPropertyOp14
 70
     1
102
RTVSPropertyOp15
 70
     1
102
RTVSPropertyOp16
 70
     1
102
RTVSPropertyOp17
 70
     1
102
RTVSPropertyOp18
 70
     1
102
RTVSPropertyOp19
 70
     1
102
RTVSPropertyOp20
 70
     1
102
RTVSPropertyOp21
 70
     1
102
RTVSPropertyOp22
 70
     1
102
RTVSPropertyOp23
 70
     1
102
RTVSPropertyOp24
 70
     1
102
RTVSPropertyOp25
 70
     1
102
RTVSPropertyOp26
 70
     1
102
RTVSPropertyOp27
 70
     1
102
RTVSPropertyOp28
 70
     1
102
RTVSPropertyOp29
 70
     1
102
RTVSPropertyOp30
 70
     1
102
RTVSPropertyOp31
 70
     1
102
RTVSPropertyOp32
 70
     1
102
RTVSPropertyOp33
 70
     1
102
RTVSPropertyOp34
 70
     1
102
RTVSPropertyOp35
 70
     1
102
RTVSPropertyOp36
 70
     1
102
RTVSPropertyOp37
 70
     1
102
RTVSPropertyOp38
 70
     1
102
RTVSPropertyOp39
 70
     1
102
RTVSPropertyOp40
 70
     1
102
RTVSPropertyOp41
 70
     1
102
RTVSPropertyOp42
 70
     1
102
RTVSPropertyOp43
 70
     1
102
RTVSPropertyOp44
 70
     1
102
RTVSPropertyOp45
 70
     1
102
RTVSPropertyOp46
 70
     1
102
RTVSPropertyOp47
 70
     1
102
RTVSPropertyOp48
 70
     1
102
RTVSPropertyOp49
 70
     1
102
RTVSPropertyOp50
 70
     1
102
RTVSPropertyOp51
 70
     0
102
RTVSPropertyOp52
 70
     0
102
RTVSPropertyOp53
 70
     1
102
RTVSPropertyOp54
 70
     1
102
RTVSPropertyOp55
 70
     1
102
RTVSPropertyOp56
 70
     1
102
RTVSPropertyOp57
 70
     1
102
RTVSPropertyOp58
 70
     1
102
RTVSPropertyOp59
 70
     1
102
RTVSPropertyOp60
 70
     1
102
RTVSPropertyOp61
 70
     1
102
RTVSPropertyOp62
 70
     1
  0
ENDSEC
  0
EOF
