  0
SECTION
  2
HEADER
  9
$ACADVER
  1
AC1018
  9
$ACADMAINTVER
 70
   104
  9
$DWGCODEPAGE
  3
ANSI_932
  9
$INSBASE
 10
0.0
 20
0.0
 30
0.0
  9
$EXTMIN
 10
-0.0128164049386896
 20
-0.0090630292066862
 30
-0.0015258207003583
  9
$EXTMAX
 10
50.03906304719748
 20
38.89695778849648
 30
0.0000000349246037
  9
$LIMMIN
 10
-9.406616444735163
 20
-12.73527104848944
  9
$LIMMAX
 10
57.83762792013021
 20
45.26426938178707
  9
$ORTHOMODE
 70
     1
  9
$REGENMODE
 70
     1
  9
$FILLMODE
 70
     1
  9
$QTEXTMODE
 70
     0
  9
$MIRRTEXT
 70
     0
  9
$LTSCALE
 40
1.0
  9
$ATTMODE
 70
     1
  9
$TEXTSIZE
 40
2.5
  9
$TRACEWID
 40
1.0
  9
$TEXTSTYLE
  7
Standard
  9
$CLAYER
  8
0
  9
$CELTYPE
  6
ByLayer
  9
$CECOLOR
 62
   256
  9
$CELTSCALE
 40
1.0
  9
$DISPSILH
 70
     0
  9
$DIMSCALE
 40
1.0
  9
$DIMASZ
 40
2.5
  9
$DIMEXO
 40
0.625
  9
$DIMDLI
 40
3.75
  9
$DIMRND
 40
0.0
  9
$DIMDLE
 40
0.0
  9
$DIMEXE
 40
1.25
  9
$DIMTP
 40
0.0
  9
$DIMTM
 40
0.0
  9
$DIMTXT
 40
2.5
  9
$DIMCEN
 40
2.5
  9
$DIMTSZ
 40
0.0
  9
$DIMTOL
 70
     0
  9
$DIMLIM
 70
     0
  9
$DIMTIH
 70
     0
  9
$DIMTOH
 70
     0
  9
$DIMSE1
 70
     0
  9
$DIMSE2
 70
     0
  9
$DIMTAD
 70
     1
  9
$DIMZIN
 70
     8
  9
$DIMBLK
  1

  9
$DIMASO
 70
     1
  9
$DIMSHO
 70
     1
  9
$DIMPOST
  1

  9
$DIMAPOST
  1

  9
$DIMALT
 70
     0
  9
$DIMALTD
 70
     3
  9
$DIMALTF
 40
0.03937007874016
  9
$DIMLFAC
 40
1.0
  9
$DIMTOFL
 70
     1
  9
$DIMTVP
 40
0.0
  9
$DIMTIX
 70
     0
  9
$DIMSOXD
 70
     0
  9
$DIMSAH
 70
     0
  9
$DIMBLK1
  1

  9
$DIMBLK2
  1

  9
$DIMSTYLE
  2
ISO-25
  9
$DIMCLRD
 70
     0
  9
$DIMCLRE
 70
     0
  9
$DIMCLRT
 70
     0
  9
$DIMTFAC
 40
1.0
  9
$DIMGAP
 40
0.625
  9
$DIMJUST
 70
     0
  9
$DIMSD1
 70
     0
  9
$DIMSD2
 70
     0
  9
$DIMTOLJ
 70
     0
  9
$DIMTZIN
 70
     8
  9
$DIMALTZ
 70
     0
  9
$DIMALTTZ
 70
     0
  9
$DIMUPT
 70
     0
  9
$DIMDEC
 70
     2
  9
$DIMTDEC
 70
     2
  9
$DIMALTU
 70
     2
  9
$DIMALTTD
 70
     3
  9
$DIMTXSTY
  7
Standard
  9
$DIMAUNIT
 70
     0
  9
$DIMADEC
 70
     0
  9
$DIMALTRND
 40
0.0
  9
$DIMAZIN
 70
     0
  9
$DIMDSEP
 70
    44
  9
$DIMATFIT
 70
     3
  9
$DIMFRAC
 70
     0
  9
$DIMLDRBLK
  1

  9
$DIMLUNIT
 70
     2
  9
$DIMLWD
 70
    -2
  9
$DIMLWE
 70
    -2
  9
$DIMTMOVE
 70
     0
  9
$LUNITS
 70
     2
  9
$LUPREC
 70
     4
  9
$SKETCHINC
 40
1.0
  9
$FILLETRAD
 40
0.0
  9
$AUNITS
 70
     0
  9
$AUPREC
 70
     0
  9
$MENU
  1
.
  9
$ELEVATION
 40
0.0
  9
$PELEVATION
 40
0.0
  9
$THICKNESS
 40
0.0
  9
$LIMCHECK
 70
     0
  9
$CHAMFERA
 40
0.0
  9
$CHAMFERB
 40
0.0
  9
$CHAMFERC
 40
0.0
  9
$CHAMFERD
 40
0.0
  9
$SKPOLY
 70
     0
  9
$TDCREATE
 40
2459527.399212963
  9
$TDUCREATE
 40
2459527.065879630
  9
$TDUPDATE
 40
2459527.414768519
  9
$TDUUPDATE
 40
2459527.081435186
  9
$TDINDWG
 40
0.0156597222
  9
$TDUSRTIMER
 40
0.0156597222
  9
$USRTIMER
 70
     1
  9
$ANGBASE
 50
0.0
  9
$ANGDIR
 70
     0
  9
$PDMODE
 70
     0
  9
$PDSIZE
 40
0.0
  9
$PLINEWID
 40
0.0
  9
$SPLFRAME
 70
     0
  9
$SPLINETYPE
 70
     6
  9
$SPLINESEGS
 70
     8
  9
$HANDSEED
  5
263
  9
$SURFTAB1
 70
     6
  9
$SURFTAB2
 70
     6
  9
$SURFTYPE
 70
     6
  9
$SURFU
 70
     6
  9
$SURFV
 70
     6
  9
$UCSBASE
  2

  9
$UCSNAME
  2

  9
$UCSORG
 10
0.0
 20
0.0
 30
0.0
  9
$UCSXDIR
 10
1.0
 20
0.0
 30
0.0
  9
$UCSYDIR
 10
0.0
 20
1.0
 30
0.0
  9
$UCSORTHOREF
  2

  9
$UCSORTHOVIEW
 70
     0
  9
$UCSORGTOP
 10
0.0
 20
0.0
 30
0.0
  9
$UCSORGBOTTOM
 10
0.0
 20
0.0
 30
0.0
  9
$UCSORGLEFT
 10
0.0
 20
0.0
 30
0.0
  9
$UCSORGRIGHT
 10
0.0
 20
0.0
 30
0.0
  9
$UCSORGFRONT
 10
0.0
 20
0.0
 30
0.0
  9
$UCSORGBACK
 10
0.0
 20
0.0
 30
0.0
  9
$PUCSBASE
  2

  9
$PUCSNAME
  2

  9
$PUCSORG
 10
0.0
 20
0.0
 30
0.0
  9
$PUCSXDIR
 10
1.0
 20
0.0
 30
0.0
  9
$PUCSYDIR
 10
0.0
 20
1.0
 30
0.0
  9
$PUCSORTHOREF
  2

  9
$PUCSORTHOVIEW
 70
     0
  9
$PUCSORGTOP
 10
0.0
 20
0.0
 30
0.0
  9
$PUCSORGBOTTOM
 10
0.0
 20
0.0
 30
0.0
  9
$PUCSORGLEFT
 10
0.0
 20
0.0
 30
0.0
  9
$PUCSORGRIGHT
 10
0.0
 20
0.0
 30
0.0
  9
$PUCSORGFRONT
 10
0.0
 20
0.0
 30
0.0
  9
$PUCSORGBACK
 10
0.0
 20
0.0
 30
0.0
  9
$USERI1
 70
     0
  9
$USERI2
 70
     0
  9
$USERI3
 70
     0
  9
$USERI4
 70
     0
  9
$USERI5
 70
     0
  9
$USERR1
 40
0.0
  9
$USERR2
 40
0.0
  9
$USERR3
 40
0.0
  9
$USERR4
 40
0.0
  9
$USERR5
 40
0.0
  9
$WORLDVIEW
 70
     1
  9
$SHADEDGE
 70
     3
  9
$SHADEDIF
 70
    70
  9
$TILEMODE
 70
     1
  9
$MAXACTVP
 70
    64
  9
$PINSBASE
 10
0.0
 20
0.0
 30
0.0
  9
$PLIMCHECK
 70
     0
  9
$PEXTMIN
 10
0.0
 20
0.0
 30
0.0
  9
$PEXTMAX
 10
0.0
 20
0.0
 30
0.0
  9
$PLIMMIN
 10
0.0
 20
0.0
  9
$PLIMMAX
 10
12.0
 20
9.0
  9
$UNITMODE
 70
     0
  9
$VISRETAIN
 70
     1
  9
$PLINEGEN
 70
     0
  9
$PSLTSCALE
 70
     1
  9
$TREEDEPTH
 70
  3020
  9
$CMLSTYLE
  2
Standard
  9
$CMLJUST
 70
     0
  9
$CMLSCALE
 40
20.0
  9
$PROXYGRAPHICS
 70
     1
  9
$MEASUREMENT
 70
     1
  9
$CELWEIGHT
370
    -1
  9
$ENDCAPS
280
     0
  9
$JOINSTYLE
280
     0
  9
$LWDISPLAY
290
     0
  9
$INSUNITS
 70
     4
  9
$HYPERLINKBASE
  1

  9
$STYLESHEET
  1

  9
$XEDIT
290
     1
  9
$CEPSNTYPE
380
     0
  9
$PSTYLEMODE
290
     1
  9
$FINGERPRINTGUID
  2
{52CC196F-D77C-DB40-BE94-4FD82DFDFA62}
  9
$VERSIONGUID
  2
{4A390DA5-F946-0B43-A764-CD9DC9152375}
  9
$EXTNAMES
290
     1
  9
$PSVPSCALE
 40
0.0
  9
$OLESTARTUP
290
     0
  9
$SORTENTS
280
   127
  9
$INDEXCTL
280
     0
  9
$HIDETEXT
280
     1
  9
$XCLIPFRAME
290
     0
  9
$HALOGAP
280
     0
  9
$OBSCOLOR
 70
   257
  9
$OBSLTYPE
280
     0
  9
$INTERSECTIONDISPLAY
280
     0
  9
$INTERSECTIONCOLOR
 70
   257
  9
$DIMASSOC
280
     2
  9
$PROJECTNAME
  1

  0
ENDSEC
  0
SECTION
  2
CLASSES
  0
CLASS
  1
ACDBDICTIONARYWDFLT
  2
AcDbDictionaryWithDefault
  3
ObjectDBX Classes
 90
        0
 91
        1
280
     0
281
     0
  0
CLASS
  1
DICTIONARYVAR
  2
AcDbDictionaryVar
  3
ObjectDBX Classes
 90
        0
 91
       16
280
     0
281
     0
  0
CLASS
  1
TABLESTYLE
  2
AcDbTableStyle
  3
ObjectDBX Classes
 90
     4095
 91
        1
280
     0
281
     0
  0
CLASS
  1
MATERIAL
  2
AcDbMaterial
  3
ObjectDBX Classes
 90
     1153
 91
        3
280
     0
281
     0
  0
CLASS
  1
VISUALSTYLE
  2
AcDbVisualStyle
  3
ObjectDBX Classes
 90
     4095
 91
        3
280
     0
281
     0
  0
CLASS
  1
SCALE
  2
AcDbScale
  3
ObjectDBX Classes
 90
     1153
 91
       17
280
     0
281
     0
  0
CLASS
  1
MLEADERSTYLE
  2
AcDbMLeaderStyle
  3
ACDB_MLEADERSTYLE_CLASS
 90
     4095
 91
        0
280
     0
281
     0
  0
CLASS
  1
CELLSTYLEMAP
  2
AcDbCellStyleMap
  3
ObjectDBX Classes
 90
     1152
 91
        1
280
     0
281
     0
  0
CLASS
  1
EXACXREFPANELOBJECT
  2
ExAcXREFPanelObject
  3
EXAC_ESW
 90
     1025
 91
        0
280
     1
281
     0
  0
CLASS
  1
NPOCOLLECTION
  2
AcDbImpNonPersistentObjectsCollection
  3
ObjectDBX Classes
 90
     1153
 91
        0
280
     0
281
     0
  0
CLASS
  1
LAYER_INDEX
  2
AcDbLayerIndex
  3
ObjectDBX Classes
 90
        0
 91
        0
280
     0
281
     0
  0
CLASS
  1
SPATIAL_INDEX
  2
AcDbSpatialIndex
  3
ObjectDBX Classes
 90
        0
 91
        0
280
     0
281
     0
  0
CLASS
  1
IDBUFFER
  2
AcDbIdBuffer
  3
ObjectDBX Classes
 90
        0
 91
        0
280
     0
281
     0
  0
CLASS
  1
ACDBSECTIONVIEWSTYLE
  2
AcDbSectionViewStyle
  3
ObjectDBX Classes
 90
     1025
 91
        0
280
     0
281
     0
  0
CLASS
  1
ACDBDETAILVIEWSTYLE
  2
AcDbDetailViewStyle
  3
ObjectDBX Classes
 90
     1025
 91
        0
280
     0
281
     0
  0
CLASS
  1
DIMASSOC
  2
AcDbDimAssoc
  3
"AcDbDimAssoc|Product Desc:     AcDim ARX App For Dimension|Company:          Autodesk, Inc.|WEB Address:      www.autodesk.com"
 90
        0
 91
        0
280
     0
281
     0
  0
CLASS
  1
SORTENTSTABLE
  2
AcDbSortentsTable
  3
ObjectDBX Classes
 90
        0
 91
        2
280
     0
281
     0
  0
ENDSEC
  0
SECTION
  2
TABLES
  0
TABLE
  2
VPORT
  5
29
330
0
100
AcDbSymbolTable
 70
     1
  0
VPORT
  5
2A
330
29
100
AcDbSymbolTableRecord
100
AcDbViewportTableRecord
  2
*Active
 70
     0
 10
0.0
 20
0.0
 11
1.0
 21
1.0
 12
24.21550573769753
 22
16.26449916664882
 13
0.0
 23
0.0
 14
10.0
 24
10.0
 15
10.0
 25
10.0
 16
0.0
 26
0.0
 36
1.0
 17
0.0
 27
0.0
 37
0.0
 40
58.30614593034846
 41
2.258377425044091
 42
50.0
 43
0.0
 44
0.0
 50
0.0
 51
0.0
 71
     0
 72
  1000
 73
     1
 74
     3
 75
     0
 76
     1
 77
     0
 78
     0
281
     0
 65
     1
110
0.0
120
0.0
130
0.0
111
1.0
121
0.0
131
0.0
112
0.0
122
1.0
132
0.0
 79
     0
146
0.0
1001
ACAD_NAV_VCDISPLAY
1070
     3
  0
ENDTAB
  0
TABLE
  2
LTYPE
  5
24
330
0
100
AcDbSymbolTable
 70
     1
  0
LTYPE
  5
25
330
24
100
AcDbSymbolTableRecord
100
AcDbLinetypeTableRecord
  2
ByBlock
 70
     0
  3

 72
    65
 73
     0
 40
0.0
  0
LTYPE
  5
26
330
24
100
AcDbSymbolTableRecord
100
AcDbLinetypeTableRecord
  2
ByLayer
 70
     0
  3

 72
    65
 73
     0
 40
0.0
  0
LTYPE
  5
14
330
24
100
AcDbSymbolTableRecord
100
AcDbLinetypeTableRecord
  2
Continuous
 70
     0
  3
Solid line
 72
    65
 73
     0
 40
0.0
  0
ENDTAB
  0
TABLE
  2
LAYER
  5
1E
102
{ACAD_XDICTIONARY
360
1F
102
}
330
0
100
AcDbSymbolTable
 70
     1
  0
LAYER
  5
6
102
{ACAD_XDICTIONARY
360
7
102
}
330
1E
100
AcDbSymbolTableRecord
100
AcDbLayerTableRecord
  2
0
 70
     0
 62
     7
  6
Continuous
370
    -3
390
8
  0
ENDTAB
  0
TABLE
  2
STYLE
  5
21
330
0
100
AcDbSymbolTable
 70
     1
  0
STYLE
  5
22
330
21
100
AcDbSymbolTableRecord
100
AcDbTextStyleTableRecord
  2
Standard
 70
     0
 40
0.0
 41
1.0
 50
0.0
 71
     0
 42
2.5
  3
arial.ttf
  4

1001
ACAD
1000
Arial
1071
       34
  0
ENDTAB
  0
TABLE
  2
VIEW
  5
27
330
0
100
AcDbSymbolTable
 70
     0
  0
ENDTAB
  0
TABLE
  2
UCS
  5
28
330
0
100
AcDbSymbolTable
 70
     0
  0
ENDTAB
  0
TABLE
  2
APPID
  5
2E
330
0
100
AcDbSymbolTable
 70
     3
  0
APPID
  5
13
330
2E
100
AcDbSymbolTableRecord
100
AcDbRegAppTableRecord
  2
ACAD
 70
     0
  0
APPID
  5
19
330
2E
100
AcDbSymbolTableRecord
100
AcDbRegAppTableRecord
  2
ACAD_PSEXT
 70
     0
  0
APPID
  5
2D
330
2E
100
AcDbSymbolTableRecord
100
AcDbRegAppTableRecord
  2
ACAD_NAV_VCDISPLAY
 70
     0
  0
ENDTAB
  0
TABLE
  2
DIMSTYLE
  5
2F
330
0
100
AcDbSymbolTable
 70
     1
100
AcDbDimStyleTable
 71
     1
340
30
  0
DIMSTYLE
105
30
330
2F
100
AcDbSymbolTableRecord
100
AcDbDimStyleTableRecord
  2
ISO-25
 70
     0
 41
2.5
 42
0.625
 43
3.75
 44
1.25
 73
     0
 74
     0
 77
     1
 78
     8
140
2.5
141
2.5
143
0.03937007874016
147
0.625
171
     3
172
     1
271
     2
272
     2
274
     3
278
    44
283
     0
284
     8
340
22
  0
ENDTAB
  0
TABLE
  2
BLOCK_RECORD
  5
1
330
0
100
AcDbSymbolTable
 70
     0
  0
BLOCK_RECORD
  5
2
102
{ACAD_XDICTIONARY
360
3
102
}
330
1
100
AcDbSymbolTableRecord
100
AcDbBlockTableRecord
  2
*Model_Space
340
16
  0
BLOCK_RECORD
  5
1A
330
1
100
AcDbSymbolTableRecord
100
AcDbBlockTableRecord
  2
*Paper_Space
340
1D
  0
ENDTAB
  0
ENDSEC
  0
SECTION
  2
BLOCKS
  0
BLOCK
  5
5
330
2
100
AcDbEntity
  8
0
100
AcDbBlockBegin
  2
*Model_Space
 70
     0
 10
0.0
 20
0.0
 30
0.0
  3
*Model_Space
  1

  0
ENDBLK
  5
15
330
2
100
AcDbEntity
  8
0
100
AcDbBlockEnd
  0
BLOCK
  5
1B
330
1A
100
AcDbEntity
 67
     1
  8
0
100
AcDbBlockBegin
  2
*Paper_Space
 70
     0
 10
0.0
 20
0.0
 30
0.0
  3
*Paper_Space
  1

  0
ENDBLK
  5
1C
330
1A
100
AcDbEntity
 67
     1
  8
0
100
AcDbBlockEnd
  0
ENDSEC
  0
SECTION
  2
ENTITIES
  0
LINE
  5
61
330
2
100
AcDbEntity
  8
0
100
AcDbLine
 10
13.68274228276332
 20
10.98435242739405
 30
0.0
 11
13.64787149839209
 21
10.98379892288023
 31
0.0
  0
LINE
  5
62
330
2
100
AcDbEntity
  8
0
100
AcDbLine
 10
13.64787149839209
 20
10.98379892288023
 30
0.0
 11
13.61300071402083
 21
10.98158490482489
 31
0.0
  0
LINE
  5
63
330
2
100
AcDbEntity
  8
0
100
AcDbLine
 10
13.61300071402083
 20
10.98158490482489
 30
0.0
 11
13.57868343416342
 21
10.97771037322809
 31
0.0
  0
LINE
  5
64
330
2
100
AcDbEntity
  8
0
100
AcDbLine
 10
13.57868343416342
 20
10.97771037322809
 30
0.0
 11
13.54491965881983
 21
10.97272883260364
 31
0.0
  0
LINE
  5
65
330
2
100
AcDbEntity
  8
0
100
AcDbLine
 10
13.54491965881983
 20
10.97272883260364
 30
0.0
 11
13.51170938799007
 21
10.96608677843768
 31
0.0
  0
LINE
  5
66
330
2
100
AcDbEntity
  8
0
100
AcDbLine
 10
13.51170938799007
 20
10.96608677843768
 30
0.0
 11
13.4801596307018
 21
10.95778421073025
 31
0.0
  0
LINE
  5
67
330
2
100
AcDbEntity
  8
0
100
AcDbLine
 10
13.4801596307018
 20
10.95778421073025
 30
0.0
 11
13.44916337792736
 21
10.94837463399513
 31
0.0
  0
LINE
  5
68
330
2
100
AcDbEntity
  8
0
100
AcDbLine
 10
13.44916337792736
 20
10.94837463399513
 30
0.0
 11
13.41927413418058
 21
10.9378580482324
 31
0.0
  0
LINE
  5
69
330
2
100
AcDbEntity
  8
0
100
AcDbLine
 10
11.9447381093393
 20
10.34450120940735
 30
0.0
 11
11.87444303608297
 21
10.30963042503612
 31
0.0
  0
LINE
  5
6A
330
2
100
AcDbEntity
  8
0
100
AcDbLine
 10
11.87444303608297
 20
10.30963042503612
 30
0.0
 11
11.81743207115856
 21
10.26811758649892
 31
0.0
  0
LINE
  5
6B
330
2
100
AcDbEntity
  8
0
100
AcDbLine
 10
11.81743207115856
 20
10.26811758649892
 30
0.0
 11
11.77591923262136
 21
10.22051619830959
 31
0.0
  0
LINE
  5
6C
330
2
100
AcDbEntity
  8
0
100
AcDbLine
 10
11.77591923262136
 20
10.22051619830959
 30
0.0
 11
11.75101152949903
 21
10.16904027852349
 31
0.0
  0
LINE
  5
6D
330
2
100
AcDbEntity
  8
0
100
AcDbLine
 10
11.75101152949903
 20
10.16904027852349
 30
0.0
 11
11.74381597081926
 21
10.11590384519585
 31
0.0
  0
LINE
  5
6E
330
2
100
AcDbEntity
  8
0
100
AcDbLine
 10
11.74381597081926
 20
10.11590384519585
 30
0.0
 11
11.75488606109583
 21
10.06332091638206
 31
0.0
  0
LINE
  5
6F
330
2
100
AcDbEntity
  8
0
100
AcDbLine
 10
11.75488606109583
 20
10.06332091638206
 30
0.0
 11
11.78366829581497
 21
10.01239850110978
 31
0.0
  0
LINE
  5
70
330
2
100
AcDbEntity
  8
0
100
AcDbLine
 10
11.78366829581497
 20
10.01239850110978
 30
0.0
 11
11.82905566594897
 21
9.965904121948138
 31
0.0
  0
LINE
  5
71
330
2
100
AcDbEntity
  8
0
100
AcDbLine
 10
11.82905566594897
 20
9.965904121948138
 30
0.0
 11
20.82848555629972
 21
2.546729618580056
 31
0.0
  0
LINE
  5
72
330
2
100
AcDbEntity
  8
0
100
AcDbLine
 10
20.6463825712499
 20
2.548390132121529
 30
0.0
 11
20.62867042680736
 21
2.560567231425765
 31
0.0
  0
LWPOLYLINE
  5
73
330
2
100
AcDbEntity
  8
0
100
AcDbPolyline
 90
       45
 70
     0
 43
0.0
 10
20.82848555629972
 20
2.546729618580056
 10
20.88826404379329
 20
2.506323789070509
 10
20.96077313510492
 20
2.473113518240745
 10
21.04324530766549
 20
2.449312824146097
 10
21.13235953439202
 20
2.434921706786529
 10
21.2242412836877
 20
2.431047175189725
 10
21.31556952846953
 20
2.437135724841825
 10
21.40357674616836
 20
2.453740860256725
 10
21.48383490067364
 20
2.479755572406705
 10
22.76685836372998
 20
2.998389301864759
 10
22.76796537275763
 20
2.998942806378583
 10
22.76851887727145
 20
2.998942806378583
 10
22.76962588629913
 20
2.999496310892407
 10
22.77017939081296
 20
3.000049815406232
 10
22.77128639984061
 20
3.000049815406232
 10
22.77183990435443
 20
3.000603319920091
 10
22.77294691338208
 20
3.000603319920091
 10
22.77350041789594
 20
3.001156824433915
 10
22.95394288940429
 20
3.076986942828523
 10
22.98161811509574
 20
3.089164042132759
 10
23.00763282724572
 20
3.103001654978503
 10
23.03143352134037
 20
3.117392772338071
 10
23.05357370189355
 20
3.133444403239111
 10
23.07349986439143
 20
3.150049538653975
 10
23.09121200883394
 20
3.167208178582699
 10
23.10671013522116
 20
3.184920323025247
 10
23.11999424355307
 20
3.203739476495443
 10
23.68290833411748
 20
4.097095761815944
 10
23.69895996501852
 20
4.128092014590376
 10
23.70836954175364
 20
4.160195276392492
 10
23.71113706432279
 20
4.192852042708397
 10
23.70726253272599
 20
4.225508809024336
 10
23.69674594696322
 20
4.257058566312627
 10
23.67903380252068
 20
4.288608323600883
 10
23.65578661293985
 20
4.317944062833843
 10
23.62589736919307
 20
4.345619288525296
 10
15.71465735303073
 20
10.86866998400372
 10
15.67923306414566
 20
10.89413119163987
 10
15.63938073914995
 20
10.91682487670687
 10
15.59454687352977
 20
10.93675103920472
 10
15.54639198082662
 20
10.95390967913344
 10
15.4949160610405
 20
10.96719378746533
 10
15.44067261868523
 20
10.97660336420044
 10
15.38532216730229
 20
10.98213840933872
 10
15.3288647068917
 20
10.98435242739405
  0
ELLIPSE
  5
74
330
2
100
AcDbEntity
  8
0
100
AcDbEllipse
 10
14.28395895227439
 20
9.759735200519656
 30
0.0
 11
0.3138812147670631
 21
0.000271893508083
 31
0.0
210
0.0
220
0.0
230
1.0
 40
0.5773137475372172
 41
2.581222949093664
 42
6.840555465569389
  0
ELLIPSE
  5
75
330
2
100
AcDbEntity
  8
0
100
AcDbEllipse
 10
15.90374154052944
 20
8.424412416275995
 30
0.0
 11
0.3135048622140222
 21
0.0003541268338213
 31
0.0
210
0.0
220
0.0
230
1.0
 40
0.5789156914476989
 41
2.583810812338031
 42
6.837065371717827
  0
ELLIPSE
  5
76
330
2
100
AcDbEntity
  8
0
100
AcDbEllipse
 10
17.52362081532596
 20
7.088522406420104
 30
0.0
 11
0.3138570763620574
 21
0.0002718725986583
 31
0.0
210
0.0
220
0.0
230
1.0
 40
0.5773137477709179
 41
2.581222805486273
 42
6.840555418598606
  0
LWPOLYLINE
  5
77
330
2
100
AcDbEntity
  8
0
100
AcDbPolyline
 90
        9
 70
     0
 43
0.0
 10
20.20634648275557
 20
6.115726723751435
 10
20.24398478969597
 20
6.087497993546159
 10
20.31926140357675
 20
6.010007361610043
 10
20.36741629627991
 20
5.925874675507968
 10
20.38568194523628
 20
5.837313953295299
 10
20.37405835044586
 20
5.748753231082596
 10
20.33254551190867
 20
5.663513535952907
 10
20.26280394316616
 20
5.584362390475284
 10
20.22904016782257
 20
5.556133660270008
  0
LWPOLYLINE
  5
78
330
2
100
AcDbEntity
  8
0
100
AcDbPolyline
 90
        9
 70
     0
 43
0.0
 10
18.9736919304577
 20
5.556133660270008
 10
18.95874730858431
 20
5.56775725506042
 10
18.88347069470353
 20
5.645247886996536
 10
18.83531580200039
 20
5.729380573098575
 10
18.81705015304402
 20
5.817941295311279
 10
18.82867374783443
 20
5.906502017523947
 10
18.87018658637163
 20
5.991741712653671
 10
18.93992815511412
 20
6.070892858131259
 10
18.99583211101088
 20
6.115726723751435
  0
ELLIPSE
  5
79
330
2
100
AcDbEntity
  8
0
100
AcDbEllipse
 10
19.60140664242612
 20
5.315054478526018
 30
0.0
 11
0.4706901138294776
 21
0.000218959846807
 31
0.0
210
0.0
220
0.0
230
0.9999999999999998
 40
0.5777133605934973
 41
0.6096195935047494
 42
6.892804900684335
  0
LWPOLYLINE
  5
7A
330
2
100
AcDbEntity
  8
0
100
AcDbPolyline
 90
        4
 70
     0
 43
0.0
 10
20.11557174248757
 20
5.651336436648636
 10
20.18088527511942
 20
5.582148372419988
 10
20.21907708657367
 20
5.507425263053028
 10
20.22904016782257
 20
5.448200280073284
  0
ELLIPSE
  5
7B
330
2
100
AcDbEntity
  8
0
100
AcDbEllipse
 10
19.60254255091589
 20
5.44182166115906
 30
0.0
 11
-0.6287784288306641
 21
0.0013643983044116
 31
0.0
210
0.0
220
0.0
230
1.0
 40
0.5781164507880732
 41
3.759526226343192
 42
6.290708258440718
  0
ELLIPSE
  5
7C
330
2
100
AcDbEntity
  8
0
100
AcDbEllipse
 10
19.60170041928007
 20
5.698763454464715
 30
0.0
 11
-0.6279633062751197
 21
0.0006006570199324
 31
0.0
210
0.0
220
0.0
230
1.0
 40
0.5778691315318612
 41
3.75457360248289
 42
6.282834874145121
  0
LWPOLYLINE
  5
7D
330
2
100
AcDbEntity
  8
0
100
AcDbPolyline
 90
        4
 70
     0
 43
0.0
 10
20.22904016782257
 20
5.699491329351792
 10
20.21907708657367
 20
5.763697852955988
 10
20.18088527511942
 20
5.838420962322947
 10
20.11557174248757
 20
5.907055522037771
  0
LWPOLYLINE
  5
7E
330
2
100
AcDbEntity
  8
0
100
AcDbPolyline
 90
        9
 70
     0
 43
0.0
 10
22.0495165138072
 20
4.908533379089702
 10
22.12091859609118
 20
4.855950450275918
 10
22.212246840873
 20
4.765175710007918
 10
22.2764533644772
 20
4.667205411060135
 10
22.31243115787612
 20
4.564807076001723
 10
22.3179662030144
 20
4.460194722887979
 10
22.29416550891975
 20
4.356135874288059
 10
22.24047557107832
 20
4.255951557284944
 10
22.16243143462838
 20
4.165730321530769
  0
LWPOLYLINE
  5
7F
330
2
100
AcDbEntity
  8
0
100
AcDbPolyline
 90
       10
 70
     0
 43
0.0
 10
20.27996258309489
 20
4.165730321530769
 10
20.23014717685026
 20
4.218866754858376
 10
20.16594065324603
 20
4.316837053806195
 10
20.12996285984714
 20
4.419235388864607
 10
20.12442781470883
 20
4.523847741978351
 10
20.14822850880351
 20
4.627906590578235
 10
20.20191844664495
 20
4.728090907581351
 10
20.28273010566404
 20
4.821633170418506
 10
20.38955647683308
 20
4.906319361034405
 10
20.39287750391606
 20
4.908533379089702
  0
ELLIPSE
  5
80
330
2
100
AcDbEntity
  8
0
100
AcDbEllipse
 10
21.22116270824173
 20
3.979854835106806
 30
0.0
 11
0.7841904792104901
 21
0.0002063331115748
 31
0.0
210
0.0
220
0.0
230
1.0
 40
0.5774573414054243
 41
0.6096580995899461
 42
6.892843406769531
  0
LWPOLYLINE
  5
81
330
2
100
AcDbEntity
  8
0
100
AcDbPolyline
 90
       20
 70
     0
 43
0.0
 10
20.27996258309489
 20
4.108165852092533
 10
20.27996258309489
 20
4.117021924313788
 10
20.29822823205126
 20
4.213885214233924
 10
20.34582962024055
 20
4.30742747707108
 10
20.4216597386352
 20
4.394327685742275
 10
20.52295106466596
 20
4.472371822192215
 10
20.64693607576373
 20
4.538238859337918
 10
20.78974024033168
 20
4.590821788151703
 10
20.94582851323153
 20
4.62735308606441
 10
21.11132636286653
 20
4.64727924856229
 10
21.2795917350706
 20
4.650046771131411
 10
21.44675009824707
 20
4.635102149258019
 10
21.6061593982299
 20
4.603552391969762
 10
21.75339159890852
 20
4.555951003780431
 10
21.88346515965838
 20
4.493958498231567
 10
21.99250554888275
 20
4.419235388864607
 10
22.07608473047101
 20
4.335102702762532
 10
22.13309569539541
 20
4.243220953466884
 10
22.16021741657304
 20
4.146911168060572
 10
22.16243143462838
 20
4.108719356606356
  0
ELLIPSE
  5
82
330
2
100
AcDbEntity
  8
0
100
AcDbEllipse
 10
21.22088635233327
 20
4.364597837646207
 30
0.0
 11
0.9411182719991739
 21
0.0003993939555205
 31
0.0
210
0.0
220
0.0
230
1.0
 40
0.5766243970953294
 41
0.6093300258041562
 42
3.120749922480983
  0
LWPOLYLINE
  5
83
330
2
100
AcDbEntity
  8
0
100
AcDbPolyline
 90
        5
 70
     0
 43
0.0
 10
22.16243143462838
 20
4.363884937481667
 10
22.16021741657304
 20
4.403183757963567
 10
22.13309569539541
 20
4.499493543369843
 10
22.07608473047101
 20
4.591375292665526
 10
21.99250554888275
 20
4.675507978767567
  0
ELLIPSE
  5
84
330
2
100
AcDbEntity
  8
0
100
AcDbEllipse
 10
25.00387879974347
 20
10.03397893640248
 30
0.0
 11
15.77544897844153
 21
0.0003444881350066
 31
0.0
210
0.0
220
0.0
230
1.0
 40
0.5772947204953578
 41
5.497782861450835
 42
11.78096816863042
  0
ELLIPSE
  5
85
330
2
100
AcDbEntity
  8
0
100
AcDbEllipse
 10
25.00389419326064
 20
10.65184552611806
 30
0.0
 11
18.40909162008077
 21
0.0001292418351879
 31
0.0
210
0.0
220
0.0
230
1.0
 40
0.5772973619916387
 41
5.49781029894711
 42
11.78099560612669
  0
LWPOLYLINE
  5
86
330
2
100
AcDbEntity
  8
0
100
AcDbPolyline
 90
       24
 70
     0
 43
0.0
 10
22.26815079676977
 20
14.04633939789779
 10
21.94877869229026
 20
13.84984529548839
 10
21.65099326385007
 20
13.64228110280241
 10
21.37590152047692
 20
13.42475382886749
 10
21.12461047119841
 20
13.19781697819746
 10
20.89878062955606
 20
12.96202405530617
 10
20.69841199554983
 20
12.71848206922127
 10
20.52516508272126
 20
12.46829802897045
 10
20.37848638655649
 20
12.21257894358128
 10
20.26003642059704
 20
11.95187831756769
 10
20.17036868935669
 20
11.68730315995726
 10
20.10837618380779
 20
11.42051398429154
 10
20.07571941749185
 20
11.15151079057052
 10
20.07239839040891
 20
10.88195409233564
 10
20.09785959804503
 20
10.61295089861458
 10
20.15210304040032
 20
10.34560821843504
 10
20.23512871747471
 20
10.08047955631079
 10
20.34638312475442
 20
9.818671921269515
 10
20.4858662622394
 20
9.561292322338909
 10
20.652471120902
 20
9.309447768546542
 10
20.84619770074227
 20
9.064798773433993
 10
21.06593899273249
 20
8.826791832487407
 10
21.31058798784507
 20
8.597087459248252
 10
21.41962837706945
 20
8.504652205438743
  0
ELLIPSE
  5
87
330
2
100
AcDbEntity
  8
0
100
AcDbEllipse
 10
27.57324207039264
 20
10.98211316126449
 30
0.0
 11
7.505317695457265
 21
0.0014421899882469
 31
0.0
210
0.0
220
0.0
230
1.0
 40
0.5772988784684076
 41
5.679451244970216
 42
8.638896353489522
  0
ELLIPSE
  5
88
330
2
100
AcDbEntity
  8
0
100
AcDbEllipse
 10
27.57431258385314
 20
10.67369435025741
 30
0.0
 11
6.930623008730982
 21
0.0000948294469026
 31
0.0
210
0.0
220
0.0
230
1.0
 40
0.5772752583310063
 41
5.497844715161763
 42
11.78103002234134
  0
LINE
  5
89
330
2
100
AcDbEntity
  8
0
100
AcDbLine
 10
0.1589664963717929
 20
4.543220399962371
 30
0.0
 11
3.487189138027427
 21
2.621452727947017
 31
0.0
  0
LWPOLYLINE
  5
8A
330
2
100
AcDbEntity
  8
0
100
AcDbPolyline
 90
        2
 70
     0
 43
0.0
 10
0.6471574775692396
 20
2.895437462292523
 10
0.5597037643842197
 20
2.862780695976584
  0
LWPOLYLINE
  5
8B
330
2
100
AcDbEntity
  8
0
100
AcDbPolyline
 90
        2
 70
     0
 43
0.0
 10
2.556748050280357
 20
1.710384298183967
 10
2.644201763465395
 20
1.743041064499871
  0
LINE
  5
8C
330
2
100
AcDbEntity
  8
0
100
AcDbLine
 10
42.26018033177061
 20
23.56384951319277
 30
0.0
 11
38.93195769011498
 21
25.48506368069434
 31
0.0
  0
LWPOLYLINE
  5
8D
330
2
100
AcDbEntity
  8
0
100
AcDbPolyline
 90
        2
 70
     0
 43
0.0
 10
35.35521152174999
 20
21.35979453912448
 10
34.47181831767839
 20
21.86957219636127
  0
LINE
  5
8E
330
2
100
AcDbEntity
  8
0
100
AcDbLine
 10
29.28271350052862
 20
35.32803445012093
 30
0.0
 11
29.28271350052862
 21
36.64758921109001
 31
0.0
  0
LINE
  5
8F
330
2
100
AcDbEntity
  8
0
100
AcDbLine
 10
29.28271350052862
 20
36.64758921109001
 30
0.0
 11
29.27939247344564
 21
36.77987678989525
 31
0.0
  0
LINE
  5
90
330
2
100
AcDbEntity
  8
0
100
AcDbLine
 10
29.27939247344564
 20
36.77987678989525
 30
0.0
 11
29.26887588768288
 21
36.90828983710364
 31
0.0
  0
LINE
  5
91
330
2
100
AcDbEntity
  8
0
100
AcDbLine
 10
29.26887588768288
 20
36.90828983710364
 30
0.0
 11
29.25171724775419
 21
37.03116783917375
 31
0.0
  0
LINE
  5
92
330
2
100
AcDbEntity
  8
0
100
AcDbLine
 10
29.25171724775419
 20
37.03116783917375
 30
0.0
 11
29.0031937210448
 21
38.47913564735123
 31
0.0
  0
LINE
  5
93
330
2
100
AcDbEntity
  8
0
100
AcDbLine
 10
28.03843535344032
 20
37.92231010643892
 30
0.0
 11
27.9736753253223
 21
37.89242086269214
 31
0.0
  0
LINE
  5
94
330
2
100
AcDbEntity
  8
0
100
AcDbLine
 10
27.9736753253223
 20
37.89242086269214
 30
0.0
 11
27.9116828197734
 21
37.87802974533257
 31
0.0
  0
LINE
  5
95
330
2
100
AcDbEntity
  8
0
100
AcDbLine
 10
27.9116828197734
 20
37.87802974533257
 30
0.0
 11
27.85411835033516
 21
37.8802437633879
 31
0.0
  0
LINE
  5
96
330
2
100
AcDbEntity
  8
0
100
AcDbLine
 10
27.85411835033516
 20
37.8802437633879
 30
0.0
 11
27.80430294409054
 21
37.89850941234428
 31
0.0
  0
LINE
  5
97
330
2
100
AcDbEntity
  8
0
100
AcDbLine
 10
27.80430294409054
 20
37.89850941234428
 30
0.0
 11
27.76334361006716
 21
37.93282669220169
 31
0.0
  0
LINE
  5
98
330
2
100
AcDbEntity
  8
0
100
AcDbLine
 10
27.76334361006716
 20
37.93282669220169
 30
0.0
 11
27.73290086180656
 21
37.98098158490484
 31
0.0
  0
LINE
  5
99
330
2
100
AcDbEntity
  8
0
100
AcDbLine
 10
27.73290086180656
 20
37.98098158490484
 30
0.0
 11
27.71463521285018
 21
38.04186708142605
 31
0.0
  0
LINE
  5
9A
330
2
100
AcDbEntity
  8
0
100
AcDbLine
 10
27.71463521285018
 20
38.04186708142605
 30
0.0
 11
27.70854666319805
 21
38.11271565919621
 31
0.0
  0
LINE
  5
9B
330
2
100
AcDbEntity
  8
0
100
AcDbLine
 10
27.70854666319805
 20
38.11271565919621
 30
0.0
 11
27.71376298388011
 21
38.80387814956949
 31
0.0
  0
LINE
  5
9C
330
2
100
AcDbEntity
  8
0
100
AcDbLine
 10
29.06795374916286
 20
38.62027929837768
 30
0.0
 11
29.04083202798519
 21
38.5981391178245
 31
0.0
  0
LINE
  5
9D
330
2
100
AcDbEntity
  8
0
100
AcDbLine
 10
29.04083202798519
 20
38.5981391178245
 30
0.0
 11
29.02035236097353
 21
38.56603585602242
 31
0.0
  0
LINE
  5
9E
330
2
100
AcDbEntity
  8
0
100
AcDbLine
 10
29.02035236097353
 20
38.56603585602242
 30
0.0
 11
29.00762175715547
 21
38.5261835310267
 31
0.0
  0
LINE
  5
9F
330
2
100
AcDbEntity
  8
0
100
AcDbLine
 10
29.00762175715547
 20
38.5261835310267
 30
0.0
 11
29.0031937210448
 21
38.47913564735123
 31
0.0
  0
ELLIPSE
  5
A0
330
2
100
AcDbEntity
  8
0
100
AcDbEllipse
 10
31.00816028573199
 20
36.76197569522676
 30
0.0
 11
-0.4365381817094859
 21
0.561719506875039
 31
0.0
210
0.0
220
0.0
230
1.0
 40
0.4623860642595603
 41
4.599860787452948
 42
9.410508297700328
  0
ELLIPSE
  5
A1
330
2
100
AcDbEntity
  8
0
100
AcDbEllipse
 10
31.89565550025442
 20
36.24979411116473
 30
0.0
 11
-0.4364151532233684
 21
0.5614965967927818
 31
0.0
210
0.0
220
0.0
230
1.0
 40
0.4623764486778941
 41
1.458212714182629
 42
6.335823022730968
  0
LINE
  5
A2
330
2
100
AcDbEntity
  8
0
100
AcDbLine
 10
31.31518207530985
 20
36.89943376488238
 30
0.0
 11
31.34119678745983
 21
36.8606884489143
 31
0.0
  0
LINE
  5
A3
330
2
100
AcDbEntity
  8
0
100
AcDbLine
 10
31.34119678745983
 20
36.8606884489143
 30
0.0
 11
31.36610449058213
 21
36.82138962843244
 31
0.0
  0
LINE
  5
A4
330
2
100
AcDbEntity
  8
0
100
AcDbLine
 10
31.36610449058213
 20
36.82138962843244
 30
0.0
 11
31.38935168016299
 21
36.78153730343672
 31
0.0
  0
LINE
  5
A5
330
2
100
AcDbEntity
  8
0
100
AcDbLine
 10
31.41868741939591
 20
36.76437866350803
 30
0.0
 11
31.43141802321401
 21
36.78375132149205
 31
0.0
  0
LINE
  5
A6
330
2
100
AcDbEntity
  8
0
100
AcDbLine
 10
31.43141802321401
 20
36.78375132149205
 30
0.0
 11
31.44580914057354
 21
36.80035645690691
 31
0.0
  0
ELLIPSE
  5
A7
330
2
100
AcDbEntity
  8
0
100
AcDbEllipse
 10
31.53106976072735
 20
36.07406079039159
 30
0.0
 11
-0.0902203407101138
 21
0.1241296396943949
 31
0.0
210
0.0
220
0.0
230
0.9999999999999998
 40
0.451495974529793
 41
4.693699271749114
 42
6.288551396542294
  0
LWPOLYLINE
  5
A8
330
2
100
AcDbEntity
  8
0
100
AcDbPolyline
 90
        5
 70
     0
 43
0.0
 10
28.1037488860722
 20
38.06345375746541
 10
28.07662716489454
 20
38.04186708142605
 10
28.05614749788287
 20
38.00976381962398
 10
28.04341689406481
 20
37.96935799011443
 10
28.03843535344032
 20
37.92231010643892
  0
LINE
  5
A9
330
2
100
AcDbEntity
  8
0
100
AcDbLine
 10
31.41868741939591
 20
36.76437866350803
 30
0.0
 11
31.38935168016299
 21
36.78153730343672
 31
0.0
  0
ELLIPSE
  5
AA
330
2
100
AcDbEntity
  8
0
100
AcDbEllipse
 10
30.96481108027476
 20
36.73119940210781
 30
0.0
 11
-0.479233996594251
 21
0.6191790299143363
 31
0.0
210
0.0
220
0.0
230
1.0
 40
0.4991232593503038
 41
4.602526199837116
 42
6.282321726643449
  0
ELLIPSE
  5
AB
330
2
100
AcDbEntity
  8
0
100
AcDbEllipse
 10
31.85474155643188
 20
36.21571160125713
 30
0.0
 11
-0.4822292227623877
 21
0.6225410255907207
 31
0.0
210
0.0
220
0.0
230
1.0
 40
0.4967536139691708
 41
3.05548504918508
 42
6.251158535425241
  0
LWPOLYLINE
  5
AC
330
2
100
AcDbEntity
  8
0
100
AcDbPolyline
 90
       21
 70
     0
 43
0.0
 10
24.39305462536048
 20
13.51276104656634
 10
24.96261077009084
 20
13.71479019411404
 10
25.59748044745305
 20
13.88139505277665
 10
26.2877005761982
 20
14.00427305484677
 10
27.01998704799441
 20
14.07567513713075
 10
27.77607421388522
 20
14.08951274997649
 10
28.53548240685906
 20
14.0430183708148
 10
29.27662495087649
 20
13.93674550415959
 10
29.97902217892587
 20
13.77456868160761
 10
30.6249619465647
 20
13.56312995732479
 10
31.201160145461
 20
13.31128540353246
 10
31.69876070339356
 20
13.02899810147952
 10
32.11444259327938
 20
12.72678463692874
 10
32.46425744601949
 20
12.39800295571411
 10
32.75318680223839
 20
12.0315829675591
 10
32.96573253554886
 20
11.63305971760201
 10
33.08916404213276
 20
11.2101822690364
 10
33.11296473622745
 20
10.77346720762509
 10
33.03270658172221
 20
10.33509163267227
 10
32.84838957861702
 20
9.907232643482219
 10
32.84838957861702
 20
9.906679138968396
  0
ELLIPSE
  5
AD
330
2
100
AcDbEntity
  8
0
100
AcDbEllipse
 10
27.57405553644364
 20
9.701520776694156
 30
0.0
 11
-4.807865035508138
 21
0.0015127046561882
 31
0.0
210
0.0
220
0.0
230
0.9999999999999998
 40
0.5772248299481906
 41
2.188714081426985
 42
5.32397119333315
  0
ARC
  5
AE
330
2
100
AcDbEntity
  8
0
100
AcDbCircle
 10
27.60606849035372
 20
11.6385859454027
 30
0.0
 40
4.315399391041015
100
AcDbArc
 50
236.388201914743
 51
291.996218961281
  0
ELLIPSE
  5
AF
330
2
100
AcDbEntity
  8
0
100
AcDbEllipse
 10
27.5866141580728
 20
8.995309140901483
 30
0.0
 11
2.8621250223648
 21
0.0033635000637881
 31
0.0
210
0.0
220
0.0
230
1.0
 40
0.5787523356681948
 41
5.320066425736182
 42
6.894881077417652
  0
ARC
  5
B0
330
2
100
AcDbEntity
  8
0
100
AcDbCircle
 10
27.53955899835125
 20
6.358391455479745
 30
0.0
 40
4.313048611671928
100
AcDbArc
 50
56.36347509249855
 51
112.0052718485124
  0
ELLIPSE
  5
B1
330
2
100
AcDbEntity
  8
0
100
AcDbEllipse
 10
27.53241110096693
 20
9.70751199020588
 30
0.0
 11
4.768830759858378
 21
0.0125370748945213
 31
0.0
210
0.0
220
0.0
230
0.9999999999999998
 40
0.5797788421588795
 41
2.175750437618457
 42
4.104810096800516
  0
ELLIPSE
  5
B2
330
2
100
AcDbEntity
  8
0
100
AcDbEllipse
 10
27.45524999194026
 20
10.94350552488347
 30
0.0
 11
5.424667156244442
 21
0.0659172425372154
 31
0.0
210
0.0
220
0.0
230
0.9999999999999996
 40
0.579229783020314
 41
2.163561430360779
 42
3.452902855644609
  0
ELLIPSE
  5
B3
330
2
100
AcDbEntity
  8
0
100
AcDbEllipse
 10
27.5780386158349
 20
8.997320497148855
 30
0.0
 11
2.881360680935937
 21
0.0004253173567565
 31
0.0
210
0.0
220
0.0
230
1.0
 40
0.5765648021197341
 41
2.182374045134103
 42
3.752028169508749
  0
LWPOLYLINE
  5
B4
330
2
100
AcDbEntity
  8
0
100
AcDbPolyline
 90
        2
 70
     0
 43
0.0
 10
19.55321115643699
 20
21.5319344429254
 10
19.55321115643699
 20
34.65386595227685
  0
LWPOLYLINE
  5
B5
330
2
100
AcDbEntity
  8
0
100
AcDbPolyline
 90
        2
 70
     0
 43
0.0
 10
30.82975861668153
 20
34.7606923234459
 10
30.82975861668153
 20
21.4638533877244
  0
LWPOLYLINE
  5
B6
330
2
100
AcDbEntity
  8
0
100
AcDbPolyline
 90
        2
 70
     0
 43
0.0
 10
39.16553659495093
 20
29.96845024271175
 10
39.16553659495093
 20
25.77122551434408
  0
LWPOLYLINE
  5
B7
330
2
100
AcDbEntity
  8
0
100
AcDbPolyline
 90
        2
 70
     0
 43
0.0
 10
10.84271062230514
 20
18.44411030364281
 10
10.84271062230514
 20
32.78689522713058
  0
LWPOLYLINE
  5
B8
330
2
100
AcDbEntity
  8
0
100
AcDbPolyline
 90
       25
 70
     0
 43
0.0
 10
14.42720585386375
 20
20.12049793266067
 10
14.42333132226694
 20
20.12935400488192
 10
14.39233506949251
 20
20.23285934896798
 10
14.38181848372975
 20
20.35296982846894
 10
14.39233506949251
 20
20.48525740727417
 10
14.42333132226694
 20
20.62474054475915
 10
14.47370023302541
 20
20.76643770029946
 10
14.54122778371259
 20
20.9048138287568
 10
14.62425346078698
 20
21.03599439853434
 10
14.71945623716563
 20
21.15389085997997
 10
14.8229615812517
 20
21.25518218601074
 10
14.93144846596225
 20
21.33599384502983
 10
15.04104235970047
 20
21.39355831446807
 10
15.14786873086951
 20
21.42510807175632
 10
15.2474995433588
 20
21.43008961238081
 10
15.33716727459913
 20
21.40794943182763
 10
15.41299739299376
 20
21.36034804363831
 10
15.47222237597348
 20
21.28783895232667
 10
15.51262820548303
 20
21.1937431849757
 10
15.53366137700854
 20
21.08138176866834
 10
15.53366137700854
 20
20.95462923500142
 10
15.51262820548303
 20
20.81791362008556
 10
15.47222237597348
 20
20.67676996905911
 10
15.41299739299376
 20
20.53617982254645
 10
15.3781266086225
 20
20.46920577637314
  0
ELLIPSE
  5
B9
330
2
100
AcDbEntity
  8
0
100
AcDbEllipse
 10
14.95919874945929
 20
30.93548490048046
 30
0.0
 11
0.4080762917660377
 21
0.7059194487983346
 31
0.0
210
0.0
220
0.0
230
1.0
 40
0.5775249241199498
 41
2.357337607716984
 42
8.640522914896571
  0
LWPOLYLINE
  5
BA
330
2
100
AcDbEntity
  8
0
100
AcDbPolyline
 90
        2
 70
     0
 43
0.0
 10
39.23361765015197
 20
18.24577814432078
 10
39.23361765015197
 20
20.19964907813825
  0
LWPOLYLINE
  5
BB
330
2
100
AcDbEntity
  8
0
100
AcDbPolyline
 90
        2
 70
     0
 43
0.0
 10
31.16573585657594
 20
34.58633840158968
 10
31.16573585657594
 20
34.58633840158968
  0
LWPOLYLINE
  5
BC
330
2
100
AcDbEntity
  8
0
100
AcDbPolyline
 90
        2
 70
     0
 43
0.0
 10
30.94378054653039
 20
34.71475144879807
 10
30.94378054653039
 20
34.71419794428424
  0
LWPOLYLINE
  5
BD
330
2
100
AcDbEntity
  8
0
100
AcDbPolyline
 90
       16
 70
     0
 43
0.0
 10
15.41797893361823
 20
31.32232228353824
 10
15.41078337493844
 20
31.32619681513505
 10
15.33606026557148
 20
31.34722998666054
 10
15.25082057044176
 20
31.34058793249462
 10
15.16004583017376
 20
31.30627065263717
 10
15.06705707185043
 20
31.24704566965746
 10
14.97849634963774
 20
31.16512700161071
 10
14.89823819513249
 20
31.0649426846076
 10
14.83071064444531
 20
30.95258126830025
 10
14.77978822917302
 20
30.8341313023408
 10
14.74823847188474
 20
30.71512783186749
 10
14.73716838160817
 20
30.60221291104631
 10
14.74823847188474
 20
30.50258209855702
 10
14.77978822917302
 20
30.42010992599645
 10
14.83071064444531
 20
30.36033143850288
 10
14.85451133853998
 20
30.34372630308802
  0
LWPOLYLINE
  5
BE
330
2
100
AcDbEntity
  8
0
100
AcDbPolyline
 90
       26
 70
     0
 43
0.0
 10
11.43318923765824
 20
10.37820963429958
 10
11.43540325571355
 20
10.30791456104325
 10
11.46363198591884
 20
10.2033022079295
 10
11.51289388764965
 20
10.1086529360647
 10
11.58097494285067
 20
10.02452024996266
 10
11.6291298355538
 20
9.98023988885631
 10
20.62855972590456
 20
2.560511880974404
 10
20.69498026756409
 20
2.512356988271248
 10
20.80844869289909
 20
2.45257850077768
 10
20.93686174010751
 20
2.408298139671328
 10
21.07523786856481
 20
2.381729923007525
 10
21.21748852861895
 20
2.372873850786268
 10
21.36084619770077
 20
2.382836932035208
 10
21.50088283969957
 20
2.411065662240484
 10
21.60162066121651
 20
2.444829437584072
 10
22.88464412427285
 20
2.963463167042127
 10
22.89516071003561
 20
2.96789120315279
 10
23.07560318154397
 20
3.043721321547398
 10
23.14755876834177
 20
3.07803860140481
 10
23.25217112145551
 20
3.146673161119634
 10
23.33685731207138
 20
3.22748482013873
 10
23.38501220477454
 20
3.292798352770574
 10
23.94847979985276
 20
4.185601133577251
 10
23.99054614290382
 20
4.269180315165467
 10
24.0187748731091
 20
4.37102514571009
 10
24.02154239567825
 20
4.443534237021718
  0
LWPOLYLINE
  5
BF
330
2
100
AcDbEntity
  8
0
100
AcDbPolyline
 90
        2
 70
     0
 43
0.0
 10
11.42986821057526
 20
10.67710207176742
 10
11.42986821057526
 20
10.37820963429958
  0
LWPOLYLINE
  5
C0
330
2
100
AcDbEntity
  8
0
100
AcDbPolyline
 90
       18
 70
     0
 43
0.0
 10
18.97690225663791
 20
5.439288857400631
 10
18.97800926566557
 20
5.390580460183652
 10
19.0051309868432
 20
5.305340765053964
 10
19.05328587954636
 20
5.228957142145496
 10
19.12136693474735
 20
5.16142959145832
 10
19.21048116147388
 20
5.103865122020084
 10
19.31841454167059
 20
5.058477751886084
 10
19.43852502117155
 20
5.028588508139301
 10
19.56472405032463
 20
5.015304399807381
 10
19.69258359301921
 20
5.019178931404185
 10
19.8171221086308
 20
5.039658598415888
 10
19.9344650655626
 20
5.076743400842456
 10
20.040184427704
 20
5.13209385222536
 10
20.12044258220927
 20
5.196853880343416
 10
20.17911406067519
 20
5.271023485196551
 10
20.21509185407407
 20
5.351835144215612
 10
20.22892946691982
 20
5.436521334831511
 10
20.22726895337831
 20
5.450912452191044
  0
LWPOLYLINE
  5
C1
330
2
100
AcDbEntity
  8
0
100
AcDbPolyline
 90
        2
 70
     0
 43
0.0
 10
18.97358122955493
 20
5.699435978900431
 10
18.97358122955493
 20
5.443163388997436
  0
LWPOLYLINE
  5
C2
330
2
100
AcDbEntity
  8
0
100
AcDbPolyline
 90
        2
 70
     0
 43
0.0
 10
20.22892946691982
 20
5.443163388997436
 10
20.22892946691982
 20
5.699435978900431
  0
LWPOLYLINE
  5
C3
330
2
100
AcDbEntity
  8
0
100
AcDbPolyline
 90
       21
 70
     0
 43
0.0
 10
20.2815123957336
 20
4.108110501641171
 10
20.28870795441338
 20
4.021763797483764
 10
20.32191822524315
 20
3.922686489508332
 10
20.37782218113988
 20
3.830804740212684
 10
20.45586631758982
 20
3.746118549596785
 10
20.55660413910675
 20
3.670841935716
 10
20.67671461860772
 20
3.606635412111804
 10
20.81343023352358
 20
3.555712996839493
 10
20.96010892968834
 20
3.520842212468257
 10
21.11398318453288
 20
3.501469554484237
 10
21.27062496194655
 20
3.498702031915081
 10
21.42615973033261
 20
3.511986140247001
 10
21.57615945358035
 20
3.541321879479925
 10
21.71730310460684
 20
3.586155745100101
 10
21.84626965632906
 20
3.647041241621352
 10
21.95863107263641
 20
3.72287136001596
 10
22.05106632644592
 20
3.81364610028396
 10
22.11139831845331
 20
3.90442084055196
 10
22.14848312087987
 20
3.999623616930623
 10
22.16232073372558
 20
4.107556997127312
 10
22.16232073372558
 20
4.109217510668819
  0
LWPOLYLINE
  5
C4
330
2
100
AcDbEntity
  8
0
100
AcDbPolyline
 90
        4
 70
     0
 43
0.0
 10
20.2798518821921
 20
4.375453181820718
 10
20.2798518821921
 20
4.373239163765386
 10
20.2798518821921
 20
4.363829587030306
 10
20.2798518821921
 20
4.107556997127312
  0
LWPOLYLINE
  5
C5
330
2
100
AcDbEntity
  8
0
100
AcDbPolyline
 90
        2
 70
     0
 43
0.0
 10
22.16232073372558
 20
4.107556997127312
 10
22.16232073372558
 20
4.363829587030306
  0
LWPOLYLINE
  5
C6
330
2
100
AcDbEntity
  8
0
100
AcDbPolyline
 90
        2
 70
     0
 43
0.0
 10
24.02486342276123
 20
4.446301759590874
 10
24.02486342276123
 20
4.749622233169306
  0
LWPOLYLINE
  5
C7
330
2
100
AcDbEntity
  8
0
100
AcDbPolyline
 90
       57
 70
     0
 43
0.0
 10
7.204414752002301
 20
7.539284982869041
 10
7.422495530451062
 20
7.171204481172554
 10
7.679321624867863
 20
6.78541183503352
 10
7.959948413379312
 20
6.40570773854662
 10
8.264929400499269
 20
6.032645696225682
 10
8.593711081713875
 20
5.666779212584491
 10
8.94573995250932
 20
5.308661792136944
 10
9.320462508371768
 20
4.958293434882969
 10
9.717325244787373
 20
4.616781149850286
 10
10.1352211527285
 20
4.284678441552719
 10
10.57415023219515
 20
3.961985309990232
 10
11.03355897867348
 20
3.649808764190473
 10
11.51234038313583
 20
3.34759529963969
 10
12.00938743655455
 20
3.057005429879283
 10
12.52525364344346
 20
2.777485650395499
 10
13.05772498574726
 20
2.509589465702092
 10
13.60735496797977
 20
2.253870380312957
 10
14.1724830765995
 20
2.010881898741882
 10
14.75200230257879
 20
1.780070516475078
 10
15.34646615043145
 20
1.562543242540159
 10
15.95366060210221
 20
1.357746572423299
 10
16.57358565759105
 20
1.166787515152184
 10
17.20513430787028
 20
0.9896660707268129
 10
17.84719954391229
 20
0.8269357436610091
 10
18.49978136571705
 20
0.6774895249270898
 10
19.16066575522924
 20
0.5429879280665623
 10
19.82929920793504
 20
0.4228774485656026
 10
20.50568172383448
 20
0.3177115909380348
 10
21.18815278938602
 20
0.226936850670035
 10
21.87560539556201
 20
0.1516602367892512
 10
22.56748603784864
 20
0.0907747402680353
 10
23.26268770721828
 20
0.0453873701339999
 10
23.96010339464321
 20
0.014944621873392
 10
24.65917959560961
 20
0.0
 10
25.35880930108985
 20
0.0
 10
26.05788550205629
 20
0.0154981263872161
 10
26.75530118948123
 20
0.0459408746478594
 10
27.45050285885083
 20
0.0918817492956834
 10
28.14238350113745
 20
0.1522137413030753
 10
28.82983610731347
 20
0.2280438596976832
 10
29.5117536683512
 20
0.3188185999656831
 10
30.1881361842506
 20
0.4245379621071103
 10
30.8567696369564
 20
0.5446484416080699
 10
31.51765402646859
 20
0.6797035429824216
 10
32.16968234375952
 20
0.8285962572024814
 10
32.81174757980152
 20
0.9924335932959687
 10
33.44274272556692
 20
1.16955503772134
 10
34.06266778105575
 20
1.360514094992455
 10
34.6698622327265
 20
1.565310765109314
 10
35.26377257606537
 20
1.782838039044234
 10
35.84329180204465
 20
2.013649421311038
 10
36.40841991066438
 20
2.257191407395937
 10
36.95749638838304
 20
2.513463997298896
 10
37.48996773068685
 20
2.781360181992303
 10
38.00583393757578
 20
3.060879961476087
 10
38.16468973304477
 20
3.151654701744087
 42
0.1310110742357211
 10
42.79198746865814
 20
7.517698306829477
  0
LWPOLYLINE
  5
C8
330
2
100
AcDbEntity
  8
0
100
AcDbPolyline
 90
        3
 70
     0
 43
0.0
 10
11.69056883658883
 20
18.81361842505835
 42
0.4112770806806258
 10
6.810319538155834
 20
8.331349942158778
 10
6.912717873214263
 20
8.108841127599408
  0
LWPOLYLINE
  5
C9
330
2
100
AcDbEntity
  8
0
100
AcDbPolyline
 90
        2
 70
     0
 43
0.0
 10
43.09530794223629
 20
8.108841127599408
 10
43.19770627729471
 20
8.331349942158778
  0
LWPOLYLINE
  5
CA
330
2
100
AcDbEntity
  8
0
100
AcDbPolyline
 90
        6
 70
     0
 43
0.0
 10
21.42007118068047
 20
8.504596854987383
 10
21.58003398517716
 20
8.377290816806638
 10
21.87173086396521
 20
8.166959101551503
 10
22.18612142782027
 20
7.96769747657292
 10
22.26748659135315
 20
7.920096088383624
 10
22.4379659816126
 20
7.82212578943584
  0
LWPOLYLINE
  5
CB
330
2
100
AcDbEntity
  8
0
100
AcDbPolyline
 90
        2
 70
     0
 43
0.0
 10
32.71100975828458
 20
7.82212578943584
 10
32.88148914854403
 20
7.920096088383624
  0
LWPOLYLINE
  5
CC
330
2
100
AcDbEntity
  8
0
100
AcDbPolyline
 90
       22
 70
     0
 43
0.0
 10
23.34571338429267
 20
7.37821516934471
 10
23.5582591176031
 20
7.29076145615969
 10
23.93630270054853
 20
7.154599345757691
 10
24.32652338279819
 20
7.032274848201399
 10
24.72836765983827
 20
6.924341468004675
 10
25.13962151361346
 20
6.83079920516752
 10
25.55917793509608
 20
6.752755068717616
 10
25.98592991525848
 20
6.689102049627243
 10
26.41766343604534
 20
6.640393652410264
 10
26.85382499294283
 20
6.6071833815805
 10
27.29220056789565
 20
6.589471237137952
 10
27.73112964736229
 20
6.58725721908262
 10
28.17005872682893
 20
6.60054132741454
 10
28.60677378824025
 20
6.629323562133675
 10
29.03961431805479
 20
6.673603923239992
 10
29.46802681175867
 20
6.732828906219736
 10
29.88924374678276
 20
6.806998511072872
 10
30.30326512312707
 20
6.896112737799399
 10
30.70787692273631
 20
7.000171586399283
 10
31.10141863206895
 20
7.118068047844946
 10
31.48333674661118
 20
7.250355626650142
 10
31.66045819103655
 20
7.320650699906474
  0
LWPOLYLINE
  5
CD
330
2
100
AcDbEntity
  8
0
100
AcDbPolyline
 90
       16
 70
     0
 43
0.0
 10
30.48584414902329
 20
37.35058476684397
 10
30.43112466582164
 20
37.32336287202424
 10
30.38463028665999
 20
37.28351054702855
 10
30.35086651131641
 20
37.2226250505073
 10
30.33426137590154
 20
37.14513441857118
 10
30.33592188944301
 20
37.05214566024788
 10
30.35529454742703
 20
36.94808681164796
 10
30.39182584533977
 20
36.83572539534061
 10
30.44440877415356
 20
36.71838243840881
 10
30.51193632484074
 20
36.60048597696314
 10
30.66304305711613
 20
36.38904725268036
 10
30.8379504834862
 20
36.20749777214437
 10
31.02337449561901
 20
36.08019173396362
 10
31.19994243553059
 20
36.02262726452535
 10
31.3438536091262
 20
36.03978590445407
 10
31.36101224905488
 20
36.04974898570298
  0
LWPOLYLINE
  5
CE
330
2
100
AcDbEntity
  8
0
100
AcDbPolyline
 90
       16
 70
     0
 43
0.0
 10
31.33610454593259
 20
36.21801435790709
 10
31.3211599240592
 20
36.20749777214437
 10
31.28075409454965
 20
36.2008557179784
 10
31.22540364316671
 20
36.2069442676305
 10
31.15178754282743
 20
36.23129846623901
 10
31.06986887478069
 20
36.27447181831768
 10
30.98186165708181
 20
36.33535731483893
 10
30.89219392584146
 20
36.41340145128887
 10
30.80529371717026
 20
36.50528320058452
 10
30.79809815849048
 20
36.51358576829195
 10
30.72503556266503
 20
36.60657452661528
 10
30.6547404894087
 20
36.71340089778436
 10
30.59772952448428
 20
36.82133427798105
 10
30.55621668594709
 20
36.92539312658097
 10
30.53186248733858
 20
37.01948889393194
 10
30.52411342414497
 20
37.15011595919567
  0
LWPOLYLINE
  5
CF
330
2
100
AcDbEntity
  8
0
100
AcDbPolyline
 90
       26
 70
     0
 43
0.0
 10
38.32133151045848
 20
30.5617517310854
 10
38.30527987955744
 20
31.62281988409616
 10
38.30140534796064
 20
31.73573480491733
 10
38.27815815837978
 20
31.97152772780862
 10
38.26266003199256
 20
32.06230246807666
 10
37.98978230667473
 20
33.52410788909985
 10
37.98203324348113
 20
33.55731815992961
 10
37.97040964869069
 20
33.58886791721786
 10
37.95546502681729
 20
33.61931066547851
 10
37.93775288237478
 20
33.6480929001976
 10
37.91671971084925
 20
33.67466111686141
 10
37.8929190167546
 20
33.69846181095609
 10
37.86690430460462
 20
33.72004848699545
 10
37.83812206988549
 20
33.73831413595179
 10
29.3816801076013
 20
38.62022394792632
 10
29.34514880968855
 20
38.63848959688269
 10
29.30584998920668
 20
38.65177370521458
 10
29.26599766421096
 20
38.65952276840818
 10
29.22503833018759
 20
38.66229029097734
 10
29.18407899616422
 20
38.65952276840818
 10
29.14367316665467
 20
38.65177370521458
 10
29.10492785068663
 20
38.63848959688269
 10
29.06784304826006
 20
38.62022394792632
 10
28.10363818516941
 20
38.06339840701401
 10
28.09422860843433
 20
38.05897037090338
 10
28.09478211294815
 20
38.05897037090338
  0
LWPOLYLINE
  5
D0
330
2
100
AcDbEntity
  8
0
100
AcDbPolyline
 90
       28
 70
     0
 43
0.0
 10
32.11377838786276
 20
35.69550609685224
 10
32.07115854029792
 20
35.70657618712882
 10
31.99200739482033
 20
35.74200047601388
 10
31.90621419517678
 20
35.79569041385535
 10
31.81654646393643
 20
35.86709249613933
 10
31.73130676880671
 20
35.95011817321372
 10
31.72798574172372
 20
35.9534392002967
 10
31.64496006464933
 20
36.05140949924449
 10
31.56968345076855
 20
36.15657535687205
 10
31.52817061223136
 20
36.22576342110073
 10
31.5254030896622
 20
36.23019145721136
 10
31.52263556709308
 20
36.23461949332199
 10
31.5193145400101
 20
36.2384940249188
 10
31.5154400084133
 20
36.2423685565156
 10
31.51156547681649
 20
36.24568958359858
 10
31.50769094521968
 20
36.24901061068156
 10
31.50326290910902
 20
36.25233163776453
 10
31.49883487299839
 20
36.25509916033366
 10
31.46949913376543
 20
36.27225780026238
 10
31.46064306154418
 20
36.27668583637301
 10
31.45067998029523
 20
36.28000686345599
 10
31.44071689904633
 20
36.28166737699746
 10
31.43020031328357
 20
36.28277438602515
 10
31.42023723203463
 20
36.28166737699746
 10
31.41027415078573
 20
36.28000686345599
 10
31.40031106953678
 20
36.27668583637301
 10
31.39090149280167
 20
36.27225780026238
 10
31.26968400427306
 20
36.20196272700605
  0
LINE
  5
D1
330
2
100
AcDbEntity
  8
0
100
AcDbLine
 10
30.52411342414497
 20
37.15011595919567
 30
0.0
 11
30.53352300088009
 21
37.14900895016802
 31
0.0
  0
LINE
  5
D2
330
2
100
AcDbEntity
  8
0
100
AcDbLine
 10
30.53352300088009
 20
37.14900895016802
 30
0.0
 11
30.60492508316407
 21
37.13074330121165
 31
0.0
  0
LINE
  5
D3
330
2
100
AcDbEntity
  8
0
100
AcDbLine
 10
30.60492508316407
 20
37.13074330121165
 30
0.0
 11
30.68186221058633
 21
37.09642602135423
 31
0.0
  0
LINE
  5
D4
330
2
100
AcDbEntity
  8
0
100
AcDbLine
 10
30.68186221058633
 20
37.09642602135423
 30
0.0
 11
30.7621203650916
 21
37.04661061510957
 31
0.0
  0
LINE
  5
D5
330
2
100
AcDbEntity
  8
0
100
AcDbLine
 10
30.7621203650916
 20
37.04661061510957
 30
0.0
 11
30.84293202411065
 21
36.9829575960192
 31
0.0
  0
LINE
  5
D6
330
2
100
AcDbEntity
  8
0
100
AcDbLine
 10
30.84293202411065
 20
36.9829575960192
 30
0.0
 11
30.92208316958824
 21
36.90768098213842
 31
0.0
  0
LINE
  5
D7
330
2
100
AcDbEntity
  8
0
100
AcDbLine
 10
30.92208316958824
 20
36.90768098213842
 30
0.0
 11
30.99625277444138
 21
36.82354829603638
 31
0.0
  0
LINE
  5
D8
330
2
100
AcDbEntity
  8
0
100
AcDbLine
 10
30.99625277444138
 20
36.82354829603638
 30
0.0
 11
31.06433382964238
 21
36.73277355576838
 31
0.0
  0
LINE
  5
D9
330
2
100
AcDbEntity
  8
0
100
AcDbLine
 10
31.06433382964238
 20
36.73277355576838
 30
0.0
 11
31.1230053081083
 21
36.63812428390354
 31
0.0
  0
LINE
  5
DA
330
2
100
AcDbEntity
  8
0
100
AcDbLine
 10
31.1230053081083
 20
36.63812428390354
 30
0.0
 11
31.13186138032955
 21
36.62484017557166
 31
0.0
  0
LINE
  5
DB
330
2
100
AcDbEntity
  8
0
100
AcDbLine
 10
31.13186138032955
 20
36.62484017557166
 30
0.0
 11
31.1418244615785
 21
36.61210957175356
 31
0.0
  0
LINE
  5
DC
330
2
100
AcDbEntity
  8
0
100
AcDbLine
 10
31.1418244615785
 20
36.61210957175356
 30
0.0
 11
31.15234104734126
 21
36.59993247244932
 31
0.0
  0
LINE
  5
DD
330
2
100
AcDbEntity
  8
0
100
AcDbLine
 10
31.15234104734126
 20
36.59993247244932
 30
0.0
 11
31.16396464213167
 21
36.58996939120039
 31
0.0
  0
LINE
  5
DE
330
2
100
AcDbEntity
  8
0
100
AcDbLine
 10
31.16396464213167
 20
36.58996939120039
 30
0.0
 11
31.17558823692208
 21
36.58222032800677
 31
0.0
  0
LINE
  5
DF
330
2
100
AcDbEntity
  8
0
100
AcDbLine
 10
31.17558823692208
 20
36.58222032800677
 30
0.0
 11
31.20492397615504
 21
36.56561519259191
 31
0.0
  0
LINE
  5
E0
330
2
100
AcDbEntity
  8
0
100
AcDbLine
 10
31.20492397615504
 20
36.56561519259191
 30
0.0
 11
31.21654757094545
 21
36.56008014745363
 31
0.0
  0
LINE
  5
E1
330
2
100
AcDbEntity
  8
0
100
AcDbLine
 10
31.21654757094545
 20
36.56008014745363
 30
0.0
 11
31.22651065219439
 21
36.55731262488448
 31
0.0
  0
LINE
  5
E2
330
2
100
AcDbEntity
  8
0
100
AcDbLine
 10
31.22651065219439
 20
36.55731262488448
 30
0.0
 11
31.23536672441565
 21
36.5578661293983
 31
0.0
  0
LINE
  5
E3
330
2
100
AcDbEntity
  8
0
100
AcDbLine
 10
31.23536672441565
 20
36.5578661293983
 30
0.0
 11
31.24145527406775
 21
36.56008014745363
 31
0.0
  0
LINE
  5
E4
330
2
100
AcDbEntity
  8
0
100
AcDbLine
 10
31.24145527406775
 20
36.56008014745363
 30
0.0
 11
31.3790275031122
 21
36.63923129293122
 31
0.0
  0
LWPOLYLINE
  5
E5
330
2
100
AcDbEntity
  8
0
100
AcDbPolyline
 90
        3
 70
     0
 43
0.0
 10
32.24883348923711
 20
35.53609679686941
 10
32.2992023999956
 20
35.56543253610237
 10
32.30750496770304
 20
35.57041407672682
  0
LINE
  5
E6
330
2
100
AcDbEntity
  8
0
100
AcDbLine
 10
31.38259892509424
 20
36.84568847658955
 30
0.0
 11
31.37152883481765
 21
36.85288403526933
 31
0.0
  0
LINE
  5
E7
330
2
100
AcDbEntity
  8
0
100
AcDbLine
 10
31.37152883481765
 20
36.85288403526933
 30
0.0
 11
31.35603070843043
 21
36.86506113457357
 31
0.0
  0
LINE
  5
E8
330
2
100
AcDbEntity
  8
0
100
AcDbLine
 10
31.35603070843043
 20
36.86506113457357
 30
0.0
 11
31.33776505947406
 21
36.8844337925576
 31
0.0
  0
LINE
  5
E9
330
2
100
AcDbEntity
  8
0
100
AcDbLine
 10
31.33776505947406
 20
36.8844337925576
 30
0.0
 11
31.32448095114218
 21
36.9010389279725
 31
0.0
  0
LWPOLYLINE
  5
EA
330
2
100
AcDbEntity
  8
0
100
AcDbPolyline
 90
       19
 70
     0
 43
0.0
 10
28.77116462884755
 20
38.44919105315305
 10
28.09201459037899
 20
38.84107224894421
 10
28.05492978795243
 20
38.85933789790059
 10
28.01618447198439
 20
38.87206850171865
 10
27.97577864247484
 20
38.88037106942608
 10
27.93537281296529
 20
38.88313859199524
 10
27.89441347894192
 20
38.88037106942608
 10
27.85400764943241
 20
38.87206850171865
 10
27.81526233346433
 20
38.85933789790059
 10
27.77817753103776
 20
38.84107224894421
 10
25.62615198126943
 20
37.59845461539742
 10
25.59460222398114
 20
37.57797494838572
 10
25.56581998926203
 20
37.55362074977725
 10
25.54035878162588
 20
37.52594552408576
 10
25.51877210558653
 20
37.49605628033898
 10
25.49995295211634
 20
37.46339951402304
 10
25.48611533927059
 20
37.4285287296518
 10
25.47615225802168
 20
37.39255093625288
 10
25.47006370836955
 20
37.35546613382635
  0
LWPOLYLINE
  5
EB
330
2
100
AcDbEntity
  8
0
100
AcDbPolyline
 90
        2
 70
     0
 43
0.0
 10
25.32061748963563
 20
37.11745919287973
 10
22.64663718332623
 20
35.5737351038098
  0
LWPOLYLINE
  5
EC
330
2
100
AcDbEntity
  8
0
100
AcDbPolyline
 90
        6
 70
     0
 43
0.0
 10
25.46951020385573
 20
37.35491262931253
 10
25.47006370836955
 20
37.35103809771572
 10
25.44570950976108
 20
37.25970985293386
 10
25.4030896621962
 20
37.18996828419136
 10
25.35216724692392
 20
37.13904586891908
 10
25.31895697609416
 20
37.11801269739356
  0
LWPOLYLINE
  5
ED
330
2
100
AcDbEntity
  8
0
100
AcDbPolyline
 90
        3
 70
     0
 43
0.0
 10
30.38518379117382
 20
7.450724260656373
 42
0.164538930833163
 10
32.38388859061146
 20
9.076920522286869
 10
32.84827887771426
 20
9.906623788516998
  0
LWPOLYLINE
  5
EE
330
2
100
AcDbEntity
  8
0
100
AcDbPolyline
 90
        4
 70
     0
 43
0.0
 10
24.81471436399564
 20
7.425816557534042
 42
0.1879881246546247
 10
30.29883708701645
 20
7.415299971771277
 10
30.33094034881856
 20
7.425816557534042
 10
30.35861557451001
 20
7.438547161352102
  0
LWPOLYLINE
  5
EF
330
2
100
AcDbEntity
  8
0
100
AcDbPolyline
 90
        2
 70
     0
 43
0.0
 10
22.29737583509994
 20
9.906623788516998
 10
22.76176612220274
 20
9.076920522286869
  0
LWPOLYLINE
  5
F0
330
2
100
AcDbEntity
  8
0
100
AcDbPolyline
 90
       10
 70
     0
 43
0.0
 10
22.77172920345167
 20
9.065296927496456
 10
22.83316820448671
 20
8.956810042785908
 10
22.98482844127597
 20
8.738175759823342
 10
23.16084287667365
 20
8.526737035540522
 10
23.36065800616606
 20
8.323600878965171
 10
23.58372032523925
 20
8.13042780363876
 10
23.82892282486563
 20
7.948878323102724
 10
24.0946049915037
 20
7.779505941870961
 10
24.37910631161197
 20
7.623417668971117
 10
24.41785162758005
 20
7.605152020014745
  0
LWPOLYLINE
  5
F1
330
2
100
AcDbEntity
  8
0
100
AcDbPolyline
 90
        3
 70
     0
 43
0.0
 10
24.44940138486831
 20
7.590760902655177
 10
24.67965926262129
 20
7.48227401794463
 10
24.88002789662751
 20
7.402569367953217
  0
LWPOLYLINE
  5
F2
330
2
100
AcDbEntity
  8
0
100
AcDbPolyline
 90
        2
 70
     0
 43
0.0
 10
24.90050756363919
 20
7.394266800245786
 10
24.95641151953595
 20
7.37157311517875
  0
LWPOLYLINE
  5
F3
330
2
100
AcDbEntity
  8
0
100
AcDbPolyline
 90
        2
 70
     0
 43
0.0
 10
40.37981479738969
 20
17.40107490576586
 10
40.37981479738969
 20
21.74055029418767
  0
LWPOLYLINE
  5
F4
330
2
100
AcDbEntity
  8
0
100
AcDbPolyline
 90
       47
 70
     0
 43
0.0
 10
18.84184715526355
 20
21.39903800915498
 10
18.84184715526355
 20
34.20215091854075
 10
18.83575860561144
 20
34.27299949631091
 10
18.81693945214124
 20
34.33443849734595
 10
18.78594319936679
 20
34.38314689456293
 10
18.7444303608296
 20
34.41746417442035
 10
18.69406145007113
 20
34.43628332789054
 10
18.63649698063289
 20
34.43849734594587
 10
18.57395097057016
 20
34.42410622858631
 10
18.50919094245215
 20
34.39421698483952
 10
17.06675817941296
 20
33.56174619604023
 10
17.00199815129493
 20
33.53130344777963
 10
16.93945214123222
 20
33.51746583493392
 10
16.88188767179397
 20
33.51967985298922
 10
16.8315187610355
 20
33.53794550194559
 10
16.7900059224983
 20
33.57281628631682
 10
16.75956317423769
 20
33.62097117901998
 10
16.74074402076749
 20
33.68241018005505
 10
16.73410196660154
 20
33.75381226233904
 10
16.73410196660154
 20
35.80343947704895
 10
16.72801341694942
 20
35.87484155933294
 10
16.7086407589654
 20
35.93572705585415
 10
16.67819801070477
 20
35.98443545307113
 10
16.63668517216757
 20
36.01875273292854
 10
16.58631626140913
 20
36.03757188639874
 10
16.52875179197087
 20
36.03978590445407
 10
16.46620578190815
 20
36.02594829160833
 10
16.40144575379013
 20
35.99550554334772
 10
10.84259992140236
 20
32.78683987667922
 10
10.83208333563961
 20
32.78019782251326
 10
10.82156674987685
 20
32.7735557683473
 10
10.81215717314175
 20
32.76636020966752
 10
10.80330110092048
 20
32.75916465098774
 10
10.79499853321305
 20
32.75141558779412
 10
10.78724947001944
 20
32.74366652460051
 10
10.78060741585348
 20
32.73536395689308
 10
10.77396536168754
 20
32.72761489369948
 10
10.52267431240903
 20
32.3484643017264
 10
10.30182601139113
 20
31.96322516010119
 10
10.11142045863384
 20
31.5724509733377
 10
9.952011158650998
 20
31.17724875046359
 10
9.824151615956431
 20
30.77872550050646
 10
9.728395335063961
 20
30.37632771895256
 10
9.664188811459766
 20
29.97226942385715
 10
9.632085549657666
 20
29.5671041197341
 10
9.627657513547021
 20
29.36452146767257
 10
9.627657513547021
 20
17.69183885483583
  0
LWPOLYLINE
  5
F5
330
2
100
AcDbEntity
  8
0
100
AcDbPolyline
 90
        2
 70
     0
 43
0.0
 10
19.39645867812053
 20
34.75620893688391
 10
18.77708712714554
 20
34.39864502095015
  0
LWPOLYLINE
  5
F6
330
2
100
AcDbEntity
  8
0
100
AcDbPolyline
 90
       25
 70
     0
 43
0.0
 10
40.37704727482053
 20
26.71766288254083
 10
40.37040522065457
 20
26.85825302905346
 10
40.33165990468654
 20
27.24958072033081
 10
40.26302534497172
 20
27.63924789806661
 10
40.16450154151007
 20
28.02725456226097
 10
40.03608849430167
 20
28.41249370388619
 10
39.87889321237415
 20
28.79385831391456
 10
39.69236219121366
 20
29.17079488783233
 10
39.47704893533408
 20
29.54274992112562
 10
39.234060453763
 20
29.90861640476682
 10
39.22741839959708
 20
29.91691897247425
 10
39.22077634543112
 20
29.92522154018168
 10
39.21302728223751
 20
29.93297060337529
 10
39.20472471453005
 20
29.94071966656889
 10
39.19586864230879
 20
29.94791522524868
 10
39.18590556105985
 20
29.95511078392846
 10
39.17594247981094
 20
29.96175283809443
 10
39.16542589404818
 20
29.96839489226035
 10
38.93184698921222
 20
30.10289648912088
 10
38.93184698921222
 20
30.1034499936347
 10
38.92741895310159
 20
30.15049787731021
 10
38.91524185379732
 20
30.19145721133358
 10
38.89476218678565
 20
30.22411397764952
 10
38.86708696109416
 20
30.24680766271652
 10
31.10086512755512
 20
34.73019422473393
  0
LWPOLYLINE
  5
F7
330
2
100
AcDbEntity
  8
0
100
AcDbPolyline
 90
       19
 70
     0
 43
0.0
 10
15.4189752417431
 20
31.3211599240592
 10
15.42395678236757
 20
31.31783889697622
 10
15.43502687264416
 20
31.302340770589
 10
15.44941799000371
 20
31.26857699524541
 10
15.46048808028029
 20
31.20935201226567
 10
15.46104158479414
 20
31.13130787581573
 10
15.44886448548988
 20
31.03776561297858
 10
15.42174276431225
 20
30.93370676437869
 10
15.37912291674739
 20
30.82466637515432
 10
15.32266545633681
 20
30.71617949044377
 10
15.25513790564963
 20
30.61378115538532
 10
15.18041479628267
 20
30.52300641511732
 10
15.10237065983273
 20
30.44883681026422
 10
15.02654054143812
 20
30.39403986339511
 10
14.9601199997786
 20
30.35916907902387
 10
14.90753707096481
 20
30.34256394360897
 10
14.87377329562122
 20
30.33924291652599
 10
14.85827516923401
 20
30.34201043909515
 10
14.8544006376372
 20
30.34422445715048
  0
LWPOLYLINE
  5
F8
330
2
100
AcDbEntity
  8
0
100
AcDbPolyline
 90
        2
 70
     0
 43
0.0
 10
19.330038136461
 20
35.05233385178259
 10
16.89129724852907
 20
36.45989583045052
  0
LWPOLYLINE
  5
F9
330
2
100
AcDbEntity
  8
0
100
AcDbPolyline
 90
        3
 70
     0
 43
0.0
 10
10.79831956029585
 20
33.01765125894617
 42
0.1602667736123528
 10
9.627657513547021
 20
29.62079405757556
 10
9.627657513547021
 20
29.492934514881
  0
ELLIPSE
  5
FA
330
2
100
AcDbEntity
  8
0
100
AcDbEllipse
 10
14.28396104763837
 20
9.631722746439885
 30
0.0
 11
-0.4706635539944579
 21
0.0000898926309374
 31
0.0
210
0.0
220
0.0
230
0.9999999999999998
 40
0.5773227835618179
 41
3.75281528255105
 42
10.03600058973063
  0
ELLIPSE
  5
FB
330
2
100
AcDbEntity
  8
0
100
AcDbEllipse
 10
15.90390436281174
 20
8.296138524297168
 30
0.0
 11
0.4706020056882807
 21
0.0002816396253175
 31
0.0
210
0.0
220
0.0
230
1.0
 40
0.5775812228825209
 41
0.6096775744869387
 42
6.892862881666524
  0
ELLIPSE
  5
FC
330
2
100
AcDbEntity
  8
0
100
AcDbEllipse
 10
17.52384526055528
 20
6.960507908497588
 30
0.0
 11
-0.4706276452926792
 21
0.0000767948292947
 31
0.0
210
0.0
220
0.0
230
0.9999999999999998
 40
0.5778657158895478
 41
3.752613058533551
 42
10.03579836571313
  0
LWPOLYLINE
  5
FD
330
2
100
AcDbEntity
  8
0
100
AcDbPolyline
 90
       30
 70
     0
 43
0.0
 10
20.1929516735209
 20
5.276558530334828
 10
20.23999955719641
 20
5.300359224429476
 10
20.35291447801758
 20
5.372314811227315
 10
20.44202870474411
 20
5.455340488301708
 10
20.50402121029297
 20
5.545561724055882
 10
20.53723148112274
 20
5.641318004948335
 10
20.5399990036919
 20
5.738734799382295
 10
20.51287728251423
 20
5.835044584788606
 10
20.45641982210364
 20
5.926926334084254
 10
20.3722871360016
 20
6.01105902018633
 10
20.26380025129105
 20
6.085782129553289
 10
20.13372669054115
 20
6.147774635102154
 10
19.98649448986256
 20
6.195376023291485
 10
19.82653168536591
 20
6.226925780579741
 10
19.65992682670327
 20
6.241870402453133
 10
19.49110794998533
 20
6.239102879884013
 10
19.3261636048642
 20
6.219176717386133
 10
19.16952182745051
 20
6.182645419473425
 10
19.02727116739638
 20
6.130062490659641
 10
18.90328615629861
 20
6.064195453513938
 10
18.80144132575402
 20
5.986151317063998
 10
18.7256112073594
 20
5.899251108392802
 10
18.67800981917008
 20
5.805708845555646
 10
18.66029767472754
 20
5.708845555635511
 10
18.67247477403179
 20
5.611982265715375
 10
18.71454111708281
 20
5.517332993850572
 10
18.78483619033914
 20
5.428772271637903
 10
18.88169948025926
 20
5.349067621646456
 10
19.00180995976022
 20
5.280433061931632
 10
19.0145405635783
 20
5.274344512279496
  0
ELLIPSE
  5
FE
330
2
100
AcDbEntity
  8
0
100
AcDbEllipse
 10
21.22050577919687
 20
4.364292059829077
 30
0.0
 11
1.254549005009197
 21
0.0012672271993552
 31
0.0
210
0.0
220
0.0
230
1.0
 40
0.5773143113298595
 41
0.608787661944171
 42
3.97468362181547
  0
LWPOLYLINE
  5
FF
330
2
100
AcDbEntity
  8
0
100
AcDbPolyline
 90
       11
 70
     0
 43
0.0
 10
22.06379693026398
 20
3.82693020861588
 10
22.12357541775754
 20
3.860140479445608
 10
22.24645341982766
 20
3.945933679089156
 10
22.34497722328927
 20
4.041136455467819
 10
22.41693281008707
 20
4.144088295040055
 10
22.46121317119342
 20
4.252021675236779
 10
22.47615779306681
 20
4.362169073488798
 10
22.46232018022107
 20
4.472869976254678
 10
22.41859332362858
 20
4.580803356451402
 10
22.3471912413446
 20
4.684308700537462
 10
22.24922094239678
 20
4.77951147691609
  0
LWPOLYLINE
  5
100
330
2
100
AcDbEntity
  8
0
100
AcDbPolyline
 90
        5
 70
     0
 43
0.0
 10
7.193898166239554
 20
7.559211145366921
 10
7.125817111038537
 20
7.682089147437001
 10
6.920466936407871
 20
8.092235992184543
 10
6.742791987468658
 20
8.507364377556502
 10
6.716223770804853
 20
8.57710594629901
  0
LWPOLYLINE
  5
101
330
2
100
AcDbEntity
  8
0
100
AcDbPolyline
 90
        5
 70
     0
 43
0.0
 10
43.28183896339674
 20
8.549984225121383
 10
43.22316748493086
 20
8.403305528956618
 10
43.03885048182571
 20
7.989284152612272
 10
42.82630474851524
 20
7.580244316892414
 10
42.80305755893441
 20
7.538731478355217
  0
ELLIPSE
  5
102
330
2
100
AcDbEntity
  8
0
100
AcDbEllipse
 10
25.00564605134286
 20
11.12971450311548
 30
0.0
 11
-18.82627283694054
 21
0.0020495956331396
 31
0.0
210
0.0
220
0.0
230
0.9999999999999998
 40
0.5772609434649081
 41
2.881353050556784
 42
5.498067093859464
  0
ELLIPSE
  5
103
330
2
100
AcDbEntity
  8
0
100
AcDbEllipse
 10
15.06113391088596
 20
12.20318299373099
 30
0.0
 11
-0.7534659818142729
 21
0.0000000011022589
 31
0.0
210
0.0
220
0.0
230
1.0
 40
0.5764739455561184
 41
2.355953265772524
 42
8.639138572952109
  0
LINE
  5
104
330
2
100
AcDbEntity
  8
0
100
AcDbLine
 10
20.67284008701091
 20
2.515678015354228
 30
0.0
 11
20.56546021132801
 21
2.566600430626539
 31
0.0
  0
LINE
  5
105
330
2
100
AcDbEntity
  8
0
100
AcDbLine
 10
20.56546021132801
 20
2.566600430626539
 30
0.0
 11
20.44534973182705
 21
2.647965594159424
 31
0.0
  0
LINE
  5
106
330
2
100
AcDbEntity
  8
0
100
AcDbLine
 10
20.44534973182705
 20
2.647965594159424
 30
0.0
 11
11.44591984147631
 21
10.0671400975275
 31
0.0
  0
LINE
  5
107
330
2
100
AcDbEntity
  8
0
100
AcDbLine
 10
11.44591984147631
 20
10.0671400975275
 30
0.0
 11
11.3551451012083
 21
10.16012885585084
 31
0.0
  0
LINE
  5
108
330
2
100
AcDbEntity
  8
0
100
AcDbLine
 10
11.3551451012083
 20
10.16012885585084
 30
0.0
 11
11.29813413628388
 21
10.2614201818816
 31
0.0
  0
LINE
  5
109
330
2
100
AcDbEntity
  8
0
100
AcDbLine
 10
11.29813413628388
 20
10.2614201818816
 30
0.0
 11
11.27599395573071
 21
10.36713954402299
 31
0.0
  0
LINE
  5
10A
330
2
100
AcDbEntity
  8
0
100
AcDbLine
 10
11.27599395573071
 20
10.36713954402299
 30
0.0
 11
11.28983156857645
 21
10.47341241067821
 31
0.0
  0
LINE
  5
10B
330
2
100
AcDbEntity
  8
0
100
AcDbLine
 10
11.28983156857645
 20
10.47341241067821
 30
0.0
 11
11.33964697482108
 21
10.57581074573666
 31
0.0
  0
LINE
  5
10C
330
2
100
AcDbEntity
  8
0
100
AcDbLine
 10
11.33964697482108
 20
10.57581074573666
 30
0.0
 11
11.42322615640932
 21
10.67101352211528
 31
0.0
  0
LINE
  5
10D
330
2
100
AcDbEntity
  8
0
100
AcDbLine
 10
11.42322615640932
 20
10.67101352211528
 30
0.0
 11
11.53724808625814
 21
10.7545927037035
 31
0.0
  0
LINE
  5
10E
330
2
100
AcDbEntity
  8
0
100
AcDbLine
 10
11.53724808625814
 20
10.7545927037035
 30
0.0
 11
11.67728472825696
 21
10.82433427244601
 31
0.0
  0
LINE
  5
10F
330
2
100
AcDbEntity
  8
0
100
AcDbLine
 10
11.67728472825696
 20
10.82433427244601
 30
0.0
 11
13.13853664476634
 21
11.41492358870186
 31
0.0
  0
LINE
  5
110
330
2
100
AcDbEntity
  8
0
100
AcDbLine
 10
13.13853664476634
 20
11.41492358870186
 30
0.0
 11
13.19886863677373
 21
11.43706376925504
 31
0.0
  0
LINE
  5
111
330
2
100
AcDbEntity
  8
0
100
AcDbLine
 10
13.19886863677373
 20
11.43706376925504
 30
0.0
 11
13.26196815135028
 21
11.45698993175292
 31
0.0
  0
LINE
  5
112
330
2
100
AcDbEntity
  8
0
100
AcDbLine
 10
13.26196815135028
 20
11.45698993175292
 30
0.0
 11
13.32783518849596
 21
11.47414857168161
 31
0.0
  0
LINE
  5
113
330
2
100
AcDbEntity
  8
0
100
AcDbLine
 10
13.32783518849596
 20
11.47414857168161
 30
0.0
 11
13.39536273918314
 21
11.48798618452735
 31
0.0
  0
LINE
  5
114
330
2
100
AcDbEntity
  8
0
100
AcDbLine
 10
13.39536273918314
 20
11.48798618452735
 30
0.0
 11
13.4645508034118
 21
11.49905627480394
 31
0.0
  0
LINE
  5
115
330
2
100
AcDbEntity
  8
0
100
AcDbLine
 10
13.4645508034118
 20
11.49905627480394
 30
0.0
 11
13.53484587666814
 21
11.50680533799755
 31
0.0
  0
LINE
  5
116
330
2
100
AcDbEntity
  8
0
100
AcDbLine
 10
13.53484587666814
 20
11.50680533799755
 30
0.0
 11
13.60624795895212
 21
11.51123337410818
 31
0.0
  0
LINE
  5
117
330
2
100
AcDbEntity
  8
0
100
AcDbLine
 10
13.60624795895212
 20
11.51123337410818
 30
0.0
 11
13.67820354574992
 21
11.51289388764965
 31
0.0
  0
LINE
  5
118
330
2
100
AcDbEntity
  8
0
100
AcDbLine
 10
13.67820354574992
 20
11.51289388764965
 30
0.0
 11
15.33152152855806
 21
11.51289388764965
 31
0.0
  0
LINE
  5
119
330
2
100
AcDbEntity
  8
0
100
AcDbLine
 10
15.33152152855806
 20
11.51289388764965
 30
0.0
 11
15.44388294486541
 21
11.50901935605284
 31
0.0
  0
LINE
  5
11A
330
2
100
AcDbEntity
  8
0
100
AcDbLine
 10
15.44388294486541
 20
11.50901935605284
 30
0.0
 11
15.55513735214512
 21
11.49739576126243
 31
0.0
  0
LINE
  5
11B
330
2
100
AcDbEntity
  8
0
100
AcDbLine
 10
15.55513735214512
 20
11.49739576126243
 30
0.0
 11
15.66307073234182
 21
11.47802310327841
 31
0.0
  0
LINE
  5
11C
330
2
100
AcDbEntity
  8
0
100
AcDbLine
 10
15.66307073234182
 20
11.47802310327841
 30
0.0
 11
15.76602257191408
 21
11.45145488661461
 31
0.0
  0
LINE
  5
11D
330
2
100
AcDbEntity
  8
0
100
AcDbLine
 10
15.76602257191408
 20
11.45145488661461
 30
0.0
 11
15.86288586183421
 21
11.41824461578484
 31
0.0
  0
LINE
  5
11E
330
2
100
AcDbEntity
  8
0
100
AcDbLine
 10
15.86288586183421
 20
11.41824461578484
 30
0.0
 11
15.95200008856072
 21
11.37839229078916
 31
0.0
  0
LINE
  5
11F
330
2
100
AcDbEntity
  8
0
100
AcDbLine
 10
15.95200008856072
 20
11.37839229078916
 30
0.0
 11
16.03225824306598
 21
11.3324514161413
 31
0.0
  0
LINE
  5
120
330
2
100
AcDbEntity
  8
0
100
AcDbLine
 10
16.03225824306598
 20
11.3324514161413
 30
0.0
 11
16.10255331632231
 21
11.28152900086902
 31
0.0
  0
LINE
  5
121
330
2
100
AcDbEntity
  8
0
100
AcDbLine
 10
16.10255331632231
 20
11.28152900086902
 30
0.0
 11
24.01434683699847
 21
4.758478305390597
 31
0.0
  0
LINE
  5
122
330
2
100
AcDbEntity
  8
0
100
AcDbLine
 10
24.01434683699847
 20
4.758478305390597
 30
0.0
 11
24.07301831546439
 21
4.703127854007657
 31
0.0
  0
LINE
  5
123
330
2
100
AcDbEntity
  8
0
100
AcDbLine
 10
24.07301831546439
 20
4.703127854007657
 30
0.0
 11
24.12061970365368
 21
4.643902871027914
 31
0.0
  0
LINE
  5
124
330
2
100
AcDbEntity
  8
0
100
AcDbLine
 10
24.12061970365368
 20
4.643902871027914
 30
0.0
 11
24.15493698351109
 21
4.58191036547905
 31
0.0
  0
LINE
  5
125
330
2
100
AcDbEntity
  8
0
100
AcDbLine
 10
24.15493698351109
 20
4.58191036547905
 30
0.0
 11
24.17652365955044
 21
4.517703841874854
 31
0.0
  0
LINE
  5
126
330
2
100
AcDbEntity
  8
0
100
AcDbLine
 10
24.17652365955044
 20
4.517703841874854
 30
0.0
 11
24.18427272274406
 21
4.452943813756799
 31
0.0
  0
LINE
  5
127
330
2
100
AcDbEntity
  8
0
100
AcDbLine
 10
24.18427272274406
 20
4.452943813756799
 30
0.0
 11
24.17873767760578
 21
4.387630281124955
 31
0.0
  0
LINE
  5
128
330
2
100
AcDbEntity
  8
0
100
AcDbLine
 10
24.17873767760578
 20
4.387630281124955
 30
0.0
 11
24.15991852413558
 21
4.323423757520759
 31
0.0
  0
LINE
  5
129
330
2
100
AcDbEntity
  8
0
100
AcDbLine
 10
24.15991852413558
 20
4.323423757520759
 30
0.0
 11
24.12781526233347
 21
4.260877747458035
 31
0.0
  0
LINE
  5
12A
330
2
100
AcDbEntity
  8
0
100
AcDbLine
 10
24.12781526233347
 20
4.260877747458035
 30
0.0
 11
23.56213364919991
 21
3.364200435054554
 31
0.0
  0
LINE
  5
12B
330
2
100
AcDbEntity
  8
0
100
AcDbLine
 10
23.56213364919991
 20
3.364200435054554
 30
0.0
 11
23.53501192802228
 21
3.326008623600337
 31
0.0
  0
LINE
  5
12C
330
2
100
AcDbEntity
  8
0
100
AcDbLine
 10
23.53501192802228
 20
3.326008623600337
 30
0.0
 11
23.50290866622019
 21
3.28892382117377
 31
0.0
  0
LINE
  5
12D
330
2
100
AcDbEntity
  8
0
100
AcDbLine
 10
23.50290866622019
 20
3.28892382117377
 30
0.0
 11
23.46582386379363
 21
3.252946027774886
 31
0.0
  0
LINE
  5
12E
330
2
100
AcDbEntity
  8
0
100
AcDbLine
 10
23.46582386379363
 20
3.252946027774886
 30
0.0
 11
23.42431102525643
 21
3.219182252431298
 31
0.0
  0
LINE
  5
12F
330
2
100
AcDbEntity
  8
0
100
AcDbLine
 10
23.42431102525643
 20
3.219182252431298
 30
0.0
 11
23.37837015060857
 21
3.187078990629182
 31
0.0
  0
LINE
  5
130
330
2
100
AcDbEntity
  8
0
100
AcDbLine
 10
23.37837015060857
 20
3.187078990629182
 30
0.0
 11
23.32855474436394
 21
3.157743251396222
 31
0.0
  0
LINE
  5
131
330
2
100
AcDbEntity
  8
0
100
AcDbLine
 10
23.32855474436394
 20
3.157743251396222
 30
0.0
 11
23.27486480652251
 21
3.13006802570477
 31
0.0
  0
LINE
  5
132
330
2
100
AcDbEntity
  8
0
100
AcDbLine
 10
23.27486480652251
 20
3.13006802570477
 30
0.0
 11
23.2178538415981
 21
3.104606818068614
 31
0.0
  0
LINE
  5
133
330
2
100
AcDbEntity
  8
0
100
AcDbLine
 10
23.2178538415981
 20
3.104606818068614
 30
0.0
 11
23.12597209230242
 21
3.067522015642047
 31
0.0
  0
LWPOLYLINE
  5
134
330
2
100
AcDbEntity
  8
0
100
AcDbPolyline
 90
        5
 70
     0
 43
0.0
 10
32.8809356440302
 20
7.9195425838698
 10
33.04311246658218
 20
8.016405873789899
 10
33.35196798529892
 20
8.218435021337603
 10
33.63868332346252
 20
8.430980754648071
 10
33.75215174879752
 20
8.523416008457578
  0
LWPOLYLINE
  5
135
330
2
100
AcDbEntity
  8
0
100
AcDbPolyline
 90
        4
 70
     0
 43
0.0
 10
32.71045625377075
 20
7.82157228492198
 10
32.37447901387635
 20
7.639469299872157
 10
32.01912911599796
 20
7.470096918640393
 10
31.67706332645145
 20
7.32618574504475
  0
LWPOLYLINE
  5
136
330
2
100
AcDbEntity
  8
0
100
AcDbPolyline
 90
        6
 70
     0
 43
0.0
 10
23.32910824887777
 20
7.384303718996846
 10
23.03962538814504
 20
7.511056252663765
 10
22.68870352637728
 20
7.683749660978508
 10
22.35770782710733
 20
7.868620168597488
 10
22.04774529936293
 20
8.06566777552074
 10
21.98132475770341
 20
8.11105514565474
  0
LWPOLYLINE
  5
137
330
2
100
AcDbEntity
  8
0
100
AcDbPolyline
 90
       76
 70
     0
 43
0.0
 10
24.13777834358241
 20
7.751277211665684
 10
23.96895946686447
 20
7.819358266866684
 10
23.63685675856686
 20
7.969911494628252
 10
23.32301969922567
 20
8.133195326207916
 10
23.02966230689611
 20
8.308656257091779
 10
22.75789159060593
 20
8.495187278252267
 10
22.50881455938275
 20
8.692234885175517
 10
22.28409172676805
 20
8.898692068833849
 10
22.08427659727564
 20
9.113451820199612
 10
21.91102968444708
 20
9.335960634758984
 10
21.76490449279614
 20
9.564557998970492
 10
21.64590102232286
 20
9.798690408320311
 10
21.55567978656865
 20
10.03725085378072
 10
21.49368728101979
 20
10.27802531729646
 10
21.46103051470385
 20
10.52156730338136
 10
21.45770948762086
 20
10.76510928946626
 10
21.48317069525703
 20
11.00865127555116
 10
21.53741413761231
 20
11.25053274809459
 10
21.62099331920053
 20
11.48964669806882
 10
21.73224772648023
 20
11.72488611644629
 10
21.87173086396521
 20
11.95459048968545
 10
22.03888922714165
 20
12.17875981778633
 10
22.23150879795427
 20
12.39573358720742
 10
22.45014308091684
 20
12.60440478892105
 10
22.69313156248791
 20
12.80421991841346
 10
22.95936723363981
 20
12.99351846214306
 10
23.24774308534488
 20
13.17174691559612
 10
23.55659860406163
 20
13.3377982697449
 10
23.88427327624857
 20
13.49167252458945
 10
24.23021359739192
 20
13.63170916658825
 10
24.59165204492244
 20
13.75790819574135
 10
24.96692810529871
 20
13.86971610753488
 10
25.3554882740069
 20
13.96547238842733
 10
25.754011523964
 20
14.04628404744643
 10
26.16139084614235
 20
14.11049057105062
 10
26.57541222248669
 20
14.15864546375378
 10
26.99441513945546
 20
14.19019522104203
 10
27.41618557899341
 20
14.20513984291543
 10
27.83850952304515
 20
14.20292582486013
 10
28.25972645806928
 20
14.18410667138993
 10
28.6776223660104
 20
14.14812887799101
 10
29.08998322881324
 20
14.09609945369105
 10
29.49570203745012
 20
14.02746489397623
 10
29.89145776483809
 20
13.94333220787415
 10
30.27669690646327
 20
13.84314789087107
 10
30.64920544427042
 20
13.72801895199456
 10
31.00676936020414
 20
13.59794539124467
 10
31.34828164523682
 20
13.45458772216288
 10
31.67152828131314
 20
13.29739244023536
 10
31.97540225940543
 20
13.12802005900359
 10
32.25824306597222
 20
12.94702408298142
 10
32.51894369198581
 20
12.75495801668265
 10
32.75584362390475
 20
12.55292886913495
 10
32.9678358527014
 20
12.34204364936599
 10
33.15436687386185
 20
12.12340936640339
 10
33.31432967835854
 20
11.89757952476103
 10
33.44717076167758
 20
11.66621463798037
 10
33.55178311479129
 20
11.42986821057526
 10
33.62761323318594
 20
11.19020075608716
 10
33.67521462137523
 20
10.94776577902995
 10
33.69348027033161
 20
10.70422379294505
 10
33.68241018005502
 20
10.46068180686015
 10
33.64255785505933
 20
10.21769332528907
 10
33.57336979083065
 20
9.976918861773331
 10
33.47595299639669
 20
9.740018929854391
 10
33.35030747175745
 20
9.506993529532255
 10
33.19698672142673
 20
9.280056678862221
 10
33.0170977544322
 20
9.059208377844321
 10
32.8111940752877
 20
8.846109140020065
 10
32.58038269302089
 20
8.641865974417029
 10
32.32521711214558
 20
8.447585890062935
 10
32.04791135071709
 20
8.263822391471604
 10
31.74957241776308
 20
8.09112898315686
 10
31.43075381779739
 20
7.931166178660212
 10
31.09366956887534
 20
7.783933977981589
 10
31.00842987374561
 20
7.750170202638001
  0
LWPOLYLINE
  5
138
330
2
100
AcDbEntity
  8
0
100
AcDbPolyline
 90
        9
 70
     0
 43
0.0
 10
23.41545495303514
 20
3.340399740959905
 10
23.42431102525643
 20
3.34759529963969
 10
23.46582386379363
 20
3.381359074983277
 10
23.50290866622019
 20
3.416783363868337
 10
23.53501192802228
 20
3.453868166294905
 10
23.56213364919991
 20
3.492059977749121
 10
24.12781526233347
 20
4.389290794666426
 10
24.15991852413558
 20
4.451283300215326
 10
24.17763066857809
 20
4.511061787708894
  0
LWPOLYLINE
  5
139
330
2
100
AcDbEntity
  8
0
100
AcDbPolyline
 90
       25
 70
     0
 43
0.0
 10
7.279691365883102
 20
7.411978944688298
 10
0.2773057614284871
 20
4.795563107817165
 10
0.242434977057251
 20
4.778404467888441
 10
0.2075641926859973
 20
4.753496764766145
 10
0.1749074263700753
 20
4.721947007477854
 10
0.1444646781094496
 20
4.684862205051286
 10
0.1178964614456456
 20
4.643349366514089
 10
0.0963097854063115
 20
4.599622509921598
 10
0.0808116590190778
 20
4.554235139787563
 10
0.0714020822839798
 20
4.51050828319507
 10
0.0099630812489398
 20
4.071025699214603
 10
0.0
 20
3.902760327010488
 10
0.0160516309010578
 20
3.726745891612764
 10
0.0575644694382538
 20
3.548517438159709
 10
0.1228780020701155
 20
3.375824029844966
 10
0.2097782107413113
 20
3.215307720834494
 10
0.3138370593412309
 20
3.072503556266498
 10
0.4322870253007006
 20
2.953500085793222
 10
0.5595930634814442
 20
2.862725345525223
 10
2.556637349377582
 20
1.71032894773257
 10
2.688924928182796
 20
1.651103964752827
 10
2.820659002474167
 20
1.625642757116706
 10
2.946304527113421
 20
1.635605838365611
 10
3.002208483010185
 20
1.65221097378051
 10
3.089108691681381
 20
1.68486774009645
  0
LWPOLYLINE
  5
13A
330
2
100
AcDbEntity
  8
0
100
AcDbPolyline
 90
       38
 70
     0
 43
0.0
 10
7.330060276641554
 20
7.32673924955861
 10
0.2618076350412712
 20
4.68541570956511
 10
0.2440954905987233
 20
4.677113141857677
 10
0.2269368506700173
 20
4.664382538039617
 10
0.2103317152551354
 20
4.648884411652401
 10
0.1953870933817435
 20
4.630065258182206
 10
0.1821029850498415
 20
4.609585591170502
 10
0.1715863992870954
 20
4.587445410617326
 10
0.1632838315796455
 20
4.564751725550326
 10
0.1588557954690174
 20
4.543165049510974
 10
0.0974167944339597
 20
4.103682465530508
 10
0.0874537131850376
 20
3.935417093326392
 10
0.1035053440860954
 20
3.759402657928704
 10
0.1450181826232913
 20
3.581174204475649
 10
0.2103317152551354
 20
3.408480796160905
 10
0.2966784194125072
 20
3.247964487150398
 10
0.4012907725262508
 20
3.105160322582438
 10
0.5197407384857206
 20
2.986710356622986
 10
0.6470467766664642
 20
2.895935616354951
 10
2.64409106256262
 20
1.74298571404851
 10
2.776378641367815
 20
1.683760731068766
 10
2.907559211145363
 20
1.658299523432611
 10
3.033758240298459
 20
1.66826260468155
 10
3.148887179174948
 20
1.712542965787902
 10
3.249071496178046
 20
1.789480093210158
 10
3.330436659710966
 20
1.896306464379234
 10
3.390215147204533
 20
2.029147547698253
 10
3.425639436089611
 20
2.182468298028977
 10
3.487078437124651
 20
2.62139737749562
 10
3.492059977749121
 20
2.643537558048796
 10
3.499809040942729
 20
2.666231243115796
 10
3.510325626705493
 20
2.688371423668971
 10
3.523609735037395
 20
2.70885109068064
 10
3.538554356910787
 20
2.727670244150836
 10
3.555159492325669
 20
2.743168370538087
 10
3.572871636768199
 20
2.755345469842323
 10
3.590030276696905
 20
2.764201542063579
 10
9.363082355936612
 20
4.921208632456401
  0
LWPOLYLINE
  5
13B
330
2
100
AcDbEntity
  8
0
100
AcDbPolyline
 90
        3
 70
     0
 43
0.0
 10
38.39550111531162
 20
18.75273292853706
 42
-0.1067317672017711
 10
42.26006963086785
 20
23.56379416274141
 10
49.06872865548219
 20
28.88020501807193
  0
LWPOLYLINE
  5
13C
330
2
100
AcDbEntity
  8
0
100
AcDbPolyline
 90
       27
 70
     0
 43
0.0
 10
34.91561823686677
 20
20.36951961343245
 42
-0.1122769930199698
 10
38.93184698921222
 20
25.48500833024294
 10
46.41799553875361
 20
31.33112300530814
 10
46.43515417868234
 20
31.34274660009855
 10
46.45286632312489
 20
31.34994215877834
 10
46.46891795402592
 20
31.35326318586131
 10
46.48441608041314
 20
31.35215617683363
 10
46.49770018874506
 20
31.34662113169535
 10
46.50821677450779
 20
31.33721155496024
 10
46.5159658377014
 20
31.32392744662836
 10
46.52094737832588
 20
31.30732231121345
 10
46.58238637936093
 20
30.93924180951697
 10
46.61781066824602
 20
30.79699114946283
 10
46.67758915573958
 20
30.64588441718744
 10
46.75895431927247
 20
30.49090315331524
 10
46.85913863627559
 20
30.33813590749835
 10
46.97426757515209
 20
30.19422473390274
 10
47.09991309979133
 20
30.06415117315284
 10
47.2316471740827
 20
29.95289676587313
 10
47.36393475288793
 20
29.86433604366047
 10
49.36097903878407
 20
28.71138614135399
 10
49.48828507696482
 20
28.64994714031895
 10
49.6067350429243
 20
28.61729037400301
 10
49.71079389152419
 20
28.61452285143386
 10
49.79769410019539
 20
28.64219807712534
 10
49.82426231685919
 20
28.65991022156789
 10
49.91171603004424
 20
28.72799127676889
  0
LWPOLYLINE
  5
13D
330
2
100
AcDbEntity
  8
0
100
AcDbPolyline
 90
       35
 70
     0
 43
0.0
 10
34.84643017263812
 20
20.39387381204095
 42
-0.1122144366828303
 10
38.91634886282497
 20
25.57689007953863
 10
46.40249741236639
 20
31.42300475460379
 10
46.43736819673767
 20
31.44625194418461
 10
46.47168547659508
 20
31.461196566058
 10
46.50489574742485
 20
31.46783862022396
 10
46.53533849568545
 20
31.46562460216867
 10
46.56135320783543
 20
31.45455451189208
 10
46.58293988387475
 20
31.43573535842185
 10
46.59899151477582
 20
31.40861363724422
 10
46.60840109151091
 20
31.37540336641445
 10
46.66984009254598
 20
31.00732286471797
 10
46.70526438143104
 20
30.86507220466383
 10
46.76504286892461
 20
30.71396547238844
 10
46.84640803245749
 20
30.55898420851625
 10
46.94659234946061
 20
30.40677046721317
 10
47.06172128833712
 20
30.26230578910374
 10
47.18736681297639
 20
30.13223222835384
 10
47.31910088726776
 20
30.02097782107413
 10
47.45138846607296
 20
29.93297060337529
 10
49.44787924745527
 20
28.78002070106885
 10
49.57573879014984
 20
28.71802819551995
 10
49.69418875610933
 20
28.68537142920401
 10
49.79824760470925
 20
28.68260390663489
 10
49.88514781338044
 20
28.71027913232634
 10
49.95046134601228
 20
28.76729009725075
 10
49.99197418454948
 20
28.85086927883897
 10
50.00802581545052
 20
28.95880265903569
 10
49.99806273420162
 20
29.08610869721643
 10
49.93662373316654
 20
29.45418919891292
 10
49.92721415643146
 20
29.48739946974269
 10
49.91171603004424
 20
29.51396768640649
 10
49.89012935400489
 20
29.53334034439051
 10
49.88736183143574
 20
29.53500085793202
 10
46.5591391897801
 20
31.45621502543355
  0
LWPOLYLINE
  5
13E
330
2
100
AcDbEntity
  8
0
100
AcDbPolyline
 90
       12
 70
     0
 43
0.0
 10
36.24015453846027
 20
22.73962594164956
 10
36.13609568986035
 20
22.80936751039206
 10
34.13905140396421
 20
23.96231741269851
 10
34.00953134772814
 20
24.02209590019208
 10
33.88443932760272
 20
24.05032463039738
 10
33.76931038872621
 20
24.04589659428676
 10
33.66857256720931
 20
24.00881179186019
 10
33.58554689013491
 20
23.94017723214533
 10
33.52410788909985
 20
23.84276043771137
 10
33.48646958215945
 20
23.72043594015512
 10
33.47373897834139
 20
23.57763177558716
 10
33.47373897834139
 20
20.83557041407675
  0
LWPOLYLINE
  5
13F
330
2
100
AcDbEntity
  8
0
100
AcDbPolyline
 90
       44
 70
     0
 43
0.0
 10
34.47226112128946
 20
21.49202676747831
 10
34.57244543829254
 20
21.23187964597851
 10
34.57465945634787
 20
21.22468408729873
 10
34.5768734744032
 20
21.21748852861898
 10
34.57853398794468
 20
21.20973946542534
 10
34.58019450148615
 20
21.20199040223173
 10
34.58130151051383
 20
21.1936878345243
 10
34.58240851954148
 20
21.18538526681687
 10
34.58296202405531
 20
21.17652919459561
 10
34.58296202405531
 20
21.16767312237432
 10
34.58296202405531
 20
20.99387270503193
 10
34.58185501502766
 20
20.98169560572769
 10
34.57853398794468
 20
20.97173252447875
 10
34.57355244732023
 20
20.96342995677132
 10
34.56691039315426
 20
20.95789491163301
 10
34.558054320933
 20
20.95457388455002
 10
34.54864474419789
 20
20.9540203800362
 10
34.53812815843513
 20
20.95678790260536
 10
34.5276115726724
 20
20.96176944322981
 10
34.51654148239581
 20
20.96896500190959
 10
34.50602489663304
 20
20.97892808315854
 10
34.49661531989793
 20
20.98999817343512
 10
34.4883127521905
 20
21.00272877725318
 10
34.48111719351071
 20
21.01656639009893
 10
34.47613565288627
 20
21.03040400294467
 10
34.47281462580328
 20
21.04479512030424
 10
34.47226112128946
 20
21.0575257241223
 10
34.47226112128946
 20
22.77062219442402
 10
34.4783496709416
 20
22.84202427670801
 10
34.49716882441176
 20
22.90290977322922
 10
34.52816507718623
 20
22.9516181704462
 10
34.56967791572342
 20
22.98593545030361
 10
34.62004682648187
 20
23.00475460377381
 10
34.67761129592015
 20
23.00696862182914
 10
34.74015730598284
 20
22.9931310089834
 10
34.80491733410089
 20
22.96268826072279
 10
35.4702297597237
 20
22.57855612812523
 10
35.53554329235555
 20
22.53372226250505
 10
35.59808930241827
 20
22.47560428855299
 10
35.65565377185651
 20
22.40696972883817
 10
35.70602268261499
 20
22.33003260141588
 10
35.74698201663837
 20
22.24811393336913
 10
35.7779782694128
 20
22.16398124726709
 10
35.79624391836917
 20
22.08593711081715
  0
LWPOLYLINE
  5
140
330
2
100
AcDbEntity
  8
0
100
AcDbPolyline
 90
       13
 70
     0
 43
0.0
 10
34.47226112128946
 20
22.32560456530525
 10
34.55860782544683
 20
22.37541997154988
 10
34.60620921363616
 20
22.39811365661688
 10
34.66045265599142
 20
22.41471879203178
 10
34.71912413445734
 20
22.42523537779451
 10
34.78056313549238
 20
22.42855640487748
 10
34.8414486320136
 20
22.42523537779451
 10
34.90067361499334
 20
22.41471879203178
 10
34.9549170573486
 20
22.39811365661688
 10
35.00251844553793
 20
22.37541997154988
 10
35.66783087116075
 20
21.99128783895234
 10
35.70712969164264
 20
21.9636126132609
 10
35.71432525032243
 20
21.95697055909493
  0
LWPOLYLINE
  5
141
330
2
100
AcDbEntity
  8
0
100
AcDbPolyline
 90
       12
 70
     0
 43
0.0
 10
32.24772648020946
 20
35.53831081492471
 10
32.23499587639137
 20
35.52890123818963
 10
32.0921917118234
 20
35.50952858020557
 10
31.91617727642568
 20
35.56487903158851
 10
31.73075326429288
 20
35.69052455622778
 10
31.55529233340898
 20
35.87096702773613
 10
31.44293091710163
 20
36.02096675098387
 10
31.42964680876974
 20
36.03701838188491
 10
31.41470218689635
 20
36.05030249021684
 10
31.40031106953678
 20
36.0591585624381
 10
31.38702696120486
 20
36.06192608500724
 10
31.38093841155277
 20
36.05971206695192
  0
LINE
  5
142
330
2
100
AcDbEntity
  8
0
100
AcDbLine
 10
31.37872439349743
 20
36.63923129293122
 30
0.0
 11
31.38758046571869
 21
36.63923129293122
 31
0.0
  0
LINE
  5
143
330
2
100
AcDbEntity
  8
0
100
AcDbLine
 10
31.38758046571869
 20
36.63923129293122
 30
0.0
 11
31.45455451189204
 21
36.6298217161961
 31
0.0
  0
LINE
  5
144
330
2
100
AcDbEntity
  8
0
100
AcDbLine
 10
31.45455451189204
 20
36.6298217161961
 30
0.0
 11
31.529277621259
 21
36.60380700404612
 31
0.0
  0
LINE
  5
145
330
2
100
AcDbEntity
  8
0
100
AcDbLine
 10
31.529277621259
 20
36.60380700404612
 30
0.0
 11
31.60787526222276
 21
36.56174066099511
 31
0.0
  0
LINE
  5
146
330
2
100
AcDbEntity
  8
0
100
AcDbLine
 10
31.60787526222276
 20
36.56174066099511
 30
0.0
 11
31.68868692124186
 21
36.50472969607069
 31
0.0
  0
LINE
  5
147
330
2
100
AcDbEntity
  8
0
100
AcDbLine
 10
31.68868692124186
 20
36.50472969607069
 30
0.0
 11
31.7689450757471
 21
36.43554163184201
 31
0.0
  0
LINE
  5
148
330
2
100
AcDbEntity
  8
0
100
AcDbLine
 10
31.7689450757471
 20
36.43554163184201
 30
0.0
 11
31.84643570768321
 21
36.35528347733678
 31
0.0
  0
LINE
  5
149
330
2
100
AcDbEntity
  8
0
100
AcDbLine
 10
31.84643570768321
 20
36.35528347733678
 30
0.0
 11
31.91783778996719
 21
36.26782976415176
 31
0.0
  0
LINE
  5
14A
330
2
100
AcDbEntity
  8
0
100
AcDbLine
 10
31.91783778996719
 20
36.26782976415176
 30
0.0
 11
31.98149080905756
 21
36.17484100582842
 31
0.0
  0
LINE
  5
14B
330
2
100
AcDbEntity
  8
0
100
AcDbLine
 10
31.98149080905756
 20
36.17484100582842
 30
0.0
 11
32.03518074689899
 21
36.07963822944976
 31
0.0
  0
LINE
  5
14C
330
2
100
AcDbEntity
  8
0
100
AcDbLine
 10
32.03518074689899
 20
36.07963822944976
 30
0.0
 11
32.07724708995002
 21
35.98554246209881
 31
0.0
  0
LINE
  5
14D
330
2
100
AcDbEntity
  8
0
100
AcDbLine
 10
32.07724708995002
 20
35.98554246209881
 30
0.0
 11
32.10602932466915
 21
35.89532122634461
 31
0.0
  0
LINE
  5
14E
330
2
100
AcDbEntity
  8
0
100
AcDbLine
 10
32.10602932466915
 20
35.89532122634461
 30
0.0
 11
32.12097394654254
 21
35.81174204475639
 31
0.0
  0
LINE
  5
14F
330
2
100
AcDbEntity
  8
0
100
AcDbLine
 10
32.12097394654254
 20
35.81174204475639
 30
0.0
 11
32.12152745105637
 21
35.73812594441708
 31
0.0
  0
LINE
  5
150
330
2
100
AcDbEntity
  8
0
100
AcDbLine
 10
32.12152745105637
 20
35.73812594441708
 30
0.0
 11
32.11377838786276
 21
35.69550609685224
 31
0.0
  0
ELLIPSE
  5
151
330
2
100
AcDbEntity
  8
0
100
AcDbEllipse
 10
31.67087692455288
 20
36.10835465466883
 30
0.0
 11
-0.1944683181231189
 21
0.2497888188891558
 31
0.0
210
0.0
220
0.0
230
1.0
 40
0.4649462416639517
 41
3.082609964180992
 42
5.432244712760292
  0
LWPOLYLINE
  5
152
330
2
100
AcDbEntity
  8
0
100
AcDbPolyline
 90
        9
 70
     0
 43
0.0
 10
31.44569843967079
 20
36.28111387248364
 10
31.44901946675377
 20
36.30823559366127
 10
31.45898254800267
 20
36.33591081935275
 10
31.47503417890375
 20
36.3558369818506
 10
31.49717435945692
 20
36.36912109018252
 10
31.52484958514837
 20
36.37410263080697
 10
31.55695284695045
 20
36.37078160372399
 10
31.59237713583555
 20
36.3597115134474
 10
31.63001544277594
 20
36.3408923599772
  0
LINE
  5
153
330
2
100
AcDbEntity
  8
0
100
AcDbLine
 10
30.59772952448428
 20
36.87613122485017
 30
0.0
 11
30.60990662378852
 21
36.88111276547461
 31
0.0
  0
LINE
  5
154
330
2
100
AcDbEntity
  8
0
100
AcDbLine
 10
30.60990662378852
 20
36.88111276547461
 30
0.0
 11
30.63702834496619
 21
36.8860943060991
 31
0.0
  0
LINE
  5
155
330
2
100
AcDbEntity
  8
0
100
AcDbLine
 10
30.63702834496619
 20
36.8860943060991
 30
0.0
 11
30.66913160676826
 21
36.88332678352995
 31
0.0
  0
LINE
  5
156
330
2
100
AcDbEntity
  8
0
100
AcDbLine
 10
30.66913160676826
 20
36.88332678352995
 30
0.0
 11
30.70455589565332
 21
36.87225669325336
 31
0.0
  0
LINE
  5
157
330
2
100
AcDbEntity
  8
0
100
AcDbLine
 10
30.70455589565332
 20
36.87225669325336
 30
0.0
 11
30.74274770710757
 21
36.85343753978316
 31
0.0
  0
LINE
  5
158
330
2
100
AcDbEntity
  8
0
100
AcDbLine
 10
30.74274770710757
 20
36.85343753978316
 30
0.0
 11
30.78149302307562
 21
36.82742282763318
 31
0.0
  0
LINE
  5
159
330
2
100
AcDbEntity
  8
0
100
AcDbLine
 10
30.78149302307562
 20
36.82742282763318
 30
0.0
 11
30.82079184355748
 21
36.79531956583107
 31
0.0
  0
LINE
  5
15A
330
2
100
AcDbEntity
  8
0
100
AcDbLine
 10
30.82079184355748
 20
36.79531956583107
 30
0.0
 11
30.85898365501173
 21
36.75823476340453
 31
0.0
  0
LINE
  5
15B
330
2
100
AcDbEntity
  8
0
100
AcDbLine
 10
30.85898365501173
 20
36.75823476340453
 30
0.0
 11
30.89496144841061
 21
36.7167219248673
 31
0.0
  0
LINE
  5
15C
330
2
100
AcDbEntity
  8
0
100
AcDbLine
 10
30.89496144841061
 20
36.7167219248673
 30
0.0
 11
30.92761821472655
 21
36.67244156376098
 31
0.0
  0
LINE
  5
15D
330
2
100
AcDbEntity
  8
0
100
AcDbLine
 10
30.92761821472655
 20
36.67244156376098
 30
0.0
 11
30.95529344041801
 21
36.62650068911312
 31
0.0
  0
LINE
  5
15E
330
2
100
AcDbEntity
  8
0
100
AcDbLine
 10
30.95529344041801
 20
36.62650068911312
 30
0.0
 11
30.97854062999883
 21
36.58000630995148
 31
0.0
  0
LINE
  5
15F
330
2
100
AcDbEntity
  8
0
100
AcDbLine
 10
30.97854062999883
 20
36.58000630995148
 30
0.0
 11
30.99514576541373
 21
36.5351724443313
 31
0.0
  0
LINE
  5
160
330
2
100
AcDbEntity
  8
0
100
AcDbLine
 10
30.99514576541373
 20
36.5351724443313
 30
0.0
 11
31.00621585569032
 21
36.49310610128028
 31
0.0
  0
LINE
  5
161
330
2
100
AcDbEntity
  8
0
100
AcDbLine
 10
31.00621585569032
 20
36.49310610128028
 30
0.0
 11
31.01009038728712
 21
36.45491428982607
 31
0.0
  0
LINE
  5
162
330
2
100
AcDbEntity
  8
0
100
AcDbLine
 10
31.01009038728712
 20
36.45491428982607
 30
0.0
 11
31.00676936020414
 21
36.42115051448248
 31
0.0
  0
LINE
  5
163
330
2
100
AcDbEntity
  8
0
100
AcDbLine
 10
31.00676936020414
 20
36.42115051448248
 30
0.0
 11
30.99735978346903
 21
36.39402879330481
 31
0.0
  0
LINE
  5
164
330
2
100
AcDbEntity
  8
0
100
AcDbLine
 10
30.99735978346903
 20
36.39402879330481
 30
0.0
 11
30.98075464805416
 21
36.37354912629314
 31
0.0
  0
LINE
  5
165
330
2
100
AcDbEntity
  8
0
100
AcDbLine
 10
30.98075464805416
 20
36.37354912629314
 30
0.0
 11
30.9702380622914
 21
36.36635356761336
 31
0.0
  0
LWPOLYLINE
  5
166
330
2
100
AcDbEntity
  8
0
100
AcDbPolyline
 90
        3
 70
     0
 43
0.0
 10
24.95253698793915
 20
7.373787133234082
 10
24.92541526676152
 20
7.382643205455338
 10
24.88888396884877
 20
7.398694836356414
  0
LWPOLYLINE
  5
167
330
2
100
AcDbEntity
  8
0
100
AcDbPolyline
 90
        2
 70
     0
 43
0.0
 10
22.30291088023825
 20
9.918247383307411
 10
22.3078924208627
 20
9.90883780657233
  0
LINE
  5
168
330
2
100
AcDbEntity
  8
0
100
AcDbLine
 10
30.94422335014142
 20
34.71469609834671
 30
0.0
 11
30.98739670222012
 21
34.73462226084456
 31
0.0
  0
LINE
  5
169
330
2
100
AcDbEntity
  8
0
100
AcDbLine
 10
30.98739670222012
 20
34.73462226084456
 30
0.0
 11
31.02890954075732
 21
34.74403183757964
 31
0.0
  0
LINE
  5
16A
330
2
100
AcDbEntity
  8
0
100
AcDbLine
 10
31.02890954075732
 20
34.74403183757964
 30
0.0
 11
31.06710135221153
 21
34.74237132403816
 31
0.0
  0
LINE
  5
16B
330
2
100
AcDbEntity
  8
0
100
AcDbLine
 10
31.06710135221153
 20
34.74237132403816
 30
0.0
 11
31.10086512755512
 21
34.73019422473393
 31
0.0
  0
LINE
  5
16C
330
2
100
AcDbEntity
  8
0
100
AcDbLine
 10
31.10086512755512
 20
34.73019422473393
 30
0.0
 11
31.12854035324657
 21
34.70750053966693
 31
0.0
  0
LINE
  5
16D
330
2
100
AcDbEntity
  8
0
100
AcDbLine
 10
31.12854035324657
 20
34.70750053966693
 30
0.0
 11
31.14902002025828
 21
34.67484377335099
 31
0.0
  0
LINE
  5
16E
330
2
100
AcDbEntity
  8
0
100
AcDbLine
 10
31.14902002025828
 20
34.67484377335099
 30
0.0
 11
31.16175062407634
 21
34.63388443932762
 31
0.0
  0
LINE
  5
16F
330
2
100
AcDbEntity
  8
0
100
AcDbLine
 10
31.16175062407634
 20
34.63388443932762
 30
0.0
 11
31.16562515567314
 21
34.58628305113828
 31
0.0
  0
LINE
  5
170
330
2
100
AcDbEntity
  8
0
100
AcDbLine
 10
31.16562515567314
 20
34.58628305113828
 30
0.0
 11
30.93259975535101
 21
34.72078464799881
 31
0.0
  0
LINE
  5
171
330
2
100
AcDbEntity
  8
0
100
AcDbLine
 10
30.93259975535101
 20
34.72078464799881
 30
0.0
 11
30.92152966507442
 21
34.72687319765095
 31
0.0
  0
LINE
  5
172
330
2
100
AcDbEntity
  8
0
100
AcDbLine
 10
30.92152966507442
 20
34.72687319765095
 30
0.0
 11
30.90935256577018
 21
34.73296174730308
 31
0.0
  0
LINE
  5
173
330
2
100
AcDbEntity
  8
0
100
AcDbLine
 10
30.90935256577018
 20
34.73296174730308
 30
0.0
 11
30.89717546646595
 21
34.73849679244136
 31
0.0
  0
LINE
  5
174
330
2
100
AcDbEntity
  8
0
100
AcDbLine
 10
30.89717546646595
 20
34.73849679244136
 30
0.0
 11
30.88444486264785
 21
34.74347833306581
 31
0.0
  0
LINE
  5
175
330
2
100
AcDbEntity
  8
0
100
AcDbLine
 10
30.88444486264785
 20
34.74347833306581
 30
0.0
 11
30.87116075431597
 21
34.7484598736903
 31
0.0
  0
LINE
  5
176
330
2
100
AcDbEntity
  8
0
100
AcDbLine
 10
30.87116075431597
 20
34.7484598736903
 30
0.0
 11
30.85787664598405
 21
34.75288790980093
 31
0.0
  0
LINE
  5
177
330
2
100
AcDbEntity
  8
0
100
AcDbLine
 10
30.85787664598405
 20
34.75288790980093
 30
0.0
 11
30.84403903313834
 21
34.75676244139773
 31
0.0
  0
LINE
  5
178
330
2
100
AcDbEntity
  8
0
100
AcDbLine
 10
30.84403903313834
 20
34.75676244139773
 30
0.0
 11
30.82964791577877
 21
34.76063697299454
 31
0.0
  0
ARC
  5
179
330
2
100
AcDbEntity
  8
0
100
AcDbCircle
 10
24.99937224528811
 20
9.402896228840127
 30
0.0
 40
26.01936067703555
100
AcDbArc
 50
77.05153760130499
 51
102.0822785283811
  0
LINE
  5
17A
330
2
100
AcDbEntity
  8
0
100
AcDbLine
 10
19.55310045553422
 20
34.84587666812426
 30
0.0
 11
19.55310045553422
 21
34.65381060182546
 31
0.0
  0
LINE
  5
17B
330
2
100
AcDbEntity
  8
0
100
AcDbLine
 10
19.39645867812053
 20
34.75620893688391
 30
0.0
 11
19.43022245346412
 21
34.76838603618814
 31
0.0
  0
LINE
  5
17C
330
2
100
AcDbEntity
  8
0
100
AcDbLine
 10
19.43022245346412
 20
34.76838603618814
 30
0.0
 11
19.46841426491833
 21
34.77004654972965
 31
0.0
  0
LINE
  5
17D
330
2
100
AcDbEntity
  8
0
100
AcDbLine
 10
19.46841426491833
 20
34.77004654972965
 30
0.0
 11
19.50992710345553
 21
34.76063697299454
 31
0.0
  0
LINE
  5
17E
330
2
100
AcDbEntity
  8
0
100
AcDbLine
 10
19.50992710345553
 20
34.76063697299454
 30
0.0
 11
19.55365396004806
 21
34.74071081049669
 31
0.0
  0
LINE
  5
17F
330
2
100
AcDbEntity
  8
0
100
AcDbLine
 10
10.79831956029603
 20
33.01765125894603
 30
0.0
 11
16.73465547111538
 21
36.4443977040633
 31
0.0
  0
LINE
  5
180
330
2
100
AcDbEntity
  8
0
100
AcDbLine
 10
16.73465547111538
 20
36.4443977040633
 30
0.0
 11
16.77782882319406
 21
36.46432386656115
 31
0.0
  0
LINE
  5
181
330
2
100
AcDbEntity
  8
0
100
AcDbLine
 10
16.77782882319406
 20
36.46432386656115
 30
0.0
 11
16.81934166173126
 21
36.47373344329626
 31
0.0
  0
LINE
  5
182
330
2
100
AcDbEntity
  8
0
100
AcDbLine
 10
16.81934166173126
 20
36.47373344329626
 30
0.0
 11
16.85753347318548
 21
36.47262643426858
 31
0.0
  0
LINE
  5
183
330
2
100
AcDbEntity
  8
0
100
AcDbLine
 10
16.85753347318548
 20
36.47262643426858
 30
0.0
 11
16.89129724852907
 21
36.45989583045052
 31
0.0
  0
LINE
  5
184
330
2
100
AcDbEntity
  8
0
100
AcDbLine
 10
16.89129724852907
 20
36.45989583045052
 30
0.0
 11
16.91897247422053
 21
36.43720214538352
 31
0.0
  0
LINE
  5
185
330
2
100
AcDbEntity
  8
0
100
AcDbLine
 10
16.91897247422053
 20
36.43720214538352
 30
0.0
 11
16.93945214123222
 21
36.40454537906758
 31
0.0
  0
LINE
  5
186
330
2
100
AcDbEntity
  8
0
100
AcDbLine
 10
16.93945214123222
 20
36.40454537906758
 30
0.0
 11
16.9521827450503
 21
36.36413954955803
 31
0.0
  0
LINE
  5
187
330
2
100
AcDbEntity
  8
0
100
AcDbLine
 10
16.9521827450503
 20
36.36413954955803
 30
0.0
 11
16.9560572766471
 21
36.31653816136874
 31
0.0
  0
LINE
  5
188
330
2
100
AcDbEntity
  8
0
100
AcDbLine
 10
16.9560572766471
 20
36.31653816136874
 30
0.0
 11
16.9560572766471
 21
33.88222530954742
 31
0.0
  0
LINE
  5
189
330
2
100
AcDbEntity
  8
0
100
AcDbLine
 10
16.9560572766471
 20
33.88222530954742
 30
0.0
 11
16.95827129470242
 21
33.85842461545274
 31
0.0
  0
LINE
  5
18A
330
2
100
AcDbEntity
  8
0
100
AcDbLine
 10
16.95827129470242
 20
33.85842461545274
 30
0.0
 11
16.96491334886836
 21
33.83794494844107
 31
0.0
  0
LINE
  5
18B
330
2
100
AcDbEntity
  8
0
100
AcDbLine
 10
16.96491334886836
 20
33.83794494844107
 30
0.0
 11
16.9748764301173
 21
33.82189331754003
 31
0.0
  0
LINE
  5
18C
330
2
100
AcDbEntity
  8
0
100
AcDbLine
 10
16.9748764301173
 20
33.82189331754003
 30
0.0
 11
16.98871404296302
 21
33.81026972274963
 31
0.0
  0
LINE
  5
18D
330
2
100
AcDbEntity
  8
0
100
AcDbLine
 10
16.98871404296302
 20
33.81026972274963
 30
0.0
 11
17.00587268289173
 21
33.80418117309748
 31
0.0
  0
LINE
  5
18E
330
2
100
AcDbEntity
  8
0
100
AcDbLine
 10
17.00587268289173
 20
33.80418117309748
 30
0.0
 11
17.02469183636193
 21
33.80307416406984
 31
0.0
  0
LINE
  5
18F
330
2
100
AcDbEntity
  8
0
100
AcDbLine
 10
17.02469183636193
 20
33.80307416406984
 30
0.0
 11
17.04572500788744
 21
33.80805570469429
 31
0.0
  0
LINE
  5
190
330
2
100
AcDbEntity
  8
0
100
AcDbLine
 10
17.04572500788744
 20
33.80805570469429
 30
0.0
 11
17.06731168392679
 21
33.81801878594323
 31
0.0
  0
LINE
  5
191
330
2
100
AcDbEntity
  8
0
100
AcDbLine
 10
17.06731168392679
 20
33.81801878594323
 30
0.0
 11
19.11970642120587
 21
35.00307195005178
 31
0.0
  0
LWPOLYLINE
  5
192
330
2
100
AcDbEntity
  8
0
100
AcDbPolyline
 90
       11
 70
     0
 43
0.0
 10
31.60953577576427
 20
21.30660275534547
 10
31.60953577576427
 20
22.54368534375399
 10
31.61174979381957
 20
22.56748603784864
 10
31.61783834347171
 20
22.58741220034652
 10
31.62835492923447
 20
22.60401733576138
 10
31.64219254208017
 20
22.61564093055179
 10
31.65879767749508
 20
22.62172948020393
 10
31.6781703354791
 20
22.62228298471775
 10
31.69865000249076
 20
22.61785494860713
 10
31.72079018304394
 20
22.60733836284436
 10
33.47373897834139
 20
21.59557317327648
  0
LWPOLYLINE
  5
193
330
2
100
AcDbEntity
  8
0
100
AcDbPolyline
 90
        2
 70
     0
 43
0.0
 10
31.16562515567314
 20
34.58628305113828
 10
31.16562515567314
 20
34.58628305113828
  0
ELLIPSE
  5
194
330
2
100
AcDbEntity
  8
0
100
AcDbEllipse
 10
13.18403814110739
 20
28.62951595461797
 30
0.0
 11
0.2349562437292223
 21
0.4079041929261026
 31
0.0
210
0.0
220
0.0
230
1.0
 40
0.576962702987867
 41
5.496352568947489
 42
11.77953787612707
  0
LWPOLYLINE
  5
195
330
2
100
AcDbEntity
  8
0
100
AcDbPolyline
 90
       11
 70
     0
 43
0.0
 10
30.16710301272507
 20
34.90676216464547
 10
29.55880155202667
 20
35.2582375309271
 10
29.5444104346671
 20
35.26598659412071
 10
29.52946581279371
 20
35.27318215280049
 10
29.51396768640649
 20
35.27927070245258
 10
29.49791605550545
 20
35.28535925210473
 10
29.48075741557673
 20
35.290894297243
 10
29.46359877564804
 20
35.29587583786749
 10
29.44533312669167
 20
35.29975036946429
 10
29.42706747773529
 20
35.3036249010611
 42
0.0999009869955663
 10
19.11970642120587
 20
35.00307195005178
  0
ARC
  5
196
330
2
100
AcDbEntity
  8
0
100
AcDbCircle
 10
13.75170826866453
 20
28.30195234025027
 30
0.0
 40
0.6709849010146298
100
AcDbArc
 50
111.7800852064591
 51
188.2184592321055
  0
LINE
  5
197
330
2
100
AcDbEntity
  8
0
100
AcDbLine
 10
39.48701201658302
 20
29.52669829022458
 30
0.0
 11
39.65140285719029
 21
29.43149551384592
 31
0.0
  0
LINE
  5
198
330
2
100
AcDbEntity
  8
0
100
AcDbLine
 10
39.65140285719029
 20
29.43149551384592
 30
0.0
 11
39.66468696552222
 21
29.42374645065232
 31
0.0
  0
LINE
  5
199
330
2
100
AcDbEntity
  8
0
100
AcDbLine
 10
39.66468696552222
 20
29.42374645065232
 30
0.0
 11
39.67686406482645
 21
29.41489037843106
 31
0.0
  0
LINE
  5
19A
330
2
100
AcDbEntity
  8
0
100
AcDbLine
 10
39.67686406482645
 20
29.41489037843106
 30
0.0
 11
39.68848765961686
 21
29.40603430620976
 31
0.0
  0
LINE
  5
19B
330
2
100
AcDbEntity
  8
0
100
AcDbLine
 10
39.68848765961686
 20
29.40603430620976
 30
0.0
 11
39.69900424537963
 21
29.39662472947468
 31
0.0
  0
LINE
  5
19C
330
2
100
AcDbEntity
  8
0
100
AcDbLine
 10
39.69900424537963
 20
29.39662472947468
 30
0.0
 11
39.70841382211474
 21
29.38666164822575
 31
0.0
  0
LINE
  5
19D
330
2
100
AcDbEntity
  8
0
100
AcDbLine
 10
39.70841382211474
 20
29.38666164822575
 30
0.0
 11
39.71671638982217
 21
29.37669856697684
 31
0.0
  0
LINE
  5
19E
330
2
100
AcDbEntity
  8
0
100
AcDbLine
 10
39.71671638982217
 20
29.37669856697684
 30
0.0
 11
39.72391194850196
 21
29.36618198121408
 31
0.0
  0
LINE
  5
19F
330
2
100
AcDbEntity
  8
0
100
AcDbLine
 10
39.72391194850196
 20
29.36618198121408
 30
0.0
 11
39.73000049815409
 21
29.35566539545132
 31
0.0
  0
LINE
  5
1A0
330
2
100
AcDbEntity
  8
0
100
AcDbLine
 10
39.73000049815409
 20
29.35566539545132
 30
0.0
 11
39.91653151931455
 21
28.96544471320165
 31
0.0
  0
LINE
  5
1A1
330
2
100
AcDbEntity
  8
0
100
AcDbLine
 10
39.91653151931455
 20
28.96544471320165
 30
0.0
 11
40.0720662877006
 21
28.57024249032754
 31
0.0
  0
LINE
  5
1A2
330
2
100
AcDbEntity
  8
0
100
AcDbLine
 10
40.0720662877006
 20
28.57024249032754
 30
0.0
 11
40.19605129879836
 21
28.17171924037041
 31
0.0
  0
LINE
  5
1A3
330
2
100
AcDbEntity
  8
0
100
AcDbLine
 10
40.19605129879836
 20
28.17171924037041
 30
0.0
 11
40.28848655260783
 21
27.77042846784416
 31
0.0
  0
LINE
  5
1A4
330
2
100
AcDbEntity
  8
0
100
AcDbLine
 10
40.28848655260783
 20
27.77042846784416
 30
0.0
 11
40.34881854461523
 21
27.36692367726261
 31
0.0
  0
LINE
  5
1A5
330
2
100
AcDbEntity
  8
0
100
AcDbLine
 10
40.34881854461523
 20
27.36692367726261
 30
0.0
 11
40.37760077933437
 21
26.96175837313955
 31
0.0
  0
LINE
  5
1A6
330
2
100
AcDbEntity
  8
0
100
AcDbLine
 10
40.37760077933437
 20
26.96175837313955
 30
0.0
 11
40.37981479738969
 21
26.8023490731567
 31
0.0
  0
LINE
  5
1A7
330
2
100
AcDbEntity
  8
0
100
AcDbLine
 10
40.37981479738969
 20
26.8023490731567
 30
0.0
 11
40.37981479738969
 21
26.71987690059613
 31
0.0
  0
LINE
  5
1A8
330
2
100
AcDbEntity
  8
0
100
AcDbLine
 10
31.36101224905488
 20
36.04974898570298
 30
0.0
 11
31.38093841155277
 21
36.05971206695192
 31
0.0
  0
ARC
  5
1A9
330
2
100
AcDbEntity
  8
0
100
AcDbCircle
 10
31.47853602297015
 20
36.12892926932256
 30
0.0
 40
0.1679966626430951
100
AcDbArc
 50
121.4426241212981
 51
147.9756978340352
  0
ELLIPSE
  5
1AA
330
2
100
AcDbEntity
  8
0
100
AcDbEllipse
 10
33.53767591393197
 20
35.30183078774502
 30
0.0
 11
-0.4365381817094859
 21
0.561719506875039
 31
0.0
210
0.0
220
0.0
230
1.0
 40
0.4623860642595603
 41
4.599860787452948
 42
9.410508297700328
  0
ELLIPSE
  5
1AB
330
2
100
AcDbEntity
  8
0
100
AcDbEllipse
 10
34.4251711284544
 20
34.78964920368299
 30
0.0
 11
-0.4364151532233684
 21
0.5614965967927818
 31
0.0
210
0.0
220
0.0
230
1.0
 40
0.4623764486778941
 41
1.458212714182629
 42
6.335823022730968
  0
LINE
  5
1AC
330
2
100
AcDbEntity
  8
0
100
AcDbLine
 10
33.84469770350982
 20
35.43928885740064
 30
0.0
 11
33.8707124156598
 21
35.40054354143256
 31
0.0
  0
LINE
  5
1AD
330
2
100
AcDbEntity
  8
0
100
AcDbLine
 10
33.8707124156598
 20
35.40054354143256
 30
0.0
 11
33.89562011878211
 21
35.3612447209507
 31
0.0
  0
LINE
  5
1AE
330
2
100
AcDbEntity
  8
0
100
AcDbLine
 10
33.89562011878211
 20
35.3612447209507
 30
0.0
 11
33.91886730836296
 21
35.32139239595498
 31
0.0
  0
LINE
  5
1AF
330
2
100
AcDbEntity
  8
0
100
AcDbLine
 10
33.94820304759588
 20
35.30423375602629
 30
0.0
 11
33.96093365141398
 21
35.32360641401031
 31
0.0
  0
LINE
  5
1B0
330
2
100
AcDbEntity
  8
0
100
AcDbLine
 10
33.96093365141398
 20
35.32360641401031
 30
0.0
 11
33.97532476877351
 21
35.34021154942517
 31
0.0
  0
ELLIPSE
  5
1B1
330
2
100
AcDbEntity
  8
0
100
AcDbEllipse
 10
34.06058538892732
 20
34.61391588290985
 30
0.0
 11
-0.0902203407101138
 21
0.1241296396943949
 31
0.0
210
0.0
220
0.0
230
0.9999999999999998
 40
0.451495974529793
 41
4.693699271749114
 42
6.288551396542294
  0
LINE
  5
1B2
330
2
100
AcDbEntity
  8
0
100
AcDbLine
 10
33.94820304759588
 20
35.30423375602629
 30
0.0
 11
33.91886730836296
 21
35.32139239595498
 31
0.0
  0
ELLIPSE
  5
1B3
330
2
100
AcDbEntity
  8
0
100
AcDbEllipse
 10
33.49432670847473
 20
35.27105449462607
 30
0.0
 11
-0.479233996594251
 21
0.6191790299143363
 31
0.0
210
0.0
220
0.0
230
1.0
 40
0.4991232593503038
 41
4.602526199837116
 42
6.282321726643449
  0
ELLIPSE
  5
1B4
330
2
100
AcDbEntity
  8
0
100
AcDbEllipse
 10
34.38425718463185
 20
34.75556669377539
 30
0.0
 11
-0.4822292227623877
 21
0.6225410255907207
 31
0.0
210
0.0
220
0.0
230
1.0
 40
0.4967536139691708
 41
3.05548504918508
 42
6.251158535425241
  0
LWPOLYLINE
  5
1B5
330
2
100
AcDbEntity
  8
0
100
AcDbPolyline
 90
       16
 70
     0
 43
0.0
 10
33.01535977722326
 20
35.89043985936223
 10
32.96064029402161
 20
35.86321796454249
 10
32.91414591485996
 20
35.82336563954681
 10
32.88038213951637
 20
35.76248014302556
 10
32.86377700410151
 20
35.68498951108944
 10
32.86543751764298
 20
35.59200075276614
 10
32.88481017562701
 20
35.48794190416622
 10
32.92134147353974
 20
35.37558048785887
 10
32.97392440235353
 20
35.25823753092707
 10
33.04145195304071
 20
35.1403410694814
 10
33.1925586853161
 20
34.92890234519862
 10
33.36746611168617
 20
34.74735286466263
 10
33.55289012381898
 20
34.62004682648188
 10
33.72945806373056
 20
34.56248235704361
 10
33.87336923732617
 20
34.57964099697233
 10
33.89052787725486
 20
34.58960407822124
  0
LWPOLYLINE
  5
1B6
330
2
100
AcDbEntity
  8
0
100
AcDbPolyline
 90
       16
 70
     0
 43
0.0
 10
33.86562017413256
 20
34.75786945042535
 10
33.85067555225916
 20
34.74735286466263
 10
33.81026972274963
 20
34.74071081049666
 10
33.75491927136668
 20
34.74679936014876
 10
33.6813031710274
 20
34.77115355875727
 10
33.59938450298066
 20
34.81432691083594
 10
33.51137728528178
 20
34.87521240735719
 10
33.42170955404143
 20
34.95325654380713
 10
33.33480934537023
 20
35.04513829310277
 10
33.32761378669045
 20
35.0534408608102
 10
33.254551190865
 20
35.14642961913355
 10
33.18425611760867
 20
35.25325599030261
 10
33.12724515268425
 20
35.36118937049931
 10
33.08573231414705
 20
35.46524821909923
 10
33.06137811553855
 20
35.5593439864502
 10
33.05362905234495
 20
35.68997105171393
  0
LWPOLYLINE
  5
1B7
330
2
100
AcDbEntity
  8
0
100
AcDbPolyline
 90
       28
 70
     0
 43
0.0
 10
34.64329401606273
 20
34.23536118937049
 10
34.60067416849789
 20
34.24643127964708
 10
34.52152302302029
 20
34.28185556853214
 10
34.43572982337675
 20
34.33554550637361
 10
34.34606209213639
 20
34.40694758865759
 10
34.26082239700668
 20
34.48997326573198
 10
34.2575013699237
 20
34.49329429281496
 10
34.1744756928493
 20
34.59126459176275
 10
34.09919907896852
 20
34.69643044939031
 10
34.05768624043132
 20
34.76561851361899
 10
34.05491871786217
 20
34.77004654972962
 10
34.05215119529305
 20
34.77447458584025
 10
34.04883016821007
 20
34.77834911743705
 10
34.04495563661327
 20
34.78222364903386
 10
34.04108110501646
 20
34.78554467611683
 10
34.03720657341966
 20
34.78886570319982
 10
34.03277853730898
 20
34.7921867302828
 10
34.02835050119836
 20
34.79495425285192
 10
33.9990147619654
 20
34.81211289278064
 10
33.99015868974415
 20
34.81654092889127
 10
33.98019560849521
 20
34.81986195597425
 10
33.9702325272463
 20
34.82152246951572
 10
33.95971594148354
 20
34.82262947854341
 10
33.9497528602346
 20
34.82152246951572
 10
33.9397897789857
 20
34.81986195597425
 10
33.92982669773676
 20
34.81654092889127
 10
33.92041712100164
 20
34.81211289278064
 10
33.79919963247303
 20
34.74181781952431
  0
LINE
  5
1B8
330
2
100
AcDbEntity
  8
0
100
AcDbLine
 10
33.05362905234495
 20
35.68997105171393
 30
0.0
 11
33.06303862908006
 21
35.68886404268628
 31
0.0
  0
LINE
  5
1B9
330
2
100
AcDbEntity
  8
0
100
AcDbLine
 10
33.06303862908006
 20
35.68886404268628
 30
0.0
 11
33.13444071136404
 21
35.67059839372991
 31
0.0
  0
LINE
  5
1BA
330
2
100
AcDbEntity
  8
0
100
AcDbLine
 10
33.13444071136404
 20
35.67059839372991
 30
0.0
 11
33.21137783878629
 21
35.63628111387249
 31
0.0
  0
LINE
  5
1BB
330
2
100
AcDbEntity
  8
0
100
AcDbLine
 10
33.21137783878629
 20
35.63628111387249
 30
0.0
 11
33.29163599329156
 21
35.58646570762783
 31
0.0
  0
LINE
  5
1BC
330
2
100
AcDbEntity
  8
0
100
AcDbLine
 10
33.29163599329156
 20
35.58646570762783
 30
0.0
 11
33.37244765231063
 21
35.52281268853746
 31
0.0
  0
LINE
  5
1BD
330
2
100
AcDbEntity
  8
0
100
AcDbLine
 10
33.37244765231063
 20
35.52281268853746
 30
0.0
 11
33.45159879778821
 21
35.44753607465668
 31
0.0
  0
LINE
  5
1BE
330
2
100
AcDbEntity
  8
0
100
AcDbLine
 10
33.45159879778821
 20
35.44753607465668
 30
0.0
 11
33.52576840264135
 21
35.36340338855464
 31
0.0
  0
LINE
  5
1BF
330
2
100
AcDbEntity
  8
0
100
AcDbLine
 10
33.52576840264135
 20
35.36340338855464
 30
0.0
 11
33.59384945784235
 21
35.27262864828664
 31
0.0
  0
LINE
  5
1C0
330
2
100
AcDbEntity
  8
0
100
AcDbLine
 10
33.59384945784235
 20
35.27262864828664
 30
0.0
 11
33.65252093630827
 21
35.1779793764218
 31
0.0
  0
LINE
  5
1C1
330
2
100
AcDbEntity
  8
0
100
AcDbLine
 10
33.65252093630827
 20
35.1779793764218
 30
0.0
 11
33.66137700852953
 21
35.16469526808992
 31
0.0
  0
LINE
  5
1C2
330
2
100
AcDbEntity
  8
0
100
AcDbLine
 10
33.66137700852953
 20
35.16469526808992
 30
0.0
 11
33.67134008977847
 21
35.15196466427182
 31
0.0
  0
LINE
  5
1C3
330
2
100
AcDbEntity
  8
0
100
AcDbLine
 10
33.67134008977847
 20
35.15196466427182
 30
0.0
 11
33.68185667554123
 21
35.13978756496758
 31
0.0
  0
LINE
  5
1C4
330
2
100
AcDbEntity
  8
0
100
AcDbLine
 10
33.68185667554123
 20
35.13978756496758
 30
0.0
 11
33.69348027033164
 21
35.12982448371865
 31
0.0
  0
LINE
  5
1C5
330
2
100
AcDbEntity
  8
0
100
AcDbLine
 10
33.69348027033164
 20
35.12982448371865
 30
0.0
 11
33.70510386512206
 21
35.12207542052503
 31
0.0
  0
LINE
  5
1C6
330
2
100
AcDbEntity
  8
0
100
AcDbLine
 10
33.70510386512206
 20
35.12207542052503
 30
0.0
 11
33.73443960435501
 21
35.10547028511016
 31
0.0
  0
LINE
  5
1C7
330
2
100
AcDbEntity
  8
0
100
AcDbLine
 10
33.73443960435501
 20
35.10547028511016
 30
0.0
 11
33.74606319914543
 21
35.09993523997189
 31
0.0
  0
LINE
  5
1C8
330
2
100
AcDbEntity
  8
0
100
AcDbLine
 10
33.74606319914543
 20
35.09993523997189
 30
0.0
 11
33.75602628039437
 21
35.09716771740273
 31
0.0
  0
LINE
  5
1C9
330
2
100
AcDbEntity
  8
0
100
AcDbLine
 10
33.75602628039437
 20
35.09716771740273
 30
0.0
 11
33.76488235261561
 21
35.09772122191656
 31
0.0
  0
LINE
  5
1CA
330
2
100
AcDbEntity
  8
0
100
AcDbLine
 10
33.76488235261561
 20
35.09772122191656
 30
0.0
 11
33.77097090226772
 21
35.09993523997189
 31
0.0
  0
LINE
  5
1CB
330
2
100
AcDbEntity
  8
0
100
AcDbLine
 10
33.77097090226772
 20
35.09993523997189
 30
0.0
 11
33.90854313131217
 21
35.17908638544948
 31
0.0
  0
LWPOLYLINE
  5
1CC
330
2
100
AcDbEntity
  8
0
100
AcDbPolyline
 90
        3
 70
     0
 43
0.0
 10
34.77834911743708
 20
34.07595188938767
 10
34.82871802819557
 20
34.10528762862063
 10
34.837020595903
 20
34.11026916924508
  0
LINE
  5
1CD
330
2
100
AcDbEntity
  8
0
100
AcDbLine
 10
33.91211455329421
 20
35.38554356910781
 30
0.0
 11
33.90104446301762
 21
35.39273912778759
 31
0.0
  0
LINE
  5
1CE
330
2
100
AcDbEntity
  8
0
100
AcDbLine
 10
33.90104446301762
 20
35.39273912778759
 30
0.0
 11
33.8855463366304
 21
35.40491622709183
 31
0.0
  0
LINE
  5
1CF
330
2
100
AcDbEntity
  8
0
100
AcDbLine
 10
33.8855463366304
 20
35.40491622709183
 30
0.0
 11
33.86728068767403
 21
35.42428888507585
 31
0.0
  0
LINE
  5
1D0
330
2
100
AcDbEntity
  8
0
100
AcDbLine
 10
33.86728068767403
 20
35.42428888507585
 30
0.0
 11
33.85399657934215
 21
35.44089402049075
 31
0.0
  0
LWPOLYLINE
  5
1D1
330
2
100
AcDbEntity
  8
0
100
AcDbPolyline
 90
       12
 70
     0
 43
0.0
 10
34.77724210840943
 20
34.07816590744296
 10
34.76451150459134
 20
34.06875633070789
 10
34.62170734002338
 20
34.04938367272383
 10
34.44569290462565
 20
34.10473412410677
 10
34.26026889249285
 20
34.23037964874604
 10
34.08480796160894
 20
34.41082212025439
 10
33.9724465453016
 20
34.56082184350214
 10
33.95916243696972
 20
34.57687347440317
 10
33.94421781509632
 20
34.5901575827351
 10
33.92982669773676
 20
34.59901365495635
 10
33.91654258940484
 20
34.6017811775255
 10
33.91045403975274
 20
34.59956715947018
  0
LINE
  5
1D2
330
2
100
AcDbEntity
  8
0
100
AcDbLine
 10
33.9082400216974
 20
35.17908638544948
 30
0.0
 11
33.91709609391866
 21
35.17908638544948
 31
0.0
  0
LINE
  5
1D3
330
2
100
AcDbEntity
  8
0
100
AcDbLine
 10
33.91709609391866
 20
35.17908638544948
 30
0.0
 11
33.98407014009201
 21
35.16967680871437
 31
0.0
  0
LINE
  5
1D4
330
2
100
AcDbEntity
  8
0
100
AcDbLine
 10
33.98407014009201
 20
35.16967680871437
 30
0.0
 11
34.05879324945897
 21
35.14366209656439
 31
0.0
  0
LINE
  5
1D5
330
2
100
AcDbEntity
  8
0
100
AcDbLine
 10
34.05879324945897
 20
35.14366209656439
 30
0.0
 11
34.13739089042274
 21
35.10159575351337
 31
0.0
  0
LINE
  5
1D6
330
2
100
AcDbEntity
  8
0
100
AcDbLine
 10
34.13739089042274
 20
35.10159575351337
 30
0.0
 11
34.21820254944183
 21
35.04458478858895
 31
0.0
  0
LINE
  5
1D7
330
2
100
AcDbEntity
  8
0
100
AcDbLine
 10
34.21820254944183
 20
35.04458478858895
 30
0.0
 11
34.29846070394706
 21
34.97539672436027
 31
0.0
  0
LINE
  5
1D8
330
2
100
AcDbEntity
  8
0
100
AcDbLine
 10
34.29846070394706
 20
34.97539672436027
 30
0.0
 11
34.37595133588318
 21
34.89513856985503
 31
0.0
  0
LINE
  5
1D9
330
2
100
AcDbEntity
  8
0
100
AcDbLine
 10
34.37595133588318
 20
34.89513856985503
 30
0.0
 11
34.44735341816716
 21
34.80768485667002
 31
0.0
  0
LINE
  5
1DA
330
2
100
AcDbEntity
  8
0
100
AcDbLine
 10
34.44735341816716
 20
34.80768485667002
 30
0.0
 11
34.51100643725754
 21
34.71469609834668
 31
0.0
  0
LINE
  5
1DB
330
2
100
AcDbEntity
  8
0
100
AcDbLine
 10
34.51100643725754
 20
34.71469609834668
 30
0.0
 11
34.56469637509896
 21
34.61949332196802
 31
0.0
  0
LINE
  5
1DC
330
2
100
AcDbEntity
  8
0
100
AcDbLine
 10
34.56469637509896
 20
34.61949332196802
 30
0.0
 11
34.60676271814998
 21
34.52539755461707
 31
0.0
  0
LINE
  5
1DD
330
2
100
AcDbEntity
  8
0
100
AcDbLine
 10
34.60676271814998
 20
34.52539755461707
 30
0.0
 11
34.63554495286913
 21
34.43517631886287
 31
0.0
  0
LINE
  5
1DE
330
2
100
AcDbEntity
  8
0
100
AcDbLine
 10
34.63554495286913
 20
34.43517631886287
 30
0.0
 11
34.65048957474251
 21
34.35159713727465
 31
0.0
  0
LINE
  5
1DF
330
2
100
AcDbEntity
  8
0
100
AcDbLine
 10
34.65048957474251
 20
34.35159713727465
 30
0.0
 11
34.65104307925634
 21
34.27798103693534
 31
0.0
  0
LINE
  5
1E0
330
2
100
AcDbEntity
  8
0
100
AcDbLine
 10
34.65104307925634
 20
34.27798103693534
 30
0.0
 11
34.64329401606273
 21
34.23536118937049
 31
0.0
  0
ELLIPSE
  5
1E1
330
2
100
AcDbEntity
  8
0
100
AcDbEllipse
 10
34.20039255275284
 20
34.64820974718709
 30
0.0
 11
-0.1944683181231189
 21
0.2497888188891558
 31
0.0
210
0.0
220
0.0
230
1.0
 40
0.4649462416639517
 41
3.082609964180992
 42
5.432244712760292
  0
LWPOLYLINE
  5
1E2
330
2
100
AcDbEntity
  8
0
100
AcDbPolyline
 90
        9
 70
     0
 43
0.0
 10
33.97521406787075
 20
34.8209689650019
 10
33.97853509495373
 20
34.84809068617952
 10
33.98849817620264
 20
34.87576591187102
 10
34.00454980710371
 20
34.89569207436886
 10
34.02668998765689
 20
34.90897618270078
 10
34.05436521334834
 20
34.91395772332523
 10
34.08646847515043
 20
34.91063669624225
 10
34.12189276403552
 20
34.89956660596566
 10
34.15953107097591
 20
34.88074745249547
  0
LINE
  5
1E3
330
2
100
AcDbEntity
  8
0
100
AcDbLine
 10
33.12724515268425
 20
35.41598631736842
 30
0.0
 11
33.13942225198849
 21
35.42096785799287
 31
0.0
  0
LINE
  5
1E4
330
2
100
AcDbEntity
  8
0
100
AcDbLine
 10
33.13942225198849
 20
35.42096785799287
 30
0.0
 11
33.16654397316616
 21
35.42594939861736
 31
0.0
  0
LINE
  5
1E5
330
2
100
AcDbEntity
  8
0
100
AcDbLine
 10
33.16654397316616
 20
35.42594939861736
 30
0.0
 11
33.19864723496824
 21
35.4231818760482
 31
0.0
  0
LINE
  5
1E6
330
2
100
AcDbEntity
  8
0
100
AcDbLine
 10
33.19864723496824
 20
35.4231818760482
 30
0.0
 11
33.23407152385329
 21
35.41211178577162
 31
0.0
  0
LINE
  5
1E7
330
2
100
AcDbEntity
  8
0
100
AcDbLine
 10
33.23407152385329
 20
35.41211178577162
 30
0.0
 11
33.27226333530755
 21
35.39329263230142
 31
0.0
  0
LINE
  5
1E8
330
2
100
AcDbEntity
  8
0
100
AcDbLine
 10
33.27226333530755
 20
35.39329263230142
 30
0.0
 11
33.31100865127559
 21
35.36727792015144
 31
0.0
  0
LINE
  5
1E9
330
2
100
AcDbEntity
  8
0
100
AcDbLine
 10
33.31100865127559
 20
35.36727792015144
 30
0.0
 11
33.35030747175745
 21
35.33517465834933
 31
0.0
  0
LINE
  5
1EA
330
2
100
AcDbEntity
  8
0
100
AcDbLine
 10
33.35030747175745
 20
35.33517465834933
 30
0.0
 11
33.3884992832117
 21
35.29808985592279
 31
0.0
  0
LINE
  5
1EB
330
2
100
AcDbEntity
  8
0
100
AcDbLine
 10
33.3884992832117
 20
35.29808985592279
 30
0.0
 11
33.42447707661059
 21
35.25657701738556
 31
0.0
  0
LINE
  5
1EC
330
2
100
AcDbEntity
  8
0
100
AcDbLine
 10
33.42447707661059
 20
35.25657701738556
 30
0.0
 11
33.45713384292653
 21
35.21229665627924
 31
0.0
  0
LINE
  5
1ED
330
2
100
AcDbEntity
  8
0
100
AcDbLine
 10
33.45713384292653
 20
35.21229665627924
 30
0.0
 11
33.48480906861798
 21
35.16635578163138
 31
0.0
  0
LINE
  5
1EE
330
2
100
AcDbEntity
  8
0
100
AcDbLine
 10
33.48480906861798
 20
35.16635578163138
 30
0.0
 11
33.5080562581988
 21
35.11986140246974
 31
0.0
  0
LINE
  5
1EF
330
2
100
AcDbEntity
  8
0
100
AcDbLine
 10
33.5080562581988
 20
35.11986140246974
 30
0.0
 11
33.5246613936137
 21
35.07502753684956
 31
0.0
  0
LINE
  5
1F0
330
2
100
AcDbEntity
  8
0
100
AcDbLine
 10
33.5246613936137
 20
35.07502753684956
 30
0.0
 11
33.53573148389029
 21
35.03296119379854
 31
0.0
  0
LINE
  5
1F1
330
2
100
AcDbEntity
  8
0
100
AcDbLine
 10
33.53573148389029
 20
35.03296119379854
 30
0.0
 11
33.5396060154871
 21
34.99476938234432
 31
0.0
  0
LINE
  5
1F2
330
2
100
AcDbEntity
  8
0
100
AcDbLine
 10
33.5396060154871
 20
34.99476938234432
 30
0.0
 11
33.53628498840411
 21
34.96100560700074
 31
0.0
  0
LINE
  5
1F3
330
2
100
AcDbEntity
  8
0
100
AcDbLine
 10
33.53628498840411
 20
34.96100560700074
 30
0.0
 11
33.526875411669
 21
34.93388388582307
 31
0.0
  0
LINE
  5
1F4
330
2
100
AcDbEntity
  8
0
100
AcDbLine
 10
33.526875411669
 20
34.93388388582307
 30
0.0
 11
33.51027027625413
 21
34.9134042188114
 31
0.0
  0
LINE
  5
1F5
330
2
100
AcDbEntity
  8
0
100
AcDbLine
 10
33.51027027625413
 20
34.9134042188114
 30
0.0
 11
33.49975369049137
 21
34.90620866013162
 31
0.0
  0
LINE
  5
1F6
330
2
100
AcDbEntity
  8
0
100
AcDbLine
 10
33.89052787725486
 20
34.58960407822124
 30
0.0
 11
33.91045403975274
 21
34.59956715947018
 31
0.0
  0
ARC
  5
1F7
330
2
100
AcDbEntity
  8
0
100
AcDbCircle
 10
34.00805165117012
 20
34.66878436184082
 30
0.0
 40
0.1679966626430951
100
AcDbArc
 50
121.4426241212981
 51
147.9756978340351
  0
ELLIPSE
  5
1F8
330
2
100
AcDbEntity
  8
0
100
AcDbEllipse
 10
36.0671915421319
 20
33.84168588026331
 30
0.0
 11
-0.4365381817094859
 21
0.561719506875039
 31
0.0
210
0.0
220
0.0
230
1.0
 40
0.4623860642595603
 41
4.599860787452948
 42
9.410508297700328
  0
ELLIPSE
  5
1F9
330
2
100
AcDbEntity
  8
0
100
AcDbEllipse
 10
36.95468675665433
 20
33.32950429620128
 30
0.0
 11
-0.4364151532233684
 21
0.5614965967927818
 31
0.0
210
0.0
220
0.0
230
1.0
 40
0.4623764486778941
 41
1.458212714182629
 42
6.335823022730968
  0
LINE
  5
1FA
330
2
100
AcDbEntity
  8
0
100
AcDbLine
 10
36.37421333170976
 20
33.97914394991893
 30
0.0
 11
36.40022804385974
 21
33.94039863395085
 31
0.0
  0
LINE
  5
1FB
330
2
100
AcDbEntity
  8
0
100
AcDbLine
 10
36.40022804385974
 20
33.94039863395085
 30
0.0
 11
36.42513574698204
 21
33.90109981346899
 31
0.0
  0
LINE
  5
1FC
330
2
100
AcDbEntity
  8
0
100
AcDbLine
 10
36.42513574698204
 20
33.90109981346899
 30
0.0
 11
36.44838293656289
 21
33.86124748847326
 31
0.0
  0
LINE
  5
1FD
330
2
100
AcDbEntity
  8
0
100
AcDbLine
 10
36.47771867579582
 20
33.84408884854457
 30
0.0
 11
36.49044927961391
 21
33.8634615065286
 31
0.0
  0
LINE
  5
1FE
330
2
100
AcDbEntity
  8
0
100
AcDbLine
 10
36.49044927961391
 20
33.8634615065286
 30
0.0
 11
36.50484039697345
 21
33.88006664194346
 31
0.0
  0
ELLIPSE
  5
1FF
330
2
100
AcDbEntity
  8
0
100
AcDbEllipse
 10
36.59010101712726
 20
33.15377097542814
 30
0.0
 11
-0.0902203407101138
 21
0.1241296396943949
 31
0.0
210
0.0
220
0.0
230
0.9999999999999998
 40
0.451495974529793
 41
4.693699271749114
 42
6.288551396542294
  0
LINE
  5
200
330
2
100
AcDbEntity
  8
0
100
AcDbLine
 10
36.47771867579582
 20
33.84408884854457
 30
0.0
 11
36.44838293656289
 21
33.86124748847326
 31
0.0
  0
ELLIPSE
  5
201
330
2
100
AcDbEntity
  8
0
100
AcDbEllipse
 10
36.02384233667467
 20
33.81090958714436
 30
0.0
 11
-0.479233996594251
 21
0.6191790299143363
 31
0.0
210
0.0
220
0.0
230
1.0
 40
0.4991232593503038
 41
4.602526199837116
 42
6.282321726643449
  0
ELLIPSE
  5
202
330
2
100
AcDbEntity
  8
0
100
AcDbEllipse
 10
36.91377281283179
 20
33.29542178629367
 30
0.0
 11
-0.4822292227623877
 21
0.6225410255907207
 31
0.0
210
0.0
220
0.0
230
1.0
 40
0.4967536139691708
 41
3.05548504918508
 42
6.251158535425241
  0
LWPOLYLINE
  5
203
330
2
100
AcDbEntity
  8
0
100
AcDbPolyline
 90
       16
 70
     0
 43
0.0
 10
35.5448754054232
 20
34.43029495188052
 10
35.49015592222155
 20
34.40307305706078
 10
35.4436615430599
 20
34.3632207320651
 10
35.40989776771632
 20
34.30233523554385
 10
35.39329263230146
 20
34.22484460360773
 10
35.39495314584292
 20
34.13185584528443
 10
35.41432580382694
 20
34.02779699668451
 10
35.45085710173969
 20
33.91543558037716
 10
35.50344003055347
 20
33.79809262344536
 10
35.57096758124064
 20
33.68019616199969
 10
35.72207431351603
 20
33.46875743771691
 10
35.89698173988612
 20
33.28720795718091
 10
36.08240575201892
 20
33.15990191900016
 10
36.2589736919305
 20
33.10233744956189
 10
36.40288486552611
 20
33.11949608949062
 10
36.42004350545479
 20
33.12945917073952
  0
LWPOLYLINE
  5
204
330
2
100
AcDbEntity
  8
0
100
AcDbPolyline
 90
       16
 70
     0
 43
0.0
 10
36.3951358023325
 20
33.29772454294364
 10
36.38019118045911
 20
33.28720795718091
 10
36.33978535094956
 20
33.28056590301495
 10
36.28443489956662
 20
33.28665445266705
 10
36.21081879922734
 20
33.31100865127556
 10
36.1289001311806
 20
33.35418200335423
 10
36.04089291348171
 20
33.41506749987548
 10
35.95122518224137
 20
33.49311163632542
 10
35.86432497357017
 20
33.58499338562106
 10
35.85712941489039
 20
33.59329595332849
 10
35.78406681906493
 20
33.68628471165183
 10
35.7137717458086
 20
33.7931110828209
 10
35.65676078088419
 20
33.90104446301759
 10
35.615247942347
 20
34.00510331161751
 10
35.59089374373849
 20
34.09919907896849
 10
35.58314468054488
 20
34.22982614423221
  0
LWPOLYLINE
  5
205
330
2
100
AcDbEntity
  8
0
100
AcDbPolyline
 90
       28
 70
     0
 43
0.0
 10
37.17280964426267
 20
32.77521628188878
 10
37.13018979669782
 20
32.78628637216537
 10
37.05103865122024
 20
32.82171066105043
 10
36.96524545157669
 20
32.87540059889189
 10
36.87557772033634
 20
32.94680268117588
 10
36.79033802520661
 20
33.02982835825027
 10
36.78701699812363
 20
33.03314938533325
 10
36.70399132104924
 20
33.13111968428103
 10
36.62871470716846
 20
33.2362855419086
 10
36.58720186863126
 20
33.30547360613728
 10
36.58443434606211
 20
33.30990164224791
 10
36.58166682349298
 20
33.31432967835854
 10
36.57834579641001
 20
33.31820420995534
 10
36.5744712648132
 20
33.32207874155215
 10
36.57059673321639
 20
33.32539976863512
 10
36.56672220161959
 20
33.3287207957181
 10
36.56229416550893
 20
33.33204182280108
 10
36.5578661293983
 20
33.3348093453702
 10
36.52853039016534
 20
33.35196798529893
 10
36.51967431794408
 20
33.35639602140956
 10
36.50971123669514
 20
33.35971704849253
 10
36.49974815544624
 20
33.36137756203401
 10
36.48923156968348
 20
33.36248457106169
 10
36.47926848843454
 20
33.36137756203401
 10
36.46930540718563
 20
33.35971704849253
 10
36.45934232593669
 20
33.35639602140956
 10
36.44993274920158
 20
33.35196798529893
 10
36.32871526067297
 20
33.28167291204259
  0
LINE
  5
206
330
2
100
AcDbEntity
  8
0
100
AcDbLine
 10
35.58314468054488
 20
34.22982614423221
 30
0.0
 11
35.59255425728
 21
34.22871913520456
 31
0.0
  0
LINE
  5
207
330
2
100
AcDbEntity
  8
0
100
AcDbLine
 10
35.59255425728
 20
34.22871913520456
 30
0.0
 11
35.66395633956398
 21
34.21045348624819
 31
0.0
  0
LINE
  5
208
330
2
100
AcDbEntity
  8
0
100
AcDbLine
 10
35.66395633956398
 20
34.21045348624819
 30
0.0
 11
35.74089346698624
 21
34.17613620639078
 31
0.0
  0
LINE
  5
209
330
2
100
AcDbEntity
  8
0
100
AcDbLine
 10
35.74089346698624
 20
34.17613620639078
 30
0.0
 11
35.8211516214915
 21
34.12632080014612
 31
0.0
  0
LINE
  5
20A
330
2
100
AcDbEntity
  8
0
100
AcDbLine
 10
35.8211516214915
 20
34.12632080014612
 30
0.0
 11
35.90196328051056
 21
34.06266778105575
 31
0.0
  0
LINE
  5
20B
330
2
100
AcDbEntity
  8
0
100
AcDbLine
 10
35.90196328051056
 20
34.06266778105575
 30
0.0
 11
35.98111442598816
 21
33.98739116717496
 31
0.0
  0
LINE
  5
20C
330
2
100
AcDbEntity
  8
0
100
AcDbLine
 10
35.98111442598816
 20
33.98739116717496
 30
0.0
 11
36.05528403084129
 21
33.90325848107293
 31
0.0
  0
LINE
  5
20D
330
2
100
AcDbEntity
  8
0
100
AcDbLine
 10
36.05528403084129
 20
33.90325848107293
 30
0.0
 11
36.12336508604228
 21
33.81248374080492
 31
0.0
  0
LINE
  5
20E
330
2
100
AcDbEntity
  8
0
100
AcDbLine
 10
36.12336508604228
 20
33.81248374080492
 30
0.0
 11
36.18203656450821
 21
33.71783446894009
 31
0.0
  0
LINE
  5
20F
330
2
100
AcDbEntity
  8
0
100
AcDbLine
 10
36.18203656450821
 20
33.71783446894009
 30
0.0
 11
36.19089263672946
 21
33.7045503606082
 31
0.0
  0
LINE
  5
210
330
2
100
AcDbEntity
  8
0
100
AcDbLine
 10
36.19089263672946
 20
33.7045503606082
 30
0.0
 11
36.2008557179784
 21
33.69181975679011
 31
0.0
  0
LINE
  5
211
330
2
100
AcDbEntity
  8
0
100
AcDbLine
 10
36.2008557179784
 20
33.69181975679011
 30
0.0
 11
36.21137230374117
 21
33.67964265748586
 31
0.0
  0
LINE
  5
212
330
2
100
AcDbEntity
  8
0
100
AcDbLine
 10
36.21137230374117
 20
33.67964265748586
 30
0.0
 11
36.22299589853158
 21
33.66967957623693
 31
0.0
  0
LINE
  5
213
330
2
100
AcDbEntity
  8
0
100
AcDbLine
 10
36.22299589853158
 20
33.66967957623693
 30
0.0
 11
36.23461949332199
 21
33.66193051304332
 31
0.0
  0
LINE
  5
214
330
2
100
AcDbEntity
  8
0
100
AcDbLine
 10
36.23461949332199
 20
33.66193051304332
 30
0.0
 11
36.26395523255495
 21
33.64532537762845
 31
0.0
  0
LINE
  5
215
330
2
100
AcDbEntity
  8
0
100
AcDbLine
 10
36.26395523255495
 20
33.64532537762845
 30
0.0
 11
36.27557882734536
 21
33.63979033249018
 31
0.0
  0
LINE
  5
216
330
2
100
AcDbEntity
  8
0
100
AcDbLine
 10
36.27557882734536
 20
33.63979033249018
 30
0.0
 11
36.2855419085943
 21
33.63702280992102
 31
0.0
  0
LINE
  5
217
330
2
100
AcDbEntity
  8
0
100
AcDbLine
 10
36.2855419085943
 20
33.63702280992102
 30
0.0
 11
36.29439798081556
 21
33.63757631443485
 31
0.0
  0
LINE
  5
218
330
2
100
AcDbEntity
  8
0
100
AcDbLine
 10
36.29439798081556
 20
33.63757631443485
 30
0.0
 11
36.30048653046766
 21
33.63979033249018
 31
0.0
  0
LINE
  5
219
330
2
100
AcDbEntity
  8
0
100
AcDbLine
 10
36.30048653046766
 20
33.63979033249018
 30
0.0
 11
36.43805875951211
 21
33.71894147796777
 31
0.0
  0
LWPOLYLINE
  5
21A
330
2
100
AcDbEntity
  8
0
100
AcDbPolyline
 90
        3
 70
     0
 43
0.0
 10
37.30786474563702
 20
32.61580698190595
 10
37.35823365639551
 20
32.64514272113892
 10
37.36653622410294
 20
32.65012426176337
  0
LINE
  5
21B
330
2
100
AcDbEntity
  8
0
100
AcDbLine
 10
36.44163018149415
 20
33.9253986616261
 30
0.0
 11
36.43056009121756
 21
33.93259422030588
 31
0.0
  0
LINE
  5
21C
330
2
100
AcDbEntity
  8
0
100
AcDbLine
 10
36.43056009121756
 20
33.93259422030588
 30
0.0
 11
36.41506196483034
 21
33.94477131961012
 31
0.0
  0
LINE
  5
21D
330
2
100
AcDbEntity
  8
0
100
AcDbLine
 10
36.41506196483034
 20
33.94477131961012
 30
0.0
 11
36.39679631587397
 21
33.96414397759414
 31
0.0
  0
LINE
  5
21E
330
2
100
AcDbEntity
  8
0
100
AcDbLine
 10
36.39679631587397
 20
33.96414397759414
 30
0.0
 11
36.38351220754208
 21
33.98074911300904
 31
0.0
  0
LWPOLYLINE
  5
21F
330
2
100
AcDbEntity
  8
0
100
AcDbPolyline
 90
       12
 70
     0
 43
0.0
 10
37.30675773660937
 20
32.61802099996125
 10
37.29402713279127
 20
32.60861142322617
 10
37.15122296822331
 20
32.58923876524212
 10
36.97520853282559
 20
32.64458921662506
 10
36.78978452069279
 20
32.77023474126433
 10
36.61432358980889
 20
32.95067721277268
 10
36.50196217350154
 20
33.10067693602042
 10
36.48867806516965
 20
33.11672856692146
 10
36.47373344329626
 20
33.13001267525339
 10
36.45934232593669
 20
33.13886874747464
 10
36.44605821760477
 20
33.14163627004379
 10
36.43996966795267
 20
33.13942225198847
  0
LINE
  5
220
330
2
100
AcDbEntity
  8
0
100
AcDbLine
 10
36.43775564989734
 20
33.71894147796777
 30
0.0
 11
36.4466117221186
 21
33.71894147796777
 31
0.0
  0
LINE
  5
221
330
2
100
AcDbEntity
  8
0
100
AcDbLine
 10
36.4466117221186
 20
33.71894147796777
 30
0.0
 11
36.51358576829195
 21
33.70953190123265
 31
0.0
  0
LINE
  5
222
330
2
100
AcDbEntity
  8
0
100
AcDbLine
 10
36.51358576829195
 20
33.70953190123265
 30
0.0
 11
36.58830887765891
 21
33.68351718908267
 31
0.0
  0
LINE
  5
223
330
2
100
AcDbEntity
  8
0
100
AcDbLine
 10
36.58830887765891
 20
33.68351718908267
 30
0.0
 11
36.66690651862267
 21
33.64145084603165
 31
0.0
  0
LINE
  5
224
330
2
100
AcDbEntity
  8
0
100
AcDbLine
 10
36.66690651862267
 20
33.64145084603165
 30
0.0
 11
36.74771817764177
 21
33.58443988110724
 31
0.0
  0
LINE
  5
225
330
2
100
AcDbEntity
  8
0
100
AcDbLine
 10
36.74771817764177
 20
33.58443988110724
 30
0.0
 11
36.827976332147
 21
33.51525181687855
 31
0.0
  0
LINE
  5
226
330
2
100
AcDbEntity
  8
0
100
AcDbLine
 10
36.827976332147
 20
33.51525181687855
 30
0.0
 11
36.90546696408312
 21
33.43499366237332
 31
0.0
  0
LINE
  5
227
330
2
100
AcDbEntity
  8
0
100
AcDbLine
 10
36.90546696408312
 20
33.43499366237332
 30
0.0
 11
36.9768690463671
 21
33.3475399491883
 31
0.0
  0
LINE
  5
228
330
2
100
AcDbEntity
  8
0
100
AcDbLine
 10
36.9768690463671
 20
33.3475399491883
 30
0.0
 11
37.04052206545747
 21
33.25455119086497
 31
0.0
  0
LINE
  5
229
330
2
100
AcDbEntity
  8
0
100
AcDbLine
 10
37.04052206545747
 20
33.25455119086497
 30
0.0
 11
37.09421200329891
 21
33.1593484144863
 31
0.0
  0
LINE
  5
22A
330
2
100
AcDbEntity
  8
0
100
AcDbLine
 10
37.09421200329891
 20
33.1593484144863
 30
0.0
 11
37.13627834634993
 21
33.06525264713536
 31
0.0
  0
LINE
  5
22B
330
2
100
AcDbEntity
  8
0
100
AcDbLine
 10
37.13627834634993
 20
33.06525264713536
 30
0.0
 11
37.16506058106906
 21
32.97503141138115
 31
0.0
  0
LINE
  5
22C
330
2
100
AcDbEntity
  8
0
100
AcDbLine
 10
37.16506058106906
 20
32.97503141138115
 30
0.0
 11
37.18000520294245
 21
32.89145222979293
 31
0.0
  0
LINE
  5
22D
330
2
100
AcDbEntity
  8
0
100
AcDbLine
 10
37.18000520294245
 20
32.89145222979293
 30
0.0
 11
37.18055870745627
 21
32.81783612945363
 31
0.0
  0
LINE
  5
22E
330
2
100
AcDbEntity
  8
0
100
AcDbLine
 10
37.18055870745627
 20
32.81783612945363
 30
0.0
 11
37.17280964426267
 21
32.77521628188878
 31
0.0
  0
ELLIPSE
  5
22F
330
2
100
AcDbEntity
  8
0
100
AcDbEllipse
 10
36.72990818095279
 20
33.18806483970538
 30
0.0
 11
-0.1944683181231189
 21
0.2497888188891558
 31
0.0
210
0.0
220
0.0
230
1.0
 40
0.4649462416639517
 41
3.082609964180992
 42
5.432244712760292
  0
LWPOLYLINE
  5
230
330
2
100
AcDbEntity
  8
0
100
AcDbPolyline
 90
        9
 70
     0
 43
0.0
 10
36.5047296960707
 20
33.36082405752018
 10
36.50805072315367
 20
33.38794577869781
 10
36.51801380440258
 20
33.4156210043893
 10
36.53406543530365
 20
33.43554716688715
 10
36.55620561585683
 20
33.44883127521907
 10
36.58388084154828
 20
33.45381281584351
 10
36.61598410335036
 20
33.45049178876054
 10
36.65140839223545
 20
33.43942169848395
 10
36.68904669917585
 20
33.42060254501375
  0
LINE
  5
231
330
2
100
AcDbEntity
  8
0
100
AcDbLine
 10
35.65676078088419
 20
33.95584140988671
 30
0.0
 11
35.66893788018842
 21
33.96082295051116
 31
0.0
  0
LINE
  5
232
330
2
100
AcDbEntity
  8
0
100
AcDbLine
 10
35.66893788018842
 20
33.96082295051116
 30
0.0
 11
35.69605960136609
 21
33.96580449113564
 31
0.0
  0
LINE
  5
233
330
2
100
AcDbEntity
  8
0
100
AcDbLine
 10
35.69605960136609
 20
33.96580449113564
 30
0.0
 11
35.72816286316817
 21
33.96303696856649
 31
0.0
  0
LINE
  5
234
330
2
100
AcDbEntity
  8
0
100
AcDbLine
 10
35.72816286316817
 20
33.96303696856649
 30
0.0
 11
35.76358715205323
 21
33.9519668782899
 31
0.0
  0
LINE
  5
235
330
2
100
AcDbEntity
  8
0
100
AcDbLine
 10
35.76358715205323
 20
33.9519668782899
 30
0.0
 11
35.80177896350748
 21
33.9331477248197
 31
0.0
  0
LINE
  5
236
330
2
100
AcDbEntity
  8
0
100
AcDbLine
 10
35.80177896350748
 20
33.9331477248197
 30
0.0
 11
35.84052427947553
 21
33.90713301266973
 31
0.0
  0
LINE
  5
237
330
2
100
AcDbEntity
  8
0
100
AcDbLine
 10
35.84052427947553
 20
33.90713301266973
 30
0.0
 11
35.87982309995739
 21
33.87502975086761
 31
0.0
  0
LINE
  5
238
330
2
100
AcDbEntity
  8
0
100
AcDbLine
 10
35.87982309995739
 20
33.87502975086761
 30
0.0
 11
35.91801491141164
 21
33.83794494844108
 31
0.0
  0
LINE
  5
239
330
2
100
AcDbEntity
  8
0
100
AcDbLine
 10
35.91801491141164
 20
33.83794494844108
 30
0.0
 11
35.95399270481052
 21
33.79643210990385
 31
0.0
  0
LINE
  5
23A
330
2
100
AcDbEntity
  8
0
100
AcDbLine
 10
35.95399270481052
 20
33.79643210990385
 30
0.0
 11
35.98664947112646
 21
33.75215174879753
 31
0.0
  0
LINE
  5
23B
330
2
100
AcDbEntity
  8
0
100
AcDbLine
 10
35.98664947112646
 20
33.75215174879753
 30
0.0
 11
36.01432469681792
 21
33.70621087414967
 31
0.0
  0
LINE
  5
23C
330
2
100
AcDbEntity
  8
0
100
AcDbLine
 10
36.01432469681792
 20
33.70621087414967
 30
0.0
 11
36.03757188639874
 21
33.65971649498803
 31
0.0
  0
LINE
  5
23D
330
2
100
AcDbEntity
  8
0
100
AcDbLine
 10
36.03757188639874
 20
33.65971649498803
 30
0.0
 11
36.05417702181364
 21
33.61488262936785
 31
0.0
  0
LINE
  5
23E
330
2
100
AcDbEntity
  8
0
100
AcDbLine
 10
36.05417702181364
 20
33.61488262936785
 30
0.0
 11
36.06524711209023
 21
33.57281628631683
 31
0.0
  0
LINE
  5
23F
330
2
100
AcDbEntity
  8
0
100
AcDbLine
 10
36.06524711209023
 20
33.57281628631683
 30
0.0
 11
36.06912164368703
 21
33.53462447486261
 31
0.0
  0
LINE
  5
240
330
2
100
AcDbEntity
  8
0
100
AcDbLine
 10
36.06912164368703
 20
33.53462447486261
 30
0.0
 11
36.06580061660405
 21
33.50086069951903
 31
0.0
  0
LINE
  5
241
330
2
100
AcDbEntity
  8
0
100
AcDbLine
 10
36.06580061660405
 20
33.50086069951903
 30
0.0
 11
36.05639103986894
 21
33.47373897834136
 31
0.0
  0
LINE
  5
242
330
2
100
AcDbEntity
  8
0
100
AcDbLine
 10
36.05639103986894
 20
33.47373897834136
 30
0.0
 11
36.03978590445407
 21
33.45325931132969
 31
0.0
  0
LINE
  5
243
330
2
100
AcDbEntity
  8
0
100
AcDbLine
 10
36.03978590445407
 20
33.45325931132969
 30
0.0
 11
36.02926931869131
 21
33.44606375264991
 31
0.0
  0
LINE
  5
244
330
2
100
AcDbEntity
  8
0
100
AcDbLine
 10
36.42004350545479
 20
33.12945917073952
 30
0.0
 11
36.43996966795267
 21
33.13942225198847
 31
0.0
  0
ARC
  5
245
330
2
100
AcDbEntity
  8
0
100
AcDbCircle
 10
36.53756727937007
 20
33.20863945435911
 30
0.0
 40
0.1679966626430951
100
AcDbArc
 50
121.4426241212981
 51
147.9756978340351
  0
LINE
  5
246
330
2
100
AcDbEntity
  8
0
100
AcDbLine
 10
13.41927413418058
 20
10.9378580482324
 30
0.0
 11
11.9447381093393
 21
10.34450120940735
 31
0.0
  0
LINE
  5
247
330
2
100
AcDbEntity
  8
0
100
AcDbLine
 10
13.68274228276332
 20
10.98435242739405
 30
0.0
 11
15.3288647068917
 21
10.98435242739405
 31
0.0
  0
LINE
  5
248
330
2
100
AcDbEntity
  8
0
100
AcDbLine
 10
29.26887588768288
 20
36.90828983710364
 30
0.0
 11
38.28978175317021
 21
31.85363126636298
 31
0.0
  0
ENDSEC
  0
SECTION
  2
OBJECTS
  0
DICTIONARY
  5
A
330
0
100
AcDbDictionary
281
     1
  3
ACAD_COLOR
350
3B
  3
ACAD_GROUP
350
32
  3
ACAD_LAYOUT
350
17
  3
ACAD_MATERIAL
350
C
  3
ACAD_MLEADERSTYLE
350
3E
  3
ACAD_MLINESTYLE
350
33
  3
ACAD_PLOTSETTINGS
350
34
  3
ACAD_PLOTSTYLENAME
350
9
  3
ACAD_SCALELIST
350
3C
  3
ACAD_TABLESTYLE
350
3D
  3
ACAD_VISUALSTYLE
350
2C
  3
ACDB_RECOMPOSE_DATA
350
250
  3
AcDbVariableDictionary
350
3F
  3
AcDsDecomposeData
350
256
  0
DICTIONARY
  5
1F
330
1E
100
AcDbDictionary
280
     1
281
     1
  3
ACAD_LAYERSTATES
360
20
  0
DICTIONARY
  5
7
330
6
100
AcDbDictionary
280
     1
281
     1
  0
DICTIONARY
  5
3
330
2
100
AcDbDictionary
280
     1
281
     1
  3
ACAD_SORTENTS
360
249
  0
DICTIONARY
  5
3B
102
{ACAD_REACTORS
330
A
102
}
330
A
100
AcDbDictionary
281
     1
  0
DICTIONARY
  5
32
102
{ACAD_REACTORS
330
A
102
}
330
A
100
AcDbDictionary
281
     1
  0
DICTIONARY
  5
17
102
{ACAD_REACTORS
330
A
102
}
330
A
100
AcDbDictionary
281
     1
  3
Model
350
16
  3
レイアウト1
350
1D
  0
DICTIONARY
  5
C
102
{ACAD_REACTORS
330
A
102
}
330
A
100
AcDbDictionary
281
     1
  3
ByBlock
350
38
  3
ByLayer
350
35
  3
Global
350
B
  0
DICTIONARY
  5
3E
102
{ACAD_REACTORS
330
A
102
}
330
A
100
AcDbDictionary
281
     1
  0
DICTIONARY
  5
33
102
{ACAD_REACTORS
330
A
102
}
330
A
100
AcDbDictionary
281
     1
  3
Standard
350
4B
  0
DICTIONARY
  5
34
102
{ACAD_REACTORS
330
A
102
}
330
A
100
AcDbDictionary
281
     1
  0
ACDBDICTIONARYWDFLT
  5
9
102
{ACAD_REACTORS
330
A
102
}
330
A
100
AcDbDictionary
281
     1
  3
Normal
350
8
100
AcDbDictionaryWithDefault
340
8
  0
DICTIONARY
  5
3C
102
{ACAD_REACTORS
330
A
102
}
330
A
100
AcDbDictionary
281
     1
  3
A0
350
50
  3
A1
350
51
  3
A2
350
52
  3
A3
350
53
  3
A4
350
54
  3
A5
350
55
  3
A6
350
56
  3
A7
350
57
  3
A8
350
58
  3
A9
350
59
  3
B0
350
5A
  3
B1
350
5B
  3
B2
350
5C
  3
B3
350
5D
  3
B4
350
5E
  3
B5
350
5F
  3
B6
350
60
  0
DICTIONARY
  5
3D
102
{ACAD_REACTORS
330
A
102
}
330
A
100
AcDbDictionary
281
     1
  3
Standard
350
4C
  0
DICTIONARY
  5
2C
102
{ACAD_REACTORS
330
A
102
}
330
A
100
AcDbDictionary
281
     1
  3
2dWireframe
350
2B
  3
Realistic
350
4E
  3
Wireframe
350
4F
  0
XRECORD
  5
250
102
{ACAD_REACTORS
330
A
102
}
330
A
100
AcDbXrecord
280
     1
 90
        1
330
4C
  0
DICTIONARY
  5
3F
102
{ACAD_REACTORS
330
A
102
}
330
A
100
AcDbDictionary
281
     1
  3
CANNOSCALE
350
40
  3
CENTEREXE
350
41
  3
CENTERLTYPEFILE
350
42
  3
CMLEADERSTYLE
350
43
  3
CTABLESTYLE
350
44
  3
CVIEWDETAILSTYLE
350
45
  3
CVIEWSECTIONSTYLE
350
46
  3
DIMASSOC
350
47
  3
HIDETEXT
350
48
  3
LAYEREVAL
350
49
  3
LAYERNOTIFY
350
4A
  3
LIGHTINGUNITS
350
24B
  3
MSLTSCALE
350
24A
  3
PSOLHEIGHT
350
24D
  3
PSOLWIDTH
350
24C
  3
XCLIPFRAME
350
24E
  0
DICTIONARY
  5
256
102
{ACAD_REACTORS
330
A
102
}
330
A
100
AcDbDictionary
281
     1
  3
AcDsRecords
350
258
  3
AcDsSchemas
350
257
1001
ACAD
1070
     2
  0
DICTIONARY
  5
20
102
{ACAD_REACTORS
330
1F
102
}
330
1F
100
AcDbDictionary
281
     1
  0
SORTENTSTABLE
  5
249
102
{ACAD_REACTORS
330
3
102
}
330
3
100
AcDbSortentsTable
330
2
  0
LAYOUT
  5
16
102
{ACAD_XDICTIONARY
360
18
102
}
102
{ACAD_REACTORS
330
17
102
}
330
17
100
AcDbPlotSettings
  1

  2
none_device
  4
ISO_A4_(210.00_x_297.00_MM)
  6

 40
7.5
 41
20.0
 42
7.5
 43
20.0
 44
210.0
 45
297.0
 46
11.54999923706054
 47
-13.65000009536743
 48
0.0
 49
0.0
140
0.0
141
0.0
142
1.0
143
8.704084754739808
 70
 11952
 72
     1
 73
     0
 74
     0
  7

 75
     0
147
0.1148885871608098
 76
     0
 77
     2
 78
   300
148
0.0
149
0.0
100
AcDbLayout
  1
Model
 70
     1
 71
     0
 10
0.0
 20
0.0
 11
12.0
 21
9.0
 12
0.0
 22
0.0
 32
0.0
 14
0.0
 24
0.0
 34
0.0
 15
0.0
 25
0.0
 35
0.0
146
0.0
 13
0.0
 23
0.0
 33
0.0
 16
1.0
 26
0.0
 36
0.0
 17
0.0
 27
1.0
 37
0.0
 76
     0
330
2
331
2A
1001
ACAD_PSEXT
1000
None
1000
None
1000
Not applicable
1000
The layout will not be plotted unless a new plotter configuration name is selected.
1070
     0
  0
LAYOUT
  5
1D
102
{ACAD_REACTORS
330
17
102
}
330
17
100
AcDbPlotSettings
  1

  2
C:\Documents and Settings\basas\Application Data\Autodesk\AutoCAD 2005\R16.1\enu\plotters\Default Windows System Printer.pc3
  4

  6

 40
0.0
 41
0.0
 42
0.0
 43
0.0
 44
0.0
 45
0.0
 46
0.0
 47
0.0
 48
0.0
 49
0.0
140
0.0
141
0.0
142
1.0
143
1.0
 70
   688
 72
     0
 73
     0
 74
     5
  7

 75
    16
147
1.0
 76
     0
 77
     2
 78
   300
148
0.0
149
0.0
100
AcDbLayout
  1
レイアウト1
 70
     1
 71
     1
 10
0.0
 20
0.0
 11
12.0
 21
9.0
 12
0.0
 22
0.0
 32
0.0
 14
0.0
 24
0.0
 34
0.0
 15
0.0
 25
0.0
 35
0.0
146
0.0
 13
0.0
 23
0.0
 33
0.0
 16
1.0
 26
0.0
 36
0.0
 17
0.0
 27
1.0
 37
0.0
 76
     0
330
1A
  0
MATERIAL
  5
38
102
{ACAD_XDICTIONARY
360
39
102
}
102
{ACAD_REACTORS
330
C
102
}
330
C
100
AcDbMaterial
  1
ByBlock
  0
MATERIAL
  5
35
102
{ACAD_XDICTIONARY
360
36
102
}
102
{ACAD_REACTORS
330
C
102
}
330
C
100
AcDbMaterial
  1
ByLayer
  0
MATERIAL
  5
B
102
{ACAD_XDICTIONARY
360
D
102
}
102
{ACAD_REACTORS
330
C
102
}
330
C
100
AcDbMaterial
  1
Global
 43
0.0007999999797903
 43
0.0
 43
0.0
 43
0.0
 43
0.0
 43
0.0007999999797903
 43
0.0
 43
0.0
 43
0.0
 43
0.0
 43
1.0
 43
0.0
 43
0.0
 43
0.0
 43
0.0
 43
1.0
 49
0.0007999999797903
 49
0.0
 49
0.0
 49
0.0
 49
0.0
 49
0.0007999999797903
 49
0.0
 49
0.0
 49
0.0
 49
0.0
 49
1.0
 49
0.0
 49
0.0
 49
0.0
 49
0.0
 49
1.0
142
0.0007999999797903
142
0.0
142
0.0
142
0.0
142
0.0
142
0.0007999999797903
142
0.0
142
0.0
142
0.0
142
0.0
142
1.0
142
0.0
142
0.0
142
0.0
142
0.0
142
1.0
144
0.0007999999797903
144
0.0
144
0.0
144
0.0
144
0.0
144
0.0007999999797903
144
0.0
144
0.0
144
0.0
144
0.0
144
1.0
144
0.0
144
0.0
144
0.0
144
0.0
144
1.0
1001
ACAD
1070
    -1
1070
     3
1070
     0
1000

1071
        0
1070
     0
  0
MLINESTYLE
  5
4B
102
{ACAD_REACTORS
330
33
102
}
330
33
100
AcDbMlineStyle
  2
STANDARD
 70
     0
  3

 62
   256
 51
90.0
 52
90.0
 71
     2
 49
0.5
 62
   256
  6
BYLAYER
 49
-0.5
 62
   256
  6
BYLAYER
  0
ACDBPLACEHOLDER
  5
8
102
{ACAD_REACTORS
330
9
102
}
330
9
  0
SCALE
  5
50
102
{ACAD_REACTORS
330
3C
102
}
330
3C
100
AcDbScale
 70
     0
300
1:1
140
1.0
141
1.0
290
     1
  0
SCALE
  5
51
102
{ACAD_REACTORS
330
3C
102
}
330
3C
100
AcDbScale
 70
     0
300
1:2
140
1.0
141
2.0
290
     0
  0
SCALE
  5
52
102
{ACAD_REACTORS
330
3C
102
}
330
3C
100
AcDbScale
 70
     0
300
1:4
140
1.0
141
4.0
290
     0
  0
SCALE
  5
53
102
{ACAD_REACTORS
330
3C
102
}
330
3C
100
AcDbScale
 70
     0
300
1:5
140
1.0
141
5.0
290
     0
  0
SCALE
  5
54
102
{ACAD_REACTORS
330
3C
102
}
330
3C
100
AcDbScale
 70
     0
300
1:8
140
1.0
141
8.0
290
     0
  0
SCALE
  5
55
102
{ACAD_REACTORS
330
3C
102
}
330
3C
100
AcDbScale
 70
     0
300
1:10
140
1.0
141
10.0
290
     0
  0
SCALE
  5
56
102
{ACAD_REACTORS
330
3C
102
}
330
3C
100
AcDbScale
 70
     0
300
1:16
140
1.0
141
16.0
290
     0
  0
SCALE
  5
57
102
{ACAD_REACTORS
330
3C
102
}
330
3C
100
AcDbScale
 70
     0
300
1:20
140
1.0
141
20.0
290
     0
  0
SCALE
  5
58
102
{ACAD_REACTORS
330
3C
102
}
330
3C
100
AcDbScale
 70
     0
300
1:30
140
1.0
141
30.0
290
     0
  0
SCALE
  5
59
102
{ACAD_REACTORS
330
3C
102
}
330
3C
100
AcDbScale
 70
     0
300
1:40
140
1.0
141
40.0
290
     0
  0
SCALE
  5
5A
102
{ACAD_REACTORS
330
3C
102
}
330
3C
100
AcDbScale
 70
     0
300
1:50
140
1.0
141
50.0
290
     0
  0
SCALE
  5
5B
102
{ACAD_REACTORS
330
3C
102
}
330
3C
100
AcDbScale
 70
     0
300
1:100
140
1.0
141
100.0
290
     0
  0
SCALE
  5
5C
102
{ACAD_REACTORS
330
3C
102
}
330
3C
100
AcDbScale
 70
     0
300
2:1
140
2.0
141
1.0
290
     0
  0
SCALE
  5
5D
102
{ACAD_REACTORS
330
3C
102
}
330
3C
100
AcDbScale
 70
     0
300
4:1
140
4.0
141
1.0
290
     0
  0
SCALE
  5
5E
102
{ACAD_REACTORS
330
3C
102
}
330
3C
100
AcDbScale
 70
     0
300
8:1
140
8.0
141
1.0
290
     0
  0
SCALE
  5
5F
102
{ACAD_REACTORS
330
3C
102
}
330
3C
100
AcDbScale
 70
     0
300
10:1
140
10.0
141
1.0
290
     0
  0
SCALE
  5
60
102
{ACAD_REACTORS
330
3C
102
}
330
3C
100
AcDbScale
 70
     0
300
100:1
140
100.0
141
1.0
290
     0
  0
TABLESTYLE
  5
4C
102
{ACAD_XDICTIONARY
360
4D
102
}
102
{ACAD_REACTORS
330
3D
102
}
330
3D
100
AcDbTableStyle
  3
Standard
 70
     0
 71
     0
 40
1.5
 41
1.5
280
     0
281
     0
  7
Standard
140
4.5
170
     2
 62
     0
 63
     7
283
     0
274
    -2
284
     1
 64
     0
275
    -2
285
     1
 65
     0
276
    -2
286
     1
 66
     0
277
    -2
287
     1
 67
     0
278
    -2
288
     1
 68
     0
279
    -2
289
     1
 69
     0
  7
Standard
140
6.0
170
     5
 62
     0
 63
     7
283
     0
274
    -2
284
     1
 64
     0
275
    -2
285
     1
 65
     0
276
    -2
286
     1
 66
     0
277
    -2
287
     1
 67
     0
278
    -2
288
     1
 68
     0
279
    -2
289
     1
 69
     0
  7
Standard
140
4.5
170
     5
 62
     0
 63
     7
283
     0
274
    -2
284
     1
 64
     0
275
    -2
285
     1
 65
     0
276
    -2
286
     1
 66
     0
277
    -2
287
     1
 67
     0
278
    -2
288
     1
 68
     0
279
    -2
289
     1
 69
     0
  0
VISUALSTYLE
  5
2B
102
{ACAD_XDICTIONARY
360
25A
102
}
102
{ACAD_REACTORS
330
2C
102
}
330
2C
100
AcDbVisualStyle
  2
2dWireframe
 70
     4
 71
     0
 72
     2
 73
     1
 90
        0
 40
-0.6
 41
-30.0
 62
     5
 63
     7
421
 16777215
 74
     1
 91
        4
 64
     7
 65
   257
 75
     1
175
     1
 42
1.0
 92
        0
 66
   257
 43
1.0
 76
     1
 77
     6
 78
     2
 67
     7
 79
     5
170
     0
171
     0
290
     0
174
     0
 93
        1
 44
0.0
173
     0
291
     0
 45
0.0
1001
ACAD
1000
AcDbSavedByObjectVersion
1070
     0
  0
VISUALSTYLE
  5
4E
102
{ACAD_XDICTIONARY
360
25F
102
}
102
{ACAD_REACTORS
330
2C
102
}
330
2C
100
AcDbVisualStyle
  2
Realistic
 70
     8
 71
     2
 72
     3
 73
     0
 90
        2
 40
-0.6
 41
30.0
 62
     5
 63
     7
421
 16777215
 74
     0
 91
        0
 64
     7
 65
   257
 75
     1
175
     1
 42
1.0
 92
        8
 66
   257
 43
1.0
 76
     1
 77
     6
 78
     2
 67
     7
 79
     3
170
     0
171
     0
290
     0
174
     0
 93
       13
 44
0.0
173
     0
291
     0
 45
0.0
1001
ACAD
1000
AcDbSavedByObjectVersion
1070
     0
  0
VISUALSTYLE
  5
4F
102
{ACAD_XDICTIONARY
360
261
102
}
102
{ACAD_REACTORS
330
2C
102
}
330
2C
100
AcDbVisualStyle
  2
Wireframe
 70
     5
 71
     0
 72
     2
 73
     0
 90
        0
 40
-0.6
 41
-30.0
 62
     5
 63
     7
421
 16777215
 74
     1
 91
        4
 64
     7
 65
   257
 75
     1
175
     1
 42
1.0
 92
        0
 66
   257
 43
1.0
 76
     1
 77
     6
 78
     2
 67
     7
 79
     3
170
     0
171
     0
290
     0
174
     0
 93
        1
 44
0.0
173
     0
291
     0
 45
0.0
1001
ACAD
1000
AcDbSavedByObjectVersion
1070
     0
  0
DICTIONARYVAR
  5
40
102
{ACAD_REACTORS
330
3F
102
}
330
3F
100
DictionaryVariables
280
     0
  1
1:1
  0
DICTIONARYVAR
  5
41
102
{ACAD_REACTORS
330
3F
102
}
330
3F
100
DictionaryVariables
280
     0
  1
3.500000
  0
DICTIONARYVAR
  5
42
102
{ACAD_REACTORS
330
3F
102
}
330
3F
100
DictionaryVariables
280
     0
  1
acadiso.lin
  0
DICTIONARYVAR
  5
43
102
{ACAD_REACTORS
330
3F
102
}
330
3F
100
DictionaryVariables
280
     0
  1
STANDARD
  0
DICTIONARYVAR
  5
44
102
{ACAD_REACTORS
330
3F
102
}
330
3F
100
DictionaryVariables
280
     0
  1
STANDARD
  0
DICTIONARYVAR
  5
45
102
{ACAD_REACTORS
330
3F
102
}
330
3F
100
DictionaryVariables
280
     0
  1

  0
DICTIONARYVAR
  5
46
102
{ACAD_REACTORS
330
3F
102
}
330
3F
100
DictionaryVariables
280
     0
  1

  0
DICTIONARYVAR
  5
47
102
{ACAD_REACTORS
330
3F
102
}
330
3F
100
DictionaryVariables
280
     0
  1
2
  0
DICTIONARYVAR
  5
48
102
{ACAD_REACTORS
330
3F
102
}
330
3F
100
DictionaryVariables
280
     0
  1
1
  0
DICTIONARYVAR
  5
49
102
{ACAD_REACTORS
330
3F
102
}
330
3F
100
DictionaryVariables
280
     0
  1
0
  0
DICTIONARYVAR
  5
4A
102
{ACAD_REACTORS
330
3F
102
}
330
3F
100
DictionaryVariables
280
     0
  1
0
  0
DICTIONARYVAR
  5
24B
102
{ACAD_REACTORS
330
3F
102
}
330
3F
100
DictionaryVariables
280
     0
  1
2
  0
DICTIONARYVAR
  5
24A
102
{ACAD_REACTORS
330
3F
102
}
330
3F
100
DictionaryVariables
280
     0
  1
1
  0
DICTIONARYVAR
  5
24D
102
{ACAD_REACTORS
330
3F
102
}
330
3F
100
DictionaryVariables
280
     0
  1
80.000000
  0
DICTIONARYVAR
  5
24C
102
{ACAD_REACTORS
330
3F
102
}
330
3F
100
DictionaryVariables
280
     0
  1
5.000000
  0
DICTIONARYVAR
  5
24E
102
{ACAD_REACTORS
330
3F
102
}
330
3F
100
DictionaryVariables
280
     0
  1
2
  0
DICTIONARY
  5
258
102
{ACAD_REACTORS
330
256
102
}
330
256
100
AcDbDictionary
281
     1
  0
DICTIONARY
  5
257
102
{ACAD_REACTORS
330
256
102
}
330
256
100
AcDbDictionary
281
     1
  3
1821515061008
350
251
  3
1821515061024
350
252
  3
1821515061040
350
253
  3
1821515061056
350
254
  3
1821515061072
350
255
  0
DICTIONARY
  5
18
330
16
100
AcDbDictionary
280
     1
281
     1
  0
DICTIONARY
  5
39
330
38
100
AcDbDictionary
280
     1
281
     1
  3
ACAD_XREC_ROUNDTRIP
360
25D
  3
FBXASSET
360
3A
  0
DICTIONARY
  5
36
330
35
100
AcDbDictionary
280
     1
281
     1
  3
ACAD_XREC_ROUNDTRIP
360
25C
  3
FBXASSET
360
37
  0
DICTIONARY
  5
D
330
B
100
AcDbDictionary
280
     1
281
     1
  3
ACAD_XREC_ROUNDTRIP
360
259
  3
BUMPTILE
360
E
  3
DIFFUSETILE
360
F
  3
FBXASSET
360
10
  3
OPACITYTILE
360
11
  3
REFLECTIONTILE
360
12
  0
DICTIONARY
  5
4D
330
4C
100
AcDbDictionary
280
     1
281
     1
  3
ACAD_ROUNDTRIP_2008_TABLESTYLE_CELLSTYLEMAP
360
24F
  3
ACAD_XREC_ROUNDTRIP
360
25E
  0
DICTIONARY
  5
25A
330
2B
100
AcDbDictionary
280
     1
281
     1
  3
ACAD_XREC_ROUNDTRIP
360
25B
  0
DICTIONARY
  5
25F
330
4E
100
AcDbDictionary
280
     1
281
     1
  3
ACAD_XREC_ROUNDTRIP
360
260
  0
DICTIONARY
  5
261
330
4F
100
AcDbDictionary
280
     1
281
     1
  3
ACAD_XREC_ROUNDTRIP
360
262
  0
XRECORD
  5
251
102
{ACAD_REACTORS
330
257
102
}
330
257
100
AcDbXrecord
280
     1
  1
AcDb_Thumbnail_Schema
102
{ATTRRECORD
341
252
  2
AcDbDs::TreatedAsObjectData
280
     1
291
     1
102
ATTRRECORD}
102
{ATTRRECORD
341
253
  2
AcDbDs::Legacy
280
     1
291
     1
102
ATTRRECORD}
  2
AcDbDs::ID
280
    10
 91
        8
102
{ATTRRECORD
341
254
  2
AcDs:Indexable
280
     1
291
     1
102
ATTRRECORD}
102
{ATTRRECORD
341
255
  2
AcDbDs::HandleAttribute
280
     7
282
     1
102
ATTRRECORD}
  2
Thumbnail_Data
280
    15
 91
        0
  0
XRECORD
  5
252
102
{ACAD_REACTORS
330
257
102
}
330
257
100
AcDbXrecord
280
     1
  1
AcDbDs::TreatedAsObjectDataSchema
  2
AcDbDs::TreatedAsObjectData
280
     1
 91
        0
  0
XRECORD
  5
253
102
{ACAD_REACTORS
330
257
102
}
330
257
100
AcDbXrecord
280
     1
  1
AcDbDs::LegacySchema
  2
AcDbDs::Legacy
280
     1
 91
        0
  0
XRECORD
  5
254
102
{ACAD_REACTORS
330
257
102
}
330
257
100
AcDbXrecord
280
     1
  1
AcDbDs::IndexedPropertySchema
  2
AcDs:Indexable
280
     1
 91
        0
  0
XRECORD
  5
255
102
{ACAD_REACTORS
330
257
102
}
330
257
100
AcDbXrecord
280
     1
  1
AcDbDs::HandleAttributeSchema
  2
AcDbDs::HandleAttribute
280
     7
 91
        1
284
     1
  0
XRECORD
  5
25D
102
{ACAD_REACTORS
330
39
102
}
330
39
100
AcDbXrecord
280
     1
102
MATERIAL
148
0.0
149
0.0
149
0.0
 93
        0
 94
       63
282
     0
 72
     1
 77
     1
171
     1
175
     1
179
     1
273
     0
  0
XRECORD
  5
3A
102
{ACAD_REACTORS
330
39
102
}
330
39
100
AcDbXrecord
280
     1
 70
     1
 90
429727718
  1
D62C5603-E3A1-4AEA-B7FB-FE5D8D0755AF
310
504B03040A0000080000CC70623B3DEE336E79000000790000001B0000006175746F6465736B2D64657369676E2D7061636B6167652E786D6C3C3F786D6C2076657273696F6E3D22312E302220656E636F64696E673D227574662D3822203F3E3C666F726D6174733E3C666F726D61743E687474703A2F2F736368656D612E
310
6175746F6465736B2E636F6D2F64657369676E2D7061636B6167652F323030393C2F666F726D61743E3C2F666F726D6174733E504B0304140006080800CC70623BD486FD9CA0000000F4000000130000005B436F6E74656E745F54797065735D2E786D6C7D8EC10E82300C865F65E91D8A1E8C310C0EEA1BF002731658846E
310
D98AC1B77784ABF1D8FE5FBFBF75BBCE937A534CCEB38643598122B6FEE978D0B0485F9C41B54DDD7D022595594E1A469170414C76A4D9A4D207E29CF43ECE46F218070CC6BECC4078ACAA135ACF422C856C0E68EA1BF5669944DDD7BCDE7B1F8E415D77AECB980613C2E4AC91FC167A2B244592486606FC29C8FD7F045B9A
310
EF7053A7E60B504B0304140006080800CC70623B853B8169EB0000007C01000008000000636F72652E786D6C8D90416EC3201045AF62CDB6C206821CC7C244919D9CA01740401C94182C03558F5F9C3852BBEB6A467FFE9B197D7EFC9E1EC5975982F5AE035262288C535E5B377690E21535501C055FBC8FBF6C503839990E
310
5619041F179FE64D52DE45E362569DD7661365082642A11EB9E920A89B99642953CC8E702F67A9EE7234257977194EC9EAE275C4EABCCF5EAD5940D4AC6F0E35A568B8F43562CD7046CD199FD07E60174276A7BE677B5EADB0E0D14EEFFB6A31321A0D82627C4084204C3F096B71DD52F6819B16635EADF63F509AF53FA164
310
5DDCD1EDDD17164090FCC8732078B56691CB33A85CD7DCC40F504B0304140006080800CC70623B55019EA25F0000007C00000007000000636E782E786D6C4DCB3B0E80201045D1AD90E915ED2CF8AC45050C11660C8261F98AB1B07AC9C97D42D718D865D3E909258CFD00CCE24AC6E326A164D74DC0B4128928FF32603847
310
2BA13128B1252AC747C6BAB984FC68F0B87FE8960A5C09FE86CFB69FBA01504B0304140006080800CC70623BDBABAAF470010000D40300000C0000006662782F636F72652E786D6CC553D16E823014FD95A6AF4B694182CC941A83FA05FB810A9511A125A5257EFE2E82712ECEB8A7F100CD39F7F69E734AF9FADC366850B6
310
AF8DCE7018308C942E4C59EB2AC3DE1D498AD15A706B8CFB56869196ADCAF00863C12B6B7C374385D14E6907A836A59A41D9F7CA615434B0C8705F7CAA5606D23BA8E84F41278B93AC54100640439DE0BDB320004D43C63716C7C399D30917DCFBBA9CD9BA8469F5B156168B24CED3F7248AC8769F27244EB73B92EED8862C
310
B7F13E0C179B3C8F979C8ECD82BBBABDAA2BAC924E9558448CBD9330242CFA08E3154B5651FCC6D215639C8EE5774DBE2B5F6CF2B5768B68963BB5F5588420E442FC700B1139D4CB01F450C1E918227C2E09DF070D8140C84E1E9AAB8F1340832A9CB13130A5F1376A908D57309505ECF2A0DF179C4E9D30F5B239B87E3823
310
7A79C6F31DE1A8A5AEC08474B03C7837EAE4938639B44E5932B833D2C6B6B279CDC613877FA26EE21F4A2A4C63EC7F29A2F301D1F9F7A0E37D145F504B0304140006080800CC70623B9C113CC27E0000009D0000000B0000006662782F636E782E786D6C4DCCDF0A83201C86E15B91DFB94BFB330DD428C8FB886521330DA7
310
6397BF1A1DECE883878F57749FCDA1B7892F1BBC047A23808C7F84D9FA55424E0BE6803A256208E9EF06C84F9B91703228B1C690F78B66B34CD9A5439DF5CF0BFBF65E35BCA1B8D6A5C6F540381E886698B5741C695F9503EBA150A2F8958E3DC3EA0B504B0304140006080800CC70623B7DF2F77C2A010000120200003100
310
00006662782F41393633353835312D344632462D344230382D423046372D3739314545314133324237412F636F72652E786D6C8D51DB8EC22014FC15C2939B0D2DB4B45643319AE817EC0F6041255A68B86CFCFC856D4D76DF7CE190393373060EDB3DC707F856CE6B6B7A480A0C81328395DA5C7B18C3057510EC3873D686
310
3F34088C18550F330C39BB3A1BA7051AAC09CA84841A2BD5020AEF55806078A44B0FFD7053A328440C89E1EFC52486BBB8AA8214A99D789CF9E05200300FC927E4FB4D5B375D43103D5527440FB843077C5AA3F5861C8F645F5787F59E95B390B318B55CE45AA638FAA2957BD7248B390B7A7CC51F9C124149C82B8C378810
310
84AB2F42B7B8DD56F413775B8C5999E9FF4471926F8AA236A1AE96B8B3CC434E5839373893369E1FAF30EA395917409EB7F26AF8801C171837A4A6AC9C89E9F9C9B1A58BA30FD6A5EF5DDDCF894B9AD9B6A59C957943A9FCAE2FD5BC4DFE03504B0304140006080800CC70623BAD7543B64E01000033030000300000006662
310
782F41393633353835312D344632462D344230382D423046372D3739314545314133324237412F636E782E786D6CD593CD6EC32010845F0571AD6CE3D48AD20813A9873E410FBD12D82434182C7EAAE6EDBB2424CD25871E7B41D6EC30B3FA84F9E67BB2E40B4234DE8DB46F1925E094D7C6ED479AD3AE5951B2113C789FEE
310
6C943839C1488B4C05DF079FE72A69D8C96C13AAD6B8631503449F83828872B949AC57D26200B826A308D316B4064D6E46FCDA41C05550DC9E483A00797BFD207EFB092A45DE9514C1BBD22178396BD39D891265658C238DEA00936C654E5E433CB65A26D9F6EDB5EBC14EBF49A45CB856E66048291F6939A9A81BB5C89177
310
38143CA680F4AA299D66A042CEB3354A2684DC9D8D178FE0D9B8B41CAAD720F880EE7EF93C0C18769E099ECC04D5A102C8049A8A05632F4DDF376CF1DE0F6BB65C2F8627B65A33C6BB62177CEBBDAD973006829F89F22E814B54F4BC2BE347F8AA8F681390B50FA73F804400B5F542E796F19FF974E7F78DB802FE05E20750
310
4B0304140006080800CC70623BE75B7789680500003C100000340000006662782F41393633353835312D344632462D344230382D423046372D3739314545314133324237412F6F626A656374732E786D6CAD575B8F9B3818FD2B887D06C22499CB8AA1CA655245D5B455A356FB305264C061D8018C6C3393D95FBFC7600890
310
A4CD5EF210B0B1BFEBF98E3F7B1FF6596ABC522E1296DF9BAE3D320D9A872C4AF2F8DE2CE5CEBA358D0FBEC719939D65A691938CDE9B6ADAF4BD98B3B2D05311DD91329583D9D5FC0F438434A7A611A644887B5384CF34233629258BA878B12322891DEFF6B66BD70BFB62634E8AE781D082709A4B588AF91C528CDA28B73F
310
1C998EEF39EABBEFA97FBD6A7C7E9553F9D3D79FE442923C3C523610337627CB87ABE99D359D4CC6D6E4FACAB5E6ABF9D2726FC6A3C5F56271377BB88362213924694B38DD99FE47C48627A1E7D49F5A8BB5E1A74C0A599ED3B0F21F1E56366B89112D681E218F0915D0D6F17AD41FBA2A369DCF6335D62ABBD39779D5DDD1
310
11D4D8DE3CBB96B2E04FB8202E41051754A1AA8E8F76B4C6DFE810B580B1547F4B84911149794252234D024EF8BBE963A95AE27B3D310A9D5C215C7960FAEE415ED75694C6AFB17BCACA5D99A60A9AA65F217B0BFC53292ACB92BF283FAD0D3621576592CB5BED907C2FA8E9DF794E35E97BEA31BED21FEB401ABB94C44839
310
DCACBF0E1C5DA8DA5B2F4DFFD32AD86F543D9E565E7056502E157C00AD2671CD534549AB752FCA9CDA00677A313F04E51B22FF19E57B300579E3C97EB29F682D92935CEC18CF901B7B54FD8C51F362B56FC72FE0B3C1EAE335EDCCBF5AEC39ADB17DC238973F804BA5E6F6BFE7AF1FB32E523BE9F3BD571418E3631DCA4D48
310
5250CF639223210A9446CA30052EDF057BD35F8329C1ECD84552BF0DC8D18BE7BCE23BFE6BD960AB4A7DE79923A103BEBD80F911CBAA2C60DB19B01CF164A5583B772EE6D3FFA56666CBCDA74DC97724A48F9A58967497E489C4D979006FD7A05E227A1EBDD0F737C623387A9C844D3709995625106D157315F8B8392CD4E0
310
A0B9A720C4BE9829CEF37EA1E13111214D53925356365ADA634861B52519DD27A00AEB808EAF0628E6F435519D446F45CF2C9CF5214F0A15B2F6D06B79DA3EE3CBF7F56780D2F4E7EF73A0F5E5B02A38D07DC852C6B7C1FBB6664213E0C39E3EBA7FF4E1AD23EA2829407C85E586727488B751B2DB9502BC7B228A3FD68B6E
310
A65A22397E690AA8D158D7E404EC8CDA235CC3B7D1898680131CEC2CDF2638C65196279577750F15884AEE19F94199155B92B13297978469D4F8D358DF0AEF7631E28DC8F0D9F437D5D39A83B2231A1D52D543813A824EF8D44BCFF2FA6A31BD1E8DAD87F1CCB526B3879935BF59CDADD5C37479BB1CDD4CA7B3556B516589
310
EF352754B706114D9C885EC9131DE6EFEB43D99AFE2391C2F958179413D7CFEF6B1B6DB1E7600F00DE6E5C67454A339A4BA2E0FBA85ED26F045D454F463DBFCE484C2F90F2E5E3666003662ED8F755951A7D1BECD5B30B550B2785C8E7320B7292A4838DDA71BBC863ED7613CAF659337A3354231D4FF4A182A54904C2898C
310
98B28C4AD0CE056CCF332A80986E571EE9DBC305BB5FEB7E509220A58D25CF042D712A806AC0AD0C657FDEF80D2D9CEAA2EE4D1C76F60BFE74219A06527D6F82DF6412526107381E55E353090704D085B52408A8913C4ED159D79BDA71BB4BC506F4831350EB6F975CD22D69BF7AC49B91A2C0A9DDA3D5CA36AD20FC478E37
310
E61844E2352865EBCB61A275A65283CAAA9DD27703B4102F5AF51EF5F573B75CBB5AD38BC845F7A49F82A0966A49C2E3EA5EA0ECD326CD965F1DB402C6FA8B51A4658C5C5E2EC9E214602E55810345408596591009A82E7E7FFACA19EEA299B14A0081A705CB3296EBC14CDF658DCD336EA6D1136881AAEB87B81AB9EE53D5
310
F5EB8BC8362082DA24122F98680A4E7930C01A0079749CEA14382A0783E5EBA5A10F8C098456A03D6A4AEB6BB881E2513747552A5DB22C7EDAF83BD5528081A365F7FF06504B0304140006080000CC70623B000000000000000000000000350000006662782F41393633353835312D344632462D344230382D423046372D37
310
39314545314133324237412F76657274696365732E62696E504B0304140006080800CC70623BF270F1330600000004000000360000006662782F41393633353835312D344632462D344230382D423046372D3739314545314133324237412F747269616E676C65732E62696E636660600000504B0304140006080000CC7062
310
3B000000000000000000000000370000006662782F41393633353835312D344632462D344230382D423046372D3739314545314133324237412F617474726962757465732E62696E504B0304140006080800CC70623B08DA0BD19000000041010000360000006662782F41393633353835312D344632462D344230382D4230
310
46372D3739314545314133324237412F6469726563746F72792E786D6C858F410AC3201045AF22B36F53E9A60B35CBEEBAE80D244E44489C6234F4F835464A48035D0DF398FF9F8AF63D0E6CC63039F212F8F9020C7D47C6792B21C5FE7403D62A1188E2E60C98D7234A5830286103A55745067B9D86B8A3CF9C7F90C11DE6
310
07FB144396D7B6A82D282E9A152AD114D5EF2CB866EEE831B8EEA07A7BB5A8D7D61A2BAAEB7FD5F70921FF497D00504B0304140006080800CC70623BEDD1DC58FD000000A00100003B0000006662782F41393633353835312D344632462D344230382D423046372D3739314545314133324237412F7265736F75726365732F
310
636F72652E786D6C8D504B6E833010BD0A9A6D65B00922041947112427E8052C33A156828DFCA97AFC9A40A576D7CDCCE87D344F8F9FBFE667F689CE6B6B3A6039850C8DB2A336530731DC4903D95970676DF82583CCC8193B5861107C72362E3BA4AC096842428D1D7107A5F7182053CF7474E0D507CE32973124857FE48B
310
540F3961CEF244279DE03EB81420DB9EAC1384436FA353E879B1B182C7A8C75DA3C7F453DF353A1075D537A7BA6464B8F535A99AE14A9A2BBD90E350DD183B5CFABE3AF262350B1EF4FC9351399401471025A527C218A1E53BAB5A5AB765F5469B96525EACF23FA6B88CFF34456DC2A1DCE36E360F82A5202F42F062ED2BAD
310
579969AFDD8A6F504B010214000A0000080000CC70623B3DEE336E79000000790000001B00000000000000000000000000000000006175746F6465736B2D64657369676E2D7061636B6167652E786D6C504B01021400140006080800CC70623BD486FD9CA0000000F40000001300000000000000000000000000B20000005B
310
436F6E74656E745F54797065735D2E786D6C504B01021400140006080800CC70623B853B8169EB0000007C010000080000000000000000000000000083010000636F72652E786D6C504B01021400140006080800CC70623B55019EA25F0000007C000000070000000000000000000000000094020000636E782E786D6C504B
310
01021400140006080800CC70623BDBABAAF470010000D40300000C00000000000000000000000000180300006662782F636F72652E786D6C504B01021400140006080800CC70623B9C113CC27E0000009D0000000B00000000000000000000000000B20400006662782F636E782E786D6C504B01021400140006080800CC70
310
623B7DF2F77C2A010000120200003100000000000000000000000000590500006662782F41393633353835312D344632462D344230382D423046372D3739314545314133324237412F636F72652E786D6C504B01021400140006080800CC70623BAD7543B64E010000330300003000000000000000000000000000D2060000
310
6662782F41393633353835312D344632462D344230382D423046372D3739314545314133324237412F636E782E786D6C504B01021400140006080800CC70623BE75B7789680500003C10000034000000000000000000000000006E0800006662782F41393633353835312D344632462D344230382D423046372D3739314545
310
314133324237412F6F626A656374732E786D6C504B01021400140006080000CC70623B0000000000000000000000003500000000000000000000000000280E00006662782F41393633353835312D344632462D344230382D423046372D3739314545314133324237412F76657274696365732E62696E504B01021400140006
310
080800CC70623BF270F133060000000400000036000000000000000000000000007B0E00006662782F41393633353835312D344632462D344230382D423046372D3739314545314133324237412F747269616E676C65732E62696E504B01021400140006080000CC70623B0000000000000000000000003700000000000000
310
000000000000D50E00006662782F41393633353835312D344632462D344230382D423046372D3739314545314133324237412F617474726962757465732E62696E504B01021400140006080800CC70623B08DA0BD1900000004101000036000000000000000000000000002A0F00006662782F41393633353835312D344632
310
462D344230382D423046372D3739314545314133324237412F6469726563746F72792E786D6C504B01021400140006080800CC70623BEDD1DC58FD000000A00100003B000000000000000000000000000E1000006662782F41393633353835312D344632462D344230382D423046372D3739314545314133324237412F7265
310
736F75726365732F636F72652E786D6C504B0506000000000E000E0080040000641100000000
  0
XRECORD
  5
25C
102
{ACAD_REACTORS
330
36
102
}
330
36
100
AcDbXrecord
280
     1
102
MATERIAL
148
0.0
149
0.0
149
0.0
 93
        0
 94
       63
282
     0
 72
     1
 77
     1
171
     1
175
     1
179
     1
273
     0
  0
XRECORD
  5
37
102
{ACAD_REACTORS
330
36
102
}
330
36
100
AcDbXrecord
280
     1
 70
     1
 90
429727718
  1
30362254-06B7-45E0-A893-8CFA70E3D6BC
310
504B03040A0000080000CC70623B3DEE336E79000000790000001B0000006175746F6465736B2D64657369676E2D7061636B6167652E786D6C3C3F786D6C2076657273696F6E3D22312E302220656E636F64696E673D227574662D3822203F3E3C666F726D6174733E3C666F726D61743E687474703A2F2F736368656D612E
310
6175746F6465736B2E636F6D2F64657369676E2D7061636B6167652F323030393C2F666F726D61743E3C2F666F726D6174733E504B0304140006080800CC70623BD486FD9CA0000000F4000000130000005B436F6E74656E745F54797065735D2E786D6C7D8EC10E82300C865F65E91D8A1E8C310C0EEA1BF002731658846E
310
D98AC1B77784ABF1D8FE5FBFBF75BBCE937A534CCEB38643598122B6FEE978D0B0485F9C41B54DDD7D022595594E1A469170414C76A4D9A4D207E29CF43ECE46F218070CC6BECC4078ACAA135ACF422C856C0E68EA1BF5669944DDD7BCDE7B1F8E415D77AECB980613C2E4AC91FC167A2B244592486606FC29C8FD7F045B9A
310
EF7053A7E60B504B0304140006080800CC70623B1EC5D7A3EB0000007C01000008000000636F72652E786D6C8D90416EC3201045AF82665B6103C6756C6122AB4D4ED00B204C5C94182C03558F5F9C3852BBEB6A467FFE9B197D71FC9E6FE8CBACC17AD7032D0820E3B41FAD9B7A48F1820F808E52ACDEC75F36404ECDA687
310
4D0629A6D5A76597B477D1B89855E747B38B2A041301E95B6E7A08FAD3CCAA50296647B8168BD2573599823EBB0CA76447F43862C7BCCF5EAC59410E4DDD9C7973C2755553CCCFA4C603E3040F1565ED3B1FDE4E432BCA0D9622DAF9795FAF464533826484B498524CD807E51D79ED187F21878E10516EF63F505AC67F42C9
310
BA58B1FDDD071640D2FCC87D2045B96591CB3DA85CB7DCE40F504B0304140006080800CC70623B55019EA25F0000007C00000007000000636E782E786D6C4DCB3B0E80201045D1AD90E915ED2CF8AC45050C11660C8261F98AB1B07AC9C97D42D718D865D3E909258CFD00CCE24AC6E326A164D74DC0B4128928FF32603847
310
2BA13128B1252AC747C6BAB984FC68F0B87FE8960A5C09FE86CFB69FBA01504B0304140006080800CC70623B8C9102E971010000D40300000C0000006662782F636F72652E786D6CC5535B6E833010BC8AE5DF0A6C08340F1947A84D4ED00B38C6A128602363A31CBFCB234A53A551FA553EC09AD9F5CE8C31DB9E9B1AF5CA
310
7695D1198E428A91D2D214952E33ECDD315861B4E5CC1AE3BE9561A445A3323CC098B3D21ADFCE9034DA29ED00D5A6503328BA4E398C640D8B0C77F253352214DE4145770A5B214FA2546114020D759C75CE8200340D19DE981F0F6746269C33EFAB6266AB02A655C74A59CCF365BADC27CB5D902ED22848F6340DF238A141
310
BE88E2F57B92BFEDF23523433367AE6A2EEAA455C2A902F398D2751045018D3FA264435F3771F242571B4A1919CA6F9A7C5B3CD9E42BED16F12C776AEB308F40C848FC700B1139D4891EF410CEC810227CC6846F8386402064270EF5C5C709A05E49676C024C61FC95EA45ED154CA5211D1FF4FB8291A913A68E9B83EBBB33
310
E2A7673CDE118E5AE8124C0807CB8377834E366998436B950D7A7746DAD846D4CFD978E0F04FD455FC5D49D2D4C6FE9722321F10997F0F32DC47FE05504B0304140006080800CC70623BFFEA85907E0000009D0000000B0000006662782F636E782E786D6C4DCCD10A83201886E15B91FFDC95D95A811AB6F23E625948A6C3
310
E9D8E5AF46073BFAE0E1E365ED67B3E8ADC3CB78C7815C7240DA3DFC64DCC221C519D7805AC182F7F1EF06C88D9BE6703008B6049F9E274D7A1E938DBB5AE3D6131B2589BA0D3D965551E0B2EA732C9B9A624AAEB41E3A557677029960D9AFB4EF11165F504B0304140006080800CC70623B4FEEA4082C0100001202000031
310
0000006662782F39464131463745442D413632322D343644302D413938332D3331353338454246344243312F636F72652E786D6C8D515B6EC32010BC0AE2AB55850DD871ED0813254D72825EC00192A2C460F1A872FC42ED48ED5F7E00CDCECCCEB26C731F6FE05B39AFADE921293004CA082BB5B9F43086336A21D870E6AC
310
0D7F68109861543DCC30E4ECE26C9C164858139409093556AA051CBC570102714B8F1E7AF1A5C6A11862480C7F2DA6415C878B2A4891CA89C7990F2E050073937C42DE1DB7E4F87ED8A36D4329AA9B3D46DBAEAD504556557BD81DEBDD0761E52CE42C462D17B996298E3E6BE59E35C962CE821E1FF18553435012728A7187
310
0841987E927A8D9B35ADDF70BBC6989599FE4F1427F9A4286A132ABAC49D651EF234CD5CE04CDA78BA3DC2A8FB645D00B9DF8B57E215725C60BCA2A463E54C4CE327C7A65E1C7DB02E7DEFCBF594B864C5CA6CDBD49C957943E9FA5D5FBAF336F90F504B0304140006080800CC70623BAD7543B64E01000033030000300000
310
006662782F39464131463745442D413632322D343644302D413938332D3331353338454246344243312F636E782E786D6CD593CD6EC32010845F0571AD6CE3D48AD20813A9873E410FBD12D82434182C7EAAE6EDBB2424CD25871E7B41D6EC30B3FA84F9E67BB2E40B4234DE8DB46F1925E094D7C6ED479AD3AE5951B2113C
310
789FEE6C943839C1488B4C05DF079FE72A69D8C96C13AAD6B8631503449F83828872B949AC57D26200B826A308D316B4064D6E46FCDA41C05550DC9E483A00797BFD207EFB092A45DE9514C1BBD22178396BD39D891265658C238DEA00936C654E5E433CB65A26D9F6EDB5EBC14EBF49A45CB856E66048291F6939A9A81BB5
310
C8917738143CA680F4AA299D66A042CEB3354A2684DC9D8D178FE0D9B8B41CAAD720F880EE7EF93C0C18769E099ECC04D5A102C8049A8A05632F4DDF376CF1DE0F6BB65C2F8627B65A33C6BB62177CEBBDAD973006829F89F22E814B54F4BC2BE347F8AA8F681390B50FA73F804400B5F542E796F19FF974E7F78DB802FE05
310
E207504B0304140006080800CC70623B16AB87BA640500003C100000340000006662782F39464131463745442D413632322D343644302D413938332D3331353338454246344243312F6F626A656374732E786D6CAD575B6FA33818FD2B887DE6924B3BED8A326A92B68A663B534DD4D13E548A0C38942D60649B369D5FBFC7
310
600890A493BDE42160637FD7F31D7FF63E6FB3D478A55C242CBF3247B66B1A340F5994E4F19559CA8D75611A9F7D8F33263BCB4C232719BD32D5B4E97B316765A1A722BA21652A07B3B7B33F0D11D29C9A46981221AE4C113ED38CD8A4942CA2E2C58E882476BCD9DA23BB5ED8171B73523C0F841684D35CC252CCE79062D4
310
468DFA43D7747CCF51DF7D4FFDEB5593E3AB9CCA9FBEFE241792E4E19EB28198C968BAB8199F5D5A67D3E9C49A9E8F47D6EC76B6B0469F26EEFC7C3EBFBCBEB98462213924694B38DD98FE1D62C393D073EA4FADC5DAF04326852CCF6958F90F0F2B9BB5C48816348F90C7840A68EB78EDF68723159BCEE7891A6B95DDE9D3
310
BCEAEEE8086A6C6F9E5D4B59F0175C10A7A0820BAA5055C7473B5AE3CFDD452D602CD5DF12616444529E90D448938013FE6EFA58AA96F85E4F8C42275708571E98FE6827AF6B2B4AE3D7D83D64E5A64C53054DD3AF90BD06FEA9149565C94FCA0F6B834DC85599E4F2423B24DF0B6AFA979E534DFA9E7A4CC6FA631D486393
310
921829879BF5D781A373557BCB85E97FB90DB62B558F8795179C15944B051F40AB495CF35451D26A4727654E6D8033BD98EF82F21D91FF8AF2DD9982BCF1643BDD4EB516C9492E368C67C88DED563FC36D5EACF66DFF057C3658BDBFA69DF9578B3DA735B64F18C7F20770A9D45CFCF7FCF563D6456A277DBEF78A02637CA2
310
43B90A490AEAB94F72244481D24819A6C0E59B606BFA4B3025981DBB48EAB701D97BF19C577CC77F2D1B6C55A9EF3C732474C0B727303F625995056C3B02963D9EAC146BE78EC5FCEC7FA999EBC5EACBAAE41B12D27B4D2C0BBA49F244E2ECDC81B76B502F113D8F5EE8FB1BE3111CDD4FC2AA9B844CAB1288B68AB90A7CDC
310
1C166AB0D3DC5310625FCC14E779BFD0709F8890A629C9292B1B2DED31A4B0DA928CEE135085754027E3018A397D4D5427D15BD1330B677DC8934285AC3DF45A9EB68FF8F2B8FC0A509AFEECFD0FF2DE25CC6047F7214B195F07EFEB9A094D800F7BFAE8FED187B78EA8A3A400F115961BCAD1215E47C966530AF0EE8128FE
310
58CEBB996A8964FFA529A046635D9353B0336A8F700DDF46271A024E70B0B37C9DE01847591E54DED53D54202AB947E4076556AC49C6CA5C9E1226B7F1A7B1BE15DEED62C41B91E1B3E9AFAAA735036547343A925075041DF0A9979E893B391F8FCFA6967B3EFB644DCF6E5CEBFAE272625DCC6FAF3FB93793C5F90CE1EF57
310
407342756B10D1C489E8953CD1617E5CEECAD6F4EF8914CE5D5D504E5C3F1F9736DA62CFC11E00BCDDB8CC8A9466349744C1F75EBDA4DF09BA8A9E8C7A7E9991989E20E5DBDD6A6003664ED8F7A04A8DBE0DF6EAD9B9AA858342E47399053949D2C146EDB85DE4B176BB0965FBAC19BD19AA918E27FA50C1D22402E144464C
310
59462568E704B6E71915404CB72B8FF4EDE184DDAF753F284990D2C6926782963815403548A70C657FDEF80D2D9CEAA2AE4C1C76F60BFE74219A06527D6582DF6412526107381E55E353090704D085B52408D0933C4ED159D79BDA71BB4BC506F4831350EB6F979CD22D69BF7AC49B91A2C0A9DDA3D5CA36AD20FC478E37E6
310
1844E2352865EBCB6EA275A652E3836BE04EFB400BF1A2556F515F1FBB35B2AB35BD889C744FFA1004B5544B121E57F70215746DD2F5E2C1412B602CBF19455AC6C8E5E9922C4E01E65215385004546899059180EAFCF7A707CE7017CD8CDB0410789AB32C63B91E5CEBBBACB17AC6CD347A022D5075FD106377347AAABA7E
310
7D11590744509B44E205134DC1290F06580320F78E537D3D73540E06CB970B431F185308AD40BBD794D6D77003C5A36E8EAA54BA64597CD8F83BD552A080A365F7FF06504B0304140006080000CC70623B000000000000000000000000350000006662782F39464131463745442D413632322D343644302D413938332D3331
310
353338454246344243312F76657274696365732E62696E504B0304140006080800CC70623BF270F1330600000004000000360000006662782F39464131463745442D413632322D343644302D413938332D3331353338454246344243312F747269616E676C65732E62696E636660600000504B0304140006080000CC70623B
310
000000000000000000000000370000006662782F39464131463745442D413632322D343644302D413938332D3331353338454246344243312F617474726962757465732E62696E504B0304140006080800CC70623B08DA0BD19000000041010000360000006662782F39464131463745442D413632322D343644302D413938
310
332D3331353338454246344243312F6469726563746F72792E786D6C858F410AC3201045AF22B36F53E9A60B35CBEEBAE80D244E44489C6234F4F835464A48035D0DF398FF9F8AF63D0E6CC63039F212F8F9020C7D47C6792B21C5FE7403D62A1188E2E60C98D7234A5830286103A55745067B9D86B8A3CF9C7F90C11DE607
310
FB144396D7B6A82D282E9A152AD114D5EF2CB866EEE831B8EEA07A7BB5A8D7D61A2BAAEB7FD5F70921FF497D00504B0304140006080800CC70623B0D6EF93BFE000000A00100003B0000006662782F39464131463745442D413632322D343644302D413938332D3331353338454246344243312F7265736F75726365732F63
310
6F72652E786D6C8D50596E833010BD0A9ADFCA60B334011947A8694ED00B586642AC041B79A97AFC9A40A5F6AF3F33A3B7689E1E3F7DCD8FEC139DD7D6F4C0720A191A65476DA61E62B892236427C19DB5E1970C322367EC618541F0C9D9B8EC90B226A009093576C41D94DE63804C3DD2D18357379C652E63480A7FCF17A9
310
EE72C29CE5894E3AC17D702940B63D59270887DE46A7D0F36263058F518FBB468FE9A7BE6A7420864373B8D4873369AA8691FA421B3294352543C5CAF65C0F6FEF43CB8BD52C78D0F34F46E550061C419494B6843142CB0F5677F4B52BEB177AEC28E5C52AFF638ACBF84F53D42654E51E77B379102C05791282176B5F693D
310
CB4C7BED567C03504B010214000A0000080000CC70623B3DEE336E79000000790000001B00000000000000000000000000000000006175746F6465736B2D64657369676E2D7061636B6167652E786D6C504B01021400140006080800CC70623BD486FD9CA0000000F40000001300000000000000000000000000B20000005B
310
436F6E74656E745F54797065735D2E786D6C504B01021400140006080800CC70623B1EC5D7A3EB0000007C010000080000000000000000000000000083010000636F72652E786D6C504B01021400140006080800CC70623B55019EA25F0000007C000000070000000000000000000000000094020000636E782E786D6C504B
310
01021400140006080800CC70623B8C9102E971010000D40300000C00000000000000000000000000180300006662782F636F72652E786D6C504B01021400140006080800CC70623BFFEA85907E0000009D0000000B00000000000000000000000000B30400006662782F636E782E786D6C504B01021400140006080800CC70
310
623B4FEEA4082C0100001202000031000000000000000000000000005A0500006662782F39464131463745442D413632322D343644302D413938332D3331353338454246344243312F636F72652E786D6C504B01021400140006080800CC70623BAD7543B64E010000330300003000000000000000000000000000D5060000
310
6662782F39464131463745442D413632322D343644302D413938332D3331353338454246344243312F636E782E786D6C504B01021400140006080800CC70623B16AB87BA640500003C1000003400000000000000000000000000710800006662782F39464131463745442D413632322D343644302D413938332D3331353338
310
454246344243312F6F626A656374732E786D6C504B01021400140006080000CC70623B0000000000000000000000003500000000000000000000000000270E00006662782F39464131463745442D413632322D343644302D413938332D3331353338454246344243312F76657274696365732E62696E504B01021400140006
310
080800CC70623BF270F133060000000400000036000000000000000000000000007A0E00006662782F39464131463745442D413632322D343644302D413938332D3331353338454246344243312F747269616E676C65732E62696E504B01021400140006080000CC70623B0000000000000000000000003700000000000000
310
000000000000D40E00006662782F39464131463745442D413632322D343644302D413938332D3331353338454246344243312F617474726962757465732E62696E504B01021400140006080800CC70623B08DA0BD190000000410100003600000000000000000000000000290F00006662782F39464131463745442D413632
310
322D343644302D413938332D3331353338454246344243312F6469726563746F72792E786D6C504B01021400140006080800CC70623B0D6EF93BFE000000A00100003B000000000000000000000000000D1000006662782F39464131463745442D413632322D343644302D413938332D3331353338454246344243312F7265
310
736F75726365732F636F72652E786D6C504B0506000000000E000E0080040000641100000000
  0
XRECORD
  5
259
102
{ACAD_REACTORS
330
D
102
}
330
D
100
AcDbXrecord
280
     1
102
MATERIAL
148
0.0
149
0.0
149
0.0
 93
        0
 94
       63
282
     0
 72
     1
 77
     1
171
     1
175
     1
179
     1
273
     0
  0
XRECORD
  5
E
102
{ACAD_REACTORS
330
D
102
}
330
D
100
AcDbXrecord
280
     1
270
     1
271
     1
  0
XRECORD
  5
F
102
{ACAD_REACTORS
330
D
102
}
330
D
100
AcDbXrecord
280
     1
270
     1
271
     1
  0
XRECORD
  5
10
102
{ACAD_REACTORS
330
D
102
}
330
D
100
AcDbXrecord
280
     1
 70
     0
 90
1673772943
  1
ECE7A1D2-D628-4531-984C-D00F80459256
310
504B03040A0000080000CC70623B3DEE336E79000000790000001B0000006175746F6465736B2D64657369676E2D7061636B6167652E786D6C3C3F786D6C2076657273696F6E3D22312E302220656E636F64696E673D227574662D3822203F3E3C666F726D6174733E3C666F726D61743E687474703A2F2F736368656D612E
310
6175746F6465736B2E636F6D2F64657369676E2D7061636B6167652F323030393C2F666F726D61743E3C2F666F726D6174733E504B0304140006080800CC70623BD486FD9CA0000000F4000000130000005B436F6E74656E745F54797065735D2E786D6C7D8EC10E82300C865F65E91D8A1E8C310C0EEA1BF002731658846E
310
D98AC1B77784ABF1D8FE5FBFBF75BBCE937A534CCEB38643598122B6FEE978D0B0485F9C41B54DDD7D022595594E1A469170414C76A4D9A4D207E29CF43ECE46F218070CC6BECC4078ACAA135ACF422C856C0E68EA1BF5669944DDD7BCDE7B1F8E415D77AECB980613C2E4AC91FC167A2B244592486606FC29C8FD7F045B9A
310
EF7053A7E60B504B0304140006080800CC70623BD9DDAED0EC0000007C01000008000000636F72652E786D6C8D90416EC3201045AF82665B61836D9CD8C2444DD39CA01740405C94182C03558F5F9C3852BBEB6A467FFE9B197D7EF89E6EE8CB2CC17A37002D0820E394D7D68D03A478C17B4007C117EFE32F1B20272733C0
310
2A83E0E3E2D3BC49CABB685CCCAAF3DA6CA20CC14440EA969B0182FA34932C648AD911AEC52CD5558EA6A0CF2EC329598D1E47ACCEFBECC59A050463A7EA5833865FEBDD0E37353BE3EE8DBDE3F6786A48D375FBF6CC78B9C282473B3DEFABC5C86834888A900E538A49F5419B9EB47DD5BC907D4F082F57FB1F28CDFA9F50
310
B22ED6D5F6EE030B20687EE43E10BC5CB3C8E51E54AE6B6EE207504B0304140006080800CC70623B55019EA25F0000007C00000007000000636E782E786D6C4DCB3B0E80201045D1AD90E915ED2CF8AC45050C11660C8261F98AB1B07AC9C97D42D718D865D3E909258CFD00CCE24AC6E326A164D74DC0B4128928FF326038
310
472BA13128B1252AC747C6BAB984FC68F0B87FE8960A5C09FE86CFB69FBA01504B0304140006080800CC70623BA24EB22D72010000D40300000C0000006662782F636F72652E786D6CC5535B6E833010BC8AE5DF0A6C5E49888CA3A6694ED00B38E05014B091B1518EDFE511A5A9D228FD2A1F60CDEC7A67C6986DCE4D8D7A
310
69BA4AAB0C073EC548AA5C17952A33ECECD15B61B4E1CC686DBF9561A44423333CC098B3D268D7CE50AE9595CA02AA74216750749DB418E5352C32DCE59FB211BE70162ABA93DF8AFC244AE9073ED050C759670D0840D390E18DF9F1706664C23973AE2A66B62A605A75ACA4C13C4976E1364A12EF355A2EBD384AF65EFA96
310
BC7B8BED2EA6719AAE16FB8491A199335B351775B991C2CA02F390D2D40B028F861F41BCA68B7518BFD0D59A524686F29B26D7164F36B94AD9289CE54E6D1DE6010819891F6E21228B3AD1831EC219194284CF98F06DD01008846CC5A1BEF83801D4CBDC6A1303536877A57A513B0953A94FC707FDBE6064EA84A9E3E6E0FA
310
EE8CF0E9198F7784A316AA0413C2C2F2E0ECA0934D1AE6D05A69BCDE9E91D2A611F573361E38FC1375157F5752AE6B6DFE4B11990F88CCBF0719EE23FF02504B0304140006080800CC70623B408A7D3B7C0000009D0000000B0000006662782F636E782E786D6C4DCCD10A83201886E15B91FFDC552A92A0064DBC8F581632
310
D3703A76F9ABD1C18E3E78F878E5F0D9027ABBFCF2292AE86E2D20171F69F6715550CB827B40839639A5F2770314A7CD293819B45C73AAFB45B35BA61ACAA1C1C7E7855C58C15BC331339661262CC762340413D68D77DA5B42298546CBE6573AF60CEB2F504B0304140006080800CC70623B449FB9BD290100001202000031
310
0000006662782F36394639363044362D344446342D343946362D394244322D3234314243333846323333332F636F72652E786D6C8D515B6EC32010BC0AE22B55850D98B871848994463E412FE002495162B07854397EA176A4F62F3F2C9A9D991D587EB84F37F0AD7D30CEF6905418026DA553C65E7A98E219ED203808EE9D
310
8B7F6810D871D23D2C3014FCE25D9A57483A1BB58D19B54EE9151C43D0110279CB971E06F9A5A7B11A53CC8C70ADE6515EC78BAE4895DB992778883E0700CB907242D17643D7E2538BD869608875438BBAE38922CAC8F1BDD90DB4691A5E2F42C153326A951B95E398B3D1FE599322163C9AE9115F7A3D46ADA0A018778810
310
84E907617BDCEE297BC5BB3DC6BC2EF47FA234AB2745C9D8D8D035EE220B50105E2F0DC1954B9FB747187D9F9D8FA0CCDB042D5FA0C015C65B42DF78BD10F3F3B363CB56C7109DCFDFBBB97E662ED92EB62D13BC2E1BCAE5777DB9966D8A1F504B0304140006080800CC70623BAD7543B64E01000033030000300000006662
310
782F36394639363044362D344446342D343946362D394244322D3234314243333846323333332F636E782E786D6CD593CD6EC32010845F0571AD6CE3D48AD20813A9873E410FBD12D82434182C7EAAE6EDBB2424CD25871E7B41D6EC30B3FA84F9E67BB2E40B4234DE8DB46F1925E094D7C6ED479AD3AE5951B2113C789FEE
310
6C943839C1488B4C05DF079FE72A69D8C96C13AAD6B8631503449F83828872B949AC57D26200B826A308D316B4064D6E46FCDA41C05550DC9E483A00797BFD207EFB092A45DE9514C1BBD22178396BD39D891265658C238DEA00936C654E5E433CB65A26D9F6EDB5EBC14EBF49A45CB856E66048291F6939A9A81BB5C89177
310
38143CA680F4AA299D66A042CEB3354A2684DC9D8D178FE0D9B8B41CAAD720F880EE7EF93C0C18769E099ECC04D5A102C8049A8A05632F4DDF376CF1DE0F6BB65C2F8627B65A33C6BB62177CEBBDAD973006829F89F22E814B54F4BC2BE347F8AA8F681390B50FA73F804400B5F542E796F19FF974E7F78DB802FE05E20750
310
4B0304140006080800CC70623B8D05915C650500003B100000340000006662782F36394639363044362D344446342D343946362D394244322D3234314243333846323333332F6F626A656374732E786D6CAD575B6FA33814FE2B887D06429276DA1565D4266D158D3A339A6846FB502932E050B66023DB74D2FDF5FB190C01
310
9276B2973C046C8ECFF53B17071F77456EBD502133CEAE6CDF9DD81665314F32965ED995DA3A17B6F5310C04E7AA47665B8C14F4CAD6DB7618A48257A5D94AE89654B91AEDDEDDFC61C998326A5B714EA4BCB265FC440BE2924AF184CA6737218AB8E976E7FA6E4338649B0A523E8D98964450A6A029F619B8588D52FE7039
310
B1BD30F0F4F730D0FF866AF6369557DB33949F31A9088B0F848DD8CCFCF9F2767A76E99CCDE733677E3EF59D9BBB9BA5E37F984D16E78BC5E5F5ED25044B25C0C96822E8D60EEFE11B91C581D77CEA34368A1F5329E68CD1B8B61F16D63A1B8E092D294B10C78C4A48EB593D192E7DED9BDEE7995E1B91FDEDD3ACEA9FE831
310
6A756F9F7D4D79F4274C90A7A04248AA51D5F8C718DAE06FB2F75AC4796EBE65D22A88A22223B995679120E2D50E41AA49C260C046A35368846B0BECD0DFF3EBEB8AD4F835768F69B9ADF25C43D30E6B646F807FAA64AD59F61715C7A54127C4AACA98BA3006A9D792DAE165E0D59B61A01FB3A9F9D838D2DAE62445C86166
310
F37564E842E7DE6A69879FEEA2DD5AE7E371E1A5E025154AC307D06A03D73EB5978C58FFA4C8E9033066E0F3BD53BEC1F39F91BE7B55103791EDE6BBB991A2046172CB4581D8B893FA674DDA17A77B3B7C413D1B511FD2743BFF8A38F03A658705E3ADF8015C3A3417FF3D7E439FF591DA0B5F18BC20C1B8981957AE6392A3
310
F43C640C01D1A0B4728E2DD4F26DB4B3C3152A252A3B4E913CEC1C72F012782FF88EFF8637AA552DBEF76408E8A8DE9E50F9E1CB3A2DA0DB1B6039A893B56063DC5B3E3FFB5F72E67AB9FEB4AEC496C4F4C1149625DD662C53E89D7BF0F6151A046260D1337DFDC94502430F83B0EE07A130A224BCAD7DAE1D9FB6CD422FF6
310
920702629C4BB9AE79C12F243C6432A6794E18E5552BA56B431AAB5D91317302B2B071E86C3A42B1A02F999E24061403B5D0EB639195DA655DD3EBEAB4FB862DDF579F014AD0E73C22F99E28DA57FB98E75C6CA2D74D53086D600F4786E0FE3144B771A8A7B900F03594DB8A633CBC49B2EDB69228BB479CF863B5E807AAAB
310
23872F6DFEB4129B949CA33823F58830E86D65621E10047D9DB34D862E8EAC3C2ABC2F7B2C40D67CDFE01F5545B92105AF983AC54D93D69E56FB8E797F88913F898A9FEC705D3F9D1B54EC8426FB500D40A03BD0119B06E1B95DDC7EB8F6975367793EBD70E66733DFB9BC982F9CE564727731999F5D4ECFCE3B8D6A4DC2A0
310
6D50FD148437D110834A64C6CDDF57FBACB5C307A2A477DFE4939736CFEF2B175371E0E10CF0DD1D5C15654E0BCA14D1E87DD02FF93782A162C0A3D95F1524A52770F972BF1EE9809D13CE7DD599467F8ECE9ADD85CE85A34CD45355448C64F9E8A031DC2D596ACC6E5DD93D9B82DE2EF5CAF81363A8E47996A0DE24564A79
310
4115AACE09C55E14540231FDA13C319787134EBF34E3A022514E5B4D9E0826E25C02D5805B15ABE1BEF51B26383D445DD9E875EE33FE4C22DA16427D65A3BCA92CA6D28DD01DF5DC53330704308475351050232CCD31583787BA75774AFB06E5070DD0C8EF484E19968C5D83BA5B90B244D31E54D55A372320FE4786B7EA58
310
44E135AA5467CB7EA333A61683CC6A8C3257034C10CF46F40EF9F5BE59BE5BD30C3C72D235E95D10345C1D45445A5F0BB47E46A5EBE5570F9380B5FA629579952296A773720405982B9DE04011506178964401AA8BDF1FBF0A8EAB6861DD6580C0E38217056766716DAEB2D6FA0917D3E4116581EADB879C4E7CFFB11EFACD
310
3D641311495D92C8676CB409A72D18610D803CE8A626049E8EC1887CB5B44CC39883690DDA8399B4B9855B481E7D71D4A9D22F96E5BB73BF5793020C02137BF837504B0304140006080000CC70623B000000000000000000000000350000006662782F36394639363044362D344446342D343946362D394244322D32343142
310
43333846323333332F76657274696365732E62696E504B0304140006080800CC70623BF270F1330600000004000000360000006662782F36394639363044362D344446342D343946362D394244322D3234314243333846323333332F747269616E676C65732E62696E636660600000504B0304140006080000CC70623B0000
310
00000000000000000000370000006662782F36394639363044362D344446342D343946362D394244322D3234314243333846323333332F617474726962757465732E62696E504B0304140006080800CC70623B08DA0BD19000000041010000360000006662782F36394639363044362D344446342D343946362D394244322D
310
3234314243333846323333332F6469726563746F72792E786D6C858F410AC3201045AF22B36F53E9A60B35CBEEBAE80D244E44489C6234F4F835464A48035D0DF398FF9F8AF63D0E6CC63039F212F8F9020C7D47C6792B21C5FE7403D62A1188E2E60C98D7234A5830286103A55745067B9D86B8A3CF9C7F90C11DE607FB14
310
4396D7B6A82D282E9A152AD114D5EF2CB866EEE831B8EEA07A7BB5A8D7D61A2BAAEB7FD5F70921FF497D00504B0304140006080800CC70623BCA768048FE000000A00100003B0000006662782F36394639363044362D344446342D343946362D394244322D3234314243333846323333332F7265736F75726365732F636F72
310
652E786D6C8D50596E833010BD0A9ADFCA60D600328E9AA639412F609909B1126CE4A5EAF16B0295DABFFECC8CDEA2797AECF8353F924FB44E193D409E5248504B332A3D0D10FC95B4901C39B3C6F85F3248B49871801506CE266BC2B243D2688FDA47549B11775038871E12F988C7004EDE7016A9083E2ADC3D5D84BC8B09
310
D33C8D74D471E6BC8D0192EDC93A815B742658898E651BCB59086ADC356A8C3FD555A1055ED7E7E254D615792D0F075295F585746FF53B694EE78A565DD736979A65AB9933AFE69F8CD2A2F038022F28ED489E135A7CE4554F9BBEA85E68DB53CAB255FEC71496F19FA6A0B42F8B3DEE6673C0F318E4497096AD7DC5F52C33
310
EEB55BFE0D504B010214000A0000080000CC70623B3DEE336E79000000790000001B00000000000000000000000000000000006175746F6465736B2D64657369676E2D7061636B6167652E786D6C504B01021400140006080800CC70623BD486FD9CA0000000F40000001300000000000000000000000000B20000005B436F
310
6E74656E745F54797065735D2E786D6C504B01021400140006080800CC70623BD9DDAED0EC0000007C010000080000000000000000000000000083010000636F72652E786D6C504B01021400140006080800CC70623B55019EA25F0000007C000000070000000000000000000000000095020000636E782E786D6C504B0102
310
1400140006080800CC70623BA24EB22D72010000D40300000C00000000000000000000000000190300006662782F636F72652E786D6C504B01021400140006080800CC70623B408A7D3B7C0000009D0000000B00000000000000000000000000B50400006662782F636E782E786D6C504B01021400140006080800CC70623B
310
449FB9BD290100001202000031000000000000000000000000005A0500006662782F36394639363044362D344446342D343946362D394244322D3234314243333846323333332F636F72652E786D6C504B01021400140006080800CC70623BAD7543B64E010000330300003000000000000000000000000000D20600006662
310
782F36394639363044362D344446342D343946362D394244322D3234314243333846323333332F636E782E786D6C504B01021400140006080800CC70623B8D05915C650500003B10000034000000000000000000000000006E0800006662782F36394639363044362D344446342D343946362D394244322D32343142433338
310
46323333332F6F626A656374732E786D6C504B01021400140006080000CC70623B0000000000000000000000003500000000000000000000000000250E00006662782F36394639363044362D344446342D343946362D394244322D3234314243333846323333332F76657274696365732E62696E504B010214001400060808
310
00CC70623BF270F13306000000040000003600000000000000000000000000780E00006662782F36394639363044362D344446342D343946362D394244322D3234314243333846323333332F747269616E676C65732E62696E504B01021400140006080000CC70623B00000000000000000000000037000000000000000000
310
00000000D20E00006662782F36394639363044362D344446342D343946362D394244322D3234314243333846323333332F617474726962757465732E62696E504B01021400140006080800CC70623B08DA0BD190000000410100003600000000000000000000000000270F00006662782F36394639363044362D344446342D
310
343946362D394244322D3234314243333846323333332F6469726563746F72792E786D6C504B01021400140006080800CC70623BCA768048FE000000A00100003B000000000000000000000000000B1000006662782F36394639363044362D344446342D343946362D394244322D3234314243333846323333332F7265736F
310
75726365732F636F72652E786D6C504B0506000000000E000E0080040000621100000000
  0
XRECORD
  5
11
102
{ACAD_REACTORS
330
D
102
}
330
D
100
AcDbXrecord
280
     1
270
     1
271
     1
  0
XRECORD
  5
12
102
{ACAD_REACTORS
330
D
102
}
330
D
100
AcDbXrecord
280
     1
270
     1
271
     1
  0
CELLSTYLEMAP
  5
24F
102
{ACAD_REACTORS
330
4D
102
}
330
4D
100
AcDbCellStyleMap
 90
        3
300
CELLSTYLE
  1
TABLEFORMAT_BEGIN
 90
        5
170
     1
 91
        0
 92
    32768
 62
   257
 93
        1
300
CONTENTFORMAT
  1
CONTENTFORMAT_BEGIN
 90
        0
 91
        0
 92
      512
 93
        0
300

 40
0.0
140
1.0
 94
        5
 62
     0
340
22
144
6.0
309
CONTENTFORMAT_END
171
     1
301
MARGIN
  1
CELLMARGIN_BEGIN
 40
1.5
 40
1.5
 40
1.5
 40
1.5
 40
4.5
 40
4.5
309
CELLMARGIN_END
 94
        6
 95
        1
302
GRIDFORMAT
  1
GRIDFORMAT_BEGIN
 90
        0
 91
        1
 62
     0
 92
       -2
340
25
 93
        0
 40
1.125
309
GRIDFORMAT_END
 95
        2
302
GRIDFORMAT
  1
GRIDFORMAT_BEGIN
 90
        0
 91
        1
 62
     0
 92
       -2
340
25
 93
        0
 40
1.125
309
GRIDFORMAT_END
 95
        4
302
GRIDFORMAT
  1
GRIDFORMAT_BEGIN
 90
        0
 91
        1
 62
     0
 92
       -2
340
25
 93
        0
 40
1.125
309
GRIDFORMAT_END
 95
        8
302
GRIDFORMAT
  1
GRIDFORMAT_BEGIN
 90
        0
 91
        1
 62
     0
 92
       -2
340
25
 93
        0
 40
1.125
309
GRIDFORMAT_END
 95
       16
302
GRIDFORMAT
  1
GRIDFORMAT_BEGIN
 90
        0
 91
        1
 62
     0
 92
       -2
340
25
 93
        0
 40
1.125
309
GRIDFORMAT_END
 95
       32
302
GRIDFORMAT
  1
GRIDFORMAT_BEGIN
 90
        0
 91
        1
 62
     0
 92
       -2
340
25
 93
        0
 40
1.125
309
GRIDFORMAT_END
309
TABLEFORMAT_END
  1
CELLSTYLE_BEGIN
 90
        1
 91
        1
300
_TITLE
309
CELLSTYLE_END
300
CELLSTYLE
  1
TABLEFORMAT_BEGIN
 90
        5
170
     1
 91
        0
 92
        0
 62
   257
 93
        1
300
CONTENTFORMAT
  1
CONTENTFORMAT_BEGIN
 90
        0
 91
        0
 92
      512
 93
        0
300

 40
0.0
140
1.0
 94
        5
 62
     0
340
22
144
4.5
309
CONTENTFORMAT_END
171
     1
301
MARGIN
  1
CELLMARGIN_BEGIN
 40
1.5
 40
1.5
 40
1.5
 40
1.5
 40
4.5
 40
4.5
309
CELLMARGIN_END
 94
        6
 95
        1
302
GRIDFORMAT
  1
GRIDFORMAT_BEGIN
 90
        0
 91
        1
 62
     0
 92
       -2
340
25
 93
        0
 40
1.125
309
GRIDFORMAT_END
 95
        2
302
GRIDFORMAT
  1
GRIDFORMAT_BEGIN
 90
        0
 91
        1
 62
     0
 92
       -2
340
25
 93
        0
 40
1.125
309
GRIDFORMAT_END
 95
        4
302
GRIDFORMAT
  1
GRIDFORMAT_BEGIN
 90
        0
 91
        1
 62
     0
 92
       -2
340
25
 93
        0
 40
1.125
309
GRIDFORMAT_END
 95
        8
302
GRIDFORMAT
  1
GRIDFORMAT_BEGIN
 90
        0
 91
        1
 62
     0
 92
       -2
340
25
 93
        0
 40
1.125
309
GRIDFORMAT_END
 95
       16
302
GRIDFORMAT
  1
GRIDFORMAT_BEGIN
 90
        0
 91
        1
 62
     0
 92
       -2
340
25
 93
        0
 40
1.125
309
GRIDFORMAT_END
 95
       32
302
GRIDFORMAT
  1
GRIDFORMAT_BEGIN
 90
        0
 91
        1
 62
     0
 92
       -2
340
25
 93
        0
 40
1.125
309
GRIDFORMAT_END
309
TABLEFORMAT_END
  1
CELLSTYLE_BEGIN
 90
        2
 91
        1
300
_HEADER
309
CELLSTYLE_END
300
CELLSTYLE
  1
TABLEFORMAT_BEGIN
 90
        5
170
     1
 91
        0
 92
        0
 62
   257
 93
        1
300
CONTENTFORMAT
  1
CONTENTFORMAT_BEGIN
 90
        0
 91
        0
 92
      512
 93
        0
300

 40
0.0
140
1.0
 94
        2
 62
     0
340
22
144
4.5
309
CONTENTFORMAT_END
171
     1
301
MARGIN
  1
CELLMARGIN_BEGIN
 40
1.5
 40
1.5
 40
1.5
 40
1.5
 40
4.5
 40
4.5
309
CELLMARGIN_END
 94
        6
 95
        1
302
GRIDFORMAT
  1
GRIDFORMAT_BEGIN
 90
        0
 91
        1
 62
     0
 92
       -2
340
25
 93
        0
 40
1.125
309
GRIDFORMAT_END
 95
        2
302
GRIDFORMAT
  1
GRIDFORMAT_BEGIN
 90
        0
 91
        1
 62
     0
 92
       -2
340
25
 93
        0
 40
1.125
309
GRIDFORMAT_END
 95
        4
302
GRIDFORMAT
  1
GRIDFORMAT_BEGIN
 90
        0
 91
        1
 62
     0
 92
       -2
340
25
 93
        0
 40
1.125
309
GRIDFORMAT_END
 95
        8
302
GRIDFORMAT
  1
GRIDFORMAT_BEGIN
 90
        0
 91
        1
 62
     0
 92
       -2
340
25
 93
        0
 40
1.125
309
GRIDFORMAT_END
 95
       16
302
GRIDFORMAT
  1
GRIDFORMAT_BEGIN
 90
        0
 91
        1
 62
     0
 92
       -2
340
25
 93
        0
 40
1.125
309
GRIDFORMAT_END
 95
       32
302
GRIDFORMAT
  1
GRIDFORMAT_BEGIN
 90
        0
 91
        1
 62
     0
 92
       -2
340
25
 93
        0
 40
1.125
309
GRIDFORMAT_END
309
TABLEFORMAT_END
  1
CELLSTYLE_BEGIN
 90
        3
 91
        2
300
_DATA
309
CELLSTYLE_END
  0
XRECORD
  5
25E
102
{ACAD_REACTORS
330
4D
102
}
330
4D
100
AcDbXrecord
280
     1
102
ACAD_ROUNDTRIP_PRE2007_TABLESTYLE
 90
      512
 91
        0
  1

 92
      512
 93
        0
  2

 94
      512
 95
        0
  3

  0
XRECORD
  5
25B
102
{ACAD_REACTORS
330
25A
102
}
330
25A
100
AcDbXrecord
280
     1
102
RTVSPost2010Prop28
280
     1
102
RTVSPost2010PropOp28
 70
     1
102
RTVSPost2010Prop29
280
     1
102
RTVSPost2010PropOp29
 70
     1
102
RTVSPost2010Prop30
280
     0
102
RTVSPost2010PropOp30
 70
     1
102
RTVSPost2010Prop31
280
     0
102
RTVSPost2010PropOp31
 70
     1
102
RTVSPost2010Prop32
280
     0
102
RTVSPost2010PropOp32
 70
     1
102
RTVSPost2010Prop33
280
     0
102
RTVSPost2010PropOp33
 70
     1
102
RTVSPost2010Prop34
280
     0
102
RTVSPost2010PropOp34
 70
     1
102
RTVSPost2010Prop35
280
     0
102
RTVSPost2010PropOp35
 70
     1
102
RTVSPost2010Prop36
280
     0
102
RTVSPost2010PropOp36
 70
     1
102
RTVSPost2010Prop37
 90
       50
102
RTVSPost2010PropOp37
 70
     1
102
RTVSPost2010Prop38
140
0.0
102
RTVSPost2010PropOp38
 70
     1
102
RTVSPost2010Prop39
140
1.0
102
RTVSPost2010PropOp39
 70
     1
102
RTVSPost2010Prop40
 90
        0
102
RTVSPost2010PropOp40
 70
     1
102
RTVSPost2010Prop41ColorIndex
 90
       18
102
RTVSPost2010Prop41ColorRGB
 90
        0
102
RTVSPost2010PropOp41
 70
     1
102
RTVSPost2010Prop42
 90
       50
102
RTVSPost2010PropOp42
 70
     1
102
RTVSPost2010Prop43
 90
        3
102
RTVSPost2010PropOp43
 70
     1
102
RTVSPost2010Prop44ColorIndex
 90
        5
102
RTVSPost2010Prop44ColorRGB
 90
      255
102
RTVSPost2010PropOp44
 70
     1
102
RTVSPost2010Prop45
280
     0
102
RTVSPost2010PropOp45
 70
     1
102
RTVSPost2010Prop46
 90
       50
102
RTVSPost2010PropOp46
 70
     1
102
RTVSPost2010Prop47
 90
       50
102
RTVSPost2010PropOp47
 70
     1
102
RTVSPost2010Prop48
 90
       50
102
RTVSPost2010PropOp48
 70
     1
102
RTVSPost2010Prop49
280
     0
102
RTVSPost2010PropOp49
 70
     1
102
RTVSPost2010Prop50
 90
       50
102
RTVSPost2010PropOp50
 70
     1
102
RTVSPost2010Prop51ColorIndex
 90
      256
102
RTVSPost2010Prop51ColorRGB
 90
-16777216
102
RTVSPost2010PropOp51
 70
     0
102
RTVSPost2010Prop52
140
1.0
102
RTVSPost2010PropOp52
 70
     0
102
RTVSPost2010Prop53
 90
        2
102
RTVSPost2010PropOp53
 70
     1
102
RTVSPost2010Prop54
  1
strokes_ogs.tif
102
RTVSPost2010PropOp54
 70
     1
102
RTVSPost2010Prop55
280
     0
102
RTVSPost2010PropOp55
 70
     1
102
RTVSPost2010Prop56
140
1.0
102
RTVSPost2010PropOp56
 70
     1
102
RTVSPost2010Prop57
140
1.0
102
RTVSPost2010PropOp57
 70
     1
102
RTVSPropertyOp0
 70
     1
102
RTVSPropertyOp1
 70
     1
102
RTVSPropertyOp2
 70
     1
102
RTVSPropertyOp3
 70
     1
102
RTVSPropertyOp4
 70
     1
102
RTVSPropertyOp5
 70
     1
102
RTVSPropertyOp6
 70
     1
102
RTVSPropertyOp7
 70
     1
102
RTVSPropertyOp8
 70
     1
102
RTVSPropertyOp9
 70
     1
102
RTVSPropertyOp10
 70
     1
102
RTVSPropertyOp11
 70
     1
102
RTVSPropertyOp12
 70
     1
102
RTVSPropertyOp13
 70
     1
102
RTVSPropertyOp14
 70
     1
102
RTVSPropertyOp15
 70
     1
102
RTVSPropertyOp16
 70
     1
102
RTVSPropertyOp17
 70
     1
102
RTVSPropertyOp18
 70
     1
102
RTVSPropertyOp19
 70
     1
102
RTVSPropertyOp20
 70
     1
102
RTVSPropertyOp21
 70
     1
102
RTVSPropertyOp22
 70
     1
102
RTVSPropertyOp23
 70
     1
102
RTVSPropertyOp24
 70
     1
102
RTVSPropertyOp25
 70
     1
102
RTVSPropertyOp26
 70
     1
102
RTVSPropertyOp27
 70
     1
102
RTVSPropertyOp28
 70
     1
102
RTVSPropertyOp29
 70
     1
102
RTVSPropertyOp30
 70
     1
102
RTVSPropertyOp31
 70
     1
102
RTVSPropertyOp32
 70
     1
102
RTVSPropertyOp33
 70
     1
102
RTVSPropertyOp34
 70
     1
102
RTVSPropertyOp35
 70
     1
102
RTVSPropertyOp36
 70
     1
102
RTVSPropertyOp37
 70
     1
102
RTVSPropertyOp38
 70
     1
102
RTVSPropertyOp39
 70
     1
102
RTVSPropertyOp40
 70
     1
102
RTVSPropertyOp41
 70
     1
102
RTVSPropertyOp42
 70
     1
102
RTVSPropertyOp43
 70
     1
102
RTVSPropertyOp44
 70
     1
102
RTVSPropertyOp45
 70
     1
102
RTVSPropertyOp46
 70
     1
102
RTVSPropertyOp47
 70
     1
102
RTVSPropertyOp48
 70
     1
102
RTVSPropertyOp49
 70
     1
102
RTVSPropertyOp50
 70
     1
102
RTVSPropertyOp51
 70
     0
102
RTVSPropertyOp52
 70
     0
102
RTVSPropertyOp53
 70
     1
102
RTVSPropertyOp54
 70
     1
102
RTVSPropertyOp55
 70
     1
102
RTVSPropertyOp56
 70
     1
102
RTVSPropertyOp57
 70
     1
102
RTVSPropertyOp58
 70
     1
102
RTVSPropertyOp59
 70
     1
102
RTVSPropertyOp60
 70
     1
102
RTVSPropertyOp61
 70
     1
102
RTVSPropertyOp62
 70
     1
  0
XRECORD
  5
260
102
{ACAD_REACTORS
330
25F
102
}
330
25F
100
AcDbXrecord
280
     1
102
RTVSPost2010Prop28
280
     0
102
RTVSPost2010PropOp28
 70
     1
102
RTVSPost2010Prop29
280
     1
102
RTVSPost2010PropOp29
 70
     1
102
RTVSPost2010Prop30
280
     1
102
RTVSPost2010PropOp30
 70
     1
102
RTVSPost2010Prop31
280
     0
102
RTVSPost2010PropOp31
 70
     1
102
RTVSPost2010Prop32
280
     0
102
RTVSPost2010PropOp32
 70
     1
102
RTVSPost2010Prop33
280
     0
102
RTVSPost2010PropOp33
 70
     1
102
RTVSPost2010Prop34
280
     0
102
RTVSPost2010PropOp34
 70
     1
102
RTVSPost2010Prop35
280
     0
102
RTVSPost2010PropOp35
 70
     1
102
RTVSPost2010Prop36
280
     0
102
RTVSPost2010PropOp36
 70
     1
102
RTVSPost2010Prop37
 90
       50
102
RTVSPost2010PropOp37
 70
     1
102
RTVSPost2010Prop38
140
0.0
102
RTVSPost2010PropOp38
 70
     1
102
RTVSPost2010Prop39
140
1.0
102
RTVSPost2010PropOp39
 70
     1
102
RTVSPost2010Prop40
 90
        0
102
RTVSPost2010PropOp40
 70
     1
102
RTVSPost2010Prop41ColorIndex
 90
       18
102
RTVSPost2010Prop41ColorRGB
 90
        0
102
RTVSPost2010PropOp41
 70
     1
102
RTVSPost2010Prop42
 90
       50
102
RTVSPost2010PropOp42
 70
     1
102
RTVSPost2010Prop43
 90
        3
102
RTVSPost2010PropOp43
 70
     1
102
RTVSPost2010Prop44ColorIndex
 90
        5
102
RTVSPost2010Prop44ColorRGB
 90
      255
102
RTVSPost2010PropOp44
 70
     1
102
RTVSPost2010Prop45
280
     0
102
RTVSPost2010PropOp45
 70
     1
102
RTVSPost2010Prop46
 90
       50
102
RTVSPost2010PropOp46
 70
     1
102
RTVSPost2010Prop47
 90
       50
102
RTVSPost2010PropOp47
 70
     1
102
RTVSPost2010Prop48
 90
       50
102
RTVSPost2010PropOp48
 70
     1
102
RTVSPost2010Prop49
280
     0
102
RTVSPost2010PropOp49
 70
     1
102
RTVSPost2010Prop50
 90
       50
102
RTVSPost2010PropOp50
 70
     1
102
RTVSPost2010Prop51ColorIndex
 90
      256
102
RTVSPost2010Prop51ColorRGB
 90
-16777216
102
RTVSPost2010PropOp51
 70
     0
102
RTVSPost2010Prop52
140
1.0
102
RTVSPost2010PropOp52
 70
     0
102
RTVSPost2010Prop53
 90
        2
102
RTVSPost2010PropOp53
 70
     1
102
RTVSPost2010Prop54
  1
strokes_ogs.tif
102
RTVSPost2010PropOp54
 70
     1
102
RTVSPost2010Prop55
280
     0
102
RTVSPost2010PropOp55
 70
     1
102
RTVSPost2010Prop56
140
1.0
102
RTVSPost2010PropOp56
 70
     1
102
RTVSPost2010Prop57
140
1.0
102
RTVSPost2010PropOp57
 70
     1
102
RTVSPropertyOp0
 70
     1
102
RTVSPropertyOp1
 70
     1
102
RTVSPropertyOp2
 70
     1
102
RTVSPropertyOp3
 70
     1
102
RTVSPropertyOp4
 70
     1
102
RTVSPropertyOp5
 70
     1
102
RTVSPropertyOp6
 70
     1
102
RTVSPropertyOp7
 70
     1
102
RTVSPropertyOp8
 70
     1
102
RTVSPropertyOp9
 70
     1
102
RTVSPropertyOp10
 70
     1
102
RTVSPropertyOp11
 70
     1
102
RTVSPropertyOp12
 70
     1
102
RTVSPropertyOp13
 70
     1
102
RTVSPropertyOp14
 70
     1
102
RTVSPropertyOp15
 70
     1
102
RTVSPropertyOp16
 70
     1
102
RTVSPropertyOp17
 70
     1
102
RTVSPropertyOp18
 70
     1
102
RTVSPropertyOp19
 70
     1
102
RTVSPropertyOp20
 70
     1
102
RTVSPropertyOp21
 70
     1
102
RTVSPropertyOp22
 70
     1
102
RTVSPropertyOp23
 70
     1
102
RTVSPropertyOp24
 70
     1
102
RTVSPropertyOp25
 70
     1
102
RTVSPropertyOp26
 70
     1
102
RTVSPropertyOp27
 70
     1
102
RTVSPropertyOp28
 70
     1
102
RTVSPropertyOp29
 70
     1
102
RTVSPropertyOp30
 70
     1
102
RTVSPropertyOp31
 70
     1
102
RTVSPropertyOp32
 70
     1
102
RTVSPropertyOp33
 70
     1
102
RTVSPropertyOp34
 70
     1
102
RTVSPropertyOp35
 70
     1
102
RTVSPropertyOp36
 70
     1
102
RTVSPropertyOp37
 70
     1
102
RTVSPropertyOp38
 70
     1
102
RTVSPropertyOp39
 70
     1
102
RTVSPropertyOp40
 70
     1
102
RTVSPropertyOp41
 70
     1
102
RTVSPropertyOp42
 70
     1
102
RTVSPropertyOp43
 70
     1
102
RTVSPropertyOp44
 70
     1
102
RTVSPropertyOp45
 70
     1
102
RTVSPropertyOp46
 70
     1
102
RTVSPropertyOp47
 70
     1
102
RTVSPropertyOp48
 70
     1
102
RTVSPropertyOp49
 70
     1
102
RTVSPropertyOp50
 70
     1
102
RTVSPropertyOp51
 70
     0
102
RTVSPropertyOp52
 70
     0
102
RTVSPropertyOp53
 70
     1
102
RTVSPropertyOp54
 70
     1
102
RTVSPropertyOp55
 70
     1
102
RTVSPropertyOp56
 70
     1
102
RTVSPropertyOp57
 70
     1
102
RTVSPropertyOp58
 70
     1
102
RTVSPropertyOp59
 70
     1
102
RTVSPropertyOp60
 70
     1
102
RTVSPropertyOp61
 70
     1
102
RTVSPropertyOp62
 70
     1
  0
XRECORD
  5
262
102
{ACAD_REACTORS
330
261
102
}
330
261
100
AcDbXrecord
280
     1
102
RTVSPost2010Prop28
280
     0
102
RTVSPost2010PropOp28
 70
     1
102
RTVSPost2010Prop29
280
     1
102
RTVSPost2010PropOp29
 70
     1
102
RTVSPost2010Prop30
280
     1
102
RTVSPost2010PropOp30
 70
     1
102
RTVSPost2010Prop31
280
     0
102
RTVSPost2010PropOp31
 70
     1
102
RTVSPost2010Prop32
280
     0
102
RTVSPost2010PropOp32
 70
     1
102
RTVSPost2010Prop33
280
     0
102
RTVSPost2010PropOp33
 70
     1
102
RTVSPost2010Prop34
280
     0
102
RTVSPost2010PropOp34
 70
     1
102
RTVSPost2010Prop35
280
     0
102
RTVSPost2010PropOp35
 70
     1
102
RTVSPost2010Prop36
280
     0
102
RTVSPost2010PropOp36
 70
     1
102
RTVSPost2010Prop37
 90
       50
102
RTVSPost2010PropOp37
 70
     1
102
RTVSPost2010Prop38
140
0.0
102
RTVSPost2010PropOp38
 70
     1
102
RTVSPost2010Prop39
140
1.0
102
RTVSPost2010PropOp39
 70
     1
102
RTVSPost2010Prop40
 90
        0
102
RTVSPost2010PropOp40
 70
     1
102
RTVSPost2010Prop41ColorIndex
 90
       18
102
RTVSPost2010Prop41ColorRGB
 90
        0
102
RTVSPost2010PropOp41
 70
     1
102
RTVSPost2010Prop42
 90
       50
102
RTVSPost2010PropOp42
 70
     1
102
RTVSPost2010Prop43
 90
        3
102
RTVSPost2010PropOp43
 70
     1
102
RTVSPost2010Prop44ColorIndex
 90
        5
102
RTVSPost2010Prop44ColorRGB
 90
      255
102
RTVSPost2010PropOp44
 70
     1
102
RTVSPost2010Prop45
280
     0
102
RTVSPost2010PropOp45
 70
     1
102
RTVSPost2010Prop46
 90
       50
102
RTVSPost2010PropOp46
 70
     1
102
RTVSPost2010Prop47
 90
       50
102
RTVSPost2010PropOp47
 70
     1
102
RTVSPost2010Prop48
 90
       50
102
RTVSPost2010PropOp48
 70
     1
102
RTVSPost2010Prop49
280
     0
102
RTVSPost2010PropOp49
 70
     1
102
RTVSPost2010Prop50
 90
       50
102
RTVSPost2010PropOp50
 70
     1
102
RTVSPost2010Prop51ColorIndex
 90
      256
102
RTVSPost2010Prop51ColorRGB
 90
-16777216
102
RTVSPost2010PropOp51
 70
     0
102
RTVSPost2010Prop52
140
1.0
102
RTVSPost2010PropOp52
 70
     0
102
RTVSPost2010Prop53
 90
        2
102
RTVSPost2010PropOp53
 70
     1
102
RTVSPost2010Prop54
  1
strokes_ogs.tif
102
RTVSPost2010PropOp54
 70
     1
102
RTVSPost2010Prop55
280
     0
102
RTVSPost2010PropOp55
 70
     1
102
RTVSPost2010Prop56
140
1.0
102
RTVSPost2010PropOp56
 70
     1
102
RTVSPost2010Prop57
140
1.0
102
RTVSPost2010PropOp57
 70
     1
102
RTVSPropertyOp0
 70
     1
102
RTVSPropertyOp1
 70
     1
102
RTVSPropertyOp2
 70
     1
102
RTVSPropertyOp3
 70
     1
102
RTVSPropertyOp4
 70
     1
102
RTVSPropertyOp5
 70
     1
102
RTVSPropertyOp6
 70
     1
102
RTVSPropertyOp7
 70
     1
102
RTVSPropertyOp8
 70
     1
102
RTVSPropertyOp9
 70
     1
102
RTVSPropertyOp10
 70
     1
102
RTVSPropertyOp11
 70
     1
102
RTVSPropertyOp12
 70
     1
102
RTVSPropertyOp13
 70
     1
102
RTVSPropertyOp14
 70
     1
102
RTVSPropertyOp15
 70
     1
102
RTVSPropertyOp16
 70
     1
102
RTVSPropertyOp17
 70
     1
102
RTVSPropertyOp18
 70
     1
102
RTVSPropertyOp19
 70
     1
102
RTVSPropertyOp20
 70
     1
102
RTVSPropertyOp21
 70
     1
102
RTVSPropertyOp22
 70
     1
102
RTVSPropertyOp23
 70
     1
102
RTVSPropertyOp24
 70
     1
102
RTVSPropertyOp25
 70
     1
102
RTVSPropertyOp26
 70
     1
102
RTVSPropertyOp27
 70
     1
102
RTVSPropertyOp28
 70
     1
102
RTVSPropertyOp29
 70
     1
102
RTVSPropertyOp30
 70
     1
102
RTVSPropertyOp31
 70
     1
102
RTVSPropertyOp32
 70
     1
102
RTVSPropertyOp33
 70
     1
102
RTVSPropertyOp34
 70
     1
102
RTVSPropertyOp35
 70
     1
102
RTVSPropertyOp36
 70
     1
102
RTVSPropertyOp37
 70
     1
102
RTVSPropertyOp38
 70
     1
102
RTVSPropertyOp39
 70
     1
102
RTVSPropertyOp40
 70
     1
102
RTVSPropertyOp41
 70
     1
102
RTVSPropertyOp42
 70
     1
102
RTVSPropertyOp43
 70
     1
102
RTVSPropertyOp44
 70
     1
102
RTVSPropertyOp45
 70
     1
102
RTVSPropertyOp46
 70
     1
102
RTVSPropertyOp47
 70
     1
102
RTVSPropertyOp48
 70
     1
102
RTVSPropertyOp49
 70
     1
102
RTVSPropertyOp50
 70
     1
102
RTVSPropertyOp51
 70
     0
102
RTVSPropertyOp52
 70
     0
102
RTVSPropertyOp53
 70
     1
102
RTVSPropertyOp54
 70
     1
102
RTVSPropertyOp55
 70
     1
102
RTVSPropertyOp56
 70
     1
102
RTVSPropertyOp57
 70
     1
102
RTVSPropertyOp58
 70
     1
102
RTVSPropertyOp59
 70
     1
102
RTVSPropertyOp60
 70
     1
102
RTVSPropertyOp61
 70
     1
102
RTVSPropertyOp62
 70
     1
  0
ENDSEC
  0
EOF
