  0
SECTION
  2
HEADER
  9
$ACADVER
  1
AC1018
  9
$ACADMAINTVER
 70
   104
  9
$DWGCODEPAGE
  3
ANSI_932
  9
$INSBASE
 10
0.0
 20
0.0
 30
0.0
  9
$EXTMIN
 10
1.803982751114432
 20
4.971863538507463
 30
-0.0015258207003583
  9
$EXTMAX
 10
51.81353642530911
 20
30.91408333197903
 30
0.0000000349246037
  9
$LIMMIN
 10
-3.351146814502499
 20
-0.5984510904177683
  9
$LIMMAX
 10
57.39936856868536
 20
35.36341003832735
  9
$ORTHOMODE
 70
     0
  9
$REGENMODE
 70
     1
  9
$FILLMODE
 70
     1
  9
$QTEXTMODE
 70
     0
  9
$MIRRTEXT
 70
     0
  9
$LTSCALE
 40
1.0
  9
$ATTMODE
 70
     1
  9
$TEXTSIZE
 40
2.5
  9
$TRACEWID
 40
1.0
  9
$TEXTSTYLE
  7
Standard
  9
$CLAYER
  8
0
  9
$CELTYPE
  6
ByLayer
  9
$CECOLOR
 62
   256
  9
$CELTSCALE
 40
1.0
  9
$DISPSILH
 70
     0
  9
$DIMSCALE
 40
1.0
  9
$DIMASZ
 40
2.5
  9
$DIMEXO
 40
0.625
  9
$DIMDLI
 40
3.75
  9
$DIMRND
 40
0.0
  9
$DIMDLE
 40
0.0
  9
$DIMEXE
 40
1.25
  9
$DIMTP
 40
0.0
  9
$DIMTM
 40
0.0
  9
$DIMTXT
 40
2.5
  9
$DIMCEN
 40
2.5
  9
$DIMTSZ
 40
0.0
  9
$DIMTOL
 70
     0
  9
$DIMLIM
 70
     0
  9
$DIMTIH
 70
     0
  9
$DIMTOH
 70
     0
  9
$DIMSE1
 70
     0
  9
$DIMSE2
 70
     0
  9
$DIMTAD
 70
     1
  9
$DIMZIN
 70
     8
  9
$DIMBLK
  1

  9
$DIMASO
 70
     1
  9
$DIMSHO
 70
     1
  9
$DIMPOST
  1

  9
$DIMAPOST
  1

  9
$DIMALT
 70
     0
  9
$DIMALTD
 70
     3
  9
$DIMALTF
 40
0.03937007874016
  9
$DIMLFAC
 40
1.0
  9
$DIMTOFL
 70
     1
  9
$DIMTVP
 40
0.0
  9
$DIMTIX
 70
     0
  9
$DIMSOXD
 70
     0
  9
$DIMSAH
 70
     0
  9
$DIMBLK1
  1

  9
$DIMBLK2
  1

  9
$DIMSTYLE
  2
ISO-25
  9
$DIMCLRD
 70
     0
  9
$DIMCLRE
 70
     0
  9
$DIMCLRT
 70
     0
  9
$DIMTFAC
 40
1.0
  9
$DIMGAP
 40
0.625
  9
$DIMJUST
 70
     0
  9
$DIMSD1
 70
     0
  9
$DIMSD2
 70
     0
  9
$DIMTOLJ
 70
     0
  9
$DIMTZIN
 70
     8
  9
$DIMALTZ
 70
     0
  9
$DIMALTTZ
 70
     0
  9
$DIMUPT
 70
     0
  9
$DIMDEC
 70
     2
  9
$DIMTDEC
 70
     2
  9
$DIMALTU
 70
     2
  9
$DIMALTTD
 70
     3
  9
$DIMTXSTY
  7
Standard
  9
$DIMAUNIT
 70
     0
  9
$DIMADEC
 70
     0
  9
$DIMALTRND
 40
0.0
  9
$DIMAZIN
 70
     0
  9
$DIMDSEP
 70
    44
  9
$DIMATFIT
 70
     3
  9
$DIMFRAC
 70
     0
  9
$DIMLDRBLK
  1

  9
$DIMLUNIT
 70
     2
  9
$DIMLWD
 70
    -2
  9
$DIMLWE
 70
    -2
  9
$DIMTMOVE
 70
     0
  9
$LUNITS
 70
     2
  9
$LUPREC
 70
     4
  9
$SKETCHINC
 40
1.0
  9
$FILLETRAD
 40
0.0
  9
$AUNITS
 70
     0
  9
$AUPREC
 70
     0
  9
$MENU
  1
.
  9
$ELEVATION
 40
0.0
  9
$PELEVATION
 40
0.0
  9
$THICKNESS
 40
0.0
  9
$LIMCHECK
 70
     0
  9
$CHAMFERA
 40
0.0
  9
$CHAMFERB
 40
0.0
  9
$CHAMFERC
 40
0.0
  9
$CHAMFERD
 40
0.0
  9
$SKPOLY
 70
     0
  9
$TDCREATE
 40
2458197.649120370
  9
$TDUCREATE
 40
2458197.315787037
  9
$TDUPDATE
 40
2458212.440254630
  9
$TDUUPDATE
 40
2458212.106921296
  9
$TDINDWG
 40
0.0354050926
  9
$TDUSRTIMER
 40
0.0354050926
  9
$USRTIMER
 70
     1
  9
$ANGBASE
 50
0.0
  9
$ANGDIR
 70
     0
  9
$PDMODE
 70
     0
  9
$PDSIZE
 40
0.0
  9
$PLINEWID
 40
0.0
  9
$SPLFRAME
 70
     0
  9
$SPLINETYPE
 70
     6
  9
$SPLINESEGS
 70
     8
  9
$HANDSEED
  5
26A
  9
$SURFTAB1
 70
     6
  9
$SURFTAB2
 70
     6
  9
$SURFTYPE
 70
     6
  9
$SURFU
 70
     6
  9
$SURFV
 70
     6
  9
$UCSBASE
  2

  9
$UCSNAME
  2

  9
$UCSORG
 10
0.0
 20
0.0
 30
0.0
  9
$UCSXDIR
 10
1.0
 20
0.0
 30
0.0
  9
$UCSYDIR
 10
0.0
 20
1.0
 30
0.0
  9
$UCSORTHOREF
  2

  9
$UCSORTHOVIEW
 70
     0
  9
$UCSORGTOP
 10
0.0
 20
0.0
 30
0.0
  9
$UCSORGBOTTOM
 10
0.0
 20
0.0
 30
0.0
  9
$UCSORGLEFT
 10
0.0
 20
0.0
 30
0.0
  9
$UCSORGRIGHT
 10
0.0
 20
0.0
 30
0.0
  9
$UCSORGFRONT
 10
0.0
 20
0.0
 30
0.0
  9
$UCSORGBACK
 10
0.0
 20
0.0
 30
0.0
  9
$PUCSBASE
  2

  9
$PUCSNAME
  2

  9
$PUCSORG
 10
0.0
 20
0.0
 30
0.0
  9
$PUCSXDIR
 10
1.0
 20
0.0
 30
0.0
  9
$PUCSYDIR
 10
0.0
 20
1.0
 30
0.0
  9
$PUCSORTHOREF
  2

  9
$PUCSORTHOVIEW
 70
     0
  9
$PUCSORGTOP
 10
0.0
 20
0.0
 30
0.0
  9
$PUCSORGBOTTOM
 10
0.0
 20
0.0
 30
0.0
  9
$PUCSORGLEFT
 10
0.0
 20
0.0
 30
0.0
  9
$PUCSORGRIGHT
 10
0.0
 20
0.0
 30
0.0
  9
$PUCSORGFRONT
 10
0.0
 20
0.0
 30
0.0
  9
$PUCSORGBACK
 10
0.0
 20
0.0
 30
0.0
  9
$USERI1
 70
     0
  9
$USERI2
 70
     0
  9
$USERI3
 70
     0
  9
$USERI4
 70
     0
  9
$USERI5
 70
     0
  9
$USERR1
 40
0.0
  9
$USERR2
 40
0.0
  9
$USERR3
 40
0.0
  9
$USERR4
 40
0.0
  9
$USERR5
 40
0.0
  9
$WORLDVIEW
 70
     1
  9
$SHADEDGE
 70
     3
  9
$SHADEDIF
 70
    70
  9
$TILEMODE
 70
     1
  9
$MAXACTVP
 70
    64
  9
$PINSBASE
 10
0.0
 20
0.0
 30
0.0
  9
$PLIMCHECK
 70
     0
  9
$PEXTMIN
 10
0.0
 20
0.0
 30
0.0
  9
$PEXTMAX
 10
0.0
 20
0.0
 30
0.0
  9
$PLIMMIN
 10
0.0
 20
0.0
  9
$PLIMMAX
 10
12.0
 20
9.0
  9
$UNITMODE
 70
     0
  9
$VISRETAIN
 70
     1
  9
$PLINEGEN
 70
     0
  9
$PSLTSCALE
 70
     1
  9
$TREEDEPTH
 70
  3020
  9
$CMLSTYLE
  2
Standard
  9
$CMLJUST
 70
     0
  9
$CMLSCALE
 40
20.0
  9
$PROXYGRAPHICS
 70
     1
  9
$MEASUREMENT
 70
     1
  9
$CELWEIGHT
370
    -1
  9
$ENDCAPS
280
     0
  9
$JOINSTYLE
280
     0
  9
$LWDISPLAY
290
     0
  9
$INSUNITS
 70
     4
  9
$HYPERLINKBASE
  1

  9
$STYLESHEET
  1

  9
$XEDIT
290
     1
  9
$CEPSNTYPE
380
     0
  9
$PSTYLEMODE
290
     1
  9
$FINGERPRINTGUID
  2
{C75702BD-8424-CA42-9C18-44FCA3A0C9C1}
  9
$VERSIONGUID
  2
{B504ADFA-9628-6345-8B29-7C141A418DF4}
  9
$EXTNAMES
290
     1
  9
$PSVPSCALE
 40
0.0
  9
$OLESTARTUP
290
     0
  9
$SORTENTS
280
   127
  9
$INDEXCTL
280
     0
  9
$HIDETEXT
280
     1
  9
$XCLIPFRAME
290
     0
  9
$HALOGAP
280
     0
  9
$OBSCOLOR
 70
   257
  9
$OBSLTYPE
280
     0
  9
$INTERSECTIONDISPLAY
280
     0
  9
$INTERSECTIONCOLOR
 70
   257
  9
$DIMASSOC
280
     2
  9
$PROJECTNAME
  1

  0
ENDSEC
  0
SECTION
  2
CLASSES
  0
CLASS
  1
ACDBDICTIONARYWDFLT
  2
AcDbDictionaryWithDefault
  3
ObjectDBX Classes
 90
        0
 91
        1
280
     0
281
     0
  0
CLASS
  1
DICTIONARYVAR
  2
AcDbDictionaryVar
  3
ObjectDBX Classes
 90
        0
 91
       12
280
     0
281
     0
  0
CLASS
  1
TABLESTYLE
  2
AcDbTableStyle
  3
ObjectDBX Classes
 90
     4095
 91
        1
280
     0
281
     0
  0
CLASS
  1
MATERIAL
  2
AcDbMaterial
  3
ObjectDBX Classes
 90
     1153
 91
        3
280
     0
281
     0
  0
CLASS
  1
VISUALSTYLE
  2
AcDbVisualStyle
  3
ObjectDBX Classes
 90
     4095
 91
        3
280
     0
281
     0
  0
CLASS
  1
SCALE
  2
AcDbScale
  3
ObjectDBX Classes
 90
     1153
 91
       17
280
     0
281
     0
  0
CLASS
  1
MLEADERSTYLE
  2
AcDbMLeaderStyle
  3
ACDB_MLEADERSTYLE_CLASS
 90
     4095
 91
        0
280
     0
281
     0
  0
CLASS
  1
CELLSTYLEMAP
  2
AcDbCellStyleMap
  3
ObjectDBX Classes
 90
     1152
 91
        1
280
     0
281
     0
  0
CLASS
  1
EXACXREFPANELOBJECT
  2
ExAcXREFPanelObject
  3
EXAC_ESW
 90
     1025
 91
        0
280
     1
281
     0
  0
CLASS
  1
NPOCOLLECTION
  2
AcDbImpNonPersistentObjectsCollection
  3
ObjectDBX Classes
 90
     1153
 91
        0
280
     0
281
     0
  0
CLASS
  1
LAYER_INDEX
  2
AcDbLayerIndex
  3
ObjectDBX Classes
 90
        0
 91
        0
280
     0
281
     0
  0
CLASS
  1
SPATIAL_INDEX
  2
AcDbSpatialIndex
  3
ObjectDBX Classes
 90
        0
 91
        0
280
     0
281
     0
  0
CLASS
  1
IDBUFFER
  2
AcDbIdBuffer
  3
ObjectDBX Classes
 90
        0
 91
        0
280
     0
281
     0
  0
CLASS
  1
ACDBSECTIONVIEWSTYLE
  2
AcDbSectionViewStyle
  3
ObjectDBX Classes
 90
     1025
 91
        0
280
     0
281
     0
  0
CLASS
  1
ACDBDETAILVIEWSTYLE
  2
AcDbDetailViewStyle
  3
ObjectDBX Classes
 90
     1025
 91
        0
280
     0
281
     0
  0
CLASS
  1
SORTENTSTABLE
  2
AcDbSortentsTable
  3
ObjectDBX Classes
 90
        0
 91
        2
280
     0
281
     0
  0
CLASS
  1
DIMASSOC
  2
AcDbDimAssoc
  3
"AcDbDimAssoc|Product Desc:     AcDim ARX App For Dimension|Company:          Autodesk, Inc.|WEB Address:      www.autodesk.com"
 90
        0
 91
        0
280
     0
281
     0
  0
ENDSEC
  0
SECTION
  2
TABLES
  0
TABLE
  2
VPORT
  5
29
330
0
100
AcDbSymbolTable
 70
     1
  0
VPORT
  5
2A
330
29
100
AcDbSymbolTableRecord
100
AcDbViewportTableRecord
  2
*Active
 70
     0
 10
0.0
 20
0.0
 11
1.0
 21
1.0
 12
27.02411087709143
 22
17.38247947395478
 13
0.0
 23
0.0
 14
10.0
 24
10.0
 15
10.0
 25
10.0
 16
0.0
 26
0.0
 36
1.0
 17
0.0
 27
0.0
 37
0.0
 40
36.27685553279251
 41
2.326023391812865
 42
50.0
 43
0.0
 44
0.0
 50
0.0
 51
0.0
 71
     0
 72
  1000
 73
     1
 74
     3
 75
     0
 76
     1
 77
     0
 78
     0
281
     0
 65
     1
110
0.0
120
0.0
130
0.0
111
1.0
121
0.0
131
0.0
112
0.0
122
1.0
132
0.0
 79
     0
146
0.0
1001
ACAD_NAV_VCDISPLAY
1070
     3
  0
ENDTAB
  0
TABLE
  2
LTYPE
  5
24
330
0
100
AcDbSymbolTable
 70
     1
  0
LTYPE
  5
25
330
24
100
AcDbSymbolTableRecord
100
AcDbLinetypeTableRecord
  2
ByBlock
 70
     0
  3

 72
    65
 73
     0
 40
0.0
  0
LTYPE
  5
26
330
24
100
AcDbSymbolTableRecord
100
AcDbLinetypeTableRecord
  2
ByLayer
 70
     0
  3

 72
    65
 73
     0
 40
0.0
  0
LTYPE
  5
14
330
24
100
AcDbSymbolTableRecord
100
AcDbLinetypeTableRecord
  2
Continuous
 70
     0
  3
Solid line
 72
    65
 73
     0
 40
0.0
  0
ENDTAB
  0
TABLE
  2
LAYER
  5
1E
102
{ACAD_XDICTIONARY
360
1F
102
}
330
0
100
AcDbSymbolTable
 70
     1
  0
LAYER
  5
6
102
{ACAD_XDICTIONARY
360
7
102
}
330
1E
100
AcDbSymbolTableRecord
100
AcDbLayerTableRecord
  2
0
 70
     0
 62
     7
  6
Continuous
370
    -3
390
8
  0
ENDTAB
  0
TABLE
  2
STYLE
  5
21
330
0
100
AcDbSymbolTable
 70
     1
  0
STYLE
  5
22
330
21
100
AcDbSymbolTableRecord
100
AcDbTextStyleTableRecord
  2
Standard
 70
     0
 40
0.0
 41
1.0
 50
0.0
 71
     0
 42
2.5
  3
arial.ttf
  4

1001
ACAD
1000
Arial
1071
       34
  0
ENDTAB
  0
TABLE
  2
VIEW
  5
27
330
0
100
AcDbSymbolTable
 70
     0
  0
ENDTAB
  0
TABLE
  2
UCS
  5
28
330
0
100
AcDbSymbolTable
 70
     0
  0
ENDTAB
  0
TABLE
  2
APPID
  5
2E
330
0
100
AcDbSymbolTable
 70
     6
  0
APPID
  5
13
330
2E
100
AcDbSymbolTableRecord
100
AcDbRegAppTableRecord
  2
ACAD
 70
     0
  0
APPID
  5
19
330
2E
100
AcDbSymbolTableRecord
100
AcDbRegAppTableRecord
  2
ACAD_PSEXT
 70
     0
  0
APPID
  5
32
330
2E
100
AcDbSymbolTableRecord
100
AcDbRegAppTableRecord
  2
AcadAnnotative
 70
     0
  0
APPID
  5
33
330
2E
100
AcDbSymbolTableRecord
100
AcDbRegAppTableRecord
  2
ACAD_DSTYLE_DIMJAG
 70
     0
  0
APPID
  5
34
330
2E
100
AcDbSymbolTableRecord
100
AcDbRegAppTableRecord
  2
ACAD_DSTYLE_DIMTALN
 70
     0
  0
APPID
  5
2D
330
2E
100
AcDbSymbolTableRecord
100
AcDbRegAppTableRecord
  2
ACAD_NAV_VCDISPLAY
 70
     0
  0
ENDTAB
  0
TABLE
  2
DIMSTYLE
  5
2F
330
0
100
AcDbSymbolTable
 70
     2
100
AcDbDimStyleTable
 71
     2
340
30
340
31
  0
DIMSTYLE
105
31
330
2F
100
AcDbSymbolTableRecord
100
AcDbDimStyleTableRecord
  2
Annotative
 70
     0
 40
0.0
 41
2.5
 42
0.625
 43
3.75
 44
1.25
 73
     0
 74
     0
 77
     1
 78
     8
140
2.5
141
2.5
143
0.03937007874016
147
0.625
171
     3
172
     1
271
     2
272
     2
274
     3
278
    44
283
     0
284
     8
340
22
1001
AcadAnnotative
1000
AnnotativeData
1002
{
1070
     1
1070
     1
1002
}
1001
ACAD_DSTYLE_DIMJAG
1070
   388
1040
1.5
1001
ACAD_DSTYLE_DIMTALN
1070
   392
1070
     0
  0
DIMSTYLE
105
30
330
2F
100
AcDbSymbolTableRecord
100
AcDbDimStyleTableRecord
  2
ISO-25
 70
     0
 41
2.5
 42
0.625
 43
3.75
 44
1.25
 73
     0
 74
     0
 77
     1
 78
     8
140
2.5
141
2.5
143
0.03937007874016
147
0.625
171
     3
172
     1
271
     2
272
     2
274
     3
278
    44
283
     0
284
     8
340
22
  0
ENDTAB
  0
TABLE
  2
BLOCK_RECORD
  5
1
330
0
100
AcDbSymbolTable
 70
     0
  0
BLOCK_RECORD
  5
2
102
{ACAD_XDICTIONARY
360
3
102
}
330
1
100
AcDbSymbolTableRecord
100
AcDbBlockTableRecord
  2
*Model_Space
340
16
  0
BLOCK_RECORD
  5
1A
330
1
100
AcDbSymbolTableRecord
100
AcDbBlockTableRecord
  2
*Paper_Space
340
1D
  0
ENDTAB
  0
ENDSEC
  0
SECTION
  2
BLOCKS
  0
BLOCK
  5
5
330
2
100
AcDbEntity
  8
0
100
AcDbBlockBegin
  2
*Model_Space
 70
     0
 10
0.0
 20
0.0
 30
0.0
  3
*Model_Space
  1

  0
ENDBLK
  5
15
330
2
100
AcDbEntity
  8
0
100
AcDbBlockEnd
  0
BLOCK
  5
1B
330
1A
100
AcDbEntity
 67
     1
  8
0
100
AcDbBlockBegin
  2
*Paper_Space
 70
     0
 10
0.0
 20
0.0
 30
0.0
  3
*Paper_Space
  1

  0
ENDBLK
  5
1C
330
1A
100
AcDbEntity
 67
     1
  8
0
100
AcDbBlockEnd
  0
ENDSEC
  0
SECTION
  2
ENTITIES
  0
LINE
  5
59
330
2
100
AcDbEntity
  8
0
100
AcDbLine
 10
51.7629862199488
 20
27.19081751627845
 30
0.0
 11
49.22928661507893
 21
27.86441350472232
 31
0.0
  0
LINE
  5
5A
330
2
100
AcDbEntity
  8
0
100
AcDbLine
 10
51.71486676598886
 20
26.78446958925503
 30
0.0
 11
51.7308682791463
 21
26.80485536910533
 31
0.0
  0
LINE
  5
5B
330
2
100
AcDbEntity
  8
0
100
AcDbLine
 10
38.68638586843319
 20
14.54926270737178
 30
0.0
 11
38.70628261801851
 21
14.56145675144243
 31
0.0
  0
LINE
  5
5C
330
2
100
AcDbEntity
  8
0
100
AcDbLine
 10
38.68638586843319
 20
14.54926270737178
 30
0.0
 11
38.70628261801851
 21
14.56145675144243
 31
0.0
  0
SPLINE
  5
5D
330
2
100
AcDbEntity
  8
0
100
AcDbSpline
210
0.0
220
0.0
230
1.0
 70
     8
 71
     3
 72
    11
 73
     7
 74
     0
 42
0.000000001
 43
0.0000000001
 40
0.0
 40
0.0
 40
0.0
 40
0.0
 40
0.1879885624648552
 40
0.5137236428205281
 40
0.8123536238117871
 40
1.0
 40
1.0
 40
1.0
 40
1.0
 10
46.53202598220201
 20
30.07275212662759
 30
0.0
 10
46.50987415312648
 20
30.0907210383074
 30
0.0
 10
46.44933898982372
 20
30.13982538085159
 30
0.0
 10
46.34892057815472
 20
30.1893022340293
 30
0.0
 10
46.24205023969693
 20
30.21317691830953
 30
0.0
 10
46.18115609592552
 20
30.20409247332754
 30
0.0
 10
46.15232977896647
 20
30.19576325710193
 30
0.0
  0
LINE
  5
5E
330
2
100
AcDbEntity
  8
0
100
AcDbLine
 10
46.14322620871479
 20
30.19334968331596
 30
0.0
 11
46.08109771318874
 21
30.175414731504
 31
0.0
  0
LINE
  5
5F
330
2
100
AcDbEntity
  8
0
100
AcDbLine
 10
47.16749069469415
 20
29.52242354236025
 30
0.0
 11
46.53202598221105
 21
30.07275212663151
 31
0.0
  0
LINE
  5
60
330
2
100
AcDbEntity
  8
0
100
AcDbLine
 10
40.39469184308107
 20
28.79920385632137
 30
0.0
 11
40.39469184308107
 21
23.14436132539091
 31
0.0
  0
SPLINE
  5
61
330
2
100
AcDbEntity
  8
0
100
AcDbSpline
210
0.0
220
0.0
230
1.0
 70
     8
 71
     3
 72
    11
 73
     7
 74
     0
 42
0.000000001
 43
0.0000000001
 40
0.0110196401012384
 40
0.0110196401012384
 40
0.0110196401012384
 40
0.0110196401012384
 40
0.0615143395052973
 40
0.4379840391955325
 40
0.7831269054152804
 40
1.0
 40
1.0
 40
1.0
 40
1.0
 10
41.3995630990028
 20
30.13662679096039
 30
0.0
 10
41.39439513657808
 20
30.14068449388285
 30
0.0
 10
41.3506510914341
 20
30.17472077353571
 30
0.0
 10
41.26764705860689
 20
30.21287030228309
 30
0.0
 10
41.16091206245629
 20
30.23755729542183
 30
0.0
 10
41.09315969168702
 20
30.22571876211376
 30
0.0
 10
41.07117502058521
 20
30.22004411626989
 30
0.0
  0
LINE
  5
62
330
2
100
AcDbEntity
  8
0
100
AcDbLine
 10
41.0711750205852
 20
30.22004411626989
 30
0.0
 11
40.96887870705886
 21
30.19072811479466
 31
0.0
  0
SPLINE
  5
63
330
2
100
AcDbEntity
  8
0
100
AcDbSpline
210
0.0
220
0.0
230
1.0
 70
     8
 71
     3
 72
    13
 73
     9
 74
     0
 42
0.000000001
 43
0.0000000001
 40
0.0181171659346276
 40
0.0181171659346276
 40
0.0181171659346276
 40
0.0181171659346276
 40
0.0682809439348186
 40
0.2399574246621085
 40
0.4120069133787162
 40
0.5976243508182299
 40
0.7970291527534074
 40
1.0
 40
1.0
 40
1.0
 40
1.0
 10
40.71331293032184
 20
29.45016724579823
 30
0.0
 10
40.70200214256217
 20
29.44851425508823
 30
0.0
 10
40.6523854309263
 20
29.43988721216472
 30
0.0
 10
40.57622042055133
 20
29.38559531836693
 30
0.0
 10
40.49713323158387
 20
29.29008255160278
 30
0.0
 10
40.43972595177989
 20
29.15951716393017
 30
0.0
 10
40.40184788802934
 20
28.99679627061005
 30
0.0
 10
40.39709124329282
 20
28.86545599452308
 30
0.0
 10
40.39469184309509
 20
28.79920385633034
 30
0.0
  0
LINE
  5
64
330
2
100
AcDbEntity
  8
0
100
AcDbLine
 10
43.05145515313999
 20
30.22884931486663
 30
0.0
 11
43.05145515313999
 21
23.96002188555399
 31
0.0
  0
LINE
  5
65
330
2
100
AcDbEntity
  8
0
100
AcDbLine
 10
43.45351919843766
 20
30.90798138945425
 30
0.0
 11
43.36082578531291
 21
30.88122375955541
 31
0.0
  0
SPLINE
  5
66
330
2
100
AcDbEntity
  8
0
100
AcDbSpline
210
0.0
220
0.0
230
1.0
 70
     8
 71
     3
 72
    13
 73
     9
 74
     0
 42
0.000000001
 43
0.0000000001
 40
0.0
 40
0.0
 40
0.0
 40
0.0
 40
0.0682809439348204
 40
0.2399574246621068
 40
0.4120069133787155
 40
0.5976243508182329
 40
0.7970291527534073
 40
1.0
 40
1.0
 40
1.0
 40
1.0
 10
43.36032645513426
 20
30.88107896173629
 30
0.0
 10
43.33948270821053
 20
30.87604244666903
 30
0.0
 10
43.30834069828543
 20
30.86481767485935
 30
0.0
 10
43.23298373060957
 20
30.8152407769033
 30
0.0
 10
43.15389654164211
 20
30.71972801013911
 30
0.0
 10
43.09648926183816
 20
30.58916262246649
 30
0.0
 10
43.0586111980876
 20
30.4264417291464
 30
0.0
 10
43.05385455335105
 20
30.29510145305942
 30
0.0
 10
43.05145515315335
 20
30.22884931486669
 30
0.0
  0
SPLINE
  5
67
330
2
100
AcDbEntity
  8
0
100
AcDbSpline
210
0.0
220
0.0
230
1.0
 70
     8
 71
     3
 72
    11
 73
     7
 74
     0
 42
0.000000001
 43
0.0000000001
 40
0.0
 40
0.0
 40
0.0
 40
0.0
 40
0.1879885624648556
 40
0.5137236428205357
 40
0.8123536238117877
 40
1.0
 40
1.0
 40
1.0
 40
1.0
 10
45.25547144987007
 20
30.53262251571248
 30
0.0
 10
45.23331962079447
 20
30.55059142739224
 30
0.0
 10
45.17278445749172
 20
30.59969576993647
 30
0.0
 10
45.07236604582277
 20
30.64917262311411
 30
0.0
 10
44.96549570736493
 20
30.67304730739435
 30
0.0
 10
44.90111876697892
 20
30.66068984382349
 30
0.0
 10
44.87577524661008
 20
30.65563364616925
 30
0.0
  0
LINE
  5
68
330
2
100
AcDbEntity
  8
0
100
AcDbLine
 10
44.86667167638706
 20
30.65322007241194
 30
0.0
 11
44.77347893308371
 21
30.62631764469399
 31
0.0
  0
LINE
  5
69
330
2
100
AcDbEntity
  8
0
100
AcDbLine
 10
47.82146227399226
 20
24.82732275802012
 30
0.0
 11
47.82146227399226
 21
27.36038456730764
 31
0.0
  0
LINE
  5
6A
330
2
100
AcDbEntity
  8
0
100
AcDbLine
 10
45.89351705120725
 20
29.98005881618079
 30
0.0
 11
45.25547144988331
 21
30.5326225156988
 31
0.0
  0
SPLINE
  5
6B
330
2
100
AcDbEntity
  8
0
100
AcDbSpline
210
0.0
220
0.0
230
1.0
 70
     8
 71
     3
 72
    12
 73
     8
 74
     0
 42
0.000000001
 43
0.0000000001
 40
0.0
 40
0.0
 40
0.0
 40
0.0
 40
0.7487659313928449
 40
1.0
 40
1.0
 40
1.0
 40
1.190250455941469
 40
1.190250455941469
 40
1.190250455941469
 40
1.190250455941469
 10
47.72361519617613
 20
27.97872065650054
 30
0.0
 10
47.71076125035341
 20
28.02583521252033
 30
0.0
 10
47.69359440917679
 20
28.0887581555182
 30
0.0
 10
47.66887558529226
 20
28.14664623583905
 30
0.0
 10
47.66266537459654
 20
28.16118969378191
 30
0.0
 10
47.65796260708216
 20
28.17220292745652
 30
0.0
 10
47.65325983956779
 20
28.18321616113113
 30
0.0
 10
47.64855707205342
 20
28.19422939480574
 30
0.0
  0
SPLINE
  5
6C
330
2
100
AcDbEntity
  8
0
100
AcDbSpline
210
0.0
220
0.0
230
1.0
 70
     8
 71
     3
 72
    11
 73
     7
 74
     0
 42
0.000000001
 43
0.0000000001
 40
0.0
 40
0.0
 40
0.0
 40
0.0
 40
0.1823962175757965
 40
0.5301358133834352
 40
0.8763538617703105
 40
1.0
 40
1.0
 40
1.0
 40
1.0
 10
47.82146227400324
 20
27.36038456731386
 30
0.0
 10
47.82082308259646
 20
27.39588472338234
 30
0.0
 10
47.81896526854308
 20
27.49906616191606
 30
0.0
 10
47.79671635779874
 20
27.68082096395033
 30
0.0
 10
47.76310905978596
 20
27.8554863308988
 30
0.0
 10
47.73184296158251
 20
27.9530472219871
 30
0.0
 10
47.72361519617613
 20
27.97872065650054
 30
0.0
  0
LINE
  5
6D
330
2
100
AcDbEntity
  8
0
100
AcDbLine
 10
41.36437446187118
 20
29.8246690632815
 30
0.0
 11
41.36437446187118
 21
23.58791583642604
 31
0.0
  0
SPLINE
  5
6E
330
2
100
AcDbEntity
  8
0
100
AcDbSpline
210
0.0
220
0.0
230
1.0
 70
     8
 71
     3
 72
    11
 73
     7
 74
     0
 42
0.000000001
 43
0.0000000001
 40
0.0
 40
0.0
 40
0.0
 40
0.0
 40
0.1879885624648551
 40
0.513723642820528
 40
0.8123536238117898
 40
1.0
 40
1.0
 40
1.0
 40
1.0
 10
42.9944723006186
 20
30.62547022845459
 30
0.0
 10
42.972320471543
 20
30.64343914013439
 30
0.0
 10
42.91178530824031
 20
30.69254348267857
 30
0.0
 10
42.81136689657133
 20
30.74202033585625
 30
0.0
 10
42.70449655811349
 20
30.7658950201365
 30
0.0
 10
42.63424766951721
 20
30.7531590084684
 30
0.0
 10
42.6147760973583
 20
30.74848135890707
 30
0.0
  0
LINE
  5
6F
330
2
100
AcDbEntity
  8
0
100
AcDbLine
 10
42.6147760973583
 20
30.74848135890707
 30
0.0
 11
42.51247978383192
 21
30.71916535743183
 31
0.0
  0
LINE
  5
70
330
2
100
AcDbEntity
  8
0
100
AcDbLine
 10
41.76643565184508
 20
30.50380096722072
 30
0.0
 11
41.67374509404412
 21
30.47704350797028
 31
0.0
  0
SPLINE
  5
71
330
2
100
AcDbEntity
  8
0
100
AcDbSpline
210
0.0
220
0.0
230
1.0
 70
     8
 71
     3
 72
    11
 73
     7
 74
     0
 42
0.000000001
 43
0.0000000001
 40
0.0
 40
0.0
 40
0.0
 40
0.0
 40
0.4120069133787161
 40
0.59762435081823
 40
0.7970291527534075
 40
1.0
 40
1.0
 40
1.0
 40
1.0
 10
41.67324576386543
 20
30.47689871017987
 30
0.0
 10
41.54590303934109
 20
30.41106052533139
 30
0.0
 10
41.46681585037363
 20
30.31554775856722
 30
0.0
 10
41.40940857056968
 20
30.18498237089459
 30
0.0
 10
41.37153050681909
 20
30.02226147757449
 30
0.0
 10
41.36677386208261
 20
29.8909212014875
 30
0.0
 10
41.36437446188487
 20
29.82466906329479
 30
0.0
  0
LINE
  5
72
330
2
100
AcDbEntity
  8
0
100
AcDbLine
 10
43.09088658669743
 20
30.54197300742262
 30
0.0
 11
42.99447230063155
 21
30.62547022846533
 31
0.0
  0
LINE
  5
73
330
2
100
AcDbEntity
  8
0
100
AcDbLine
 10
48.91464414414395
 20
21.28067378545056
 30
0.0
 11
48.91464414414395
 21
21.61843067573072
 31
0.0
  0
LINE
  5
74
330
2
100
AcDbEntity
  8
0
100
AcDbLine
 10
38.01797754824337
 20
18.35799895926485
 30
0.0
 11
38.03302172707517
 21
18.20927100839835
 31
0.0
  0
LINE
  5
75
330
2
100
AcDbEntity
  8
0
100
AcDbLine
 10
50.18313239002686
 20
18.20927100839835
 30
0.0
 11
50.19817656885862
 21
18.35799895926485
 31
0.0
  0
LINE
  5
76
330
2
100
AcDbEntity
  8
0
100
AcDbLine
 10
45.52914716048838
 20
21.46984177133168
 30
0.0
 11
45.48958665809329
 21
23.47471551377716
 31
0.0
  0
LINE
  5
77
330
2
100
AcDbEntity
  8
0
100
AcDbLine
 10
48.96871230361177
 20
20.35309318688511
 30
0.0
 11
48.91260405889983
 21
21.31567300710982
 31
0.0
  0
SPLINE
  5
78
330
2
100
AcDbEntity
  8
0
100
AcDbSpline
210
0.0
220
0.0
230
1.0
 70
     8
 71
     3
 72
    12
 73
     8
 74
     0
 42
0.000000001
 43
0.0000000001
 40
0.0
 40
0.0
 40
0.0
 40
0.0
 40
0.2173037781485778
 40
0.4484641525182564
 40
0.6939659859330961
 40
0.9509535695026849
 40
1.0
 40
1.0
 40
1.0
 40
1.0
 10
45.48943032543246
 20
23.47483699695818
 30
0.0
 10
45.48759178883876
 20
23.48964535010331
 30
0.0
 10
45.48379747949724
 20
23.52020632607892
 30
0.0
 10
45.45663775128622
 20
23.56285151364967
 30
0.0
 10
45.41538853266405
 20
23.59635901108017
 30
0.0
 10
45.37721836878853
 20
23.61337384670692
 30
0.0
 10
45.35548601508582
 20
23.61443457579913
 30
0.0
 10
45.35200308728554
 20
23.61460457316312
 30
0.0
  0
ARC
  5
79
330
2
100
AcDbEntity
  8
0
100
AcDbCircle
 10
45.06946158785683
 20
23.60490949290213
 30
0.0
 40
0.043043884348719
100
AcDbArc
 50
84.27299274209991
 51
106.1021137519974
  0
ARC
  5
7A
330
2
100
AcDbEntity
  8
0
100
AcDbCircle
 10
45.06946158785683
 20
23.60490949290213
 30
0.0
 40
0.0430438843487228
100
AcDbArc
 50
106.1021137519974
 51
133.239577152698
  0
LINE
  5
7B
330
2
100
AcDbEntity
  8
0
100
AcDbLine
 10
45.03997435428004
 20
23.63626677331447
 30
0.0
 11
44.99535273224916
 21
23.59430624057596
 31
0.0
  0
LINE
  5
7C
330
2
100
AcDbEntity
  8
0
100
AcDbLine
 10
39.27812093985775
 20
21.78723683487972
 30
0.0
 11
39.26377715696499
 21
20.36382548087391
 31
0.0
  0
LWPOLYLINE
  5
7D
330
2
100
AcDbEntity
  8
0
100
AcDbPolyline
 90
       17
 70
   128
 43
0.0
 10
50.03333029707613
 20
25.97630767326353
 10
50.16657131090681
 20
25.96352181024687
 10
50.30360840053851
 20
25.99155425916055
 10
50.42357891127682
 20
26.05613733379853
 10
50.50821842044837
 20
26.1474388464482
 10
50.54464133003216
 20
26.25155896950002
 10
50.52730258219014
 20
26.35264635805758
 10
50.45884184413444
 20
26.43531137354731
 10
50.3496816426175
 20
26.48696901677974
 10
50.21644062878682
 20
26.49975487976769
 10
50.07940353918383
 20
26.47172243085401
 10
49.95943302841681
 20
26.40713935624472
 10
49.87479351924526
 20
26.31583784356636
 10
49.83837060966152
 20
26.21171772051454
 10
49.85570935750349
 20
26.11063033195698
 10
49.92417009555925
 20
26.02796531646726
 10
50.03333029707613
 20
25.97630767326353
  0
ARC
  5
7E
330
2
100
AcDbEntity
  8
0
100
AcDbCircle
 10
49.63892211926259
 20
27.25678211861884
 30
0.0
 40
0.4463997981885295
100
AcDbArc
 50
255.3679853916022
 51
323.9708142282997
  0
LWPOLYLINE
  5
7F
330
2
100
AcDbEntity
  8
0
100
AcDbPolyline
 90
        7
 70
   128
 43
0.0
 10
49.48879010449411
 20
27.28056276239634
 10
49.45225978136477
 20
27.25569156441808
 10
49.36762027219322
 20
27.16439005173971
 10
49.33119736260948
 20
27.06026992868788
 10
49.3485361104515
 20
26.95918254013035
 10
49.41699684850721
 20
26.87651752464061
 10
49.52615705002415
 20
26.82485988143688
  0
LWPOLYLINE
  5
80
330
2
100
AcDbEntity
  8
0
100
AcDbPolyline
 90
       17
 70
   128
 43
0.0
 10
48.76691382072499
 20
25.59927265699228
 10
48.90015483455562
 20
25.58648679397562
 10
49.03719192418737
 20
25.614519242918
 10
49.15716243492568
 20
25.67910231752727
 10
49.24180194409723
 20
25.77040383020566
 10
49.27822485368096
 20
25.87452395325746
 10
49.26088610583895
 20
25.97561134178631
 10
49.19242536778324
 20
26.05827635730476
 10
49.0832651662663
 20
26.10993400050847
 10
48.95002415243567
 20
26.12271986352513
 10
48.81298706283264
 20
26.09468741461147
 10
48.69301655206567
 20
26.0301043399735
 10
48.60837704289406
 20
25.93880282732379
 10
48.57195413331033
 20
25.83468270427199
 10
48.58929288115234
 20
25.73359531571443
 10
48.65775361920805
 20
25.65093030022472
 10
48.76691382072499
 20
25.59927265699228
  0
LINE
  5
81
330
2
100
AcDbEntity
  8
0
100
AcDbLine
 10
50.87949567336625
 20
25.79405281189492
 30
0.0
 11
51.40412169657588
 21
26.64091574967655
 31
0.0
  0
ARC
  5
82
330
2
100
AcDbEntity
  8
0
100
AcDbCircle
 10
48.44054740534136
 20
27.36753941479628
 30
0.0
 40
2.902469421657713
100
AcDbArc
 50
300.3553043191005
 51
327.1719294457005
  0
LINE
  5
83
330
2
100
AcDbEntity
  8
0
100
AcDbLine
 10
49.90734160079802
 20
24.8629748754294
 30
0.0
 11
49.87175070040109
 21
24.84140114629689
 31
0.0
  0
ARC
  5
84
330
2
100
AcDbEntity
  8
0
100
AcDbCircle
 10
50.23844924925089
 20
24.21526001145517
 30
0.0
 40
0.7256173554140567
100
AcDbArc
 50
120.3553043191005
 51
147.1719294457004
  0
LINE
  5
85
330
2
100
AcDbEntity
  8
0
100
AcDbLine
 10
49.6287121822375
 20
24.60863166217335
 30
0.0
 11
49.15142777597981
 21
23.83818861021718
 31
0.0
  0
LINE
  5
86
330
2
100
AcDbEntity
  8
0
100
AcDbLine
 10
47.5045230328115
 20
24.27602600272435
 30
0.0
 11
47.9818074390979
 21
25.0464690546805
 31
0.0
  0
ARC
  5
87
330
2
100
AcDbEntity
  8
0
100
AcDbCircle
 10
47.59767888285728
 20
25.29642556214771
 30
0.0
 40
0.4582935776888465
100
AcDbArc
 50
326.9475216872014
 51
3.494638957998934
  0
LINE
  5
88
330
2
100
AcDbEntity
  8
0
100
AcDbLine
 10
48.05512026647562
 20
25.32436091407313
 30
0.0
 11
48.05254475892803
 21
25.35608136276823
 31
0.0
  0
ARC
  5
89
330
2
100
AcDbEntity
  8
0
100
AcDbCircle
 10
49.88231029345882
 20
25.46782277044135
 30
0.0
 40
1.833174310755596
100
AcDbArc
 50
146.9475216872014
 51
183.4946389579988
  0
LINE
  5
8A
330
2
100
AcDbEntity
  8
0
100
AcDbLine
 10
48.34579606849638
 20
26.4676488003388
 30
0.0
 11
49.1582506160023
 21
27.77913091234286
 31
0.0
  0
ARC
  5
8B
330
2
100
AcDbEntity
  8
0
100
AcDbCircle
 10
50.17635298128368
 20
27.92452541139809
 30
0.0
 40
0.9444669150079281
100
AcDbArc
 50
191.6417270303014
 51
255.7339633375997
  0
ARC
  5
8C
330
2
100
AcDbEntity
  8
0
100
AcDbCircle
 10
50.196249730869
 20
27.94975171083341
 30
0.0
 40
0.9444669150079247
100
AcDbArc
 50
191.6417270303014
 51
255.7339633375997
  0
LINE
  5
8D
330
2
100
AcDbEntity
  8
0
100
AcDbLine
 10
49.26758238470307
 20
27.79346556000335
 30
0.0
 11
49.27121186976723
 21
27.75916653539171
 31
0.0
  0
LINE
  5
8E
330
2
100
AcDbEntity
  8
0
100
AcDbLine
 10
51.80128198957294
 20
27.11986957155949
 30
0.0
 11
51.80491147463715
 21
27.08557054694783
 31
0.0
  0
LWPOLYLINE
  5
8F
330
2
100
AcDbEntity
  8
0
100
AcDbPolyline
 90
        9
 70
   128
 43
0.0
 10
51.2303596856409
 20
26.69761229568118
 10
51.35280352325498
 20
26.67544952964371
 10
51.46827945216665
 20
26.67551896330312
 10
51.57234979720448
 20
26.69781792839769
 10
51.66101519333216
 20
26.74148948816634
 10
51.7308682791463
 20
26.80485536910533
 10
51.77922463970134
 20
26.88548045591589
 10
51.80422596720461
 20
26.98026637172101
 10
51.80491147463715
 20
27.08557054694783
  0
LINE
  5
90
330
2
100
AcDbEntity
  8
0
100
AcDbLine
 10
49.96350988320597
 20
27.03441028991746
 30
0.0
 11
51.2303596856409
 21
26.69761229568118
 31
0.0
  0
LWPOLYLINE
  5
91
330
2
100
AcDbEntity
  8
0
100
AcDbPolyline
 90
        9
 70
   128
 43
0.0
 10
49.15131685986733
 20
27.80762470730204
 10
49.16983152700066
 20
27.83343501100878
 10
49.18889288452295
 20
27.85216808866527
 10
49.20759727182354
 20
27.86293584283731
 10
49.225057951655
 20
27.86522779595589
 10
49.24044714828267
 20
27.85893529116719
 10
49.25303529093833
 20
27.84435664342298
 10
49.26222560110222
 20
27.82218299706809
 10
49.26758238470307
 20
27.79346556000335
  0
LWPOLYLINE
  5
92
330
2
100
AcDbEntity
  8
0
100
AcDbPolyline
 90
        9
 70
   128
 43
0.0
 10
49.1582506160023
 20
27.77913091234286
 10
49.17249266765878
 20
27.79898499209521
 10
49.18715525034611
 20
27.8133950518376
 10
49.20154324059945
 20
27.82167793967107
 10
49.21497453277305
 20
27.82344098052929
 10
49.22681237633281
 20
27.81860059222808
 10
49.23649556299096
 20
27.80738624782715
 10
49.24356503236111
 20
27.7903295967761
 10
49.24768563511776
 20
27.76823926056803
  0
LINE
  5
93
330
2
100
AcDbEntity
  8
0
100
AcDbLine
 10
49.24768563511776
 20
27.76823926056803
 30
0.0
 11
49.25131512018191
 21
27.73394023595638
 31
0.0
  0
LINE
  5
94
330
2
100
AcDbEntity
  8
0
100
AcDbLine
 10
48.33886231236141
 20
26.49614259532664
 30
0.0
 11
49.15131685986733
 21
27.80762470730204
 31
0.0
  0
LINE
  5
95
330
2
100
AcDbEntity
  8
0
100
AcDbLine
 10
49.9436131336206
 20
27.00918399045344
 30
0.0
 11
51.21046293605559
 21
26.67238599624585
 31
0.0
  0
ARC
  5
96
330
2
100
AcDbEntity
  8
0
100
AcDbCircle
 10
51.72825011407621
 20
27.12625843226419
 30
0.0
 40
0.0733107930708978
100
AcDbArc
 50
355.0004675268013
 51
61.71746438580026
  0
ARC
  5
97
330
2
100
AcDbEntity
  8
0
100
AcDbCircle
 10
51.37965901632316
 20
27.10197453414061
 30
0.0
 40
0.4617072941340913
100
AcDbArc
 50
248.5026954316003
 51
316.5535892207999
  0
ARC
  5
98
330
2
100
AcDbEntity
  8
0
100
AcDbCircle
 10
49.87537653732386
 20
25.49631656540052
 30
0.0
 40
1.8331743107555
100
AcDbArc
 50
146.9475216872014
 51
183.4946389579988
  0
ARC
  5
99
330
2
100
AcDbEntity
  8
0
100
AcDbCircle
 10
47.2300970186053
 20
24.44316974051396
 30
0.0
 40
0.3213201928819504
100
AcDbArc
 50
318.3509298991
 51
328.6557989829991
  0
LINE
  5
9A
330
2
100
AcDbEntity
  8
0
100
AcDbLine
 10
46.69843636897502
 20
23.37766078854574
 30
0.0
 11
47.47019685146887
 21
24.22963113367109
 31
0.0
  0
ARC
  5
9B
330
2
100
AcDbEntity
  8
0
100
AcDbCircle
 10
50.46596180432522
 20
20.306821829331
 30
0.0
 40
4.86048349647662
100
AcDbArc
 50
140.8171722486008
 51
165.0903628424006
  0
LINE
  5
9C
330
2
100
AcDbEntity
  8
0
100
AcDbLine
 10
45.73723347405712
 20
21.45011898239971
 30
0.0
 11
45.76911710062563
 21
21.55740155444172
 31
0.0
  0
LINE
  5
9D
330
2
100
AcDbEntity
  8
0
100
AcDbLine
 10
45.7196575105076
 20
21.45254126846874
 30
0.0
 11
45.75303505215964
 21
21.56485059155624
 31
0.0
  0
ARC
  5
9E
330
2
100
AcDbEntity
  8
0
100
AcDbCircle
 10
50.52213890516242
 20
20.29503117836865
 30
0.0
 40
4.935260165653161
100
AcDbArc
 50
140.8171722486008
 51
165.0903628424006
  0
LINE
  5
9F
330
2
100
AcDbEntity
  8
0
100
AcDbLine
 10
46.69665154001996
 20
23.41311381387151
 30
0.0
 11
47.4684120225138
 21
24.26508415899685
 31
0.0
  0
ARC
  5
A0
330
2
100
AcDbEntity
  8
0
100
AcDbCircle
 10
47.26432716459413
 20
24.44659197481329
 30
0.0
 40
0.2731221639516114
100
AcDbArc
 50
318.3509298991
 51
328.6557989829991
  0
LINE
  5
A1
330
2
100
AcDbEntity
  8
0
100
AcDbLine
 10
47.49758927667653
 20
24.30451979768352
 30
0.0
 11
47.97487368293423
 21
25.07496284963968
 31
0.0
  0
ARC
  5
A2
330
2
100
AcDbEntity
  8
0
100
AcDbCircle
 10
47.5907451266936
 20
25.32491935713555
 30
0.0
 40
0.4582935776885103
100
AcDbArc
 50
326.9475216872014
 51
3.494638958100058
  0
LINE
  5
A3
330
2
100
AcDbEntity
  8
0
100
AcDbLine
 10
48.04818651034065
 20
25.35285470903232
 30
0.0
 11
48.04561100276436
 21
25.38457515772742
 31
0.0
  0
LINE
  5
A4
330
2
100
AcDbEntity
  8
0
100
AcDbLine
 10
49.11710159463718
 20
23.7917937411639
 30
0.0
 11
48.34534111211462
 21
22.93982339603857
 31
0.0
  0
ARC
  5
A5
330
2
100
AcDbEntity
  8
0
100
AcDbCircle
 10
48.87700176177361
 20
24.00533234803548
 30
0.0
 40
0.321320192885189
100
AcDbArc
 50
318.3509298991993
 51
328.6557989829991
  0
ARC
  5
A6
330
2
100
AcDbEntity
  8
0
100
AcDbCircle
 10
52.11286654749352
 20
19.86898443685252
 30
0.0
 40
4.860483496476332
100
AcDbArc
 50
140.8171722486008
 51
165.0903628424006
  0
LINE
  5
A7
330
2
100
AcDbEntity
  8
0
100
AcDbLine
 10
47.41602184379388
 20
21.11956416196325
 30
0.0
 11
47.40348360509864
 21
21.07737528193479
 31
0.0
  0
ARC
  5
A8
330
2
100
AcDbEntity
  8
0
100
AcDbCircle
 10
39.04781493336576
 20
16.46143990806215
 30
0.0
 40
0.0838175108321426
100
AcDbArc
 50
286.5283089823
 51
309.2417313695012
  0
LINE
  5
A9
330
2
100
AcDbEntity
  8
0
100
AcDbLine
 10
39.10083735141994
 20
16.39652459162709
 30
0.0
 11
39.26406245604876
 21
16.52331710768084
 31
0.0
  0
LINE
  5
AA
330
2
100
AcDbEntity
  8
0
100
AcDbLine
 10
39.09905252246485
 20
16.35771479127607
 30
0.0
 11
39.29022742273888
 21
16.50621858095647
 31
0.0
  0
ARC
  5
AB
330
2
100
AcDbEntity
  8
0
100
AcDbCircle
 10
39.03667320712556
 20
16.43408575179464
 30
0.0
 40
0.0986088362723682
100
AcDbArc
 50
286.5283089821989
 51
309.2417313696032
  0
LINE
  5
AC
330
2
100
AcDbEntity
  8
0
100
AcDbLine
 10
38.58744193483584
 20
16.21235314018554
 30
0.0
 11
39.06472634112218
 21
16.33955150261946
 31
0.0
  0
LINE
  5
AD
330
2
100
AcDbEntity
  8
0
100
AcDbLine
 10
38.59437569099949
 20
16.25388743387236
 30
0.0
 11
39.07166009725715
 21
16.38108579627759
 31
0.0
  0
LWPOLYLINE
  5
AE
330
2
100
AcDbEntity
  8
0
100
AcDbPolyline
 90
       17
 70
   128
 43
0.0
 10
38.18282382002586
 20
15.90219497251324
 10
38.04958280619523
 20
15.93120790518402
 10
37.91254571656349
 20
15.9493862410643
 10
37.7925752058252
 20
15.95396249326662
 10
37.70793569665365
 20
15.94423996885992
 10
37.67151278706989
 20
15.92169883407977
 10
37.68885153491188
 20
15.88977077233383
 10
37.75731227296761
 20
15.85331654163805
 10
37.86647247448455
 20
15.81788596811714
 10
37.99971348831521
 20
15.78887303541767
 10
38.13675057791822
 20
15.77069469953739
 10
38.25672108868521
 20
15.76611844736376
 10
38.34136059785676
 20
15.77584097174177
 10
38.37778350744052
 20
15.79838210652192
 10
38.36044475959854
 20
15.83031016826786
 10
38.29198402154283
 20
15.86676439896362
 10
38.18282382002586
 20
15.90219497251324
  0
LWPOLYLINE
  5
AF
330
2
100
AcDbEntity
  8
0
100
AcDbPolyline
 90
       17
 70
   128
 43
0.0
 10
38.68999706707787
 20
15.56526557126678
 10
38.55675605324721
 20
15.59427850396625
 10
38.41971896361549
 20
15.61245683984655
 10
38.29974845287721
 20
15.61703309202018
 10
38.21510894370566
 20
15.60731056764215
 10
38.1786860341219
 20
15.58476943286202
 10
38.19602478196389
 20
15.55284137111607
 10
38.26448552001959
 20
15.5163871404203
 10
38.37364572153656
 20
15.48095656687068
 10
38.50688673536722
 20
15.45194363419992
 10
38.64392382499891
 20
15.43376529831962
 10
38.76389433573722
 20
15.42918904611732
 10
38.84853384490877
 20
15.43891157052402
 10
38.88495675449251
 20
15.46145270530415
 10
38.86761800665055
 20
15.49338076705011
 10
38.79915726859484
 20
15.52983499774587
 10
38.68999706707787
 20
15.56526557126678
  0
LWPOLYLINE
  5
B0
330
2
100
AcDbEntity
  8
0
100
AcDbPolyline
 90
       17
 70
   128
 43
0.0
 10
39.44924029637706
 20
15.7676071818002
 10
39.31599928254637
 20
15.79662011449966
 10
39.17896219291468
 20
15.81479845037995
 10
39.05899168214766
 20
15.81937470258227
 10
38.97435217297611
 20
15.80965217817557
 10
38.93792926342108
 20
15.78711104339544
 10
38.95526801126307
 20
15.75518298164948
 10
39.02372874931875
 20
15.71872875095372
 10
39.13288895083572
 20
15.68329817743279
 10
39.26612996466637
 20
15.65428524473332
 10
39.40316705426939
 20
15.63610690885303
 10
39.52313756503638
 20
15.63153065665071
 10
39.60777707420793
 20
15.64125318105743
 10
39.64419998379169
 20
15.66379431583756
 10
39.6268612359497
 20
15.6957223775835
 10
39.558400497894
 20
15.73217660827927
 10
39.44924029637706
 20
15.7676071818002
  0
LINE
  5
B1
330
2
100
AcDbEntity
  8
0
100
AcDbLine
 10
37.33665844373577
 20
16.11506055456398
 30
0.0
 11
36.52420389622988
 21
15.89853789715139
 31
0.0
  0
ARC
  5
B2
330
2
100
AcDbEntity
  8
0
100
AcDbCircle
 10
38.1250403185265
 20
12.40441099441209
 30
0.0
 40
3.793476787701259
100
AcDbArc
 50
87.22326120880063
 51
101.9949616139971
  0
LINE
  5
B3
330
2
100
AcDbEntity
  8
0
100
AcDbLine
 10
38.30881251630398
 20
16.1934338127893
 30
0.0
 11
38.34440341670095
 21
16.19275982565073
 31
0.0
  0
ARC
  5
B4
330
2
100
AcDbEntity
  8
0
100
AcDbCircle
 10
38.39034646615248
 20
17.14001553022351
 30
0.0
 40
0.9483691969238117
100
AcDbArc
 50
267.2232612088006
 51
281.9949616139971
  0
LWPOLYLINE
  5
B5
330
2
100
AcDbEntity
  8
0
100
AcDbPolyline
 90
        9
 70
   128
 43
0.0
 10
40.16103385062637
 20
15.70980005787449
 10
40.15975142925812
 20
15.7198603016708
 10
40.16150085886532
 20
15.72943347814678
 10
40.16627464814779
 20
15.73847859342611
 10
40.17405235496219
 20
15.74695691501467
 10
40.18480067398828
 20
15.75483213737603
 10
40.19847357931875
 20
15.76207053763553
 10
40.21501252139948
 20
15.76864111980595
 10
40.23434667800414
 20
15.77451574770706
  0
LINE
  5
B6
330
2
100
AcDbEntity
  8
0
100
AcDbLine
 10
40.16103385062637
 20
15.70980005787449
 30
0.0
 11
40.16360935817398
 21
15.70032732547916
 31
0.0
  0
LWPOLYLINE
  5
B7
330
2
100
AcDbEntity
  8
0
100
AcDbPolyline
 90
        9
 70
   128
 43
0.0
 10
39.87035804860567
 20
15.44146456612012
 10
39.94769467499545
 20
15.4649630776672
 10
40.01385044337588
 20
15.49124540643497
 10
40.0685420646404
 20
15.52019900741555
 10
40.11153534080209
 20
15.55169989688969
 10
40.14264616808843
 20
15.58561318315784
 10
40.16174132516089
 20
15.62179364438992
 10
40.16873904364714
 20
15.66008635023646
 10
40.16360935817398
 20
15.70032732547916
  0
LINE
  5
B8
330
2
100
AcDbEntity
  8
0
100
AcDbLine
 10
39.87035804860567
 20
15.44146456612012
 30
0.0
 11
39.05790350107104
 21
15.22494190870751
 31
0.0
  0
LINE
  5
B9
330
2
100
AcDbEntity
  8
0
100
AcDbLine
 10
40.61014327271003
 20
15.8746671685788
 30
0.0
 11
40.23434667800414
 21
15.77451574770706
 31
0.0
  0
ARC
  5
BA
330
2
100
AcDbEntity
  8
0
100
AcDbCircle
 10
38.39728022228745
 20
17.18154982391035
 30
0.0
 40
0.9483691969255392
100
AcDbArc
 50
267.2232612088006
 51
281.9949616139971
  0
ARC
  5
BB
330
2
100
AcDbEntity
  8
0
100
AcDbCircle
 10
38.13197407469015
 20
12.44594528807024
 30
0.0
 40
3.793476787700921
100
AcDbArc
 50
87.22326120880063
 51
101.9949616139971
  0
LINE
  5
BC
330
2
100
AcDbEntity
  8
0
100
AcDbLine
 10
38.31574627243894
 20
16.23496810644743
 30
0.0
 11
38.3513371728646
 21
16.23429411930887
 31
0.0
  0
LINE
  5
BD
330
2
100
AcDbEntity
  8
0
100
AcDbLine
 10
40.17017696759028
 20
15.74320830907104
 30
0.0
 11
40.17054311433769
 21
15.74186161913728
 31
0.0
  0
ARC
  5
BE
330
2
100
AcDbEntity
  8
0
100
AcDbCircle
 10
36.65364994459081
 20
15.72201800966634
 30
0.0
 40
0.2188962085682523
100
AcDbArc
 50
126.2534432112989
 51
180.6739060975006
  0
LINE
  5
BF
330
2
100
AcDbEntity
  8
0
100
AcDbLine
 10
36.4347688771144
 20
15.71944343803625
 30
0.0
 11
36.43113939205024
 21
15.67831834479516
 31
0.0
  0
LINE
  5
C0
330
2
100
AcDbEntity
  8
0
100
AcDbLine
 10
36.41487212752908
 20
15.70724939393691
 30
0.0
 11
36.4112426424649
 21
15.66612430072449
 31
0.0
  0
ARC
  5
C1
330
2
100
AcDbEntity
  8
0
100
AcDbCircle
 10
36.6994175152599
 20
15.71059633707897
 30
0.0
 40
0.2845650711387813
100
AcDbArc
 50
126.2534432112989
 51
180.6739060975006
  0
LINE
  5
C2
330
2
100
AcDbEntity
  8
0
100
AcDbLine
 10
37.34359219987074
 20
16.15659484825082
 30
0.0
 11
36.53113765236482
 21
15.94007219080951
 31
0.0
  0
ARC
  5
C3
330
2
100
AcDbEntity
  8
0
100
AcDbCircle
 10
38.42364869836796
 20
15.02614800444936
 30
0.0
 40
0.5416142516685684
100
AcDbArc
 50
253.7997625147028
 51
357.7328520977005
  0
LINE
  5
C4
330
2
100
AcDbEntity
  8
0
100
AcDbLine
 10
38.27254098345271
 20
14.50603988480358
 30
0.0
 11
37.00569118101775
 21
14.84283787903987
 31
0.0
  0
ARC
  5
C5
330
2
100
AcDbEntity
  8
0
100
AcDbCircle
 10
37.23981013654217
 20
15.61913627830742
 30
0.0
 40
0.8108334539358565
100
AcDbArc
 50
175.8143060904991
 51
253.2175441970012
  0
LINE
  5
C6
330
2
100
AcDbEntity
  8
0
100
AcDbLine
 10
38.96846848198429
 20
15.0458474495637
 30
0.0
 11
38.96483899689143
 21
15.00472235635128
 31
0.0
  0
LINE
  5
C7
330
2
100
AcDbEntity
  8
0
100
AcDbLine
 10
37.00569118101775
 20
14.84283787903987
 30
0.0
 11
36.98579443143244
 21
14.83064383496922
 31
0.0
  0
ARC
  5
C8
330
2
100
AcDbEntity
  8
0
100
AcDbCircle
 10
37.21991338695686
 20
15.60694223423675
 30
0.0
 40
0.8108334539358247
100
AcDbArc
 50
175.8143060904991
 51
253.2175441970012
  0
ARC
  5
C9
330
2
100
AcDbEntity
  8
0
100
AcDbCircle
 10
39.18734954946071
 20
15.04842202119377
 30
0.0
 40
0.2188962085681474
100
AcDbArc
 50
126.2534432112989
 51
180.6739060976013
  0
LINE
  5
CA
330
2
100
AcDbEntity
  8
0
100
AcDbLine
 10
38.2526442338674
 20
14.49384584073293
 30
0.0
 11
38.27254098345271
 21
14.50603988480358
 31
0.0
  0
LINE
  5
CB
330
2
100
AcDbEntity
  8
0
100
AcDbLine
 10
38.2526442338674
 20
14.49384584073293
 30
0.0
 11
36.98579443143244
 21
14.83064383496922
 31
0.0
  0
ARC
  5
CC
330
2
100
AcDbEntity
  8
0
100
AcDbCircle
 10
38.40552517672221
 20
15.02239588451778
 30
0.0
 40
0.5502160770798161
100
AcDbArc
 50
253.8677029904977
 51
300.6941592651001
  0
ARC
  5
CD
330
2
100
AcDbEntity
  8
0
100
AcDbCircle
 10
45.48011873706374
 20
28.16004727021791
 30
0.0
 40
2.168707732797102
100
AcDbArc
 50
0.2625890343905759
 51
38.91724509402111
  0
LINE
  5
CE
330
2
100
AcDbEntity
  8
0
100
AcDbLine
 10
45.82553193645174
 20
29.5696366584956
 30
0.0
 11
45.82553193645174
 21
23.73747351828763
 31
0.0
  0
LWPOLYLINE
  5
CF
330
2
100
AcDbEntity
  8
0
100
AcDbPolyline
 90
        7
 70
   128
 43
0.0
 10
46.08109771318874
 20
30.175414731504
 10
46.08059838301011
 20
30.17526993371359
 10
45.99362876093908
 20
30.12696422619729
 10
45.92225463668381
 20
30.03814022687156
 10
45.86921887778027
 20
29.91221139221123
 10
45.83655961869516
 20
29.75401709674793
 10
45.82553193645174
 20
29.5696366584956
  0
LINE
  5
D0
330
2
100
AcDbEntity
  8
0
100
AcDbLine
 10
40.71331293032183
 20
23.31813994172485
 30
0.0
 11
40.71331293032183
 21
29.58495004175759
 31
0.0
  0
LWPOLYLINE
  5
D1
330
2
100
AcDbEntity
  8
0
100
AcDbPolyline
 90
        7
 70
   128
 43
0.0
 10
40.71331293032183
 20
29.58495004175759
 10
40.72434061256522
 20
29.7693304800099
 10
40.75699987165039
 20
29.9275247755019
 10
40.81003563055388
 20
30.05345361013355
 10
40.88140975480921
 20
30.14227760945926
 10
40.96837937688023
 20
30.19058331697554
 10
40.96887870705886
 20
30.19072811479466
  0
LWPOLYLINE
  5
D2
330
2
100
AcDbEntity
  8
0
100
AcDbPolyline
 90
        4
 70
   128
 43
0.0
 10
43.77237120989093
 20
30.79937607855924
 10
43.66040527309261
 20
30.8772409182341
 10
43.55274212447231
 20
30.91391244392771
 10
43.45351919843766
 20
30.90798138945425
  0
LINE
  5
D3
330
2
100
AcDbEntity
  8
0
100
AcDbLine
 10
44.52308716522668
 20
30.1492369901925
 30
0.0
 11
43.77237120989093
 21
30.79937607855924
 31
0.0
  0
LINE
  5
D4
330
2
100
AcDbEntity
  8
0
100
AcDbLine
 10
44.51791315634671
 20
24.01030453434769
 30
0.0
 11
44.51791315634671
 21
30.02053957165694
 31
0.0
  0
LWPOLYLINE
  5
D5
330
2
100
AcDbEntity
  8
0
100
AcDbPolyline
 90
        7
 70
   128
 43
0.0
 10
44.51791315634671
 20
30.02053957165694
 10
44.52894083859013
 20
30.20492000990926
 10
44.56160009767524
 20
30.36311430540127
 10
44.61463585657873
 20
30.48904314006159
 10
44.68600998083405
 20
30.57786713935859
 10
44.77297960290508
 20
30.62617284690358
 10
44.77347893308371
 20
30.62631764469399
  0
LINE
  5
D6
330
2
100
AcDbEntity
  8
0
100
AcDbLine
 10
42.25691400709492
 20
23.83312977852325
 30
0.0
 11
42.25691400709492
 21
30.11338728442345
 31
0.0
  0
LWPOLYLINE
  5
D7
330
2
100
AcDbEntity
  8
0
100
AcDbPolyline
 90
        4
 70
   128
 43
0.0
 10
42.08529051862213
 20
30.39519582697411
 10
41.97332458182377
 20
30.47306066664897
 10
41.86566143320347
 20
30.50973219234256
 10
41.7664356518451
 20
30.50380096722072
  0
LINE
  5
D8
330
2
100
AcDbEntity
  8
0
100
AcDbLine
 10
42.26208801597493
 20
30.24208470293033
 30
0.0
 11
42.08529051862213
 21
30.39519582697411
 31
0.0
  0
LWPOLYLINE
  5
D9
330
2
100
AcDbEntity
  8
0
100
AcDbPolyline
 90
        7
 70
   128
 43
0.0
 10
42.25691400709492
 20
30.11338728442345
 10
42.26794168933834
 20
30.2977677226758
 10
42.30060094842345
 20
30.45596201813909
 10
42.35363670732697
 20
30.58189085279942
 10
42.4250108315823
 20
30.67071485212513
 10
42.51198045365329
 20
30.71902055964143
 10
42.51247978383192
 20
30.71916535743183
  0
LINE
  5
DA
330
2
100
AcDbEntity
  8
0
100
AcDbLine
 10
46.51029444759842
 20
23.18265520223198
 30
0.0
 11
45.48999727453929
 21
23.45390601724682
 31
0.0
  0
ARC
  5
DB
330
2
100
AcDbEntity
  8
0
100
AcDbCircle
 10
47.09915985396025
 20
21.05078161150018
 30
0.0
 40
1.832688553976951
100
AcDbArc
 50
8.310471656299917
 51
57.34671224929034
  0
ELLIPSE
  5
DC
330
2
100
AcDbEntity
  8
0
100
AcDbEllipse
 10
44.10807705853665
 20
21.42583233956849
 30
0.0
 11
4.800909372225345
 21
-0.6628895198699495
 31
0.0
210
0.0
220
0.0
230
0.9999999999999998
 40
0.3517094056999999
 41
3.36429286100832
 42
3.373254865492306
  0
LINE
  5
DD
330
2
100
AcDbEntity
  8
0
100
AcDbLine
 10
39.37423472296512
 20
22.03491113450724
 30
0.0
 11
39.37423472296512
 21
21.69941725859783
 31
0.0
  0
LINE
  5
DE
330
2
100
AcDbEntity
  8
0
100
AcDbLine
 10
44.87096221932609
 20
23.99125037916752
 30
0.0
 11
44.87096221932609
 21
23.6155141962533
 31
0.0
  0
LWPOLYLINE
  5
DF
330
2
100
AcDbEntity
  8
0
100
AcDbPolyline
 90
       16
 70
   128
 43
0.0
 10
39.37423472296512
 20
22.03491113450724
 10
39.48593337113049
 20
22.2777627016314
 10
39.64732525282331
 20
22.51352570927929
 10
39.85667522412767
 20
22.73966544046897
 10
40.11173253777814
 20
22.95375063924506
 10
40.40975504136968
 20
23.15347964936437
 10
40.74753865842983
 20
23.33670515976602
 10
41.12145183586529
 20
23.50145729049861
 10
41.5274745872331
 20
23.64596477122979
 10
41.96124171218632
 20
23.76867398429097
 10
42.41808972719273
 20
23.86826566791416
 10
42.89310700316606
 20
23.94366909970828
 10
43.38118657121522
 20
23.99407360808612
 10
43.8770810279887
 20
24.01893728801952
 10
44.37545895139971
 20
24.01799282702923
 10
44.87096221932609
 20
23.99125037916752
  0
LINE
  5
E0
330
2
100
AcDbEntity
  8
0
100
AcDbLine
 10
46.76437632834728
 20
23.48787730925266
 30
0.0
 11
44.87096221932609
 21
23.99125037916752
 31
0.0
  0
ARC
  5
E1
330
2
100
AcDbEntity
  8
0
100
AcDbCircle
 10
47.29557663359196
 20
21.52615499879747
 30
0.0
 40
1.621694917145078
100
AcDbArc
 50
3.261935338999392
 51
53.74271724209947
  0
LWPOLYLINE
  5
E2
330
2
100
AcDbEntity
  8
0
100
AcDbPolyline
 90
       60
 70
   128
 43
0.0
 10
42.17574435457025
 20
16.18985436141978
 10
41.75913969975336
 20
16.30394531492871
 10
41.36914944381361
 20
16.43953110085626
 10
41.01019233214036
 20
16.59507547803429
 10
40.68633549229362
 20
16.76881606655776
 10
40.40124835165174
 20
16.95878431610096
 10
40.15816106140978
 20
17.16282781051214
 10
39.95982789774187
 20
17.37863465544549
 10
39.80849605461215
 20
17.60375967314732
 10
39.70588018228402
 20
17.83565210719306
 10
39.65314295960654
 20
18.07168452361479
 10
39.65088192034743
 20
18.30918258088379
 10
39.69912268302146
 20
18.54545533108334
 10
39.79731866051633
 20
18.77782570952772
 10
39.94435725313191
 20
19.00366086698396
 10
40.13857245487158
 20
19.22040200089164
 10
40.37776372990701
 20
19.42559334759982
 10
40.65922094551881
 20
19.61691000716775
 10
40.97975507900087
 20
19.79218428536137
 10
41.33573435050466
 20
19.94943025457964
 10
41.72312537267733
 20
20.08686625518869
 10
42.13753885041073
 20
20.20293508238614
 10
42.57427931345874
 20
20.29632162994661
 10
43.0283983178172
 20
20.36596779098159
 10
43.49475051371216
 20
20.41108444666539
 10
43.96805194443771
 20
20.4311604072823
 10
44.44293991566417
 20
20.42596820412547
 10
44.91403375693136
 20
20.39556666699334
 10
45.37599578673962
 20
20.34030025738266
 10
45.82359179072784
 20
20.26079516584278
 10
46.25175032730811
 20
20.1579522168228
 10
46.65562018921366
 20
20.03293666201946
 10
47.03062536947749
 20
19.88716497761274
 10
47.37251690959903
 20
19.72228881506652
 10
47.67742104177545
 20
19.54017628716854
 10
47.94188308040662
 20
19.34289080163079
 10
48.16290656491168
 20
19.13266768180368
 10
48.33798721085156
 20
18.91188883968313
 10
48.46514128460069
 20
18.68305578773958
 10
48.5429280796871
 20
18.44876129589738
 10
48.57046624061144
 20
18.2116600143708
 10
48.54744374899957
 20
17.97443839542979
 10
48.47412145894037
 20
17.73978425480239
 10
48.35133014121942
 20
17.5103563176387
 10
48.18046107056836
 20
17.28875409413362
 10
47.96345026181819
 20
17.07748842608908
 10
47.70275653413313
 20
16.87895303789071
 10
47.40133365163103
 20
16.6953974148434
 10
47.06259685601748
 20
16.52890131548118
 10
46.69038417053537
 20
16.38135120716417
 10
46.28891291364669
 20
16.25441889154716
 10
45.86273191507006
 20
16.14954256248716
 10
45.41666997586503
 20
16.06791051074793
 10
44.95578115601131
 20
16.01044766001628
 10
44.48528751002998
 20
15.97780508740943
 10
44.0105199188888
 20
15.97035264632714
 10
43.536857689102
 20
15.98817477584255
 10
43.06966760304909
 20
16.03106954415228
 10
42.61424311105169
 20
16.0985509363877
 10
42.17574435457025
 20
16.18985436141978
  0
LWPOLYLINE
  5
E3
330
2
100
AcDbEntity
  8
0
100
AcDbPolyline
 90
       20
 70
   128
 43
0.0
 10
46.78521147111263
 20
19.72039195355536
 10
46.59444027733513
 20
19.55117519606745
 10
46.36112671951775
 20
19.39585643013789
 10
46.08926285734617
 20
19.25709320292046
 10
45.78350035688385
 20
19.13725979174603
 10
45.44907089927295
 20
19.03840657944805
 10
45.09169666523826
 20
18.96222497193241
 10
44.71749242700815
 20
18.91001845759308
 10
44.33286092289387
 20
18.88268030438177
 10
43.94438330452039
 20
18.88067827569932
 10
43.55870653167172
 20
18.90404662678711
 10
43.18242964085023
 20
18.95238551869908
 10
42.82199083396524
 20
19.02486785958179
 10
42.48355731898941
 20
19.12025345647055
 10
42.17291978713034
 20
19.23691023535052
 10
41.89539333272414
 20
19.37284216645065
 10
41.6557265103179
 20
19.52572341666749
 10
41.45802008575064
 20
19.69293814550161
 10
41.30565687069067
 20
19.87162526251897
 10
41.27140834889458
 20
19.92344157965619
  0
LWPOLYLINE
  5
E4
330
2
100
AcDbEntity
  8
0
100
AcDbPolyline
 90
        3
 70
   128
 43
0.0
 10
46.94474576820744
 20
19.92344157965619
 10
46.93017615284929
 20
19.9006113569835
 10
46.78521147111263
 20
19.72039195355536
  0
LWPOLYLINE
  5
E5
330
2
100
AcDbEntity
  8
0
100
AcDbPolyline
 90
       70
 70
   128
 43
0.0
 10
38.84020023140717
 20
16.84219245738476
 10
38.58545566558117
 20
17.08800980484371
 10
38.37647327989514
 20
17.34439127334747
 10
38.21498476821152
 20
17.60921240526814
 10
38.10232827519137
 20
17.88027880932061
 10
38.03943730801718
 20
18.155344343935
 10
38.02683300106291
 20
18.43212972943234
 10
38.0646197975879
 20
18.7083414349635
 10
38.15248458426758
 20
18.9816906833312
 10
38.2896992858219
 20
19.24991241658451
 10
38.47512689804573
 20
19.51078406496031
 10
38.70723090931192
 20
19.76214396384053
 10
38.98408803269386
 20
20.00190926589064
 10
39.30340414287777
 20
20.22809320036605
 10
39.66253328600617
 20
20.43882153593431
 10
40.0584996049127
 20
20.63234811122423
 10
40.4880219979591
 20
20.80706930408511
 10
40.94754130730289
 20
20.96153731969279
 10
41.43324981127584
 20
21.0944721874543
 10
41.94112277621091
 20
21.2047723671357
 10
42.46695180678672
 20
21.29152387674809
 10
43.00637971805897
 20
21.35400786591837
 10
43.5549366404412
 20
21.39170657270357
 10
44.10807705853665
 20
21.40430761368874
 10
44.66121747666085
 20
21.39170657270357
 10
45.20977439904306
 20
21.35400786591837
 10
45.74920231031529
 20
21.29152387674809
 10
46.27503134089113
 20
21.2047723671357
 10
46.78290430582615
 20
21.0944721874543
 10
47.26861280979909
 20
20.96153731969279
 10
47.72813211914291
 20
20.80706930408511
 10
48.15765451218936
 20
20.63234811122423
 10
48.55362083109588
 20
20.43882153593431
 10
48.91274997422425
 20
20.22809320036605
 10
49.23206608440819
 20
20.00190926589064
 10
49.50892320779013
 20
19.76214396384053
 10
49.74102721905632
 20
19.51078406496031
 10
49.92645483128012
 20
19.24991241658451
 10
50.06366953283441
 20
18.9816906833312
 10
50.15153431951415
 20
18.7083414349635
 10
50.18932111603908
 20
18.43212972943234
 10
50.17671680908484
 20
18.155344343935
 10
50.11382584191068
 20
17.88027880932061
 10
50.00116934889047
 20
17.60921240526814
 10
49.83968083720691
 20
17.34439127334747
 10
49.63069845152086
 20
17.08800980484371
 10
49.37595388569485
 20
16.84219245738476
 10
49.07755803342536
 20
16.60897615091097
 10
48.73798349672921
 20
16.39029338919239
 10
48.36004409714053
 20
16.18795624644201
 10
47.94687155958496
 20
16.00364135200195
 10
47.50188956179534
 20
15.83887599706894
 10
47.02878536480534
 20
15.69502547930443
 10
46.53147925890789
 20
15.57328178938095
 10
46.0140920791818
 20
15.47465373390281
 10
45.48091105872095
 20
15.39995857593944
 10
44.93635430339742
 20
15.34981526310319
 10
44.3849341819186
 20
15.32463929872709
 10
43.8312199351547
 20
15.32463929872709
 10
43.27979981370463
 20
15.34981526310319
 10
42.7352430583811
 20
15.39995857593944
 10
42.20206203792026
 20
15.47465373390281
 10
41.68467485816548
 20
15.57328178938095
 10
41.18736875229667
 20
15.69502547930443
 10
40.71426455527801
 20
15.83887599706894
 10
40.26928255751708
 20
16.00364135200195
 10
39.85611001996146
 20
16.18795624644201
 10
39.47817062037281
 20
16.39029338919239
 10
39.13859608367663
 20
16.60897615091097
 10
38.84020023140717
 20
16.84219245738476
  0
LWPOLYLINE
  5
E6
330
2
100
AcDbEntity
  8
0
100
AcDbPolyline
 90
       37
 70
   128
 43
0.0
 10
38.01797754824337
 20
18.35799895926485
 10
38.01177349657091
 20
18.58140956439157
 10
38.04965386774562
 20
18.85830527658714
 10
38.13773624151899
 20
19.13233144306629
 10
38.27529073958859
 20
19.40121739671472
 10
38.46117754204802
 20
19.66273506386265
 10
38.69385633230549
 20
19.91471742672491
 10
38.97139906065739
 20
20.15507648010447
 10
39.29150592059971
 20
20.38182053319724
 10
39.65152440593404
 20
20.5930707133348
 10
40.04847129009412
 20
20.78707653504347
 10
40.47905734613367
 20
20.96223040491501
 10
40.93971460245841
 20
21.11708094288546
 10
41.42662590791975
 20
21.2503450086101
 10
41.93575656209675
 20
21.360918334078
 10
42.46288774805485
 20
21.44788467385193
 10
43.00365149075232
 20
21.51052339749333
 10
43.55356685155213
 20
21.54831546078188
 10
44.10807705853665
 20
21.56094770680406
 10
44.66258726554992
 20
21.54831546078188
 10
45.2125026263497
 20
21.51052339749333
 10
45.75326636904719
 20
21.44788467385193
 10
46.28039755500526
 20
21.360918334078
 10
46.78952820918226
 20
21.2503450086101
 10
47.27643951464364
 20
21.11708094288546
 10
47.73709677093967
 20
20.96223040491501
 10
48.16768282700792
 20
20.78707653504347
 10
48.56462971116798
 20
20.5930707133348
 10
48.92464819647364
 20
20.38182053319724
 10
49.24475505644466
 20
20.15507648010447
 10
49.52229778479654
 20
19.91471742672491
 10
49.754976575054
 20
19.66273506386265
 10
49.94086337751344
 20
19.40121739671472
 10
50.07841787558305
 20
19.13233144306629
 10
50.16650024935637
 20
18.85830527658714
 10
50.20438062053114
 20
18.58140956439157
 10
50.19817656885862
 20
18.35799895926485
  0
SPLINE
  5
E7
330
2
100
AcDbEntity
  8
0
100
AcDbSpline
210
0.0
220
0.0
230
1.0
 70
     8
 71
     3
 72
     9
 73
     5
 74
     0
 42
0.000000001
 43
0.0000000001
 40
0.0
 40
0.0
 40
0.0
 40
0.0
 40
0.7445075494353719
 40
0.9839912645060252
 40
0.9839912645060252
 40
0.9839912645060252
 40
0.9839912645060252
 10
39.36749400172333
 20
21.64250962053978
 30
0.0
 10
39.34865032015698
 20
21.3293646584735
 30
0.0
 10
39.32374524287928
 20
20.91549120959986
 30
0.0
 10
39.29265456836721
 20
20.48266866042684
 30
0.0
 10
39.28506476470673
 20
20.37725801368722
 30
0.0
  0
LWPOLYLINE
  5
E8
330
2
100
AcDbEntity
  8
0
100
AcDbPolyline
 90
       16
 70
   128
 43
0.0
 10
39.36749400172086
 20
21.64250962054247
 10
39.4787443219757
 20
21.89225957151399
 10
39.64246878860694
 20
22.13468022083104
 10
39.85681156149916
 20
22.36702369584333
 10
40.11934303476984
 20
22.58665635014519
 10
40.42708737670598
 20
22.79108861631721
 10
40.77655626136205
 20
22.97800322549672
 10
41.16378840913152
 20
23.14528147390402
 10
41.58439448837633
 20
23.29102723874708
 10
42.03360686927912
 20
23.41358847106608
 10
42.50633366546863
 20
23.51157592177449
 10
42.99721645130584
 20
23.58387888917798
 10
43.50069100047811
 20
23.6296778088228
 10
44.01105035716961
 20
23.64845354342781
 10
44.52250952536661
 20
23.63999326735646
 10
45.0076911976985
 20
23.60590887983171
  0
SPLINE
  5
E9
330
2
100
AcDbEntity
  8
0
100
AcDbSpline
210
0.0
220
0.0
230
1.0
 70
     8
 71
     3
 72
    10
 73
     6
 74
     0
 42
0.000000001
 43
0.0000000001
 40
0.0
 40
0.0
 40
0.0
 40
0.0
 40
0.4841217781620541
 40
0.9680720828120428
 40
1.0
 40
1.0
 40
1.0
 40
1.0
 10
44.98605985376059
 20
23.57296807066224
 30
0.0
 10
44.98654189782735
 20
23.57675674400844
 30
0.0
 10
44.98750581522324
 20
23.58433274877167
 30
0.0
 10
44.99162227533168
 20
23.59165245093315
 30
0.0
 10
44.99521195852145
 20
23.59405028200232
 30
0.0
 10
44.99543412550344
 20
23.59419868476205
 30
0.0
  0
LWPOLYLINE
  5
EA
330
2
100
AcDbEntity
  8
0
100
AcDbPolyline
 90
        3
 70
   128
 43
0.0
 10
44.98605985376019
 20
23.57296807065014
 10
44.98848182030013
 20
23.27531754783057
 10
45.00279233523468
 20
21.51640016829119
  0
ELLIPSE
  5
EB
330
2
100
AcDbEntity
  8
0
100
AcDbEllipse
 10
46.34040974662025
 20
23.04728192163709
 30
0.0
 11
-0.0495838164522687
 21
0.0518478411652337
 31
0.0
210
0.0
220
0.0
230
1.0
 40
0.7602689299000001
 41
3.835360514067845
 42
5.388703548342451
  0
LINE
  5
EC
330
2
100
AcDbEntity
  8
0
100
AcDbLine
 10
46.40382018945792
 20
23.0278505438196
 30
0.0
 11
46.40373745977223
 21
23.0315240548
 31
0.0
  0
LINE
  5
ED
330
2
100
AcDbEntity
  8
0
100
AcDbLine
 10
45.49235310329004
 20
23.33451574452613
 30
0.0
 11
46.34011582748217
 21
23.10913402641297
 31
0.0
  0
ARC
  5
EE
330
2
100
AcDbEntity
  8
0
100
AcDbCircle
 10
44.82457340531925
 20
20.37032249146269
 30
0.0
 40
3.286875156598058
100
AcDbArc
 50
80.76609024302749
 51
85.65213992180778
  0
LWPOLYLINE
  5
EF
330
2
100
AcDbEntity
  8
0
100
AcDbPolyline
 90
        5
 70
   128
 43
0.0
 10
39.37423472296512
 20
21.85383941777639
 10
39.34879463729722
 20
21.84808751045737
 10
39.30732885420805
 20
21.82990525256184
 10
39.28293556363938
 20
21.80517290253265
 10
39.27812093985775
 20
21.78723683487972
  0
LINE
  5
F0
330
2
100
AcDbEntity
  8
0
100
AcDbLine
 10
47.6488036938228
 20
24.5486134565529
 30
0.0
 11
47.6488036938228
 21
28.16998651673702
 31
0.0
  0
LWPOLYLINE
  5
F1
330
2
100
AcDbEntity
  8
0
100
AcDbPolyline
 90
        2
 70
   128
 43
0.0
 10
46.14272687853611
 20
30.19320488552556
 10
46.15232977896647
 20
30.19576325710193
  0
LWPOLYLINE
  5
F2
330
2
100
AcDbEntity
  8
0
100
AcDbPolyline
 90
        2
 70
   128
 43
0.0
 10
44.86617234620843
 20
30.65307527462153
 10
44.87577524661008
 20
30.65563364616925
  0
LWPOLYLINE
  5
F3
330
2
100
AcDbEntity
  8
0
100
AcDbPolyline
 90
        2
 70
   128
 43
0.0
 10
41.67374509404412
 20
30.47704350797028
 10
41.67324576386543
 20
30.47689871017987
  0
SPLINE
  5
F4
330
2
100
AcDbEntity
  8
0
100
AcDbSpline
210
0.0
220
0.0
230
1.0
 70
     8
 71
     3
 72
    10
 73
     6
 74
     0
 42
0.000000001
 43
0.0000000001
 40
0.0
 40
0.0
 40
0.0
 40
0.0
 40
0.3852248288516202
 40
0.9303658622867883
 40
1.0
 40
1.0
 40
1.0
 40
1.0
 10
23.69192103292585
 20
17.26037302748095
 30
0.0
 10
23.66645313822323
 20
17.24000441476916
 30
0.0
 10
23.60494500572241
 20
17.19081168234416
 30
0.0
 10
23.54920580547307
 20
17.12052507143869
 30
0.0
 10
23.53452088182644
 20
17.0706748555764
 30
0.0
 10
23.53285755506332
 20
17.06502843887107
 30
0.0
  0
SPLINE
  5
F5
330
2
100
AcDbEntity
  8
0
100
AcDbSpline
210
0.0
220
0.0
230
1.0
 70
     8
 71
     3
 72
    10
 73
     6
 74
     0
 42
0.000000001
 43
0.0000000001
 40
0.0
 40
0.0
 40
0.0
 40
0.0
 40
0.178406816138169
 40
0.5961940725780118
 40
1.0
 40
1.0
 40
1.0
 40
1.0
 10
24.06775019403781
 20
17.27945662643208
 30
0.0
 10
24.05538231422987
 20
17.28908198270624
 30
0.0
 10
24.01405173734126
 20
17.32124768400244
 30
0.0
 10
23.92244247664114
 20
17.33722539511576
 30
0.0
 10
23.84955272165644
 20
17.32366697759312
 30
0.0
 10
23.81372803896763
 20
17.31700313291957
 30
0.0
  0
SPLINE
  5
F6
330
2
100
AcDbEntity
  8
0
100
AcDbSpline
210
0.0
220
0.0
230
1.0
 70
     8
 71
     3
 72
    12
 73
     8
 74
     0
 42
0.000000001
 43
0.0000000001
 40
0.0
 40
0.0
 40
0.0
 40
0.0
 40
0.0291081485275992
 40
0.324446051290663
 40
0.5915218762100177
 40
0.8482103367107132
 40
1.0
 40
1.0
 40
1.0
 40
1.0
 10
23.55903494708912
 20
17.11678735193968
 30
0.0
 10
23.5562439102782
 20
17.11326100788056
 30
0.0
 10
23.52513437847617
 20
17.07395557406427
 30
0.0
 10
23.499579946252
 20
16.98379315310746
 30
0.0
 10
23.49346421548627
 20
16.86459110524495
 30
0.0
 10
23.51991011197588
 20
16.76703615414673
 30
0.0
 10
23.55925700398427
 20
16.72396092497053
 30
0.0
 10
23.57387823127061
 20
16.7079542549631
 30
0.0
  0
LINE
  5
F7
330
2
100
AcDbEntity
  8
0
100
AcDbLine
 10
24.15631908292382
 20
17.22571843836198
 30
0.0
 11
24.06775019403781
 21
17.27945662643208
 31
0.0
  0
LINE
  5
F8
330
2
100
AcDbEntity
  8
0
100
AcDbLine
 10
23.57387823127061
 20
16.7079542549631
 30
0.0
 11
23.63970601028988
 21
16.62918614875877
 31
0.0
  0
SPLINE
  5
F9
330
2
100
AcDbEntity
  8
0
100
AcDbSpline
210
0.0
220
0.0
230
1.0
 70
     8
 71
     3
 72
     9
 73
     5
 74
     0
 42
0.000000001
 43
0.0000000001
 40
0.0
 40
0.0
 40
0.0
 40
0.0
 40
0.0304439907759075
 40
1.0
 40
1.0
 40
1.0
 40
1.0
 10
11.43684693644741
 20
13.73630154973948
 30
0.0
 10
11.43563851139859
 20
13.73587589502782
 30
0.0
 10
11.39594512633272
 20
13.72189432753824
 30
0.0
 10
11.36406415303591
 20
13.69193176955841
 30
0.0
 10
11.33315376379612
 20
13.6628813914174
 30
0.0
  0
SPLINE
  5
FA
330
2
100
AcDbEntity
  8
0
100
AcDbSpline
210
0.0
220
0.0
230
1.0
 70
     8
 71
     3
 72
     9
 73
     5
 74
     0
 42
0.000000001
 43
0.0000000001
 40
0.0
 40
0.0
 40
0.0
 40
0.0
 40
0.558387413646741
 40
1.0
 40
1.0
 40
1.0
 40
1.0
 10
11.33315376379612
 20
13.6628813914174
 30
0.0
 10
11.31004238123124
 20
13.63931433899403
 30
0.0
 10
11.26865286921855
 20
13.59710878090408
 30
0.0
 10
11.24694323864995
 20
13.54271981078442
 30
0.0
 10
11.23735599254577
 20
13.51870095702076
 30
0.0
  0
SPLINE
  5
FB
330
2
100
AcDbEntity
  8
0
100
AcDbSpline
210
0.0
220
0.0
230
1.0
 70
     8
 71
     3
 72
    10
 73
     6
 74
     0
 42
0.000000001
 43
0.0000000001
 40
0.0
 40
0.0
 40
0.0
 40
0.0
 40
0.3341848966245098
 40
0.6760545672849795
 40
1.0
 40
1.0
 40
1.0
 40
1.0
 10
11.75863363275084
 20
13.73878458320654
 30
0.0
 10
11.72592696775902
 20
13.75358888325623
 30
0.0
 10
11.65976152918988
 20
13.78353791675571
 30
0.0
 10
11.54748856765603
 20
13.78165420490914
 30
0.0
 10
11.47814456408524
 20
13.75304596251482
 30
0.0
 10
11.44440595838372
 20
13.73912691890246
 30
0.0
  0
SPLINE
  5
FC
330
2
100
AcDbEntity
  8
0
100
AcDbSpline
210
0.0
220
0.0
230
1.0
 70
     8
 71
     3
 72
    11
 73
     7
 74
     0
 42
0.000000001
 43
0.0000000001
 40
0.0
 40
0.0
 40
0.0
 40
0.0
 40
0.1174437488512791
 40
0.4532904660140817
 40
0.7450588621110571
 40
1.0
 40
1.0
 40
1.0
 40
1.0
 10
11.24137454758377
 20
13.5298056608247
 30
0.0
 10
11.23320005272106
 20
13.51586035692777
 30
0.0
 10
11.20164945405594
 20
13.46203651901408
 30
0.0
 10
11.19008575353112
 20
13.36101530707103
 30
0.0
 10
11.20538870674517
 20
13.24585885785136
 30
0.0
 10
11.24561049502009
 20
13.18838542497045
 30
0.0
 10
11.26436668607454
 20
13.16158446126634
 30
0.0
  0
LINE
  5
FD
330
2
100
AcDbEntity
  8
0
100
AcDbLine
 10
11.81418668764561
 20
13.70366779384776
 30
0.0
 11
11.77139717015723
 21
13.73179770959426
 31
0.0
  0
LINE
  5
FE
330
2
100
AcDbEntity
  8
0
100
AcDbLine
 10
11.26972444396637
 20
13.15251573337085
 30
0.0
 11
11.30368010437895
 21
13.11418453818939
 31
0.0
  0
LINE
  5
FF
330
2
100
AcDbEntity
  8
0
100
AcDbLine
 10
23.63970601028988
 20
16.62918614875877
 30
0.0
 11
23.68992392452762
 21
16.58569615930415
 31
0.0
  0
LINE
  5
100
330
2
100
AcDbEntity
  8
0
100
AcDbLine
 10
24.20653699713282
 20
17.18222844890734
 30
0.0
 11
24.15631908292382
 21
17.22571843836198
 31
0.0
  0
LINE
  5
101
330
2
100
AcDbEntity
  8
0
100
AcDbLine
 10
28.52516749637775
 20
18.06461569242256
 30
0.0
 11
28.46303887389445
 21
18.04668070395277
 31
0.0
  0
LINE
  5
102
330
2
100
AcDbEntity
  8
0
100
AcDbLine
 10
32.49548671878415
 20
18.70860139933009
 30
0.0
 11
32.46573706660951
 21
18.73436535386712
 31
0.0
  0
LINE
  5
103
330
2
100
AcDbEntity
  8
0
100
AcDbLine
 10
32.07047281597291
 20
19.07667423612646
 30
0.0
 11
31.9685879028961
 21
19.16490915911341
 31
0.0
  0
LINE
  5
104
330
2
100
AcDbEntity
  8
0
100
AcDbLine
 10
31.90272761971041
 20
19.22194583745269
 30
0.0
 11
28.47805732168783
 21
22.18779731512829
 31
0.0
  0
LINE
  5
105
330
2
100
AcDbEntity
  8
0
100
AcDbLine
 10
28.34906744738532
 20
22.18455773224662
 30
0.0
 11
6.231321354420231
 21
15.79971440194045
 31
0.0
  0
LINE
  5
106
330
2
100
AcDbEntity
  8
0
100
AcDbLine
 10
28.41999790151914
 20
16.08393748414531
 30
0.0
 11
32.36568734479367
 21
12.66687019080172
 31
0.0
  0
LINE
  5
107
330
2
100
AcDbEntity
  8
0
100
AcDbLine
 10
33.60270483809939
 20
13.04392927600379
 30
0.0
 11
33.60270483809939
 21
13.10605789848708
 31
0.0
  0
LINE
  5
108
330
2
100
AcDbEntity
  8
0
100
AcDbLine
 10
7.002096835311874
 20
6.553605835466065
 30
0.0
 11
31.319032670344
 21
13.57330056059131
 31
0.0
  0
LINE
  5
109
330
2
100
AcDbEntity
  8
0
100
AcDbLine
 10
1.804226430178118
 20
8.399879733889832
 30
0.0
 11
1.804226430178118
 21
8.337751111406547
 31
0.0
  0
LINE
  5
10A
330
2
100
AcDbEntity
  8
0
100
AcDbLine
 10
23.69277170535244
 20
17.26090636083808
 30
0.0
 11
23.80939306126781
 21
17.31581376034917
 31
0.0
  0
LINE
  5
10B
330
2
100
AcDbEntity
  8
0
100
AcDbLine
 10
11.43589219421639
 20
13.73636693751283
 30
0.0
 11
11.44318369060661
 21
13.74002852161067
 31
0.0
  0
LINE
  5
10C
330
2
100
AcDbEntity
  8
0
100
AcDbLine
 10
11.76170233138602
 20
13.73781716944856
 30
0.0
 11
11.77139717015723
 21
13.73179770959426
 31
0.0
  0
LINE
  5
10D
330
2
100
AcDbEntity
  8
0
100
AcDbLine
 10
11.26972444396637
 20
13.15251573337085
 30
0.0
 11
11.26446597526421
 21
13.15867714524326
 31
0.0
  0
LWPOLYLINE
  5
10E
330
2
100
AcDbEntity
  8
0
100
AcDbPolyline
 90
        6
 70
   128
 43
0.0
 10
11.76863983150804
 20
13.1612889288716
 10
11.85809860442442
 20
13.27399853795094
 10
11.91013152247225
 20
13.40235442346161
 10
11.9177081611852
 20
13.52901919286694
 10
11.87980830352469
 20
13.63688789924703
 10
11.81418668764561
 20
13.70366779384776
  0
ARC
  5
10F
330
2
100
AcDbEntity
  8
0
100
AcDbCircle
 10
11.51362885808009
 20
13.36013762951386
 30
0.0
 40
0.3233750180733726
100
AcDbArc
 50
229.5154980495005
 51
322.0541318141987
  0
LWPOLYLINE
  5
110
330
2
100
AcDbEntity
  8
0
100
AcDbPolyline
 90
       11
 70
   128
 43
0.0
 10
23.68992392452762
 20
16.58569615930415
 10
23.69689139553287
 20
16.57990635295333
 10
23.79749108610999
 20
16.53378605972227
 10
23.91844882711813
 20
16.53495862513985
 10
24.04343003731732
 20
16.58326630989612
 10
24.1555520696739
 20
16.67218437293182
 10
24.23967460779227
 20
16.78970444074615
 10
24.28443639678324
 20
16.91995471320676
 10
24.2837920492222
 20
17.04534380849482
 10
24.23782673745066
 20
17.14893728928887
 10
24.20653699713282
 20
17.18222844890734
  0
LWPOLYLINE
  5
111
330
2
100
AcDbEntity
  8
0
100
AcDbPolyline
 90
       14
 70
   128
 43
0.0
 10
23.54351075121912
 20
16.60794469171516
 10
23.6171274613877
 20
16.50640890981454
 10
23.72662396255908
 20
16.44578678571701
 10
23.86013352023537
 20
16.43264748194344
 10
24.00319164237006
 20
16.46841554327373
 10
24.14029325260185
 20
16.5492144866608
 10
24.25658132528213
 20
16.66628853718154
 10
24.33945590288778
 20
16.80695083495151
 10
24.37993315082113
 20
16.95595802033082
 10
24.37363039468158
 20
17.09716382804359
 10
24.32122901348791
 20
17.21526635948365
 10
24.22840593157628
 20
17.29746629432367
 10
24.1052225992306
 20
17.3348569358794
 10
23.97723628524577
 20
17.32626685448926
  0
LWPOLYLINE
  5
112
330
2
100
AcDbEntity
  8
0
100
AcDbPolyline
 90
        3
 70
   128
 43
0.0
 10
23.51438550032483
 20
16.78900476753093
 10
23.51375226218967
 20
16.73939143588018
 10
23.54351075121912
 20
16.60794469171516
  0
LWPOLYLINE
  5
113
330
2
100
AcDbEntity
  8
0
100
AcDbPolyline
 90
       14
 70
   128
 43
0.0
 10
11.28444638341221
 20
12.98772912161485
 10
11.38217428348628
 20
12.91132035394372
 10
11.50857750211879
 20
12.88059029630416
 10
11.64995624710513
 20
12.89886824943966
 10
11.79099245100627
 20
12.96417449361989
 10
11.91640137468954
 20
13.06943090173897
 10
12.0125943203524
 20
13.20323254623756
 10
12.06914692929237
 20
13.35107930887925
 10
12.07992864168608
 20
13.49694942549706
 10
12.04377296626808
 20
13.62503579969885
 10
11.96459968404427
 20
13.7214588056586
 10
11.85098528346159
 20
13.77576889074359
 10
11.71524272817335
 20
13.7820811797837
 10
11.67286391425871
 20
13.77448612445755
  0
ARC
  5
114
330
2
100
AcDbEntity
  8
0
100
AcDbCircle
 10
11.58134223669273
 20
13.20812111797339
 30
0.0
 40
0.3697563789275633
100
AcDbArc
 50
173.7693770479997
 51
216.5872708829992
  0
LWPOLYLINE
  5
115
330
2
100
AcDbEntity
  8
0
100
AcDbPolyline
 90
        4
 70
   128
 43
0.0
 10
28.56496152872447
 20
18.05102213421931
 10
28.55096582903623
 20
18.06075516169753
 10
28.53750797322334
 20
18.06533884756929
 10
28.52510509313234
 20
18.06459752385696
  0
LINE
  5
116
330
2
100
AcDbEntity
  8
0
100
AcDbLine
 10
28.56496152872447
 20
18.05102213421931
 30
0.0
 11
28.70844116915161
 21
17.92676512071407
 31
0.0
  0
LWPOLYLINE
  5
117
330
2
100
AcDbEntity
  8
0
100
AcDbPolyline
 90
        3
 70
   128
 43
0.0
 10
28.70844116915161
 20
17.92676512071407
 10
28.80949835760123
 20
17.86441315217735
 10
28.88180174412142
 20
17.85898850066734
  0
LINE
  5
118
330
2
100
AcDbEntity
  8
0
100
AcDbLine
 10
32.51065110563593
 20
18.67230639180312
 30
0.0
 11
32.51065110563593
 21
14.07102731919663
 31
0.0
  0
ARC
  5
119
330
2
100
AcDbEntity
  8
0
100
AcDbCircle
 10
28.70309407808317
 20
17.28523931315506
 30
0.0
 40
0.2720107638106026
100
AcDbArc
 50
179.5143398835012
 51
222.5891566897994
  0
LINE
  5
11A
330
2
100
AcDbEntity
  8
0
100
AcDbLine
 10
28.43109308602763
 20
17.97095840756428
 30
0.0
 11
28.43109308602763
 21
17.2875449489013
 31
0.0
  0
LINE
  5
11B
330
2
100
AcDbEntity
  8
0
100
AcDbLine
 10
28.50283290624119
 20
17.10115966004734
 30
0.0
 11
28.93327182749388
 21
16.72838861947423
 31
0.0
  0
LINE
  5
11C
330
2
100
AcDbEntity
  8
0
100
AcDbLine
 10
6.21534852730528
 20
11.22647347517315
 30
0.0
 11
6.21534852730528
 21
15.76185319588087
 31
0.0
  0
LINE
  5
11D
330
2
100
AcDbEntity
  8
0
100
AcDbLine
 10
24.48112835822562
 20
18.54959030235071
 30
0.0
 11
23.48707225001148
 21
18.26263102149646
 31
0.0
  0
LINE
  5
11E
330
2
100
AcDbEntity
  8
0
100
AcDbLine
 10
24.48112835822562
 20
18.92236111146255
 30
0.0
 11
24.48112835822562
 21
18.54959030235071
 31
0.0
  0
LINE
  5
11F
330
2
100
AcDbEntity
  8
0
100
AcDbLine
 10
24.48112835822562
 20
18.92236111146255
 30
0.0
 11
23.48707225001148
 21
18.63540183063696
 31
0.0
  0
LINE
  5
120
330
2
100
AcDbEntity
  8
0
100
AcDbLine
 10
23.48707225001148
 20
18.63540183063696
 30
0.0
 11
23.48707225001148
 21
18.26263102149646
 31
0.0
  0
LINE
  5
121
330
2
100
AcDbEntity
  8
0
100
AcDbLine
 10
12.17968517647537
 20
14.99846953614417
 30
0.0
 11
11.18562906828991
 21
14.7115102553186
 31
0.0
  0
LINE
  5
122
330
2
100
AcDbEntity
  8
0
100
AcDbLine
 10
12.17968517647537
 20
15.37124034525596
 30
0.0
 11
12.17968517647537
 21
14.99846953614417
 31
0.0
  0
LINE
  5
123
330
2
100
AcDbEntity
  8
0
100
AcDbLine
 10
12.17968517647537
 20
15.37124034525596
 30
0.0
 11
11.18562906828991
 21
15.0842810644304
 31
0.0
  0
LINE
  5
124
330
2
100
AcDbEntity
  8
0
100
AcDbLine
 10
11.18562906828991
 20
15.0842810644304
 30
0.0
 11
11.18562906828991
 21
14.7115102553186
 31
0.0
  0
LWPOLYLINE
  5
125
330
2
100
AcDbEntity
  8
0
100
AcDbPolyline
 90
        7
 70
   128
 43
0.0
 10
28.46303887389445
 20
18.04668070395277
 10
28.46297647064904
 20
18.04666253538714
 10
28.45210520955597
 20
18.04062455426562
 10
28.44318354898078
 20
18.02952136241798
 10
28.43655397187069
 20
18.01378032616497
 10
28.43247156986178
 20
17.99400586851558
 10
28.43109308602763
 20
17.97095840756428
  0
ARC
  5
126
330
2
100
AcDbEntity
  8
0
100
AcDbCircle
 10
28.32677530951
 20
16.14316602705296
 30
0.0
 40
0.8428069227252187
100
AcDbArc
 50
13.13109163540028
 51
43.977295335299
  0
ARC
  5
127
330
2
100
AcDbEntity
  8
0
100
AcDbCircle
 10
27.07409552328682
 20
17.26615499444295
 30
0.0
 40
0.1767722804887935
100
AcDbArc
 50
287.2089174333
 51
357.1688175608991
  0
LINE
  5
128
330
2
100
AcDbEntity
  8
0
100
AcDbLine
 10
27.12639479118494
 20
17.0972963975852
 30
0.0
 11
6.375477467121569
 21
11.10702254611109
 31
0.0
  0
LINE
  5
129
330
2
100
AcDbEntity
  8
0
100
AcDbLine
 10
27.25065203615154
 20
18.87276456385651
 30
0.0
 11
27.25065203615154
 21
17.25742361949135
 31
0.0
  0
LWPOLYLINE
  5
12A
330
2
100
AcDbEntity
  8
0
100
AcDbPolyline
 90
        8
 70
   128
 43
0.0
 10
28.8818017441214
 20
17.85898850066734
 10
28.91739921971481
 20
17.88849198619526
 10
28.97259669962919
 20
17.98945331221107
 10
29.00136058979084
 20
18.13421615490141
 10
29.00136058979084
 20
18.31105253210504
 10
28.97259669962919
 20
18.50563543110334
 10
28.91739921971481
 20
18.70220252255079
 10
28.89169870598035
 20
18.76303192076032
  0
LWPOLYLINE
  5
12B
330
2
100
AcDbEntity
  8
0
100
AcDbPolyline
 90
        3
 70
   128
 43
0.0
 10
28.74994379743327
 20
19.03445030377477
 10
28.74736973511794
 20
19.03871558825999
 10
28.66208045755602
 20
19.13381812408075
  0
ARC
  5
12C
330
2
100
AcDbEntity
  8
0
100
AcDbCircle
 10
28.7030911700096
 20
19.4597358090582
 30
0.0
 40
0.2720078614672682
100
AcDbArc
 50
179.5141952210005
 51
222.5893967577999
  0
ARC
  5
12D
330
2
100
AcDbEntity
  8
0
100
AcDbCircle
 10
28.19241125475694
 20
19.45283690575662
 30
0.0
 40
0.1767689020145366
100
AcDbArc
 50
287.2081354589999
 51
357.1692786496004
  0
LINE
  5
12E
330
2
100
AcDbEntity
  8
0
100
AcDbLine
 10
28.24470721857779
 20
19.28398082240348
 30
0.0
 11
27.37490835535891
 21
19.03289151848882
 31
0.0
  0
LINE
  5
12F
330
2
100
AcDbEntity
  8
0
100
AcDbLine
 10
28.43109308602763
 20
22.19569594161889
 30
0.0
 11
28.43109308602763
 21
19.46204210696286
 31
0.0
  0
LINE
  5
130
330
2
100
AcDbEntity
  8
0
100
AcDbLine
 10
28.36896446354435
 20
19.44410711852176
 30
0.0
 11
28.36896446354435
 21
22.1156323306904
 31
0.0
  0
LINE
  5
131
330
2
100
AcDbEntity
  8
0
100
AcDbLine
 10
28.62047069287307
 20
19.17377996936487
 30
0.0
 11
28.50283290624119
 21
19.27565728103155
 31
0.0
  0
ARC
  5
132
330
2
100
AcDbEntity
  8
0
100
AcDbCircle
 10
27.42720602357412
 20
18.86403516918189
 30
0.0
 40
0.176769660310122
100
AcDbArc
 50
107.2086376752003
 51
177.1694182046991
  0
ARC
  5
133
330
2
100
AcDbEntity
  8
0
100
AcDbCircle
 10
32.46401809786531
 20
18.67413810737293
 30
0.0
 40
0.0466689682218103
100
AcDbArc
 50
357.7506137228003
 51
47.60062473420025
  0
LWPOLYLINE
  5
134
330
2
100
AcDbEntity
  8
0
100
AcDbPolyline
 90
        7
 70
   128
 43
0.0
 10
6.21534852730528
 20
15.76185319588087
 10
6.216037769208
 20
15.77337762069743
 10
6.218078903379648
 20
15.78326467592615
 10
6.221393758767504
 20
15.7911349047547
 10
6.22585458904075
 20
15.79668696357246
 10
6.231290219601632
 20
15.79970525979232
 10
6.231321354420231
 20
15.79971440194045
  0
LWPOLYLINE
  5
135
330
2
100
AcDbEntity
  8
0
100
AcDbPolyline
 90
        4
 70
   128
 43
0.0
 10
28.36896446354435
 20
22.1777609531737
 10
28.36196661371457
 20
22.1826279297924
 10
28.35523775261222
 20
22.18491971487728
 10
28.34903631256672
 20
22.18454859009849
  0
LINE
  5
136
330
2
100
AcDbEntity
  8
0
100
AcDbLine
 10
28.36896446354435
 20
22.1156323306904
 30
0.0
 11
28.36896446354435
 21
22.1777609531737
 31
0.0
  0
LINE
  5
137
330
2
100
AcDbEntity
  8
0
100
AcDbLine
 10
28.36896446354435
 20
22.1777609531737
 30
0.0
 11
28.43109308602763
 21
22.19569594161479
 31
0.0
  0
ARC
  5
138
330
2
100
AcDbEntity
  8
0
100
AcDbCircle
 10
6.420647828497422
 20
13.39900317355065
 30
0.0
 40
0.2936985635624971
100
AcDbArc
 50
180.5536595746995
 51
216.0803568636989
  0
LINE
  5
139
330
2
100
AcDbEntity
  8
0
100
AcDbLine
 10
6.126962977188455
 20
15.69491955793492
 30
0.0
 11
6.126962977188455
 21
13.3961651549068
 31
0.0
  0
LINE
  5
13A
330
2
100
AcDbEntity
  8
0
100
AcDbLine
 10
6.189090673883839
 20
15.77498290164286
 30
0.0
 11
6.218108533527498
 21
15.78335963618883
 31
0.0
  0
ARC
  5
13B
330
2
100
AcDbEntity
  8
0
100
AcDbCircle
 10
6.215239143266273
 20
15.69055551309986
 30
0.0
 40
0.0883839713012826
100
AcDbArc
 50
107.2085625796006
 51
177.1698141882998
  0
ARC
  5
13C
330
2
100
AcDbEntity
  8
0
100
AcDbCircle
 10
29.65541444897255
 20
16.17779138480443
 30
0.0
 40
0.2319361858781436
100
AcDbArc
 50
57.13638854679968
 51
107.6021872117997
  0
LINE
  5
13D
330
2
100
AcDbEntity
  8
0
100
AcDbLine
 10
29.78127255551149
 20
16.37260958555355
 30
0.0
 11
33.58348235838759
 21
13.07979930574386
 31
0.0
  0
LWPOLYLINE
  5
13E
330
2
100
AcDbEntity
  8
0
100
AcDbPolyline
 90
        9
 70
   128
 43
0.0
 10
33.53096493360589
 20
12.98180082208036
 10
33.55382817562483
 20
12.9899926075549
 10
33.57305523222161
 20
13.00025693247875
 10
33.58790867007634
 20
13.01219977264019
 10
33.59781645242791
 20
13.02536190361906
 10
33.60239763148121
 20
13.03923727283529
 10
33.60147728437688
 20
13.05329320380321
 10
33.59509045406013
 20
13.06698943237592
 10
33.58348235838759
 20
13.07979930574386
  0
LINE
  5
13F
330
2
100
AcDbEntity
  8
0
100
AcDbLine
 10
32.41265250621305
 20
12.65897183156033
 30
0.0
 11
33.53096493360589
 21
12.98180082208036
 31
0.0
  0
LINE
  5
140
330
2
100
AcDbEntity
  8
0
100
AcDbLine
 10
29.58527549033137
 20
16.39886811539526
 30
0.0
 11
28.4669630629385
 21
16.07603912490394
 31
0.0
  0
LWPOLYLINE
  5
141
330
2
100
AcDbEntity
  8
0
100
AcDbPolyline
 90
        9
 70
   128
 43
0.0
 10
30.85548483745438
 20
14.65317710617157
 10
30.77130420682089
 20
14.61626491427158
 10
30.7217826921962
 20
14.56605523926478
 10
30.71446022363581
 20
14.51019226676777
 10
30.75044997121869
 20
14.4571801532786
 10
30.82427477139652
 20
14.41509007869196
 10
30.92469351233913
 20
14.39032931432038
 10
31.03641997776242
 20
14.38666792168176
 10
31.14244408487792
 20
14.40466310805787
  0
LINE
  5
142
330
2
100
AcDbEntity
  8
0
100
AcDbLine
 10
31.14244408487792
 20
14.40466310805787
 30
0.0
 11
31.39095764905184
 21
14.47640279463452
 31
0.0
  0
LWPOLYLINE
  5
143
330
2
100
AcDbEntity
  8
0
100
AcDbPolyline
 90
        9
 70
   128
 43
0.0
 10
31.39095764905184
 20
14.47640279463452
 10
31.47513827968531
 20
14.51331498653452
 10
31.52465979431007
 20
14.56352466151262
 10
31.53198226287042
 20
14.61938763403833
 10
31.49599251528758
 20
14.6723997475275
 10
31.42216771510971
 20
14.71448982211415
 10
31.32174897416712
 20
14.739250586457
 10
31.21002250874381
 20
14.74291197912434
 10
31.10399840162834
 20
14.72491679274822
  0
LINE
  5
144
330
2
100
AcDbEntity
  8
0
100
AcDbLine
 10
31.10399840162834
 20
14.72491679274822
 30
0.0
 11
30.85548483745438
 21
14.65317710617157
 31
0.0
  0
ARC
  5
145
330
2
100
AcDbEntity
  8
0
100
AcDbCircle
 10
29.65541444897255
 20
16.23992000728771
 30
0.0
 40
0.2319361858780912
100
AcDbArc
 50
57.13638854679968
 51
107.6021872117997
  0
LINE
  5
146
330
2
100
AcDbEntity
  8
0
100
AcDbLine
 10
28.4310934556311
 20
17.3082545964205
 30
0.0
 11
28.40483444045523
 21
17.3006742716875
 31
0.0
  0
LINE
  5
147
330
2
100
AcDbEntity
  8
0
100
AcDbLine
 10
28.4669630629385
 20
17.14887088987784
 30
0.0
 11
28.4669630629385
 21
16.13816774738721
 31
0.0
  0
ARC
  5
148
330
2
100
AcDbEntity
  8
0
100
AcDbCircle
 10
28.45035296533723
 20
16.11845607176944
 30
0.0
 40
0.0455531856640745
100
AcDbArc
 50
177.7647556206002
 51
291.384867434499
  0
LINE
  5
149
330
2
100
AcDbEntity
  8
0
100
AcDbLine
 10
28.40483444045523
 20
16.12023275891744
 30
0.0
 11
28.40483444045523
 21
17.3006742716875
 31
0.0
  0
LINE
  5
14A
330
2
100
AcDbEntity
  8
0
100
AcDbLine
 10
29.58527549033137
 20
16.46099673787856
 30
0.0
 11
28.4669630629385
 21
16.13816774738721
 31
0.0
  0
LINE
  5
14B
330
2
100
AcDbEntity
  8
0
100
AcDbLine
 10
33.58348235838759
 20
13.14192792822715
 30
0.0
 11
29.78127255551149
 21
16.43473820803682
 31
0.0
  0
ARC
  5
14C
330
2
100
AcDbEntity
  8
0
100
AcDbCircle
 10
32.39622781348928
 20
12.70488856913975
 30
0.0
 40
0.0487659442580585
100
AcDbArc
 50
231.224807159
 51
289.6824349113003
  0
LWPOLYLINE
  5
14D
330
2
100
AcDbEntity
  8
0
100
AcDbPolyline
 90
       10
 70
   128
 43
0.0
 10
29.08778829137795
 20
16.31738455373615
 10
29.06009113601106
 20
16.4033176993057
 10
29.00190591670213
 20
16.52104652760956
 10
28.93327182749388
 20
16.60413137450765
 10
28.86463773825698
 20
16.63992425726646
 10
28.80645251897671
 20
16.62297518502413
 10
28.76757449152453
 20
16.55586478836849
 10
28.7539223437928
 20
16.44881039690971
 10
28.76757449152453
 20
16.31810932905469
 10
28.79099709095346
 20
16.22756634414881
  0
LINE
  5
14E
330
2
100
AcDbEntity
  8
0
100
AcDbLine
 10
28.43109308602763
 20
19.52417072944615
 30
0.0
 11
28.43109308602763
 21
19.0821959242311
 31
0.0
  0
LINE
  5
14F
330
2
100
AcDbEntity
  8
0
100
AcDbLine
 10
28.43109308602763
 20
19.01973910366251
 30
0.0
 11
28.43109308602763
 21
17.41180219386787
 31
0.0
  0
LINE
  5
150
330
2
100
AcDbEntity
  8
0
100
AcDbLine
 10
2.99427968782362
 20
9.965278958348449
 30
0.0
 11
3.056407384519019
 21
9.983213679544419
 31
0.0
  0
ARC
  5
151
330
2
100
AcDbEntity
  8
0
100
AcDbCircle
 10
3.094411106356844
 20
10.05731920643107
 30
0.0
 40
0.1360062801749525
100
AcDbArc
 50
179.5143988047
 51
222.5890500660001
  0
LINE
  5
152
330
2
100
AcDbEntity
  8
0
100
AcDbLine
 10
28.40483444045523
 20
17.3006742716875
 30
0.0
 11
28.18313490343289
 21
17.23667512799793
 31
0.0
  0
LINE
  5
153
330
2
100
AcDbEntity
  8
0
100
AcDbLine
 10
28.13301777770109
 20
17.22220755998178
 30
0.0
 11
3.056407384519019
 21
9.983213679544419
 31
0.0
  0
LINE
  5
154
330
2
100
AcDbEntity
  8
0
100
AcDbLine
 10
28.1204508993991
 20
18.93746800032133
 30
0.0
 11
28.1204508993991
 21
19.24811111273772
 31
0.0
  0
LINE
  5
155
330
2
100
AcDbEntity
  8
0
100
AcDbLine
 10
2.958409710912746
 20
12.17084042763731
 30
0.0
 11
2.958409710912746
 21
10.05847189205902
 31
0.0
  0
ARC
  5
156
330
2
100
AcDbEntity
  8
0
100
AcDbCircle
 10
3.134965841490341
 20
12.16210939046543
 30
0.0
 40
0.1767718819774532
100
AcDbArc
 50
107.2094559851006
 51
177.1689207830007
  0
LINE
  5
157
330
2
100
AcDbEntity
  8
0
100
AcDbLine
 10
3.082665104303544
 20
12.33096711502452
 30
0.0
 11
6.215349689031057
 21
13.23529525917379
 31
0.0
  0
LINE
  5
158
330
2
100
AcDbEntity
  8
0
100
AcDbLine
 10
27.6855514677753
 20
19.1225664607804
 30
0.0
 11
27.6855514677753
 21
18.811923348364
 31
0.0
  0
LINE
  5
159
330
2
100
AcDbEntity
  8
0
100
AcDbLine
 10
27.6855514677753
 20
18.811923348364
 30
0.0
 11
28.1204508993991
 21
18.93746800032133
 31
0.0
  0
LINE
  5
15A
330
2
100
AcDbEntity
  8
0
100
AcDbLine
 10
28.1204508993991
 20
18.06766913707374
 30
0.0
 11
28.1204508993991
 21
18.31618316414163
 31
0.0
  0
LINE
  5
15B
330
2
100
AcDbEntity
  8
0
100
AcDbLine
 10
28.1204508993991
 20
18.31618316414163
 30
0.0
 11
27.6855514677753
 21
18.19063851218428
 31
0.0
  0
LINE
  5
15C
330
2
100
AcDbEntity
  8
0
100
AcDbLine
 10
27.6855514677753
 20
18.19063851218428
 30
0.0
 11
27.6855514677753
 21
17.94212448511641
 31
0.0
  0
LINE
  5
15D
330
2
100
AcDbEntity
  8
0
100
AcDbLine
 10
27.6855514677753
 20
17.94212448511641
 30
0.0
 11
28.1204508993991
 21
18.06766913707374
 31
0.0
  0
LINE
  5
15E
330
2
100
AcDbEntity
  8
0
100
AcDbLine
 10
3.056407384519019
 20
9.983213679544419
 30
0.0
 11
7.002096827793565
 21
6.566146386229515
 31
0.0
  0
ARC
  5
15F
330
2
100
AcDbEntity
  8
0
100
AcDbCircle
 10
33.55503929338414
 20
13.10359989700085
 30
0.0
 40
0.0477288793423391
100
AcDbArc
 50
2.951995516898996
 51
53.42105096630085
  0
LINE
  5
160
330
2
100
AcDbEntity
  8
0
100
AcDbLine
 10
1.875966334671602
 20
8.462008187841945
 30
0.0
 11
2.99427968782362
 21
8.784837445578396
 31
0.0
  0
LINE
  5
161
330
2
100
AcDbEntity
  8
0
100
AcDbLine
 10
2.99427968782362
 20
8.784837445578396
 30
0.0
 11
2.99427968782362
 21
9.965278958348449
 31
0.0
  0
LINE
  5
162
330
2
100
AcDbEntity
  8
0
100
AcDbLine
 10
3.056407384519019
 20
8.802772166774364
 30
0.0
 11
3.056407384519019
 21
9.983213679544419
 31
0.0
  0
ARC
  5
163
330
2
100
AcDbEntity
  8
0
100
AcDbCircle
 10
2.9681293192302
 20
8.807137685374655
 30
0.0
 40
0.0883859409888043
100
AcDbArc
 50
287.2094559851007
 51
357.1689207828993
  0
LINE
  5
164
330
2
100
AcDbEntity
  8
0
100
AcDbLine
 10
1.875966334671602
 20
8.399879565329968
 30
0.0
 11
2.99427968782362
 21
8.722708823095125
 31
0.0
  0
LINE
  5
165
330
2
100
AcDbEntity
  8
0
100
AcDbLine
 10
3.056407384519019
 20
8.802772166774364
 30
0.0
 11
7.002096827793565
 21
5.385704873459467
 31
0.0
  0
ARC
  5
166
330
2
100
AcDbEntity
  8
0
100
AcDbCircle
 10
6.913818762504746
 20
5.390070392059744
 30
0.0
 40
0.0883859409887587
100
AcDbArc
 50
287.2094559851007
 51
357.1689207828993
  0
ARC
  5
167
330
2
100
AcDbEntity
  8
0
100
AcDbCircle
 10
5.75151718382925
 20
5.203878883418965
 30
0.0
 40
0.2319264302666776
100
AcDbArc
 50
237.1352689343997
 51
287.6028573528994
  0
LINE
  5
168
330
2
100
AcDbEntity
  8
0
100
AcDbLine
 10
5.625660564341771
 20
5.009071336375765
 30
0.0
 11
1.823450761465664
 21
8.301881616156734
 31
0.0
  0
LWPOLYLINE
  5
169
330
2
100
AcDbEntity
  8
0
100
AcDbPolyline
 90
        9
 70
   128
 43
0.0
 10
1.875966334671602
 20
8.399879565329968
 10
1.853104018411883
 20
8.391688047129264
 10
1.833875110268024
 20
8.381423187657745
 10
1.819022598172466
 20
8.369480614770132
 10
1.809113890061723
 20
8.356318216546124
 10
1.804535488372067
 20
8.342443649093993
 10
1.805454909688478
 20
8.328387450852247
 10
1.811839888429489
 20
8.314690687789266
 10
1.823450761465664
 20
8.301881616156734
  0
LINE
  5
16A
330
2
100
AcDbEntity
  8
0
100
AcDbLine
 10
6.939969131098166
 20
5.305641529780203
 30
0.0
 11
5.821655777946119
 21
4.982812272015067
 31
0.0
  0
LINE
  5
16B
330
2
100
AcDbEntity
  8
0
100
AcDbLine
 10
4.551447356582286
 20
6.728503548483907
 30
0.0
 11
4.302932866649172
 21
6.656763594662102
 31
0.0
  0
LWPOLYLINE
  5
16C
330
2
100
AcDbEntity
  8
0
100
AcDbPolyline
 90
        9
 70
   128
 43
0.0
 10
4.26448810915879
 20
6.977017546626292
 10
4.370510364727195
 20
6.995012198483443
 10
4.482237755938371
 20
6.991351073089958
 10
4.582655571093084
 20
6.966590041473253
 10
4.656482222818013
 20
6.924500501376876
 10
4.69247011885379
 20
6.871487853397432
 10
4.685148576081331
 20
6.815625148145546
 10
4.635626135668701
 20
6.765415205893624
 10
4.551447356582286
 20
6.728503548483907
  0
LINE
  5
16D
330
2
100
AcDbEntity
  8
0
100
AcDbLine
 10
4.015973619225661
 20
6.905277592775817
 30
0.0
 11
4.26448810915879
 21
6.977017546626292
 31
0.0
  0
LWPOLYLINE
  5
16E
330
2
100
AcDbEntity
  8
0
100
AcDbPolyline
 90
        9
 70
   128
 43
0.0
 10
4.302932866649172
 20
6.656763594662102
 10
4.19691061110943
 20
6.638768942804954
 10
4.085183219898283
 20
6.642430068198457
 10
3.984765404743541
 20
6.667191099815156
 10
3.91093875298992
 20
6.709280639882827
 10
3.874950856982849
 20
6.762293287862267
 10
3.882272399755322
 20
6.818155993142855
 10
3.931794840167924
 20
6.868365935366064
 10
4.015973619225661
 20
6.905277592775817
  0
LINE
  5
16F
330
2
100
AcDbEntity
  8
0
100
AcDbLine
 10
7.002096827793565
 20
5.385704873459467
 30
0.0
 11
7.002096827793565
 21
6.566146386229515
 31
0.0
  0
LWPOLYLINE
  5
170
330
2
100
AcDbEntity
  8
0
100
AcDbPolyline
 90
        7
 70
   128
 43
0.0
 10
1.804226430178118
 20
8.399879733889832
 10
1.804535488372067
 20
8.404572271577286
 10
1.809113890061723
 20
8.418446839029403
 10
1.819022598172466
 20
8.431609237253415
 10
1.833875110268024
 20
8.443551810169722
 10
1.853104018411883
 20
8.453816669612542
 10
1.875966334671602
 20
8.462008187841945
  0
LWPOLYLINE
  5
171
330
2
100
AcDbEntity
  8
0
100
AcDbPolyline
 90
       10
 70
   128
 43
0.0
 10
24.06775019403781
 20
17.27945662643208
 10
24.14140411802499
 20
17.21064534185124
 10
24.17554528148381
 20
17.10280300091249
 10
24.16486540564213
 20
16.97763648859592
 10
24.11080501460481
 20
16.85204898452836
 10
24.02066486266958
 20
16.74300182030977
 10
23.9066190454513
 20
16.66522294655064
 10
23.78407080281656
 20
16.62921678114045
 10
23.66956949853517
 20
16.63984588626056
 10
23.58999090829084
 20
16.6886741717874
  0
LWPOLYLINE
  5
172
330
2
100
AcDbEntity
  8
0
100
AcDbPolyline
 90
       16
 70
   128
 43
0.0
 10
11.44318369060661
 20
13.74002852161067
 10
11.44464828522504
 20
13.74074154781382
 10
11.56425622919712
 20
13.77490509004676
 10
11.67462111830954
 20
13.76065541769127
 10
11.75893807165315
 20
13.7001616202996
 10
11.80437383338861
 20
13.60263424400939
 10
11.80400907339429
 20
13.48292054003517
 10
11.75790119049011
 20
13.35924591451321
 10
11.67306579659367
 20
13.25043770371644
 10
11.56242317143287
 20
13.17306263018145
 10
11.44281522748949
 20
13.13889955084247
 10
11.3324503383771
 20
13.15314876030402
 10
11.24813153345769
 20
13.21364202320542
 10
11.20269577172225
 20
13.31116939949564
 10
11.20306053168785
 20
13.43088310346984
 10
11.23174510812514
 20
13.52022551458911
  0
ARC
  5
173
330
2
100
AcDbEntity
  8
0
100
AcDbCircle
 10
6.345247619135108
 20
11.23355339455266
 30
0.0
 40
0.1300918879739755
100
AcDbArc
 50
183.1197180373426
 51
283.4368231249509
  0
ARC
  5
174
330
2
100
AcDbEntity
  8
0
100
AcDbCircle
 10
28.43756498845502
 20
22.09060603561531
 30
0.0
 40
0.1052890016288933
100
AcDbArc
 50
67.38216101074837
 51
93.52407748584752
  0
POLYLINE
  5
175
330
2
100
AcDbEntity
  8
0
100
AcDb2dPolyline
 66
     1
 10
0.0
 20
0.0
 30
0.0
 70
     2
  0
VERTEX
  5
176
330
175
100
AcDbEntity
  8
0
100
AcDbVertex
100
AcDb2dVertex
 10
28.4310930860276
 20
18.98959638078797
 30
0.0
 42
-0.0579364963769022
  0
VERTEX
  5
177
330
175
100
AcDbEntity
  8
0
100
AcDbVertex
100
AcDb2dVertex
 10
31.75831660924587
 20
19.10670444786092
 30
0.0
 42
-0.0673598873385097
 70
     1
  0
VERTEX
  5
178
330
175
100
AcDbEntity
  8
0
100
AcDbVertex
100
AcDb2dVertex
 10
34.43582782007302
 20
18.5217842162215
 30
0.0
 42
-0.011450306815309
  0
VERTEX
  5
179
330
175
100
AcDbEntity
  8
0
100
AcDbVertex
100
AcDb2dVertex
 10
36.03765984923459
 20
17.89589225267976
 30
0.0
 42
-0.0314694829932428
 70
     1
  0
VERTEX
  5
17A
330
175
100
AcDbEntity
  8
0
100
AcDbVertex
100
AcDb2dVertex
 10
36.59931094106126
 20
17.61880287905504
 30
0.0
 42
-0.0818384679004543
  0
VERTEX
  5
17B
330
175
100
AcDbEntity
  8
0
100
AcDbVertex
100
AcDb2dVertex
 10
37.14985916790407
 20
17.1694438361656
 30
0.0
 42
-0.0499084419776045
 70
     1
  0
VERTEX
  5
17C
330
175
100
AcDbEntity
  8
0
100
AcDbVertex
100
AcDb2dVertex
 10
37.82713946384962
 20
16.22715459045014
 30
0.0
  0
SEQEND
  5
17D
330
175
100
AcDbEntity
  8
0
  0
POLYLINE
  5
17E
330
2
100
AcDbEntity
  8
0
100
AcDb2dPolyline
 66
     1
 10
0.0
 20
0.0
 30
0.0
  0
VERTEX
  5
17F
330
17E
100
AcDbEntity
  8
0
100
AcDbVertex
100
AcDb2dVertex
 10
28.4310930860276
 20
18.69926934889604
 30
0.0
 42
-0.0587115938237388
  0
VERTEX
  5
180
330
17E
100
AcDbEntity
  8
0
100
AcDbVertex
100
AcDb2dVertex
 10
31.73522382855698
 20
18.82067590848226
 30
0.0
 42
-0.0673598873385097
  0
VERTEX
  5
181
330
17E
100
AcDbEntity
  8
0
100
AcDbVertex
100
AcDb2dVertex
 10
34.3375394876213
 20
18.25218264804563
 30
0.0
 42
-0.0114503068153089
  0
VERTEX
  5
182
330
17E
100
AcDbEntity
  8
0
100
AcDbVertex
100
AcDb2dVertex
 10
35.92713135514764
 20
17.63107334502037
 30
0.0
 42
-0.0314694829932429
  0
VERTEX
  5
183
330
17E
100
AcDbEntity
  8
0
100
AcDbVertex
100
AcDb2dVertex
 10
36.4564204088301
 20
17.3699497142013
 30
0.0
 42
-0.081838467900454
  0
VERTEX
  5
184
330
17E
100
AcDbEntity
  8
0
100
AcDbVertex
100
AcDb2dVertex
 10
36.93467887391609
 20
16.97959378233817
 30
0.0
 42
-0.0443687761746195
  0
VERTEX
  5
185
330
17E
100
AcDbEntity
  8
0
100
AcDbVertex
100
AcDb2dVertex
 10
37.51620577256279
 20
16.18911192664449
 30
0.0
 42
-0.0499084419776047
  0
SEQEND
  5
186
330
17E
100
AcDbEntity
  8
0
  0
POLYLINE
  5
187
330
2
100
AcDbEntity
  8
0
100
AcDb2dPolyline
 66
     1
 10
0.0
 20
0.0
 30
0.0
 70
     2
  0
VERTEX
  5
188
330
187
100
AcDbEntity
  8
0
100
AcDbVertex
100
AcDb2dVertex
 10
38.59437543799554
 20
16.25388774776302
 30
0.0
 42
-0.0488455962787705
  0
VERTEX
  5
189
330
187
100
AcDbEntity
  8
0
100
AcDbVertex
100
AcDb2dVertex
 10
37.85486383960593
 20
17.00626775740601
 30
0.0
 42
-0.0597583052236917
 70
     1
  0
VERTEX
  5
18A
330
187
100
AcDbEntity
  8
0
100
AcDbVertex
100
AcDb2dVertex
 10
37.39643043418087
 20
17.73783053240485
 30
0.0
 42
-0.0048941852910339
  0
VERTEX
  5
18B
330
187
100
AcDbEntity
  8
0
100
AcDbVertex
100
AcDb2dVertex
 10
37.18563225838784
 20
18.19671231743509
 30
0.0
 42
-0.021488261389958
 70
     1
  0
VERTEX
  5
18C
330
187
100
AcDbEntity
  8
0
100
AcDbVertex
100
AcDb2dVertex
 10
37.14318038973249
 20
18.30366084347094
 30
0.0
 42
-0.0429133047917358
  0
VERTEX
  5
18D
330
187
100
AcDbEntity
  8
0
100
AcDbVertex
100
AcDb2dVertex
 10
36.96270515212717
 20
19.01306425707914
 30
0.0
 42
-0.0165742420476657
 70
     1
  0
VERTEX
  5
18E
330
187
100
AcDbEntity
  8
0
100
AcDbVertex
100
AcDb2dVertex
 10
36.71702313882903
 20
20.88934697873519
 30
0.0
 42
-0.0135478280119832
  0
VERTEX
  5
18F
330
187
100
AcDbEntity
  8
0
100
AcDbVertex
100
AcDb2dVertex
 10
36.67176970515575
 20
21.53513267437788
 30
0.0
 42
-0.0065323148410047
 70
     1
  0
VERTEX
  5
190
330
187
100
AcDbEntity
  8
0
100
AcDbVertex
100
AcDb2dVertex
 10
36.63176809554415
 20
22.87697230655003
 30
0.0
 42
-0.0630061926651922
  0
VERTEX
  5
191
330
187
100
AcDbEntity
  8
0
100
AcDbVertex
100
AcDb2dVertex
 10
36.84105114788542
 20
24.78747724784879
 30
0.0
 42
-0.1013177687733093
 70
     1
  0
VERTEX
  5
192
330
187
100
AcDbEntity
  8
0
100
AcDbVertex
100
AcDb2dVertex
 10
37.34994596932876
 20
25.87718813820206
 30
0.0
 42
-0.1072686604705578
  0
VERTEX
  5
193
330
187
100
AcDbEntity
  8
0
100
AcDbVertex
100
AcDb2dVertex
 10
37.90322474360495
 20
26.36072036934248
 30
0.0
 42
-0.0617534728423686
 70
     1
  0
VERTEX
  5
194
330
187
100
AcDbEntity
  8
0
100
AcDbVertex
100
AcDb2dVertex
 10
39.0789840053628
 20
26.83191400301797
 30
0.0
 42
-0.055592915443311
  0
VERTEX
  5
195
330
187
100
AcDbEntity
  8
0
100
AcDbVertex
100
AcDb2dVertex
 10
39.67698453610438
 20
26.92029801140674
 30
0.0
 42
-0.0467035193712873
 70
     1
  0
VERTEX
  5
196
330
187
100
AcDbEntity
  8
0
100
AcDbVertex
100
AcDb2dVertex
 10
40.39469166516693
 20
26.87885914660792
 30
0.0
  0
SEQEND
  5
197
330
187
100
AcDbEntity
  8
0
  0
POLYLINE
  5
198
330
2
100
AcDbEntity
  8
0
100
AcDb2dPolyline
 66
     1
 10
0.0
 20
0.0
 30
0.0
  0
VERTEX
  5
199
330
198
100
AcDbEntity
  8
0
100
AcDbVertex
100
AcDb2dVertex
 10
38.93845947475327
 20
16.34558744023796
 30
0.0
 42
-0.0588834903819056
  0
VERTEX
  5
19A
330
198
100
AcDbEntity
  8
0
100
AcDbVertex
100
AcDb2dVertex
 10
38.07814714452844
 20
17.1865180489506
 30
0.0
 42
-0.059758305223691
  0
VERTEX
  5
19B
330
198
100
AcDbEntity
  8
0
100
AcDbVertex
100
AcDb2dVertex
 10
37.65600715489024
 20
17.86016420693811
 30
0.0
 42
-0.0048941852910339
  0
VERTEX
  5
19C
330
198
100
AcDbEntity
  8
0
100
AcDbVertex
100
AcDb2dVertex
 10
37.44755396284113
 20
18.31394124985074
 30
0.0
 42
-0.0214882613899575
  0
VERTEX
  5
19D
330
198
100
AcDbEntity
  8
0
100
AcDbVertex
100
AcDb2dVertex
 10
37.41419769459048
 20
18.39797532977368
 30
0.0
 42
-0.0429133047917362
  0
VERTEX
  5
19E
330
198
100
AcDbEntity
  8
0
100
AcDbVertex
100
AcDb2dVertex
 10
37.24584460127237
 20
19.05972959964502
 30
0.0
 42
-0.0165742420476656
  0
VERTEX
  5
19F
330
198
100
AcDbEntity
  8
0
100
AcDbVertex
100
AcDb2dVertex
 10
37.00263191225949
 20
20.91715399940607
 30
0.0
 42
-0.0135478280119832
  0
VERTEX
  5
1A0
330
198
100
AcDbEntity
  8
0
100
AcDbVertex
100
AcDb2dVertex
 10
36.95846532853345
 20
21.54742988524484
 30
0.0
 42
-0.0065323148410048
  0
VERTEX
  5
1A1
330
198
100
AcDbEntity
  8
0
100
AcDbVertex
100
AcDb2dVertex
 10
36.91868713412971
 20
22.88177513448446
 30
0.0
 42
-0.0630061926651915
  0
VERTEX
  5
1A2
330
198
100
AcDbEntity
  8
0
100
AcDbVertex
100
AcDb2dVertex
 10
37.120126170181
 20
24.72067355191992
 30
0.0
 42
-0.1013177687733092
  0
VERTEX
  5
1A3
330
198
100
AcDbEntity
  8
0
100
AcDbVertex
100
AcDb2dVertex
 10
37.58031216865275
 20
25.70608286046918
 30
0.0
 42
-0.1072686604705569
  0
VERTEX
  5
1A4
330
198
100
AcDbEntity
  8
0
100
AcDbVertex
100
AcDb2dVertex
 10
38.04193443251861
 20
26.10951283748785
 30
0.0
 42
-0.0617534728423686
  0
VERTEX
  5
1A5
330
198
100
AcDbEntity
  8
0
100
AcDbVertex
100
AcDb2dVertex
 10
39.15214770381175
 20
26.55443846339637
 30
0.0
 42
-0.0555929154433105
  0
VERTEX
  5
1A6
330
198
100
AcDbEntity
  8
0
100
AcDbVertex
100
AcDb2dVertex
 10
39.687216881664
 20
26.63352126729492
 30
0.0
 42
-0.0497717933022909
  0
VERTEX
  5
1A7
330
198
100
AcDbEntity
  8
0
100
AcDbVertex
100
AcDb2dVertex
 10
40.39469184308109
 20
26.58832578339165
 30
0.0
 42
-0.046703519371287
  0
SEQEND
  5
1A8
330
198
100
AcDbEntity
  8
0
  0
ELLIPSE
  5
1A9
330
2
100
AcDbEntity
  8
0
100
AcDbEllipse
 10
28.61644876610862
 20
16.26589274985723
 30
0.0
 11
0.3048108076564215
 21
0.0
 31
0.0
210
0.0
220
0.0
230
1.0
 40
0.6171303644892953
 41
2.338171018760502
 42
7.380107028926092
  0
POLYLINE
  5
1AA
330
2
100
AcDbEntity
  8
0
100
AcDb2dPolyline
 66
     1
 10
0.0
 20
0.0
 30
0.0
 70
     2
  0
VERTEX
  5
1AB
330
1AA
100
AcDbEntity
  8
0
100
AcDbVertex
100
AcDb2dVertex
 10
28.85213946341898
 20
15.93583343604554
 30
0.0
 42
0.0880096562533022
  0
VERTEX
  5
1AC
330
1AA
100
AcDbEntity
  8
0
100
AcDbVertex
100
AcDb2dVertex
 10
31.48726797058754
 20
13.98615467717404
 30
0.0
 42
0.1052464360854266
 70
     1
  0
VERTEX
  5
1AD
330
1AA
100
AcDbEntity
  8
0
100
AcDbVertex
100
AcDb2dVertex
 10
34.15079514194221
 20
13.3012049961584
 30
0.0
 42
0.0272445652114519
  0
VERTEX
  5
1AE
330
1AA
100
AcDbEntity
  8
0
100
AcDbVertex
100
AcDb2dVertex
 10
36.14510111614503
 20
13.32611806170844
 30
0.0
 42
0.0519632746712641
 70
     1
  0
VERTEX
  5
1AF
330
1AA
100
AcDbEntity
  8
0
100
AcDbVertex
100
AcDb2dVertex
 10
37.17760590480248
 20
13.50420529232933
 30
0.0
 42
0.0852429863494019
  0
VERTEX
  5
1B0
330
1AA
100
AcDbEntity
  8
0
100
AcDbVertex
100
AcDb2dVertex
 10
38.12505262738545
 20
13.95570639158812
 30
0.0
 42
0.0614300481464292
 70
     1
  0
VERTEX
  5
1B1
330
1AA
100
AcDbEntity
  8
0
100
AcDbVertex
100
AcDb2dVertex
 10
39.19926077025503
 20
14.93161966846682
 30
0.0
  0
SEQEND
  5
1B2
330
1AA
100
AcDbEntity
  8
0
  0
ELLIPSE
  5
1B3
330
2
100
AcDbEntity
  8
0
100
AcDbEllipse
 10
38.95027605988192
 20
15.31235133951166
 30
0.0
 11
-0.2555556654357396
 21
0.1720395810165554
 31
0.0
210
0.0
220
0.0
230
0.9999999999999998
 40
0.4166265049422467
 41
5.360526688532012
 42
10.17506547030871
  0
ELLIPSE
  5
1B4
330
2
100
AcDbEntity
  8
0
100
AcDbEllipse
 10
39.19894409317132
 20
15.05423594595433
 30
0.0
 11
-0.0034983919805735
 21
0.1229247406712525
 31
0.0
210
0.0
220
0.0
230
1.0
 40
0.5558262378430172
 41
0.0
 42
6.283185307179584
  0
ELLIPSE
  5
1B5
330
2
100
AcDbEntity
  8
0
100
AcDbEllipse
 10
28.81304095378871
 20
16.0327574237474
 30
0.0
 11
-0.0353620554415959
 21
0.0987123442898621
 31
0.0
210
0.0
220
0.0
230
0.9999999999999998
 40
0.5293258385647972
 41
0.0
 42
6.283185307179584
  0
POLYLINE
  5
1B6
330
2
100
AcDbEntity
  8
0
100
AcDb2dPolyline
 66
     1
 10
0.0
 20
0.0
 30
0.0
 70
     2
  0
VERTEX
  5
1B7
330
1B6
100
AcDbEntity
  8
0
100
AcDbVertex
100
AcDb2dVertex
 10
39.08770910572113
 20
16.38804421663295
 30
0.0
 42
-0.0218393142536468
  0
VERTEX
  5
1B8
330
1B6
100
AcDbEntity
  8
0
100
AcDbVertex
100
AcDb2dVertex
 10
38.80067159527106
 20
16.57115250415287
 30
0.0
 42
-0.0343968148298645
 70
     1
  0
VERTEX
  5
1B9
330
1B6
100
AcDbEntity
  8
0
100
AcDbVertex
100
AcDb2dVertex
 10
38.63250167351547
 20
16.70722227372528
 30
0.0
 42
-0.0059965664963173
  0
VERTEX
  5
1BA
330
1B6
100
AcDbEntity
  8
0
100
AcDbVertex
100
AcDb2dVertex
 10
38.35854470624955
 20
16.96814643185794
 30
0.0
 42
-0.0241183618853061
 70
     1
  0
VERTEX
  5
1BB
330
1B6
100
AcDbEntity
  8
0
100
AcDbVertex
100
AcDb2dVertex
 10
38.29442343748898
 20
17.03703955977201
 30
0.0
 42
-0.0277437468749824
  0
VERTEX
  5
1BC
330
1B6
100
AcDbEntity
  8
0
100
AcDbVertex
100
AcDb2dVertex
 10
38.17852946159892
 20
17.19081483933635
 30
0.0
 42
-0.019152459699147
 70
     1
  0
VERTEX
  5
1BD
330
1B6
100
AcDbEntity
  8
0
100
AcDbVertex
100
AcDb2dVertex
 10
38.03230288924917
 20
17.42821507740252
 30
0.0
 42
-0.0274890521344218
  0
VERTEX
  5
1BE
330
1B6
100
AcDbEntity
  8
0
100
AcDbVertex
100
AcDb2dVertex
 10
37.900215954097
 20
17.69562174669605
 30
0.0
 42
-0.0242781119376193
 70
     1
  0
VERTEX
  5
1BF
330
1B6
100
AcDbEntity
  8
0
100
AcDbVertex
100
AcDb2dVertex
 10
37.78276404077149
 20
18.01217462201534
 30
0.0
 42
-0.0309058680573905
  0
VERTEX
  5
1C0
330
1B6
100
AcDbEntity
  8
0
100
AcDbVertex
100
AcDb2dVertex
 10
37.70454961080266
 20
18.32506986858644
 30
0.0
 42
-0.0198968455354462
 70
     1
  0
VERTEX
  5
1C1
330
1B6
100
AcDbEntity
  8
0
100
AcDbVertex
100
AcDb2dVertex
 10
37.63301048830292
 20
18.82062905766391
 30
0.0
 42
-0.0259011632680318
  0
VERTEX
  5
1C2
330
1B6
100
AcDbEntity
  8
0
100
AcDbVertex
100
AcDb2dVertex
 10
37.62128798290101
 20
19.04677027380219
 30
0.0
 42
-0.0053073994048922
 70
     1
  0
VERTEX
  5
1C3
330
1B6
100
AcDbEntity
  8
0
100
AcDbVertex
100
AcDb2dVertex
 10
37.63301048830292
 20
20.15109409629478
 30
0.0
 42
-0.038929241233674
  0
VERTEX
  5
1C4
330
1B6
100
AcDbEntity
  8
0
100
AcDbVertex
100
AcDb2dVertex
 10
37.73942453119869
 20
21.2219404766324
 30
0.0
 42
-0.0315179927272688
 70
     1
  0
VERTEX
  5
1C5
330
1B6
100
AcDbEntity
  8
0
100
AcDbVertex
100
AcDb2dVertex
 10
38.05505436648715
 20
22.51237136970837
 30
0.0
 42
-0.1777444106017377
  0
VERTEX
  5
1C6
330
1B6
100
AcDbEntity
  8
0
100
AcDbVertex
100
AcDb2dVertex
 10
38.55054582835914
 20
23.15782221814503
 30
0.0
 42
-0.1335130311276947
 70
     1
  0
VERTEX
  5
1C7
330
1B6
100
AcDbEntity
  8
0
100
AcDbVertex
100
AcDb2dVertex
 10
40.39469184308107
 20
23.72588586293809
 30
0.0
 42
-0.0952204189020359
  0
SEQEND
  5
1C8
330
1B6
100
AcDbEntity
  8
0
  0
POLYLINE
  5
1C9
330
2
100
AcDbEntity
  8
0
100
AcDb2dPolyline
 66
     1
 10
0.0
 20
0.0
 30
0.0
  0
VERTEX
  5
1CA
330
1C9
100
AcDbEntity
  8
0
100
AcDbVertex
100
AcDb2dVertex
 10
39.13165539672935
 20
16.42046390852032
 30
0.0
 42
-0.0232572043299564
  0
VERTEX
  5
1CB
330
1C9
100
AcDbEntity
  8
0
100
AcDbVertex
100
AcDb2dVertex
 10
38.82937686624178
 20
16.61209157373801
 30
0.0
 42
-0.0343968148298637
  0
VERTEX
  5
1CC
330
1C9
100
AcDbEntity
  8
0
100
AcDbVertex
100
AcDb2dVertex
 10
38.66654862815835
 20
16.74383927632715
 30
0.0
 42
-0.0059965664963174
  0
VERTEX
  5
1CD
330
1C9
100
AcDbEntity
  8
0
100
AcDbVertex
100
AcDb2dVertex
 10
38.39346007771431
 20
17.00393633036965
 30
0.0
 42
-0.0241183618853074
  0
VERTEX
  5
1CE
330
1C9
100
AcDbEntity
  8
0
100
AcDbVertex
100
AcDb2dVertex
 10
38.33262327227929
 20
17.0693005675367
 30
0.0
 42
-0.0277437468749829
  0
VERTEX
  5
1CF
330
1C9
100
AcDbEntity
  8
0
100
AcDbVertex
100
AcDb2dVertex
 10
38.22006634244843
 20
17.21864804844512
 30
0.0
 42
-0.0191524596991465
  0
VERTEX
  5
1D0
330
1C9
100
AcDbEntity
  8
0
100
AcDbVertex
100
AcDb2dVertex
 10
38.07584792070599
 20
17.45278803480335
 30
0.0
 42
-0.0274890521344221
  0
VERTEX
  5
1D1
330
1C9
100
AcDbEntity
  8
0
100
AcDbVertex
100
AcDb2dVertex
 10
37.94619397697728
 20
17.7152691743144
 30
0.0
 42
-0.0242781119376193
  0
VERTEX
  5
1D2
330
1C9
100
AcDbEntity
  8
0
100
AcDbVertex
100
AcDb2dVertex
 10
37.83043015281017
 20
18.02727236234672
 30
0.0
 42
-0.0309058680573906
  0
VERTEX
  5
1D3
330
1C9
100
AcDbEntity
  8
0
100
AcDbVertex
100
AcDb2dVertex
 10
37.75371327799831
 20
18.33417666977435
 30
0.0
 42
-0.0198968455354461
  0
VERTEX
  5
1D4
330
1C9
100
AcDbEntity
  8
0
100
AcDbVertex
100
AcDb2dVertex
 10
37.68274249989098
 20
18.82579887617177
 30
0.0
 42
-0.0259011632680318
  0
VERTEX
  5
1D5
330
1C9
100
AcDbEntity
  8
0
100
AcDbVertex
100
AcDb2dVertex
 10
37.67128798290101
 20
19.04677027380219
 30
0.0
 42
-0.0053073994048922
  0
VERTEX
  5
1D6
330
1C9
100
AcDbEntity
  8
0
100
AcDbVertex
100
AcDb2dVertex
 10
37.68299922154227
 20
20.15003270611043
 30
0.0
 42
-0.0389292412336741
  0
VERTEX
  5
1D7
330
1C9
100
AcDbEntity
  8
0
100
AcDbVertex
100
AcDb2dVertex
 10
37.78864451255255
 20
21.21314312273896
 30
0.0
 42
-0.0315179927272688
  0
VERTEX
  5
1D8
330
1C9
100
AcDbEntity
  8
0
100
AcDbVertex
100
AcDb2dVertex
 10
38.10277816921182
 20
22.4974569922994
 30
0.0
 42
-0.1777444106017369
  0
VERTEX
  5
1D9
330
1C9
100
AcDbEntity
  8
0
100
AcDbVertex
100
AcDb2dVertex
 10
38.57728575003604
 20
23.11557323485887
 30
0.0
 42
-0.1333959999668982
  0
VERTEX
  5
1DA
330
1C9
100
AcDbEntity
  8
0
100
AcDbVertex
100
AcDb2dVertex
 10
40.39469184308107
 20
23.67585764916835
 30
0.0
 42
-0.0985740322038722
  0
SEQEND
  5
1DB
330
1C9
100
AcDbEntity
  8
0
  0
LINE
  5
1DC
330
2
100
AcDbEntity
  8
0
  6
Continuous
 62
     7
370
    15
100
AcDbLine
 10
28.6400259027908
 20
15.79857846764149
 30
0.0
 11
28.85087854471615
 21
15.61597472326844
 31
0.0
  0
LINE
  5
1DD
330
2
100
AcDbEntity
  8
0
  6
Continuous
 62
     7
370
    15
100
AcDbLine
 10
28.70546810020355
 20
15.76797697391066
 30
0.0
 11
28.76499526195781
 21
15.78516098533078
 31
0.0
  0
ARC
  5
1DE
330
2
100
AcDbEntity
  8
0
  6
Continuous
 62
     7
370
    15
100
AcDbCircle
 10
28.74663512366905
 20
15.93043953525853
 30
0.0
 40
0.1675971588541174
100
AcDbArc
 50
174.806924713807
 51
210.0763998313957
  0
ARC
  5
1DF
330
2
100
AcDbEntity
  8
0
  6
Continuous
 62
     7
370
    15
100
AcDbCircle
 10
28.74663512366905
 20
15.93043953525853
 30
0.0
 40
0.1675971588541174
100
AcDbArc
 50
231.7295710137043
 51
255.7808851649027
  0
LINE
  5
1E0
330
2
100
AcDbEntity
  8
0
  6
Continuous
 62
     7
370
    15
100
AcDbLine
 10
28.92068749401145
 20
15.58159151147504
 30
0.0
 11
28.98021465576571
 21
15.59877552292392
 31
0.0
  0
LWPOLYLINE
  5
1E1
330
2
100
AcDbEntity
  8
0
  6
Continuous
 62
     7
370
    15
100
AcDbPolyline
 90
        3
 70
   128
 43
0.0
 10
28.85087854471615
 20
15.61597472326844
 10
28.87819388254312
 20
15.59716492138125
 10
28.92068749401145
 20
15.58159151147504
  0
POLYLINE
  5
1E2
330
2
100
AcDbEntity
  8
0
100
AcDb2dPolyline
 66
     1
 10
0.0
 20
0.0
 30
0.0
  0
VERTEX
  5
1E3
330
1E2
100
AcDbEntity
  8
0
100
AcDbVertex
100
AcDb2dVertex
 10
28.6833186576005
 20
15.85589502003353
 30
0.0
 42
-0.140431352309824
  0
VERTEX
  5
1E4
330
1E2
100
AcDbEntity
  8
0
100
AcDbVertex
100
AcDb2dVertex
 10
28.45506015264021
 20
15.87068841332574
 30
0.0
 42
-0.1464093172914803
  0
VERTEX
  5
1E5
330
1E2
100
AcDbEntity
  8
0
100
AcDbVertex
100
AcDb2dVertex
 10
28.33817732137461
 20
15.95671947711418
 30
0.0
 42
-0.031911303659213
  0
VERTEX
  5
1E6
330
1E2
100
AcDbEntity
  8
0
100
AcDbVertex
100
AcDb2dVertex
 10
28.26866925818812
 20
16.06241149934928
 30
0.0
 42
-0.0660890035132398
  0
VERTEX
  5
1E7
330
1E2
100
AcDbEntity
  8
0
100
AcDbVertex
100
AcDb2dVertex
 10
28.24559936042559
 20
16.11918873927797
 30
0.0
 42
-0.0360069354738484
  0
VERTEX
  5
1E8
330
1E2
100
AcDbEntity
  8
0
100
AcDbVertex
100
AcDb2dVertex
 10
28.20000042134758
 20
16.36699264769285
 30
0.0
 42
-0.0273003078104753
  0
VERTEX
  5
1E9
330
1E2
100
AcDbEntity
  8
0
100
AcDbVertex
100
AcDb2dVertex
 10
28.18160718236564
 20
16.69862099014011
 30
0.0
 42
-0.0014826684145109
  0
VERTEX
  5
1EA
330
1E2
100
AcDbEntity
  8
0
100
AcDbVertex
100
AcDb2dVertex
 10
28.1825855473972
 20
17.15457550668591
 30
0.0
 42
-0.0025506127775922
  0
VERTEX
  5
1EB
330
1E2
100
AcDbEntity
  8
0
100
AcDbVertex
100
AcDb2dVertex
 10
28.18529224535368
 20
17.419609298733
 30
0.0
 42
-0.0018144405403504
  0
VERTEX
  5
1EC
330
1E2
100
AcDbEntity
  8
0
100
AcDbVertex
100
AcDb2dVertex
 10
28.18886433876983
 20
17.60816345628748
 30
0.0
 42
-0.0007140255589696
  0
VERTEX
  5
1ED
330
1E2
100
AcDbEntity
  8
0
100
AcDbVertex
100
AcDb2dVertex
 10
28.2003643693582
 20
18.08725303706339
 30
0.0
 42
-0.0213702727696047
  0
VERTEX
  5
1EE
330
1E2
100
AcDbEntity
  8
0
100
AcDbVertex
100
AcDb2dVertex
 10
28.23813032893128
 20
18.64046130566348
 30
0.0
 42
-0.0598989219417819
  0
VERTEX
  5
1EF
330
1E2
100
AcDbEntity
  8
0
100
AcDbVertex
100
AcDb2dVertex
 10
28.28347831561169
 20
18.8336584185989
 30
0.0
 42
-0.0608786226021745
  0
VERTEX
  5
1F0
330
1E2
100
AcDbEntity
  8
0
100
AcDbVertex
100
AcDb2dVertex
 10
28.30997874832596
 20
18.88559479508009
 30
0.0
 42
-0.0360776436672317
  0
VERTEX
  5
1F1
330
1E2
100
AcDbEntity
  8
0
100
AcDbVertex
100
AcDb2dVertex
 10
28.37058680371942
 20
18.96279995173967
 30
0.0
 42
-0.0757818336882323
  0
VERTEX
  5
1F2
330
1E2
100
AcDbEntity
  8
0
100
AcDbVertex
100
AcDb2dVertex
 10
28.49519373101813
 20
19.06394748341667
 30
0.0
 42
-0.067141599442933
  0
VERTEX
  5
1F3
330
1E2
100
AcDbEntity
  8
0
100
AcDbVertex
100
AcDb2dVertex
 10
28.66208045755602
 20
19.13381812408075
 30
0.0
 42
-0.0478185630672815
  0
VERTEX
  5
1F4
330
1E2
100
AcDbEntity
  8
0
100
AcDbVertex
100
AcDb2dVertex
 10
28.99927592225352
 20
19.19060766555302
 30
0.0
 42
-0.0165378206647022
  0
VERTEX
  5
1F5
330
1E2
100
AcDbEntity
  8
0
100
AcDbVertex
100
AcDb2dVertex
 10
29.98529002073556
 20
19.22830608377324
 30
0.0
 42
-0.003214330272172
  0
VERTEX
  5
1F6
330
1E2
100
AcDbEntity
  8
0
100
AcDbVertex
100
AcDb2dVertex
 10
30.91583440183641
 20
19.22710871935318
 30
0.0
 42
-0.0089959631516532
  0
VERTEX
  5
1F7
330
1E2
100
AcDbEntity
  8
0
100
AcDbVertex
100
AcDb2dVertex
 10
31.2482393067514
 20
19.21856176544977
 30
0.0
 42
-0.0136795676844653
  0
VERTEX
  5
1F8
330
1E2
100
AcDbEntity
  8
0
100
AcDbVertex
100
AcDb2dVertex
 10
31.89277667135147
 20
19.17268648938629
 30
0.0
 42
-0.0148808110540049
  0
VERTEX
  5
1F9
330
1E2
100
AcDbEntity
  8
0
100
AcDbVertex
100
AcDb2dVertex
 10
32.48193076268151
 20
19.09675686204846
 30
0.0
 42
-0.0157545217365838
  0
VERTEX
  5
1FA
330
1E2
100
AcDbEntity
  8
0
100
AcDbVertex
100
AcDb2dVertex
 10
33.16132830803949
 20
18.96649085494449
 30
0.0
 42
-0.0192142976299121
  0
VERTEX
  5
1FB
330
1E2
100
AcDbEntity
  8
0
100
AcDbVertex
100
AcDb2dVertex
 10
33.70963339240028
 20
18.82100046654011
 30
0.0
 42
-0.0044399277784729
  0
VERTEX
  5
1FC
330
1E2
100
AcDbEntity
  8
0
100
AcDbVertex
100
AcDb2dVertex
 10
34.15758304662123
 20
18.6791516893721
 30
0.0
 42
-0.011822496659233
  0
VERTEX
  5
1FD
330
1E2
100
AcDbEntity
  8
0
100
AcDbVertex
100
AcDb2dVertex
 10
34.32400887005915
 20
18.62043123392532
 30
0.0
 42
-0.0019464705613524
  0
VERTEX
  5
1FE
330
1E2
100
AcDbEntity
  8
0
100
AcDbVertex
100
AcDb2dVertex
 10
34.5116626223186
 20
18.5483516835466
 30
0.0
 42
-0.0006915624935536
  0
VERTEX
  5
1FF
330
1E2
100
AcDbEntity
  8
0
100
AcDbVertex
100
AcDb2dVertex
 10
35.03875306689108
 20
18.34269357033008
 30
0.0
 42
-0.0025869934724771
  0
VERTEX
  5
200
330
1E2
100
AcDbEntity
  8
0
100
AcDbVertex
100
AcDb2dVertex
 10
36.07552763465596
 20
17.93031548989276
 30
0.0
 42
-0.016206233204635
  0
VERTEX
  5
201
330
1E2
100
AcDbEntity
  8
0
100
AcDbVertex
100
AcDb2dVertex
 10
36.23847883983589
 20
17.85829721027198
 30
0.0
 42
-0.014381738385334
  0
VERTEX
  5
202
330
1E2
100
AcDbEntity
  8
0
100
AcDbVertex
100
AcDb2dVertex
 10
36.33507341869691
 20
17.80833750981404
 30
0.0
 42
-0.0059598337410936
  0
VERTEX
  5
203
330
1E2
100
AcDbEntity
  8
0
100
AcDbVertex
100
AcDb2dVertex
 10
36.56303184297148
 20
17.67842136191399
 30
0.0
 42
-0.0041890655417465
  0
VERTEX
  5
204
330
1E2
100
AcDbEntity
  8
0
100
AcDbVertex
100
AcDb2dVertex
 10
36.6666744818655
 20
17.61653423534724
 30
0.0
 42
-0.0039028169218749
  0
VERTEX
  5
205
330
1E2
100
AcDbEntity
  8
0
100
AcDbVertex
100
AcDb2dVertex
 10
36.77682890170215
 20
17.5483166476987
 30
0.0
 42
-0.0279871645229435
  0
VERTEX
  5
206
330
1E2
100
AcDbEntity
  8
0
100
AcDbVertex
100
AcDb2dVertex
 10
36.97169835636319
 20
17.40971224632025
 30
0.0
 42
-0.0355566708235577
  0
VERTEX
  5
207
330
1E2
100
AcDbEntity
  8
0
100
AcDbVertex
100
AcDb2dVertex
 10
37.11009039545223
 20
17.28199854334747
 30
0.0
 42
-0.0072531525995857
  0
VERTEX
  5
208
330
1E2
100
AcDbEntity
  8
0
100
AcDbVertex
100
AcDb2dVertex
 10
37.21006193251461
 20
17.17249281949719
 30
0.0
 42
-0.0093084219315826
  0
VERTEX
  5
209
330
1E2
100
AcDbEntity
  8
0
100
AcDbVertex
100
AcDb2dVertex
 10
37.28509418412179
 20
17.08462971646878
 30
0.0
 42
-0.0012227726203102
  0
VERTEX
  5
20A
330
1E2
100
AcDbEntity
  8
0
100
AcDbVertex
100
AcDb2dVertex
 10
37.34282624251014
 20
17.01406854925747
 30
0.0
 42
-0.0007986422688353
  0
VERTEX
  5
20B
330
1E2
100
AcDbEntity
  8
0
100
AcDbVertex
100
AcDb2dVertex
 10
37.43078017456288
 20
16.90567849439999
 30
0.0
 42
-0.0055985934759021
  0
VERTEX
  5
20C
330
1E2
100
AcDbEntity
  8
0
100
AcDbVertex
100
AcDb2dVertex
 10
37.47501833342281
 20
16.84971309467121
 30
0.0
 42
-0.0011125570844872
  0
VERTEX
  5
20D
330
1E2
100
AcDbEntity
  8
0
100
AcDbVertex
100
AcDb2dVertex
 10
37.69382635643794
 20
16.56513088063997
 30
0.0
 42
-0.0386465022707797
  0
VERTEX
  5
20E
330
1E2
100
AcDbEntity
  8
0
100
AcDbVertex
100
AcDb2dVertex
 10
37.76148891459584
 20
16.46094731212739
 30
0.0
 42
-0.0186550838773084
  0
VERTEX
  5
20F
330
1E2
100
AcDbEntity
  8
0
100
AcDbVertex
100
AcDb2dVertex
 10
37.87593976646349
 20
16.23077191181888
 30
0.0
  0
SEQEND
  5
210
330
1E2
100
AcDbEntity
  8
0
  0
POLYLINE
  5
211
330
2
100
AcDbEntity
  8
0
100
AcDb2dPolyline
 66
     1
 10
0.0
 20
0.0
 30
0.0
  0
VERTEX
  5
212
330
211
100
AcDbEntity
  8
0
100
AcDbVertex
100
AcDb2dVertex
 10
28.72919275715799
 20
15.81616688444073
 30
0.0
 42
-0.1604413511802042
  0
VERTEX
  5
213
330
211
100
AcDbEntity
  8
0
100
AcDbVertex
100
AcDb2dVertex
 10
28.43820880724316
 20
15.82361366257432
 30
0.0
 42
-0.1464093172914807
  0
VERTEX
  5
214
330
211
100
AcDbEntity
  8
0
100
AcDbVertex
100
AcDb2dVertex
 10
28.29823836960952
 20
15.92663825154233
 30
0.0
 42
-0.031911303659214
  0
VERTEX
  5
215
330
211
100
AcDbEntity
  8
0
100
AcDbVertex
100
AcDb2dVertex
 10
28.22522699940506
 20
16.03765730471832
 30
0.0
 42
-0.0660890035132383
  0
VERTEX
  5
216
330
211
100
AcDbEntity
  8
0
100
AcDbVertex
100
AcDb2dVertex
 10
28.19720309558594
 20
16.10662683060249
 30
0.0
 42
-0.0360069354738485
  0
VERTEX
  5
217
330
211
100
AcDbEntity
  8
0
100
AcDbVertex
100
AcDb2dVertex
 10
28.15030258187313
 20
16.3615040457241
 30
0.0
 42
-0.0273003078104755
  0
VERTEX
  5
218
330
211
100
AcDbEntity
  8
0
100
AcDbVertex
100
AcDb2dVertex
 10
28.13160719915869
 20
16.69858001081606
 30
0.0
 42
-0.0014826684145108
  0
VERTEX
  5
219
330
211
100
AcDbEntity
  8
0
100
AcDbVertex
100
AcDb2dVertex
 10
28.13258620047493
 20
17.15483105971022
 30
0.0
 42
-0.0025506127775922
  0
VERTEX
  5
21A
330
211
100
AcDbEntity
  8
0
100
AcDbVertex
100
AcDb2dVertex
 10
28.13529810783014
 20
17.42037494439401
 30
0.0
 42
-0.0018144405403504
  0
VERTEX
  5
21B
330
211
100
AcDbEntity
  8
0
100
AcDbVertex
100
AcDb2dVertex
 10
28.13887707478024
 20
17.60929192375934
 30
0.0
 42
-0.0007140255589697
  0
VERTEX
  5
21C
330
211
100
AcDbEntity
  8
0
100
AcDbVertex
100
AcDb2dVertex
 10
28.150380532263
 20
18.08852426845067
 30
0.0
 42
-0.0213702727696045
  0
VERTEX
  5
21D
330
211
100
AcDbEntity
  8
0
100
AcDbVertex
100
AcDb2dVertex
 10
28.18843745900398
 20
18.64599472037683
 30
0.0
 42
-0.0598989219417823
  0
VERTEX
  5
21E
330
211
100
AcDbEntity
  8
0
100
AcDbVertex
100
AcDb2dVertex
 10
28.2365131991873
 20
18.850812946842
 30
0.0
 42
-0.0608786226021762
  0
VERTEX
  5
21F
330
211
100
AcDbEntity
  8
0
100
AcDbVertex
100
AcDb2dVertex
 10
28.26852708161375
 20
18.91355475442879
 30
0.0
 42
-0.0360776436672334
  0
VERTEX
  5
220
330
211
100
AcDbEntity
  8
0
100
AcDbVertex
100
AcDb2dVertex
 10
28.33358483871675
 20
18.99642813316449
 30
0.0
 42
-0.0757818336882313
  0
VERTEX
  5
221
330
211
100
AcDbEntity
  8
0
100
AcDbVertex
100
AcDb2dVertex
 10
28.46989205806634
 20
19.10707317582667
 30
0.0
 42
-0.0671415994429316
  0
VERTEX
  5
222
330
211
100
AcDbEntity
  8
0
100
AcDbVertex
100
AcDb2dVertex
 10
28.64910973645301
 20
19.18210642902169
 30
0.0
 42
-0.047818563067282
  0
VERTEX
  5
223
330
211
100
AcDbEntity
  8
0
100
AcDbVertex
100
AcDb2dVertex
 10
28.99571458258586
 20
19.24048067287933
 30
0.0
 42
-0.0165378206647023
  0
VERTEX
  5
224
330
211
100
AcDbEntity
  8
0
100
AcDbVertex
100
AcDb2dVertex
 10
29.985032926684
 20
19.27830542279536
 30
0.0
 42
-0.003214330272172
  0
VERTEX
  5
225
330
211
100
AcDbEntity
  8
0
100
AcDbVertex
100
AcDb2dVertex
 10
30.91622016666511
 20
19.27710723118599
 30
0.0
 42
-0.0089959631516534
  0
VERTEX
  5
226
330
211
100
AcDbEntity
  8
0
100
AcDbVertex
100
AcDb2dVertex
 10
31.25042352420968
 20
19.2685140346084
 30
0.0
 42
-0.0136795676844651
  0
VERTEX
  5
227
330
211
100
AcDbEntity
  8
0
100
AcDbVertex
100
AcDb2dVertex
 10
31.89768938797555
 20
19.22244455622345
 30
0.0
 42
-0.014880811054005
  0
VERTEX
  5
228
330
211
100
AcDbEntity
  8
0
100
AcDbVertex
100
AcDb2dVertex
 10
32.48979457498589
 20
19.1461345944391
 30
0.0
 42
-0.0157545217365838
  0
VERTEX
  5
229
330
211
100
AcDbEntity
  8
0
100
AcDbVertex
100
AcDb2dVertex
 10
33.17228588757519
 20
19.01527539604841
 30
0.0
 42
-0.0192142976299119
  0
VERTEX
  5
22A
330
211
100
AcDbEntity
  8
0
100
AcDbVertex
100
AcDb2dVertex
 10
33.72430392501833
 20
18.86879979156361
 30
0.0
 42
-0.0044399277784728
  0
VERTEX
  5
22B
330
211
100
AcDbEntity
  8
0
100
AcDbVertex
100
AcDb2dVertex
 10
34.17310011773604
 20
18.72668294755046
 30
0.0
 42
-0.0118224966592331
  0
VERTEX
  5
22C
330
211
100
AcDbEntity
  8
0
100
AcDbVertex
100
AcDb2dVertex
 10
34.34175540554675
 20
18.66717586439972
 30
0.0
 42
-0.0019464705613525
  0
VERTEX
  5
22D
330
211
100
AcDbEntity
  8
0
100
AcDbVertex
100
AcDb2dVertex
 10
34.5297725639649
 20
18.59495672633778
 30
0.0
 42
-0.0006915624935536
  0
VERTEX
  5
22E
330
211
100
AcDbEntity
  8
0
100
AcDbVertex
100
AcDb2dVertex
 10
35.05699186026081
 20
18.38924833825366
 30
0.0
 42
-0.002586993472477
  0
VERTEX
  5
22F
330
211
100
AcDbEntity
  8
0
100
AcDbVertex
100
AcDb2dVertex
 10
36.09424718937932
 20
17.976679034526
 30
0.0
 42
-0.0162062332046352
  0
VERTEX
  5
230
330
211
100
AcDbEntity
  8
0
100
AcDbVertex
100
AcDb2dVertex
 10
36.26016222946225
 20
17.90335085179308
 30
0.0
 42
-0.0143817383853333
  0
VERTEX
  5
231
330
211
100
AcDbEntity
  8
0
100
AcDbVertex
100
AcDb2dVertex
 10
36.35931113527124
 20
17.85207002740977
 30
0.0
 42
-0.0059598337410936
  0
VERTEX
  5
232
330
211
100
AcDbEntity
  8
0
100
AcDbVertex
100
AcDb2dVertex
 10
36.58830511576858
 20
17.72156370401687
 30
0.0
 42
-0.0041890655417466
  0
VERTEX
  5
233
330
211
100
AcDbEntity
  8
0
100
AcDbVertex
100
AcDb2dVertex
 10
36.69266707310811
 20
17.65924705778377
 30
0.0
 42
-0.0039028169218747
  0
VERTEX
  5
234
330
211
100
AcDbEntity
  8
0
100
AcDbVertex
100
AcDb2dVertex
 10
36.80348509652745
 20
17.59061850672918
 30
0.0
 42
-0.0279871645229441
  0
VERTEX
  5
235
330
211
100
AcDbEntity
  8
0
100
AcDbVertex
100
AcDb2dVertex
 10
37.00291230100044
 20
17.44877232389549
 30
0.0
 42
-0.0355566708235577
  0
VERTEX
  5
236
330
211
100
AcDbEntity
  8
0
100
AcDbVertex
100
AcDb2dVertex
 10
37.14652379128369
 20
17.31624190282328
 30
0.0
 42
-0.0072531525995856
  0
VERTEX
  5
237
330
211
100
AcDbEntity
  8
0
100
AcDbVertex
100
AcDb2dVertex
 10
37.24747332885352
 20
17.20566490752271
 30
0.0
 42
-0.009308421931583
  0
VERTEX
  5
238
330
211
100
AcDbEntity
  8
0
100
AcDbVertex
100
AcDb2dVertex
 10
37.32371445051213
 20
17.11638621224429
 30
0.0
 42
-0.0012227726203104
  0
VERTEX
  5
239
330
211
100
AcDbEntity
  8
0
100
AcDbVertex
100
AcDb2dVertex
 10
37.38160137014755
 20
17.04563577081247
 30
0.0
 42
-0.0007986422688354
  0
VERTEX
  5
23A
330
211
100
AcDbEntity
  8
0
100
AcDbVertex
100
AcDb2dVertex
 10
37.46965594782313
 20
16.93712168529116
 30
0.0
 42
-0.0055985934759025
  0
VERTEX
  5
23B
330
211
100
AcDbEntity
  8
0
100
AcDbVertex
100
AcDb2dVertex
 10
37.51458844340259
 20
16.88027788480934
 30
0.0
 42
-0.0011125570844871
  0
VERTEX
  5
23C
330
211
100
AcDbEntity
  8
0
100
AcDbVertex
100
AcDb2dVertex
 10
37.73353209437514
 20
16.59551927274718
 30
0.0
 42
-0.0386465022707779
  0
VERTEX
  5
23D
330
211
100
AcDbEntity
  8
0
100
AcDbVertex
100
AcDb2dVertex
 10
37.80539826991192
 20
16.48486317539272
 30
0.0
 42
-0.0200148067068128
  0
VERTEX
  5
23E
330
211
100
AcDbEntity
  8
0
100
AcDbVertex
100
AcDb2dVertex
 10
37.92928474755056
 20
16.23400325693626
 30
0.0
 42
-0.0186550653561878
  0
SEQEND
  5
23F
330
211
100
AcDbEntity
  8
0
  0
ELLIPSE
  5
240
330
2
100
AcDbEntity
  8
0
100
AcDbEllipse
 10
29.96859817332802
 20
19.07431955829463
 30
0.0
 11
0.0612019065704033
 21
0.2517979375848398
 31
0.0
210
0.0
220
0.0
230
1.0
 40
0.5990817304346671
 41
5.790206389109433
 42
10.09668287260925
  0
ELLIPSE
  5
241
330
2
100
AcDbEntity
  8
0
100
AcDbEllipse
 10
29.96859817332802
 20
19.07431955829463
 30
0.0
 11
0.0612019065704033
 21
0.2517979375848398
 31
0.0
210
0.0
220
0.0
230
1.0
 40
0.5990817304346671
 41
11.42526399616216
 42
11.79291214271248
  0
ELLIPSE
  5
242
330
2
100
AcDbEntity
  8
0
100
AcDbEllipse
 10
32.11497925070674
 20
19.00068543545058
 30
0.0
 11
0.0612019065704033
 21
0.2517979375848398
 31
0.0
210
0.0
220
0.0
230
1.0
 40
0.5990817304346671
 41
5.643445939596632
 42
10.07078199827907
  0
ELLIPSE
  5
243
330
2
100
AcDbEntity
  8
0
100
AcDbEllipse
 10
32.11497925070674
 20
19.00068543545058
 30
0.0
 11
0.0612019065704033
 21
0.2517979375848398
 31
0.0
210
0.0
220
0.0
230
1.0
 40
0.5990817304346671
 41
11.34076676328964
 42
11.66418511205984
  0
ELLIPSE
  5
244
330
2
100
AcDbEntity
  8
0
100
AcDbEllipse
 10
34.25214855438688
 20
18.48524632549102
 30
0.0
 11
0.0612019065704033
 21
0.2517979375848398
 31
0.0
210
0.0
220
0.0
230
1.0
 40
0.5990817304346671
 41
5.536593985268075
 42
10.10259306787276
  0
ELLIPSE
  5
245
330
2
100
AcDbEntity
  8
0
100
AcDbEllipse
 10
34.25214855438688
 20
18.48524632549102
 30
0.0
 11
0.0612019065704033
 21
0.2517979375848398
 31
0.0
210
0.0
220
0.0
230
1.0
 40
0.5990817304346671
 41
11.31498564901198
 42
11.54986508292695
  0
ELLIPSE
  5
246
330
2
100
AcDbEntity
  8
0
100
AcDbEllipse
 10
36.35246989083555
 20
17.65686202153404
 30
0.0
 11
0.0612019065704033
 21
0.2517979375848398
 31
0.0
210
0.0
220
0.0
230
1.0
 40
0.5990817304346671
 41
5.299767657730858
 42
9.921751780704795
  0
ELLIPSE
  5
247
330
2
100
AcDbEntity
  8
0
100
AcDbEllipse
 10
36.35246989083555
 20
17.65686202153404
 30
0.0
 11
0.0612019065704033
 21
0.2517979375848398
 31
0.0
210
0.0
220
0.0
230
1.0
 40
0.5990817304346671
 41
11.18291168813883
 42
11.33587204171408
  0
ENDSEC
  0
SECTION
  2
OBJECTS
  0
DICTIONARY
  5
A
330
0
100
AcDbDictionary
281
     1
  3
ACAD_COLOR
350
3F
  3
ACAD_GROUP
350
36
  3
ACAD_LAYOUT
350
17
  3
ACAD_MATERIAL
350
C
  3
ACAD_MLEADERSTYLE
350
42
  3
ACAD_MLINESTYLE
350
37
  3
ACAD_PLOTSETTINGS
350
38
  3
ACAD_PLOTSTYLENAME
350
9
  3
ACAD_SCALELIST
350
40
  3
ACAD_TABLESTYLE
350
41
  3
ACAD_VISUALSTYLE
350
2C
  3
ACDB_RECOMPOSE_DATA
350
257
  3
AcDbVariableDictionary
350
249
  3
AcDsDecomposeData
350
25D
  0
DICTIONARY
  5
1F
330
1E
100
AcDbDictionary
280
     1
281
     1
  3
ACAD_LAYERSTATES
360
20
  0
DICTIONARY
  5
7
330
6
100
AcDbDictionary
280
     1
281
     1
  0
DICTIONARY
  5
3
330
2
100
AcDbDictionary
280
     1
281
     1
  3
ACAD_SORTENTS
360
248
  0
DICTIONARY
  5
3F
102
{ACAD_REACTORS
330
A
102
}
330
A
100
AcDbDictionary
281
     1
  0
DICTIONARY
  5
36
102
{ACAD_REACTORS
330
A
102
}
330
A
100
AcDbDictionary
281
     1
  0
DICTIONARY
  5
17
102
{ACAD_REACTORS
330
A
102
}
330
A
100
AcDbDictionary
281
     1
  3
Model
350
16
  3
レイアウト1
350
1D
  0
DICTIONARY
  5
C
102
{ACAD_REACTORS
330
A
102
}
330
A
100
AcDbDictionary
281
     1
  3
ByBlock
350
3C
  3
ByLayer
350
39
  3
Global
350
B
  0
DICTIONARY
  5
42
102
{ACAD_REACTORS
330
A
102
}
330
A
100
AcDbDictionary
281
     1
  0
DICTIONARY
  5
37
102
{ACAD_REACTORS
330
A
102
}
330
A
100
AcDbDictionary
281
     1
  3
Standard
350
43
  0
DICTIONARY
  5
38
102
{ACAD_REACTORS
330
A
102
}
330
A
100
AcDbDictionary
281
     1
  0
ACDBDICTIONARYWDFLT
  5
9
102
{ACAD_REACTORS
330
A
102
}
330
A
100
AcDbDictionary
281
     1
  3
Normal
350
8
100
AcDbDictionaryWithDefault
340
8
  0
DICTIONARY
  5
40
102
{ACAD_REACTORS
330
A
102
}
330
A
100
AcDbDictionary
281
     1
  3
A0
350
48
  3
A1
350
49
  3
A2
350
4A
  3
A3
350
4B
  3
A4
350
4C
  3
A5
350
4D
  3
A6
350
4E
  3
A7
350
4F
  3
A8
350
50
  3
A9
350
51
  3
B0
350
52
  3
B1
350
53
  3
B2
350
54
  3
B3
350
55
  3
B4
350
56
  3
B5
350
57
  3
B6
350
58
  0
DICTIONARY
  5
41
102
{ACAD_REACTORS
330
A
102
}
330
A
100
AcDbDictionary
281
     1
  3
Standard
350
44
  0
DICTIONARY
  5
2C
102
{ACAD_REACTORS
330
A
102
}
330
A
100
AcDbDictionary
281
     1
  3
2dWireframe
350
2B
  3
Realistic
350
46
  3
Wireframe
350
47
  0
XRECORD
  5
257
102
{ACAD_REACTORS
330
A
102
}
330
A
100
AcDbXrecord
280
     1
 90
        1
330
44
  0
DICTIONARY
  5
249
102
{ACAD_REACTORS
330
A
102
}
330
A
100
AcDbDictionary
281
     1
  3
CANNOSCALE
350
24F
  3
CMLEADERSTYLE
350
24B
  3
CTABLESTYLE
350
24A
  3
CVIEWDETAILSTYLE
350
24C
  3
CVIEWSECTIONSTYLE
350
24D
  3
LAYEREVAL
350
251
  3
LAYERNOTIFY
350
252
  3
LIGHTINGUNITS
350
250
  3
MSLTSCALE
350
24E
  3
PSOLHEIGHT
350
254
  3
PSOLWIDTH
350
253
  3
XCLIPFRAME
350
255
  0
DICTIONARY
  5
25D
102
{ACAD_REACTORS
330
A
102
}
330
A
100
AcDbDictionary
281
     1
  3
AcDsRecords
350
25F
  3
AcDsSchemas
350
25E
1001
ACAD
1070
     2
  0
DICTIONARY
  5
20
102
{ACAD_REACTORS
330
1F
102
}
330
1F
100
AcDbDictionary
281
     1
  0
SORTENTSTABLE
  5
248
102
{ACAD_REACTORS
330
3
102
}
330
3
100
AcDbSortentsTable
330
2
  0
LAYOUT
  5
16
102
{ACAD_XDICTIONARY
360
18
102
}
102
{ACAD_REACTORS
330
17
102
}
330
17
100
AcDbPlotSettings
  1

  2
none_device
  4
ISO_A4_(210.00_x_297.00_MM)
  6

 40
7.5
 41
20.0
 42
7.5
 43
20.0
 44
210.0
 45
297.0
 46
11.54999923706054
 47
-13.65000009536743
 48
0.0
 49
0.0
140
0.0
141
0.0
142
1.0
143
8.704084754739808
 70
 11952
 72
     1
 73
     0
 74
     0
  7

 75
     0
147
0.1148885871608098
 76
     0
 77
     2
 78
   300
148
0.0
149
0.0
100
AcDbLayout
  1
Model
 70
     1
 71
     0
 10
0.0
 20
0.0
 11
12.0
 21
9.0
 12
0.0
 22
0.0
 32
0.0
 14
0.0
 24
0.0
 34
0.0
 15
0.0
 25
0.0
 35
0.0
146
0.0
 13
0.0
 23
0.0
 33
0.0
 16
1.0
 26
0.0
 36
0.0
 17
0.0
 27
1.0
 37
0.0
 76
     0
330
2
331
2A
1001
ACAD_PSEXT
1000
None
1000
None
1000
Not applicable
1000
The layout will not be plotted unless a new plotter configuration name is selected.
1070
     0
  0
LAYOUT
  5
1D
102
{ACAD_REACTORS
330
17
102
}
330
17
100
AcDbPlotSettings
  1

  2
C:\Documents and Settings\basas\Application Data\Autodesk\AutoCAD 2005\R16.1\enu\plotters\Default Windows System Printer.pc3
  4

  6

 40
0.0
 41
0.0
 42
0.0
 43
0.0
 44
0.0
 45
0.0
 46
0.0
 47
0.0
 48
0.0
 49
0.0
140
0.0
141
0.0
142
1.0
143
1.0
 70
   688
 72
     0
 73
     0
 74
     5
  7

 75
    16
147
1.0
 76
     0
 77
     2
 78
   300
148
0.0
149
0.0
100
AcDbLayout
  1
レイアウト1
 70
     1
 71
     1
 10
0.0
 20
0.0
 11
12.0
 21
9.0
 12
0.0
 22
0.0
 32
0.0
 14
0.0
 24
0.0
 34
0.0
 15
0.0
 25
0.0
 35
0.0
146
0.0
 13
0.0
 23
0.0
 33
0.0
 16
1.0
 26
0.0
 36
0.0
 17
0.0
 27
1.0
 37
0.0
 76
     0
330
1A
  0
MATERIAL
  5
3C
102
{ACAD_XDICTIONARY
360
3D
102
}
102
{ACAD_REACTORS
330
C
102
}
330
C
100
AcDbMaterial
  1
ByBlock
  0
MATERIAL
  5
39
102
{ACAD_XDICTIONARY
360
3A
102
}
102
{ACAD_REACTORS
330
C
102
}
330
C
100
AcDbMaterial
  1
ByLayer
  0
MATERIAL
  5
B
102
{ACAD_XDICTIONARY
360
D
102
}
102
{ACAD_REACTORS
330
C
102
}
330
C
100
AcDbMaterial
  1
Global
 43
0.0007999999797903
 43
0.0
 43
0.0
 43
0.0
 43
0.0
 43
0.0007999999797903
 43
0.0
 43
0.0
 43
0.0
 43
0.0
 43
1.0
 43
0.0
 43
0.0
 43
0.0
 43
0.0
 43
1.0
 49
0.0007999999797903
 49
0.0
 49
0.0
 49
0.0
 49
0.0
 49
0.0007999999797903
 49
0.0
 49
0.0
 49
0.0
 49
0.0
 49
1.0
 49
0.0
 49
0.0
 49
0.0
 49
0.0
 49
1.0
142
0.0007999999797903
142
0.0
142
0.0
142
0.0
142
0.0
142
0.0007999999797903
142
0.0
142
0.0
142
0.0
142
0.0
142
1.0
142
0.0
142
0.0
142
0.0
142
0.0
142
1.0
144
0.0007999999797903
144
0.0
144
0.0
144
0.0
144
0.0
144
0.0007999999797903
144
0.0
144
0.0
144
0.0
144
0.0
144
1.0
144
0.0
144
0.0
144
0.0
144
0.0
144
1.0
1001
ACAD
1070
    -1
1070
     3
1070
     0
1000

1071
        0
1070
     0
  0
MLINESTYLE
  5
43
102
{ACAD_REACTORS
330
37
102
}
330
37
100
AcDbMlineStyle
  2
STANDARD
 70
     0
  3

 62
   256
 51
90.0
 52
90.0
 71
     2
 49
0.5
 62
   256
  6
BYLAYER
 49
-0.5
 62
   256
  6
BYLAYER
  0
ACDBPLACEHOLDER
  5
8
102
{ACAD_REACTORS
330
9
102
}
330
9
  0
SCALE
  5
48
102
{ACAD_REACTORS
330
40
102
}
330
40
100
AcDbScale
 70
     0
300
1:1
140
1.0
141
1.0
290
     1
  0
SCALE
  5
49
102
{ACAD_REACTORS
330
40
102
}
330
40
100
AcDbScale
 70
     0
300
1:2
140
1.0
141
2.0
290
     0
  0
SCALE
  5
4A
102
{ACAD_REACTORS
330
40
102
}
330
40
100
AcDbScale
 70
     0
300
1:4
140
1.0
141
4.0
290
     0
  0
SCALE
  5
4B
102
{ACAD_REACTORS
330
40
102
}
330
40
100
AcDbScale
 70
     0
300
1:5
140
1.0
141
5.0
290
     0
  0
SCALE
  5
4C
102
{ACAD_REACTORS
330
40
102
}
330
40
100
AcDbScale
 70
     0
300
1:8
140
1.0
141
8.0
290
     0
  0
SCALE
  5
4D
102
{ACAD_REACTORS
330
40
102
}
330
40
100
AcDbScale
 70
     0
300
1:10
140
1.0
141
10.0
290
     0
  0
SCALE
  5
4E
102
{ACAD_REACTORS
330
40
102
}
330
40
100
AcDbScale
 70
     0
300
1:16
140
1.0
141
16.0
290
     0
  0
SCALE
  5
4F
102
{ACAD_REACTORS
330
40
102
}
330
40
100
AcDbScale
 70
     0
300
1:20
140
1.0
141
20.0
290
     0
  0
SCALE
  5
50
102
{ACAD_REACTORS
330
40
102
}
330
40
100
AcDbScale
 70
     0
300
1:30
140
1.0
141
30.0
290
     0
  0
SCALE
  5
51
102
{ACAD_REACTORS
330
40
102
}
330
40
100
AcDbScale
 70
     0
300
1:40
140
1.0
141
40.0
290
     0
  0
SCALE
  5
52
102
{ACAD_REACTORS
330
40
102
}
330
40
100
AcDbScale
 70
     0
300
1:50
140
1.0
141
50.0
290
     0
  0
SCALE
  5
53
102
{ACAD_REACTORS
330
40
102
}
330
40
100
AcDbScale
 70
     0
300
1:100
140
1.0
141
100.0
290
     0
  0
SCALE
  5
54
102
{ACAD_REACTORS
330
40
102
}
330
40
100
AcDbScale
 70
     0
300
2:1
140
2.0
141
1.0
290
     0
  0
SCALE
  5
55
102
{ACAD_REACTORS
330
40
102
}
330
40
100
AcDbScale
 70
     0
300
4:1
140
4.0
141
1.0
290
     0
  0
SCALE
  5
56
102
{ACAD_REACTORS
330
40
102
}
330
40
100
AcDbScale
 70
     0
300
8:1
140
8.0
141
1.0
290
     0
  0
SCALE
  5
57
102
{ACAD_REACTORS
330
40
102
}
330
40
100
AcDbScale
 70
     0
300
10:1
140
10.0
141
1.0
290
     0
  0
SCALE
  5
58
102
{ACAD_REACTORS
330
40
102
}
330
40
100
AcDbScale
 70
     0
300
100:1
140
100.0
141
1.0
290
     0
  0
TABLESTYLE
  5
44
102
{ACAD_XDICTIONARY
360
45
102
}
102
{ACAD_REACTORS
330
41
102
}
330
41
100
AcDbTableStyle
  3
Standard
 70
     0
 71
     0
 40
1.5
 41
1.5
280
     0
281
     0
  7
Standard
140
4.5
170
     2
 62
     0
 63
     7
283
     0
274
    -2
284
     1
 64
     0
275
    -2
285
     1
 65
     0
276
    -2
286
     1
 66
     0
277
    -2
287
     1
 67
     0
278
    -2
288
     1
 68
     0
279
    -2
289
     1
 69
     0
  7
Standard
140
6.0
170
     5
 62
     0
 63
     7
283
     0
274
    -2
284
     1
 64
     0
275
    -2
285
     1
 65
     0
276
    -2
286
     1
 66
     0
277
    -2
287
     1
 67
     0
278
    -2
288
     1
 68
     0
279
    -2
289
     1
 69
     0
  7
Standard
140
4.5
170
     5
 62
     0
 63
     7
283
     0
274
    -2
284
     1
 64
     0
275
    -2
285
     1
 65
     0
276
    -2
286
     1
 66
     0
277
    -2
287
     1
 67
     0
278
    -2
288
     1
 68
     0
279
    -2
289
     1
 69
     0
  0
VISUALSTYLE
  5
2B
102
{ACAD_XDICTIONARY
360
261
102
}
102
{ACAD_REACTORS
330
2C
102
}
330
2C
100
AcDbVisualStyle
  2
2dWireframe
 70
     4
 71
     0
 72
     2
 73
     1
 90
        0
 40
-0.6
 41
-30.0
 62
     5
 63
     7
421
 16777215
 74
     1
 91
        4
 64
     7
 65
   257
 75
     1
175
     1
 42
1.0
 92
        0
 66
   257
 43
1.0
 76
     1
 77
     6
 78
     2
 67
     7
 79
     5
170
     0
171
     0
290
     0
174
     0
 93
        1
 44
0.0
173
     0
291
     0
 45
0.0
1001
ACAD
1000
AcDbSavedByObjectVersion
1070
     0
  0
VISUALSTYLE
  5
46
102
{ACAD_XDICTIONARY
360
266
102
}
102
{ACAD_REACTORS
330
2C
102
}
330
2C
100
AcDbVisualStyle
  2
Realistic
 70
     8
 71
     2
 72
     3
 73
     0
 90
        2
 40
-0.6
 41
30.0
 62
     5
 63
     7
421
 16777215
 74
     0
 91
        0
 64
     7
 65
   257
 75
     1
175
     1
 42
1.0
 92
        8
 66
   257
 43
1.0
 76
     1
 77
     6
 78
     2
 67
     7
 79
     3
170
     0
171
     0
290
     0
174
     0
 93
       13
 44
0.0
173
     0
291
     0
 45
0.0
1001
ACAD
1000
AcDbSavedByObjectVersion
1070
     0
  0
VISUALSTYLE
  5
47
102
{ACAD_XDICTIONARY
360
268
102
}
102
{ACAD_REACTORS
330
2C
102
}
330
2C
100
AcDbVisualStyle
  2
Wireframe
 70
     5
 71
     0
 72
     2
 73
     0
 90
        0
 40
-0.6
 41
-30.0
 62
     5
 63
     7
421
 16777215
 74
     1
 91
        4
 64
     7
 65
   257
 75
     1
175
     1
 42
1.0
 92
        0
 66
   257
 43
1.0
 76
     1
 77
     6
 78
     2
 67
     7
 79
     3
170
     0
171
     0
290
     0
174
     0
 93
        1
 44
0.0
173
     0
291
     0
 45
0.0
1001
ACAD
1000
AcDbSavedByObjectVersion
1070
     0
  0
DICTIONARYVAR
  5
24F
102
{ACAD_REACTORS
330
249
102
}
330
249
100
DictionaryVariables
280
     0
  1
1:1
  0
DICTIONARYVAR
  5
24B
102
{ACAD_REACTORS
330
249
102
}
330
249
100
DictionaryVariables
280
     0
  1
STANDARD
  0
DICTIONARYVAR
  5
24A
102
{ACAD_REACTORS
330
249
102
}
330
249
100
DictionaryVariables
280
     0
  1
STANDARD
  0
DICTIONARYVAR
  5
24C
102
{ACAD_REACTORS
330
249
102
}
330
249
100
DictionaryVariables
280
     0
  1

  0
DICTIONARYVAR
  5
24D
102
{ACAD_REACTORS
330
249
102
}
330
249
100
DictionaryVariables
280
     0
  1

  0
DICTIONARYVAR
  5
251
102
{ACAD_REACTORS
330
249
102
}
330
249
100
DictionaryVariables
280
     0
  1
0
  0
DICTIONARYVAR
  5
252
102
{ACAD_REACTORS
330
249
102
}
330
249
100
DictionaryVariables
280
     0
  1
0
  0
DICTIONARYVAR
  5
250
102
{ACAD_REACTORS
330
249
102
}
330
249
100
DictionaryVariables
280
     0
  1
2
  0
DICTIONARYVAR
  5
24E
102
{ACAD_REACTORS
330
249
102
}
330
249
100
DictionaryVariables
280
     0
  1
1
  0
DICTIONARYVAR
  5
254
102
{ACAD_REACTORS
330
249
102
}
330
249
100
DictionaryVariables
280
     0
  1
80.000000
  0
DICTIONARYVAR
  5
253
102
{ACAD_REACTORS
330
249
102
}
330
249
100
DictionaryVariables
280
     0
  1
5.000000
  0
DICTIONARYVAR
  5
255
102
{ACAD_REACTORS
330
249
102
}
330
249
100
DictionaryVariables
280
     0
  1
2
  0
DICTIONARY
  5
25F
102
{ACAD_REACTORS
330
25D
102
}
330
25D
100
AcDbDictionary
281
     1
  0
DICTIONARY
  5
25E
102
{ACAD_REACTORS
330
25D
102
}
330
25D
100
AcDbDictionary
281
     1
  3
1296590848
350
258
  3
1296590864
350
259
  3
1296590880
350
25A
  3
1296590896
350
25B
  3
1296590912
350
25C
  0
DICTIONARY
  5
18
330
16
100
AcDbDictionary
280
     1
281
     1
  0
DICTIONARY
  5
3D
330
3C
100
AcDbDictionary
280
     1
281
     1
  3
ACAD_XREC_ROUNDTRIP
360
264
  3
FBXASSET
360
3E
  0
DICTIONARY
  5
3A
330
39
100
AcDbDictionary
280
     1
281
     1
  3
ACAD_XREC_ROUNDTRIP
360
263
  3
FBXASSET
360
3B
  0
DICTIONARY
  5
D
330
B
100
AcDbDictionary
280
     1
281
     1
  3
ACAD_XREC_ROUNDTRIP
360
260
  3
BUMPTILE
360
E
  3
DIFFUSETILE
360
F
  3
FBXASSET
360
10
  3
OPACITYTILE
360
11
  3
REFLECTIONTILE
360
12
  0
DICTIONARY
  5
45
330
44
100
AcDbDictionary
280
     1
281
     1
  3
ACAD_ROUNDTRIP_2008_TABLESTYLE_CELLSTYLEMAP
360
256
  3
ACAD_XREC_ROUNDTRIP
360
265
  0
DICTIONARY
  5
261
330
2B
100
AcDbDictionary
280
     1
281
     1
  3
ACAD_XREC_ROUNDTRIP
360
262
  0
DICTIONARY
  5
266
330
46
100
AcDbDictionary
280
     1
281
     1
  3
ACAD_XREC_ROUNDTRIP
360
267
  0
DICTIONARY
  5
268
330
47
100
AcDbDictionary
280
     1
281
     1
  3
ACAD_XREC_ROUNDTRIP
360
269
  0
XRECORD
  5
258
102
{ACAD_REACTORS
330
25E
102
}
330
25E
100
AcDbXrecord
280
     1
  1
AcDb_Thumbnail_Schema
102
{ATTRRECORD
341
259
  2
AcDbDs::TreatedAsObjectData
280
     1
291
     1
102
ATTRRECORD}
102
{ATTRRECORD
341
25A
  2
AcDbDs::Legacy
280
     1
291
     1
102
ATTRRECORD}
  2
AcDbDs::ID
280
    10
 91
        8
102
{ATTRRECORD
341
25B
  2
AcDs:Indexable
280
     1
291
     1
102
ATTRRECORD}
102
{ATTRRECORD
341
25C
  2
AcDbDs::HandleAttribute
280
     7
282
     1
102
ATTRRECORD}
  2
Thumbnail_Data
280
    15
 91
        0
  0
XRECORD
  5
259
102
{ACAD_REACTORS
330
25E
102
}
330
25E
100
AcDbXrecord
280
     1
  1
AcDbDs::TreatedAsObjectDataSchema
  2
AcDbDs::TreatedAsObjectData
280
     1
 91
        0
  0
XRECORD
  5
25A
102
{ACAD_REACTORS
330
25E
102
}
330
25E
100
AcDbXrecord
280
     1
  1
AcDbDs::LegacySchema
  2
AcDbDs::Legacy
280
     1
 91
        0
  0
XRECORD
  5
25B
102
{ACAD_REACTORS
330
25E
102
}
330
25E
100
AcDbXrecord
280
     1
  1
AcDbDs::IndexedPropertySchema
  2
AcDs:Indexable
280
     1
 91
        0
  0
XRECORD
  5
25C
102
{ACAD_REACTORS
330
25E
102
}
330
25E
100
AcDbXrecord
280
     1
  1
AcDbDs::HandleAttributeSchema
  2
AcDbDs::HandleAttribute
280
     7
 91
        1
284
     1
  0
XRECORD
  5
264
102
{ACAD_REACTORS
330
3D
102
}
330
3D
100
AcDbXrecord
280
     1
102
MATERIAL
148
0.0
149
0.0
149
0.0
 93
        0
 94
       63
282
     0
 72
     1
 77
     1
171
     1
175
     1
179
     1
273
     0
  0
XRECORD
  5
3E
102
{ACAD_REACTORS
330
3D
102
}
330
3D
100
AcDbXrecord
280
     1
 70
     1
 90
429727718
  1
D62C5603-E3A1-4AEA-B7FB-FE5D8D0755AF
310
504B03040A0000080000CC70623B3DEE336E79000000790000001B0000006175746F6465736B2D64657369676E2D7061636B6167652E786D6C3C3F786D6C2076657273696F6E3D22312E302220656E636F64696E673D227574662D3822203F3E3C666F726D6174733E3C666F726D61743E687474703A2F2F736368656D612E
310
6175746F6465736B2E636F6D2F64657369676E2D7061636B6167652F323030393C2F666F726D61743E3C2F666F726D6174733E504B0304140006080800CC70623BD486FD9CA0000000F4000000130000005B436F6E74656E745F54797065735D2E786D6C7D8EC10E82300C865F65E91D8A1E8C310C0EEA1BF002731658846E
310
D98AC1B77784ABF1D8FE5FBFBF75BBCE937A534CCEB38643598122B6FEE978D0B0485F9C41B54DDD7D022595594E1A469170414C76A4D9A4D207E29CF43ECE46F218070CC6BECC4078ACAA135ACF422C856C0E68EA1BF5669944DDD7BCDE7B1F8E415D77AECB980613C2E4AC91FC167A2B244592486606FC29C8FD7F045B9A
310
EF7053A7E60B504B0304140006080800CC70623B853B8169EB0000007C01000008000000636F72652E786D6C8D90416EC3201045AF62CDB6C206821CC7C244919D9CA01740401C94182C03558F5F9C3852BBEB6A467FFE9B197D7EFC9E1EC5975982F5AE035262288C535E5B377690E21535501C055FBC8FBF6C503839990E
310
5619041F179FE64D52DE45E362569DD7661365082642A11EB9E920A89B99642953CC8E702F67A9EE7234257977194EC9EAE275C4EABCCF5EAD5940D4AC6F0E35A568B8F43562CD7046CD199FD07E60174276A7BE677B5EADB0E0D14EEFFB6A31321A0D82627C4084204C3F096B71DD52F6819B16635EADF63F509AF53FA164
310
5DDCD1EDDD17164090FCC8732078B56691CB33A85CD7DCC40F504B0304140006080800CC70623B55019EA25F0000007C00000007000000636E782E786D6C4DCB3B0E80201045D1AD90E915ED2CF8AC45050C11660C8261F98AB1B07AC9C97D42D718D865D3E909258CFD00CCE24AC6E326A164D74DC0B4128928FF32603847
310
2BA13128B1252AC747C6BAB984FC68F0B87FE8960A5C09FE86CFB69FBA01504B0304140006080800CC70623BDBABAAF470010000D40300000C0000006662782F636F72652E786D6CC553D16E823014FD95A6AF4B694182CC941A83FA05FB810A9511A125A5257EFE2E82712ECEB8A7F100CD39F7F69E734AF9FADC366850B6
310
AF8DCE7018308C942E4C59EB2AC3DE1D498AD15A706B8CFB56869196ADCAF00863C12B6B7C374385D14E6907A836A59A41D9F7CA615434B0C8705F7CAA5606D23BA8E84F41278B93AC54100640439DE0BDB320004D43C63716C7C399D30917DCFBBA9CD9BA8469F5B156168B24CED3F7248AC8769F27244EB73B92EED8862C
310
B7F13E0C179B3C8F979C8ECD82BBBABDAA2BAC924E9558448CBD9330242CFA08E3154B5651FCC6D215639C8EE5774DBE2B5F6CF2B5768B68963BB5F5588420E442FC700B1139D4CB01F450C1E918227C2E09DF070D8140C84E1E9AAB8F1340832A9CB13130A5F1376A908D57309505ECF2A0DF179C4E9D30F5B239B87E3823
310
7A79C6F31DE1A8A5AEC08474B03C7837EAE4938639B44E5932B833D2C6B6B279CDC613877FA26EE21F4A2A4C63EC7F29A2F301D1F9F7A0E37D145F504B0304140006080800CC70623B9C113CC27E0000009D0000000B0000006662782F636E782E786D6C4DCCDF0A83201C86E15B91DFB94BFB330DD428C8FB886521330DA7
310
6397BF1A1DECE883878F57749FCDA1B7892F1BBC047A23808C7F84D9FA55424E0BE6803A256208E9EF06C84F9B91703228B1C690F78B66B34CD9A5439DF5CF0BFBF65E35BCA1B8D6A5C6F540381E886698B5741C695F9503EBA150A2F8958E3DC3EA0B504B0304140006080800CC70623B7DF2F77C2A010000120200003100
310
00006662782F41393633353835312D344632462D344230382D423046372D3739314545314133324237412F636F72652E786D6C8D51DB8EC22014FC15C2939B0D2DB4B45643319AE817EC0F6041255A68B86CFCFC856D4D76DF7CE190393373060EDB3DC707F856CE6B6B7A480A0C81328395DA5C7B18C3057510EC3873D686
310
3F34088C18550F330C39BB3A1BA7051AAC09CA84841A2BD5020AEF55806078A44B0FFD7053A328440C89E1EFC52486BBB8AA8214A99D789CF9E05200300FC927E4FB4D5B375D43103D5527440FB843077C5AA3F5861C8F645F5787F59E95B390B318B55CE45AA638FAA2957BD7248B390B7A7CC51F9C124149C82B8C378810
310
84AB2F42B7B8DD56F413775B8C5999E9FF4471926F8AA236A1AE96B8B3CC434E5839373893369E1FAF30EA395917409EB7F26AF8801C171837A4A6AC9C89E9F9C9B1A58BA30FD6A5EF5DDDCF894B9AD9B6A59C957943A9FCAE2FD5BC4DFE03504B0304140006080800CC70623BAD7543B64E01000033030000300000006662
310
782F41393633353835312D344632462D344230382D423046372D3739314545314133324237412F636E782E786D6CD593CD6EC32010845F0571AD6CE3D48AD20813A9873E410FBD12D82434182C7EAAE6EDBB2424CD25871E7B41D6EC30B3FA84F9E67BB2E40B4234DE8DB46F1925E094D7C6ED479AD3AE5951B2113C789FEE
310
6C943839C1488B4C05DF079FE72A69D8C96C13AAD6B8631503449F83828872B949AC57D26200B826A308D316B4064D6E46FCDA41C05550DC9E483A00797BFD207EFB092A45DE9514C1BBD22178396BD39D891265658C238DEA00936C654E5E433CB65A26D9F6EDB5EBC14EBF49A45CB856E66048291F6939A9A81BB5C89177
310
38143CA680F4AA299D66A042CEB3354A2684DC9D8D178FE0D9B8B41CAAD720F880EE7EF93C0C18769E099ECC04D5A102C8049A8A05632F4DDF376CF1DE0F6BB65C2F8627B65A33C6BB62177CEBBDAD973006829F89F22E814B54F4BC2BE347F8AA8F681390B50FA73F804400B5F542E796F19FF974E7F78DB802FE05E20750
310
4B0304140006080800CC70623BE75B7789680500003C100000340000006662782F41393633353835312D344632462D344230382D423046372D3739314545314133324237412F6F626A656374732E786D6CAD575B8F9B3818FD2B887D06C22499CB8AA1CA655245D5B455A356FB305264C061D8018C6C3393D95FBFC7600890
310
A4CD5EF210B0B1BFEBF98E3F7B1FF6596ABC522E1296DF9BAE3D320D9A872C4AF2F8DE2CE5CEBA358D0FBEC719939D65A691938CDE9B6ADAF4BD98B3B2D05311DD91329583D9D5FC0F438434A7A611A644887B5384CF34233629258BA878B12322891DEFF6B66BD70BFB62634E8AE781D082709A4B588AF91C528CDA28B73F
310
1C998EEF39EABBEFA97FBD6A7C7E9553F9D3D79FE442923C3C523610337627CB87ABE99D359D4CC6D6E4FACAB5E6ABF9D2726FC6A3C5F56271377BB88362213924694B38DD99FE47C48627A1E7D49F5A8BB5E1A74C0A599ED3B0F21F1E56366B89112D681E218F0915D0D6F17AD41FBA2A369DCF6335D62ABBD39779D5DDD1
310
11D4D8DE3CBB96B2E04FB8202E41051754A1AA8E8F76B4C6DFE810B580B1547F4B84911149794252234D024EF8BBE963A95AE27B3D310A9D5C215C7960FAEE415ED75694C6AFB17BCACA5D99A60A9AA65F217B0BFC53292ACB92BF283FAD0D3621576592CB5BED907C2FA8E9DF794E35E97BEA31BED21FEB401ABB94C44839
310
DCACBF0E1C5DA8DA5B2F4DFFD32AD86F543D9E565E7056502E157C00AD2671CD534549AB752FCA9CDA00677A313F04E51B22FF19E57B300579E3C97EB29F682D92935CEC18CF901B7B54FD8C51F362B56FC72FE0B3C1EAE335EDCCBF5AEC39ADB17DC238973F804BA5E6F6BFE7AF1FB32E523BE9F3BD571418E3631DCA4D48
310
5250CF639223210A9446CA30052EDF057BD35F8329C1ECD84552BF0DC8D18BE7BCE23BFE6BD960AB4A7DE79923A103BEBD80F911CBAA2C60DB19B01CF164A5583B772EE6D3FFA56666CBCDA74DC97724A48F9A58967497E489C4D979006FD7A05E227A1EBDD0F737C623387A9C844D3709995625106D157315F8B8392CD4E0
310
A0B9A720C4BE9829CEF37EA1E13111214D53925356365ADA634861B52519DD27A00AEB808EAF0628E6F435519D446F45CF2C9CF5214F0A15B2F6D06B79DA3EE3CBF7F56780D2F4E7EF73A0F5E5B02A38D07DC852C6B7C1FBB6664213E0C39E3EBA7FF4E1AD23EA2829407C85E586727488B751B2DB9502BC7B228A3FD68B6E
310
A65A22397E690AA8D158D7E404EC8CDA235CC3B7D1898680131CEC2CDF2638C65196279577750F15884AEE19F94199155B92B13297978469D4F8D358DF0AEF7631E28DC8F0D9F437D5D39A83B2231A1D52D543813A824EF8D44BCFF2FA6A31BD1E8DAD87F1CCB526B3879935BF59CDADD5C37479BB1CDD4CA7B3556B516589
310
EF352754B706114D9C885EC9131DE6EFEB43D99AFE2391C2F958179413D7CFEF6B1B6DB1E7600F00DE6E5C67454A339A4BA2E0FBA85ED26F045D454F463DBFCE484C2F90F2E5E3666003662ED8F755951A7D1BECD5B30B550B2785C8E7320B7292A4838DDA71BBC863ED7613CAF659337A3354231D4FF4A182A54904C2898C
310
98B28C4AD0CE056CCF332A80986E571EE9DBC305BB5FEB7E509220A58D25CF042D712A806AC0AD0C657FDEF80D2D9CEAA2EE4D1C76F60BFE74219A06527D6F82DF6412526107381E55E353090704D085B52408A8913C4ED159D79BDA71BB4BC506F4831350EB6F975CD22D69BF7AC49B91A2C0A9DDA3D5CA36AD20FC478E37
310
E61844E2352865EBCB61A275A65283CAAA9DD27703B4102F5AF51EF5F573B75CBB5AD38BC845F7A49F82A0966A49C2E3EA5EA0ECD326CD965F1DB402C6FA8B51A4658C5C5E2EC9E214602E55810345408596591009A82E7E7FFACA19EEA299B14A0081A705CB3296EBC14CDF658DCD336EA6D1136881AAEB87B81AB9EE53D5
310
F5EB8BC8362082DA24122F98680A4E7930C01A0079749CEA14382A0783E5EBA5A10F8C098456A03D6A4AEB6BB881E2513747552A5DB22C7EDAF83BD5528081A365F7FF06504B0304140006080000CC70623B000000000000000000000000350000006662782F41393633353835312D344632462D344230382D423046372D37
310
39314545314133324237412F76657274696365732E62696E504B0304140006080800CC70623BF270F1330600000004000000360000006662782F41393633353835312D344632462D344230382D423046372D3739314545314133324237412F747269616E676C65732E62696E636660600000504B0304140006080000CC7062
310
3B000000000000000000000000370000006662782F41393633353835312D344632462D344230382D423046372D3739314545314133324237412F617474726962757465732E62696E504B0304140006080800CC70623B08DA0BD19000000041010000360000006662782F41393633353835312D344632462D344230382D4230
310
46372D3739314545314133324237412F6469726563746F72792E786D6C858F410AC3201045AF22B36F53E9A60B35CBEEBAE80D244E44489C6234F4F835464A48035D0DF398FF9F8AF63D0E6CC63039F212F8F9020C7D47C6792B21C5FE7403D62A1188E2E60C98D7234A5830286103A55745067B9D86B8A3CF9C7F90C11DE6
310
07FB144396D7B6A82D282E9A152AD114D5EF2CB866EEE831B8EEA07A7BB5A8D7D61A2BAAEB7FD5F70921FF497D00504B0304140006080800CC70623BEDD1DC58FD000000A00100003B0000006662782F41393633353835312D344632462D344230382D423046372D3739314545314133324237412F7265736F75726365732F
310
636F72652E786D6C8D504B6E833010BD0A9A6D65B00922041947112427E8052C33A156828DFCA97AFC9A40A576D7CDCCE87D344F8F9FBFE667F689CE6B6B3A6039850C8DB2A336530731DC4903D95970676DF82583CCC8193B5861107C72362E3BA4AC096842428D1D7107A5F7182053CF7474E0D507CE32973124857FE48B
310
540F3961CEF244279DE03EB81420DB9EAC1384436FA353E879B1B182C7A8C75DA3C7F453DF353A1075D537A7BA6464B8F535A99AE14A9A2BBD90E350DD183B5CFABE3AF262350B1EF4FC9351399401471025A527C218A1E53BAB5A5AB765F5469B96525EACF23FA6B88CFF34456DC2A1DCE36E360F82A5202F42F062ED2BAD
310
579969AFDD8A6F504B010214000A0000080000CC70623B3DEE336E79000000790000001B00000000000000000000000000000000006175746F6465736B2D64657369676E2D7061636B6167652E786D6C504B01021400140006080800CC70623BD486FD9CA0000000F40000001300000000000000000000000000B20000005B
310
436F6E74656E745F54797065735D2E786D6C504B01021400140006080800CC70623B853B8169EB0000007C010000080000000000000000000000000083010000636F72652E786D6C504B01021400140006080800CC70623B55019EA25F0000007C000000070000000000000000000000000094020000636E782E786D6C504B
310
01021400140006080800CC70623BDBABAAF470010000D40300000C00000000000000000000000000180300006662782F636F72652E786D6C504B01021400140006080800CC70623B9C113CC27E0000009D0000000B00000000000000000000000000B20400006662782F636E782E786D6C504B01021400140006080800CC70
310
623B7DF2F77C2A010000120200003100000000000000000000000000590500006662782F41393633353835312D344632462D344230382D423046372D3739314545314133324237412F636F72652E786D6C504B01021400140006080800CC70623BAD7543B64E010000330300003000000000000000000000000000D2060000
310
6662782F41393633353835312D344632462D344230382D423046372D3739314545314133324237412F636E782E786D6C504B01021400140006080800CC70623BE75B7789680500003C10000034000000000000000000000000006E0800006662782F41393633353835312D344632462D344230382D423046372D3739314545
310
314133324237412F6F626A656374732E786D6C504B01021400140006080000CC70623B0000000000000000000000003500000000000000000000000000280E00006662782F41393633353835312D344632462D344230382D423046372D3739314545314133324237412F76657274696365732E62696E504B01021400140006
310
080800CC70623BF270F133060000000400000036000000000000000000000000007B0E00006662782F41393633353835312D344632462D344230382D423046372D3739314545314133324237412F747269616E676C65732E62696E504B01021400140006080000CC70623B0000000000000000000000003700000000000000
310
000000000000D50E00006662782F41393633353835312D344632462D344230382D423046372D3739314545314133324237412F617474726962757465732E62696E504B01021400140006080800CC70623B08DA0BD1900000004101000036000000000000000000000000002A0F00006662782F41393633353835312D344632
310
462D344230382D423046372D3739314545314133324237412F6469726563746F72792E786D6C504B01021400140006080800CC70623BEDD1DC58FD000000A00100003B000000000000000000000000000E1000006662782F41393633353835312D344632462D344230382D423046372D3739314545314133324237412F7265
310
736F75726365732F636F72652E786D6C504B0506000000000E000E0080040000641100000000
  0
XRECORD
  5
263
102
{ACAD_REACTORS
330
3A
102
}
330
3A
100
AcDbXrecord
280
     1
102
MATERIAL
148
0.0
149
0.0
149
0.0
 93
        0
 94
       63
282
     0
 72
     1
 77
     1
171
     1
175
     1
179
     1
273
     0
  0
XRECORD
  5
3B
102
{ACAD_REACTORS
330
3A
102
}
330
3A
100
AcDbXrecord
280
     1
 70
     1
 90
429727718
  1
30362254-06B7-45E0-A893-8CFA70E3D6BC
310
504B03040A0000080000CC70623B3DEE336E79000000790000001B0000006175746F6465736B2D64657369676E2D7061636B6167652E786D6C3C3F786D6C2076657273696F6E3D22312E302220656E636F64696E673D227574662D3822203F3E3C666F726D6174733E3C666F726D61743E687474703A2F2F736368656D612E
310
6175746F6465736B2E636F6D2F64657369676E2D7061636B6167652F323030393C2F666F726D61743E3C2F666F726D6174733E504B0304140006080800CC70623BD486FD9CA0000000F4000000130000005B436F6E74656E745F54797065735D2E786D6C7D8EC10E82300C865F65E91D8A1E8C310C0EEA1BF002731658846E
310
D98AC1B77784ABF1D8FE5FBFBF75BBCE937A534CCEB38643598122B6FEE978D0B0485F9C41B54DDD7D022595594E1A469170414C76A4D9A4D207E29CF43ECE46F218070CC6BECC4078ACAA135ACF422C856C0E68EA1BF5669944DDD7BCDE7B1F8E415D77AECB980613C2E4AC91FC167A2B244592486606FC29C8FD7F045B9A
310
EF7053A7E60B504B0304140006080800CC70623B1EC5D7A3EB0000007C01000008000000636F72652E786D6C8D90416EC3201045AF82665B6103C6756C6122AB4D4ED00B204C5C94182C03558F5F9C3852BBEB6A467FFE9B197D71FC9E6FE8CBACC17AD7032D0820E3B41FAD9B7A48F1820F808E52ACDEC75F36404ECDA687
310
4D0629A6D5A76597B477D1B89855E747B38B2A041301E95B6E7A08FAD3CCAA50296647B8168BD2573599823EBB0CA76447F43862C7BCCF5EAC59410E4DDD9C7973C2755553CCCFA4C603E3040F1565ED3B1FDE4E432BCA0D9622DAF9795FAF464533826484B498524CD807E51D79ED187F21878E10516EF63F505AC67F42C9
310
BA58B1FDDD071640D2FCC87D2045B96591CB3DA85CB7DCE40F504B0304140006080800CC70623B55019EA25F0000007C00000007000000636E782E786D6C4DCB3B0E80201045D1AD90E915ED2CF8AC45050C11660C8261F98AB1B07AC9C97D42D718D865D3E909258CFD00CCE24AC6E326A164D74DC0B4128928FF32603847
310
2BA13128B1252AC747C6BAB984FC68F0B87FE8960A5C09FE86CFB69FBA01504B0304140006080800CC70623B8C9102E971010000D40300000C0000006662782F636F72652E786D6CC5535B6E833010BC8AE5DF0A6C08340F1947A84D4ED00B38C6A128602363A31CBFCB234A53A551FA553EC09AD9F5CE8C31DB9E9B1AF5CA
310
7695D1198E428A91D2D214952E33ECDD315861B4E5CC1AE3BE9561A445A3323CC098B3D21ADFCE9034DA29ED00D5A6503328BA4E398C640D8B0C77F253352214DE4145770A5B214FA2546114020D759C75CE8200340D19DE981F0F6746269C33EFAB6266AB02A655C74A59CCF365BADC27CB5D902ED22848F6340DF238A141
310
BE88E2F57B92BFEDF23523433367AE6A2EEAA455C2A902F398D2751045018D3FA264435F3771F242571B4A1919CA6F9A7C5B3CD9E42BED16F12C776AEB308F40C848FC700B1139D4891EF410CEC810227CC6846F8386402064270EF5C5C709A05E49676C024C61FC95EA45ED154CA5211D1FF4FB8291A913A68E9B83EBBB33
310
E2A7673CDE118E5AE8124C0807CB8377834E366998436B950D7A7746DAD846D4CFD978E0F04FD455FC5D49D2D4C6FE9722321F10997F0F32DC47FE05504B0304140006080800CC70623BFFEA85907E0000009D0000000B0000006662782F636E782E786D6C4DCCD10A83201886E15B91FFDC95D95A811AB6F23E625948A6C3
310
E9D8E5AF46073BFAE0E1E365ED67B3E8ADC3CB78C7815C7240DA3DFC64DCC221C519D7805AC182F7F1EF06C88D9BE6703008B6049F9E274D7A1E938DBB5AE3D6131B2589BA0D3D965551E0B2EA732C9B9A624AAEB41E3A557677029960D9AFB4EF11165F504B0304140006080800CC70623B4FEEA4082C0100001202000031
310
0000006662782F39464131463745442D413632322D343644302D413938332D3331353338454246344243312F636F72652E786D6C8D515B6EC32010BC0AE2AB55850DD871ED0813254D72825EC00192A2C460F1A872FC42ED48ED5F7E00CDCECCCEB26C731F6FE05B39AFADE921293004CA082BB5B9F43086336A21D870E6AC
310
0D7F68109861543DCC30E4ECE26C9C164858139409093556AA051CBC570102714B8F1E7AF1A5C6A11862480C7F2DA6415C878B2A4891CA89C7990F2E050073937C42DE1DB7E4F87ED8A36D4329AA9B3D46DBAEAD504556557BD81DEBDD0761E52CE42C462D17B996298E3E6BE59E35C962CE821E1FF18553435012728A7187
310
0841987E927A8D9B35ADDF70BBC6989599FE4F1427F9A4286A132ABAC49D651EF234CD5CE04CDA78BA3DC2A8FB645D00B9DF8B57E215725C60BCA2A463E54C4CE327C7A65E1C7DB02E7DEFCBF594B864C5CA6CDBD49C957943E9FA5D5FBAF336F90F504B0304140006080800CC70623BAD7543B64E01000033030000300000
310
006662782F39464131463745442D413632322D343644302D413938332D3331353338454246344243312F636E782E786D6CD593CD6EC32010845F0571AD6CE3D48AD20813A9873E410FBD12D82434182C7EAAE6EDBB2424CD25871E7B41D6EC30B3FA84F9E67BB2E40B4234DE8DB46F1925E094D7C6ED479AD3AE5951B2113C
310
789FEE6C943839C1488B4C05DF079FE72A69D8C96C13AAD6B8631503449F83828872B949AC57D26200B826A308D316B4064D6E46FCDA41C05550DC9E483A00797BFD207EFB092A45DE9514C1BBD22178396BD39D891265658C238DEA00936C654E5E433CB65A26D9F6EDB5EBC14EBF49A45CB856E66048291F6939A9A81BB5
310
C8917738143CA680F4AA299D66A042CEB3354A2684DC9D8D178FE0D9B8B41CAAD720F880EE7EF93C0C18769E099ECC04D5A102C8049A8A05632F4DDF376CF1DE0F6BB65C2F8627B65A33C6BB62177CEBBDAD973006829F89F22E814B54F4BC2BE347F8AA8F681390B50FA73F804400B5F542E796F19FF974E7F78DB802FE05
310
E207504B0304140006080800CC70623B16AB87BA640500003C100000340000006662782F39464131463745442D413632322D343644302D413938332D3331353338454246344243312F6F626A656374732E786D6CAD575B6FA33818FD2B887DE6924B3BED8A326A92B68A663B534DD4D13E548A0C38942D60649B369D5FBFC7
310
600890A493BDE42160637FD7F31D7FF63E6FB3D478A55C242CBF3247B66B1A340F5994E4F19559CA8D75611A9F7D8F33263BCB4C232719BD32D5B4E97B316765A1A722BA21652A07B3B7B33F0D11D29C9A46981221AE4C113ED38CD8A4942CA2E2C58E882476BCD9DA23BB5ED8171B73523C0F841684D35CC252CCE79062D4
310
468DFA43D7747CCF51DF7D4FFDEB5593E3AB9CCA9FBEFE241792E4E19EB28198C968BAB8199F5D5A67D3E9C49A9E8F47D6EC76B6B0469F26EEFC7C3EBFBCBEB98462213924694B38DD98FE1D62C393D073EA4FADC5DAF04326852CCF6958F90F0F2B9BB5C48816348F90C7840A68EB78EDF68723159BCEE7891A6B95DDE9D3
310
BCEAEEE8086A6C6F9E5D4B59F0175C10A7A0820BAA5055C7473B5AE3CFDD452D602CD5DF12616444529E90D448938013FE6EFA58AA96F85E4F8C42275708571E98FE6827AF6B2B4AE3D7D83D64E5A64C53054DD3AF90BD06FEA9149565C94FCA0F6B834DC85599E4F2423B24DF0B6AFA979E534DFA9E7A4CC6FA631D486393
310
921829879BF5D781A373557BCB85E97FB90DB62B558F8795179C15944B051F40AB495CF35451D26A4727654E6D8033BD98EF82F21D91FF8AF2DD9982BCF1643BDD4EB516C9492E368C67C88DED563FC36D5EACF66DFF057C3658BDBFA69DF9578B3DA735B64F18C7F20770A9D45CFCF7FCF563D6456A277DBEF78A02637CA2
310
43B90A490AEAB94F72244481D24819A6C0E59B606BFA4B3025981DBB48EAB701D97BF19C577CC77F2D1B6C55A9EF3C732474C0B727303F625995056C3B02963D9EAC146BE78EC5FCEC7FA999EBC5EACBAAE41B12D27B4D2C0BBA49F244E2ECDC81B76B502F113D8F5EE8FB1BE3111CDD4FC2AA9B844CAB1288B68AB90A7CDC
310
1C166AB0D3DC5310625FCC14E779BFD0709F8890A629C9292B1B2DED31A4B0DA928CEE135085754027E3018A397D4D5427D15BD1330B677DC8934285AC3DF45A9EB68FF8F2B8FC0A509AFEECFD0FF2DE25CC6047F7214B195F07EFEB9A094D800F7BFAE8FED187B78EA8A3A400F115961BCAD1215E47C966530AF0EE8128FE
310
58CEBB996A8964FFA529A046635D9353B0336A8F700DDF46271A024E70B0B37C9DE01847591E54DED53D54202AB947E4076556AC49C6CA5C9E1226B7F1A7B1BE15DEED62C41B91E1B3E9AFAAA735036547343A925075041DF0A9979E893B391F8FCFA6967B3EFB644DCF6E5CEBFAE272625DCC6FAF3FB93793C5F90CE1EF57
310
407342756B10D1C489E8953CD1617E5CEECAD6F4EF8914CE5D5D504E5C3F1F9736DA62CFC11E00BCDDB8CC8A9466349744C1F75EBDA4DF09BA8A9E8C7A7E9991989E20E5DBDD6A6003664ED8F7A04A8DBE0DF6EAD9B9AA858342E47399053949D2C146EDB85DE4B176BB0965FBAC19BD19AA918E27FA50C1D22402E144464C
310
59462568E704B6E71915404CB72B8FF4EDE184DDAF753F284990D2C6926782963815403548A70C657FDEF80D2D9CEAA2AE4C1C76F60BFE74219A06527D6582DF6412526107381E55E353090704D085B52408D0933C4ED159D79BDA71BB4BC506F4831350EB6F979CD22D69BF7AC49B91A2C0A9DDA3D5CA36AD20FC478E37E6
310
1844E2352865EBCB6EA275A652E3836BE04EFB400BF1A2556F515F1FBB35B2AB35BD889C744FFA1004B5544B121E57F70215746DD2F5E2C1412B602CBF19455AC6C8E5E9922C4E01E65215385004546899059180EAFCF7A707CE7017CD8CDB0410789AB32C63B91E5CEBBBACB17AC6CD347A022D5075FD106377347AAABA7E
310
7D11590744509B44E205134DC1290F06580320F78E537D3D73540E06CB970B431F185308AD40BBD794D6D77003C5A36E8EAA54BA64597CD8F83BD552A080A365F7FF06504B0304140006080000CC70623B000000000000000000000000350000006662782F39464131463745442D413632322D343644302D413938332D3331
310
353338454246344243312F76657274696365732E62696E504B0304140006080800CC70623BF270F1330600000004000000360000006662782F39464131463745442D413632322D343644302D413938332D3331353338454246344243312F747269616E676C65732E62696E636660600000504B0304140006080000CC70623B
310
000000000000000000000000370000006662782F39464131463745442D413632322D343644302D413938332D3331353338454246344243312F617474726962757465732E62696E504B0304140006080800CC70623B08DA0BD19000000041010000360000006662782F39464131463745442D413632322D343644302D413938
310
332D3331353338454246344243312F6469726563746F72792E786D6C858F410AC3201045AF22B36F53E9A60B35CBEEBAE80D244E44489C6234F4F835464A48035D0DF398FF9F8AF63D0E6CC63039F212F8F9020C7D47C6792B21C5FE7403D62A1188E2E60C98D7234A5830286103A55745067B9D86B8A3CF9C7F90C11DE607
310
FB144396D7B6A82D282E9A152AD114D5EF2CB866EEE831B8EEA07A7BB5A8D7D61A2BAAEB7FD5F70921FF497D00504B0304140006080800CC70623B0D6EF93BFE000000A00100003B0000006662782F39464131463745442D413632322D343644302D413938332D3331353338454246344243312F7265736F75726365732F63
310
6F72652E786D6C8D50596E833010BD0A9ADFCA60B334011947A8694ED00B586642AC041B79A97AFC9A40A5F6AF3F33A3B7689E1E3F7DCD8FEC139DD7D6F4C0720A191A65476DA61E62B892236427C19DB5E1970C322367EC618541F0C9D9B8EC90B226A009093576C41D94DE63804C3DD2D18357379C652E63480A7FCF17A9
310
EE72C29CE5894E3AC17D702940B63D59270887DE46A7D0F36263058F518FBB468FE9A7BE6A7420864373B8D4873369AA8691FA421B3294352543C5CAF65C0F6FEF43CB8BD52C78D0F34F46E550061C419494B6843142CB0F5677F4B52BEB177AEC28E5C52AFF638ACBF84F53D42654E51E77B379102C05791282176B5F693D
310
CB4C7BED567C03504B010214000A0000080000CC70623B3DEE336E79000000790000001B00000000000000000000000000000000006175746F6465736B2D64657369676E2D7061636B6167652E786D6C504B01021400140006080800CC70623BD486FD9CA0000000F40000001300000000000000000000000000B20000005B
310
436F6E74656E745F54797065735D2E786D6C504B01021400140006080800CC70623B1EC5D7A3EB0000007C010000080000000000000000000000000083010000636F72652E786D6C504B01021400140006080800CC70623B55019EA25F0000007C000000070000000000000000000000000094020000636E782E786D6C504B
310
01021400140006080800CC70623B8C9102E971010000D40300000C00000000000000000000000000180300006662782F636F72652E786D6C504B01021400140006080800CC70623BFFEA85907E0000009D0000000B00000000000000000000000000B30400006662782F636E782E786D6C504B01021400140006080800CC70
310
623B4FEEA4082C0100001202000031000000000000000000000000005A0500006662782F39464131463745442D413632322D343644302D413938332D3331353338454246344243312F636F72652E786D6C504B01021400140006080800CC70623BAD7543B64E010000330300003000000000000000000000000000D5060000
310
6662782F39464131463745442D413632322D343644302D413938332D3331353338454246344243312F636E782E786D6C504B01021400140006080800CC70623B16AB87BA640500003C1000003400000000000000000000000000710800006662782F39464131463745442D413632322D343644302D413938332D3331353338
310
454246344243312F6F626A656374732E786D6C504B01021400140006080000CC70623B0000000000000000000000003500000000000000000000000000270E00006662782F39464131463745442D413632322D343644302D413938332D3331353338454246344243312F76657274696365732E62696E504B01021400140006
310
080800CC70623BF270F133060000000400000036000000000000000000000000007A0E00006662782F39464131463745442D413632322D343644302D413938332D3331353338454246344243312F747269616E676C65732E62696E504B01021400140006080000CC70623B0000000000000000000000003700000000000000
310
000000000000D40E00006662782F39464131463745442D413632322D343644302D413938332D3331353338454246344243312F617474726962757465732E62696E504B01021400140006080800CC70623B08DA0BD190000000410100003600000000000000000000000000290F00006662782F39464131463745442D413632
310
322D343644302D413938332D3331353338454246344243312F6469726563746F72792E786D6C504B01021400140006080800CC70623B0D6EF93BFE000000A00100003B000000000000000000000000000D1000006662782F39464131463745442D413632322D343644302D413938332D3331353338454246344243312F7265
310
736F75726365732F636F72652E786D6C504B0506000000000E000E0080040000641100000000
  0
XRECORD
  5
260
102
{ACAD_REACTORS
330
D
102
}
330
D
100
AcDbXrecord
280
     1
102
MATERIAL
148
0.0
149
0.0
149
0.0
 93
        0
 94
       63
282
     0
 72
     1
 77
     1
171
     1
175
     1
179
     1
273
     0
  0
XRECORD
  5
E
102
{ACAD_REACTORS
330
D
102
}
330
D
100
AcDbXrecord
280
     1
270
     1
271
     1
  0
XRECORD
  5
F
102
{ACAD_REACTORS
330
D
102
}
330
D
100
AcDbXrecord
280
     1
270
     1
271
     1
  0
XRECORD
  5
10
102
{ACAD_REACTORS
330
D
102
}
330
D
100
AcDbXrecord
280
     1
 70
     0
 90
1673772943
  1
ECE7A1D2-D628-4531-984C-D00F80459256
310
504B03040A0000080000CC70623B3DEE336E79000000790000001B0000006175746F6465736B2D64657369676E2D7061636B6167652E786D6C3C3F786D6C2076657273696F6E3D22312E302220656E636F64696E673D227574662D3822203F3E3C666F726D6174733E3C666F726D61743E687474703A2F2F736368656D612E
310
6175746F6465736B2E636F6D2F64657369676E2D7061636B6167652F323030393C2F666F726D61743E3C2F666F726D6174733E504B0304140006080800CC70623BD486FD9CA0000000F4000000130000005B436F6E74656E745F54797065735D2E786D6C7D8EC10E82300C865F65E91D8A1E8C310C0EEA1BF002731658846E
310
D98AC1B77784ABF1D8FE5FBFBF75BBCE937A534CCEB38643598122B6FEE978D0B0485F9C41B54DDD7D022595594E1A469170414C76A4D9A4D207E29CF43ECE46F218070CC6BECC4078ACAA135ACF422C856C0E68EA1BF5669944DDD7BCDE7B1F8E415D77AECB980613C2E4AC91FC167A2B244592486606FC29C8FD7F045B9A
310
EF7053A7E60B504B0304140006080800CC70623BD9DDAED0EC0000007C01000008000000636F72652E786D6C8D90416EC3201045AF82665B61836D9CD8C2444DD39CA01740405C94182C03558F5F9C3852BBEB6A467FFE9B197D7EF89E6EE8CB2CC17A37002D0820E394D7D68D03A478C17B4007C117EFE32F1B20272733C0
310
2A83E0E3E2D3BC49CABB685CCCAAF3DA6CA20CC14440EA969B0182FA34932C648AD911AEC52CD5558EA6A0CF2EC329598D1E47ACCEFBECC59A050463A7EA5833865FEBDD0E37353BE3EE8DBDE3F6786A48D375FBF6CC78B9C282473B3DEFABC5C86834888A900E538A49F5419B9EB47DD5BC907D4F082F57FB1F28CDFA9F50
310
B22ED6D5F6EE030B20687EE43E10BC5CB3C8E51E54AE6B6EE207504B0304140006080800CC70623B55019EA25F0000007C00000007000000636E782E786D6C4DCB3B0E80201045D1AD90E915ED2CF8AC45050C11660C8261F98AB1B07AC9C97D42D718D865D3E909258CFD00CCE24AC6E326A164D74DC0B4128928FF326038
310
472BA13128B1252AC747C6BAB984FC68F0B87FE8960A5C09FE86CFB69FBA01504B0304140006080800CC70623BA24EB22D72010000D40300000C0000006662782F636F72652E786D6CC5535B6E833010BC8AE5DF0A6C5E49888CA3A6694ED00B38E05014B091B1518EDFE511A5A9D228FD2A1F60CDEC7A67C6986DCE4D8D7A
310
69BA4AAB0C073EC548AA5C17952A33ECECD15B61B4E1CC686DBF9561A44423333CC098B3D268D7CE50AE9595CA02AA74216750749DB418E5352C32DCE59FB211BE70162ABA93DF8AFC244AE9073ED050C759670D0840D390E18DF9F1706664C23973AE2A66B62A605A75ACA4C13C4976E1364A12EF355A2EBD384AF65EFA96
310
BC7B8BED2EA6719AAE16FB8491A199335B351775B991C2CA02F390D2D40B028F861F41BCA68B7518BFD0D59A524686F29B26D7164F36B94AD9289CE54E6D1DE6010819891F6E21228B3AD1831EC219194284CF98F06DD01008846CC5A1BEF83801D4CBDC6A1303536877A57A513B0953A94FC707FDBE6064EA84A9E3E6E0FA
310
EE8CF0E9198F7784A316AA0413C2C2F2E0ECA0934D1AE6D05A69BCDE9E91D2A611F573361E38FC1375157F5752AE6B6DFE4B11990F88CCBF0719EE23FF02504B0304140006080800CC70623B408A7D3B7C0000009D0000000B0000006662782F636E782E786D6C4DCCD10A83201886E15B91FFDC552A92A0064DBC8F581632
310
D3703A76F9ABD1C18E3E78F878E5F0D9027ABBFCF2292AE86E2D20171F69F6715550CB827B40839639A5F2770314A7CD293819B45C73AAFB45B35BA61ACAA1C1C7E7855C58C15BC331339661262CC762340413D68D77DA5B42298546CBE6573AF60CEB2F504B0304140006080800CC70623B449FB9BD290100001202000031
310
0000006662782F36394639363044362D344446342D343946362D394244322D3234314243333846323333332F636F72652E786D6C8D515B6EC32010BC0AE22B55850D98B871848994463E412FE002495162B07854397EA176A4F62F3F2C9A9D991D587EB84F37F0AD7D30CEF6905418026DA553C65E7A98E219ED203808EE9D
310
8B7F6810D871D23D2C3014FCE25D9A57483A1BB58D19B54EE9151C43D0110279CB971E06F9A5A7B11A53CC8C70ADE6515EC78BAE4895DB992778883E0700CB907242D17643D7E2538BD869608875438BBAE38922CAC8F1BDD90DB4691A5E2F42C153326A951B95E398B3D1FE599322163C9AE9115F7A3D46ADA0A018778810
310
84E907617BDCEE297BC5BB3DC6BC2EF47FA234AB2745C9D8D8D035EE220B50105E2F0DC1954B9FB747187D9F9D8FA0CCDB042D5FA0C015C65B42DF78BD10F3F3B363CB56C7109DCFDFBBB97E662ED92EB62D13BC2E1BCAE5777DB9966D8A1F504B0304140006080800CC70623BAD7543B64E01000033030000300000006662
310
782F36394639363044362D344446342D343946362D394244322D3234314243333846323333332F636E782E786D6CD593CD6EC32010845F0571AD6CE3D48AD20813A9873E410FBD12D82434182C7EAAE6EDBB2424CD25871E7B41D6EC30B3FA84F9E67BB2E40B4234DE8DB46F1925E094D7C6ED479AD3AE5951B2113C789FEE
310
6C943839C1488B4C05DF079FE72A69D8C96C13AAD6B8631503449F83828872B949AC57D26200B826A308D316B4064D6E46FCDA41C05550DC9E483A00797BFD207EFB092A45DE9514C1BBD22178396BD39D891265658C238DEA00936C654E5E433CB65A26D9F6EDB5EBC14EBF49A45CB856E66048291F6939A9A81BB5C89177
310
38143CA680F4AA299D66A042CEB3354A2684DC9D8D178FE0D9B8B41CAAD720F880EE7EF93C0C18769E099ECC04D5A102C8049A8A05632F4DDF376CF1DE0F6BB65C2F8627B65A33C6BB62177CEBBDAD973006829F89F22E814B54F4BC2BE347F8AA8F681390B50FA73F804400B5F542E796F19FF974E7F78DB802FE05E20750
310
4B0304140006080800CC70623B8D05915C650500003B100000340000006662782F36394639363044362D344446342D343946362D394244322D3234314243333846323333332F6F626A656374732E786D6CAD575B6FA33814FE2B887D06429276DA1565D4266D158D3A339A6846FB502932E050B66023DB74D2FDF5FB190C01
310
9276B2973C046C8ECFF53B17071F77456EBD502133CEAE6CDF9DD81665314F32965ED995DA3A17B6F5310C04E7AA47665B8C14F4CAD6DB7618A48257A5D94AE89654B91AEDDEDDFC61C998326A5B714EA4BCB265FC440BE2924AF184CA6737218AB8E976E7FA6E4338649B0A523E8D98964450A6A029F619B8588D52FE7039
310
B1BD30F0F4F730D0FF866AF6369557DB33949F31A9088B0F848DD8CCFCF9F2767A76E99CCDE733677E3EF59D9BBB9BA5E37F984D16E78BC5E5F5ED25044B25C0C96822E8D60EEFE11B91C581D77CEA34368A1F5329E68CD1B8B61F16D63A1B8E092D294B10C78C4A48EB593D192E7DED9BDEE7995E1B91FDEDD3ACEA9FE831
310
6A756F9F7D4D79F4274C90A7A04248AA51D5F8C718DAE06FB2F75AC4796EBE65D22A88A22223B995679120E2D50E41AA49C260C046A35368846B0BECD0DFF3EBEB8AD4F835768F69B9ADF25C43D30E6B646F807FAA64AD59F61715C7A54127C4AACA98BA3006A9D792DAE165E0D59B61A01FB3A9F9D838D2DAE62445C86166
310
F37564E842E7DE6A69879FEEA2DD5AE7E371E1A5E025154AC307D06A03D73EB5978C58FFA4C8E9033066E0F3BD53BEC1F39F91BE7B55103791EDE6BBB991A2046172CB4581D8B893FA674DDA17A77B3B7C413D1B511FD2743BFF8A38F03A658705E3ADF8015C3A3417FF3D7E439FF591DA0B5F18BC20C1B8981957AE6392A3
310
F43C640C01D1A0B4728E2DD4F26DB4B3C3152A252A3B4E913CEC1C72F012782FF88EFF8637AA552DBEF76408E8A8DE9E50F9E1CB3A2DA0DB1B6039A893B56063DC5B3E3FFB5F72E67AB9FEB4AEC496C4F4C1149625DD662C53E89D7BF0F6151A046260D1337DFDC94502430F83B0EE07A130A224BCAD7DAE1D9FB6CD422FF6
310
920702629C4BB9AE79C12F243C6432A6794E18E5552BA56B431AAB5D91317302B2B071E86C3A42B1A02F999E24061403B5D0EB639195DA655DD3EBEAB4FB862DDF579F014AD0E73C22F99E28DA57FB98E75C6CA2D74D53086D600F4786E0FE3144B771A8A7B900F03594DB8A633CBC49B2EDB69228BB479CF863B5E807AAAB
310
23872F6DFEB4129B949CA33823F58830E86D65621E10047D9DB34D862E8EAC3C2ABC2F7B2C40D67CDFE01F5545B92105AF983AC54D93D69E56FB8E797F88913F898A9FEC705D3F9D1B54EC8426FB500D40A03BD0119B06E1B95DDC7EB8F6975367793EBD70E66733DFB9BC982F9CE564727731999F5D4ECFCE3B8D6A4DC2A0
310
6D50FD148437D110834A64C6CDDF57FBACB5C307A2A477DFE4939736CFEF2B175371E0E10CF0DD1D5C15654E0BCA14D1E87DD02FF93782A162C0A3D95F1524A52770F972BF1EE9809D13CE7DD599467F8ECE9ADD85CE85A34CD45355448C64F9E8A031DC2D596ACC6E5DD93D9B82DE2EF5CAF81363A8E47996A0DE24564A79
310
4115AACE09C55E14540231FDA13C319787134EBF34E3A022514E5B4D9E0826E25C02D5805B15ABE1BEF51B26383D445DD9E875EE33FE4C22DA16427D65A3BCA92CA6D28DD01DF5DC53330704308475351050232CCD31583787BA75774AFB06E5070DD0C8EF484E19968C5D83BA5B90B244D31E54D55A372320FE4786B7EA58
310
44E135AA5467CB7EA333A61683CC6A8C3257034C10CF46F40EF9F5BE59BE5BD30C3C72D235E95D10345C1D45445A5F0BB47E46A5EBE5570F9380B5FA629579952296A773720405982B9DE04011506178964401AA8BDF1FBF0A8EAB6861DD6580C0E38217056766716DAEB2D6FA0917D3E4116581EADB879C4E7CFFB11EFACD
310
3D641311495D92C8676CB409A72D18610D803CE8A626049E8EC1887CB5B44CC39883690DDA8399B4B9855B481E7D71D4A9D22F96E5BB73BF5793020C02137BF837504B0304140006080000CC70623B000000000000000000000000350000006662782F36394639363044362D344446342D343946362D394244322D32343142
310
43333846323333332F76657274696365732E62696E504B0304140006080800CC70623BF270F1330600000004000000360000006662782F36394639363044362D344446342D343946362D394244322D3234314243333846323333332F747269616E676C65732E62696E636660600000504B0304140006080000CC70623B0000
310
00000000000000000000370000006662782F36394639363044362D344446342D343946362D394244322D3234314243333846323333332F617474726962757465732E62696E504B0304140006080800CC70623B08DA0BD19000000041010000360000006662782F36394639363044362D344446342D343946362D394244322D
310
3234314243333846323333332F6469726563746F72792E786D6C858F410AC3201045AF22B36F53E9A60B35CBEEBAE80D244E44489C6234F4F835464A48035D0DF398FF9F8AF63D0E6CC63039F212F8F9020C7D47C6792B21C5FE7403D62A1188E2E60C98D7234A5830286103A55745067B9D86B8A3CF9C7F90C11DE607FB14
310
4396D7B6A82D282E9A152AD114D5EF2CB866EEE831B8EEA07A7BB5A8D7D61A2BAAEB7FD5F70921FF497D00504B0304140006080800CC70623BCA768048FE000000A00100003B0000006662782F36394639363044362D344446342D343946362D394244322D3234314243333846323333332F7265736F75726365732F636F72
310
652E786D6C8D50596E833010BD0A9ADFCA60D600328E9AA639412F609909B1126CE4A5EAF16B0295DABFFECC8CDEA2797AECF8353F924FB44E193D409E5248504B332A3D0D10FC95B4901C39B3C6F85F3248B49871801506CE266BC2B243D2688FDA47549B11775038871E12F988C7004EDE7016A9083E2ADC3D5D84BC8B09
310
D33C8D74D471E6BC8D0192EDC93A815B742658898E651BCB59086ADC356A8C3FD555A1055ED7E7E254D615792D0F075295F585746FF53B694EE78A565DD736979A65AB9933AFE69F8CD2A2F038022F28ED489E135A7CE4554F9BBEA85E68DB53CAB255FEC71496F19FA6A0B42F8B3DEE6673C0F318E4497096AD7DC5F52C33
310
EEB55BFE0D504B010214000A0000080000CC70623B3DEE336E79000000790000001B00000000000000000000000000000000006175746F6465736B2D64657369676E2D7061636B6167652E786D6C504B01021400140006080800CC70623BD486FD9CA0000000F40000001300000000000000000000000000B20000005B436F
310
6E74656E745F54797065735D2E786D6C504B01021400140006080800CC70623BD9DDAED0EC0000007C010000080000000000000000000000000083010000636F72652E786D6C504B01021400140006080800CC70623B55019EA25F0000007C000000070000000000000000000000000095020000636E782E786D6C504B0102
310
1400140006080800CC70623BA24EB22D72010000D40300000C00000000000000000000000000190300006662782F636F72652E786D6C504B01021400140006080800CC70623B408A7D3B7C0000009D0000000B00000000000000000000000000B50400006662782F636E782E786D6C504B01021400140006080800CC70623B
310
449FB9BD290100001202000031000000000000000000000000005A0500006662782F36394639363044362D344446342D343946362D394244322D3234314243333846323333332F636F72652E786D6C504B01021400140006080800CC70623BAD7543B64E010000330300003000000000000000000000000000D20600006662
310
782F36394639363044362D344446342D343946362D394244322D3234314243333846323333332F636E782E786D6C504B01021400140006080800CC70623B8D05915C650500003B10000034000000000000000000000000006E0800006662782F36394639363044362D344446342D343946362D394244322D32343142433338
310
46323333332F6F626A656374732E786D6C504B01021400140006080000CC70623B0000000000000000000000003500000000000000000000000000250E00006662782F36394639363044362D344446342D343946362D394244322D3234314243333846323333332F76657274696365732E62696E504B010214001400060808
310
00CC70623BF270F13306000000040000003600000000000000000000000000780E00006662782F36394639363044362D344446342D343946362D394244322D3234314243333846323333332F747269616E676C65732E62696E504B01021400140006080000CC70623B00000000000000000000000037000000000000000000
310
00000000D20E00006662782F36394639363044362D344446342D343946362D394244322D3234314243333846323333332F617474726962757465732E62696E504B01021400140006080800CC70623B08DA0BD190000000410100003600000000000000000000000000270F00006662782F36394639363044362D344446342D
310
343946362D394244322D3234314243333846323333332F6469726563746F72792E786D6C504B01021400140006080800CC70623BCA768048FE000000A00100003B000000000000000000000000000B1000006662782F36394639363044362D344446342D343946362D394244322D3234314243333846323333332F7265736F
310
75726365732F636F72652E786D6C504B0506000000000E000E0080040000621100000000
  0
XRECORD
  5
11
102
{ACAD_REACTORS
330
D
102
}
330
D
100
AcDbXrecord
280
     1
270
     1
271
     1
  0
XRECORD
  5
12
102
{ACAD_REACTORS
330
D
102
}
330
D
100
AcDbXrecord
280
     1
270
     1
271
     1
  0
CELLSTYLEMAP
  5
256
102
{ACAD_REACTORS
330
45
102
}
330
45
100
AcDbCellStyleMap
 90
        3
300
CELLSTYLE
  1
TABLEFORMAT_BEGIN
 90
        5
170
     1
 91
        0
 92
    32768
 62
   257
 93
        1
300
CONTENTFORMAT
  1
CONTENTFORMAT_BEGIN
 90
        0
 91
        0
 92
      512
 93
        0
300

 40
0.0
140
1.0
 94
        5
 62
     0
340
22
144
6.0
309
CONTENTFORMAT_END
171
     1
301
MARGIN
  1
CELLMARGIN_BEGIN
 40
1.5
 40
1.5
 40
1.5
 40
1.5
 40
4.5
 40
4.5
309
CELLMARGIN_END
 94
        6
 95
        1
302
GRIDFORMAT
  1
GRIDFORMAT_BEGIN
 90
        0
 91
        1
 62
     0
 92
       -2
340
25
 93
        0
 40
1.125
309
GRIDFORMAT_END
 95
        2
302
GRIDFORMAT
  1
GRIDFORMAT_BEGIN
 90
        0
 91
        1
 62
     0
 92
       -2
340
25
 93
        0
 40
1.125
309
GRIDFORMAT_END
 95
        4
302
GRIDFORMAT
  1
GRIDFORMAT_BEGIN
 90
        0
 91
        1
 62
     0
 92
       -2
340
25
 93
        0
 40
1.125
309
GRIDFORMAT_END
 95
        8
302
GRIDFORMAT
  1
GRIDFORMAT_BEGIN
 90
        0
 91
        1
 62
     0
 92
       -2
340
25
 93
        0
 40
1.125
309
GRIDFORMAT_END
 95
       16
302
GRIDFORMAT
  1
GRIDFORMAT_BEGIN
 90
        0
 91
        1
 62
     0
 92
       -2
340
25
 93
        0
 40
1.125
309
GRIDFORMAT_END
 95
       32
302
GRIDFORMAT
  1
GRIDFORMAT_BEGIN
 90
        0
 91
        1
 62
     0
 92
       -2
340
25
 93
        0
 40
1.125
309
GRIDFORMAT_END
309
TABLEFORMAT_END
  1
CELLSTYLE_BEGIN
 90
        1
 91
        1
300
_TITLE
309
CELLSTYLE_END
300
CELLSTYLE
  1
TABLEFORMAT_BEGIN
 90
        5
170
     1
 91
        0
 92
        0
 62
   257
 93
        1
300
CONTENTFORMAT
  1
CONTENTFORMAT_BEGIN
 90
        0
 91
        0
 92
      512
 93
        0
300

 40
0.0
140
1.0
 94
        5
 62
     0
340
22
144
4.5
309
CONTENTFORMAT_END
171
     1
301
MARGIN
  1
CELLMARGIN_BEGIN
 40
1.5
 40
1.5
 40
1.5
 40
1.5
 40
4.5
 40
4.5
309
CELLMARGIN_END
 94
        6
 95
        1
302
GRIDFORMAT
  1
GRIDFORMAT_BEGIN
 90
        0
 91
        1
 62
     0
 92
       -2
340
25
 93
        0
 40
1.125
309
GRIDFORMAT_END
 95
        2
302
GRIDFORMAT
  1
GRIDFORMAT_BEGIN
 90
        0
 91
        1
 62
     0
 92
       -2
340
25
 93
        0
 40
1.125
309
GRIDFORMAT_END
 95
        4
302
GRIDFORMAT
  1
GRIDFORMAT_BEGIN
 90
        0
 91
        1
 62
     0
 92
       -2
340
25
 93
        0
 40
1.125
309
GRIDFORMAT_END
 95
        8
302
GRIDFORMAT
  1
GRIDFORMAT_BEGIN
 90
        0
 91
        1
 62
     0
 92
       -2
340
25
 93
        0
 40
1.125
309
GRIDFORMAT_END
 95
       16
302
GRIDFORMAT
  1
GRIDFORMAT_BEGIN
 90
        0
 91
        1
 62
     0
 92
       -2
340
25
 93
        0
 40
1.125
309
GRIDFORMAT_END
 95
       32
302
GRIDFORMAT
  1
GRIDFORMAT_BEGIN
 90
        0
 91
        1
 62
     0
 92
       -2
340
25
 93
        0
 40
1.125
309
GRIDFORMAT_END
309
TABLEFORMAT_END
  1
CELLSTYLE_BEGIN
 90
        2
 91
        1
300
_HEADER
309
CELLSTYLE_END
300
CELLSTYLE
  1
TABLEFORMAT_BEGIN
 90
        5
170
     1
 91
        0
 92
        0
 62
   257
 93
        1
300
CONTENTFORMAT
  1
CONTENTFORMAT_BEGIN
 90
        0
 91
        0
 92
      512
 93
        0
300

 40
0.0
140
1.0
 94
        2
 62
     0
340
22
144
4.5
309
CONTENTFORMAT_END
171
     1
301
MARGIN
  1
CELLMARGIN_BEGIN
 40
1.5
 40
1.5
 40
1.5
 40
1.5
 40
4.5
 40
4.5
309
CELLMARGIN_END
 94
        6
 95
        1
302
GRIDFORMAT
  1
GRIDFORMAT_BEGIN
 90
        0
 91
        1
 62
     0
 92
       -2
340
25
 93
        0
 40
1.125
309
GRIDFORMAT_END
 95
        2
302
GRIDFORMAT
  1
GRIDFORMAT_BEGIN
 90
        0
 91
        1
 62
     0
 92
       -2
340
25
 93
        0
 40
1.125
309
GRIDFORMAT_END
 95
        4
302
GRIDFORMAT
  1
GRIDFORMAT_BEGIN
 90
        0
 91
        1
 62
     0
 92
       -2
340
25
 93
        0
 40
1.125
309
GRIDFORMAT_END
 95
        8
302
GRIDFORMAT
  1
GRIDFORMAT_BEGIN
 90
        0
 91
        1
 62
     0
 92
       -2
340
25
 93
        0
 40
1.125
309
GRIDFORMAT_END
 95
       16
302
GRIDFORMAT
  1
GRIDFORMAT_BEGIN
 90
        0
 91
        1
 62
     0
 92
       -2
340
25
 93
        0
 40
1.125
309
GRIDFORMAT_END
 95
       32
302
GRIDFORMAT
  1
GRIDFORMAT_BEGIN
 90
        0
 91
        1
 62
     0
 92
       -2
340
25
 93
        0
 40
1.125
309
GRIDFORMAT_END
309
TABLEFORMAT_END
  1
CELLSTYLE_BEGIN
 90
        3
 91
        2
300
_DATA
309
CELLSTYLE_END
  0
XRECORD
  5
265
102
{ACAD_REACTORS
330
45
102
}
330
45
100
AcDbXrecord
280
     1
102
ACAD_ROUNDTRIP_PRE2007_TABLESTYLE
 90
      512
 91
        0
  1

 92
      512
 93
        0
  2

 94
      512
 95
        0
  3

  0
XRECORD
  5
262
102
{ACAD_REACTORS
330
261
102
}
330
261
100
AcDbXrecord
280
     1
102
RTVSPost2010Prop28
280
     1
102
RTVSPost2010PropOp28
 70
     1
102
RTVSPost2010Prop29
280
     1
102
RTVSPost2010PropOp29
 70
     1
102
RTVSPost2010Prop30
280
     0
102
RTVSPost2010PropOp30
 70
     1
102
RTVSPost2010Prop31
280
     0
102
RTVSPost2010PropOp31
 70
     1
102
RTVSPost2010Prop32
280
     0
102
RTVSPost2010PropOp32
 70
     1
102
RTVSPost2010Prop33
280
     0
102
RTVSPost2010PropOp33
 70
     1
102
RTVSPost2010Prop34
280
     0
102
RTVSPost2010PropOp34
 70
     1
102
RTVSPost2010Prop35
280
     0
102
RTVSPost2010PropOp35
 70
     1
102
RTVSPost2010Prop36
280
     0
102
RTVSPost2010PropOp36
 70
     1
102
RTVSPost2010Prop37
 90
       50
102
RTVSPost2010PropOp37
 70
     1
102
RTVSPost2010Prop38
140
0.0
102
RTVSPost2010PropOp38
 70
     1
102
RTVSPost2010Prop39
140
1.0
102
RTVSPost2010PropOp39
 70
     1
102
RTVSPost2010Prop40
 90
        0
102
RTVSPost2010PropOp40
 70
     1
102
RTVSPost2010Prop41ColorIndex
 90
       18
102
RTVSPost2010Prop41ColorRGB
 90
        0
102
RTVSPost2010PropOp41
 70
     1
102
RTVSPost2010Prop42
 90
       50
102
RTVSPost2010PropOp42
 70
     1
102
RTVSPost2010Prop43
 90
        3
102
RTVSPost2010PropOp43
 70
     1
102
RTVSPost2010Prop44ColorIndex
 90
        5
102
RTVSPost2010Prop44ColorRGB
 90
      255
102
RTVSPost2010PropOp44
 70
     1
102
RTVSPost2010Prop45
280
     0
102
RTVSPost2010PropOp45
 70
     1
102
RTVSPost2010Prop46
 90
       50
102
RTVSPost2010PropOp46
 70
     1
102
RTVSPost2010Prop47
 90
       50
102
RTVSPost2010PropOp47
 70
     1
102
RTVSPost2010Prop48
 90
       50
102
RTVSPost2010PropOp48
 70
     1
102
RTVSPost2010Prop49
280
     0
102
RTVSPost2010PropOp49
 70
     1
102
RTVSPost2010Prop50
 90
       50
102
RTVSPost2010PropOp50
 70
     1
102
RTVSPost2010Prop51ColorIndex
 90
      256
102
RTVSPost2010Prop51ColorRGB
 90
-16777216
102
RTVSPost2010PropOp51
 70
     0
102
RTVSPost2010Prop52
140
1.0
102
RTVSPost2010PropOp52
 70
     0
102
RTVSPost2010Prop53
 90
        2
102
RTVSPost2010PropOp53
 70
     1
102
RTVSPost2010Prop54
  1
strokes_ogs.tif
102
RTVSPost2010PropOp54
 70
     1
102
RTVSPost2010Prop55
280
     0
102
RTVSPost2010PropOp55
 70
     1
102
RTVSPost2010Prop56
140
1.0
102
RTVSPost2010PropOp56
 70
     1
102
RTVSPost2010Prop57
140
1.0
102
RTVSPost2010PropOp57
 70
     1
102
RTVSPropertyOp0
 70
     1
102
RTVSPropertyOp1
 70
     1
102
RTVSPropertyOp2
 70
     1
102
RTVSPropertyOp3
 70
     1
102
RTVSPropertyOp4
 70
     1
102
RTVSPropertyOp5
 70
     1
102
RTVSPropertyOp6
 70
     1
102
RTVSPropertyOp7
 70
     1
102
RTVSPropertyOp8
 70
     1
102
RTVSPropertyOp9
 70
     1
102
RTVSPropertyOp10
 70
     1
102
RTVSPropertyOp11
 70
     1
102
RTVSPropertyOp12
 70
     1
102
RTVSPropertyOp13
 70
     1
102
RTVSPropertyOp14
 70
     1
102
RTVSPropertyOp15
 70
     1
102
RTVSPropertyOp16
 70
     1
102
RTVSPropertyOp17
 70
     1
102
RTVSPropertyOp18
 70
     1
102
RTVSPropertyOp19
 70
     1
102
RTVSPropertyOp20
 70
     1
102
RTVSPropertyOp21
 70
     1
102
RTVSPropertyOp22
 70
     1
102
RTVSPropertyOp23
 70
     1
102
RTVSPropertyOp24
 70
     1
102
RTVSPropertyOp25
 70
     1
102
RTVSPropertyOp26
 70
     1
102
RTVSPropertyOp27
 70
     1
102
RTVSPropertyOp28
 70
     1
102
RTVSPropertyOp29
 70
     1
102
RTVSPropertyOp30
 70
     1
102
RTVSPropertyOp31
 70
     1
102
RTVSPropertyOp32
 70
     1
102
RTVSPropertyOp33
 70
     1
102
RTVSPropertyOp34
 70
     1
102
RTVSPropertyOp35
 70
     1
102
RTVSPropertyOp36
 70
     1
102
RTVSPropertyOp37
 70
     1
102
RTVSPropertyOp38
 70
     1
102
RTVSPropertyOp39
 70
     1
102
RTVSPropertyOp40
 70
     1
102
RTVSPropertyOp41
 70
     1
102
RTVSPropertyOp42
 70
     1
102
RTVSPropertyOp43
 70
     1
102
RTVSPropertyOp44
 70
     1
102
RTVSPropertyOp45
 70
     1
102
RTVSPropertyOp46
 70
     1
102
RTVSPropertyOp47
 70
     1
102
RTVSPropertyOp48
 70
     1
102
RTVSPropertyOp49
 70
     1
102
RTVSPropertyOp50
 70
     1
102
RTVSPropertyOp51
 70
     0
102
RTVSPropertyOp52
 70
     0
102
RTVSPropertyOp53
 70
     1
102
RTVSPropertyOp54
 70
     1
102
RTVSPropertyOp55
 70
     1
102
RTVSPropertyOp56
 70
     1
102
RTVSPropertyOp57
 70
     1
102
RTVSPropertyOp58
 70
     1
102
RTVSPropertyOp59
 70
     1
102
RTVSPropertyOp60
 70
     1
102
RTVSPropertyOp61
 70
     1
102
RTVSPropertyOp62
 70
     1
  0
XRECORD
  5
267
102
{ACAD_REACTORS
330
266
102
}
330
266
100
AcDbXrecord
280
     1
102
RTVSPost2010Prop28
280
     0
102
RTVSPost2010PropOp28
 70
     1
102
RTVSPost2010Prop29
280
     1
102
RTVSPost2010PropOp29
 70
     1
102
RTVSPost2010Prop30
280
     1
102
RTVSPost2010PropOp30
 70
     1
102
RTVSPost2010Prop31
280
     0
102
RTVSPost2010PropOp31
 70
     1
102
RTVSPost2010Prop32
280
     0
102
RTVSPost2010PropOp32
 70
     1
102
RTVSPost2010Prop33
280
     0
102
RTVSPost2010PropOp33
 70
     1
102
RTVSPost2010Prop34
280
     0
102
RTVSPost2010PropOp34
 70
     1
102
RTVSPost2010Prop35
280
     0
102
RTVSPost2010PropOp35
 70
     1
102
RTVSPost2010Prop36
280
     0
102
RTVSPost2010PropOp36
 70
     1
102
RTVSPost2010Prop37
 90
       50
102
RTVSPost2010PropOp37
 70
     1
102
RTVSPost2010Prop38
140
0.0
102
RTVSPost2010PropOp38
 70
     1
102
RTVSPost2010Prop39
140
1.0
102
RTVSPost2010PropOp39
 70
     1
102
RTVSPost2010Prop40
 90
        0
102
RTVSPost2010PropOp40
 70
     1
102
RTVSPost2010Prop41ColorIndex
 90
       18
102
RTVSPost2010Prop41ColorRGB
 90
        0
102
RTVSPost2010PropOp41
 70
     1
102
RTVSPost2010Prop42
 90
       50
102
RTVSPost2010PropOp42
 70
     1
102
RTVSPost2010Prop43
 90
        3
102
RTVSPost2010PropOp43
 70
     1
102
RTVSPost2010Prop44ColorIndex
 90
        5
102
RTVSPost2010Prop44ColorRGB
 90
      255
102
RTVSPost2010PropOp44
 70
     1
102
RTVSPost2010Prop45
280
     0
102
RTVSPost2010PropOp45
 70
     1
102
RTVSPost2010Prop46
 90
       50
102
RTVSPost2010PropOp46
 70
     1
102
RTVSPost2010Prop47
 90
       50
102
RTVSPost2010PropOp47
 70
     1
102
RTVSPost2010Prop48
 90
       50
102
RTVSPost2010PropOp48
 70
     1
102
RTVSPost2010Prop49
280
     0
102
RTVSPost2010PropOp49
 70
     1
102
RTVSPost2010Prop50
 90
       50
102
RTVSPost2010PropOp50
 70
     1
102
RTVSPost2010Prop51ColorIndex
 90
      256
102
RTVSPost2010Prop51ColorRGB
 90
-16777216
102
RTVSPost2010PropOp51
 70
     0
102
RTVSPost2010Prop52
140
1.0
102
RTVSPost2010PropOp52
 70
     0
102
RTVSPost2010Prop53
 90
        2
102
RTVSPost2010PropOp53
 70
     1
102
RTVSPost2010Prop54
  1
strokes_ogs.tif
102
RTVSPost2010PropOp54
 70
     1
102
RTVSPost2010Prop55
280
     0
102
RTVSPost2010PropOp55
 70
     1
102
RTVSPost2010Prop56
140
1.0
102
RTVSPost2010PropOp56
 70
     1
102
RTVSPost2010Prop57
140
1.0
102
RTVSPost2010PropOp57
 70
     1
102
RTVSPropertyOp0
 70
     1
102
RTVSPropertyOp1
 70
     1
102
RTVSPropertyOp2
 70
     1
102
RTVSPropertyOp3
 70
     1
102
RTVSPropertyOp4
 70
     1
102
RTVSPropertyOp5
 70
     1
102
RTVSPropertyOp6
 70
     1
102
RTVSPropertyOp7
 70
     1
102
RTVSPropertyOp8
 70
     1
102
RTVSPropertyOp9
 70
     1
102
RTVSPropertyOp10
 70
     1
102
RTVSPropertyOp11
 70
     1
102
RTVSPropertyOp12
 70
     1
102
RTVSPropertyOp13
 70
     1
102
RTVSPropertyOp14
 70
     1
102
RTVSPropertyOp15
 70
     1
102
RTVSPropertyOp16
 70
     1
102
RTVSPropertyOp17
 70
     1
102
RTVSPropertyOp18
 70
     1
102
RTVSPropertyOp19
 70
     1
102
RTVSPropertyOp20
 70
     1
102
RTVSPropertyOp21
 70
     1
102
RTVSPropertyOp22
 70
     1
102
RTVSPropertyOp23
 70
     1
102
RTVSPropertyOp24
 70
     1
102
RTVSPropertyOp25
 70
     1
102
RTVSPropertyOp26
 70
     1
102
RTVSPropertyOp27
 70
     1
102
RTVSPropertyOp28
 70
     1
102
RTVSPropertyOp29
 70
     1
102
RTVSPropertyOp30
 70
     1
102
RTVSPropertyOp31
 70
     1
102
RTVSPropertyOp32
 70
     1
102
RTVSPropertyOp33
 70
     1
102
RTVSPropertyOp34
 70
     1
102
RTVSPropertyOp35
 70
     1
102
RTVSPropertyOp36
 70
     1
102
RTVSPropertyOp37
 70
     1
102
RTVSPropertyOp38
 70
     1
102
RTVSPropertyOp39
 70
     1
102
RTVSPropertyOp40
 70
     1
102
RTVSPropertyOp41
 70
     1
102
RTVSPropertyOp42
 70
     1
102
RTVSPropertyOp43
 70
     1
102
RTVSPropertyOp44
 70
     1
102
RTVSPropertyOp45
 70
     1
102
RTVSPropertyOp46
 70
     1
102
RTVSPropertyOp47
 70
     1
102
RTVSPropertyOp48
 70
     1
102
RTVSPropertyOp49
 70
     1
102
RTVSPropertyOp50
 70
     1
102
RTVSPropertyOp51
 70
     0
102
RTVSPropertyOp52
 70
     0
102
RTVSPropertyOp53
 70
     1
102
RTVSPropertyOp54
 70
     1
102
RTVSPropertyOp55
 70
     1
102
RTVSPropertyOp56
 70
     1
102
RTVSPropertyOp57
 70
     1
102
RTVSPropertyOp58
 70
     1
102
RTVSPropertyOp59
 70
     1
102
RTVSPropertyOp60
 70
     1
102
RTVSPropertyOp61
 70
     1
102
RTVSPropertyOp62
 70
     1
  0
XRECORD
  5
269
102
{ACAD_REACTORS
330
268
102
}
330
268
100
AcDbXrecord
280
     1
102
RTVSPost2010Prop28
280
     0
102
RTVSPost2010PropOp28
 70
     1
102
RTVSPost2010Prop29
280
     1
102
RTVSPost2010PropOp29
 70
     1
102
RTVSPost2010Prop30
280
     1
102
RTVSPost2010PropOp30
 70
     1
102
RTVSPost2010Prop31
280
     0
102
RTVSPost2010PropOp31
 70
     1
102
RTVSPost2010Prop32
280
     0
102
RTVSPost2010PropOp32
 70
     1
102
RTVSPost2010Prop33
280
     0
102
RTVSPost2010PropOp33
 70
     1
102
RTVSPost2010Prop34
280
     0
102
RTVSPost2010PropOp34
 70
     1
102
RTVSPost2010Prop35
280
     0
102
RTVSPost2010PropOp35
 70
     1
102
RTVSPost2010Prop36
280
     0
102
RTVSPost2010PropOp36
 70
     1
102
RTVSPost2010Prop37
 90
       50
102
RTVSPost2010PropOp37
 70
     1
102
RTVSPost2010Prop38
140
0.0
102
RTVSPost2010PropOp38
 70
     1
102
RTVSPost2010Prop39
140
1.0
102
RTVSPost2010PropOp39
 70
     1
102
RTVSPost2010Prop40
 90
        0
102
RTVSPost2010PropOp40
 70
     1
102
RTVSPost2010Prop41ColorIndex
 90
       18
102
RTVSPost2010Prop41ColorRGB
 90
        0
102
RTVSPost2010PropOp41
 70
     1
102
RTVSPost2010Prop42
 90
       50
102
RTVSPost2010PropOp42
 70
     1
102
RTVSPost2010Prop43
 90
        3
102
RTVSPost2010PropOp43
 70
     1
102
RTVSPost2010Prop44ColorIndex
 90
        5
102
RTVSPost2010Prop44ColorRGB
 90
      255
102
RTVSPost2010PropOp44
 70
     1
102
RTVSPost2010Prop45
280
     0
102
RTVSPost2010PropOp45
 70
     1
102
RTVSPost2010Prop46
 90
       50
102
RTVSPost2010PropOp46
 70
     1
102
RTVSPost2010Prop47
 90
       50
102
RTVSPost2010PropOp47
 70
     1
102
RTVSPost2010Prop48
 90
       50
102
RTVSPost2010PropOp48
 70
     1
102
RTVSPost2010Prop49
280
     0
102
RTVSPost2010PropOp49
 70
     1
102
RTVSPost2010Prop50
 90
       50
102
RTVSPost2010PropOp50
 70
     1
102
RTVSPost2010Prop51ColorIndex
 90
      256
102
RTVSPost2010Prop51ColorRGB
 90
-16777216
102
RTVSPost2010PropOp51
 70
     0
102
RTVSPost2010Prop52
140
1.0
102
RTVSPost2010PropOp52
 70
     0
102
RTVSPost2010Prop53
 90
        2
102
RTVSPost2010PropOp53
 70
     1
102
RTVSPost2010Prop54
  1
strokes_ogs.tif
102
RTVSPost2010PropOp54
 70
     1
102
RTVSPost2010Prop55
280
     0
102
RTVSPost2010PropOp55
 70
     1
102
RTVSPost2010Prop56
140
1.0
102
RTVSPost2010PropOp56
 70
     1
102
RTVSPost2010Prop57
140
1.0
102
RTVSPost2010PropOp57
 70
     1
102
RTVSPropertyOp0
 70
     1
102
RTVSPropertyOp1
 70
     1
102
RTVSPropertyOp2
 70
     1
102
RTVSPropertyOp3
 70
     1
102
RTVSPropertyOp4
 70
     1
102
RTVSPropertyOp5
 70
     1
102
RTVSPropertyOp6
 70
     1
102
RTVSPropertyOp7
 70
     1
102
RTVSPropertyOp8
 70
     1
102
RTVSPropertyOp9
 70
     1
102
RTVSPropertyOp10
 70
     1
102
RTVSPropertyOp11
 70
     1
102
RTVSPropertyOp12
 70
     1
102
RTVSPropertyOp13
 70
     1
102
RTVSPropertyOp14
 70
     1
102
RTVSPropertyOp15
 70
     1
102
RTVSPropertyOp16
 70
     1
102
RTVSPropertyOp17
 70
     1
102
RTVSPropertyOp18
 70
     1
102
RTVSPropertyOp19
 70
     1
102
RTVSPropertyOp20
 70
     1
102
RTVSPropertyOp21
 70
     1
102
RTVSPropertyOp22
 70
     1
102
RTVSPropertyOp23
 70
     1
102
RTVSPropertyOp24
 70
     1
102
RTVSPropertyOp25
 70
     1
102
RTVSPropertyOp26
 70
     1
102
RTVSPropertyOp27
 70
     1
102
RTVSPropertyOp28
 70
     1
102
RTVSPropertyOp29
 70
     1
102
RTVSPropertyOp30
 70
     1
102
RTVSPropertyOp31
 70
     1
102
RTVSPropertyOp32
 70
     1
102
RTVSPropertyOp33
 70
     1
102
RTVSPropertyOp34
 70
     1
102
RTVSPropertyOp35
 70
     1
102
RTVSPropertyOp36
 70
     1
102
RTVSPropertyOp37
 70
     1
102
RTVSPropertyOp38
 70
     1
102
RTVSPropertyOp39
 70
     1
102
RTVSPropertyOp40
 70
     1
102
RTVSPropertyOp41
 70
     1
102
RTVSPropertyOp42
 70
     1
102
RTVSPropertyOp43
 70
     1
102
RTVSPropertyOp44
 70
     1
102
RTVSPropertyOp45
 70
     1
102
RTVSPropertyOp46
 70
     1
102
RTVSPropertyOp47
 70
     1
102
RTVSPropertyOp48
 70
     1
102
RTVSPropertyOp49
 70
     1
102
RTVSPropertyOp50
 70
     1
102
RTVSPropertyOp51
 70
     0
102
RTVSPropertyOp52
 70
     0
102
RTVSPropertyOp53
 70
     1
102
RTVSPropertyOp54
 70
     1
102
RTVSPropertyOp55
 70
     1
102
RTVSPropertyOp56
 70
     1
102
RTVSPropertyOp57
 70
     1
102
RTVSPropertyOp58
 70
     1
102
RTVSPropertyOp59
 70
     1
102
RTVSPropertyOp60
 70
     1
102
RTVSPropertyOp61
 70
     1
102
RTVSPropertyOp62
 70
     1
  0
ENDSEC
  0
EOF
