  0
SECTION
  2
HEADER
  9
$ACADVER
  1
AC1018
  9
$ACADMAINTVER
 70
   104
  9
$DWGCODEPAGE
  3
ANSI_932
  9
$INSBASE
 10
0.0
 20
0.0
 30
0.0
  9
$EXTMIN
 10
32.0770026059464
 20
10.0352170262026
 30
-0.0000000349181948
  9
$EXTMAX
 10
82.08448963819581
 20
36.88750521198023
 30
0.0000000814935746
  9
$LIMMIN
 10
21.76941565524999
 20
-3.076795485389651
  9
$LIMMAX
 10
94.18772682208919
 20
42.97898991131886
  9
$ORTHOMODE
 70
     0
  9
$REGENMODE
 70
     1
  9
$FILLMODE
 70
     1
  9
$QTEXTMODE
 70
     0
  9
$MIRRTEXT
 70
     0
  9
$LTSCALE
 40
1.0
  9
$ATTMODE
 70
     1
  9
$TEXTSIZE
 40
2.5
  9
$TRACEWID
 40
1.0
  9
$TEXTSTYLE
  7
Standard
  9
$CLAYER
  8
0
  9
$CELTYPE
  6
ByLayer
  9
$CECOLOR
 62
   256
  9
$CELTSCALE
 40
1.0
  9
$DISPSILH
 70
     0
  9
$DIMSCALE
 40
1.0
  9
$DIMASZ
 40
2.5
  9
$DIMEXO
 40
0.625
  9
$DIMDLI
 40
3.75
  9
$DIMRND
 40
0.0
  9
$DIMDLE
 40
0.0
  9
$DIMEXE
 40
1.25
  9
$DIMTP
 40
0.0
  9
$DIMTM
 40
0.0
  9
$DIMTXT
 40
2.5
  9
$DIMCEN
 40
2.5
  9
$DIMTSZ
 40
0.0
  9
$DIMTOL
 70
     0
  9
$DIMLIM
 70
     0
  9
$DIMTIH
 70
     0
  9
$DIMTOH
 70
     0
  9
$DIMSE1
 70
     0
  9
$DIMSE2
 70
     0
  9
$DIMTAD
 70
     1
  9
$DIMZIN
 70
     8
  9
$DIMBLK
  1

  9
$DIMASO
 70
     1
  9
$DIMSHO
 70
     1
  9
$DIMPOST
  1

  9
$DIMAPOST
  1

  9
$DIMALT
 70
     0
  9
$DIMALTD
 70
     3
  9
$DIMALTF
 40
0.03937007874016
  9
$DIMLFAC
 40
1.0
  9
$DIMTOFL
 70
     1
  9
$DIMTVP
 40
0.0
  9
$DIMTIX
 70
     0
  9
$DIMSOXD
 70
     0
  9
$DIMSAH
 70
     0
  9
$DIMBLK1
  1

  9
$DIMBLK2
  1

  9
$DIMSTYLE
  2
ISO-25
  9
$DIMCLRD
 70
     0
  9
$DIMCLRE
 70
     0
  9
$DIMCLRT
 70
     0
  9
$DIMTFAC
 40
1.0
  9
$DIMGAP
 40
0.625
  9
$DIMJUST
 70
     0
  9
$DIMSD1
 70
     0
  9
$DIMSD2
 70
     0
  9
$DIMTOLJ
 70
     0
  9
$DIMTZIN
 70
     8
  9
$DIMALTZ
 70
     0
  9
$DIMALTTZ
 70
     0
  9
$DIMUPT
 70
     0
  9
$DIMDEC
 70
     2
  9
$DIMTDEC
 70
     2
  9
$DIMALTU
 70
     2
  9
$DIMALTTD
 70
     3
  9
$DIMTXSTY
  7
Standard
  9
$DIMAUNIT
 70
     0
  9
$DIMADEC
 70
     0
  9
$DIMALTRND
 40
0.0
  9
$DIMAZIN
 70
     0
  9
$DIMDSEP
 70
    44
  9
$DIMATFIT
 70
     3
  9
$DIMFRAC
 70
     0
  9
$DIMLDRBLK
  1

  9
$DIMLUNIT
 70
     2
  9
$DIMLWD
 70
    -2
  9
$DIMLWE
 70
    -2
  9
$DIMTMOVE
 70
     0
  9
$LUNITS
 70
     2
  9
$LUPREC
 70
     4
  9
$SKETCHINC
 40
1.0
  9
$FILLETRAD
 40
0.0
  9
$AUNITS
 70
     0
  9
$AUPREC
 70
     0
  9
$MENU
  1
.
  9
$ELEVATION
 40
0.0
  9
$PELEVATION
 40
0.0
  9
$THICKNESS
 40
0.0
  9
$LIMCHECK
 70
     0
  9
$CHAMFERA
 40
0.0
  9
$CHAMFERB
 40
0.0
  9
$CHAMFERC
 40
0.0
  9
$CHAMFERD
 40
0.0
  9
$SKPOLY
 70
     0
  9
$TDCREATE
 40
2458197.649120370
  9
$TDUCREATE
 40
2458197.315787037
  9
$TDUPDATE
 40
2458200.351226852
  9
$TDUUPDATE
 40
2458200.017893518
  9
$TDINDWG
 40
0.0316087963
  9
$TDUSRTIMER
 40
0.0316087963
  9
$USRTIMER
 70
     1
  9
$ANGBASE
 50
0.0
  9
$ANGDIR
 70
     0
  9
$PDMODE
 70
     0
  9
$PDSIZE
 40
0.0
  9
$PLINEWID
 40
0.0
  9
$SPLFRAME
 70
     0
  9
$SPLINETYPE
 70
     6
  9
$SPLINESEGS
 70
     8
  9
$HANDSEED
  5
28C
  9
$SURFTAB1
 70
     6
  9
$SURFTAB2
 70
     6
  9
$SURFTYPE
 70
     6
  9
$SURFU
 70
     6
  9
$SURFV
 70
     6
  9
$UCSBASE
  2

  9
$UCSNAME
  2

  9
$UCSORG
 10
0.0
 20
0.0
 30
0.0
  9
$UCSXDIR
 10
1.0
 20
0.0
 30
0.0
  9
$UCSYDIR
 10
0.0
 20
1.0
 30
0.0
  9
$UCSORTHOREF
  2

  9
$UCSORTHOVIEW
 70
     0
  9
$UCSORGTOP
 10
0.0
 20
0.0
 30
0.0
  9
$UCSORGBOTTOM
 10
0.0
 20
0.0
 30
0.0
  9
$UCSORGLEFT
 10
0.0
 20
0.0
 30
0.0
  9
$UCSORGRIGHT
 10
0.0
 20
0.0
 30
0.0
  9
$UCSORGFRONT
 10
0.0
 20
0.0
 30
0.0
  9
$UCSORGBACK
 10
0.0
 20
0.0
 30
0.0
  9
$PUCSBASE
  2

  9
$PUCSNAME
  2

  9
$PUCSORG
 10
0.0
 20
0.0
 30
0.0
  9
$PUCSXDIR
 10
1.0
 20
0.0
 30
0.0
  9
$PUCSYDIR
 10
0.0
 20
1.0
 30
0.0
  9
$PUCSORTHOREF
  2

  9
$PUCSORTHOVIEW
 70
     0
  9
$PUCSORGTOP
 10
0.0
 20
0.0
 30
0.0
  9
$PUCSORGBOTTOM
 10
0.0
 20
0.0
 30
0.0
  9
$PUCSORGLEFT
 10
0.0
 20
0.0
 30
0.0
  9
$PUCSORGRIGHT
 10
0.0
 20
0.0
 30
0.0
  9
$PUCSORGFRONT
 10
0.0
 20
0.0
 30
0.0
  9
$PUCSORGBACK
 10
0.0
 20
0.0
 30
0.0
  9
$USERI1
 70
     0
  9
$USERI2
 70
     0
  9
$USERI3
 70
     0
  9
$USERI4
 70
     0
  9
$USERI5
 70
     0
  9
$USERR1
 40
0.0
  9
$USERR2
 40
0.0
  9
$USERR3
 40
0.0
  9
$USERR4
 40
0.0
  9
$USERR5
 40
0.0
  9
$WORLDVIEW
 70
     1
  9
$SHADEDGE
 70
     3
  9
$SHADEDIF
 70
    70
  9
$TILEMODE
 70
     1
  9
$MAXACTVP
 70
    64
  9
$PINSBASE
 10
0.0
 20
0.0
 30
0.0
  9
$PLIMCHECK
 70
     0
  9
$PEXTMIN
 10
0.0
 20
0.0
 30
0.0
  9
$PEXTMAX
 10
0.0
 20
0.0
 30
0.0
  9
$PLIMMIN
 10
0.0
 20
0.0
  9
$PLIMMAX
 10
12.0
 20
9.0
  9
$UNITMODE
 70
     0
  9
$VISRETAIN
 70
     1
  9
$PLINEGEN
 70
     0
  9
$PSLTSCALE
 70
     1
  9
$TREEDEPTH
 70
  3020
  9
$CMLSTYLE
  2
Standard
  9
$CMLJUST
 70
     0
  9
$CMLSCALE
 40
20.0
  9
$PROXYGRAPHICS
 70
     1
  9
$MEASUREMENT
 70
     1
  9
$CELWEIGHT
370
    -1
  9
$ENDCAPS
280
     0
  9
$JOINSTYLE
280
     0
  9
$LWDISPLAY
290
     0
  9
$INSUNITS
 70
     4
  9
$HYPERLINKBASE
  1

  9
$STYLESHEET
  1

  9
$XEDIT
290
     1
  9
$CEPSNTYPE
380
     0
  9
$PSTYLEMODE
290
     1
  9
$FINGERPRINTGUID
  2
{B798DDB1-42CD-EA4D-841D-977DB1DCD70A}
  9
$VERSIONGUID
  2
{DFF021A1-3F7E-6442-B791-D50EB62D0F9E}
  9
$EXTNAMES
290
     1
  9
$PSVPSCALE
 40
0.0
  9
$OLESTARTUP
290
     0
  9
$SORTENTS
280
   127
  9
$INDEXCTL
280
     0
  9
$HIDETEXT
280
     1
  9
$XCLIPFRAME
290
     0
  9
$HALOGAP
280
     0
  9
$OBSCOLOR
 70
   257
  9
$OBSLTYPE
280
     0
  9
$INTERSECTIONDISPLAY
280
     0
  9
$INTERSECTIONCOLOR
 70
   257
  9
$DIMASSOC
280
     2
  9
$PROJECTNAME
  1

  0
ENDSEC
  0
SECTION
  2
CLASSES
  0
CLASS
  1
ACDBDICTIONARYWDFLT
  2
AcDbDictionaryWithDefault
  3
ObjectDBX Classes
 90
        0
 91
        1
280
     0
281
     0
  0
CLASS
  1
DICTIONARYVAR
  2
AcDbDictionaryVar
  3
ObjectDBX Classes
 90
        0
 91
       12
280
     0
281
     0
  0
CLASS
  1
TABLESTYLE
  2
AcDbTableStyle
  3
ObjectDBX Classes
 90
     4095
 91
        1
280
     0
281
     0
  0
CLASS
  1
MATERIAL
  2
AcDbMaterial
  3
ObjectDBX Classes
 90
     1153
 91
        3
280
     0
281
     0
  0
CLASS
  1
VISUALSTYLE
  2
AcDbVisualStyle
  3
ObjectDBX Classes
 90
     4095
 91
        3
280
     0
281
     0
  0
CLASS
  1
SCALE
  2
AcDbScale
  3
ObjectDBX Classes
 90
     1153
 91
       17
280
     0
281
     0
  0
CLASS
  1
MLEADERSTYLE
  2
AcDbMLeaderStyle
  3
ACDB_MLEADERSTYLE_CLASS
 90
     4095
 91
        0
280
     0
281
     0
  0
CLASS
  1
CELLSTYLEMAP
  2
AcDbCellStyleMap
  3
ObjectDBX Classes
 90
     1152
 91
        1
280
     0
281
     0
  0
CLASS
  1
EXACXREFPANELOBJECT
  2
ExAcXREFPanelObject
  3
EXAC_ESW
 90
     1025
 91
        0
280
     1
281
     0
  0
CLASS
  1
NPOCOLLECTION
  2
AcDbImpNonPersistentObjectsCollection
  3
ObjectDBX Classes
 90
     1153
 91
        0
280
     0
281
     0
  0
CLASS
  1
LAYER_INDEX
  2
AcDbLayerIndex
  3
ObjectDBX Classes
 90
        0
 91
        0
280
     0
281
     0
  0
CLASS
  1
SPATIAL_INDEX
  2
AcDbSpatialIndex
  3
ObjectDBX Classes
 90
        0
 91
        0
280
     0
281
     0
  0
CLASS
  1
IDBUFFER
  2
AcDbIdBuffer
  3
ObjectDBX Classes
 90
        0
 91
        0
280
     0
281
     0
  0
CLASS
  1
ACDBSECTIONVIEWSTYLE
  2
AcDbSectionViewStyle
  3
ObjectDBX Classes
 90
     1025
 91
        0
280
     0
281
     0
  0
CLASS
  1
ACDBDETAILVIEWSTYLE
  2
AcDbDetailViewStyle
  3
ObjectDBX Classes
 90
     1025
 91
        0
280
     0
281
     0
  0
CLASS
  1
SORTENTSTABLE
  2
AcDbSortentsTable
  3
ObjectDBX Classes
 90
        0
 91
        2
280
     0
281
     0
  0
CLASS
  1
SOLID_BACKGROUND
  2
AcDbSolidBackground
  3
SCENEOE
 90
     4095
 91
        0
280
     0
281
     0
  0
ENDSEC
  0
SECTION
  2
TABLES
  0
TABLE
  2
VPORT
  5
2A
330
0
100
AcDbSymbolTable
 70
     1
  0
VPORT
  5
2B
330
2A
100
AcDbSymbolTableRecord
100
AcDbViewportTableRecord
  2
*Active
 70
     0
 10
0.0
 20
0.0
 11
1.0
 21
1.0
 12
57.97857123866959
 22
19.9510972129646
 13
0.0
 23
0.0
 14
10.0
 24
10.0
 15
10.0
 25
10.0
 16
0.0
 26
0.0
 36
1.0
 17
0.0
 27
0.0
 37
0.0
 40
46.45919373594975
 41
2.326023391812865
 42
50.0
 43
0.0
 44
0.0
 50
0.0
 51
0.0
 71
     0
 72
  1000
 73
     1
 74
     3
 75
     0
 76
     1
 77
     0
 78
     0
281
     0
 65
     1
110
0.0
120
0.0
130
0.0
111
1.0
121
0.0
131
0.0
112
0.0
122
1.0
132
0.0
 79
     0
146
0.0
1001
ACAD_NAV_VCDISPLAY
1070
     3
  0
ENDTAB
  0
TABLE
  2
LTYPE
  5
25
330
0
100
AcDbSymbolTable
 70
     1
  0
LTYPE
  5
26
330
25
100
AcDbSymbolTableRecord
100
AcDbLinetypeTableRecord
  2
ByBlock
 70
     0
  3

 72
    65
 73
     0
 40
0.0
  0
LTYPE
  5
27
330
25
100
AcDbSymbolTableRecord
100
AcDbLinetypeTableRecord
  2
ByLayer
 70
     0
  3

 72
    65
 73
     0
 40
0.0
  0
LTYPE
  5
15
330
25
100
AcDbSymbolTableRecord
100
AcDbLinetypeTableRecord
  2
Continuous
 70
     0
  3
Solid line
 72
    65
 73
     0
 40
0.0
  0
ENDTAB
  0
TABLE
  2
LAYER
  5
1F
102
{ACAD_XDICTIONARY
360
20
102
}
330
0
100
AcDbSymbolTable
 70
     1
  0
LAYER
  5
6
102
{ACAD_XDICTIONARY
360
7
102
}
330
1F
100
AcDbSymbolTableRecord
100
AcDbLayerTableRecord
  2
0
 70
     0
 62
     7
  6
Continuous
370
    -3
390
8
  0
ENDTAB
  0
TABLE
  2
STYLE
  5
22
330
0
100
AcDbSymbolTable
 70
     1
  0
STYLE
  5
23
330
22
100
AcDbSymbolTableRecord
100
AcDbTextStyleTableRecord
  2
Standard
 70
     0
 40
0.0
 41
1.0
 50
0.0
 71
     0
 42
2.5
  3
arial.ttf
  4

1001
ACAD
1000
Arial
1071
       34
  0
ENDTAB
  0
TABLE
  2
VIEW
  5
28
330
0
100
AcDbSymbolTable
 70
     0
  0
ENDTAB
  0
TABLE
  2
UCS
  5
29
330
0
100
AcDbSymbolTable
 70
     0
  0
ENDTAB
  0
TABLE
  2
APPID
  5
2F
330
0
100
AcDbSymbolTable
 70
     6
  0
APPID
  5
14
330
2F
100
AcDbSymbolTableRecord
100
AcDbRegAppTableRecord
  2
ACAD
 70
     0
  0
APPID
  5
1A
330
2F
100
AcDbSymbolTableRecord
100
AcDbRegAppTableRecord
  2
ACAD_PSEXT
 70
     0
  0
APPID
  5
33
330
2F
100
AcDbSymbolTableRecord
100
AcDbRegAppTableRecord
  2
AcadAnnotative
 70
     0
  0
APPID
  5
34
330
2F
100
AcDbSymbolTableRecord
100
AcDbRegAppTableRecord
  2
ACAD_DSTYLE_DIMJAG
 70
     0
  0
APPID
  5
35
330
2F
100
AcDbSymbolTableRecord
100
AcDbRegAppTableRecord
  2
ACAD_DSTYLE_DIMTALN
 70
     0
  0
APPID
  5
2E
330
2F
100
AcDbSymbolTableRecord
100
AcDbRegAppTableRecord
  2
ACAD_NAV_VCDISPLAY
 70
     0
  0
ENDTAB
  0
TABLE
  2
DIMSTYLE
  5
30
330
0
100
AcDbSymbolTable
 70
     2
100
AcDbDimStyleTable
 71
     2
340
31
340
32
  0
DIMSTYLE
105
32
330
30
100
AcDbSymbolTableRecord
100
AcDbDimStyleTableRecord
  2
Annotative
 70
     0
 40
0.0
 41
2.5
 42
0.625
 43
3.75
 44
1.25
 73
     0
 74
     0
 77
     1
 78
     8
140
2.5
141
2.5
143
0.03937007874016
147
0.625
171
     3
172
     1
271
     2
272
     2
274
     3
278
    44
283
     0
284
     8
340
23
1001
AcadAnnotative
1000
AnnotativeData
1002
{
1070
     1
1070
     1
1002
}
1001
ACAD_DSTYLE_DIMJAG
1070
   388
1040
1.5
1001
ACAD_DSTYLE_DIMTALN
1070
   392
1070
     0
  0
DIMSTYLE
105
31
330
30
100
AcDbSymbolTableRecord
100
AcDbDimStyleTableRecord
  2
ISO-25
 70
     0
 41
2.5
 42
0.625
 43
3.75
 44
1.25
 73
     0
 74
     0
 77
     1
 78
     8
140
2.5
141
2.5
143
0.03937007874016
147
0.625
171
     3
172
     1
271
     2
272
     2
274
     3
278
    44
283
     0
284
     8
340
23
  0
ENDTAB
  0
TABLE
  2
BLOCK_RECORD
  5
1
330
0
100
AcDbSymbolTable
 70
     0
  0
BLOCK_RECORD
  5
2
102
{ACAD_XDICTIONARY
360
3
102
}
330
1
100
AcDbSymbolTableRecord
100
AcDbBlockTableRecord
  2
*Model_Space
340
17
  0
BLOCK_RECORD
  5
1B
330
1
100
AcDbSymbolTableRecord
100
AcDbBlockTableRecord
  2
*Paper_Space
340
1E
  0
ENDTAB
  0
ENDSEC
  0
SECTION
  2
BLOCKS
  0
BLOCK
  5
5
330
2
100
AcDbEntity
  8
0
100
AcDbBlockBegin
  2
*Model_Space
 70
     0
 10
0.0
 20
0.0
 30
0.0
  3
*Model_Space
  1

  0
ENDBLK
  5
16
330
2
100
AcDbEntity
  8
0
100
AcDbBlockEnd
  0
BLOCK
  5
1C
330
1B
100
AcDbEntity
 67
     1
  8
0
100
AcDbBlockBegin
  2
*Paper_Space
 70
     0
 10
0.0
 20
0.0
 30
0.0
  3
*Paper_Space
  1

  0
ENDBLK
  5
1D
330
1B
100
AcDbEntity
 67
     1
  8
0
100
AcDbBlockEnd
  0
ENDSEC
  0
SECTION
  2
ENTITIES
  0
SPLINE
  5
5C
330
2
100
AcDbEntity
  8
0
100
AcDbSpline
210
0.0
220
0.0
230
1.0
 70
     8
 71
     3
 72
    10
 73
     6
 74
     0
 42
0.000000001
 43
0.0000000001
 40
0.0
 40
0.0
 40
0.0
 40
0.0
 40
0.3852248288516202
 40
0.9303658622867883
 40
1.0
 40
1.0
 40
1.0
 40
1.0
 10
53.9700845946555
 20
22.32469845241032
 30
0.0
 10
53.9446166999529
 20
22.30432983969853
 30
0.0
 10
53.88310856745206
 20
22.25513710727353
 30
0.0
 10
53.82736936720272
 20
22.18485049636806
 30
0.0
 10
53.8126844435561
 20
22.13500028050576
 30
0.0
 10
53.81102111679297
 20
22.12935386380043
 30
0.0
  0
SPLINE
  5
5D
330
2
100
AcDbEntity
  8
0
100
AcDbSpline
210
0.0
220
0.0
230
1.0
 70
     8
 71
     3
 72
    10
 73
     6
 74
     0
 42
0.000000001
 43
0.0000000001
 40
0.0
 40
0.0
 40
0.0
 40
0.0
 40
0.178406816138169
 40
0.5961940725780117
 40
1.0
 40
1.0
 40
1.0
 40
1.0
 10
54.34591375576746
 20
22.34378205136144
 30
0.0
 10
54.33354587595953
 20
22.35340740763561
 30
0.0
 10
54.29221529907092
 20
22.38557310893181
 30
0.0
 10
54.20060603837079
 20
22.40155082004513
 30
0.0
 10
54.1277162833861
 20
22.38799240252249
 30
0.0
 10
54.09189160069728
 20
22.38132855784893
 30
0.0
  0
SPLINE
  5
5E
330
2
100
AcDbEntity
  8
0
100
AcDbSpline
210
0.0
220
0.0
230
1.0
 70
     8
 71
     3
 72
    12
 73
     8
 74
     0
 42
0.000000001
 43
0.0000000001
 40
0.0
 40
0.0
 40
0.0
 40
0.0
 40
0.0291081485275992
 40
0.324446051290663
 40
0.5915218762100177
 40
0.8482103367107132
 40
1.0
 40
1.0
 40
1.0
 40
1.0
 10
53.83719850881877
 20
22.18111277686904
 30
0.0
 10
53.83440747200785
 20
22.17758643280993
 30
0.0
 10
53.80329794020582
 20
22.13828099899364
 30
0.0
 10
53.77774350798166
 20
22.04811857803683
 30
0.0
 10
53.77162777721593
 20
21.92891653017432
 30
0.0
 10
53.79807367370553
 20
21.8313615790761
 30
0.0
 10
53.83742056571392
 20
21.7882863498999
 30
0.0
 10
53.85204179300027
 20
21.77227967989246
 30
0.0
  0
LINE
  5
5F
330
2
100
AcDbEntity
  8
0
100
AcDbLine
 10
54.43448264465347
 20
22.29004386329134
 30
0.0
 11
54.34591375576746
 21
22.34378205136144
 31
0.0
  0
LINE
  5
60
330
2
100
AcDbEntity
  8
0
100
AcDbLine
 10
53.85204179300027
 20
21.77227967989246
 30
0.0
 11
53.91786957201954
 21
21.69351157368814
 31
0.0
  0
SPLINE
  5
61
330
2
100
AcDbEntity
  8
0
100
AcDbSpline
210
0.0
220
0.0
230
1.0
 70
     8
 71
     3
 72
     9
 73
     5
 74
     0
 42
0.000000001
 43
0.0000000001
 40
0.0
 40
0.0
 40
0.0
 40
0.0
 40
0.0304439907759075
 40
1.0
 40
1.0
 40
1.0
 40
1.0
 10
41.71501049817707
 20
18.80062697466885
 30
0.0
 10
41.71380207312824
 20
18.80020131995718
 30
0.0
 10
41.67410868806238
 20
18.78621975246761
 30
0.0
 10
41.64222771476557
 20
18.75625719448778
 30
0.0
 10
41.61131732552577
 20
18.72720681634676
 30
0.0
  0
SPLINE
  5
62
330
2
100
AcDbEntity
  8
0
100
AcDbSpline
210
0.0
220
0.0
230
1.0
 70
     8
 71
     3
 72
     9
 73
     5
 74
     0
 42
0.000000001
 43
0.0000000001
 40
0.0
 40
0.0
 40
0.0
 40
0.0
 40
0.558387413646741
 40
1.0
 40
1.0
 40
1.0
 40
1.0
 10
41.61131732552577
 20
18.72720681634676
 30
0.0
 10
41.5882059429609
 20
18.7036397639234
 30
0.0
 10
41.54681643094821
 20
18.66143420583345
 30
0.0
 10
41.52510680037961
 20
18.60704523571378
 30
0.0
 10
41.51551955427543
 20
18.58302638195013
 30
0.0
  0
SPLINE
  5
63
330
2
100
AcDbEntity
  8
0
100
AcDbSpline
210
0.0
220
0.0
230
1.0
 70
     8
 71
     3
 72
    10
 73
     6
 74
     0
 42
0.000000001
 43
0.0000000001
 40
0.0
 40
0.0
 40
0.0
 40
0.0
 40
0.3341848966245098
 40
0.6760545672849795
 40
1.0
 40
1.0
 40
1.0
 40
1.0
 10
42.03679719448049
 20
18.8031100081359
 30
0.0
 10
42.00409052948869
 20
18.81791430818559
 30
0.0
 10
41.93792509091953
 20
18.84786334168508
 30
0.0
 10
41.82565212938569
 20
18.84597962983851
 30
0.0
 10
41.7563081258149
 20
18.81737138744418
 30
0.0
 10
41.72256952011339
 20
18.80345234383182
 30
0.0
  0
SPLINE
  5
64
330
2
100
AcDbEntity
  8
0
100
AcDbSpline
210
0.0
220
0.0
230
1.0
 70
     8
 71
     3
 72
    11
 73
     7
 74
     0
 42
0.000000001
 43
0.0000000001
 40
0.0
 40
0.0
 40
0.0
 40
0.0
 40
0.1174437488512791
 40
0.4532904660140817
 40
0.7450588621110571
 40
1.0
 40
1.0
 40
1.0
 40
1.0
 10
41.51953810931344
 20
18.59413108575407
 30
0.0
 10
41.51136361445071
 20
18.58018578185714
 30
0.0
 10
41.4798130157856
 20
18.52636194394345
 30
0.0
 10
41.46824931526079
 20
18.42534073200039
 30
0.0
 10
41.48355226847482
 20
18.31018428278073
 30
0.0
 10
41.52377405674974
 20
18.25271084989982
 30
0.0
 10
41.54253024780419
 20
18.22590988619571
 30
0.0
  0
LINE
  5
65
330
2
100
AcDbEntity
  8
0
100
AcDbLine
 10
42.09235024937528
 20
18.76799321877713
 30
0.0
 11
42.04956073188689
 21
18.79612313452362
 31
0.0
  0
LINE
  5
66
330
2
100
AcDbEntity
  8
0
100
AcDbLine
 10
41.54788800569602
 20
18.21684115830021
 30
0.0
 11
41.58184366610861
 21
18.17850996311876
 31
0.0
  0
LINE
  5
67
330
2
100
AcDbEntity
  8
0
100
AcDbLine
 10
53.91786957201954
 20
21.69351157368814
 30
0.0
 11
53.96808748625727
 21
21.65002158423352
 31
0.0
  0
LINE
  5
68
330
2
100
AcDbEntity
  8
0
100
AcDbLine
 10
54.48470055886247
 20
22.2465538738367
 30
0.0
 11
54.43448264465347
 21
22.29004386329134
 31
0.0
  0
LINE
  5
69
330
2
100
AcDbEntity
  8
0
100
AcDbLine
 10
58.80333105810739
 20
23.12894111735193
 30
0.0
 11
58.74120243562411
 21
23.11100612888214
 31
0.0
  0
LINE
  5
6A
330
2
100
AcDbEntity
  8
0
100
AcDbLine
 10
62.77365028051381
 20
23.77292682425946
 30
0.0
 11
62.74390062833916
 21
23.79869077879649
 31
0.0
  0
LINE
  5
6B
330
2
100
AcDbEntity
  8
0
100
AcDbLine
 10
62.34863637770256
 20
24.14099966105583
 30
0.0
 11
62.24675146462576
 21
24.22923458404277
 31
0.0
  0
LINE
  5
6C
330
2
100
AcDbEntity
  8
0
100
AcDbLine
 10
62.18089118144006
 20
24.28627126238206
 30
0.0
 11
58.75622088341749
 21
27.25212274005766
 31
0.0
  0
LINE
  5
6D
330
2
100
AcDbEntity
  8
0
100
AcDbLine
 10
58.62723100911498
 20
27.24888315717598
 30
0.0
 11
36.5094849161499
 21
20.86403982686982
 31
0.0
  0
LINE
  5
6E
330
2
100
AcDbEntity
  8
0
100
AcDbLine
 10
58.69816146324879
 20
21.14826290907467
 30
0.0
 11
62.64385090652332
 21
17.73119561573108
 31
0.0
  0
LINE
  5
6F
330
2
100
AcDbEntity
  8
0
100
AcDbLine
 10
63.88086839982904
 20
18.10825470093316
 30
0.0
 11
63.88086839982904
 21
18.17038332341645
 31
0.0
  0
LINE
  5
70
330
2
100
AcDbEntity
  8
0
100
AcDbLine
 10
37.28026039704154
 20
11.61793126039543
 30
0.0
 11
61.59719623207365
 21
18.63762598552068
 31
0.0
  0
LINE
  5
71
330
2
100
AcDbEntity
  8
0
100
AcDbLine
 10
32.08238999190778
 20
13.4642051588192
 30
0.0
 11
32.08238999190778
 21
13.40207653633591
 31
0.0
  0
LINE
  5
72
330
2
100
AcDbEntity
  8
0
100
AcDbLine
 10
82.04114976577306
 20
32.25514321794249
 30
0.0
 11
79.50745017673281
 21
32.9287393739351
 31
0.0
  0
LINE
  5
73
330
2
100
AcDbEntity
  8
0
100
AcDbLine
 10
81.9930303265324
 20
31.84879590251712
 30
0.0
 11
82.01292709160208
 21
31.87402155146491
 31
0.0
  0
LINE
  5
74
330
2
100
AcDbEntity
  8
0
100
AcDbLine
 10
68.96454948287523
 20
19.61358843749852
 30
0.0
 11
68.98444598069978
 21
19.62578248079754
 31
0.0
  0
LINE
  5
75
330
2
100
AcDbEntity
  8
0
100
AcDbLine
 10
68.96454948287523
 20
19.61358843749852
 30
0.0
 11
68.98444598069978
 21
19.62578248079754
 31
0.0
  0
LINE
  5
76
330
2
100
AcDbEntity
  8
0
100
AcDbLine
 10
82.04114976577306
 20
32.25514321794249
 30
0.0
 11
79.50745017673281
 21
32.9287393739351
 31
0.0
  0
LINE
  5
77
330
2
100
AcDbEntity
  8
0
100
AcDbLine
 10
81.9930303265324
 20
31.84879590251712
 30
0.0
 11
82.01292709160208
 21
31.87402155146491
 31
0.0
  0
LINE
  5
78
330
2
100
AcDbEntity
  8
0
100
AcDbLine
 10
77.94138425578276
 20
29.63621167088911
 30
0.0
 11
77.94138425578276
 21
34.11448655087511
 31
0.0
  0
SPLINE
  5
79
330
2
100
AcDbEntity
  8
0
100
AcDbSpline
210
0.0
220
0.0
230
1.0
 70
     8
 71
     3
 72
    11
 73
     7
 74
     0
 42
0.000000001
 43
0.0000000001
 40
0.0
 40
0.0
 40
0.0
 40
0.0
 40
0.1879883906709527
 40
0.5137232285899182
 40
0.8123528292435111
 40
1.0
 40
1.0
 40
1.0
 40
1.0
 10
76.81018945235344
 20
36.04415451393558
 30
0.0
 10
76.78803761468433
 20
36.06212291149424
 30
0.0
 10
76.72750242138885
 20
36.11122585435944
 30
0.0
 10
76.6270840011243
 20
36.1607039884002
 30
0.0
 10
76.52021365546072
 20
36.18457964513832
 30
0.0
 10
76.45886706177345
 20
36.16946646750027
 30
0.0
 10
76.42138971152928
 20
36.1647510948003
 30
0.0
  0
LINE
  5
7A
330
2
100
AcDbEntity
  8
0
100
AcDbLine
 10
76.42138971152928
 20
36.1647510948003
 30
0.0
 11
76.35926108904602
 21
36.14681610633051
 31
0.0
  0
LINE
  5
7B
330
2
100
AcDbEntity
  8
0
100
AcDbLine
 10
77.02540888792154
 20
35.85776901534782
 30
0.0
 11
76.81018945236107
 21
36.04415451394029
 31
0.0
  0
LINE
  5
7C
330
2
100
AcDbEntity
  8
0
100
AcDbLine
 10
74.81124041973311
 20
30.01704524900571
 30
0.0
 11
74.84711026303576
 21
29.98598105348038
 31
0.0
  0
LINE
  5
7D
330
2
100
AcDbEntity
  8
0
100
AcDbLine
 10
73.73218198646309
 20
36.87952754652471
 30
0.0
 11
73.63898928418516
 21
36.85262513063849
 31
0.0
  0
SPLINE
  5
7E
330
2
100
AcDbEntity
  8
0
100
AcDbSpline
210
0.0
220
0.0
230
1.0
 70
     8
 71
     3
 72
    13
 73
     9
 74
     0
 42
0.000000001
 43
0.0000000001
 40
0.0
 40
0.0
 40
0.0
 40
0.0
 40
0.0682813755680727
 40
0.2399576333842559
 40
0.4120076354124342
 40
0.5976252281947545
 40
0.7970297021613752
 40
1.0
 40
1.0
 40
1.0
 40
1.0
 10
73.66051861103949
 20
36.85292850073021
 30
0.0
 10
73.64507799595887
 20
36.85082459975296
 30
0.0
 10
73.59081585753637
 20
36.84343097161964
 30
0.0
 10
73.51114686214156
 20
36.78664334466783
 30
0.0
 10
73.43206013005897
 20
36.69112962127174
 30
0.0
 10
73.37465277405534
 20
36.56056425046326
 30
0.0
 10
73.33677453795974
 20
36.39784380576492
 30
0.0
 10
73.33201793291562
 20
36.26650380241037
 30
0.0
 10
73.32961855400281
 20
36.20025183666357
 30
0.0
  0
SPLINE
  5
7F
330
2
100
AcDbEntity
  8
0
100
AcDbSpline
210
0.0
220
0.0
230
1.0
 70
     8
 71
     3
 72
    11
 73
     7
 74
     0
 42
0.000000001
 43
0.0000000001
 40
0.0
 40
0.0
 40
0.0
 40
0.0
 40
0.1879882756085025
 40
0.5137232954322199
 40
0.8123527438023533
 40
1.0
 40
1.0
 40
1.0
 40
1.0
 10
75.53363490536094
 20
36.50402493270764
 30
0.0
 10
75.51148307348089
 20
36.52199331590303
 30
0.0
 10
75.45094785107704
 20
36.57109625596068
 30
0.0
 10
75.35052959085098
 20
36.6205744993103
 30
0.0
 10
75.24365874705601
 20
36.64444988371615
 30
0.0
 10
75.1823124001702
 20
36.62933685946896
 30
0.0
 10
75.15863971841778
 20
36.62350495860636
 30
0.0
  0
LINE
  5
80
330
2
100
AcDbEntity
  8
0
100
AcDbLine
 10
75.14483519793022
 20
36.62462148464654
 30
0.0
 11
75.05164249565225
 21
36.59771906876029
 31
0.0
  0
LINE
  5
81
330
2
100
AcDbEntity
  8
0
100
AcDbLine
 10
78.09962581229095
 20
29.89164873295188
 30
0.0
 11
78.09962581229095
 21
33.33178709478032
 31
0.0
  0
LINE
  5
82
330
2
100
AcDbEntity
  8
0
100
AcDbLine
 10
76.1716805582228
 20
35.95146118853758
 30
0.0
 11
75.53363490535996
 21
36.50402493271198
 31
0.0
  0
SPLINE
  5
83
330
2
100
AcDbEntity
  8
0
100
AcDbSpline
210
0.0
220
0.0
230
1.0
 70
     8
 71
     3
 72
     9
 73
     5
 74
     0
 42
0.000000001
 43
0.0000000001
 40
0.0
 40
0.0
 40
0.0
 40
0.0
 40
0.7487670789459279
 40
1.0
 40
1.0
 40
1.0
 40
1.0
 10
78.00177874137152
 20
33.9501224201328
 30
0.0
 10
77.9889248187045
 20
33.99723700790556
 30
0.0
 10
77.97175803476259
 20
34.06015989687528
 30
0.0
 10
77.94703905691867
 20
34.11804779341587
 30
0.0
 10
77.94082883590945
 20
34.13259113875746
 30
0.0
  0
SPLINE
  5
84
330
2
100
AcDbEntity
  8
0
100
AcDbSpline
210
0.0
220
0.0
230
1.0
 70
     8
 71
     3
 72
    11
 73
     7
 74
     0
 42
0.000000001
 43
0.0000000001
 40
0.0
 40
0.0
 40
0.0
 40
0.0
 40
0.1823949509310294
 40
0.5301344911159821
 40
0.8763525928643282
 40
1.0
 40
1.0
 40
1.0
 40
1.0
 10
78.09962581227688
 20
33.33178709477738
 30
0.0
 10
78.09898659727148
 20
33.3672869347291
 30
0.0
 10
78.09712870636023
 20
33.47046791365122
 30
0.0
 10
78.07488003462754
 20
33.65222234646349
 30
0.0
 10
78.04127244785604
 20
33.82688760715764
 30
0.0
 10
78.01000652255905
 20
33.9244487327
 30
0.0
 10
78.00177874137152
 20
33.9501224201328
 30
0.0
  0
LINE
  5
85
330
2
100
AcDbEntity
  8
0
100
AcDbLine
 10
70.67285522689658
 20
34.77060625348463
 30
0.0
 11
70.67285522689658
 21
29.11576288958997
 31
0.0
  0
SPLINE
  5
86
330
2
100
AcDbEntity
  8
0
100
AcDbSpline
210
0.0
220
0.0
230
1.0
 70
     8
 71
     3
 72
    11
 73
     7
 74
     0
 42
0.000000001
 43
0.0000000001
 40
0.0
 40
0.0
 40
0.0
 40
0.0
 40
0.0615144683829876
 40
0.4379837727788095
 40
0.7831259404656309
 40
1.0
 40
1.0
 40
1.0
 40
1.0
 10
71.68110947925619
 20
36.10536838511021
 30
0.0
 10
71.67481513041065
 20
36.11032019945169
 30
0.0
 10
71.62999928908056
 20
36.14557717857181
 30
0.0
 10
71.54581055447204
 20
36.18427208822155
 30
0.0
 10
71.43907513384164
 20
36.20895985469108
 30
0.0
 10
71.37771681782408
 20
36.19377501481219
 30
0.0
 10
71.35403951735409
 20
36.18791540131994
 30
0.0
  0
LINE
  5
87
330
2
100
AcDbEntity
  8
0
100
AcDbLine
 10
71.34023488115701
 20
36.18903189394092
 30
0.0
 11
71.24704217887906
 21
36.16212947808338
 31
0.0
  0
SPLINE
  5
88
330
2
100
AcDbEntity
  8
0
100
AcDbSpline
210
0.0
220
0.0
230
1.0
 70
     8
 71
     3
 72
    13
 73
     9
 74
     0
 42
0.000000001
 43
0.0000000001
 40
0.018117231278195
 40
0.018117231278195
 40
0.018117231278195
 40
0.018117231278195
 40
0.0682813607393682
 40
0.2399576565967162
 40
0.4120075410240191
 40
0.5976252459462402
 40
0.7970296788197447
 40
1.0
 40
1.0
 40
1.0
 40
1.0
 10
70.99147641043467
 20
35.42156950338416
 30
0.0
 10
70.98016564461909
 20
35.41991629491756
 30
0.0
 10
70.93054929245944
 20
35.41128842906271
 30
0.0
 10
70.85438333084161
 20
35.35699797521515
 30
0.0
 10
70.77529683124378
 20
35.26148383598822
 30
0.0
 10
70.71788938428077
 20
35.13091901473175
 30
0.0
 10
70.68001140018099
 20
34.96819815848947
 30
0.0
 10
70.67525466955093
 20
34.8368582047539
 30
0.0
 10
70.6728552269069
 20
34.77060625349472
 30
0.0
  0
LINE
  5
89
330
2
100
AcDbEntity
  8
0
100
AcDbLine
 10
71.64253784727671
 20
35.79607159560069
 30
0.0
 11
71.64253784727671
 21
29.70747862722322
 31
0.0
  0
SPLINE
  5
8A
330
2
100
AcDbEntity
  8
0
100
AcDbSpline
210
0.0
220
0.0
230
1.0
 70
     8
 71
     3
 72
    11
 73
     7
 74
     0
 42
0.000000001
 43
0.0000000001
 40
0.0
 40
0.0
 40
0.0
 40
0.0
 40
0.1879884777688069
 40
0.5137232892134433
 40
0.812352741402616
 40
1.0
 40
1.0
 40
1.0
 40
1.0
 10
73.27263571274379
 20
36.59687261331181
 30
0.0
 10
73.25048388006371
 20
36.61484102446568
 30
0.0
 10
73.18994872130517
 20
36.66394398752737
 30
0.0
 10
73.08953049364972
 20
36.71342221902528
 30
0.0
 10
72.9826596690919
 20
36.73729759780285
 30
0.0
 10
72.92131332297839
 20
36.72218457350075
 30
0.0
 10
72.89764064152393
 20
36.71635267261696
 30
0.0
  0
LINE
  5
8B
330
2
100
AcDbEntity
  8
0
100
AcDbLine
 10
72.8838359763831
 20
36.71746915689841
 30
0.0
 11
72.79064324517967
 21
36.69056673266164
 31
0.0
  0
LINE
  5
8C
330
2
100
AcDbEntity
  8
0
100
AcDbLine
 10
72.04510127976405
 20
36.47534730545171
 30
0.0
 11
71.95190854853191
 21
36.44844488121496
 31
0.0
  0
SPLINE
  5
8D
330
2
100
AcDbEntity
  8
0
100
AcDbSpline
210
0.0
220
0.0
230
1.0
 70
     8
 71
     3
 72
    13
 73
     9
 74
     0
 42
0.000000001
 43
0.0000000001
 40
0.0
 40
0.0
 40
0.0
 40
0.0
 40
0.0682813681940211
 40
0.2399576400680132
 40
0.4120076511094359
 40
0.5976252536157714
 40
0.7970296741004094
 40
1.0
 40
1.0
 40
1.0
 40
1.0
 10
71.95190854853191
 20
36.44844488121496
 30
0.0
 10
71.94030890959083
 20
36.44491725424219
 30
0.0
 10
71.90373515943362
 20
36.43925073280251
 30
0.0
 10
71.82406607014056
 20
36.3824630846381
 30
0.0
 10
71.74497938893757
 20
36.28694935115307
 30
0.0
 10
71.68757194484071
 20
36.1563840671939
 30
0.0
 10
71.64969406059597
 20
35.99366333595045
 30
0.0
 10
71.64493730341743
 20
35.86232349351428
 30
0.0
 10
71.64253784727998
 20
35.79607159559465
 30
0.0
  0
LINE
  5
8E
330
2
100
AcDbEntity
  8
0
100
AcDbLine
 10
73.36904993895075
 20
36.51337544413418
 30
0.0
 11
73.27263571273833
 21
36.59687261331435
 31
0.0
  0
LINE
  5
8F
330
2
100
AcDbEntity
  8
0
100
AcDbLine
 10
79.19280773416473
 20
27.24328960537303
 30
0.0
 11
79.19280773416473
 21
27.58983287606818
 31
0.0
  0
LINE
  5
90
330
2
100
AcDbEntity
  8
0
100
AcDbLine
 10
68.29614067784655
 20
23.42232471297461
 30
0.0
 11
68.31118492818204
 21
23.27359649099702
 31
0.0
  0
LINE
  5
91
330
2
100
AcDbEntity
  8
0
100
AcDbLine
 10
80.46129588272943
 20
23.27359652594865
 30
0.0
 11
80.47634034463994
 21
23.42232472545735
 31
0.0
  0
LINE
  5
92
330
2
100
AcDbEntity
  8
0
100
AcDbLine
 10
75.80733038896494
 20
26.53416560320299
 30
0.0
 11
75.76730579276524
 21
28.56374352062654
 31
0.0
  0
LINE
  5
93
330
2
100
AcDbEntity
  8
0
100
AcDbLine
 10
79.27329006756647
 20
25.39985395355356
 30
0.0
 11
79.19166298686223
 21
27.26951101764048
 31
0.0
  0
LINE
  5
94
330
2
100
AcDbEntity
  8
0
100
AcDbLine
 10
77.91436789108221
 20
26.05951192449456
 30
0.0
 11
77.89636486745104
 21
26.7832524871786
 31
0.0
  0
SPLINE
  5
95
330
2
100
AcDbEntity
  8
0
100
AcDbSpline
210
0.0
220
0.0
230
1.0
 70
     8
 71
     3
 72
    12
 73
     8
 74
     0
 42
0.000000001
 43
0.0000000001
 40
0.0
 40
0.0
 40
0.0
 40
0.0
 40
0.2172996888766184
 40
0.4484507993344711
 40
0.6939463816800316
 40
0.9509289809439568
 40
1.0
 40
1.0
 40
1.0
 40
1.0
 10
75.76710700729084
 20
28.56382330694371
 30
0.0
 10
75.76526844653878
 20
28.57863161463029
 30
0.0
 10
75.76147412891616
 20
28.60919216192407
 30
0.0
 10
75.73431374772329
 20
28.65183576773331
 30
0.0
 10
75.69306553534746
 20
28.68534209967526
 30
0.0
 10
75.62411846676082
 20
28.69917584323
 30
0.0
 10
75.62411846676082
 20
28.69917584323001
 30
0.0
 10
75.62411846676082
 20
28.69917584323
 30
0.0
  0
LINE
  5
96
330
2
100
AcDbEntity
  8
0
100
AcDbLine
 10
75.43457050051721
 20
28.72106197395917
 30
0.0
 11
75.40913411984212
 21
29.50830691731862
 31
0.0
  0
LINE
  5
97
330
2
100
AcDbEntity
  8
0
100
AcDbLine
 10
77.1884452519777
 20
28.90097719945408
 30
0.0
 11
77.10492266081509
 21
28.82243573558554
 31
0.0
  0
LINE
  5
98
330
2
100
AcDbEntity
  8
0
100
AcDbLine
 10
53.9709352670821
 20
22.32523178576744
 30
0.0
 11
54.08755662299747
 21
22.38013918527854
 31
0.0
  0
LINE
  5
99
330
2
100
AcDbEntity
  8
0
100
AcDbLine
 10
41.71405575594604
 20
18.8006923624422
 30
0.0
 11
41.72134725233628
 21
18.80435394654003
 31
0.0
  0
LINE
  5
9A
330
2
100
AcDbEntity
  8
0
100
AcDbLine
 10
42.03986589311567
 20
18.80214259437793
 30
0.0
 11
42.04956073188689
 21
18.79612313452362
 31
0.0
  0
LINE
  5
9B
330
2
100
AcDbEntity
  8
0
100
AcDbLine
 10
41.54788800569602
 20
18.21684115830021
 30
0.0
 11
41.54262953699386
 21
18.22300257017263
 31
0.0
  0
LWPOLYLINE
  5
9C
330
2
100
AcDbEntity
  8
0
100
AcDbPolyline
 90
        6
 70
   128
 43
0.0
 10
42.0468033932377
 20
18.22561435380096
 10
42.13626216615408
 20
18.3383239628803
 10
42.18829508420191
 20
18.46667984839098
 10
42.19587172291486
 20
18.5933446177963
 10
42.15797186525434
 20
18.7012133241764
 10
42.09235024937528
 20
18.76799321877713
  0
ARC
  5
9D
330
2
100
AcDbEntity
  8
0
100
AcDbCircle
 10
41.79179241980974
 20
18.42446305444323
 30
0.0
 40
0.3233750180733726
100
AcDbArc
 50
229.5154980495004
 51
322.0541318141987
  0
LWPOLYLINE
  5
9E
330
2
100
AcDbEntity
  8
0
100
AcDbPolyline
 90
       11
 70
   128
 43
0.0
 10
53.96808748625727
 20
21.65002158423352
 10
53.97505495726253
 20
21.64423177788269
 10
54.07565464783964
 20
21.59811148465164
 10
54.19661238884778
 20
21.59928405006922
 10
54.32159359904698
 20
21.64759173482549
 10
54.43371563140356
 20
21.73650979786119
 10
54.51783816952192
 20
21.85402986567551
 10
54.56259995851289
 20
21.98428013813613
 10
54.56195561095186
 20
22.10966923342418
 10
54.51599029918032
 20
22.21326271421823
 10
54.48470055886247
 20
22.2465538738367
  0
LWPOLYLINE
  5
9F
330
2
100
AcDbEntity
  8
0
100
AcDbPolyline
 90
       14
 70
   128
 43
0.0
 10
53.82167431294877
 20
21.67227011664453
 10
53.89529102311735
 20
21.57073433474391
 10
54.00478752428873
 20
21.51011221064638
 10
54.13829708196502
 20
21.49697290687281
 10
54.28135520409971
 20
21.5327409682031
 10
54.4184568143315
 20
21.61353991159016
 10
54.53474488701179
 20
21.73061396211091
 10
54.61761946461743
 20
21.87127625988087
 10
54.6580967125508
 20
22.02028344526019
 10
54.65179395641124
 20
22.16148925297296
 10
54.59939257521757
 20
22.27959178441302
 10
54.50656949330594
 20
22.36179171925303
 10
54.38338616096025
 20
22.39918236080877
 10
54.25539984697543
 20
22.39059227941863
  0
LWPOLYLINE
  5
A0
330
2
100
AcDbEntity
  8
0
100
AcDbPolyline
 90
        3
 70
   128
 43
0.0
 10
53.79254906205449
 20
21.8533301924603
 10
53.79191582391932
 20
21.80371686080954
 10
53.82167431294877
 20
21.67227011664453
  0
LWPOLYLINE
  5
A1
330
2
100
AcDbEntity
  8
0
100
AcDbPolyline
 90
       14
 70
   128
 43
0.0
 10
41.56260994514187
 20
18.05205454654422
 10
41.66033784521594
 20
17.97564577887309
 10
41.78674106384845
 20
17.94491572123353
 10
41.92811980883479
 20
17.96319367436902
 10
42.06915601273593
 20
18.02849991854926
 10
42.1945649364192
 20
18.13375632666833
 10
42.29075788208206
 20
18.26755797116693
 10
42.34731049102204
 20
18.41540473380862
 10
42.35809220341574
 20
18.56127485042642
 10
42.32193652799774
 20
18.68936122462821
 10
42.24276324577393
 20
18.78578423058796
 10
42.12914884519125
 20
18.84009431567296
 10
41.99340628990301
 20
18.84640660471307
 10
41.95102747598837
 20
18.83881154938692
  0
ARC
  5
A2
330
2
100
AcDbEntity
  8
0
100
AcDbCircle
 10
41.8595057984224
 20
18.27244654290275
 30
0.0
 40
0.3697563789275633
100
AcDbArc
 50
173.7693770479997
 51
216.5872708829995
  0
LWPOLYLINE
  5
A3
330
2
100
AcDbEntity
  8
0
100
AcDbPolyline
 90
        4
 70
   128
 43
0.0
 10
58.84312509045412
 20
23.11534755914868
 10
58.82912939076589
 20
23.1250805866269
 10
58.81567153495299
 20
23.12966427249866
 10
58.803268654862
 20
23.12892294878632
  0
LINE
  5
A4
330
2
100
AcDbEntity
  8
0
100
AcDbLine
 10
58.84312509045412
 20
23.11534755914868
 30
0.0
 11
58.98660473088127
 21
22.99109054564344
 31
0.0
  0
LWPOLYLINE
  5
A5
330
2
100
AcDbEntity
  8
0
100
AcDbPolyline
 90
        3
 70
   128
 43
0.0
 10
58.98660473088127
 20
22.99109054564344
 10
59.08766191933088
 20
22.92873857710671
 10
59.15996530585108
 20
22.92331392559671
  0
LINE
  5
A6
330
2
100
AcDbEntity
  8
0
100
AcDbLine
 10
62.78881466736558
 20
23.73663181673248
 30
0.0
 11
62.78881466736558
 21
19.135352744126
 31
0.0
  0
ARC
  5
A7
330
2
100
AcDbEntity
  8
0
100
AcDbCircle
 10
58.98125763981282
 20
22.34956473808443
 30
0.0
 40
0.2720107638106026
100
AcDbArc
 50
179.5143398835012
 51
222.5891566897995
  0
LINE
  5
A8
330
2
100
AcDbEntity
  8
0
100
AcDbLine
 10
58.70925664775728
 20
23.03528383249365
 30
0.0
 11
58.70925664775728
 21
22.35187037383066
 31
0.0
  0
LINE
  5
A9
330
2
100
AcDbEntity
  8
0
100
AcDbLine
 10
58.78099646797085
 20
22.16548508497671
 30
0.0
 11
59.21143538922354
 21
21.79271404440359
 31
0.0
  0
LINE
  5
AA
330
2
100
AcDbEntity
  8
0
100
AcDbLine
 10
36.49351208903494
 20
16.29079890010251
 30
0.0
 11
36.49351208903494
 21
20.82617862081024
 31
0.0
  0
LINE
  5
AB
330
2
100
AcDbEntity
  8
0
100
AcDbLine
 10
54.75929191995527
 20
23.61391572728008
 30
0.0
 11
53.76523581174113
 21
23.32695644642583
 31
0.0
  0
LINE
  5
AC
330
2
100
AcDbEntity
  8
0
100
AcDbLine
 10
54.75929191995527
 20
23.98668653639191
 30
0.0
 11
54.75929191995527
 21
23.61391572728008
 31
0.0
  0
LINE
  5
AD
330
2
100
AcDbEntity
  8
0
100
AcDbLine
 10
54.75929191995527
 20
23.98668653639191
 30
0.0
 11
53.76523581174113
 21
23.69972725556633
 31
0.0
  0
LINE
  5
AE
330
2
100
AcDbEntity
  8
0
100
AcDbLine
 10
53.76523581174113
 20
23.69972725556633
 30
0.0
 11
53.76523581174113
 21
23.32695644642583
 31
0.0
  0
LINE
  5
AF
330
2
100
AcDbEntity
  8
0
100
AcDbLine
 10
42.45784873820503
 20
20.06279496107353
 30
0.0
 11
41.46379263001957
 21
19.77583568024796
 31
0.0
  0
LINE
  5
B0
330
2
100
AcDbEntity
  8
0
100
AcDbLine
 10
42.45784873820503
 20
20.43556577018533
 30
0.0
 11
42.45784873820503
 21
20.06279496107353
 31
0.0
  0
LINE
  5
B1
330
2
100
AcDbEntity
  8
0
100
AcDbLine
 10
42.45784873820503
 20
20.43556577018533
 30
0.0
 11
41.46379263001957
 21
20.14860648935977
 31
0.0
  0
LINE
  5
B2
330
2
100
AcDbEntity
  8
0
100
AcDbLine
 10
41.46379263001957
 20
20.14860648935977
 30
0.0
 11
41.46379263001957
 21
19.77583568024796
 31
0.0
  0
LWPOLYLINE
  5
B3
330
2
100
AcDbEntity
  8
0
100
AcDbPolyline
 90
        7
 70
   128
 43
0.0
 10
58.74120243562411
 20
23.11100612888214
 10
58.7411400323787
 20
23.11098796031651
 10
58.73026877128562
 20
23.10494997919499
 10
58.72134711071043
 20
23.09384678734735
 10
58.71471753360035
 20
23.07810575109434
 10
58.71063513159143
 20
23.05833129344494
 10
58.70925664775728
 20
23.03528383249365
  0
ARC
  5
B4
330
2
100
AcDbEntity
  8
0
100
AcDbCircle
 10
58.60493887123965
 20
21.20749145198233
 30
0.0
 40
0.8428069227252187
100
AcDbArc
 50
13.13109163540019
 51
43.97729533529921
  0
ARC
  5
B5
330
2
100
AcDbEntity
  8
0
100
AcDbCircle
 10
57.35225908501647
 20
22.33048041937232
 30
0.0
 40
0.1767722804887935
100
AcDbArc
 50
287.2089174333
 51
357.1688175608991
  0
LINE
  5
B6
330
2
100
AcDbEntity
  8
0
100
AcDbLine
 10
57.40455835291459
 20
22.16162182251456
 30
0.0
 11
36.65364102885123
 21
16.17134797104046
 31
0.0
  0
LINE
  5
B7
330
2
100
AcDbEntity
  8
0
100
AcDbLine
 10
57.52881559788118
 20
23.93708998878587
 30
0.0
 11
57.52881559788118
 21
22.32174904442071
 31
0.0
  0
LWPOLYLINE
  5
B8
330
2
100
AcDbEntity
  8
0
100
AcDbPolyline
 90
        8
 70
   128
 43
0.0
 10
59.15996530585106
 20
22.92331392559671
 10
59.19556278144447
 20
22.95281741112463
 10
59.25076026135885
 20
23.05377873714043
 10
59.27952415152049
 20
23.19854157983077
 10
59.27952415152049
 20
23.3753779570344
 10
59.25076026135885
 20
23.56996085603271
 10
59.19556278144447
 20
23.76652794748016
 10
59.16986226771
 20
23.82735734568969
  0
LWPOLYLINE
  5
B9
330
2
100
AcDbEntity
  8
0
100
AcDbPolyline
 90
        3
 70
   128
 43
0.0
 10
59.02810735916292
 20
24.09877572870414
 10
59.0255332968476
 20
24.10304101318935
 10
58.94024401928567
 20
24.19814354901012
  0
ARC
  5
BA
330
2
100
AcDbEntity
  8
0
100
AcDbCircle
 10
58.98125473173926
 20
24.52406123398757
 30
0.0
 40
0.2720078614672682
100
AcDbArc
 50
179.5141952210006
 51
222.5893967577999
  0
ARC
  5
BB
330
2
100
AcDbEntity
  8
0
100
AcDbCircle
 10
58.4705748164866
 20
24.51716233068598
 30
0.0
 40
0.1767689020145366
100
AcDbArc
 50
287.2081354589999
 51
357.1692786496003
  0
LINE
  5
BC
330
2
100
AcDbEntity
  8
0
100
AcDbLine
 10
58.52287078030744
 20
24.34830624733285
 30
0.0
 11
57.65307191708856
 21
24.09721694341819
 31
0.0
  0
LINE
  5
BD
330
2
100
AcDbEntity
  8
0
100
AcDbLine
 10
58.70925664775728
 20
27.26002136654826
 30
0.0
 11
58.70925664775728
 21
24.52636753189223
 31
0.0
  0
LINE
  5
BE
330
2
100
AcDbEntity
  8
0
100
AcDbLine
 10
58.647128025274
 20
24.50843254345113
 30
0.0
 11
58.647128025274
 21
27.17995775561977
 31
0.0
  0
LINE
  5
BF
330
2
100
AcDbEntity
  8
0
100
AcDbLine
 10
58.89863425460273
 20
24.23810539429424
 30
0.0
 11
58.78099646797085
 21
24.33998270596092
 31
0.0
  0
ARC
  5
C0
330
2
100
AcDbEntity
  8
0
100
AcDbCircle
 10
57.70536958530377
 20
23.92836059411126
 30
0.0
 40
0.176769660310122
100
AcDbArc
 50
107.2086376751997
 51
177.1694182046991
  0
ARC
  5
C1
330
2
100
AcDbEntity
  8
0
100
AcDbCircle
 10
62.74218165959496
 20
23.7384635323023
 30
0.0
 40
0.0466689682218103
100
AcDbArc
 50
357.7506137228003
 51
47.60062473420015
  0
LWPOLYLINE
  5
C2
330
2
100
AcDbEntity
  8
0
100
AcDbPolyline
 90
        7
 70
   128
 43
0.0
 10
36.49351208903494
 20
20.82617862081024
 10
36.49420133093766
 20
20.8377030456268
 10
36.4962424651093
 20
20.84759010085551
 10
36.49955732049715
 20
20.85546032968406
 10
36.5040181507704
 20
20.86101238850183
 10
36.50945378133129
 20
20.86403068472169
 10
36.5094849161499
 20
20.86403982686982
  0
LWPOLYLINE
  5
C3
330
2
100
AcDbEntity
  8
0
100
AcDbPolyline
 90
        4
 70
   128
 43
0.0
 10
58.647128025274
 20
27.24208637810306
 10
58.64013017544423
 20
27.24695335472177
 10
58.63340131434188
 20
27.24924513980665
 10
58.62719987429638
 20
27.24887401502785
  0
LINE
  5
C4
330
2
100
AcDbEntity
  8
0
100
AcDbLine
 10
58.647128025274
 20
27.17995775561977
 30
0.0
 11
58.647128025274
 21
27.24208637810306
 31
0.0
  0
LINE
  5
C5
330
2
100
AcDbEntity
  8
0
100
AcDbLine
 10
58.647128025274
 20
27.24208637810306
 30
0.0
 11
58.70925664775728
 21
27.26002136654415
 31
0.0
  0
ARC
  5
C6
330
2
100
AcDbEntity
  8
0
100
AcDbCircle
 10
36.69881139022708
 20
18.46332859848002
 30
0.0
 40
0.2936985635624971
100
AcDbArc
 50
180.5536595746995
 51
216.0803568636989
  0
LINE
  5
C7
330
2
100
AcDbEntity
  8
0
100
AcDbLine
 10
36.40512653891811
 20
20.75924498286429
 30
0.0
 11
36.40512653891811
 21
18.46049057983616
 31
0.0
  0
LINE
  5
C8
330
2
100
AcDbEntity
  8
0
100
AcDbLine
 10
36.46725423561349
 20
20.83930832657223
 30
0.0
 11
36.49627209525716
 21
20.8476850611182
 31
0.0
  0
ARC
  5
C9
330
2
100
AcDbEntity
  8
0
100
AcDbCircle
 10
36.49340270499592
 20
20.75488093802923
 30
0.0
 40
0.0883839713012826
100
AcDbArc
 50
107.2085625796006
 51
177.1698141882998
  0
ARC
  5
CA
330
2
100
AcDbEntity
  8
0
100
AcDbCircle
 10
59.93357801070221
 20
21.2421168097338
 30
0.0
 40
0.2319361858781436
100
AcDbArc
 50
57.13638854680004
 51
107.6021872117997
  0
LINE
  5
CB
330
2
100
AcDbEntity
  8
0
100
AcDbLine
 10
60.05943611724114
 20
21.43693501048291
 30
0.0
 11
63.86164592011724
 21
18.14412473067323
 31
0.0
  0
LWPOLYLINE
  5
CC
330
2
100
AcDbEntity
  8
0
100
AcDbPolyline
 90
        9
 70
   128
 43
0.0
 10
63.80912849533554
 20
18.04612624700973
 10
63.83199173735448
 20
18.05431803248427
 10
63.85121879395125
 20
18.06458235740812
 10
63.866072231806
 20
18.07652519756956
 10
63.87598001415756
 20
18.08968732854843
 10
63.88056119321086
 20
18.10356269776466
 10
63.87964084610654
 20
18.11761862873258
 10
63.87325401578978
 20
18.13131485730529
 10
63.86164592011724
 20
18.14412473067323
  0
LINE
  5
CD
330
2
100
AcDbEntity
  8
0
100
AcDbLine
 10
62.69081606794271
 20
17.7232972564897
 30
0.0
 11
63.80912849533554
 21
18.04612624700973
 31
0.0
  0
LINE
  5
CE
330
2
100
AcDbEntity
  8
0
100
AcDbLine
 10
59.86343905206102
 20
21.46319354032463
 30
0.0
 11
58.74512662466816
 21
21.14036454983331
 31
0.0
  0
LWPOLYLINE
  5
CF
330
2
100
AcDbEntity
  8
0
100
AcDbPolyline
 90
        9
 70
   128
 43
0.0
 10
61.13364839918404
 20
19.71750253110094
 10
61.04946776855054
 20
19.68059033920095
 10
60.99994625392585
 20
19.63038066419415
 10
60.99262378536547
 20
19.57451769169714
 10
61.02861353294834
 20
19.52150557820797
 10
61.10243833312617
 20
19.47941550362132
 10
61.20285707406879
 20
19.45465473924975
 10
61.31458353949207
 20
19.45099334661113
 10
61.42060764660757
 20
19.46898853298724
  0
LINE
  5
D0
330
2
100
AcDbEntity
  8
0
100
AcDbLine
 10
61.42060764660757
 20
19.46898853298724
 30
0.0
 11
61.66912121078151
 21
19.54072821956389
 31
0.0
  0
LWPOLYLINE
  5
D1
330
2
100
AcDbEntity
  8
0
100
AcDbPolyline
 90
        9
 70
   128
 43
0.0
 10
61.66912121078151
 20
19.54072821956389
 10
61.75330184141497
 20
19.57764041146389
 10
61.80282335603973
 20
19.62785008644199
 10
61.81014582460007
 20
19.6837130589677
 10
61.77415607701724
 20
19.73672517245687
 10
61.70033127683936
 20
19.77881524704352
 10
61.59991253589677
 20
19.80357601138637
 10
61.48818607047346
 20
19.80723740405371
 10
61.382161963358
 20
19.78924221767758
  0
LINE
  5
D2
330
2
100
AcDbEntity
  8
0
100
AcDbLine
 10
61.382161963358
 20
19.78924221767758
 30
0.0
 11
61.13364839918404
 21
19.71750253110094
 31
0.0
  0
ARC
  5
D3
330
2
100
AcDbEntity
  8
0
100
AcDbCircle
 10
59.93357801070221
 20
21.30424543221707
 30
0.0
 40
0.2319361858780912
100
AcDbArc
 50
57.13638854680004
 51
107.6021872117997
  0
LINE
  5
D4
330
2
100
AcDbEntity
  8
0
100
AcDbLine
 10
58.70925701736076
 20
22.37258002134987
 30
0.0
 11
58.68299800218489
 21
22.36499969661686
 31
0.0
  0
LINE
  5
D5
330
2
100
AcDbEntity
  8
0
100
AcDbLine
 10
58.74512662466816
 20
22.21319631480721
 30
0.0
 11
58.74512662466816
 21
21.20249317231658
 31
0.0
  0
ARC
  5
D6
330
2
100
AcDbEntity
  8
0
100
AcDbCircle
 10
58.72851652706689
 20
21.1827814966988
 30
0.0
 40
0.0455531856640745
100
AcDbArc
 50
177.7647556206002
 51
291.3848674344997
  0
LINE
  5
D7
330
2
100
AcDbEntity
  8
0
100
AcDbLine
 10
58.68299800218489
 20
21.18455818384681
 30
0.0
 11
58.68299800218489
 21
22.36499969661686
 31
0.0
  0
LINE
  5
D8
330
2
100
AcDbEntity
  8
0
100
AcDbLine
 10
59.86343905206102
 20
21.52532216280792
 30
0.0
 11
58.74512662466816
 21
21.20249317231658
 31
0.0
  0
LINE
  5
D9
330
2
100
AcDbEntity
  8
0
100
AcDbLine
 10
63.86164592011724
 20
18.20625335315652
 30
0.0
 11
60.05943611724114
 21
21.49906363296619
 31
0.0
  0
ARC
  5
DA
330
2
100
AcDbEntity
  8
0
100
AcDbCircle
 10
62.67439137521892
 20
17.76921399406912
 30
0.0
 40
0.0487659442580585
100
AcDbArc
 50
231.224807159
 51
289.6824349113003
  0
LWPOLYLINE
  5
DB
330
2
100
AcDbEntity
  8
0
100
AcDbPolyline
 90
       10
 70
   128
 43
0.0
 10
59.36595185310761
 20
21.38170997866552
 10
59.33825469774071
 20
21.46764312423507
 10
59.28006947843178
 20
21.58537195253893
 10
59.21143538922354
 20
21.66845679943702
 10
59.14280129998663
 20
21.70424968219582
 10
59.08461608070637
 20
21.6873006099535
 10
59.04573805325418
 20
21.62019021329786
 10
59.03208590552244
 20
21.51313582183908
 10
59.04573805325418
 20
21.38243475398406
 10
59.0691606526831
 20
21.29189176907818
  0
LINE
  5
DC
330
2
100
AcDbEntity
  8
0
100
AcDbLine
 10
58.70925664775728
 20
24.58849615437552
 30
0.0
 11
58.70925664775729
 21
24.14652134916047
 31
0.0
  0
LINE
  5
DD
330
2
100
AcDbEntity
  8
0
100
AcDbLine
 10
58.70925664775729
 20
24.08406452859188
 30
0.0
 11
58.70925664775728
 21
22.47612761879723
 31
0.0
  0
LINE
  5
DE
330
2
100
AcDbEntity
  8
0
100
AcDbLine
 10
33.27244324955328
 20
15.02960438327781
 30
0.0
 11
33.33457094624868
 21
15.04753910447379
 31
0.0
  0
ARC
  5
DF
330
2
100
AcDbEntity
  8
0
100
AcDbCircle
 10
33.3725746680865
 20
15.12164463136044
 30
0.0
 40
0.1360062801749525
100
AcDbArc
 50
179.5143988047
 51
222.5890500660003
  0
LINE
  5
E0
330
2
100
AcDbEntity
  8
0
100
AcDbLine
 10
58.68299800218489
 20
22.36499969661686
 30
0.0
 11
58.46129846516255
 21
22.3010005529273
 31
0.0
  0
LINE
  5
E1
330
2
100
AcDbEntity
  8
0
100
AcDbLine
 10
58.41118133943074
 20
22.28653298491115
 30
0.0
 11
33.33457094624868
 21
15.04753910447379
 31
0.0
  0
LINE
  5
E2
330
2
100
AcDbEntity
  8
0
100
AcDbLine
 10
58.39861446112876
 20
24.00179342525069
 30
0.0
 11
58.39861446112876
 21
24.31243653766709
 31
0.0
  0
LINE
  5
E3
330
2
100
AcDbEntity
  8
0
100
AcDbLine
 10
33.2365732726424
 20
17.23516585256668
 30
0.0
 11
33.2365732726424
 21
15.12279731698839
 31
0.0
  0
ARC
  5
E4
330
2
100
AcDbEntity
  8
0
100
AcDbCircle
 10
33.41312940322
 20
17.2264348153948
 30
0.0
 40
0.1767718819774532
100
AcDbArc
 50
107.2094559851008
 51
177.1689207830007
  0
LINE
  5
E5
330
2
100
AcDbEntity
  8
0
100
AcDbLine
 10
33.3608286660332
 20
17.39529253995388
 30
0.0
 11
36.49351325076071
 21
18.29962068410316
 31
0.0
  0
LINE
  5
E6
330
2
100
AcDbEntity
  8
0
100
AcDbLine
 10
57.96371502950496
 20
24.18689188570976
 30
0.0
 11
57.96371502950496
 21
23.87624877329336
 31
0.0
  0
LINE
  5
E7
330
2
100
AcDbEntity
  8
0
100
AcDbLine
 10
57.96371502950496
 20
23.87624877329336
 30
0.0
 11
58.39861446112876
 21
24.00179342525069
 31
0.0
  0
LINE
  5
E8
330
2
100
AcDbEntity
  8
0
100
AcDbLine
 10
58.39861446112876
 20
23.13199456200311
 30
0.0
 11
58.39861446112876
 21
23.380508589071
 31
0.0
  0
LINE
  5
E9
330
2
100
AcDbEntity
  8
0
100
AcDbLine
 10
58.39861446112876
 20
23.380508589071
 30
0.0
 11
57.96371502950496
 21
23.25496393711365
 31
0.0
  0
LINE
  5
EA
330
2
100
AcDbEntity
  8
0
100
AcDbLine
 10
57.96371502950496
 20
23.25496393711365
 30
0.0
 11
57.96371502950496
 21
23.00644991004578
 31
0.0
  0
LINE
  5
EB
330
2
100
AcDbEntity
  8
0
100
AcDbLine
 10
57.96371502950496
 20
23.00644991004578
 30
0.0
 11
58.39861446112876
 21
23.13199456200311
 31
0.0
  0
LINE
  5
EC
330
2
100
AcDbEntity
  8
0
100
AcDbLine
 10
33.33457094624868
 20
15.04753910447379
 30
0.0
 11
37.28026038952322
 21
11.63047181115888
 31
0.0
  0
ARC
  5
ED
330
2
100
AcDbEntity
  8
0
100
AcDbCircle
 10
63.83320285511379
 20
18.16792532193021
 30
0.0
 40
0.0477288793423391
100
AcDbArc
 50
2.951995516898985
 51
53.42105096630085
  0
LINE
  5
EE
330
2
100
AcDbEntity
  8
0
100
AcDbLine
 10
32.15412989640125
 20
13.52633361277131
 30
0.0
 11
33.27244324955328
 21
13.84916287050776
 31
0.0
  0
LINE
  5
EF
330
2
100
AcDbEntity
  8
0
100
AcDbLine
 10
33.27244324955328
 20
13.84916287050776
 30
0.0
 11
33.27244324955328
 21
15.02960438327781
 31
0.0
  0
LINE
  5
F0
330
2
100
AcDbEntity
  8
0
100
AcDbLine
 10
33.33457094624868
 20
13.86709759170373
 30
0.0
 11
33.33457094624868
 21
15.04753910447379
 31
0.0
  0
ARC
  5
F1
330
2
100
AcDbEntity
  8
0
100
AcDbCircle
 10
33.24629288095986
 20
13.87146311030402
 30
0.0
 40
0.0883859409888043
100
AcDbArc
 50
287.2094559851007
 51
357.1689207828995
  0
LINE
  5
F2
330
2
100
AcDbEntity
  8
0
100
AcDbLine
 10
32.15412989640125
 20
13.46420499025933
 30
0.0
 11
33.27244324955328
 21
13.78703424802449
 31
0.0
  0
LINE
  5
F3
330
2
100
AcDbEntity
  8
0
100
AcDbLine
 10
33.33457094624868
 20
13.86709759170373
 30
0.0
 11
37.28026038952322
 21
10.45003029838883
 31
0.0
  0
ARC
  5
F4
330
2
100
AcDbEntity
  8
0
100
AcDbCircle
 10
37.1919823242344
 20
10.45439581698911
 30
0.0
 40
0.0883859409887587
100
AcDbArc
 50
287.2094559851007
 51
357.1689207828995
  0
ARC
  5
F5
330
2
100
AcDbEntity
  8
0
100
AcDbCircle
 10
36.02968074555891
 20
10.26820430834833
 30
0.0
 40
0.2319264302666776
100
AcDbArc
 50
237.1352689343996
 51
287.6028573528996
  0
LINE
  5
F6
330
2
100
AcDbEntity
  8
0
100
AcDbLine
 10
35.90382412607143
 20
10.07339676130513
 30
0.0
 11
32.10161432319533
 21
13.3662070410861
 31
0.0
  0
LWPOLYLINE
  5
F7
330
2
100
AcDbEntity
  8
0
100
AcDbPolyline
 90
        9
 70
   128
 43
0.0
 10
32.15412989640125
 20
13.46420499025933
 10
32.13126758014154
 20
13.45601347205863
 10
32.11203867199767
 20
13.44574861258711
 10
32.09718615990212
 20
13.4338060396995
 10
32.08727745179138
 20
13.42064364147549
 10
32.08269905010173
 20
13.40676907402336
 10
32.08361847141814
 20
13.39271287578161
 10
32.09000345015914
 20
13.37901611271863
 10
32.10161432319533
 20
13.3662070410861
  0
LINE
  5
F8
330
2
100
AcDbEntity
  8
0
100
AcDbLine
 10
37.21813269282782
 20
10.36996695470957
 30
0.0
 11
36.09981933967578
 21
10.04713769694443
 31
0.0
  0
LINE
  5
F9
330
2
100
AcDbEntity
  8
0
100
AcDbLine
 10
34.82961091831195
 20
11.79282897341327
 30
0.0
 11
34.58109642837882
 21
11.72108901959147
 31
0.0
  0
LWPOLYLINE
  5
FA
330
2
100
AcDbEntity
  8
0
100
AcDbPolyline
 90
        9
 70
   128
 43
0.0
 10
34.54265167088845
 20
12.04134297155566
 10
34.64867392645685
 20
12.05933762341281
 10
34.76040131766803
 20
12.05567649801932
 10
34.86081913282274
 20
12.03091546640262
 10
34.93464578454767
 20
11.98882592630624
 10
34.97063368058345
 20
11.9358132783268
 10
34.96331213781098
 20
11.87995057307491
 10
34.91378969739836
 20
11.82974063082299
 10
34.82961091831195
 20
11.79282897341327
  0
LINE
  5
FB
330
2
100
AcDbEntity
  8
0
100
AcDbLine
 10
34.29413718095531
 20
11.96960301770518
 30
0.0
 11
34.54265167088845
 21
12.04134297155566
 31
0.0
  0
LWPOLYLINE
  5
FC
330
2
100
AcDbEntity
  8
0
100
AcDbPolyline
 90
        9
 70
   128
 43
0.0
 10
34.58109642837882
 20
11.72108901959147
 10
34.47507417283909
 20
11.70309436773432
 10
34.36334678162793
 20
11.70675549312782
 10
34.2629289664732
 20
11.73151652474452
 10
34.18910231471958
 20
11.77360606481219
 10
34.1531144187125
 20
11.82661871279163
 10
34.16043596148498
 20
11.88248141807222
 10
34.20995840189758
 20
11.93269136029543
 10
34.29413718095531
 20
11.96960301770518
  0
LINE
  5
FD
330
2
100
AcDbEntity
  8
0
100
AcDbLine
 10
37.28026038952322
 20
10.45003029838883
 30
0.0
 11
37.28026038952322
 21
11.63047181115888
 31
0.0
  0
LWPOLYLINE
  5
FE
330
2
100
AcDbEntity
  8
0
100
AcDbPolyline
 90
        7
 70
   128
 43
0.0
 10
32.08238999190778
 20
13.4642051588192
 10
32.08269905010173
 20
13.46889769650665
 10
32.08727745179138
 20
13.48277226395877
 10
32.09718615990212
 20
13.49593466218278
 10
32.11203867199767
 20
13.50787723509909
 10
32.13126758014154
 20
13.51814209454191
 10
32.15412989640125
 20
13.52633361277131
  0
LWPOLYLINE
  5
FF
330
2
100
AcDbEntity
  8
0
100
AcDbPolyline
 90
       17
 70
   128
 43
0.0
 10
80.31149343158622
 20
31.04063332490583
 10
80.4447354297069
 20
31.02784758277203
 10
80.58177183399113
 20
31.05587976878356
 10
80.70174280394892
 20
31.12046299449577
 10
80.78638159937689
 20
31.21176506936275
 10
80.82280505929789
 20
31.31588498826349
 10
80.80546626817925
 20
31.41697271089733
 10
80.73700506875287
 20
31.49963716713797
 10
80.6278449057272
 20
31.55129462875737
 10
80.49460383339441
 20
31.5640806381363
 10
80.35756742911019
 20
31.53604891501872
 10
80.23759645915234
 20
31.47146522641258
 10
80.15295766372439
 20
31.38016407733345
 10
80.11653420380341
 20
31.27604323264484
 10
80.13387299492201
 20
31.17495597290494
 10
80.20233392707458
 20
31.09229128523166
 10
80.31149343158622
 20
31.04063332490583
  0
ARC
  5
100
330
2
100
AcDbEntity
  8
0
100
AcDbCircle
 10
79.91708570602117
 20
32.32110918154467
 30
0.0
 40
0.4464007457022305
100
AcDbArc
 50
255.3680685672997
 51
323.9707419273996
  0
LWPOLYLINE
  5
101
330
2
100
AcDbEntity
  8
0
100
AcDbPolyline
 90
        7
 70
   128
 43
0.0
 10
79.76695379006591
 20
32.34488892506981
 10
79.7304231262213
 20
32.32001749811238
 10
79.64578406354821
 20
32.22871565470669
 10
79.60936087087235
 20
32.12459550434464
 10
79.62669966199095
 20
32.0235087074987
 10
79.69516059414356
 20
31.94084355693149
 10
79.80432102444304
 20
31.88918586385076
  0
LWPOLYLINE
  5
102
330
2
100
AcDbEntity
  8
0
100
AcDbPolyline
 90
       17
 70
   128
 43
0.0
 10
79.04507745114561
 20
30.66359869359486
 10
79.17831871915592
 20
30.65081304928547
 10
79.31535512341145
 20
30.67884523529699
 10
79.43532636061441
 20
30.74342822954788
 10
79.51996515607106
 20
30.83472984152095
 10
79.55638861596336
 20
30.93884976045036
 10
79.53904982487346
 20
31.03993702019027
 10
79.47058862544702
 20
31.1226024021901
 10
79.36142819517622
 20
31.17425963237685
 10
79.22818739005986
 20
31.18704587318843
 10
79.09115098577562
 20
31.15901322428293
 10
78.97118001584653
 20
31.09442999859945
 10
78.88654095314473
 20
31.00312908095294
 10
78.85011776049755
 20
30.89900846772565
 10
78.86745628434232
 20
30.79792143941837
 10
78.93591702087483
 20
30.71525638667557
 10
79.04507745114561
 20
30.66359869359486
  0
LINE
  5
103
330
2
100
AcDbEntity
  8
0
100
AcDbLine
 10
81.15765908288048
 20
30.85837878368987
 30
0.0
 11
81.68228411362804
 21
31.70524017983348
 31
0.0
  0
ARC
  5
104
330
2
100
AcDbEntity
  8
0
100
AcDbCircle
 10
78.71870654217265
 20
32.43186852846425
 30
0.0
 40
2.902474715249093
100
AcDbArc
 50
300.3553409425995
 51
327.1719230532993
  0
LINE
  5
105
330
2
100
AcDbEntity
  8
0
100
AcDbLine
 10
80.18550501373139
 20
29.92730035879391
 30
0.0
 11
80.14991430534593
 21
29.90572682477708
 31
0.0
  0
ARC
  5
106
330
2
100
AcDbEntity
  8
0
100
AcDbCircle
 10
80.51660549230877
 20
29.27959303967601
 30
0.0
 40
0.7256072928577525
100
AcDbArc
 50
120.3550959841994
 51
147.1721080805996
  0
LINE
  5
107
330
2
100
AcDbEntity
  8
0
100
AcDbLine
 10
79.90687565444327
 20
29.67295733429093
 30
0.0
 11
79.42959121325408
 21
28.90251458306129
 31
0.0
  0
LINE
  5
108
330
2
100
AcDbEntity
  8
0
100
AcDbLine
 10
77.78268677962043
 20
29.34035198567795
 30
0.0
 11
78.25997122080962
 21
30.11079473690758
 31
0.0
  0
ARC
  5
109
330
2
100
AcDbEntity
  8
0
100
AcDbCircle
 10
77.8758396488863
 20
30.36075161187618
 30
0.0
 40
0.4582963057815317
100
AcDbArc
 50
326.9476888078
 51
3.494595321800196
  0
LINE
  5
10A
330
2
100
AcDbEntity
  8
0
100
AcDbLine
 10
78.33328377680278
 20
30.38868678170558
 30
0.0
 11
78.33070827242598
 21
30.42040708983358
 31
0.0
  0
ARC
  5
10B
330
2
100
AcDbEntity
  8
0
100
AcDbCircle
 10
80.16047513477206
 20
30.53214806233747
 30
0.0
 40
1.833175609553445
100
AcDbArc
 50
146.9475251309002
 51
183.4946228521994
  0
LINE
  5
10C
330
2
100
AcDbEntity
  8
0
100
AcDbLine
 10
78.62395976108536
 20
31.53197470824988
 30
0.0
 11
79.43641458125224
 21
32.84345648269545
 31
0.0
  0
ARC
  5
10D
330
2
100
AcDbEntity
  8
0
100
AcDbCircle
 10
80.45451699272382
 20
32.98885201783928
 30
0.0
 40
0.9444678311336939
100
AcDbArc
 50
191.6417945294988
 51
255.7339540909
  0
ARC
  5
10E
330
2
100
AcDbEntity
  8
0
100
AcDbCircle
 10
80.47441058402439
 20
33.01407421113788
 30
0.0
 40
0.9444630929020412
100
AcDbArc
 50
191.6415514819003
 51
255.7340629378
  0
LINE
  5
10F
330
2
100
AcDbEntity
  8
0
100
AcDbLine
 10
79.54574559022126
 20
32.85779120391386
 30
0.0
 11
79.54937588247641
 21
32.82349264119181
 31
0.0
  0
LINE
  5
110
330
2
100
AcDbEntity
  8
0
100
AcDbLine
 10
82.07944583777559
 20
32.18419554659899
 30
0.0
 11
82.08307520424284
 21
32.1498967166318
 31
0.0
  0
LWPOLYLINE
  5
111
330
2
100
AcDbEntity
  8
0
100
AcDbPolyline
 90
        9
 70
   128
 43
0.0
 10
81.50852352681594
 20
31.76193814551425
 10
81.63096740361131
 20
31.739775547178
 10
81.74644304847161
 20
31.73984466237119
 10
81.85051307374168
 20
31.76214365633393
 10
81.9391787592591
 20
31.80581506686841
 10
82.00903165644719
 20
31.86918092820659
 10
82.05738834701094
 20
31.94980589707723
 10
82.08238999190777
 20
32.04459249243821
 10
82.08307520424284
 20
32.1498967166318
  0
LINE
  5
112
330
2
100
AcDbEntity
  8
0
100
AcDbLine
 10
80.2416732694162
 20
32.09873608988799
 30
0.0
 11
81.50852352681594
 21
31.76193814551425
 31
0.0
  0
LWPOLYLINE
  5
113
330
2
100
AcDbEntity
  8
0
100
AcDbPolyline
 90
        9
 70
   128
 43
0.0
 10
79.42948050337733
 20
32.87195020211587
 10
79.44799539659999
 20
32.89776043313725
 10
79.46705611535429
 20
32.91649413280437
 10
79.48576101823189
 20
32.92726210188819
 10
79.50322106156423
 20
32.92955372139758
 10
79.51861073566259
 20
32.92326091459379
 10
79.53119879582724
 20
32.90868269776193
 10
79.54038944464201
 20
32.88650929506616
 10
79.54574559022126
 20
32.85779120391386
  0
LWPOLYLINE
  5
114
330
2
100
AcDbEntity
  8
0
100
AcDbPolyline
 90
        9
 70
   128
 43
0.0
 10
79.43641458125224
 20
32.84345648269545
 10
79.45065670551812
 20
32.86331114197849
 10
79.46531881889942
 20
32.87772121177602
 10
79.4797070317295
 20
32.88600404852584
 10
79.49313836289604
 20
32.88776746013622
 10
79.50497585202964
 20
32.88292663115679
 10
79.51465947227309
 20
32.87171242935911
 10
79.52172819561008
 20
32.85465524789419
 10
79.52584882515154
 20
32.83256555496607
  0
LINE
  5
115
330
2
100
AcDbEntity
  8
0
100
AcDbLine
 10
79.52584882515154
 20
32.83256555496607
 30
0.0
 11
79.52947845889266
 21
32.79826556777837
 31
0.0
  0
LINE
  5
116
330
2
100
AcDbEntity
  8
0
100
AcDbLine
 10
78.61702541593664
 20
31.56046819623768
 30
0.0
 11
79.42948050337733
 21
32.87195020211587
 31
0.0
  0
LINE
  5
117
330
2
100
AcDbEntity
  8
0
100
AcDbLine
 10
80.22177677159168
 20
32.07350974661367
 30
0.0
 11
81.4886270289914
 21
31.73671180221122
 31
0.0
  0
ARC
  5
118
330
2
100
AcDbEntity
  8
0
100
AcDbCircle
 10
82.00641314775699
 20
32.19058357083834
 30
0.0
 40
0.0733115316006397
100
AcDbArc
 50
355.0011742449004
 51
61.71732043809981
  0
ARC
  5
119
330
2
100
AcDbEntity
  8
0
100
AcDbCircle
 10
81.65782459457883
 20
32.16629062666469
 30
0.0
 40
0.4616988007298339
100
AcDbArc
 50
248.5020821936008
 51
316.5543378904995
  0
LINE
  5
11A
330
2
100
AcDbEntity
  8
0
100
AcDbLine
 10
78.33070827242598
 20
30.42040708983358
 30
0.0
 11
78.32377465741633
 21
30.44890094286223
 31
0.0
  0
ARC
  5
11B
330
2
100
AcDbEntity
  8
0
100
AcDbCircle
 10
80.15354147746464
 20
30.5606426074257
 30
0.0
 40
1.833175609524463
100
AcDbArc
 50
146.9475645501999
 51
183.4946445227996
  0
ARC
  5
11C
330
2
100
AcDbEntity
  8
0
100
AcDbCircle
 10
77.50826513382293
 20
29.50749400442274
 30
0.0
 40
0.321315567800246
100
AcDbArc
 50
318.3505909783006
 51
328.6556555851999
  0
LINE
  5
11D
330
2
100
AcDbEntity
  8
0
100
AcDbLine
 10
76.97659988799519
 20
28.44198661106545
 30
0.0
 11
77.74836024755578
 21
29.29395705099561
 31
0.0
  0
ARC
  5
11E
330
2
100
AcDbEntity
  8
0
100
AcDbCircle
 10
80.74411991728579
 20
25.37115032127271
 30
0.0
 40
4.860477619497634
100
AcDbArc
 50
140.8171563771011
 51
165.0903763725005
  0
LINE
  5
11F
330
2
100
AcDbEntity
  8
0
100
AcDbLine
 10
76.01539699771265
 20
26.51444495804303
 30
0.0
 11
76.04728059738132
 21
26.62172742513128
 31
0.0
  0
LINE
  5
120
330
2
100
AcDbEntity
  8
0
100
AcDbLine
 10
75.99782094103777
 20
26.51686697415266
 30
0.0
 11
76.03119860830512
 21
26.62917665540793
 31
0.0
  0
ARC
  5
121
330
2
100
AcDbEntity
  8
0
100
AcDbCircle
 10
80.80030914317665
 20
25.35935377863916
 30
0.0
 40
4.935267513750043
100
AcDbArc
 50
140.8171923834004
 51
165.0903439451994
  0
LINE
  5
122
330
2
100
AcDbEntity
  8
0
100
AcDbLine
 10
76.97481498652431
 20
28.47743971228254
 30
0.0
 11
77.74657561333007
 21
29.32940992080877
 31
0.0
  0
ARC
  5
123
330
2
100
AcDbEntity
  8
0
100
AcDbCircle
 10
77.54247555730329
 20
29.51092898596764
 30
0.0
 40
0.2731409963570024
100
AcDbArc
 50
318.3512853065002
 51
328.6554538090001
  0
LINE
  5
124
330
2
100
AcDbEntity
  8
0
100
AcDbLine
 10
77.77575289736565
 20
29.368845607274
 30
0.0
 11
78.25303687566088
 21
30.13928868778934
 31
0.0
  0
LINE
  5
125
330
2
100
AcDbEntity
  8
0
100
AcDbLine
 10
78.32635016179313
 20
30.41718063473425
 30
0.0
 11
78.33328377680278
 21
30.38868678170558
 31
0.0
  0
ARC
  5
126
330
2
100
AcDbEntity
  8
0
100
AcDbCircle
 10
77.86891295171765
 20
30.38924473711882
 30
0.0
 40
0.4582894451637197
100
AcDbArc
 50
326.9472538296997
 51
3.494738859799966
  0
LINE
  5
127
330
2
100
AcDbEntity
  8
0
100
AcDbLine
 10
78.32635016179313
 20
30.41718063473425
 30
0.0
 11
78.32377465741633
 21
30.44890094286223
 31
0.0
  0
LINE
  5
128
330
2
100
AcDbEntity
  8
0
100
AcDbLine
 10
79.39526527772031
 20
28.8561196662852
 30
0.0
 11
78.62350491815968
 21
28.00414922632635
 31
0.0
  0
ARC
  5
129
330
2
100
AcDbEntity
  8
0
100
AcDbCircle
 10
79.15521317903311
 20
29.06962133055619
 30
0.0
 40
0.3212599737618207
100
AcDbArc
 50
318.3501954757003
 51
328.6569820875993
  0
ARC
  5
12A
330
2
100
AcDbEntity
  8
0
100
AcDbCircle
 10
82.39102252083695
 20
24.93331319984742
 30
0.0
 40
4.860475572199874
100
AcDbArc
 50
140.8171407100994
 51
165.0903725617999
  0
LINE
  5
12B
330
2
100
AcDbEntity
  8
0
100
AcDbLine
 10
77.69418526247631
 20
26.18389008931872
 30
0.0
 11
77.6816469737838
 21
26.14170085562451
 31
0.0
  0
ARC
  5
12C
330
2
100
AcDbEntity
  8
0
100
AcDbCircle
 10
69.32597886965396
 20
21.52576247807802
 30
0.0
 40
0.0838145576881962
100
AcDbArc
 50
286.5285807606996
 51
309.2427109257007
  0
LINE
  5
12D
330
2
100
AcDbEntity
  8
0
100
AcDbLine
 10
69.37900052932985
 20
21.46085035527397
 30
0.0
 11
69.54222570421132
 21
21.5876429202523
 31
0.0
  0
LINE
  5
12E
330
2
100
AcDbEntity
  8
0
100
AcDbLine
 10
69.37721576146723
 20
21.42204043148371
 30
0.0
 11
69.56839052559264
 21
21.57054451281773
 31
0.0
  0
ARC
  5
12F
330
2
100
AcDbEntity
  8
0
100
AcDbCircle
 10
69.31484221557615
 20
21.49840135059652
 30
0.0
 40
0.0985974096764844
100
AcDbArc
 50
286.5269312509994
 51
309.2428260459001
  0
LINE
  5
130
330
2
100
AcDbEntity
  8
0
100
AcDbLine
 10
68.86560538474426
 20
21.2766786649851
 30
0.0
 11
69.34288982590472
 21
21.40387738141675
 31
0.0
  0
LINE
  5
131
330
2
100
AcDbEntity
  8
0
100
AcDbLine
 10
68.87253899972519
 20
21.31821317269239
 30
0.0
 11
69.3498235745513
 21
21.44541131052813
 31
0.0
  0
LWPOLYLINE
  5
132
330
2
100
AcDbEntity
  8
0
100
AcDbPolyline
 90
       17
 70
   128
 43
0.0
 10
68.4609876076013
 20
20.96652053797924
 10
68.32774560945195
 20
20.99553347013111
 10
68.19070920519641
 20
21.013711929335
 10
68.07073823523859
 20
21.01828775065851
 10
67.98609943981062
 20
21.00856600351908
 10
67.94967597988963
 20
20.98602456077017
 10
67.96701477100824
 20
20.95409681090252
 10
68.03547597040598
 20
20.91764207414679
 10
68.14463613343164
 20
20.88221180254546
 10
68.27787720579312
 20
20.85319860311977
 10
68.41491361007735
 20
20.83502060680983
 10
68.53488458003517
 20
20.83044432259237
 10
68.61952337546313
 20
20.84016699551969
 10
68.65594683538411
 20
20.86270751248072
 10
68.6386080442655
 20
20.89463572524231
 10
68.57014711211292
 20
20.93108976767148
 10
68.4609876076013
 20
20.96652053797924
  0
LWPOLYLINE
  5
133
330
2
100
AcDbEntity
  8
0
100
AcDbPolyline
 90
       17
 70
   128
 43
0.0
 10
68.96816001474445
 20
20.62959108110693
 10
68.83491920965681
 20
20.6586040490713
 10
68.69788280537258
 20
20.67678297116913
 10
68.57791156816964
 20
20.68135856106001
 10
68.49327277274167
 20
20.6716358881327
 10
68.45684931282068
 20
20.64909537114298
 10
68.47418810393929
 20
20.61716669551614
 10
68.54264930333702
 20
20.58071288451959
 10
68.65180880784864
 20
20.54528211424052
 10
68.78505053872415
 20
20.51626941352128
 10
68.9220869430084
 20
20.49809049142346
 10
69.04205791296623
 20
20.49351513299388
 10
69.12669697563932
 20
20.503236648672
 10
69.16312016831517
 20
20.52577832288222
 10
69.14578137719655
 20
20.55770699850906
 10
69.07732044501528
 20
20.59416057804428
 10
68.96816001474445
 20
20.62959108110693
  0
LWPOLYLINE
  5
134
330
2
100
AcDbEntity
  8
0
100
AcDbPolyline
 90
       17
 70
   128
 43
0.0
 10
69.72740358804188
 20
20.83193301297677
 10
69.5941623200316
 20
20.86094584730424
 10
69.45712591574736
 20
20.87912430650813
 10
69.33715467857311
 20
20.88370035929295
 10
69.25251588311645
 20
20.87397814925958
 10
69.21609242322417
 20
20.85143670648198
 10
69.23343121431407
 20
20.81950849374909
 10
69.30189241374051
 20
20.78305468275254
 10
69.41105284401129
 20
20.74762371682466
 10
69.54429364912764
 20
20.71861121175421
 10
69.68133005341188
 20
20.70043228965639
 10
69.80130102334101
 20
20.6958564683329
 10
69.88594008604278
 20
20.70557890979888
 10
69.92236327868997
 20
20.72812012111516
 10
69.90502475484518
 20
20.76004810241544
 10
69.83656401831273
 20
20.79650250991415
 10
69.72740358804188
 20
20.83193301297677
  0
LINE
  5
135
330
2
100
AcDbEntity
  8
0
100
AcDbLine
 10
67.61482195630704
 20
21.17938621780043
 30
0.0
 11
66.80236686889502
 21
20.96286320584246
 31
0.0
  0
ARC
  5
136
330
2
100
AcDbEntity
  8
0
100
AcDbCircle
 10
68.40320308264193
 20
17.46874737719347
 30
0.0
 40
3.793466146662198
100
AcDbArc
 50
87.22324214760021
 51
101.9949842043006
  0
LINE
  5
137
330
2
100
AcDbEntity
  8
0
100
AcDbLine
 10
68.58697602545615
 20
21.25775950588955
 30
0.0
 11
68.62256673381288
 21
21.25708545870783
 31
0.0
  0
ARC
  5
138
330
2
100
AcDbEntity
  8
0
100
AcDbCircle
 10
68.66850566344203
 20
22.20439872780028
 30
0.0
 40
0.9484264942841235
100
AcDbArc
 50
267.2236782686998
 51
281.9944888260003
  0
LWPOLYLINE
  5
139
330
2
100
AcDbEntity
  8
0
100
AcDbPolyline
 90
        9
 70
   128
 43
0.0
 10
70.43919726238477
 20
20.77412550177932
 10
70.43791474116189
 20
20.78418580043839
 10
70.43966409159764
 20
20.79375933844233
 10
70.44443826956015
 20
20.8028044278171
 10
70.4522156471903
 20
20.81128242258617
 10
70.46296403584036
 20
20.81915780006597
 10
70.47663705428938
 20
20.82639649529719
 10
70.49317603303331
 20
20.83296660486962
 10
70.51250981837791
 20
20.83884126236844
  0
LINE
  5
13A
330
2
100
AcDbEntity
  8
0
100
AcDbLine
 10
70.43919726238477
 20
20.77412550177932
 30
0.0
 11
70.44177276676151
 21
20.76465277484989
 31
0.0
  0
LWPOLYLINE
  5
13B
330
2
100
AcDbEntity
  8
0
100
AcDbPolyline
 90
        9
 70
   128
 43
0.0
 10
70.14852127810215
 20
20.50579029324042
 10
70.22585761251363
 20
20.52928895899084
 10
70.29201372308076
 20
20.55557115111795
 10
70.34670533406895
 20
20.58452440966669
 10
70.38969896020811
 20
20.61602532308379
 10
70.42080959222277
 20
20.64993886032002
 10
70.4399044524397
 20
20.68611960908802
 10
70.4469025126967
 20
20.72441240823441
 10
70.44177276676151
 20
20.76465277484989
  0
LINE
  5
13C
330
2
100
AcDbEntity
  8
0
100
AcDbLine
 10
70.14852127810215
 20
20.50579029324042
 30
0.0
 11
69.33606645790658
 21
20.28926704984985
 31
0.0
  0
LINE
  5
13D
330
2
100
AcDbEntity
  8
0
100
AcDbLine
 10
70.88830687239426
 20
20.93899290971978
 30
0.0
 11
70.51250981837791
 21
20.83884126236844
 31
0.0
  0
ARC
  5
13E
330
2
100
AcDbEntity
  8
0
100
AcDbCircle
 10
68.67544601430316
 20
22.24584666533025
 30
0.0
 40
0.9483404143847952
100
AcDbArc
 50
267.2230627940002
 51
281.9951776995002
  0
ARC
  5
13F
330
2
100
AcDbEntity
  8
0
100
AcDbCircle
 10
68.4101362026756
 20
17.51029350227315
 30
0.0
 40
3.793454192784731
100
AcDbArc
 50
87.22322886449921
 51
101.9950220696003
  0
LINE
  5
140
330
2
100
AcDbEntity
  8
0
100
AcDbLine
 10
68.593909444817
 20
21.29929364852731
 30
0.0
 11
68.6295010789616
 21
21.2986198685907
 31
0.0
  0
ARC
  5
141
330
2
100
AcDbEntity
  8
0
100
AcDbCircle
 10
66.93181167114921
 20
20.78634376696292
 30
0.0
 40
0.2188951099084229
100
AcDbArc
 50
126.2532496232998
 51
180.673838677899
  0
LINE
  5
142
330
2
100
AcDbEntity
  8
0
100
AcDbLine
 10
66.71293169920779
 20
20.78376946580623
 30
0.0
 11
66.70930233274055
 21
20.74264352408464
 31
0.0
  0
LINE
  5
143
330
2
100
AcDbEntity
  8
0
100
AcDbLine
 10
66.69303520141196
 20
20.77157495958455
 30
0.0
 11
66.68940583491599
 21
20.73044994365086
 31
0.0
  0
ARC
  5
144
330
2
100
AcDbEntity
  8
0
100
AcDbCircle
 10
66.9775783303694
 20
20.77492253943037
 30
0.0
 40
0.2845628200164439
100
AcDbArc
 50
126.2530898266998
 51
180.6740396362988
  0
LINE
  5
145
330
2
100
AcDbEntity
  8
0
100
AcDbLine
 10
67.62175510842275
 20
21.22092012900554
 30
0.0
 11
66.80930121404372
 21
21.00439761572535
 31
0.0
  0
ARC
  5
146
330
2
100
AcDbEntity
  8
0
100
AcDbCircle
 10
68.701811793982
 20
20.09047410487019
 30
0.0
 40
0.5416147624194816
100
AcDbArc
 50
253.7997989797993
 51
357.7327917724994
  0
LINE
  5
147
330
2
100
AcDbEntity
  8
0
100
AcDbLine
 10
68.55070426759585
 20
19.57036539861465
 30
0.0
 11
67.28385401016743
 21
19.9071633429884
 31
0.0
  0
ARC
  5
148
330
2
100
AcDbEntity
  8
0
100
AcDbCircle
 10
67.5179742722606
 20
20.68346251264534
 30
0.0
 40
0.8108345687677097
100
AcDbArc
 50
175.8143866076007
 51
253.2174715212001
  0
LINE
  5
149
330
2
100
AcDbEntity
  8
0
100
AcDbLine
 10
69.24663221403595
 20
20.11017357703003
 30
0.0
 11
69.24300258029486
 21
20.06904786676978
 31
0.0
  0
ARC
  5
14A
330
2
100
AcDbEntity
  8
0
100
AcDbCircle
 10
67.4980771820374
 20
20.67126809472103
 30
0.0
 40
0.8108340390586814
100
AcDbArc
 50
175.814324529701
 51
253.2175039567996
  0
ARC
  5
14B
330
2
100
AcDbEntity
  8
0
100
AcDbCircle
 10
69.46550614631769
 20
20.11275129994603
 30
0.0
 40
0.2188891109369931
100
AcDbArc
 50
126.2527411961007
 51
180.6747528797991
  0
LINE
  5
14C
330
2
100
AcDbEntity
  8
0
100
AcDbLine
 10
68.53080776977129
 20
19.55817135531562
 30
0.0
 11
67.26395751237156
 21
19.89496929968937
 31
0.0
  0
ARC
  5
14D
330
2
100
AcDbEntity
  8
0
100
AcDbCircle
 10
68.68368847078096
 20
20.08672184960324
 30
0.0
 40
0.5502164426635381
100
AcDbArc
 50
253.8677402178003
 51
300.6941754636002
  0
LWPOLYLINE
  5
14E
330
2
100
AcDbEntity
  8
0
100
AcDbPolyline
 90
       17
 70
   128
 43
0.0
 10
68.4609876076013
 20
20.96652053797924
 10
68.32774560945195
 20
20.99553347013111
 10
68.19070920519641
 20
21.013711929335
 10
68.07073823523859
 20
21.01828775065851
 10
67.98609943981062
 20
21.00856600351908
 10
67.94967597988963
 20
20.98602456077017
 10
67.96701477100824
 20
20.95409681090252
 10
68.03547597040598
 20
20.91764207414679
 10
68.14463613343164
 20
20.88221180254546
 10
68.27787720579312
 20
20.85319860311977
 10
68.41491361007735
 20
20.83502060680983
 10
68.53488458003517
 20
20.83044432259237
 10
68.61952337546313
 20
20.84016699551969
 10
68.65594683538411
 20
20.86270751248072
 10
68.6386080442655
 20
20.89463572524231
 10
68.57014711211292
 20
20.93108976767148
 10
68.4609876076013
 20
20.96652053797924
  0
LWPOLYLINE
  5
14F
330
2
100
AcDbEntity
  8
0
100
AcDbPolyline
 90
       17
 70
   128
 43
0.0
 10
69.72740358804188
 20
20.83193301297677
 10
69.5941623200316
 20
20.86094584730424
 10
69.45712591574736
 20
20.87912430650813
 10
69.33715467857311
 20
20.88370035929295
 10
69.25251588311645
 20
20.87397814925958
 10
69.21609242322417
 20
20.85143670648198
 10
69.23343121431407
 20
20.81950849374909
 10
69.30189241374051
 20
20.78305468275254
 10
69.41105284401129
 20
20.74762371682466
 10
69.54429364912764
 20
20.71861121175421
 10
69.68133005341188
 20
20.70043228965639
 10
69.80130102334101
 20
20.6958564683329
 10
69.88594008604278
 20
20.70557890979888
 10
69.92236327868997
 20
20.72812012111516
 10
69.90502475484518
 20
20.76004810241544
 10
69.83656401831273
 20
20.79650250991415
 10
69.72740358804188
 20
20.83193301297677
  0
LWPOLYLINE
  5
150
330
2
100
AcDbEntity
  8
0
100
AcDbPolyline
 90
        9
 70
   128
 43
0.0
 10
70.44177276676151
 20
20.76465277484989
 10
70.4469025126967
 20
20.72441240823441
 10
70.4399044524397
 20
20.68611960908802
 10
70.42080959222277
 20
20.64993886032002
 10
70.38969896020811
 20
20.61602532308379
 10
70.34670533406895
 20
20.58452440966669
 10
70.29201372308076
 20
20.55557115111795
 10
70.22585761251363
 20
20.52928895899084
 10
70.14852127810215
 20
20.50579029324042
  0
LWPOLYLINE
  5
151
330
2
100
AcDbEntity
  8
0
100
AcDbPolyline
 90
        9
 70
   128
 43
0.0
 10
70.51250981837791
 20
20.83884126236844
 10
70.49317603303331
 20
20.83296660486962
 10
70.47663705428938
 20
20.82639649529719
 10
70.46296403584036
 20
20.81915780006597
 10
70.4522156471903
 20
20.81128242258617
 10
70.44443826956015
 20
20.8028044278171
 10
70.43966409159764
 20
20.79375933844233
 10
70.43791474116189
 20
20.78418580043839
 10
70.43919726238477
 20
20.77412550177932
  0
LWPOLYLINE
  5
152
330
2
100
AcDbEntity
  8
0
100
AcDbPolyline
 90
       17
 70
   128
 43
0.0
 10
68.96816001474445
 20
20.62959108110693
 10
68.83491920965681
 20
20.6586040490713
 10
68.69788280537258
 20
20.67678297116913
 10
68.57791156816964
 20
20.68135856106001
 10
68.49327277274167
 20
20.6716358881327
 10
68.45684931282068
 20
20.64909537114298
 10
68.47418810393929
 20
20.61716669551614
 10
68.54264930333702
 20
20.58071288451959
 10
68.65180880784864
 20
20.54528211424052
 10
68.78505053872415
 20
20.51626941352128
 10
68.9220869430084
 20
20.49809049142346
 10
69.04205791296623
 20
20.49351513299388
 10
69.12669697563932
 20
20.503236648672
 10
69.16312016831517
 20
20.52577832288222
 10
69.14578137719655
 20
20.55770699850906
 10
69.07732044501528
 20
20.59416057804428
 10
68.96816001474445
 20
20.62959108110693
  0
LWPOLYLINE
  5
153
330
2
100
AcDbEntity
  8
0
100
AcDbPolyline
 90
       17
 70
   128
 43
0.0
 10
80.31149343158622
 20
31.04063332490583
 10
80.4447354297069
 20
31.02784758277203
 10
80.58177183399113
 20
31.05587976878356
 10
80.70174280394892
 20
31.12046299449577
 10
80.78638159937689
 20
31.21176506936275
 10
80.82280505929789
 20
31.31588498826349
 10
80.80546626817925
 20
31.41697271089733
 10
80.73700506875287
 20
31.49963716713797
 10
80.6278449057272
 20
31.55129462875737
 10
80.49460383339441
 20
31.5640806381363
 10
80.35756742911019
 20
31.53604891501872
 10
80.23759645915234
 20
31.47146522641258
 10
80.15295766372439
 20
31.38016407733345
 10
80.11653420380341
 20
31.27604323264484
 10
80.13387299492201
 20
31.17495597290494
 10
80.20233392707458
 20
31.09229128523166
 10
80.31149343158622
 20
31.04063332490583
  0
LWPOLYLINE
  5
154
330
2
100
AcDbEntity
  8
0
100
AcDbPolyline
 90
       17
 70
   128
 43
0.0
 10
79.04507745114561
 20
30.66359869359486
 10
79.17831871915592
 20
30.65081304928547
 10
79.31535512341145
 20
30.67884523529699
 10
79.43532636061441
 20
30.74342822954788
 10
79.51996515607106
 20
30.83472984152095
 10
79.55638861596336
 20
30.93884976045036
 10
79.53904982487346
 20
31.03993702019027
 10
79.47058862544702
 20
31.1226024021901
 10
79.36142819517622
 20
31.17425963237685
 10
79.22818739005986
 20
31.18704587318843
 10
79.09115098577562
 20
31.15901322428293
 10
78.97118001584653
 20
31.09442999859945
 10
78.88654095314473
 20
31.00312908095294
 10
78.85011776049755
 20
30.89900846772565
 10
78.86745628434232
 20
30.79792143941837
 10
78.93591702087483
 20
30.71525638667557
 10
79.04507745114561
 20
30.66359869359486
  0
LWPOLYLINE
  5
155
330
2
100
AcDbEntity
  8
0
100
AcDbPolyline
 90
        7
 70
   128
 43
0.0
 10
79.76695379006591
 20
32.34488892506981
 10
79.7304231262213
 20
32.32001749811238
 10
79.64578406354821
 20
32.22871565470669
 10
79.60936087087235
 20
32.12459550434464
 10
79.62669966199095
 20
32.0235087074987
 10
79.69516059414356
 20
31.94084355693149
 10
79.80432102444304
 20
31.88918586385076
  0
LWPOLYLINE
  5
156
330
2
100
AcDbEntity
  8
0
100
AcDbPolyline
 90
        9
 70
   128
 43
0.0
 10
81.50852352681594
 20
31.76193814551425
 10
81.63096740361131
 20
31.739775547178
 10
81.74644304847161
 20
31.73984466237119
 10
81.85051307374168
 20
31.76214365633393
 10
81.9391787592591
 20
31.80581506686841
 10
82.00903165644719
 20
31.86918092820659
 10
82.05738834701094
 20
31.94980589707723
 10
82.08238999190777
 20
32.04459249243821
 10
82.08307520424284
 20
32.1498967166318
  0
LWPOLYLINE
  5
157
330
2
100
AcDbEntity
  8
0
100
AcDbPolyline
 90
        9
 70
   128
 43
0.0
 10
79.42948050337733
 20
32.87195020211587
 10
79.44799539659999
 20
32.89776043313725
 10
79.46705611535429
 20
32.91649413280437
 10
79.48576101823189
 20
32.92726210188819
 10
79.50322106156423
 20
32.92955372139758
 10
79.51861073566259
 20
32.92326091459379
 10
79.53119879582724
 20
32.90868269776193
 10
79.54038944464201
 20
32.88650929506616
 10
79.54574559022126
 20
32.85779120391386
  0
LWPOLYLINE
  5
158
330
2
100
AcDbEntity
  8
0
100
AcDbPolyline
 90
        9
 70
   128
 43
0.0
 10
79.43641458125224
 20
32.84345648269545
 10
79.45065670551812
 20
32.86331114197849
 10
79.46531881889942
 20
32.87772121177602
 10
79.4797070317295
 20
32.88600404852584
 10
79.49313836289604
 20
32.88776746013622
 10
79.50497585202964
 20
32.88292663115679
 10
79.51465947227309
 20
32.87171242935911
 10
79.52172819561008
 20
32.85465524789419
 10
79.52584882515154
 20
32.83256555496607
  0
ARC
  5
159
330
2
100
AcDbEntity
  8
0
100
AcDbCircle
 10
75.68515093264787
 20
34.07989499132289
 30
0.0
 40
2.256293351321379
100
AcDbArc
 50
1.338275182220136
 51
41.5466016651512
  0
LINE
  5
15A
330
2
100
AcDbEntity
  8
0
100
AcDbLine
 10
77.37379817204516
 20
35.57633416083016
 30
0.0
 11
77.02540888792154
 21
35.85776901534782
 31
0.0
  0
LINE
  5
15B
330
2
100
AcDbEntity
  8
0
100
AcDbLine
 10
76.10369532063034
 20
35.54103912387565
 30
0.0
 11
76.10369532063034
 21
29.70887519631872
 31
0.0
  0
LWPOLYLINE
  5
15C
330
2
100
AcDbEntity
  8
0
100
AcDbPolyline
 90
        7
 70
   128
 43
0.0
 10
76.35926108904602
 20
36.14681610633051
 10
76.35876179622108
 20
36.14667266726094
 10
76.27179217519143
 20
36.09836656158395
 10
76.20041802199295
 20
36.00954177900897
 10
76.1473822735656
 20
35.88361273677874
 10
76.114722990719
 20
35.72541898506759
 10
76.10369532063034
 20
35.54103912387565
  0
LWPOLYLINE
  5
15D
330
2
100
AcDbEntity
  8
0
100
AcDbPolyline
 90
        5
 70
   128
 43
0.0
 10
73.32961855400445
 20
36.20025183667373
 10
73.32961855400445
 20
30.10906509668165
 10
73.33211588566412
 20
30.10013455889469
 10
73.33689032137347
 20
30.09221576069494
 10
73.3440356452353
 20
30.08475641278093
  0
LINE
  5
15E
330
2
100
AcDbEntity
  8
0
100
AcDbLine
 10
73.49768300687934
 20
29.95169389440348
 30
0.0
 11
73.3440356452353
 21
30.08475641278093
 31
0.0
  0
LWPOLYLINE
  5
15F
330
2
100
AcDbEntity
  8
0
100
AcDbPolyline
 90
        5
 70
   128
 43
0.0
 10
74.05053464609031
 20
36.77077873387891
 10
73.93856864767362
 20
36.84864330081055
 10
73.83090553386789
 20
36.88531487090771
 10
73.73168262683406
 20
36.87938416530613
 10
73.73167973476373
 20
36.87938255894773
  0
LINE
  5
160
330
2
100
AcDbEntity
  8
0
100
AcDbLine
 10
74.80125057217724
 20
36.12063967087683
 30
0.0
 11
74.05053464609031
 21
36.77077873387891
 31
0.0
  0
LINE
  5
161
330
2
100
AcDbEntity
  8
0
100
AcDbLine
 10
74.85271034703527
 20
29.98177168251322
 30
0.0
 11
74.85014360329433
 21
29.98359793406359
 31
0.0
  0
LINE
  5
162
330
2
100
AcDbEntity
  8
0
100
AcDbLine
 10
74.81427375999165
 20
30.01466212958892
 30
0.0
 11
74.85014360329433
 21
29.98359793406359
 31
0.0
  0
LINE
  5
163
330
2
100
AcDbEntity
  8
0
100
AcDbLine
 10
74.81427375999165
 20
30.01466212958892
 30
0.0
 11
74.86109102698375
 21
29.98135914908655
 31
0.0
  0
ARC
  5
164
330
2
100
AcDbEntity
  8
0
100
AcDbCircle
 10
74.84215412175524
 20
30.0513987843647
 30
0.0
 40
0.0461182867961237
100
AcDbArc
 50
177.5870192579989
 51
232.8042323887997
  0
LINE
  5
165
330
2
100
AcDbEntity
  8
0
100
AcDbLine
 10
74.79607672723656
 20
30.05334045697372
 30
0.0
 11
74.79607672723656
 21
35.99194208630545
 31
0.0
  0
LINE
  5
166
330
2
100
AcDbEntity
  8
0
100
AcDbLine
 10
74.85014360329433
 20
29.98359793406359
 30
0.0
 11
74.84711026303576
 21
29.98598105348038
 31
0.0
  0
LINE
  5
167
330
2
100
AcDbEntity
  8
0
100
AcDbLine
 10
73.65362331435841
 20
36.85630108264166
 30
0.0
 11
73.63898928418516
 21
36.85262513063849
 31
0.0
  0
LWPOLYLINE
  5
168
330
2
100
AcDbEntity
  8
0
100
AcDbPolyline
 90
        7
 70
   128
 43
0.0
 10
74.79607672723656
 20
35.99194208630545
 10
74.80710446415805
 20
36.17632188961771
 10
74.83976368020055
 20
36.33451569920857
 10
74.89279936179508
 20
36.46044479931845
 10
74.96417358179768
 20
36.54926952401375
 10
75.05114313602324
 20
36.59757568754173
 10
75.05164249565225
 20
36.59771906876029
  0
LINE
  5
169
330
2
100
AcDbEntity
  8
0
100
AcDbLine
 10
71.11881055902718
 20
29.5009645601877
 30
0.0
 11
71.16953825571241
 21
29.45703308619015
 31
0.0
  0
LINE
  5
16A
330
2
100
AcDbEntity
  8
0
100
AcDbLine
 10
71.23501080690562
 20
29.4003321936202
 30
0.0
 11
71.16953825571241
 21
29.45703308619015
 31
0.0
  0
LINE
  5
16B
330
2
100
AcDbEntity
  8
0
100
AcDbLine
 10
71.00967344321844
 20
29.57907253888329
 30
0.0
 11
71.11881055902718
 21
29.5009645601877
 31
0.0
  0
ARC
  5
16C
330
2
100
AcDbEntity
  8
0
100
AcDbCircle
 10
71.03755449242156
 20
29.61580951711953
 30
0.0
 40
0.0461189600302617
100
AcDbArc
 50
177.5874566717
 51
232.8037949750995
  0
LINE
  5
16D
330
2
100
AcDbEntity
  8
0
100
AcDbLine
 10
70.99147641043469
 20
29.6177508662681
 30
0.0
 11
70.99147641043469
 21
35.55635249562853
 31
0.0
  0
LWPOLYLINE
  5
16E
330
2
100
AcDbEntity
  8
0
100
AcDbPolyline
 90
        7
 70
   128
 43
0.0
 10
70.99147641043469
 20
35.55635249562853
 10
71.00250401371923
 20
35.74073241464275
 10
71.03516336339864
 20
35.89892610850294
 10
71.08819904502188
 20
36.02485520861283
 10
71.15957313138756
 20
36.11368004903876
 10
71.24654281922132
 20
36.16198609686481
 10
71.24704217887906
 20
36.16212947808338
  0
LINE
  5
16F
330
2
100
AcDbEntity
  8
0
100
AcDbLine
 10
72.66241162535646
 20
30.02940181479466
 30
0.0
 11
72.71313932204169
 21
29.9854703407971
 31
0.0
  0
LINE
  5
170
330
2
100
AcDbEntity
  8
0
100
AcDbLine
 10
72.76694415378547
 20
29.93887398965813
 30
0.0
 11
72.71313932204169
 21
29.9854703407971
 31
0.0
  0
LINE
  5
171
330
2
100
AcDbEntity
  8
0
100
AcDbLine
 10
72.76694415378547
 20
29.85262769675422
 30
0.0
 11
72.76694415378547
 21
29.93887398965813
 31
0.0
  0
LINE
  5
172
330
2
100
AcDbEntity
  8
0
100
AcDbLine
 10
72.55327448059357
 20
30.10750978511104
 30
0.0
 11
72.66241162535646
 21
30.02940181479466
 31
0.0
  0
ARC
  5
173
330
2
100
AcDbEntity
  8
0
100
AcDbCircle
 10
72.58115550055554
 20
30.14424671553987
 30
0.0
 40
0.0461189042730087
100
AcDbArc
 50
177.5873839265005
 51
232.8037880098
  0
LINE
  5
174
330
2
100
AcDbEntity
  8
0
100
AcDbLine
 10
72.53507747676398
 20
30.14618812087507
 30
0.0
 11
72.53507747676398
 21
36.0847897502068
 31
0.0
  0
LWPOLYLINE
  5
175
330
2
100
AcDbEntity
  8
0
100
AcDbPolyline
 90
        4
 70
   128
 43
0.0
 10
71.64253784727671
 20
29.70747862722322
 10
71.64503517893641
 20
29.69595431782165
 10
71.64980955679474
 20
29.68803550292089
 10
71.65695488065654
 20
29.68057615500688
  0
LINE
  5
176
330
2
100
AcDbEntity
  8
0
100
AcDbLine
 10
71.71075971240033
 20
29.63397980386791
 30
0.0
 11
71.65695488065654
 21
29.68057615500688
 31
0.0
  0
LINE
  5
177
330
2
100
AcDbEntity
  8
0
100
AcDbLine
 10
71.71075971240033
 20
29.58638510746486
 30
0.0
 11
71.71075971240033
 21
29.63397980386791
 31
0.0
  0
LWPOLYLINE
  5
178
330
2
100
AcDbEntity
  8
0
100
AcDbPolyline
 90
        5
 70
   128
 43
0.0
 10
72.36345393936257
 20
36.36659849280589
 10
72.25148794094589
 20
36.44446305973752
 10
72.14382482714016
 20
36.48113462983471
 10
72.04460192010635
 20
36.47520392423312
 10
72.04459902802878
 20
36.47520231786439
  0
LINE
  5
179
330
2
100
AcDbEntity
  8
0
100
AcDbLine
 10
72.54025143740659
 20
36.21348736818023
 30
0.0
 11
72.36345393936257
 21
36.36659849280589
 31
0.0
  0
LWPOLYLINE
  5
17A
330
2
100
AcDbEntity
  8
0
100
AcDbPolyline
 90
        7
 70
   128
 43
0.0
 10
72.53507747676398
 20
36.0847897502068
 10
72.54610508004853
 20
36.26916966924972
 10
72.57876442969926
 20
36.42736336310989
 10
72.63180011132245
 20
36.5532924632198
 10
72.70317433132508
 20
36.64211718791507
 10
72.79014388555061
 20
36.69042335144307
 10
72.79064324517967
 20
36.69056673266164
  0
LINE
  5
17B
330
2
100
AcDbEntity
  8
0
100
AcDbLine
 10
77.43260444841412
 20
28.98280725643923
 30
0.0
 11
75.40802828507259
 21
29.52105038697116
 31
0.0
  0
ARC
  5
17C
330
2
100
AcDbEntity
  8
0
100
AcDbCircle
 10
77.73194374743201
 20
27.16991280905013
 30
0.0
 40
1.463113140234477
100
AcDbArc
 50
3.903302713498998
 51
43.88170829670069
  0
ELLIPSE
  5
17D
330
2
100
AcDbEntity
  8
0
100
AcDbEllipse
 10
74.38624051957941
 20
27.39723418690874
 30
0.0
 11
4.800909452555219
 21
-0.6628895309615789
 31
0.0
210
0.0
220
0.0
230
1.0
 40
0.3517094056999999
 41
3.364292861008334
 42
3.373254865492339
  0
LINE
  5
17E
330
2
100
AcDbEntity
  8
0
100
AcDbLine
 10
69.65239815521889
 20
28.00631330293035
 30
0.0
 11
69.65239815521889
 21
27.62901843584981
 31
0.0
  0
LINE
  5
17F
330
2
100
AcDbEntity
  8
0
100
AcDbLine
 10
75.14912565143845
 20
29.96265267998549
 30
0.0
 11
75.14912565143845
 21
29.58649507270695
 31
0.0
  0
LWPOLYLINE
  5
180
330
2
100
AcDbEntity
  8
0
100
AcDbPolyline
 90
       16
 70
   128
 43
0.0
 10
69.65239815521889
 20
28.00631330293035
 10
69.76409666349536
 20
28.24916495653268
 10
69.9254887327191
 20
28.48492793658858
 10
70.13483872089867
 20
28.7110677158112
 10
70.38989596254302
 20
28.92515290646145
 10
70.68791838144639
 20
29.1248819811311
 10
71.0257019097775
 20
29.30810750375251
 10
71.39961534364047
 20
29.4728594610201
 10
71.80563795479269
 20
29.61736707519481
 10
72.23940507647241
 20
29.74007628396739
 10
72.69625311843526
 20
29.83966798116576
 10
73.17127039710531
 20
29.91507145588803
 10
73.65935006359852
 20
29.96547581411129
 10
74.15524454448085
 20
29.99033952229578
 10
74.65362247841174
 20
29.98939511704583
 10
75.14912565143845
 20
29.96265267998549
  0
LINE
  5
181
330
2
100
AcDbEntity
  8
0
100
AcDbLine
 10
77.7047424838205
 20
29.28322975878492
 30
0.0
 11
75.14912565143845
 21
29.96265267998549
 31
0.0
  0
ARC
  5
182
330
2
100
AcDbEntity
  8
0
100
AcDbCircle
 10
77.84153362815112
 20
27.57162979111331
 30
0.0
 40
1.351396707830281
100
AcDbArc
 50
0.7717877943996299
 51
35.4724682836004
  0
LWPOLYLINE
  5
183
330
2
100
AcDbEntity
  8
0
100
AcDbPolyline
 90
       60
 70
   128
 43
0.0
 10
72.45138866240472
 20
21.23945678527389
 10
72.0342409263645
 20
21.3536963891906
 10
71.64374211262172
 20
21.48945897101942
 10
71.28431703396223
 20
21.64520608382566
 10
70.96003805613922
 20
21.81917321252591
 10
70.67457929622381
 20
22.00938912819792
 10
70.43117497606781
 20
22.21369859246729
 10
70.23258346177796
 20
22.42978681888825
 10
70.08105429884344
 20
22.65520534894739
 10
69.97830449311861
 20
22.88740007621537
 10
69.92549865390415
 20
23.12374020222674
 10
69.92323456735842
 20
23.36154783414406
 10
69.97153831563662
 20
23.59812866979649
 10
70.06986231893924
 20
23.83080202196621
 10
70.21709248748308
 20
24.05693150512022
 10
70.41156088079398
 20
24.27395522928954
 10
70.65106410173631
 20
24.4794141000463
 10
70.932888154701
 20
24.67098013348874
 10
71.25384023164923
 20
24.84648291333722
 10
71.61028363373148
 20
25.00393386725515
 10
71.99817955272385
 20
25.1415491290919
 10
72.41313336406665
 20
25.25776922873415
 10
72.85044311657562
 20
25.35127756433167
 10
73.30515414824509
 20
25.4210144714783
 10
73.77211441626392
 20
25.46618995527734
 10
74.24603286607325
 20
25.48629205356764
 10
74.72154007535102
 20
25.48109307969298
 10
75.19324802578369
 20
25.45065191022716
 10
75.65581206241455
 20
25.39531350968355
 10
76.10399174251701
 20
25.31570473996308
 10
76.53270839166815
 20
25.21272767652873
 10
76.93710496384662
 20
25.08754919207202
 10
77.3125989676771
 20
24.9415874583527
 10
77.65493623992219
 20
24.77649637834441
 10
77.96023778976937
 20
24.59414639790209
 10
78.22504450725176
 20
24.39660369301064
 10
78.4463561868344
 20
24.18610652993954
 10
78.621665159266
 20
23.96503988077181
 10
78.74898496506208
 20
23.73590845336815
 10
78.8268732329899
 20
23.50130859323706
 10
78.85444730847094
 20
23.26389817930168
 10
78.83139474176878
 20
23.0263672298906
 10
78.75797684226611
 20
22.79140729750256
 10
78.63502554214377
 20
22.56168024411224
 10
78.46393361253443
 20
22.33978903181937
 10
78.24663991169444
 20
22.12824800517837
 10
77.98560630811525
 20
21.92945370204935
 10
77.68379051512591
 20
21.74565880452938
 10
77.34461209216383
 20
21.57894566010486
 10
76.97191417709657
 20
21.43120319951151
 10
76.56991947568603
 20
21.30410543714617
 10
76.1431828775597
 20
21.19909239189319
 10
75.69653946602693
 20
21.11735384445724
 10
75.23504976588441
 20
21.05981615505855
 10
74.76394264730931
 20
21.02713102699898
 10
74.28855627917624
 20
21.01966879962125
 10
73.8142764063928
 20
21.03751420848617
 10
73.34647737449728
 20
21.08046494483736
 10
72.89045907372416
 20
21.14803428308611
 10
72.45138866240472
 20
21.23945678527389
  0
ARC
  5
184
330
2
100
AcDbEntity
  8
0
100
AcDbCircle
 10
74.38624052956559
 20
30.04111481521605
 30
0.0
 40
5.203060194864841
100
AcDbArc
 50
247.1574837647
 51
292.8425157903002
  0
LWPOLYLINE
  5
185
330
2
100
AcDbEntity
  8
0
100
AcDbPolyline
 90
       70
 70
   128
 43
0.0
 10
69.11836351583712
 20
21.90651795616432
 10
68.86361919270578
 20
22.15233537301957
 10
68.65463647257293
 20
22.40871674250784
 10
68.49314832945514
 20
22.67353803433408
 10
68.38049177543635
 20
22.94460442581929
 10
68.31760065862238
 20
23.21966990164685
 10
68.30499655207042
 20
23.49645529966682
 10
68.34278321751336
 20
23.77266700290391
 10
68.43064775902178
 20
24.0460162511966
 10
68.5678626767714
 20
24.31423794110175
 10
68.75329017300976
 20
24.57510961338444
 10
68.98539435588722
 20
24.82646947971097
 10
69.2622514846477
 20
25.06623481016443
 10
69.58156745385398
 20
25.29241886134285
 10
69.94069680986028
 20
25.50314701242137
 10
70.33666298623082
 20
25.69667371617844
 10
70.76618536680737
 20
25.87139494034305
 10
71.22570471724201
 20
26.02586291526188
 10
71.7114131246879
 20
26.15879786278409
 10
72.21928622759683
 20
26.26909791730287
 10
72.74511508440747
 20
26.35584955993762
 10
73.28454324991222
 20
26.41833338400401
 10
73.83310011621848
 20
26.45603217667558
 10
74.3862406674782
 20
26.46863313737953
 10
74.93938093502134
 20
26.45603224947714
 10
75.4879379654396
 20
26.4183334742527
 10
76.02736589684297
 20
26.35584944443655
 10
76.55319457539457
 20
26.26909795360322
 10
77.06106778051836
 20
26.15879771522965
 10
77.54677632240464
 20
26.02586295044308
 10
78.00629580690665
 20
25.87139500238363
 10
78.43581790551701
 20
25.69667369609129
 10
78.83178439094265
 20
25.50314710499443
 10
79.19091357061255
 20
25.29241881425284
 10
79.51022959904718
 20
25.06623482907504
 10
79.78708671882586
 20
24.82646953012972
 10
80.01919085877421
 20
24.57510964130558
 10
80.2046183751284
 20
24.31423799952665
 10
80.34183302081201
 20
24.04601618625772
 10
80.42969815116078
 20
23.77266700867179
 10
80.46748474308474
 20
23.49645526107079
 10
80.45488023886468
 20
23.21966991062869
 10
80.39198925321976
 20
22.94460424268191
 10
80.27933290374553
 20
22.67353800041549
 10
80.11784445231873
 20
22.40871683944268
 10
79.90886213120271
 20
22.15233528997356
 10
79.65411737548031
 20
21.90651808423423
 10
79.35572159566834
 20
21.67330167996516
 10
79.01614693824838
 20
21.45461898546644
 10
78.63820769756704
 20
21.25228165008091
 10
78.22503501644816
 20
21.06796689738519
 10
77.78005316648668
 20
20.90320142014807
 10
77.30694887956762
 20
20.75935098405567
 10
76.80964282368794
 20
20.63760725602437
 10
76.29225559599141
 20
20.53897922156576
 10
75.75907442422006
 20
20.46428418956158
 10
75.21451788197743
 20
20.4141406923185
 10
74.66309762888406
 20
20.38896484732662
 10
74.10938333027053
 20
20.38896485917805
 10
73.55796317933466
 20
20.41414073300932
 10
73.01340644061102
 20
20.46428410800777
 10
72.48022538709562
 20
20.53897915068682
 10
71.96283833011111
 20
20.63760731229708
 10
71.46553229374466
 20
20.75935105783289
 10
70.99242797480094
 20
20.90320149507311
 10
70.54744615370757
 20
21.06796688539028
 10
70.13427366846705
 20
21.25228179998841
 10
69.75633380763814
 20
21.45461886307835
 10
69.41675960963992
 20
21.67330172011075
 10
69.11836351583712
 20
21.90651795616432
  0
LWPOLYLINE
  5
186
330
2
100
AcDbEntity
  8
0
100
AcDbPolyline
 90
       64
 70
   128
 43
0.0
 10
69.91298895848972
 20
21.93709571145317
 10
69.67807034791568
 20
22.16620857537792
 10
69.48994330644564
 20
22.40587801800166
 10
69.35047846571196
 20
22.65372235763075
 10
69.26106082711043
 20
22.90727804777961
 10
69.22257987022923
 20
23.16402534748195
 10
69.23541745189297
 20
23.42141269813343
 10
69.2994463566454
 20
23.6768817641856
 10
69.41403012862008
 20
23.92789376943233
 10
69.57802988016467
 20
24.17195406729148
 10
69.78981580599415
 20
24.40663691187204
 10
70.04728314013283
 20
24.6296101231822
 10
70.34787267275365
 20
24.83865767391995
 10
70.68859768684044
 20
25.03170166090877
 10
71.06607154509993
 20
25.20682384675418
 10
71.47654241277527
 20
25.36228386155313
 10
71.91593134508503
 20
25.49653636936935
 10
72.37987131333459
 20
25.60824727190294
 10
72.8637515194856
 20
25.69630619225019
 10
73.36276301105209
 20
25.75983809982288
 10
73.8719459912372
 20
25.79821172158272
 10
74.38624036189532
 20
25.81104533746982
 10
74.90053501429001
 20
25.79821159724327
 10
75.40971815984971
 20
25.75983816298262
 10
75.90872948753378
 20
25.69630610148497
 10
76.39260957970458
 20
25.6082471765177
 10
76.8565496694527
 20
25.49653630236436
 10
77.29593878019372
 20
25.36228385862615
 10
77.70640944369756
 20
25.20682389180679
 10
78.0838831911334
 20
25.03170171101186
 10
78.4246081894948
 20
24.83865759632617
 10
78.72519817370338
 20
24.62961018671497
 10
78.98266543733618
 20
24.40663699575023
 10
79.19445117988479
 20
24.17195400972744
 10
79.35845089544469
 20
23.92789370024646
 10
79.47303453639378
 20
23.67688168257439
 10
79.53706376572579
 20
23.42141268811854
 10
79.54990126391308
 20
23.16402540022506
 10
79.51142012888761
 20
22.90727801136449
 10
79.42200261488377
 20
22.6537223227652
 10
79.28253770946948
 20
22.40587804876369
 10
79.09441087446658
 20
22.16620856200562
 10
78.85949223838193
 20
21.93709557488928
 10
78.58011657833181
 20
21.72081638783049
 10
78.25906002566745
 20
21.51952050067898
 10
77.89951378808464
 20
21.33520814024761
 10
77.50505116090504
 20
21.16971132496294
 10
77.07959221780424
 20
21.0246748770598
 10
76.62736558706706
 20
20.90154014220731
 10
76.15286550908509
 20
20.80153105014848
 10
75.66080805647868
 20
20.725641167817
 10
75.15608355591158
 20
20.67462490234363
 10
74.64370781053077
 20
20.64898959202935
 10
74.12877321275924
 20
20.64898957168395
 10
73.61639763935307
 20
20.67462499801584
 10
73.11167292758397
 20
20.72564117140399
 10
72.6196154951795
 20
20.80153094535098
 10
72.14511564065269
 20
20.9015401493239
 10
71.69288888124298
 20
21.02467498874435
 10
71.26742999188964
 20
21.16971138169478
 10
70.8729674732954
 20
21.3352082000499
 10
70.51342090507815
 20
21.51952041737471
 10
70.1923647741865
 20
21.72081653722147
 10
69.91298895848972
 20
21.93709571145317
  0
LWPOLYLINE
  5
187
330
2
100
AcDbEntity
  8
0
100
AcDbPolyline
 90
       37
 70
   128
 43
0.0
 10
68.29614067784655
 20
23.42232471297461
 10
68.28993671433893
 20
23.64573526545198
 10
68.32781726440654
 20
23.92263107083627
 10
68.41589953319182
 20
24.19665712249674
 10
68.5534542435024
 20
24.46554317496774
 10
68.73934096596875
 20
24.72706076315847
 10
68.97201960952327
 20
24.97904318349659
 10
69.2495624035266
 20
25.21940237660091
 10
69.56966942318037
 20
25.44614621600121
 10
69.9296878718104
 20
25.65739641821101
 10
70.32663459763941
 20
25.85140244900169
 10
70.75722059999086
 20
26.02655631273605
 10
71.21787794970945
 20
26.18140680396918
 10
71.70478933801341
 20
26.31467081499093
 10
72.21392001063808
 20
26.42524409731374
 10
72.74105104520689
 20
26.51221055941006
 10
73.28181493951388
 20
26.5748491456704
 10
73.83173010858619
 20
26.61264132606807
 10
74.38624048787042
 20
26.62527357924602
 10
74.94075067695809
 20
26.61264136595539
 10
75.49066591613452
 20
26.57484925098446
 10
76.03142973017901
 20
26.51221050640869
 10
76.55856128035617
 20
26.4252441616787
 10
77.06769166633726
 20
26.31467082466146
 10
77.5546031942182
 20
26.18140673621811
 10
78.01526010727092
 20
26.02655613126304
 10
78.44584635546033
 20
25.85140231490564
 10
78.84279327458512
 20
25.65739651953633
 10
79.20281154598909
 20
25.44614626223034
 10
79.52291862748261
 20
25.21940227877652
 10
79.80046136455323
 20
24.97904321784562
 10
80.03313992345473
 20
24.7270607938631
 10
80.21902696651194
 20
24.46554318076432
 10
80.35658140148512
 20
24.19665722514207
 10
80.44466358647836
 20
23.92263100222432
 10
80.4825442453035
 20
23.64573540520114
 10
80.47634034463994
 20
23.42232472545735
  0
SPLINE
  5
188
330
2
100
AcDbEntity
  8
0
100
AcDbSpline
210
0.0
220
0.0
230
1.0
 70
     8
 71
     3
 72
    22
 73
    18
 74
     0
 42
0.000000001
 43
0.0000000001
 40
0.0
 40
0.0
 40
0.0
 40
0.0
 40
0.3809934063478925
 40
0.817357022805935
 40
0.9264660642152987
 40
0.9537482369082326
 40
0.9674076599284424
 40
0.9707006482481476
 40
0.9731220329259631
 40
0.9740614250382339
 40
0.9750102468384916
 40
0.9756816991518883
 40
0.9763519183063824
 40
0.9774208799966768
 40
0.9800753756693454
 40
0.9900740700490258
 40
1.0
 40
1.0
 40
1.0
 40
1.0
 10
69.64565723495195
 20
27.61391109929597
 30
0.0
 10
69.63278165072892
 20
27.33301661915024
 30
0.0
 10
69.60515925881319
 20
26.73040494086603
 30
0.0
 10
69.57150062998074
 20
26.04054608326741
 30
0.0
 10
69.54762998846472
 20
25.60373808458911
 30
0.0
 10
69.54000637255929
 20
25.48556228983879
 30
0.0
 10
69.53734406006716
 20
25.44950899691997
 30
0.0
 10
69.53583158955601
 20
25.43325171837808
 30
0.0
 10
69.53521082962755
 20
25.42758261123527
 30
0.0
 10
69.53473393490594
 20
25.42412301539402
 30
0.0
 10
69.53441670062952
 20
25.42230517440018
 30
0.0
 10
69.53413768391367
 20
25.42124812276589
 30
0.0
 10
69.53388491413946
 20
25.42079730355184
 30
0.0
 10
69.53354608161529
 20
25.42122737842855
 30
0.0
 10
69.53302088168498
 20
25.42651858395967
 30
0.0
 10
69.53288035297926
 20
25.43936823520955
 30
0.0
 10
69.53316397397777
 20
25.45249524394665
 30
0.0
 10
69.53330526658715
 20
25.45903477849585
 30
0.0
  0
LWPOLYLINE
  5
189
330
2
100
AcDbEntity
  8
0
100
AcDbPolyline
 90
       16
 70
   128
 43
0.0
 10
69.64565723494174
 20
27.6139110992934
 10
69.75783789812024
 20
27.86532351244698
 10
69.92319106967602
 20
28.10928847094159
 10
70.13981778554452
 20
28.34300319182894
 10
70.40522891286443
 20
28.56378259893587
 10
70.71637530362514
 20
28.76909040095096
 10
71.06968290946659
 20
28.9565677436155
 10
71.46109217920197
 20
29.1240610929207
 10
71.88610676443703
 20
29.2696460158501
 10
72.33984386157486
 20
29.3916500450328
 10
72.81709056521434
 20
29.48867172374018
 10
73.31236461297213
 20
29.55959598153457
 10
73.81997554877719
 20
29.60360839571272
 10
74.33409197742055
 20
29.62020334255517
 10
74.848807486351
 20
29.6091899118141
 10
75.35820890656236
 20
29.57069479358081
  0
SPLINE
  5
18A
330
2
100
AcDbEntity
  8
0
100
AcDbSpline
210
0.0
220
0.0
230
1.0
 70
     8
 71
     3
 72
     8
 73
     4
 74
     0
 42
0.000000001
 43
0.0000000001
 40
0.0
 40
0.0
 40
0.0
 40
0.0
 40
1.0
 40
1.0
 40
1.0
 40
1.0
 10
75.37470962328967
 20
29.56741745535472
 30
0.0
 10
75.36927576258662
 20
29.56902748048836
 30
0.0
 10
75.36377564312722
 20
29.57012047685275
 30
0.0
 10
75.35820900391637
 20
29.57069518374339
 30
0.0
  0
LINE
  5
18B
330
2
100
AcDbEntity
  8
0
100
AcDbLine
 10
75.28417311854609
 20
26.58044122353595
 30
0.0
 11
75.28264835503293
 21
28.67973816348667
 31
0.0
  0
LINE
  5
18C
330
2
100
AcDbEntity
  8
0
100
AcDbLine
 10
75.41276756460272
 20
29.39585033615065
 30
0.0
 11
76.6062490920749
 21
29.07855759655292
 31
0.0
  0
ELLIPSE
  5
18D
330
2
100
AcDbEntity
  8
0
100
AcDbEllipse
 10
76.60654308361777
 20
29.01670592496883
 30
0.0
 11
-0.0495838172818997
 21
0.051847842032747
 31
0.0
210
0.0
220
0.0
230
1.0
 40
0.7602689299000001
 41
3.835360514067597
 42
5.388703548342457
  0
LINE
  5
18E
330
2
100
AcDbEntity
  8
0
100
AcDbLine
 10
76.67129468971959
 20
28.93771766794677
 30
0.0
 11
76.66987082190522
 21
29.00094829934428
 31
0.0
  0
LINE
  5
18F
330
2
100
AcDbEntity
  8
0
100
AcDbLine
 10
77.1736122280585
 20
28.80417430741967
 30
0.0
 11
76.67129468971959
 21
28.93771766794677
 31
0.0
  0
LINE
  5
190
330
2
100
AcDbEntity
  8
0
100
AcDbLine
 10
77.17443812715103
 20
28.86680673863401
 30
0.0
 11
77.1736122280585
 21
28.80417430741967
 31
0.0
  0
ELLIPSE
  5
191
330
2
100
AcDbEntity
  8
0
100
AcDbEllipse
 10
77.23777599851422
 20
28.84888967774148
 30
0.0
 11
-0.0495838172818997
 21
0.0518478420327633
 31
0.0
210
0.0
220
0.0
230
1.0
 40
0.7602689299
 41
5.388703548342328
 42
6.942046582617758
  0
LINE
  5
192
330
2
100
AcDbEntity
  8
0
100
AcDbLine
 10
77.23748210465228
 20
28.9107413729423
 30
0.0
 11
77.34212314358768
 21
28.88292210035171
 31
0.0
  0
ARC
  5
193
330
2
100
AcDbEntity
  8
0
100
AcDbCircle
 10
74.4278477486679
 20
19.55420456387327
 30
0.0
 40
9.222882593377502
100
AcDbArc
 50
82.54734944020075
 51
84.27963881550054
  0
SPLINE
  5
194
330
2
100
AcDbEntity
  8
0
100
AcDbSpline
210
0.0
220
0.0
230
1.0
 70
     8
 71
     3
 72
    11
 73
     7
 74
     0
 42
0.000000001
 43
0.0000000001
 40
0.0
 40
0.0
 40
0.0
 40
0.0
 40
0.1896389501919505
 40
0.3784778568445759
 40
0.6494236007530364
 40
1.0
 40
1.0
 40
1.0
 40
1.0
 10
75.37470969361121
 20
29.56741754834893
 30
0.0
 10
75.37911374456995
 20
29.56562038208217
 30
0.0
 10
75.3879032667995
 20
29.56203363138382
 30
0.0
 10
75.39909454433445
 20
29.55035405691138
 30
0.0
 10
75.40823168175553
 20
29.53246523485003
 30
0.0
 10
75.40925546894766
 20
29.51707098046007
 30
0.0
 10
75.40983294737114
 20
29.5083876819927
 30
0.0
  0
LWPOLYLINE
  5
195
330
2
100
AcDbEntity
  8
0
100
AcDbPolyline
 90
       10
 70
   128
 43
0.0
 10
54.34591375576746
 20
22.34378205136144
 10
54.41956767975465
 20
22.27497076678061
 10
54.45370884321346
 20
22.16712842584186
 10
54.4430289673718
 20
22.04196191352528
 10
54.38896857633445
 20
21.91637440945774
 10
54.29882842439923
 20
21.80732724523914
 10
54.18478260718096
 20
21.72954837148001
 10
54.0622343645462
 20
21.69354220606982
 10
53.94773306026483
 20
21.70417131118993
 10
53.86815447002049
 20
21.75299959671676
  0
LWPOLYLINE
  5
196
330
2
100
AcDbEntity
  8
0
100
AcDbPolyline
 90
       16
 70
   128
 43
0.0
 10
41.72134725233628
 20
18.80435394654003
 10
41.7228118469547
 20
18.80506697274319
 10
41.84241979092678
 20
18.83923051497612
 10
41.9527846800392
 20
18.82498084262063
 10
42.03710163338281
 20
18.76448704522896
 10
42.08253739511827
 20
18.66695966893876
 10
42.08217263512396
 20
18.54724596496454
 10
42.03606475221977
 20
18.42357133944258
 10
41.95122935832332
 20
18.3147631286458
 10
41.84058673316253
 20
18.23738805511082
 10
41.72097878921915
 20
18.20322497577184
 10
41.61061390010675
 20
18.21747418523339
 10
41.52629509518735
 20
18.27796744813479
 10
41.4808593334519
 20
18.375494824425
 10
41.48122409341751
 20
18.49520852839921
 10
41.5099086698548
 20
18.58455093951848
  0
ARC
  5
197
330
2
100
AcDbEntity
  8
0
100
AcDbCircle
 10
75.34027619670618
 20
28.67361259801326
 30
0.0
 40
0.0579524864719814
100
AcDbArc
 50
83.21452828962987
 51
173.9325142324637
  0
ARC
  5
198
330
2
100
AcDbEntity
  8
0
100
AcDbCircle
 10
36.62341118086476
 20
16.29787881948203
 30
0.0
 40
0.1300918879739755
100
AcDbArc
 50
183.1197180373427
 51
283.4368231249509
  0
ARC
  5
199
330
2
100
AcDbEntity
  8
0
100
AcDbCircle
 10
58.71572855018467
 20
27.15493146054467
 30
0.0
 40
0.1052890016288933
100
AcDbArc
 50
67.38216101074853
 51
93.5240774858475
  0
POLYLINE
  5
19A
330
2
100
AcDbEntity
  8
0
100
AcDb2dPolyline
 66
     1
 10
0.0
 20
0.0
 30
0.0
 70
     2
  0
VERTEX
  5
19B
330
19A
100
AcDbEntity
  8
0
100
AcDbVertex
100
AcDb2dVertex
 10
58.70925664775725
 20
24.05392180571734
 30
0.0
 42
-0.0579364963769022
  0
VERTEX
  5
19C
330
19A
100
AcDbEntity
  8
0
100
AcDbVertex
100
AcDb2dVertex
 10
62.03648017097552
 20
24.17102987279029
 30
0.0
 42
-0.0673598873385097
 70
     1
  0
VERTEX
  5
19D
330
19A
100
AcDbEntity
  8
0
100
AcDbVertex
100
AcDb2dVertex
 10
64.71399138180267
 20
23.58610964115087
 30
0.0
 42
-0.011450306815309
  0
VERTEX
  5
19E
330
19A
100
AcDbEntity
  8
0
100
AcDbVertex
100
AcDb2dVertex
 10
66.31582341096424
 20
22.96021767760913
 30
0.0
 42
-0.0314694829932428
 70
     1
  0
VERTEX
  5
19F
330
19A
100
AcDbEntity
  8
0
100
AcDbVertex
100
AcDb2dVertex
 10
66.87747450279092
 20
22.68312830398441
 30
0.0
 42
-0.0818384679004543
  0
VERTEX
  5
1A0
330
19A
100
AcDbEntity
  8
0
100
AcDbVertex
100
AcDb2dVertex
 10
67.42802272963372
 20
22.23376926109497
 30
0.0
 42
-0.0499084419776045
 70
     1
  0
VERTEX
  5
1A1
330
19A
100
AcDbEntity
  8
0
100
AcDbVertex
100
AcDb2dVertex
 10
68.10530302557928
 20
21.2914800153795
 30
0.0
  0
SEQEND
  5
1A2
330
19A
100
AcDbEntity
  8
0
  0
POLYLINE
  5
1A3
330
2
100
AcDbEntity
  8
0
100
AcDb2dPolyline
 66
     1
 10
0.0
 20
0.0
 30
0.0
  0
VERTEX
  5
1A4
330
1A3
100
AcDbEntity
  8
0
100
AcDbVertex
100
AcDb2dVertex
 10
58.70925664775725
 20
23.76359477382541
 30
0.0
 42
-0.0587115938237388
  0
VERTEX
  5
1A5
330
1A3
100
AcDbEntity
  8
0
100
AcDbVertex
100
AcDb2dVertex
 10
62.01338739028663
 20
23.88500133341163
 30
0.0
 42
-0.0673598873385097
  0
VERTEX
  5
1A6
330
1A3
100
AcDbEntity
  8
0
100
AcDbVertex
100
AcDb2dVertex
 10
64.61570304935095
 20
23.316508072975
 30
0.0
 42
-0.0114503068153089
  0
VERTEX
  5
1A7
330
1A3
100
AcDbEntity
  8
0
100
AcDbVertex
100
AcDb2dVertex
 10
66.20529491687729
 20
22.69539876994974
 30
0.0
 42
-0.0314694829932429
  0
VERTEX
  5
1A8
330
1A3
100
AcDbEntity
  8
0
100
AcDbVertex
100
AcDb2dVertex
 10
66.73458397055975
 20
22.43427513913066
 30
0.0
 42
-0.081838467900454
  0
VERTEX
  5
1A9
330
1A3
100
AcDbEntity
  8
0
100
AcDbVertex
100
AcDb2dVertex
 10
67.21284243564574
 20
22.04391920726753
 30
0.0
 42
-0.0443687761746195
  0
VERTEX
  5
1AA
330
1A3
100
AcDbEntity
  8
0
100
AcDbVertex
100
AcDb2dVertex
 10
67.79436933429244
 20
21.25343735157386
 30
0.0
 42
-0.0499084419776047
  0
SEQEND
  5
1AB
330
1A3
100
AcDbEntity
  8
0
  0
POLYLINE
  5
1AC
330
2
100
AcDbEntity
  8
0
100
AcDb2dPolyline
 66
     1
 10
0.0
 20
0.0
 30
0.0
 70
     2
  0
VERTEX
  5
1AD
330
1AC
100
AcDbEntity
  8
0
100
AcDbVertex
100
AcDb2dVertex
 10
68.87253899972519
 20
21.31821317269239
 30
0.0
 42
-0.0488455962787705
  0
VERTEX
  5
1AE
330
1AC
100
AcDbEntity
  8
0
100
AcDbVertex
100
AcDb2dVertex
 10
68.13302740133558
 20
22.07059318233537
 30
0.0
 42
-0.0597583052236917
 70
     1
  0
VERTEX
  5
1AF
330
1AC
100
AcDbEntity
  8
0
100
AcDbVertex
100
AcDb2dVertex
 10
67.67459399591053
 20
22.80215595733422
 30
0.0
 42
-0.0048941852910339
  0
VERTEX
  5
1B0
330
1AC
100
AcDbEntity
  8
0
100
AcDbVertex
100
AcDb2dVertex
 10
67.4637958201175
 20
23.26103774236446
 30
0.0
 42
-0.021488261389958
 70
     1
  0
VERTEX
  5
1B1
330
1AC
100
AcDbEntity
  8
0
100
AcDbVertex
100
AcDb2dVertex
 10
67.42134395146215
 20
23.3679862684003
 30
0.0
 42
-0.0429133047917358
  0
VERTEX
  5
1B2
330
1AC
100
AcDbEntity
  8
0
100
AcDbVertex
100
AcDb2dVertex
 10
67.24086871385683
 20
24.0773896820085
 30
0.0
 42
-0.0165742420476657
 70
     1
  0
VERTEX
  5
1B3
330
1AC
100
AcDbEntity
  8
0
100
AcDbVertex
100
AcDb2dVertex
 10
66.99518670055869
 20
25.95367240366455
 30
0.0
 42
-0.0135478280119832
  0
VERTEX
  5
1B4
330
1AC
100
AcDbEntity
  8
0
100
AcDbVertex
100
AcDb2dVertex
 10
66.94993326688541
 20
26.59945809930724
 30
0.0
 42
-0.0065323148410047
 70
     1
  0
VERTEX
  5
1B5
330
1AC
100
AcDbEntity
  8
0
100
AcDbVertex
100
AcDb2dVertex
 10
66.9099316572738
 20
27.9412977314794
 30
0.0
 42
-0.0630061926651922
  0
VERTEX
  5
1B6
330
1AC
100
AcDbEntity
  8
0
100
AcDbVertex
100
AcDb2dVertex
 10
67.11921470961508
 20
29.85180267277815
 30
0.0
 42
-0.1013177687733093
 70
     1
  0
VERTEX
  5
1B7
330
1AC
100
AcDbEntity
  8
0
100
AcDbVertex
100
AcDb2dVertex
 10
67.62810953105841
 20
30.94151356313143
 30
0.0
 42
-0.1072686604705578
  0
VERTEX
  5
1B8
330
1AC
100
AcDbEntity
  8
0
100
AcDbVertex
100
AcDb2dVertex
 10
68.1813883053346
 20
31.42504579427184
 30
0.0
 42
-0.0617534728423686
 70
     1
  0
VERTEX
  5
1B9
330
1AC
100
AcDbEntity
  8
0
100
AcDbVertex
100
AcDb2dVertex
 10
69.35714756709245
 20
31.89623942794734
 30
0.0
 42
-0.055592915443311
  0
VERTEX
  5
1BA
330
1AC
100
AcDbEntity
  8
0
100
AcDbVertex
100
AcDb2dVertex
 10
69.95514809783404
 20
31.98462343633611
 30
0.0
 42
-0.0467035193712873
 70
     1
  0
VERTEX
  5
1BB
330
1AC
100
AcDbEntity
  8
0
100
AcDbVertex
100
AcDb2dVertex
 10
70.67285522689658
 20
31.94318457153729
 30
0.0
  0
SEQEND
  5
1BC
330
1AC
100
AcDbEntity
  8
0
  0
POLYLINE
  5
1BD
330
2
100
AcDbEntity
  8
0
100
AcDb2dPolyline
 66
     1
 10
0.0
 20
0.0
 30
0.0
  0
VERTEX
  5
1BE
330
1BD
100
AcDbEntity
  8
0
100
AcDbVertex
100
AcDb2dVertex
 10
69.21662303648293
 20
21.40991286516733
 30
0.0
 42
-0.0588834903819056
  0
VERTEX
  5
1BF
330
1BD
100
AcDbEntity
  8
0
100
AcDbVertex
100
AcDb2dVertex
 10
68.3563107062581
 20
22.25084347387997
 30
0.0
 42
-0.059758305223691
  0
VERTEX
  5
1C0
330
1BD
100
AcDbEntity
  8
0
100
AcDbVertex
100
AcDb2dVertex
 10
67.93417071661989
 20
22.92448963186747
 30
0.0
 42
-0.0048941852910339
  0
VERTEX
  5
1C1
330
1BD
100
AcDbEntity
  8
0
100
AcDbVertex
100
AcDb2dVertex
 10
67.72571752457078
 20
23.37826667478011
 30
0.0
 42
-0.0214882613899575
  0
VERTEX
  5
1C2
330
1BD
100
AcDbEntity
  8
0
100
AcDbVertex
100
AcDb2dVertex
 10
67.69236125632014
 20
23.46230075470305
 30
0.0
 42
-0.0429133047917362
  0
VERTEX
  5
1C3
330
1BD
100
AcDbEntity
  8
0
100
AcDbVertex
100
AcDb2dVertex
 10
67.52400816300202
 20
24.12405502457439
 30
0.0
 42
-0.0165742420476656
  0
VERTEX
  5
1C4
330
1BD
100
AcDbEntity
  8
0
100
AcDbVertex
100
AcDb2dVertex
 10
67.28079547398914
 20
25.98147942433544
 30
0.0
 42
-0.0135478280119832
  0
VERTEX
  5
1C5
330
1BD
100
AcDbEntity
  8
0
100
AcDbVertex
100
AcDb2dVertex
 10
67.23662889026311
 20
26.6117553101742
 30
0.0
 42
-0.0065323148410048
  0
VERTEX
  5
1C6
330
1BD
100
AcDbEntity
  8
0
100
AcDbVertex
100
AcDb2dVertex
 10
67.19685069585937
 20
27.94610055941382
 30
0.0
 42
-0.0630061926651915
  0
VERTEX
  5
1C7
330
1BD
100
AcDbEntity
  8
0
100
AcDbVertex
100
AcDb2dVertex
 10
67.39828973191065
 20
29.78499897684928
 30
0.0
 42
-0.1013177687733092
  0
VERTEX
  5
1C8
330
1BD
100
AcDbEntity
  8
0
100
AcDbVertex
100
AcDb2dVertex
 10
67.85847573038241
 20
30.77040828539854
 30
0.0
 42
-0.1072686604705569
  0
VERTEX
  5
1C9
330
1BD
100
AcDbEntity
  8
0
100
AcDbVertex
100
AcDb2dVertex
 10
68.32009799424827
 20
31.17383826241721
 30
0.0
 42
-0.0617534728423686
  0
VERTEX
  5
1CA
330
1BD
100
AcDbEntity
  8
0
100
AcDbVertex
100
AcDb2dVertex
 10
69.4303112655414
 20
31.61876388832573
 30
0.0
 42
-0.0555929154433105
  0
VERTEX
  5
1CB
330
1BD
100
AcDbEntity
  8
0
100
AcDbVertex
100
AcDb2dVertex
 10
69.96538044339366
 20
31.69784669222428
 30
0.0
 42
-0.046703519371287
  0
VERTEX
  5
1CC
330
1BD
100
AcDbEntity
  8
0
100
AcDbVertex
100
AcDb2dVertex
 10
70.62968516290105
 20
31.65949116760682
 30
0.0
 42
-0.046703519371287
  0
SEQEND
  5
1CD
330
1BD
100
AcDbEntity
  8
0
  0
ELLIPSE
  5
1CE
330
2
100
AcDbEntity
  8
0
100
AcDbEllipse
 10
58.89461232783827
 20
21.33021817478659
 30
0.0
 11
0.3048108076564215
 21
0.0
 31
0.0
210
0.0
220
0.0
230
1.0
 40
0.6171303644892953
 41
2.338171018760503
 42
7.380107028926092
  0
POLYLINE
  5
1CF
330
2
100
AcDbEntity
  8
0
100
AcDb2dPolyline
 66
     1
 10
0.0
 20
0.0
 30
0.0
 70
     2
  0
VERTEX
  5
1D0
330
1CF
100
AcDbEntity
  8
0
100
AcDbVertex
100
AcDb2dVertex
 10
59.13030302514864
 20
21.00015886097491
 30
0.0
 42
0.0880096562533022
  0
VERTEX
  5
1D1
330
1CF
100
AcDbEntity
  8
0
100
AcDbVertex
100
AcDb2dVertex
 10
61.76543153231719
 20
19.05048010210341
 30
0.0
 42
0.1052464360854266
 70
     1
  0
VERTEX
  5
1D2
330
1CF
100
AcDbEntity
  8
0
100
AcDbVertex
100
AcDb2dVertex
 10
64.42895870367187
 20
18.36553042108777
 30
0.0
 42
0.0272445652114519
  0
VERTEX
  5
1D3
330
1CF
100
AcDbEntity
  8
0
100
AcDbVertex
100
AcDb2dVertex
 10
66.42326467787468
 20
18.39044348663781
 30
0.0
 42
0.0519632746712641
 70
     1
  0
VERTEX
  5
1D4
330
1CF
100
AcDbEntity
  8
0
100
AcDbVertex
100
AcDb2dVertex
 10
67.45576946653213
 20
18.56853071725869
 30
0.0
 42
0.0852429863494019
  0
VERTEX
  5
1D5
330
1CF
100
AcDbEntity
  8
0
100
AcDbVertex
100
AcDb2dVertex
 10
68.40321618911509
 20
19.02003181651749
 30
0.0
 42
0.0614300481464292
 70
     1
  0
VERTEX
  5
1D6
330
1CF
100
AcDbEntity
  8
0
100
AcDbVertex
100
AcDb2dVertex
 10
69.47742433198468
 20
19.99594509339619
 30
0.0
  0
SEQEND
  5
1D7
330
1CF
100
AcDbEntity
  8
0
  0
ELLIPSE
  5
1D8
330
2
100
AcDbEntity
  8
0
100
AcDbEllipse
 10
69.22843962161157
 20
20.37667676444103
 30
0.0
 11
-0.2555556654357396
 21
0.1720395810165554
 31
0.0
210
0.0
220
0.0
230
0.9999999999999998
 40
0.4166265049422466
 41
5.360526688532013
 42
10.17506547030871
  0
ELLIPSE
  5
1D9
330
2
100
AcDbEntity
  8
0
100
AcDbEllipse
 10
69.47710765490097
 20
20.1185613708837
 30
0.0
 11
-0.0034983919805735
 21
0.1229247406712525
 31
0.0
210
0.0
220
0.0
230
1.0
 40
0.5558262378430172
 41
0.0
 42
6.283185307179585
  0
ELLIPSE
  5
1DA
330
2
100
AcDbEntity
  8
0
100
AcDbEllipse
 10
59.09120451551837
 20
21.09708284867677
 30
0.0
 11
-0.0353620554415959
 21
0.0987123442898621
 31
0.0
210
0.0
220
0.0
230
0.9999999999999998
 40
0.5293258385647972
 41
0.0
 42
6.283185307179585
  0
POLYLINE
  5
1DB
330
2
100
AcDbEntity
  8
0
100
AcDb2dPolyline
 66
     1
 10
0.0
 20
0.0
 30
0.0
 70
     2
  0
VERTEX
  5
1DC
330
1DB
100
AcDbEntity
  8
0
100
AcDbVertex
100
AcDb2dVertex
 10
69.36587266745078
 20
21.45236964156231
 30
0.0
 42
-0.0218393142536468
  0
VERTEX
  5
1DD
330
1DB
100
AcDbEntity
  8
0
100
AcDbVertex
100
AcDb2dVertex
 10
69.0788351570007
 20
21.63547792908224
 30
0.0
 42
-0.0343968148298645
 70
     1
  0
VERTEX
  5
1DE
330
1DB
100
AcDbEntity
  8
0
100
AcDbVertex
100
AcDb2dVertex
 10
68.91066523524512
 20
21.77154769865464
 30
0.0
 42
-0.0059965664963173
  0
VERTEX
  5
1DF
330
1DB
100
AcDbEntity
  8
0
100
AcDbVertex
100
AcDb2dVertex
 10
68.6367082679792
 20
22.03247185678731
 30
0.0
 42
-0.0241183618853061
 70
     1
  0
VERTEX
  5
1E0
330
1DB
100
AcDbEntity
  8
0
100
AcDbVertex
100
AcDb2dVertex
 10
68.57258699921863
 20
22.10136498470138
 30
0.0
 42
-0.0277437468749824
  0
VERTEX
  5
1E1
330
1DB
100
AcDbEntity
  8
0
100
AcDbVertex
100
AcDb2dVertex
 10
68.45669302332857
 20
22.25514026426572
 30
0.0
 42
-0.019152459699147
 70
     1
  0
VERTEX
  5
1E2
330
1DB
100
AcDbEntity
  8
0
100
AcDbVertex
100
AcDb2dVertex
 10
68.31046645097882
 20
22.49254050233189
 30
0.0
 42
-0.0274890521344218
  0
VERTEX
  5
1E3
330
1DB
100
AcDbEntity
  8
0
100
AcDbVertex
100
AcDb2dVertex
 10
68.17837951582664
 20
22.75994717162541
 30
0.0
 42
-0.0242781119376193
 70
     1
  0
VERTEX
  5
1E4
330
1DB
100
AcDbEntity
  8
0
100
AcDbVertex
100
AcDb2dVertex
 10
68.06092760250113
 20
23.0765000469447
 30
0.0
 42
-0.0309058680573905
  0
VERTEX
  5
1E5
330
1DB
100
AcDbEntity
  8
0
100
AcDbVertex
100
AcDb2dVertex
 10
67.98271317253231
 20
23.38939529351581
 30
0.0
 42
-0.0198968455354462
 70
     1
  0
VERTEX
  5
1E6
330
1DB
100
AcDbEntity
  8
0
100
AcDbVertex
100
AcDb2dVertex
 10
67.91117405003257
 20
23.88495448259327
 30
0.0
 42
-0.0259011632680318
  0
VERTEX
  5
1E7
330
1DB
100
AcDbEntity
  8
0
100
AcDbVertex
100
AcDb2dVertex
 10
67.89945154463066
 20
24.11109569873156
 30
0.0
 42
-0.0053073994048922
 70
     1
  0
VERTEX
  5
1E8
330
1DB
100
AcDbEntity
  8
0
100
AcDbVertex
100
AcDb2dVertex
 10
67.91117405003257
 20
25.21541952122414
 30
0.0
 42
-0.038929241233674
  0
VERTEX
  5
1E9
330
1DB
100
AcDbEntity
  8
0
100
AcDbVertex
100
AcDb2dVertex
 10
68.01758809292834
 20
26.28626590156176
 30
0.0
 42
-0.0315179927272688
 70
     1
  0
VERTEX
  5
1EA
330
1DB
100
AcDbEntity
  8
0
100
AcDbVertex
100
AcDb2dVertex
 10
68.33321792821681
 20
27.57669679463774
 30
0.0
 42
-0.1777444106017377
  0
VERTEX
  5
1EB
330
1DB
100
AcDbEntity
  8
0
100
AcDbVertex
100
AcDb2dVertex
 10
68.8287093900888
 20
28.22214764307439
 30
0.0
 42
-0.0985740322038722
 70
     1
  0
VERTEX
  5
1EC
330
1DB
100
AcDbEntity
  8
0
100
AcDbVertex
100
AcDb2dVertex
 10
70.16881080539537
 20
28.73846699473887
 30
0.0
 42
-0.0952204189020359
  0
SEQEND
  5
1ED
330
1DB
100
AcDbEntity
  8
0
  0
POLYLINE
  5
1EE
330
2
100
AcDbEntity
  8
0
100
AcDb2dPolyline
 66
     1
 10
0.0
 20
0.0
 30
0.0
  0
VERTEX
  5
1EF
330
1EE
100
AcDbEntity
  8
0
100
AcDbVertex
100
AcDb2dVertex
 10
69.39089730205534
 20
21.49565667960962
 30
0.0
 42
-0.0218393142536473
  0
VERTEX
  5
1F0
330
1EE
100
AcDbEntity
  8
0
100
AcDbVertex
100
AcDb2dVertex
 10
69.10754042797143
 20
21.67641699866738
 30
0.0
 42
-0.0343968148298637
  0
VERTEX
  5
1F1
330
1EE
100
AcDbEntity
  8
0
100
AcDbVertex
100
AcDb2dVertex
 10
68.94471218988801
 20
21.80816470125651
 30
0.0
 42
-0.0059965664963174
  0
VERTEX
  5
1F2
330
1EE
100
AcDbEntity
  8
0
100
AcDbVertex
100
AcDb2dVertex
 10
68.67162363944396
 20
22.06826175529902
 30
0.0
 42
-0.0241183618853074
  0
VERTEX
  5
1F3
330
1EE
100
AcDbEntity
  8
0
100
AcDbVertex
100
AcDb2dVertex
 10
68.61078683400894
 20
22.13362599246607
 30
0.0
 42
-0.0277437468749829
  0
VERTEX
  5
1F4
330
1EE
100
AcDbEntity
  8
0
100
AcDbVertex
100
AcDb2dVertex
 10
68.49822990417809
 20
22.28297347337448
 30
0.0
 42
-0.0191524596991465
  0
VERTEX
  5
1F5
330
1EE
100
AcDbEntity
  8
0
100
AcDbVertex
100
AcDb2dVertex
 10
68.35401148243566
 20
22.51711345973272
 30
0.0
 42
-0.0274890521344221
  0
VERTEX
  5
1F6
330
1EE
100
AcDbEntity
  8
0
100
AcDbVertex
100
AcDb2dVertex
 10
68.22435753870694
 20
22.77959459924376
 30
0.0
 42
-0.0242781119376193
  0
VERTEX
  5
1F7
330
1EE
100
AcDbEntity
  8
0
100
AcDbVertex
100
AcDb2dVertex
 10
68.10859371453982
 20
23.09159778727609
 30
0.0
 42
-0.0309058680573906
  0
VERTEX
  5
1F8
330
1EE
100
AcDbEntity
  8
0
100
AcDbVertex
100
AcDb2dVertex
 10
68.03187683972796
 20
23.39850209470371
 30
0.0
 42
-0.0198968455354461
  0
VERTEX
  5
1F9
330
1EE
100
AcDbEntity
  8
0
100
AcDbVertex
100
AcDb2dVertex
 10
67.96090606162064
 20
23.89012430110114
 30
0.0
 42
-0.0259011632680318
  0
VERTEX
  5
1FA
330
1EE
100
AcDbEntity
  8
0
100
AcDbVertex
100
AcDb2dVertex
 10
67.94945154463066
 20
24.11109569873156
 30
0.0
 42
-0.0053073994048922
  0
VERTEX
  5
1FB
330
1EE
100
AcDbEntity
  8
0
100
AcDbVertex
100
AcDb2dVertex
 10
67.96116278327193
 20
25.21435813103979
 30
0.0
 42
-0.0389292412336741
  0
VERTEX
  5
1FC
330
1EE
100
AcDbEntity
  8
0
100
AcDbVertex
100
AcDb2dVertex
 10
68.06680807428221
 20
26.27746854766833
 30
0.0
 42
-0.0315179927272688
  0
VERTEX
  5
1FD
330
1EE
100
AcDbEntity
  8
0
100
AcDbVertex
100
AcDb2dVertex
 10
68.38094173094147
 20
27.56178241722877
 30
0.0
 42
-0.1777444106017369
  0
VERTEX
  5
1FE
330
1EE
100
AcDbEntity
  8
0
100
AcDbVertex
100
AcDb2dVertex
 10
68.85544931176569
 20
28.17989865978824
 30
0.0
 42
-0.0932273013246131
  0
VERTEX
  5
1FF
330
1EE
100
AcDbEntity
  8
0
100
AcDbVertex
100
AcDb2dVertex
 10
70.10172313760401
 20
28.67529627507599
 30
0.0
 42
-0.0985740322038722
  0
SEQEND
  5
200
330
1EE
100
AcDbEntity
  8
0
  0
LINE
  5
201
330
2
100
AcDbEntity
  8
0
  6
Continuous
 62
     7
370
    15
100
AcDbLine
 10
58.91818946452045
 20
20.86290389257085
 30
0.0
 11
59.12904210644581
 21
20.68030014819781
 31
0.0
  0
LINE
  5
202
330
2
100
AcDbEntity
  8
0
  6
Continuous
 62
     7
370
    15
100
AcDbLine
 10
58.9836316619332
 20
20.83230239884003
 30
0.0
 11
59.04315882368746
 21
20.84948641026015
 31
0.0
  0
ARC
  5
203
330
2
100
AcDbEntity
  8
0
  6
Continuous
 62
     7
370
    15
100
AcDbCircle
 10
59.0247986853987
 20
20.9947649601879
 30
0.0
 40
0.1675971588541174
100
AcDbArc
 50
174.8069247138072
 51
210.0763998313958
  0
ARC
  5
204
330
2
100
AcDbEntity
  8
0
  6
Continuous
 62
     7
370
    15
100
AcDbCircle
 10
59.0247986853987
 20
20.9947649601879
 30
0.0
 40
0.1675971588541174
100
AcDbArc
 50
231.7295710137043
 51
255.7808851649026
  0
LINE
  5
205
330
2
100
AcDbEntity
  8
0
  6
Continuous
 62
     7
370
    15
100
AcDbLine
 10
59.1988510557411
 20
20.64591693640441
 30
0.0
 11
59.25837821749536
 21
20.66310094785329
 31
0.0
  0
LWPOLYLINE
  5
206
330
2
100
AcDbEntity
  8
0
  6
Continuous
 62
     7
370
    15
100
AcDbPolyline
 90
        3
 70
   128
 43
0.0
 10
59.12904210644581
 20
20.68030014819781
 10
59.15635744427277
 20
20.66149034631062
 10
59.1988510557411
 20
20.64591693640441
  0
POLYLINE
  5
207
330
2
100
AcDbEntity
  8
0
100
AcDb2dPolyline
 66
     1
 10
0.0
 20
0.0
 30
0.0
 70
     2
  0
VERTEX
  5
208
330
207
100
AcDbEntity
  8
0
100
AcDbVertex
100
AcDb2dVertex
 10
58.96148221933015
 20
20.9202204449629
 30
0.0
 42
-0.140431352309824
  0
VERTEX
  5
209
330
207
100
AcDbEntity
  8
0
100
AcDbVertex
100
AcDb2dVertex
 10
58.73322371436987
 20
20.93501383825511
 30
0.0
 42
-0.1464093172914803
 70
     1
  0
VERTEX
  5
20A
330
207
100
AcDbEntity
  8
0
100
AcDbVertex
100
AcDb2dVertex
 10
58.61634088310427
 20
21.02104490204354
 30
0.0
 42
-0.031911303659213
  0
VERTEX
  5
20B
330
207
100
AcDbEntity
  8
0
100
AcDbVertex
100
AcDb2dVertex
 10
58.54683281991778
 20
21.12673692427865
 30
0.0
 42
-0.0660890035132398
 70
     1
  0
VERTEX
  5
20C
330
207
100
AcDbEntity
  8
0
100
AcDbVertex
100
AcDb2dVertex
 10
58.52376292215524
 20
21.18351416420734
 30
0.0
 42
-0.0360069354738484
  0
VERTEX
  5
20D
330
207
100
AcDbEntity
  8
0
100
AcDbVertex
100
AcDb2dVertex
 10
58.47816398307724
 20
21.43131807262222
 30
0.0
 42
-0.0273003078104753
 70
     1
  0
VERTEX
  5
20E
330
207
100
AcDbEntity
  8
0
100
AcDbVertex
100
AcDb2dVertex
 10
58.45977074409529
 20
21.76294641506948
 30
0.0
 42
-0.0014826684145109
  0
VERTEX
  5
20F
330
207
100
AcDbEntity
  8
0
100
AcDbVertex
100
AcDb2dVertex
 10
58.46074910912685
 20
22.21890093161528
 30
0.0
 42
-0.0025506127775922
 70
     1
  0
VERTEX
  5
210
330
207
100
AcDbEntity
  8
0
100
AcDbVertex
100
AcDb2dVertex
 10
58.46345580708334
 20
22.48393472366237
 30
0.0
 42
-0.0018144405403504
  0
VERTEX
  5
211
330
207
100
AcDbEntity
  8
0
100
AcDbVertex
100
AcDb2dVertex
 10
58.46702790049949
 20
22.67248888121685
 30
0.0
 42
-0.0007140255589696
 70
     1
  0
VERTEX
  5
212
330
207
100
AcDbEntity
  8
0
100
AcDbVertex
100
AcDb2dVertex
 10
58.47852793108785
 20
23.15157846199276
 30
0.0
 42
-0.0213702727696047
  0
VERTEX
  5
213
330
207
100
AcDbEntity
  8
0
100
AcDbVertex
100
AcDb2dVertex
 10
58.51629389066093
 20
23.70478673059285
 30
0.0
 42
-0.0598989219417819
 70
     1
  0
VERTEX
  5
214
330
207
100
AcDbEntity
  8
0
100
AcDbVertex
100
AcDb2dVertex
 10
58.56164187734134
 20
23.89798384352827
 30
0.0
 42
-0.0608786226021745
  0
VERTEX
  5
215
330
207
100
AcDbEntity
  8
0
100
AcDbVertex
100
AcDb2dVertex
 10
58.58814231005561
 20
23.94992022000946
 30
0.0
 42
-0.0360776436672317
 70
     1
  0
VERTEX
  5
216
330
207
100
AcDbEntity
  8
0
100
AcDbVertex
100
AcDb2dVertex
 10
58.64875036544908
 20
24.02712537666904
 30
0.0
 42
-0.0757818336882323
  0
VERTEX
  5
217
330
207
100
AcDbEntity
  8
0
100
AcDbVertex
100
AcDb2dVertex
 10
58.7733572927478
 20
24.12827290834604
 30
0.0
 42
-0.067141599442933
 70
     1
  0
VERTEX
  5
218
330
207
100
AcDbEntity
  8
0
100
AcDbVertex
100
AcDb2dVertex
 10
58.94024401928567
 20
24.19814354901012
 30
0.0
 42
-0.0478185630672815
  0
VERTEX
  5
219
330
207
100
AcDbEntity
  8
0
100
AcDbVertex
100
AcDb2dVertex
 10
59.27743948398317
 20
24.25493309048238
 30
0.0
 42
-0.0165378206647022
 70
     1
  0
VERTEX
  5
21A
330
207
100
AcDbEntity
  8
0
100
AcDbVertex
100
AcDb2dVertex
 10
60.26345358246522
 20
24.29263150870261
 30
0.0
 42
-0.003214330272172
  0
VERTEX
  5
21B
330
207
100
AcDbEntity
  8
0
100
AcDbVertex
100
AcDb2dVertex
 10
61.19399796356606
 20
24.29143414428255
 30
0.0
 42
-0.0089959631516532
 70
     1
  0
VERTEX
  5
21C
330
207
100
AcDbEntity
  8
0
100
AcDbVertex
100
AcDb2dVertex
 10
61.52640286848106
 20
24.28288719037914
 30
0.0
 42
-0.0136795676844653
  0
VERTEX
  5
21D
330
207
100
AcDbEntity
  8
0
100
AcDbVertex
100
AcDb2dVertex
 10
62.17094023308113
 20
24.23701191431566
 30
0.0
 42
-0.0148808110540049
 70
     1
  0
VERTEX
  5
21E
330
207
100
AcDbEntity
  8
0
100
AcDbVertex
100
AcDb2dVertex
 10
62.76009432441117
 20
24.16108228697783
 30
0.0
 42
-0.0157545217365838
  0
VERTEX
  5
21F
330
207
100
AcDbEntity
  8
0
100
AcDbVertex
100
AcDb2dVertex
 10
63.43949186976914
 20
24.03081627987386
 30
0.0
 42
-0.0192142976299121
 70
     1
  0
VERTEX
  5
220
330
207
100
AcDbEntity
  8
0
100
AcDbVertex
100
AcDb2dVertex
 10
63.98779695412994
 20
23.88532589146948
 30
0.0
 42
-0.0044399277784729
  0
VERTEX
  5
221
330
207
100
AcDbEntity
  8
0
100
AcDbVertex
100
AcDb2dVertex
 10
64.43574660835088
 20
23.74347711430147
 30
0.0
 42
-0.011822496659233
 70
     1
  0
VERTEX
  5
222
330
207
100
AcDbEntity
  8
0
100
AcDbVertex
100
AcDb2dVertex
 10
64.6021724317888
 20
23.68475665885469
 30
0.0
 42
-0.0019464705613524
  0
VERTEX
  5
223
330
207
100
AcDbEntity
  8
0
100
AcDbVertex
100
AcDb2dVertex
 10
64.78982618404825
 20
23.61267710847597
 30
0.0
 42
-0.0006915624935536
 70
     1
  0
VERTEX
  5
224
330
207
100
AcDbEntity
  8
0
100
AcDbVertex
100
AcDb2dVertex
 10
65.31691662862073
 20
23.40701899525945
 30
0.0
 42
-0.0025869934724771
  0
VERTEX
  5
225
330
207
100
AcDbEntity
  8
0
100
AcDbVertex
100
AcDb2dVertex
 10
66.35369119638562
 20
22.99464091482213
 30
0.0
 42
-0.016206233204635
 70
     1
  0
VERTEX
  5
226
330
207
100
AcDbEntity
  8
0
100
AcDbVertex
100
AcDb2dVertex
 10
66.51664240156555
 20
22.92262263520135
 30
0.0
 42
-0.014381738385334
  0
VERTEX
  5
227
330
207
100
AcDbEntity
  8
0
100
AcDbVertex
100
AcDb2dVertex
 10
66.61323698042656
 20
22.8726629347434
 30
0.0
 42
-0.0059598337410936
 70
     1
  0
VERTEX
  5
228
330
207
100
AcDbEntity
  8
0
100
AcDbVertex
100
AcDb2dVertex
 10
66.84119540470113
 20
22.74274678684335
 30
0.0
 42
-0.0041890655417465
  0
VERTEX
  5
229
330
207
100
AcDbEntity
  8
0
100
AcDbVertex
100
AcDb2dVertex
 10
66.94483804359515
 20
22.68085966027661
 30
0.0
 42
-0.0039028169218749
 70
     1
  0
VERTEX
  5
22A
330
207
100
AcDbEntity
  8
0
100
AcDbVertex
100
AcDb2dVertex
 10
67.0549924634318
 20
22.61264207262806
 30
0.0
 42
-0.0279871645229435
  0
VERTEX
  5
22B
330
207
100
AcDbEntity
  8
0
100
AcDbVertex
100
AcDb2dVertex
 10
67.24986191809285
 20
22.47403767124962
 30
0.0
 42
-0.0355566708235577
 70
     1
  0
VERTEX
  5
22C
330
207
100
AcDbEntity
  8
0
100
AcDbVertex
100
AcDb2dVertex
 10
67.38825395718189
 20
22.34632396827683
 30
0.0
 42
-0.0072531525995857
  0
VERTEX
  5
22D
330
207
100
AcDbEntity
  8
0
100
AcDbVertex
100
AcDb2dVertex
 10
67.48822549424426
 20
22.23681824442656
 30
0.0
 42
-0.0093084219315826
 70
     1
  0
VERTEX
  5
22E
330
207
100
AcDbEntity
  8
0
100
AcDbVertex
100
AcDb2dVertex
 10
67.56325774585144
 20
22.14895514139815
 30
0.0
 42
-0.0012227726203102
  0
VERTEX
  5
22F
330
207
100
AcDbEntity
  8
0
100
AcDbVertex
100
AcDb2dVertex
 10
67.6209898042398
 20
22.07839397418684
 30
0.0
 42
-0.0007986422688353
 70
     1
  0
VERTEX
  5
230
330
207
100
AcDbEntity
  8
0
100
AcDbVertex
100
AcDb2dVertex
 10
67.70894373629255
 20
21.97000391932935
 30
0.0
 42
-0.0055985934759021
  0
VERTEX
  5
231
330
207
100
AcDbEntity
  8
0
100
AcDbVertex
100
AcDb2dVertex
 10
67.75318189515246
 20
21.91403851960058
 30
0.0
 42
-0.0011125570844872
 70
     1
  0
VERTEX
  5
232
330
207
100
AcDbEntity
  8
0
100
AcDbVertex
100
AcDb2dVertex
 10
67.9719899181676
 20
21.62945630556933
 30
0.0
 42
-0.0386465022707797
  0
VERTEX
  5
233
330
207
100
AcDbEntity
  8
0
100
AcDbVertex
100
AcDb2dVertex
 10
68.0396524763255
 20
21.52527273705675
 30
0.0
 42
-0.0186550653561879
 70
     1
  0
VERTEX
  5
234
330
207
100
AcDbEntity
  8
0
100
AcDbVertex
100
AcDb2dVertex
 10
68.15410322316648
 20
21.29509756934977
 30
0.0
  0
SEQEND
  5
235
330
207
100
AcDbEntity
  8
0
  0
POLYLINE
  5
236
330
2
100
AcDbEntity
  8
0
100
AcDb2dPolyline
 66
     1
 10
0.0
 20
0.0
 30
0.0
  0
VERTEX
  5
237
330
236
100
AcDbEntity
  8
0
100
AcDbVertex
100
AcDb2dVertex
 10
59.00735631888764
 20
20.8804923093701
 30
0.0
 42
-0.1604413511802042
  0
VERTEX
  5
238
330
236
100
AcDbEntity
  8
0
100
AcDbVertex
100
AcDb2dVertex
 10
58.71637236897282
 20
20.88793908750368
 30
0.0
 42
-0.1464093172914807
  0
VERTEX
  5
239
330
236
100
AcDbEntity
  8
0
100
AcDbVertex
100
AcDb2dVertex
 10
58.57640193133917
 20
20.99096367647169
 30
0.0
 42
-0.031911303659214
  0
VERTEX
  5
23A
330
236
100
AcDbEntity
  8
0
100
AcDbVertex
100
AcDb2dVertex
 10
58.50339056113473
 20
21.10198272964769
 30
0.0
 42
-0.0660890035132383
  0
VERTEX
  5
23B
330
236
100
AcDbEntity
  8
0
100
AcDbVertex
100
AcDb2dVertex
 10
58.4753666573156
 20
21.17095225553185
 30
0.0
 42
-0.0360069354738485
  0
VERTEX
  5
23C
330
236
100
AcDbEntity
  8
0
100
AcDbVertex
100
AcDb2dVertex
 10
58.42846614360279
 20
21.42582947065346
 30
0.0
 42
-0.0273003078104755
  0
VERTEX
  5
23D
330
236
100
AcDbEntity
  8
0
100
AcDbVertex
100
AcDb2dVertex
 10
58.40977076088835
 20
21.76290543574543
 30
0.0
 42
-0.0014826684145108
  0
VERTEX
  5
23E
330
236
100
AcDbEntity
  8
0
100
AcDbVertex
100
AcDb2dVertex
 10
58.41074976220459
 20
22.21915648463959
 30
0.0
 42
-0.0025506127775922
  0
VERTEX
  5
23F
330
236
100
AcDbEntity
  8
0
100
AcDbVertex
100
AcDb2dVertex
 10
58.4134616695598
 20
22.48470036932338
 30
0.0
 42
-0.0018144405403504
  0
VERTEX
  5
240
330
236
100
AcDbEntity
  8
0
100
AcDbVertex
100
AcDb2dVertex
 10
58.4170406365099
 20
22.67361734868871
 30
0.0
 42
-0.0007140255589697
  0
VERTEX
  5
241
330
236
100
AcDbEntity
  8
0
100
AcDbVertex
100
AcDb2dVertex
 10
58.42854409399265
 20
23.15284969338003
 30
0.0
 42
-0.0213702727696045
  0
VERTEX
  5
242
330
236
100
AcDbEntity
  8
0
100
AcDbVertex
100
AcDb2dVertex
 10
58.46660102073364
 20
23.7103201453062
 30
0.0
 42
-0.0598989219417823
  0
VERTEX
  5
243
330
236
100
AcDbEntity
  8
0
100
AcDbVertex
100
AcDb2dVertex
 10
58.51467676091695
 20
23.91513837177137
 30
0.0
 42
-0.0608786226021762
  0
VERTEX
  5
244
330
236
100
AcDbEntity
  8
0
100
AcDbVertex
100
AcDb2dVertex
 10
58.54669064334341
 20
23.97788017935816
 30
0.0
 42
-0.0360776436672334
  0
VERTEX
  5
245
330
236
100
AcDbEntity
  8
0
100
AcDbVertex
100
AcDb2dVertex
 10
58.6117484004464
 20
24.06075355809386
 30
0.0
 42
-0.0757818336882313
  0
VERTEX
  5
246
330
236
100
AcDbEntity
  8
0
100
AcDbVertex
100
AcDb2dVertex
 10
58.748055619796
 20
24.17139860075603
 30
0.0
 42
-0.0671415994429316
  0
VERTEX
  5
247
330
236
100
AcDbEntity
  8
0
100
AcDbVertex
100
AcDb2dVertex
 10
58.92727329818267
 20
24.24643185395105
 30
0.0
 42
-0.047818563067282
  0
VERTEX
  5
248
330
236
100
AcDbEntity
  8
0
100
AcDbVertex
100
AcDb2dVertex
 10
59.27387814431551
 20
24.3048060978087
 30
0.0
 42
-0.0165378206647023
  0
VERTEX
  5
249
330
236
100
AcDbEntity
  8
0
100
AcDbVertex
100
AcDb2dVertex
 10
60.26319648841365
 20
24.34263084772473
 30
0.0
 42
-0.003214330272172
  0
VERTEX
  5
24A
330
236
100
AcDbEntity
  8
0
100
AcDbVertex
100
AcDb2dVertex
 10
61.19438372839477
 20
24.34143265611535
 30
0.0
 42
-0.0089959631516534
  0
VERTEX
  5
24B
330
236
100
AcDbEntity
  8
0
100
AcDbVertex
100
AcDb2dVertex
 10
61.52858708593934
 20
24.33283945953776
 30
0.0
 42
-0.0136795676844651
  0
VERTEX
  5
24C
330
236
100
AcDbEntity
  8
0
100
AcDbVertex
100
AcDb2dVertex
 10
62.1758529497052
 20
24.28676998115282
 30
0.0
 42
-0.014880811054005
  0
VERTEX
  5
24D
330
236
100
AcDbEntity
  8
0
100
AcDbVertex
100
AcDb2dVertex
 10
62.76795813671555
 20
24.21046001936847
 30
0.0
 42
-0.0157545217365838
  0
VERTEX
  5
24E
330
236
100
AcDbEntity
  8
0
100
AcDbVertex
100
AcDb2dVertex
 10
63.45044944930485
 20
24.07960082097777
 30
0.0
 42
-0.0192142976299119
  0
VERTEX
  5
24F
330
236
100
AcDbEntity
  8
0
100
AcDbVertex
100
AcDb2dVertex
 10
64.00246748674799
 20
23.93312521649299
 30
0.0
 42
-0.0044399277784728
  0
VERTEX
  5
250
330
236
100
AcDbEntity
  8
0
100
AcDbVertex
100
AcDb2dVertex
 10
64.4512636794657
 20
23.79100837247983
 30
0.0
 42
-0.0118224966592331
  0
VERTEX
  5
251
330
236
100
AcDbEntity
  8
0
100
AcDbVertex
100
AcDb2dVertex
 10
64.6199189672764
 20
23.73150128932909
 30
0.0
 42
-0.0019464705613525
  0
VERTEX
  5
252
330
236
100
AcDbEntity
  8
0
100
AcDbVertex
100
AcDb2dVertex
 10
64.80793612569455
 20
23.65928215126714
 30
0.0
 42
-0.0006915624935536
  0
VERTEX
  5
253
330
236
100
AcDbEntity
  8
0
100
AcDbVertex
100
AcDb2dVertex
 10
65.33515542199047
 20
23.45357376318302
 30
0.0
 42
-0.002586993472477
  0
VERTEX
  5
254
330
236
100
AcDbEntity
  8
0
100
AcDbVertex
100
AcDb2dVertex
 10
66.37241075110897
 20
23.04100445945536
 30
0.0
 42
-0.0162062332046352
  0
VERTEX
  5
255
330
236
100
AcDbEntity
  8
0
100
AcDbVertex
100
AcDb2dVertex
 10
66.53832579119191
 20
22.96767627672245
 30
0.0
 42
-0.0143817383853333
  0
VERTEX
  5
256
330
236
100
AcDbEntity
  8
0
100
AcDbVertex
100
AcDb2dVertex
 10
66.63747469700091
 20
22.91639545233914
 30
0.0
 42
-0.0059598337410936
  0
VERTEX
  5
257
330
236
100
AcDbEntity
  8
0
100
AcDbVertex
100
AcDb2dVertex
 10
66.86646867749823
 20
22.78588912894624
 30
0.0
 42
-0.0041890655417466
  0
VERTEX
  5
258
330
236
100
AcDbEntity
  8
0
100
AcDbVertex
100
AcDb2dVertex
 10
66.97083063483777
 20
22.72357248271314
 30
0.0
 42
-0.0039028169218747
  0
VERTEX
  5
259
330
236
100
AcDbEntity
  8
0
100
AcDbVertex
100
AcDb2dVertex
 10
67.08164865825711
 20
22.65494393165855
 30
0.0
 42
-0.0279871645229441
  0
VERTEX
  5
25A
330
236
100
AcDbEntity
  8
0
100
AcDbVertex
100
AcDb2dVertex
 10
67.28107586273009
 20
22.51309774882485
 30
0.0
 42
-0.0355566708235577
  0
VERTEX
  5
25B
330
236
100
AcDbEntity
  8
0
100
AcDbVertex
100
AcDb2dVertex
 10
67.42468735301334
 20
22.38056732775264
 30
0.0
 42
-0.0072531525995856
  0
VERTEX
  5
25C
330
236
100
AcDbEntity
  8
0
100
AcDbVertex
100
AcDb2dVertex
 10
67.52563689058317
 20
22.26999033245208
 30
0.0
 42
-0.009308421931583
  0
VERTEX
  5
25D
330
236
100
AcDbEntity
  8
0
100
AcDbVertex
100
AcDb2dVertex
 10
67.60187801224178
 20
22.18071163717366
 30
0.0
 42
-0.0012227726203104
  0
VERTEX
  5
25E
330
236
100
AcDbEntity
  8
0
100
AcDbVertex
100
AcDb2dVertex
 10
67.65976493187721
 20
22.10996119574184
 30
0.0
 42
-0.0007986422688354
  0
VERTEX
  5
25F
330
236
100
AcDbEntity
  8
0
100
AcDbVertex
100
AcDb2dVertex
 10
67.74781950955278
 20
22.00144711022053
 30
0.0
 42
-0.0055985934759025
  0
VERTEX
  5
260
330
236
100
AcDbEntity
  8
0
100
AcDbVertex
100
AcDb2dVertex
 10
67.79275200513225
 20
21.94460330973871
 30
0.0
 42
-0.0011125570844871
  0
VERTEX
  5
261
330
236
100
AcDbEntity
  8
0
100
AcDbVertex
100
AcDb2dVertex
 10
68.01169565610479
 20
21.65984469767655
 30
0.0
 42
-0.0386465022707779
  0
VERTEX
  5
262
330
236
100
AcDbEntity
  8
0
100
AcDbVertex
100
AcDb2dVertex
 10
68.08356183164157
 20
21.54918860032209
 30
0.0
 42
-0.0186550653561878
  0
VERTEX
  5
263
330
236
100
AcDbEntity
  8
0
100
AcDbVertex
100
AcDb2dVertex
 10
68.19967316171046
 20
21.31567378622986
 30
0.0
 42
-0.0186550653561878
  0
SEQEND
  5
264
330
236
100
AcDbEntity
  8
0
  0
ELLIPSE
  5
265
330
2
100
AcDbEntity
  8
0
100
AcDbEllipse
 10
60.24676173505767
 20
24.138644983224
 30
0.0
 11
0.0612019065704033
 21
0.2517979375848398
 31
0.0
210
0.0
220
0.0
230
1.0
 40
0.5990817304346671
 41
5.790206389109432
 42
10.09668287260925
  0
ELLIPSE
  5
266
330
2
100
AcDbEntity
  8
0
100
AcDbEllipse
 10
60.24676173505767
 20
24.138644983224
 30
0.0
 11
0.0612019065704033
 21
0.2517979375848398
 31
0.0
210
0.0
220
0.0
230
1.0
 40
0.5990817304346671
 41
11.42526399616216
 42
11.79291214271248
  0
ELLIPSE
  5
267
330
2
100
AcDbEntity
  8
0
100
AcDbEllipse
 10
62.3931428124364
 20
24.06501086037995
 30
0.0
 11
0.0612019065704033
 21
0.2517979375848398
 31
0.0
210
0.0
220
0.0
230
1.0
 40
0.5990817304346671
 41
5.643445939596632
 42
10.07078199827907
  0
ELLIPSE
  5
268
330
2
100
AcDbEntity
  8
0
100
AcDbEllipse
 10
62.3931428124364
 20
24.06501086037995
 30
0.0
 11
0.0612019065704033
 21
0.2517979375848398
 31
0.0
210
0.0
220
0.0
230
1.0
 40
0.5990817304346671
 41
11.34076676328964
 42
11.66418511205984
  0
ELLIPSE
  5
269
330
2
100
AcDbEntity
  8
0
100
AcDbEllipse
 10
64.53031211611653
 20
23.54957175042039
 30
0.0
 11
0.0612019065704033
 21
0.2517979375848398
 31
0.0
210
0.0
220
0.0
230
1.0
 40
0.5990817304346671
 41
5.536593985268075
 42
10.10259306787276
  0
ELLIPSE
  5
26A
330
2
100
AcDbEntity
  8
0
100
AcDbEllipse
 10
64.53031211611653
 20
23.54957175042039
 30
0.0
 11
0.0612019065704033
 21
0.2517979375848398
 31
0.0
210
0.0
220
0.0
230
1.0
 40
0.5990817304346671
 41
11.31498564901198
 42
11.54986508292695
  0
ELLIPSE
  5
26B
330
2
100
AcDbEntity
  8
0
100
AcDbEllipse
 10
66.63063345256521
 20
22.72118744646341
 30
0.0
 11
0.0612019065704033
 21
0.2517979375848398
 31
0.0
210
0.0
220
0.0
230
1.0
 40
0.5990817304346671
 41
5.299767657730859
 42
9.921751780704795
  0
ELLIPSE
  5
26C
330
2
100
AcDbEntity
  8
0
100
AcDbEllipse
 10
66.63063345256521
 20
22.72118744646341
 30
0.0
 11
0.0612019065704033
 21
0.2517979375848398
 31
0.0
210
0.0
220
0.0
230
1.0
 40
0.5990817304346671
 41
11.18291168813883
 42
11.33587204171408
  0
ENDSEC
  0
SECTION
  2
OBJECTS
  0
DICTIONARY
  5
A
330
0
100
AcDbDictionary
281
     1
  3
ACAD_COLOR
350
42
  3
ACAD_GROUP
350
37
  3
ACAD_LAYOUT
350
18
  3
ACAD_MATERIAL
350
C
  3
ACAD_MLEADERSTYLE
350
45
  3
ACAD_MLINESTYLE
350
38
  3
ACAD_PLOTSETTINGS
350
39
  3
ACAD_PLOTSTYLENAME
350
9
  3
ACAD_SCALELIST
350
43
  3
ACAD_TABLESTYLE
350
44
  3
ACAD_VISUALSTYLE
350
2D
  3
ACDB_RECOMPOSE_DATA
350
27C
  3
AcDbVariableDictionary
350
26E
  3
AcDsDecomposeData
350
282
  0
DICTIONARY
  5
20
330
1F
100
AcDbDictionary
280
     1
281
     1
  3
ACAD_LAYERSTATES
360
21
  0
DICTIONARY
  5
7
330
6
100
AcDbDictionary
280
     1
281
     1
  0
DICTIONARY
  5
3
330
2
100
AcDbDictionary
280
     1
281
     1
  3
ACAD_SORTENTS
360
26D
  0
DICTIONARY
  5
42
102
{ACAD_REACTORS
330
A
102
}
330
A
100
AcDbDictionary
281
     1
  0
DICTIONARY
  5
37
102
{ACAD_REACTORS
330
A
102
}
330
A
100
AcDbDictionary
281
     1
  0
DICTIONARY
  5
18
102
{ACAD_REACTORS
330
A
102
}
330
A
100
AcDbDictionary
281
     1
  3
Model
350
17
  3
レイアウト1
350
1E
  0
DICTIONARY
  5
C
102
{ACAD_REACTORS
330
A
102
}
330
A
100
AcDbDictionary
281
     1
  3
ByBlock
350
3E
  3
ByLayer
350
3A
  3
Global
350
B
  0
DICTIONARY
  5
45
102
{ACAD_REACTORS
330
A
102
}
330
A
100
AcDbDictionary
281
     1
  0
DICTIONARY
  5
38
102
{ACAD_REACTORS
330
A
102
}
330
A
100
AcDbDictionary
281
     1
  3
Standard
350
46
  0
DICTIONARY
  5
39
102
{ACAD_REACTORS
330
A
102
}
330
A
100
AcDbDictionary
281
     1
  0
ACDBDICTIONARYWDFLT
  5
9
102
{ACAD_REACTORS
330
A
102
}
330
A
100
AcDbDictionary
281
     1
  3
Normal
350
8
100
AcDbDictionaryWithDefault
340
8
  0
DICTIONARY
  5
43
102
{ACAD_REACTORS
330
A
102
}
330
A
100
AcDbDictionary
281
     1
  3
A0
350
4B
  3
A1
350
4C
  3
A2
350
4D
  3
A3
350
4E
  3
A4
350
4F
  3
A5
350
50
  3
A6
350
51
  3
A7
350
52
  3
A8
350
53
  3
A9
350
54
  3
B0
350
55
  3
B1
350
56
  3
B2
350
57
  3
B3
350
58
  3
B4
350
59
  3
B5
350
5A
  3
B6
350
5B
  0
DICTIONARY
  5
44
102
{ACAD_REACTORS
330
A
102
}
330
A
100
AcDbDictionary
281
     1
  3
Standard
350
47
  0
DICTIONARY
  5
2D
102
{ACAD_REACTORS
330
A
102
}
330
A
100
AcDbDictionary
281
     1
  3
2dWireframe
350
2C
  3
Realistic
350
49
  3
Wireframe
350
4A
  0
XRECORD
  5
27C
102
{ACAD_REACTORS
330
A
102
}
330
A
100
AcDbXrecord
280
     1
 90
        1
330
47
  0
DICTIONARY
  5
26E
102
{ACAD_REACTORS
330
A
102
}
330
A
100
AcDbDictionary
281
     1
  3
CANNOSCALE
350
274
  3
CMLEADERSTYLE
350
270
  3
CTABLESTYLE
350
26F
  3
CVIEWDETAILSTYLE
350
271
  3
CVIEWSECTIONSTYLE
350
272
  3
LAYEREVAL
350
276
  3
LAYERNOTIFY
350
277
  3
LIGHTINGUNITS
350
275
  3
MSLTSCALE
350
273
  3
PSOLHEIGHT
350
279
  3
PSOLWIDTH
350
278
  3
XCLIPFRAME
350
27A
  0
DICTIONARY
  5
282
102
{ACAD_REACTORS
330
A
102
}
330
A
100
AcDbDictionary
281
     1
  3
AcDsRecords
350
284
  3
AcDsSchemas
350
283
1001
ACAD
1070
     2
  0
DICTIONARY
  5
21
102
{ACAD_REACTORS
330
20
102
}
330
20
100
AcDbDictionary
281
     1
  0
SORTENTSTABLE
  5
26D
102
{ACAD_REACTORS
330
3
102
}
330
3
100
AcDbSortentsTable
330
2
  0
LAYOUT
  5
17
102
{ACAD_XDICTIONARY
360
19
102
}
102
{ACAD_REACTORS
330
18
102
}
330
18
100
AcDbPlotSettings
  1

  2
none_device
  4
ISO_A4_(210.00_x_297.00_MM)
  6

 40
7.5
 41
20.0
 42
7.5
 43
20.0
 44
210.0
 45
297.0
 46
11.54999923706054
 47
-13.65000009536743
 48
0.0
 49
0.0
140
0.0
141
0.0
142
1.0
143
8.704084754739808
 70
 11952
 72
     1
 73
     0
 74
     0
  7

 75
     0
147
0.1148885871608098
 76
     0
 77
     2
 78
   300
148
0.0
149
0.0
100
AcDbLayout
  1
Model
 70
     1
 71
     0
 10
0.0
 20
0.0
 11
12.0
 21
9.0
 12
0.0
 22
0.0
 32
0.0
 14
0.0
 24
0.0
 34
0.0
 15
0.0
 25
0.0
 35
0.0
146
0.0
 13
0.0
 23
0.0
 33
0.0
 16
1.0
 26
0.0
 36
0.0
 17
0.0
 27
1.0
 37
0.0
 76
     0
330
2
331
2B
1001
ACAD_PSEXT
1000
None
1000
None
1000
Not applicable
1000
The layout will not be plotted unless a new plotter configuration name is selected.
1070
     0
  0
LAYOUT
  5
1E
102
{ACAD_REACTORS
330
18
102
}
330
18
100
AcDbPlotSettings
  1

  2
C:\Documents and Settings\basas\Application Data\Autodesk\AutoCAD 2005\R16.1\enu\plotters\Default Windows System Printer.pc3
  4

  6

 40
0.0
 41
0.0
 42
0.0
 43
0.0
 44
0.0
 45
0.0
 46
0.0
 47
0.0
 48
0.0
 49
0.0
140
0.0
141
0.0
142
1.0
143
1.0
 70
   688
 72
     0
 73
     0
 74
     5
  7

 75
    16
147
1.0
 76
     0
 77
     2
 78
   300
148
0.0
149
0.0
100
AcDbLayout
  1
レイアウト1
 70
     1
 71
     1
 10
0.0
 20
0.0
 11
12.0
 21
9.0
 12
0.0
 22
0.0
 32
0.0
 14
0.0
 24
0.0
 34
0.0
 15
0.0
 25
0.0
 35
0.0
146
0.0
 13
0.0
 23
0.0
 33
0.0
 16
1.0
 26
0.0
 36
0.0
 17
0.0
 27
1.0
 37
0.0
 76
     0
330
1B
  0
MATERIAL
  5
3E
102
{ACAD_XDICTIONARY
360
3F
102
}
102
{ACAD_REACTORS
330
C
102
}
330
C
100
AcDbMaterial
  1
ByBlock
  0
MATERIAL
  5
3A
102
{ACAD_XDICTIONARY
360
3B
102
}
102
{ACAD_REACTORS
330
C
102
}
330
C
100
AcDbMaterial
  1
ByLayer
  0
MATERIAL
  5
B
102
{ACAD_XDICTIONARY
360
D
102
}
102
{ACAD_REACTORS
330
C
102
}
330
C
100
AcDbMaterial
  1
Global
 43
0.0007999999797903
 43
0.0
 43
0.0
 43
0.0
 43
0.0
 43
0.0007999999797903
 43
0.0
 43
0.0
 43
0.0
 43
0.0
 43
1.0
 43
0.0
 43
0.0
 43
0.0
 43
0.0
 43
1.0
 49
0.0007999999797903
 49
0.0
 49
0.0
 49
0.0
 49
0.0
 49
0.0007999999797903
 49
0.0
 49
0.0
 49
0.0
 49
0.0
 49
1.0
 49
0.0
 49
0.0
 49
0.0
 49
0.0
 49
1.0
142
0.0007999999797903
142
0.0
142
0.0
142
0.0
142
0.0
142
0.0007999999797903
142
0.0
142
0.0
142
0.0
142
0.0
142
1.0
142
0.0
142
0.0
142
0.0
142
0.0
142
1.0
144
0.0007999999797903
144
0.0
144
0.0
144
0.0
144
0.0
144
0.0007999999797903
144
0.0
144
0.0
144
0.0
144
0.0
144
1.0
144
0.0
144
0.0
144
0.0
144
0.0
144
1.0
1001
ACAD
1070
    -1
1070
     3
1070
     0
1000

1071
        0
1070
     0
  0
MLINESTYLE
  5
46
102
{ACAD_REACTORS
330
38
102
}
330
38
100
AcDbMlineStyle
  2
STANDARD
 70
     0
  3

 62
   256
 51
90.0
 52
90.0
 71
     2
 49
0.5
 62
   256
  6
BYLAYER
 49
-0.5
 62
   256
  6
BYLAYER
  0
ACDBPLACEHOLDER
  5
8
102
{ACAD_REACTORS
330
9
102
}
330
9
  0
SCALE
  5
4B
102
{ACAD_REACTORS
330
43
102
}
330
43
100
AcDbScale
 70
     0
300
1:1
140
1.0
141
1.0
290
     1
  0
SCALE
  5
4C
102
{ACAD_REACTORS
330
43
102
}
330
43
100
AcDbScale
 70
     0
300
1:2
140
1.0
141
2.0
290
     0
  0
SCALE
  5
4D
102
{ACAD_REACTORS
330
43
102
}
330
43
100
AcDbScale
 70
     0
300
1:4
140
1.0
141
4.0
290
     0
  0
SCALE
  5
4E
102
{ACAD_REACTORS
330
43
102
}
330
43
100
AcDbScale
 70
     0
300
1:5
140
1.0
141
5.0
290
     0
  0
SCALE
  5
4F
102
{ACAD_REACTORS
330
43
102
}
330
43
100
AcDbScale
 70
     0
300
1:8
140
1.0
141
8.0
290
     0
  0
SCALE
  5
50
102
{ACAD_REACTORS
330
43
102
}
330
43
100
AcDbScale
 70
     0
300
1:10
140
1.0
141
10.0
290
     0
  0
SCALE
  5
51
102
{ACAD_REACTORS
330
43
102
}
330
43
100
AcDbScale
 70
     0
300
1:16
140
1.0
141
16.0
290
     0
  0
SCALE
  5
52
102
{ACAD_REACTORS
330
43
102
}
330
43
100
AcDbScale
 70
     0
300
1:20
140
1.0
141
20.0
290
     0
  0
SCALE
  5
53
102
{ACAD_REACTORS
330
43
102
}
330
43
100
AcDbScale
 70
     0
300
1:30
140
1.0
141
30.0
290
     0
  0
SCALE
  5
54
102
{ACAD_REACTORS
330
43
102
}
330
43
100
AcDbScale
 70
     0
300
1:40
140
1.0
141
40.0
290
     0
  0
SCALE
  5
55
102
{ACAD_REACTORS
330
43
102
}
330
43
100
AcDbScale
 70
     0
300
1:50
140
1.0
141
50.0
290
     0
  0
SCALE
  5
56
102
{ACAD_REACTORS
330
43
102
}
330
43
100
AcDbScale
 70
     0
300
1:100
140
1.0
141
100.0
290
     0
  0
SCALE
  5
57
102
{ACAD_REACTORS
330
43
102
}
330
43
100
AcDbScale
 70
     0
300
2:1
140
2.0
141
1.0
290
     0
  0
SCALE
  5
58
102
{ACAD_REACTORS
330
43
102
}
330
43
100
AcDbScale
 70
     0
300
4:1
140
4.0
141
1.0
290
     0
  0
SCALE
  5
59
102
{ACAD_REACTORS
330
43
102
}
330
43
100
AcDbScale
 70
     0
300
8:1
140
8.0
141
1.0
290
     0
  0
SCALE
  5
5A
102
{ACAD_REACTORS
330
43
102
}
330
43
100
AcDbScale
 70
     0
300
10:1
140
10.0
141
1.0
290
     0
  0
SCALE
  5
5B
102
{ACAD_REACTORS
330
43
102
}
330
43
100
AcDbScale
 70
     0
300
100:1
140
100.0
141
1.0
290
     0
  0
TABLESTYLE
  5
47
102
{ACAD_XDICTIONARY
360
48
102
}
102
{ACAD_REACTORS
330
44
102
}
330
44
100
AcDbTableStyle
  3
Standard
 70
     0
 71
     0
 40
1.5
 41
1.5
280
     0
281
     0
  7
Standard
140
4.5
170
     2
 62
     0
 63
     7
283
     0
274
    -2
284
     1
 64
     0
275
    -2
285
     1
 65
     0
276
    -2
286
     1
 66
     0
277
    -2
287
     1
 67
     0
278
    -2
288
     1
 68
     0
279
    -2
289
     1
 69
     0
  7
Standard
140
6.0
170
     5
 62
     0
 63
     7
283
     0
274
    -2
284
     1
 64
     0
275
    -2
285
     1
 65
     0
276
    -2
286
     1
 66
     0
277
    -2
287
     1
 67
     0
278
    -2
288
     1
 68
     0
279
    -2
289
     1
 69
     0
  7
Standard
140
4.5
170
     5
 62
     0
 63
     7
283
     0
274
    -2
284
     1
 64
     0
275
    -2
285
     1
 65
     0
276
    -2
286
     1
 66
     0
277
    -2
287
     1
 67
     0
278
    -2
288
     1
 68
     0
279
    -2
289
     1
 69
     0
  0
VISUALSTYLE
  5
2C
102
{ACAD_XDICTIONARY
360
285
102
}
102
{ACAD_REACTORS
330
2D
102
}
330
2D
100
AcDbVisualStyle
  2

 70
     4
 71
     0
 72
     2
 73
     1
 90
        0
 40
-0.6
 41
-30.0
 62
     5
 63
     7
421
 16777215
 74
     1
 91
        4
 64
     7
 65
   257
 75
     1
175
     1
 42
1.0
 92
        0
 66
   257
 43
1.0
 76
     1
 77
     6
 78
     2
 67
     7
 79
     5
170
     0
171
     0
290
     0
174
     0
 93
        1
 44
0.0
173
     0
291
     0
 45
0.0
1001
ACAD
1000
AcDbSavedByObjectVersion
1070
     0
  0
VISUALSTYLE
  5
49
102
{ACAD_XDICTIONARY
360
288
102
}
102
{ACAD_REACTORS
330
2D
102
}
330
2D
100
AcDbVisualStyle
  2

 70
     8
 71
     2
 72
     3
 73
     0
 90
        2
 40
-0.6
 41
30.0
 62
     5
 63
     7
421
 16777215
 74
     0
 91
        0
 64
     7
 65
   257
 75
     1
175
     1
 42
1.0
 92
        8
 66
   257
 43
1.0
 76
     1
 77
     6
 78
     2
 67
     7
 79
     3
170
     0
171
     0
290
     0
174
     0
 93
       13
 44
0.0
173
     0
291
     0
 45
0.0
1001
ACAD
1000
AcDbSavedByObjectVersion
1070
     0
  0
VISUALSTYLE
  5
4A
102
{ACAD_XDICTIONARY
360
28A
102
}
102
{ACAD_REACTORS
330
2D
102
}
330
2D
100
AcDbVisualStyle
  2

 70
     5
 71
     0
 72
     2
 73
     0
 90
        0
 40
-0.6
 41
-30.0
 62
     5
 63
     7
421
 16777215
 74
     1
 91
        4
 64
     7
 65
   257
 75
     1
175
     1
 42
1.0
 92
        0
 66
   257
 43
1.0
 76
     1
 77
     6
 78
     2
 67
     7
 79
     3
170
     0
171
     0
290
     0
174
     0
 93
        1
 44
0.0
173
     0
291
     0
 45
0.0
1001
ACAD
1000
AcDbSavedByObjectVersion
1070
     0
  0
DICTIONARYVAR
  5
274
102
{ACAD_REACTORS
330
26E
102
}
330
26E
100
DictionaryVariables
280
     0
  1
1:1
  0
DICTIONARYVAR
  5
270
102
{ACAD_REACTORS
330
26E
102
}
330
26E
100
DictionaryVariables
280
     0
  1
STANDARD
  0
DICTIONARYVAR
  5
26F
102
{ACAD_REACTORS
330
26E
102
}
330
26E
100
DictionaryVariables
280
     0
  1
STANDARD
  0
DICTIONARYVAR
  5
271
102
{ACAD_REACTORS
330
26E
102
}
330
26E
100
DictionaryVariables
280
     0
  1

  0
DICTIONARYVAR
  5
272
102
{ACAD_REACTORS
330
26E
102
}
330
26E
100
DictionaryVariables
280
     0
  1

  0
DICTIONARYVAR
  5
276
102
{ACAD_REACTORS
330
26E
102
}
330
26E
100
DictionaryVariables
280
     0
  1
0
  0
DICTIONARYVAR
  5
277
102
{ACAD_REACTORS
330
26E
102
}
330
26E
100
DictionaryVariables
280
     0
  1
0
  0
DICTIONARYVAR
  5
275
102
{ACAD_REACTORS
330
26E
102
}
330
26E
100
DictionaryVariables
280
     0
  1
2
  0
DICTIONARYVAR
  5
273
102
{ACAD_REACTORS
330
26E
102
}
330
26E
100
DictionaryVariables
280
     0
  1
1
  0
DICTIONARYVAR
  5
279
102
{ACAD_REACTORS
330
26E
102
}
330
26E
100
DictionaryVariables
280
     0
  1
80.000000
  0
DICTIONARYVAR
  5
278
102
{ACAD_REACTORS
330
26E
102
}
330
26E
100
DictionaryVariables
280
     0
  1
5.000000
  0
DICTIONARYVAR
  5
27A
102
{ACAD_REACTORS
330
26E
102
}
330
26E
100
DictionaryVariables
280
     0
  1
2
  0
DICTIONARY
  5
284
102
{ACAD_REACTORS
330
282
102
}
330
282
100
AcDbDictionary
281
     1
  0
DICTIONARY
  5
283
102
{ACAD_REACTORS
330
282
102
}
330
282
100
AcDbDictionary
281
     1
  3
1327393360
350
27D
  3
1327393376
350
27E
  3
1327393392
350
27F
  3
1327393408
350
280
  3
1327393424
350
281
  0
DICTIONARY
  5
19
330
17
100
AcDbDictionary
280
     1
281
     1
  0
DICTIONARY
  5
3F
330
3E
100
AcDbDictionary
280
     1
281
     1
  3
ACAD_XREC_ROUNDTRIP
360
40
  3
FBXASSET
360
41
  0
DICTIONARY
  5
3B
330
3A
100
AcDbDictionary
280
     1
281
     1
  3
ACAD_XREC_ROUNDTRIP
360
3C
  3
FBXASSET
360
3D
  0
DICTIONARY
  5
D
330
B
100
AcDbDictionary
280
     1
281
     1
  3
ACAD_XREC_ROUNDTRIP
360
E
  3
BUMPTILE
360
F
  3
DIFFUSETILE
360
10
  3
FBXASSET
360
11
  3
OPACITYTILE
360
12
  3
REFLECTIONTILE
360
13
  0
DICTIONARY
  5
48
330
47
100
AcDbDictionary
280
     1
281
     1
  3
ACAD_ROUNDTRIP_2008_TABLESTYLE_CELLSTYLEMAP
360
27B
  3
ACAD_XREC_ROUNDTRIP
360
287
  0
DICTIONARY
  5
285
330
2C
100
AcDbDictionary
280
     1
281
     1
  3
ACAD_XREC_ROUNDTRIP
360
286
  0
DICTIONARY
  5
288
330
49
100
AcDbDictionary
280
     1
281
     1
  3
ACAD_XREC_ROUNDTRIP
360
289
  0
DICTIONARY
  5
28A
330
4A
100
AcDbDictionary
280
     1
281
     1
  3
ACAD_XREC_ROUNDTRIP
360
28B
  0
XRECORD
  5
27D
102
{ACAD_REACTORS
330
283
102
}
330
283
100
AcDbXrecord
280
     1
  1
AcDb_Thumbnail_Schema
102
{ATTRRECORD
341
27E
  2
AcDbDs::TreatedAsObjectData
280
     1
291
     1
102
ATTRRECORD}
102
{ATTRRECORD
341
27F
  2
AcDbDs::Legacy
280
     1
291
     1
102
ATTRRECORD}
  2
AcDbDs::ID
280
    10
 91
        8
102
{ATTRRECORD
341
280
  2
AcDs:Indexable
280
     1
291
     1
102
ATTRRECORD}
102
{ATTRRECORD
341
281
  2
AcDbDs::HandleAttribute
280
     7
282
     1
102
ATTRRECORD}
  2
Thumbnail_Data
280
    15
 91
        0
  0
XRECORD
  5
27E
102
{ACAD_REACTORS
330
283
102
}
330
283
100
AcDbXrecord
280
     1
  1
AcDbDs::TreatedAsObjectDataSchema
  2
AcDbDs::TreatedAsObjectData
280
     1
 91
        0
  0
XRECORD
  5
27F
102
{ACAD_REACTORS
330
283
102
}
330
283
100
AcDbXrecord
280
     1
  1
AcDbDs::LegacySchema
  2
AcDbDs::Legacy
280
     1
 91
        0
  0
XRECORD
  5
280
102
{ACAD_REACTORS
330
283
102
}
330
283
100
AcDbXrecord
280
     1
  1
AcDbDs::IndexedPropertySchema
  2
AcDs:Indexable
280
     1
 91
        0
  0
XRECORD
  5
281
102
{ACAD_REACTORS
330
283
102
}
330
283
100
AcDbXrecord
280
     1
  1
AcDbDs::HandleAttributeSchema
  2
AcDbDs::HandleAttribute
280
     7
 91
        1
284
     1
  0
XRECORD
  5
40
102
{ACAD_REACTORS
330
3F
102
}
330
3F
100
AcDbXrecord
280
     1
102
MATERIAL
148
0.0
149
0.0
149
0.0
 93
        0
 94
      127
282
     0
 72
     1
 77
     1
171
     1
175
     1
179
     1
273
     0
  0
XRECORD
  5
41
102
{ACAD_REACTORS
330
3F
102
}
330
3F
100
AcDbXrecord
280
     1
 70
     1
 90
429727718
  1
D62C5603-E3A1-4AEA-B7FB-FE5D8D0755AF
310
504B03040A0000080000CC70623B3DEE336E79000000790000001B0000006175746F6465736B2D64657369676E2D7061636B6167652E786D6C3C3F786D6C2076657273696F6E3D22312E302220656E636F64696E673D227574662D3822203F3E3C666F726D6174733E3C666F726D61743E687474703A2F2F736368656D612E
310
6175746F6465736B2E636F6D2F64657369676E2D7061636B6167652F323030393C2F666F726D61743E3C2F666F726D6174733E504B0304140006080800CC70623BD486FD9CA0000000F4000000130000005B436F6E74656E745F54797065735D2E786D6C7D8EC10E82300C865F65E91D8A1E8C310C0EEA1BF002731658846E
310
D98AC1B77784ABF1D8FE5FBFBF75BBCE937A534CCEB38643598122B6FEE978D0B0485F9C41B54DDD7D022595594E1A469170414C76A4D9A4D207E29CF43ECE46F218070CC6BECC4078ACAA135ACF422C856C0E68EA1BF5669944DDD7BCDE7B1F8E415D77AECB980613C2E4AC91FC167A2B244592486606FC29C8FD7F045B9A
310
EF7053A7E60B504B0304140006080800CC70623B853B8169EB0000007C01000008000000636F72652E786D6C8D90416EC3201045AF62CDB6C206821CC7C244919D9CA01740401C94182C03558F5F9C3852BBEB6A467FFE9B197D7EFC9E1EC5975982F5AE035262288C535E5B377690E21535501C055FBC8FBF6C503839990E
310
5619041F179FE64D52DE45E362569DD7661365082642A11EB9E920A89B99642953CC8E702F67A9EE7234257977194EC9EAE275C4EABCCF5EAD5940D4AC6F0E35A568B8F43562CD7046CD199FD07E60174276A7BE677B5EADB0E0D14EEFFB6A31321A0D82627C4084204C3F096B71DD52F6819B16635EADF63F509AF53FA164
310
5DDCD1EDDD17164090FCC8732078B56691CB33A85CD7DCC40F504B0304140006080800CC70623B55019EA25F0000007C00000007000000636E782E786D6C4DCB3B0E80201045D1AD90E915ED2CF8AC45050C11660C8261F98AB1B07AC9C97D42D718D865D3E909258CFD00CCE24AC6E326A164D74DC0B4128928FF32603847
310
2BA13128B1252AC747C6BAB984FC68F0B87FE8960A5C09FE86CFB69FBA01504B0304140006080800CC70623BDBABAAF470010000D40300000C0000006662782F636F72652E786D6CC553D16E823014FD95A6AF4B694182CC941A83FA05FB810A9511A125A5257EFE2E82712ECEB8A7F100CD39F7F69E734AF9FADC366850B6
310
AF8DCE7018308C942E4C59EB2AC3DE1D498AD15A706B8CFB56869196ADCAF00863C12B6B7C374385D14E6907A836A59A41D9F7CA615434B0C8705F7CAA5606D23BA8E84F41278B93AC54100640439DE0BDB320004D43C63716C7C399D30917DCFBBA9CD9BA8469F5B156168B24CED3F7248AC8769F27244EB73B92EED8862C
310
B7F13E0C179B3C8F979C8ECD82BBBABDAA2BAC924E9558448CBD9330242CFA08E3154B5651FCC6D215639C8EE5774DBE2B5F6CF2B5768B68963BB5F5588420E442FC700B1139D4CB01F450C1E918227C2E09DF070D8140C84E1E9AAB8F1340832A9CB13130A5F1376A908D57309505ECF2A0DF179C4E9D30F5B239B87E3823
310
7A79C6F31DE1A8A5AEC08474B03C7837EAE4938639B44E5932B833D2C6B6B279CDC613877FA26EE21F4A2A4C63EC7F29A2F301D1F9F7A0E37D145F504B0304140006080800CC70623B9C113CC27E0000009D0000000B0000006662782F636E782E786D6C4DCCDF0A83201C86E15B91DFB94BFB330DD428C8FB886521330DA7
310
6397BF1A1DECE883878F57749FCDA1B7892F1BBC047A23808C7F84D9FA55424E0BE6803A256208E9EF06C84F9B91703228B1C690F78B66B34CD9A5439DF5CF0BFBF65E35BCA1B8D6A5C6F540381E886698B5741C695F9503EBA150A2F8958E3DC3EA0B504B0304140006080800CC70623B7DF2F77C2A010000120200003100
310
00006662782F41393633353835312D344632462D344230382D423046372D3739314545314133324237412F636F72652E786D6C8D51DB8EC22014FC15C2939B0D2DB4B45643319AE817EC0F6041255A68B86CFCFC856D4D76DF7CE190393373060EDB3DC707F856CE6B6B7A480A0C81328395DA5C7B18C3057510EC3873D686
310
3F34088C18550F330C39BB3A1BA7051AAC09CA84841A2BD5020AEF55806078A44B0FFD7053A328440C89E1EFC52486BBB8AA8214A99D789CF9E05200300FC927E4FB4D5B375D43103D5527440FB843077C5AA3F5861C8F645F5787F59E95B390B318B55CE45AA638FAA2957BD7248B390B7A7CC51F9C124149C82B8C378810
310
84AB2F42B7B8DD56F413775B8C5999E9FF4471926F8AA236A1AE96B8B3CC434E5839373893369E1FAF30EA395917409EB7F26AF8801C171837A4A6AC9C89E9F9C9B1A58BA30FD6A5EF5DDDCF894B9AD9B6A59C957943A9FCAE2FD5BC4DFE03504B0304140006080800CC70623BAD7543B64E01000033030000300000006662
310
782F41393633353835312D344632462D344230382D423046372D3739314545314133324237412F636E782E786D6CD593CD6EC32010845F0571AD6CE3D48AD20813A9873E410FBD12D82434182C7EAAE6EDBB2424CD25871E7B41D6EC30B3FA84F9E67BB2E40B4234DE8DB46F1925E094D7C6ED479AD3AE5951B2113C789FEE
310
6C943839C1488B4C05DF079FE72A69D8C96C13AAD6B8631503449F83828872B949AC57D26200B826A308D316B4064D6E46FCDA41C05550DC9E483A00797BFD207EFB092A45DE9514C1BBD22178396BD39D891265658C238DEA00936C654E5E433CB65A26D9F6EDB5EBC14EBF49A45CB856E66048291F6939A9A81BB5C89177
310
38143CA680F4AA299D66A042CEB3354A2684DC9D8D178FE0D9B8B41CAAD720F880EE7EF93C0C18769E099ECC04D5A102C8049A8A05632F4DDF376CF1DE0F6BB65C2F8627B65A33C6BB62177CEBBDAD973006829F89F22E814B54F4BC2BE347F8AA8F681390B50FA73F804400B5F542E796F19FF974E7F78DB802FE05E20750
310
4B0304140006080800CC70623BE75B7789680500003C100000340000006662782F41393633353835312D344632462D344230382D423046372D3739314545314133324237412F6F626A656374732E786D6CAD575B8F9B3818FD2B887D06C22499CB8AA1CA655245D5B455A356FB305264C061D8018C6C3393D95FBFC7600890
310
A4CD5EF210B0B1BFEBF98E3F7B1FF6596ABC522E1296DF9BAE3D320D9A872C4AF2F8DE2CE5CEBA358D0FBEC719939D65A691938CDE9B6ADAF4BD98B3B2D05311DD91329583D9D5FC0F438434A7A611A644887B5384CF34233629258BA878B12322891DEFF6B66BD70BFB62634E8AE781D082709A4B588AF91C528CDA28B73F
310
1C998EEF39EABBEFA97FBD6A7C7E9553F9D3D79FE442923C3C523610337627CB87ABE99D359D4CC6D6E4FACAB5E6ABF9D2726FC6A3C5F56271377BB88362213924694B38DD99FE47C48627A1E7D49F5A8BB5E1A74C0A599ED3B0F21F1E56366B89112D681E218F0915D0D6F17AD41FBA2A369DCF6335D62ABBD39779D5DDD1
310
11D4D8DE3CBB96B2E04FB8202E41051754A1AA8E8F76B4C6DFE810B580B1547F4B84911149794252234D024EF8BBE963A95AE27B3D310A9D5C215C7960FAEE415ED75694C6AFB17BCACA5D99A60A9AA65F217B0BFC53292ACB92BF283FAD0D3621576592CB5BED907C2FA8E9DF794E35E97BEA31BED21FEB401ABB94C44839
310
DCACBF0E1C5DA8DA5B2F4DFFD32AD86F543D9E565E7056502E157C00AD2671CD534549AB752FCA9CDA00677A313F04E51B22FF19E57B300579E3C97EB29F682D92935CEC18CF901B7B54FD8C51F362B56FC72FE0B3C1EAE335EDCCBF5AEC39ADB17DC238973F804BA5E6F6BFE7AF1FB32E523BE9F3BD571418E3631DCA4D48
310
5250CF639223210A9446CA30052EDF057BD35F8329C1ECD84552BF0DC8D18BE7BCE23BFE6BD960AB4A7DE79923A103BEBD80F911CBAA2C60DB19B01CF164A5583B772EE6D3FFA56666CBCDA74DC97724A48F9A58967497E489C4D979006FD7A05E227A1EBDD0F737C623387A9C844D3709995625106D157315F8B8392CD4E0
310
A0B9A720C4BE9829CEF37EA1E13111214D53925356365ADA634861B52519DD27A00AEB808EAF0628E6F435519D446F45CF2C9CF5214F0A15B2F6D06B79DA3EE3CBF7F56780D2F4E7EF73A0F5E5B02A38D07DC852C6B7C1FBB6664213E0C39E3EBA7FF4E1AD23EA2829407C85E586727488B751B2DB9502BC7B228A3FD68B6E
310
A65A22397E690AA8D158D7E404EC8CDA235CC3B7D1898680131CEC2CDF2638C65196279577750F15884AEE19F94199155B92B13297978469D4F8D358DF0AEF7631E28DC8F0D9F437D5D39A83B2231A1D52D543813A824EF8D44BCFF2FA6A31BD1E8DAD87F1CCB526B3879935BF59CDADD5C37479BB1CDD4CA7B3556B516589
310
EF352754B706114D9C885EC9131DE6EFEB43D99AFE2391C2F958179413D7CFEF6B1B6DB1E7600F00DE6E5C67454A339A4BA2E0FBA85ED26F045D454F463DBFCE484C2F90F2E5E3666003662ED8F755951A7D1BECD5B30B550B2785C8E7320B7292A4838DDA71BBC863ED7613CAF659337A3354231D4FF4A182A54904C2898C
310
98B28C4AD0CE056CCF332A80986E571EE9DBC305BB5FEB7E509220A58D25CF042D712A806AC0AD0C657FDEF80D2D9CEAA2EE4D1C76F60BFE74219A06527D6F82DF6412526107381E55E353090704D085B52408A8913C4ED159D79BDA71BB4BC506F4831350EB6F975CD22D69BF7AC49B91A2C0A9DDA3D5CA36AD20FC478E37
310
E61844E2352865EBCB61A275A65283CAAA9DD27703B4102F5AF51EF5F573B75CBB5AD38BC845F7A49F82A0966A49C2E3EA5EA0ECD326CD965F1DB402C6FA8B51A4658C5C5E2EC9E214602E55810345408596591009A82E7E7FFACA19EEA299B14A0081A705CB3296EBC14CDF658DCD336EA6D1136881AAEB87B81AB9EE53D5
310
F5EB8BC8362082DA24122F98680A4E7930C01A0079749CEA14382A0783E5EBA5A10F8C098456A03D6A4AEB6BB881E2513747552A5DB22C7EDAF83BD5528081A365F7FF06504B0304140006080000CC70623B000000000000000000000000350000006662782F41393633353835312D344632462D344230382D423046372D37
310
39314545314133324237412F76657274696365732E62696E504B0304140006080800CC70623BF270F1330600000004000000360000006662782F41393633353835312D344632462D344230382D423046372D3739314545314133324237412F747269616E676C65732E62696E636660600000504B0304140006080000CC7062
310
3B000000000000000000000000370000006662782F41393633353835312D344632462D344230382D423046372D3739314545314133324237412F617474726962757465732E62696E504B0304140006080800CC70623B08DA0BD19000000041010000360000006662782F41393633353835312D344632462D344230382D4230
310
46372D3739314545314133324237412F6469726563746F72792E786D6C858F410AC3201045AF22B36F53E9A60B35CBEEBAE80D244E44489C6234F4F835464A48035D0DF398FF9F8AF63D0E6CC63039F212F8F9020C7D47C6792B21C5FE7403D62A1188E2E60C98D7234A5830286103A55745067B9D86B8A3CF9C7F90C11DE6
310
07FB144396D7B6A82D282E9A152AD114D5EF2CB866EEE831B8EEA07A7BB5A8D7D61A2BAAEB7FD5F70921FF497D00504B0304140006080800CC70623BEDD1DC58FD000000A00100003B0000006662782F41393633353835312D344632462D344230382D423046372D3739314545314133324237412F7265736F75726365732F
310
636F72652E786D6C8D504B6E833010BD0A9A6D65B00922041947112427E8052C33A156828DFCA97AFC9A40A576D7CDCCE87D344F8F9FBFE667F689CE6B6B3A6039850C8DB2A336530731DC4903D95970676DF82583CCC8193B5861107C72362E3BA4AC096842428D1D7107A5F7182053CF7474E0D507CE32973124857FE48B
310
540F3961CEF244279DE03EB81420DB9EAC1384436FA353E879B1B182C7A8C75DA3C7F453DF353A1075D537A7BA6464B8F535A99AE14A9A2BBD90E350DD183B5CFABE3AF262350B1EF4FC9351399401471025A527C218A1E53BAB5A5AB765F5469B96525EACF23FA6B88CFF34456DC2A1DCE36E360F82A5202F42F062ED2BAD
310
579969AFDD8A6F504B010214000A0000080000CC70623B3DEE336E79000000790000001B00000000000000000000000000000000006175746F6465736B2D64657369676E2D7061636B6167652E786D6C504B01021400140006080800CC70623BD486FD9CA0000000F40000001300000000000000000000000000B20000005B
310
436F6E74656E745F54797065735D2E786D6C504B01021400140006080800CC70623B853B8169EB0000007C010000080000000000000000000000000083010000636F72652E786D6C504B01021400140006080800CC70623B55019EA25F0000007C000000070000000000000000000000000094020000636E782E786D6C504B
310
01021400140006080800CC70623BDBABAAF470010000D40300000C00000000000000000000000000180300006662782F636F72652E786D6C504B01021400140006080800CC70623B9C113CC27E0000009D0000000B00000000000000000000000000B20400006662782F636E782E786D6C504B01021400140006080800CC70
310
623B7DF2F77C2A010000120200003100000000000000000000000000590500006662782F41393633353835312D344632462D344230382D423046372D3739314545314133324237412F636F72652E786D6C504B01021400140006080800CC70623BAD7543B64E010000330300003000000000000000000000000000D2060000
310
6662782F41393633353835312D344632462D344230382D423046372D3739314545314133324237412F636E782E786D6C504B01021400140006080800CC70623BE75B7789680500003C10000034000000000000000000000000006E0800006662782F41393633353835312D344632462D344230382D423046372D3739314545
310
314133324237412F6F626A656374732E786D6C504B01021400140006080000CC70623B0000000000000000000000003500000000000000000000000000280E00006662782F41393633353835312D344632462D344230382D423046372D3739314545314133324237412F76657274696365732E62696E504B01021400140006
310
080800CC70623BF270F133060000000400000036000000000000000000000000007B0E00006662782F41393633353835312D344632462D344230382D423046372D3739314545314133324237412F747269616E676C65732E62696E504B01021400140006080000CC70623B0000000000000000000000003700000000000000
310
000000000000D50E00006662782F41393633353835312D344632462D344230382D423046372D3739314545314133324237412F617474726962757465732E62696E504B01021400140006080800CC70623B08DA0BD1900000004101000036000000000000000000000000002A0F00006662782F41393633353835312D344632
310
462D344230382D423046372D3739314545314133324237412F6469726563746F72792E786D6C504B01021400140006080800CC70623BEDD1DC58FD000000A00100003B000000000000000000000000000E1000006662782F41393633353835312D344632462D344230382D423046372D3739314545314133324237412F7265
310
736F75726365732F636F72652E786D6C504B0506000000000E000E0080040000641100000000
  0
XRECORD
  5
3C
102
{ACAD_REACTORS
330
3B
102
}
330
3B
100
AcDbXrecord
280
     1
102
MATERIAL
148
0.0
149
0.0
149
0.0
 93
        0
 94
      127
282
     0
 72
     1
 77
     1
171
     1
175
     1
179
     1
273
     0
  0
XRECORD
  5
3D
102
{ACAD_REACTORS
330
3B
102
}
330
3B
100
AcDbXrecord
280
     1
 70
     1
 90
429727718
  1
30362254-06B7-45E0-A893-8CFA70E3D6BC
310
504B03040A0000080000CC70623B3DEE336E79000000790000001B0000006175746F6465736B2D64657369676E2D7061636B6167652E786D6C3C3F786D6C2076657273696F6E3D22312E302220656E636F64696E673D227574662D3822203F3E3C666F726D6174733E3C666F726D61743E687474703A2F2F736368656D612E
310
6175746F6465736B2E636F6D2F64657369676E2D7061636B6167652F323030393C2F666F726D61743E3C2F666F726D6174733E504B0304140006080800CC70623BD486FD9CA0000000F4000000130000005B436F6E74656E745F54797065735D2E786D6C7D8EC10E82300C865F65E91D8A1E8C310C0EEA1BF002731658846E
310
D98AC1B77784ABF1D8FE5FBFBF75BBCE937A534CCEB38643598122B6FEE978D0B0485F9C41B54DDD7D022595594E1A469170414C76A4D9A4D207E29CF43ECE46F218070CC6BECC4078ACAA135ACF422C856C0E68EA1BF5669944DDD7BCDE7B1F8E415D77AECB980613C2E4AC91FC167A2B244592486606FC29C8FD7F045B9A
310
EF7053A7E60B504B0304140006080800CC70623B1EC5D7A3EB0000007C01000008000000636F72652E786D6C8D90416EC3201045AF82665B6103C6756C6122AB4D4ED00B204C5C94182C03558F5F9C3852BBEB6A467FFE9B197D71FC9E6FE8CBACC17AD7032D0820E3B41FAD9B7A48F1820F808E52ACDEC75F36404ECDA687
310
4D0629A6D5A76597B477D1B89855E747B38B2A041301E95B6E7A08FAD3CCAA50296647B8168BD2573599823EBB0CA76447F43862C7BCCF5EAC59410E4DDD9C7973C2755553CCCFA4C603E3040F1565ED3B1FDE4E432BCA0D9622DAF9795FAF464533826484B498524CD807E51D79ED187F21878E10516EF63F505AC67F42C9
310
BA58B1FDDD071640D2FCC87D2045B96591CB3DA85CB7DCE40F504B0304140006080800CC70623B55019EA25F0000007C00000007000000636E782E786D6C4DCB3B0E80201045D1AD90E915ED2CF8AC45050C11660C8261F98AB1B07AC9C97D42D718D865D3E909258CFD00CCE24AC6E326A164D74DC0B4128928FF32603847
310
2BA13128B1252AC747C6BAB984FC68F0B87FE8960A5C09FE86CFB69FBA01504B0304140006080800CC70623B8C9102E971010000D40300000C0000006662782F636F72652E786D6CC5535B6E833010BC8AE5DF0A6C08340F1947A84D4ED00B38C6A128602363A31CBFCB234A53A551FA553EC09AD9F5CE8C31DB9E9B1AF5CA
310
7695D1198E428A91D2D214952E33ECDD315861B4E5CC1AE3BE9561A445A3323CC098B3D21ADFCE9034DA29ED00D5A6503328BA4E398C640D8B0C77F253352214DE4145770A5B214FA2546114020D759C75CE8200340D19DE981F0F6746269C33EFAB6266AB02A655C74A59CCF365BADC27CB5D902ED22848F6340DF238A141
310
BE88E2F57B92BFEDF23523433367AE6A2EEAA455C2A902F398D2751045018D3FA264435F3771F242571B4A1919CA6F9A7C5B3CD9E42BED16F12C776AEB308F40C848FC700B1139D4891EF410CEC810227CC6846F8386402064270EF5C5C709A05E49676C024C61FC95EA45ED154CA5211D1FF4FB8291A913A68E9B83EBBB33
310
E2A7673CDE118E5AE8124C0807CB8377834E366998436B950D7A7746DAD846D4CFD978E0F04FD455FC5D49D2D4C6FE9722321F10997F0F32DC47FE05504B0304140006080800CC70623BFFEA85907E0000009D0000000B0000006662782F636E782E786D6C4DCCD10A83201886E15B91FFDC95D95A811AB6F23E625948A6C3
310
E9D8E5AF46073BFAE0E1E365ED67B3E8ADC3CB78C7815C7240DA3DFC64DCC221C519D7805AC182F7F1EF06C88D9BE6703008B6049F9E274D7A1E938DBB5AE3D6131B2589BA0D3D965551E0B2EA732C9B9A624AAEB41E3A557677029960D9AFB4EF11165F504B0304140006080800CC70623B4FEEA4082C0100001202000031
310
0000006662782F39464131463745442D413632322D343644302D413938332D3331353338454246344243312F636F72652E786D6C8D515B6EC32010BC0AE2AB55850DD871ED0813254D72825EC00192A2C460F1A872FC42ED48ED5F7E00CDCECCCEB26C731F6FE05B39AFADE921293004CA082BB5B9F43086336A21D870E6AC
310
0D7F68109861543DCC30E4ECE26C9C164858139409093556AA051CBC570102714B8F1E7AF1A5C6A11862480C7F2DA6415C878B2A4891CA89C7990F2E050073937C42DE1DB7E4F87ED8A36D4329AA9B3D46DBAEAD504556557BD81DEBDD0761E52CE42C462D17B996298E3E6BE59E35C962CE821E1FF18553435012728A7187
310
0841987E927A8D9B35ADDF70BBC6989599FE4F1427F9A4286A132ABAC49D651EF234CD5CE04CDA78BA3DC2A8FB645D00B9DF8B57E215725C60BCA2A463E54C4CE327C7A65E1C7DB02E7DEFCBF594B864C5CA6CDBD49C957943E9FA5D5FBAF336F90F504B0304140006080800CC70623BAD7543B64E01000033030000300000
310
006662782F39464131463745442D413632322D343644302D413938332D3331353338454246344243312F636E782E786D6CD593CD6EC32010845F0571AD6CE3D48AD20813A9873E410FBD12D82434182C7EAAE6EDBB2424CD25871E7B41D6EC30B3FA84F9E67BB2E40B4234DE8DB46F1925E094D7C6ED479AD3AE5951B2113C
310
789FEE6C943839C1488B4C05DF079FE72A69D8C96C13AAD6B8631503449F83828872B949AC57D26200B826A308D316B4064D6E46FCDA41C05550DC9E483A00797BFD207EFB092A45DE9514C1BBD22178396BD39D891265658C238DEA00936C654E5E433CB65A26D9F6EDB5EBC14EBF49A45CB856E66048291F6939A9A81BB5
310
C8917738143CA680F4AA299D66A042CEB3354A2684DC9D8D178FE0D9B8B41CAAD720F880EE7EF93C0C18769E099ECC04D5A102C8049A8A05632F4DDF376CF1DE0F6BB65C2F8627B65A33C6BB62177CEBBDAD973006829F89F22E814B54F4BC2BE347F8AA8F681390B50FA73F804400B5F542E796F19FF974E7F78DB802FE05
310
E207504B0304140006080800CC70623B16AB87BA640500003C100000340000006662782F39464131463745442D413632322D343644302D413938332D3331353338454246344243312F6F626A656374732E786D6CAD575B6FA33818FD2B887DE6924B3BED8A326A92B68A663B534DD4D13E548A0C38942D60649B369D5FBFC7
310
600890A493BDE42160637FD7F31D7FF63E6FB3D478A55C242CBF3247B66B1A340F5994E4F19559CA8D75611A9F7D8F33263BCB4C232719BD32D5B4E97B316765A1A722BA21652A07B3B7B33F0D11D29C9A46981221AE4C113ED38CD8A4942CA2E2C58E882476BCD9DA23BB5ED8171B73523C0F841684D35CC252CCE79062D4
310
468DFA43D7747CCF51DF7D4FFDEB5593E3AB9CCA9FBEFE241792E4E19EB28198C968BAB8199F5D5A67D3E9C49A9E8F47D6EC76B6B0469F26EEFC7C3EBFBCBEB98462213924694B38DD98FE1D62C393D073EA4FADC5DAF04326852CCF6958F90F0F2B9BB5C48816348F90C7840A68EB78EDF68723159BCEE7891A6B95DDE9D3
310
BCEAEEE8086A6C6F9E5D4B59F0175C10A7A0820BAA5055C7473B5AE3CFDD452D602CD5DF12616444529E90D448938013FE6EFA58AA96F85E4F8C42275708571E98FE6827AF6B2B4AE3D7D83D64E5A64C53054DD3AF90BD06FEA9149565C94FCA0F6B834DC85599E4F2423B24DF0B6AFA979E534DFA9E7A4CC6FA631D486393
310
921829879BF5D781A373557BCB85E97FB90DB62B558F8795179C15944B051F40AB495CF35451D26A4727654E6D8033BD98EF82F21D91FF8AF2DD9982BCF1643BDD4EB516C9492E368C67C88DED563FC36D5EACF66DFF057C3658BDBFA69DF9578B3DA735B64F18C7F20770A9D45CFCF7FCF563D6456A277DBEF78A02637CA2
310
43B90A490AEAB94F72244481D24819A6C0E59B606BFA4B3025981DBB48EAB701D97BF19C577CC77F2D1B6C55A9EF3C732474C0B727303F625995056C3B02963D9EAC146BE78EC5FCEC7FA999EBC5EACBAAE41B12D27B4D2C0BBA49F244E2ECDC81B76B502F113D8F5EE8FB1BE3111CDD4FC2AA9B844CAB1288B68AB90A7CDC
310
1C166AB0D3DC5310625FCC14E779BFD0709F8890A629C9292B1B2DED31A4B0DA928CEE135085754027E3018A397D4D5427D15BD1330B677DC8934285AC3DF45A9EB68FF8F2B8FC0A509AFEECFD0FF2DE25CC6047F7214B195F07EFEB9A094D800F7BFAE8FED187B78EA8A3A400F115961BCAD1215E47C966530AF0EE8128FE
310
58CEBB996A8964FFA529A046635D9353B0336A8F700DDF46271A024E70B0B37C9DE01847591E54DED53D54202AB947E4076556AC49C6CA5C9E1226B7F1A7B1BE15DEED62C41B91E1B3E9AFAAA735036547343A925075041DF0A9979E893B391F8FCFA6967B3EFB644DCF6E5CEBFAE272625DCC6FAF3FB93793C5F90CE1EF57
310
407342756B10D1C489E8953CD1617E5CEECAD6F4EF8914CE5D5D504E5C3F1F9736DA62CFC11E00BCDDB8CC8A9466349744C1F75EBDA4DF09BA8A9E8C7A7E9991989E20E5DBDD6A6003664ED8F7A04A8DBE0DF6EAD9B9AA858342E47399053949D2C146EDB85DE4B176BB0965FBAC19BD19AA918E27FA50C1D22402E144464C
310
59462568E704B6E71915404CB72B8FF4EDE184DDAF753F284990D2C6926782963815403548A70C657FDEF80D2D9CEAA2AE4C1C76F60BFE74219A06527D6582DF6412526107381E55E353090704D085B52408D0933C4ED159D79BDA71BB4BC506F4831350EB6F979CD22D69BF7AC49B91A2C0A9DDA3D5CA36AD20FC478E37E6
310
1844E2352865EBCB6EA275A652E3836BE04EFB400BF1A2556F515F1FBB35B2AB35BD889C744FFA1004B5544B121E57F70215746DD2F5E2C1412B602CBF19455AC6C8E5E9922C4E01E65215385004546899059180EAFCF7A707CE7017CD8CDB0410789AB32C63B91E5CEBBBACB17AC6CD347A022D5075FD106377347AAABA7E
310
7D11590744509B44E205134DC1290F06580320F78E537D3D73540E06CB970B431F185308AD40BBD794D6D77003C5A36E8EAA54BA64597CD8F83BD552A080A365F7FF06504B0304140006080000CC70623B000000000000000000000000350000006662782F39464131463745442D413632322D343644302D413938332D3331
310
353338454246344243312F76657274696365732E62696E504B0304140006080800CC70623BF270F1330600000004000000360000006662782F39464131463745442D413632322D343644302D413938332D3331353338454246344243312F747269616E676C65732E62696E636660600000504B0304140006080000CC70623B
310
000000000000000000000000370000006662782F39464131463745442D413632322D343644302D413938332D3331353338454246344243312F617474726962757465732E62696E504B0304140006080800CC70623B08DA0BD19000000041010000360000006662782F39464131463745442D413632322D343644302D413938
310
332D3331353338454246344243312F6469726563746F72792E786D6C858F410AC3201045AF22B36F53E9A60B35CBEEBAE80D244E44489C6234F4F835464A48035D0DF398FF9F8AF63D0E6CC63039F212F8F9020C7D47C6792B21C5FE7403D62A1188E2E60C98D7234A5830286103A55745067B9D86B8A3CF9C7F90C11DE607
310
FB144396D7B6A82D282E9A152AD114D5EF2CB866EEE831B8EEA07A7BB5A8D7D61A2BAAEB7FD5F70921FF497D00504B0304140006080800CC70623B0D6EF93BFE000000A00100003B0000006662782F39464131463745442D413632322D343644302D413938332D3331353338454246344243312F7265736F75726365732F63
310
6F72652E786D6C8D50596E833010BD0A9ADFCA60B334011947A8694ED00B586642AC041B79A97AFC9A40A5F6AF3F33A3B7689E1E3F7DCD8FEC139DD7D6F4C0720A191A65476DA61E62B892236427C19DB5E1970C322367EC618541F0C9D9B8EC90B226A009093576C41D94DE63804C3DD2D18357379C652E63480A7FCF17A9
310
EE72C29CE5894E3AC17D702940B63D59270887DE46A7D0F36263058F518FBB468FE9A7BE6A7420864373B8D4873369AA8691FA421B3294352543C5CAF65C0F6FEF43CB8BD52C78D0F34F46E550061C419494B6843142CB0F5677F4B52BEB177AEC28E5C52AFF638ACBF84F53D42654E51E77B379102C05791282176B5F693D
310
CB4C7BED567C03504B010214000A0000080000CC70623B3DEE336E79000000790000001B00000000000000000000000000000000006175746F6465736B2D64657369676E2D7061636B6167652E786D6C504B01021400140006080800CC70623BD486FD9CA0000000F40000001300000000000000000000000000B20000005B
310
436F6E74656E745F54797065735D2E786D6C504B01021400140006080800CC70623B1EC5D7A3EB0000007C010000080000000000000000000000000083010000636F72652E786D6C504B01021400140006080800CC70623B55019EA25F0000007C000000070000000000000000000000000094020000636E782E786D6C504B
310
01021400140006080800CC70623B8C9102E971010000D40300000C00000000000000000000000000180300006662782F636F72652E786D6C504B01021400140006080800CC70623BFFEA85907E0000009D0000000B00000000000000000000000000B30400006662782F636E782E786D6C504B01021400140006080800CC70
310
623B4FEEA4082C0100001202000031000000000000000000000000005A0500006662782F39464131463745442D413632322D343644302D413938332D3331353338454246344243312F636F72652E786D6C504B01021400140006080800CC70623BAD7543B64E010000330300003000000000000000000000000000D5060000
310
6662782F39464131463745442D413632322D343644302D413938332D3331353338454246344243312F636E782E786D6C504B01021400140006080800CC70623B16AB87BA640500003C1000003400000000000000000000000000710800006662782F39464131463745442D413632322D343644302D413938332D3331353338
310
454246344243312F6F626A656374732E786D6C504B01021400140006080000CC70623B0000000000000000000000003500000000000000000000000000270E00006662782F39464131463745442D413632322D343644302D413938332D3331353338454246344243312F76657274696365732E62696E504B01021400140006
310
080800CC70623BF270F133060000000400000036000000000000000000000000007A0E00006662782F39464131463745442D413632322D343644302D413938332D3331353338454246344243312F747269616E676C65732E62696E504B01021400140006080000CC70623B0000000000000000000000003700000000000000
310
000000000000D40E00006662782F39464131463745442D413632322D343644302D413938332D3331353338454246344243312F617474726962757465732E62696E504B01021400140006080800CC70623B08DA0BD190000000410100003600000000000000000000000000290F00006662782F39464131463745442D413632
310
322D343644302D413938332D3331353338454246344243312F6469726563746F72792E786D6C504B01021400140006080800CC70623B0D6EF93BFE000000A00100003B000000000000000000000000000D1000006662782F39464131463745442D413632322D343644302D413938332D3331353338454246344243312F7265
310
736F75726365732F636F72652E786D6C504B0506000000000E000E0080040000641100000000
  0
XRECORD
  5
E
102
{ACAD_REACTORS
330
D
102
}
330
D
100
AcDbXrecord
280
     1
102
MATERIAL
148
0.0
149
0.0
149
0.0
 93
        0
 94
      127
282
     0
 72
     1
 77
     1
171
     1
175
     1
179
     1
273
     0
  0
XRECORD
  5
F
102
{ACAD_REACTORS
330
D
102
}
330
D
100
AcDbXrecord
280
     1
270
     1
271
     1
  0
XRECORD
  5
10
102
{ACAD_REACTORS
330
D
102
}
330
D
100
AcDbXrecord
280
     1
270
     1
271
     1
  0
XRECORD
  5
11
102
{ACAD_REACTORS
330
D
102
}
330
D
100
AcDbXrecord
280
     1
 70
     0
 90
1673772943
  1
ECE7A1D2-D628-4531-984C-D00F80459256
310
504B03040A0000080000CC70623B3DEE336E79000000790000001B0000006175746F6465736B2D64657369676E2D7061636B6167652E786D6C3C3F786D6C2076657273696F6E3D22312E302220656E636F64696E673D227574662D3822203F3E3C666F726D6174733E3C666F726D61743E687474703A2F2F736368656D612E
310
6175746F6465736B2E636F6D2F64657369676E2D7061636B6167652F323030393C2F666F726D61743E3C2F666F726D6174733E504B0304140006080800CC70623BD486FD9CA0000000F4000000130000005B436F6E74656E745F54797065735D2E786D6C7D8EC10E82300C865F65E91D8A1E8C310C0EEA1BF002731658846E
310
D98AC1B77784ABF1D8FE5FBFBF75BBCE937A534CCEB38643598122B6FEE978D0B0485F9C41B54DDD7D022595594E1A469170414C76A4D9A4D207E29CF43ECE46F218070CC6BECC4078ACAA135ACF422C856C0E68EA1BF5669944DDD7BCDE7B1F8E415D77AECB980613C2E4AC91FC167A2B244592486606FC29C8FD7F045B9A
310
EF7053A7E60B504B0304140006080800CC70623BD9DDAED0EC0000007C01000008000000636F72652E786D6C8D90416EC3201045AF82665B61836D9CD8C2444DD39CA01740405C94182C03558F5F9C3852BBEB6A467FFE9B197D7EF89E6EE8CB2CC17A37002D0820E394D7D68D03A478C17B4007C117EFE32F1B20272733C0
310
2A83E0E3E2D3BC49CABB685CCCAAF3DA6CA20CC14440EA969B0182FA34932C648AD911AEC52CD5558EA6A0CF2EC329598D1E47ACCEFBECC59A050463A7EA5833865FEBDD0E37353BE3EE8DBDE3F6786A48D375FBF6CC78B9C282473B3DEFABC5C86834888A900E538A49F5419B9EB47DD5BC907D4F082F57FB1F28CDFA9F50
310
B22ED6D5F6EE030B20687EE43E10BC5CB3C8E51E54AE6B6EE207504B0304140006080800CC70623B55019EA25F0000007C00000007000000636E782E786D6C4DCB3B0E80201045D1AD90E915ED2CF8AC45050C11660C8261F98AB1B07AC9C97D42D718D865D3E909258CFD00CCE24AC6E326A164D74DC0B4128928FF326038
310
472BA13128B1252AC747C6BAB984FC68F0B87FE8960A5C09FE86CFB69FBA01504B0304140006080800CC70623BA24EB22D72010000D40300000C0000006662782F636F72652E786D6CC5535B6E833010BC8AE5DF0A6C5E49888CA3A6694ED00B38E05014B091B1518EDFE511A5A9D228FD2A1F60CDEC7A67C6986DCE4D8D7A
310
69BA4AAB0C073EC548AA5C17952A33ECECD15B61B4E1CC686DBF9561A44423333CC098B3D268D7CE50AE9595CA02AA74216750749DB418E5352C32DCE59FB211BE70162ABA93DF8AFC244AE9073ED050C759670D0840D390E18DF9F1706664C23973AE2A66B62A605A75ACA4C13C4976E1364A12EF355A2EBD384AF65EFA96
310
BC7B8BED2EA6719AAE16FB8491A199335B351775B991C2CA02F390D2D40B028F861F41BCA68B7518BFD0D59A524686F29B26D7164F36B94AD9289CE54E6D1DE6010819891F6E21228B3AD1831EC219194284CF98F06DD01008846CC5A1BEF83801D4CBDC6A1303536877A57A513B0953A94FC707FDBE6064EA84A9E3E6E0FA
310
EE8CF0E9198F7784A316AA0413C2C2F2E0ECA0934D1AE6D05A69BCDE9E91D2A611F573361E38FC1375157F5752AE6B6DFE4B11990F88CCBF0719EE23FF02504B0304140006080800CC70623B408A7D3B7C0000009D0000000B0000006662782F636E782E786D6C4DCCD10A83201886E15B91FFDC552A92A0064DBC8F581632
310
D3703A76F9ABD1C18E3E78F878E5F0D9027ABBFCF2292AE86E2D20171F69F6715550CB827B40839639A5F2770314A7CD293819B45C73AAFB45B35BA61ACAA1C1C7E7855C58C15BC331339661262CC762340413D68D77DA5B42298546CBE6573AF60CEB2F504B0304140006080800CC70623B449FB9BD290100001202000031
310
0000006662782F36394639363044362D344446342D343946362D394244322D3234314243333846323333332F636F72652E786D6C8D515B6EC32010BC0AE22B55850D98B871848994463E412FE002495162B07854397EA176A4F62F3F2C9A9D991D587EB84F37F0AD7D30CEF6905418026DA553C65E7A98E219ED203808EE9D
310
8B7F6810D871D23D2C3014FCE25D9A57483A1BB58D19B54EE9151C43D0110279CB971E06F9A5A7B11A53CC8C70ADE6515EC78BAE4895DB992778883E0700CB907242D17643D7E2538BD869608875438BBAE38922CAC8F1BDD90DB4691A5E2F42C153326A951B95E398B3D1FE599322163C9AE9115F7A3D46ADA0A018778810
310
84E907617BDCEE297BC5BB3DC6BC2EF47FA234AB2745C9D8D8D035EE220B50105E2F0DC1954B9FB747187D9F9D8FA0CCDB042D5FA0C015C65B42DF78BD10F3F3B363CB56C7109DCFDFBBB97E662ED92EB62D13BC2E1BCAE5777DB9966D8A1F504B0304140006080800CC70623BAD7543B64E01000033030000300000006662
310
782F36394639363044362D344446342D343946362D394244322D3234314243333846323333332F636E782E786D6CD593CD6EC32010845F0571AD6CE3D48AD20813A9873E410FBD12D82434182C7EAAE6EDBB2424CD25871E7B41D6EC30B3FA84F9E67BB2E40B4234DE8DB46F1925E094D7C6ED479AD3AE5951B2113C789FEE
310
6C943839C1488B4C05DF079FE72A69D8C96C13AAD6B8631503449F83828872B949AC57D26200B826A308D316B4064D6E46FCDA41C05550DC9E483A00797BFD207EFB092A45DE9514C1BBD22178396BD39D891265658C238DEA00936C654E5E433CB65A26D9F6EDB5EBC14EBF49A45CB856E66048291F6939A9A81BB5C89177
310
38143CA680F4AA299D66A042CEB3354A2684DC9D8D178FE0D9B8B41CAAD720F880EE7EF93C0C18769E099ECC04D5A102C8049A8A05632F4DDF376CF1DE0F6BB65C2F8627B65A33C6BB62177CEBBDAD973006829F89F22E814B54F4BC2BE347F8AA8F681390B50FA73F804400B5F542E796F19FF974E7F78DB802FE05E20750
310
4B0304140006080800CC70623B8D05915C650500003B100000340000006662782F36394639363044362D344446342D343946362D394244322D3234314243333846323333332F6F626A656374732E786D6CAD575B6FA33814FE2B887D06429276DA1565D4266D158D3A339A6846FB502932E050B66023DB74D2FDF5FB190C01
310
9276B2973C046C8ECFF53B17071F77456EBD502133CEAE6CDF9DD81665314F32965ED995DA3A17B6F5310C04E7AA47665B8C14F4CAD6DB7618A48257A5D94AE89654B91AEDDEDDFC61C998326A5B714EA4BCB265FC440BE2924AF184CA6737218AB8E976E7FA6E4338649B0A523E8D98964450A6A029F619B8588D52FE7039
310
B1BD30F0F4F730D0FF866AF6369557DB33949F31A9088B0F848DD8CCFCF9F2767A76E99CCDE733677E3EF59D9BBB9BA5E37F984D16E78BC5E5F5ED25044B25C0C96822E8D60EEFE11B91C581D77CEA34368A1F5329E68CD1B8B61F16D63A1B8E092D294B10C78C4A48EB593D192E7DED9BDEE7995E1B91FDEDD3ACEA9FE831
310
6A756F9F7D4D79F4274C90A7A04248AA51D5F8C718DAE06FB2F75AC4796EBE65D22A88A22223B995679120E2D50E41AA49C260C046A35368846B0BECD0DFF3EBEB8AD4F835768F69B9ADF25C43D30E6B646F807FAA64AD59F61715C7A54127C4AACA98BA3006A9D792DAE165E0D59B61A01FB3A9F9D838D2DAE62445C86166
310
F37564E842E7DE6A69879FEEA2DD5AE7E371E1A5E025154AC307D06A03D73EB5978C58FFA4C8E9033066E0F3BD53BEC1F39F91BE7B55103791EDE6BBB991A2046172CB4581D8B893FA674DDA17A77B3B7C413D1B511FD2743BFF8A38F03A658705E3ADF8015C3A3417FF3D7E439FF591DA0B5F18BC20C1B8981957AE6392A3
310
F43C640C01D1A0B4728E2DD4F26DB4B3C3152A252A3B4E913CEC1C72F012782FF88EFF8637AA552DBEF76408E8A8DE9E50F9E1CB3A2DA0DB1B6039A893B56063DC5B3E3FFB5F72E67AB9FEB4AEC496C4F4C1149625DD662C53E89D7BF0F6151A046260D1337DFDC94502430F83B0EE07A130A224BCAD7DAE1D9FB6CD422FF6
310
920702629C4BB9AE79C12F243C6432A6794E18E5552BA56B431AAB5D91317302B2B071E86C3A42B1A02F999E24061403B5D0EB639195DA655DD3EBEAB4FB862DDF579F014AD0E73C22F99E28DA57FB98E75C6CA2D74D53086D600F4786E0FE3144B771A8A7B900F03594DB8A633CBC49B2EDB69228BB479CF863B5E807AAAB
310
23872F6DFEB4129B949CA33823F58830E86D65621E10047D9DB34D862E8EAC3C2ABC2F7B2C40D67CDFE01F5545B92105AF983AC54D93D69E56FB8E797F88913F898A9FEC705D3F9D1B54EC8426FB500D40A03BD0119B06E1B95DDC7EB8F6975367793EBD70E66733DFB9BC982F9CE564727731999F5D4ECFCE3B8D6A4DC2A0
310
6D50FD148437D110834A64C6CDDF57FBACB5C307A2A477DFE4939736CFEF2B175371E0E10CF0DD1D5C15654E0BCA14D1E87DD02FF93782A162C0A3D95F1524A52770F972BF1EE9809D13CE7DD599467F8ECE9ADD85CE85A34CD45355448C64F9E8A031DC2D596ACC6E5DD93D9B82DE2EF5CAF81363A8E47996A0DE24564A79
310
4115AACE09C55E14540231FDA13C319787134EBF34E3A022514E5B4D9E0826E25C02D5805B15ABE1BEF51B26383D445DD9E875EE33FE4C22DA16427D65A3BCA92CA6D28DD01DF5DC53330704308475351050232CCD31583787BA75774AFB06E5070DD0C8EF484E19968C5D83BA5B90B244D31E54D55A372320FE4786B7EA58
310
44E135AA5467CB7EA333A61683CC6A8C3257034C10CF46F40EF9F5BE59BE5BD30C3C72D235E95D10345C1D45445A5F0BB47E46A5EBE5570F9380B5FA629579952296A773720405982B9DE04011506178964401AA8BDF1FBF0A8EAB6861DD6580C0E38217056766716DAEB2D6FA0917D3E4116581EADB879C4E7CFFB11EFACD
310
3D641311495D92C8676CB409A72D18610D803CE8A626049E8EC1887CB5B44CC39883690DDA8399B4B9855B481E7D71D4A9D22F96E5BB73BF5793020C02137BF837504B0304140006080000CC70623B000000000000000000000000350000006662782F36394639363044362D344446342D343946362D394244322D32343142
310
43333846323333332F76657274696365732E62696E504B0304140006080800CC70623BF270F1330600000004000000360000006662782F36394639363044362D344446342D343946362D394244322D3234314243333846323333332F747269616E676C65732E62696E636660600000504B0304140006080000CC70623B0000
310
00000000000000000000370000006662782F36394639363044362D344446342D343946362D394244322D3234314243333846323333332F617474726962757465732E62696E504B0304140006080800CC70623B08DA0BD19000000041010000360000006662782F36394639363044362D344446342D343946362D394244322D
310
3234314243333846323333332F6469726563746F72792E786D6C858F410AC3201045AF22B36F53E9A60B35CBEEBAE80D244E44489C6234F4F835464A48035D0DF398FF9F8AF63D0E6CC63039F212F8F9020C7D47C6792B21C5FE7403D62A1188E2E60C98D7234A5830286103A55745067B9D86B8A3CF9C7F90C11DE607FB14
310
4396D7B6A82D282E9A152AD114D5EF2CB866EEE831B8EEA07A7BB5A8D7D61A2BAAEB7FD5F70921FF497D00504B0304140006080800CC70623BCA768048FE000000A00100003B0000006662782F36394639363044362D344446342D343946362D394244322D3234314243333846323333332F7265736F75726365732F636F72
310
652E786D6C8D50596E833010BD0A9ADFCA60D600328E9AA639412F609909B1126CE4A5EAF16B0295DABFFECC8CDEA2797AECF8353F924FB44E193D409E5248504B332A3D0D10FC95B4901C39B3C6F85F3248B49871801506CE266BC2B243D2688FDA47549B11775038871E12F988C7004EDE7016A9083E2ADC3D5D84BC8B09
310
D33C8D74D471E6BC8D0192EDC93A815B742658898E651BCB59086ADC356A8C3FD555A1055ED7E7E254D615792D0F075295F585746FF53B694EE78A565DD736979A65AB9933AFE69F8CD2A2F038022F28ED489E135A7CE4554F9BBEA85E68DB53CAB255FEC71496F19FA6A0B42F8B3DEE6673C0F318E4497096AD7DC5F52C33
310
EEB55BFE0D504B010214000A0000080000CC70623B3DEE336E79000000790000001B00000000000000000000000000000000006175746F6465736B2D64657369676E2D7061636B6167652E786D6C504B01021400140006080800CC70623BD486FD9CA0000000F40000001300000000000000000000000000B20000005B436F
310
6E74656E745F54797065735D2E786D6C504B01021400140006080800CC70623BD9DDAED0EC0000007C010000080000000000000000000000000083010000636F72652E786D6C504B01021400140006080800CC70623B55019EA25F0000007C000000070000000000000000000000000095020000636E782E786D6C504B0102
310
1400140006080800CC70623BA24EB22D72010000D40300000C00000000000000000000000000190300006662782F636F72652E786D6C504B01021400140006080800CC70623B408A7D3B7C0000009D0000000B00000000000000000000000000B50400006662782F636E782E786D6C504B01021400140006080800CC70623B
310
449FB9BD290100001202000031000000000000000000000000005A0500006662782F36394639363044362D344446342D343946362D394244322D3234314243333846323333332F636F72652E786D6C504B01021400140006080800CC70623BAD7543B64E010000330300003000000000000000000000000000D20600006662
310
782F36394639363044362D344446342D343946362D394244322D3234314243333846323333332F636E782E786D6C504B01021400140006080800CC70623B8D05915C650500003B10000034000000000000000000000000006E0800006662782F36394639363044362D344446342D343946362D394244322D32343142433338
310
46323333332F6F626A656374732E786D6C504B01021400140006080000CC70623B0000000000000000000000003500000000000000000000000000250E00006662782F36394639363044362D344446342D343946362D394244322D3234314243333846323333332F76657274696365732E62696E504B010214001400060808
310
00CC70623BF270F13306000000040000003600000000000000000000000000780E00006662782F36394639363044362D344446342D343946362D394244322D3234314243333846323333332F747269616E676C65732E62696E504B01021400140006080000CC70623B00000000000000000000000037000000000000000000
310
00000000D20E00006662782F36394639363044362D344446342D343946362D394244322D3234314243333846323333332F617474726962757465732E62696E504B01021400140006080800CC70623B08DA0BD190000000410100003600000000000000000000000000270F00006662782F36394639363044362D344446342D
310
343946362D394244322D3234314243333846323333332F6469726563746F72792E786D6C504B01021400140006080800CC70623BCA768048FE000000A00100003B000000000000000000000000000B1000006662782F36394639363044362D344446342D343946362D394244322D3234314243333846323333332F7265736F
310
75726365732F636F72652E786D6C504B0506000000000E000E0080040000621100000000
  0
XRECORD
  5
12
102
{ACAD_REACTORS
330
D
102
}
330
D
100
AcDbXrecord
280
     1
270
     1
271
     1
  0
XRECORD
  5
13
102
{ACAD_REACTORS
330
D
102
}
330
D
100
AcDbXrecord
280
     1
270
     1
271
     1
  0
CELLSTYLEMAP
  5
27B
102
{ACAD_REACTORS
330
48
102
}
330
48
100
AcDbCellStyleMap
 90
        3
300
CELLSTYLE
  1
TABLEFORMAT_BEGIN
 90
        5
170
     1
 91
        0
 92
    32768
 62
   257
 93
        1
300
CONTENTFORMAT
  1
CONTENTFORMAT_BEGIN
 90
        0
 91
        0
 92
      512
 93
        0
300

 40
0.0
140
1.0
 94
        5
 62
     0
340
23
144
6.0
309
CONTENTFORMAT_END
171
     1
301
MARGIN
  1
CELLMARGIN_BEGIN
 40
1.5
 40
1.5
 40
1.5
 40
1.5
 40
0.18
 40
0.18
309
CELLMARGIN_END
 94
        6
 95
        1
302
GRIDFORMAT
  1
GRIDFORMAT_BEGIN
 90
        0
 91
        1
 62
     0
 92
       -2
340
26
 93
        0
 40
1.125
309
GRIDFORMAT_END
 95
        2
302
GRIDFORMAT
  1
GRIDFORMAT_BEGIN
 90
        0
 91
        1
 62
     0
 92
       -2
340
26
 93
        0
 40
1.125
309
GRIDFORMAT_END
 95
        4
302
GRIDFORMAT
  1
GRIDFORMAT_BEGIN
 90
        0
 91
        1
 62
     0
 92
       -2
340
26
 93
        0
 40
1.125
309
GRIDFORMAT_END
 95
        8
302
GRIDFORMAT
  1
GRIDFORMAT_BEGIN
 90
        0
 91
        1
 62
     0
 92
       -2
340
26
 93
        0
 40
1.125
309
GRIDFORMAT_END
 95
       16
302
GRIDFORMAT
  1
GRIDFORMAT_BEGIN
 90
        0
 91
        1
 62
     0
 92
       -2
340
26
 93
        0
 40
1.125
309
GRIDFORMAT_END
 95
       32
302
GRIDFORMAT
  1
GRIDFORMAT_BEGIN
 90
        0
 91
        1
 62
     0
 92
       -2
340
26
 93
        0
 40
1.125
309
GRIDFORMAT_END
309
TABLEFORMAT_END
  1
CELLSTYLE_BEGIN
 90
        1
 91
        1
300
_TITLE
309
CELLSTYLE_END
300
CELLSTYLE
  1
TABLEFORMAT_BEGIN
 90
        5
170
     1
 91
        0
 92
        0
 62
   257
 93
        1
300
CONTENTFORMAT
  1
CONTENTFORMAT_BEGIN
 90
        0
 91
        0
 92
      512
 93
        0
300

 40
0.0
140
1.0
 94
        5
 62
     0
340
23
144
4.5
309
CONTENTFORMAT_END
171
     1
301
MARGIN
  1
CELLMARGIN_BEGIN
 40
1.5
 40
1.5
 40
1.5
 40
1.5
 40
0.18
 40
0.18
309
CELLMARGIN_END
 94
        6
 95
        1
302
GRIDFORMAT
  1
GRIDFORMAT_BEGIN
 90
        0
 91
        1
 62
     0
 92
       -2
340
26
 93
        0
 40
1.125
309
GRIDFORMAT_END
 95
        2
302
GRIDFORMAT
  1
GRIDFORMAT_BEGIN
 90
        0
 91
        1
 62
     0
 92
       -2
340
26
 93
        0
 40
1.125
309
GRIDFORMAT_END
 95
        4
302
GRIDFORMAT
  1
GRIDFORMAT_BEGIN
 90
        0
 91
        1
 62
     0
 92
       -2
340
26
 93
        0
 40
1.125
309
GRIDFORMAT_END
 95
        8
302
GRIDFORMAT
  1
GRIDFORMAT_BEGIN
 90
        0
 91
        1
 62
     0
 92
       -2
340
26
 93
        0
 40
1.125
309
GRIDFORMAT_END
 95
       16
302
GRIDFORMAT
  1
GRIDFORMAT_BEGIN
 90
        0
 91
        1
 62
     0
 92
       -2
340
26
 93
        0
 40
1.125
309
GRIDFORMAT_END
 95
       32
302
GRIDFORMAT
  1
GRIDFORMAT_BEGIN
 90
        0
 91
        1
 62
     0
 92
       -2
340
26
 93
        0
 40
1.125
309
GRIDFORMAT_END
309
TABLEFORMAT_END
  1
CELLSTYLE_BEGIN
 90
        2
 91
        1
300
_HEADER
309
CELLSTYLE_END
300
CELLSTYLE
  1
TABLEFORMAT_BEGIN
 90
        5
170
     1
 91
        0
 92
        0
 62
   257
 93
        1
300
CONTENTFORMAT
  1
CONTENTFORMAT_BEGIN
 90
        0
 91
        0
 92
      512
 93
        0
300

 40
0.0
140
1.0
 94
        2
 62
     0
340
23
144
4.5
309
CONTENTFORMAT_END
171
     1
301
MARGIN
  1
CELLMARGIN_BEGIN
 40
1.5
 40
1.5
 40
1.5
 40
1.5
 40
0.18
 40
0.18
309
CELLMARGIN_END
 94
        6
 95
        1
302
GRIDFORMAT
  1
GRIDFORMAT_BEGIN
 90
        0
 91
        1
 62
     0
 92
       -2
340
26
 93
        0
 40
1.125
309
GRIDFORMAT_END
 95
        2
302
GRIDFORMAT
  1
GRIDFORMAT_BEGIN
 90
        0
 91
        1
 62
     0
 92
       -2
340
26
 93
        0
 40
1.125
309
GRIDFORMAT_END
 95
        4
302
GRIDFORMAT
  1
GRIDFORMAT_BEGIN
 90
        0
 91
        1
 62
     0
 92
       -2
340
26
 93
        0
 40
1.125
309
GRIDFORMAT_END
 95
        8
302
GRIDFORMAT
  1
GRIDFORMAT_BEGIN
 90
        0
 91
        1
 62
     0
 92
       -2
340
26
 93
        0
 40
1.125
309
GRIDFORMAT_END
 95
       16
302
GRIDFORMAT
  1
GRIDFORMAT_BEGIN
 90
        0
 91
        1
 62
     0
 92
       -2
340
26
 93
        0
 40
1.125
309
GRIDFORMAT_END
 95
       32
302
GRIDFORMAT
  1
GRIDFORMAT_BEGIN
 90
        0
 91
        1
 62
     0
 92
       -2
340
26
 93
        0
 40
1.125
309
GRIDFORMAT_END
309
TABLEFORMAT_END
  1
CELLSTYLE_BEGIN
 90
        3
 91
        2
300
_DATA
309
CELLSTYLE_END
  0
XRECORD
  5
287
102
{ACAD_REACTORS
330
48
102
}
330
48
100
AcDbXrecord
280
     1
102
ACAD_ROUNDTRIP_PRE2007_TABLESTYLE
 90
      512
 91
        0
  1

 92
      512
 93
        0
  2

 94
      512
 95
        0
  3

  0
XRECORD
  5
286
102
{ACAD_REACTORS
330
285
102
}
330
285
100
AcDbXrecord
280
     1
102
RTVSPost2010Prop28
280
     1
102
RTVSPost2010PropOp28
 70
     1
102
RTVSPost2010Prop29
280
     1
102
RTVSPost2010PropOp29
 70
     1
102
RTVSPost2010Prop30
280
     0
102
RTVSPost2010PropOp30
 70
     1
102
RTVSPost2010Prop31
280
     0
102
RTVSPost2010PropOp31
 70
     1
102
RTVSPost2010Prop32
280
     0
102
RTVSPost2010PropOp32
 70
     1
102
RTVSPost2010Prop33
280
     0
102
RTVSPost2010PropOp33
 70
     1
102
RTVSPost2010Prop34
280
     0
102
RTVSPost2010PropOp34
 70
     1
102
RTVSPost2010Prop35
280
     0
102
RTVSPost2010PropOp35
 70
     1
102
RTVSPost2010Prop36
280
     0
102
RTVSPost2010PropOp36
 70
     1
102
RTVSPost2010Prop37
 90
       50
102
RTVSPost2010PropOp37
 70
     1
102
RTVSPost2010Prop38
140
0.0
102
RTVSPost2010PropOp38
 70
     1
102
RTVSPost2010Prop39
140
1.0
102
RTVSPost2010PropOp39
 70
     1
102
RTVSPost2010Prop40
 90
        0
102
RTVSPost2010PropOp40
 70
     1
102
RTVSPost2010Prop41ColorIndex
 90
       18
102
RTVSPost2010Prop41ColorRGB
 90
        0
102
RTVSPost2010PropOp41
 70
     1
102
RTVSPost2010Prop42
 90
       50
102
RTVSPost2010PropOp42
 70
     1
102
RTVSPost2010Prop43
 90
        3
102
RTVSPost2010PropOp43
 70
     1
102
RTVSPost2010Prop44ColorIndex
 90
        5
102
RTVSPost2010Prop44ColorRGB
 90
      255
102
RTVSPost2010PropOp44
 70
     1
102
RTVSPost2010Prop45
280
     0
102
RTVSPost2010PropOp45
 70
     1
102
RTVSPost2010Prop46
 90
       50
102
RTVSPost2010PropOp46
 70
     1
102
RTVSPost2010Prop47
 90
       50
102
RTVSPost2010PropOp47
 70
     1
102
RTVSPost2010Prop48
 90
       50
102
RTVSPost2010PropOp48
 70
     1
102
RTVSPost2010Prop49
280
     0
102
RTVSPost2010PropOp49
 70
     1
102
RTVSPost2010Prop50
 90
       50
102
RTVSPost2010PropOp50
 70
     1
102
RTVSPost2010Prop51ColorIndex
 90
      256
102
RTVSPost2010Prop51ColorRGB
 90
-16777216
102
RTVSPost2010PropOp51
 70
     0
102
RTVSPost2010Prop52
140
1.0
102
RTVSPost2010PropOp52
 70
     0
102
RTVSPost2010Prop53
 90
        2
102
RTVSPost2010PropOp53
 70
     1
102
RTVSPost2010Prop54
  1
strokes_ogs.tif
102
RTVSPost2010PropOp54
 70
     1
102
RTVSPost2010Prop55
280
     0
102
RTVSPost2010PropOp55
 70
     1
102
RTVSPost2010Prop56
140
1.0
102
RTVSPost2010PropOp56
 70
     1
102
RTVSPost2010Prop57
140
1.0
102
RTVSPost2010PropOp57
 70
     1
102
RTVSPropertyOp0
 70
     1
102
RTVSPropertyOp1
 70
     1
102
RTVSPropertyOp2
 70
     1
102
RTVSPropertyOp3
 70
     1
102
RTVSPropertyOp4
 70
     1
102
RTVSPropertyOp5
 70
     1
102
RTVSPropertyOp6
 70
     1
102
RTVSPropertyOp7
 70
     1
102
RTVSPropertyOp8
 70
     1
102
RTVSPropertyOp9
 70
     1
102
RTVSPropertyOp10
 70
     1
102
RTVSPropertyOp11
 70
     1
102
RTVSPropertyOp12
 70
     1
102
RTVSPropertyOp13
 70
     1
102
RTVSPropertyOp14
 70
     1
102
RTVSPropertyOp15
 70
     1
102
RTVSPropertyOp16
 70
     1
102
RTVSPropertyOp17
 70
     1
102
RTVSPropertyOp18
 70
     1
102
RTVSPropertyOp19
 70
     1
102
RTVSPropertyOp20
 70
     1
102
RTVSPropertyOp21
 70
     1
102
RTVSPropertyOp22
 70
     1
102
RTVSPropertyOp23
 70
     1
102
RTVSPropertyOp24
 70
     1
102
RTVSPropertyOp25
 70
     1
102
RTVSPropertyOp26
 70
     1
102
RTVSPropertyOp27
 70
     1
102
RTVSPropertyOp28
 70
     1
102
RTVSPropertyOp29
 70
     1
102
RTVSPropertyOp30
 70
     1
102
RTVSPropertyOp31
 70
     1
102
RTVSPropertyOp32
 70
     1
102
RTVSPropertyOp33
 70
     1
102
RTVSPropertyOp34
 70
     1
102
RTVSPropertyOp35
 70
     1
102
RTVSPropertyOp36
 70
     1
102
RTVSPropertyOp37
 70
     1
102
RTVSPropertyOp38
 70
     1
102
RTVSPropertyOp39
 70
     1
102
RTVSPropertyOp40
 70
     1
102
RTVSPropertyOp41
 70
     1
102
RTVSPropertyOp42
 70
     1
102
RTVSPropertyOp43
 70
     1
102
RTVSPropertyOp44
 70
     1
102
RTVSPropertyOp45
 70
     1
102
RTVSPropertyOp46
 70
     1
102
RTVSPropertyOp47
 70
     1
102
RTVSPropertyOp48
 70
     1
102
RTVSPropertyOp49
 70
     1
102
RTVSPropertyOp50
 70
     1
102
RTVSPropertyOp51
 70
     0
102
RTVSPropertyOp52
 70
     0
102
RTVSPropertyOp53
 70
     1
102
RTVSPropertyOp54
 70
     1
102
RTVSPropertyOp55
 70
     1
102
RTVSPropertyOp56
 70
     1
102
RTVSPropertyOp57
 70
     1
102
RTVSPropertyOp58
 70
     1
102
RTVSPropertyOp59
 70
     1
102
RTVSPropertyOp60
 70
     1
102
RTVSPropertyOp61
 70
     1
102
RTVSPropertyOp62
 70
     1
  0
XRECORD
  5
289
102
{ACAD_REACTORS
330
288
102
}
330
288
100
AcDbXrecord
280
     1
102
RTVSPost2010Prop28
280
     0
102
RTVSPost2010PropOp28
 70
     1
102
RTVSPost2010Prop29
280
     1
102
RTVSPost2010PropOp29
 70
     1
102
RTVSPost2010Prop30
280
     1
102
RTVSPost2010PropOp30
 70
     1
102
RTVSPost2010Prop31
280
     0
102
RTVSPost2010PropOp31
 70
     1
102
RTVSPost2010Prop32
280
     0
102
RTVSPost2010PropOp32
 70
     1
102
RTVSPost2010Prop33
280
     0
102
RTVSPost2010PropOp33
 70
     1
102
RTVSPost2010Prop34
280
     0
102
RTVSPost2010PropOp34
 70
     1
102
RTVSPost2010Prop35
280
     0
102
RTVSPost2010PropOp35
 70
     1
102
RTVSPost2010Prop36
280
     0
102
RTVSPost2010PropOp36
 70
     1
102
RTVSPost2010Prop37
 90
       50
102
RTVSPost2010PropOp37
 70
     1
102
RTVSPost2010Prop38
140
0.0
102
RTVSPost2010PropOp38
 70
     1
102
RTVSPost2010Prop39
140
1.0
102
RTVSPost2010PropOp39
 70
     1
102
RTVSPost2010Prop40
 90
        0
102
RTVSPost2010PropOp40
 70
     1
102
RTVSPost2010Prop41ColorIndex
 90
       18
102
RTVSPost2010Prop41ColorRGB
 90
        0
102
RTVSPost2010PropOp41
 70
     1
102
RTVSPost2010Prop42
 90
       50
102
RTVSPost2010PropOp42
 70
     1
102
RTVSPost2010Prop43
 90
        3
102
RTVSPost2010PropOp43
 70
     1
102
RTVSPost2010Prop44ColorIndex
 90
        5
102
RTVSPost2010Prop44ColorRGB
 90
      255
102
RTVSPost2010PropOp44
 70
     1
102
RTVSPost2010Prop45
280
     0
102
RTVSPost2010PropOp45
 70
     1
102
RTVSPost2010Prop46
 90
       50
102
RTVSPost2010PropOp46
 70
     1
102
RTVSPost2010Prop47
 90
       50
102
RTVSPost2010PropOp47
 70
     1
102
RTVSPost2010Prop48
 90
       50
102
RTVSPost2010PropOp48
 70
     1
102
RTVSPost2010Prop49
280
     0
102
RTVSPost2010PropOp49
 70
     1
102
RTVSPost2010Prop50
 90
       50
102
RTVSPost2010PropOp50
 70
     1
102
RTVSPost2010Prop51ColorIndex
 90
      256
102
RTVSPost2010Prop51ColorRGB
 90
-16777216
102
RTVSPost2010PropOp51
 70
     0
102
RTVSPost2010Prop52
140
1.0
102
RTVSPost2010PropOp52
 70
     0
102
RTVSPost2010Prop53
 90
        2
102
RTVSPost2010PropOp53
 70
     1
102
RTVSPost2010Prop54
  1
strokes_ogs.tif
102
RTVSPost2010PropOp54
 70
     1
102
RTVSPost2010Prop55
280
     0
102
RTVSPost2010PropOp55
 70
     1
102
RTVSPost2010Prop56
140
1.0
102
RTVSPost2010PropOp56
 70
     1
102
RTVSPost2010Prop57
140
1.0
102
RTVSPost2010PropOp57
 70
     1
102
RTVSPropertyOp0
 70
     1
102
RTVSPropertyOp1
 70
     1
102
RTVSPropertyOp2
 70
     1
102
RTVSPropertyOp3
 70
     1
102
RTVSPropertyOp4
 70
     1
102
RTVSPropertyOp5
 70
     1
102
RTVSPropertyOp6
 70
     1
102
RTVSPropertyOp7
 70
     1
102
RTVSPropertyOp8
 70
     1
102
RTVSPropertyOp9
 70
     1
102
RTVSPropertyOp10
 70
     1
102
RTVSPropertyOp11
 70
     1
102
RTVSPropertyOp12
 70
     1
102
RTVSPropertyOp13
 70
     1
102
RTVSPropertyOp14
 70
     1
102
RTVSPropertyOp15
 70
     1
102
RTVSPropertyOp16
 70
     1
102
RTVSPropertyOp17
 70
     1
102
RTVSPropertyOp18
 70
     1
102
RTVSPropertyOp19
 70
     1
102
RTVSPropertyOp20
 70
     1
102
RTVSPropertyOp21
 70
     1
102
RTVSPropertyOp22
 70
     1
102
RTVSPropertyOp23
 70
     1
102
RTVSPropertyOp24
 70
     1
102
RTVSPropertyOp25
 70
     1
102
RTVSPropertyOp26
 70
     1
102
RTVSPropertyOp27
 70
     1
102
RTVSPropertyOp28
 70
     1
102
RTVSPropertyOp29
 70
     1
102
RTVSPropertyOp30
 70
     1
102
RTVSPropertyOp31
 70
     1
102
RTVSPropertyOp32
 70
     1
102
RTVSPropertyOp33
 70
     1
102
RTVSPropertyOp34
 70
     1
102
RTVSPropertyOp35
 70
     1
102
RTVSPropertyOp36
 70
     1
102
RTVSPropertyOp37
 70
     1
102
RTVSPropertyOp38
 70
     1
102
RTVSPropertyOp39
 70
     1
102
RTVSPropertyOp40
 70
     1
102
RTVSPropertyOp41
 70
     1
102
RTVSPropertyOp42
 70
     1
102
RTVSPropertyOp43
 70
     1
102
RTVSPropertyOp44
 70
     1
102
RTVSPropertyOp45
 70
     1
102
RTVSPropertyOp46
 70
     1
102
RTVSPropertyOp47
 70
     1
102
RTVSPropertyOp48
 70
     1
102
RTVSPropertyOp49
 70
     1
102
RTVSPropertyOp50
 70
     1
102
RTVSPropertyOp51
 70
     0
102
RTVSPropertyOp52
 70
     0
102
RTVSPropertyOp53
 70
     1
102
RTVSPropertyOp54
 70
     1
102
RTVSPropertyOp55
 70
     1
102
RTVSPropertyOp56
 70
     1
102
RTVSPropertyOp57
 70
     1
102
RTVSPropertyOp58
 70
     1
102
RTVSPropertyOp59
 70
     1
102
RTVSPropertyOp60
 70
     1
102
RTVSPropertyOp61
 70
     1
102
RTVSPropertyOp62
 70
     1
  0
XRECORD
  5
28B
102
{ACAD_REACTORS
330
28A
102
}
330
28A
100
AcDbXrecord
280
     1
102
RTVSPost2010Prop28
280
     0
102
RTVSPost2010PropOp28
 70
     1
102
RTVSPost2010Prop29
280
     1
102
RTVSPost2010PropOp29
 70
     1
102
RTVSPost2010Prop30
280
     1
102
RTVSPost2010PropOp30
 70
     1
102
RTVSPost2010Prop31
280
     0
102
RTVSPost2010PropOp31
 70
     1
102
RTVSPost2010Prop32
280
     0
102
RTVSPost2010PropOp32
 70
     1
102
RTVSPost2010Prop33
280
     0
102
RTVSPost2010PropOp33
 70
     1
102
RTVSPost2010Prop34
280
     0
102
RTVSPost2010PropOp34
 70
     1
102
RTVSPost2010Prop35
280
     0
102
RTVSPost2010PropOp35
 70
     1
102
RTVSPost2010Prop36
280
     0
102
RTVSPost2010PropOp36
 70
     1
102
RTVSPost2010Prop37
 90
       50
102
RTVSPost2010PropOp37
 70
     1
102
RTVSPost2010Prop38
140
0.0
102
RTVSPost2010PropOp38
 70
     1
102
RTVSPost2010Prop39
140
1.0
102
RTVSPost2010PropOp39
 70
     1
102
RTVSPost2010Prop40
 90
        0
102
RTVSPost2010PropOp40
 70
     1
102
RTVSPost2010Prop41ColorIndex
 90
       18
102
RTVSPost2010Prop41ColorRGB
 90
        0
102
RTVSPost2010PropOp41
 70
     1
102
RTVSPost2010Prop42
 90
       50
102
RTVSPost2010PropOp42
 70
     1
102
RTVSPost2010Prop43
 90
        3
102
RTVSPost2010PropOp43
 70
     1
102
RTVSPost2010Prop44ColorIndex
 90
        5
102
RTVSPost2010Prop44ColorRGB
 90
      255
102
RTVSPost2010PropOp44
 70
     1
102
RTVSPost2010Prop45
280
     0
102
RTVSPost2010PropOp45
 70
     1
102
RTVSPost2010Prop46
 90
       50
102
RTVSPost2010PropOp46
 70
     1
102
RTVSPost2010Prop47
 90
       50
102
RTVSPost2010PropOp47
 70
     1
102
RTVSPost2010Prop48
 90
       50
102
RTVSPost2010PropOp48
 70
     1
102
RTVSPost2010Prop49
280
     0
102
RTVSPost2010PropOp49
 70
     1
102
RTVSPost2010Prop50
 90
       50
102
RTVSPost2010PropOp50
 70
     1
102
RTVSPost2010Prop51ColorIndex
 90
      256
102
RTVSPost2010Prop51ColorRGB
 90
-16777216
102
RTVSPost2010PropOp51
 70
     0
102
RTVSPost2010Prop52
140
1.0
102
RTVSPost2010PropOp52
 70
     0
102
RTVSPost2010Prop53
 90
        2
102
RTVSPost2010PropOp53
 70
     1
102
RTVSPost2010Prop54
  1
strokes_ogs.tif
102
RTVSPost2010PropOp54
 70
     1
102
RTVSPost2010Prop55
280
     0
102
RTVSPost2010PropOp55
 70
     1
102
RTVSPost2010Prop56
140
1.0
102
RTVSPost2010PropOp56
 70
     1
102
RTVSPost2010Prop57
140
1.0
102
RTVSPost2010PropOp57
 70
     1
102
RTVSPropertyOp0
 70
     1
102
RTVSPropertyOp1
 70
     1
102
RTVSPropertyOp2
 70
     1
102
RTVSPropertyOp3
 70
     1
102
RTVSPropertyOp4
 70
     1
102
RTVSPropertyOp5
 70
     1
102
RTVSPropertyOp6
 70
     1
102
RTVSPropertyOp7
 70
     1
102
RTVSPropertyOp8
 70
     1
102
RTVSPropertyOp9
 70
     1
102
RTVSPropertyOp10
 70
     1
102
RTVSPropertyOp11
 70
     1
102
RTVSPropertyOp12
 70
     1
102
RTVSPropertyOp13
 70
     1
102
RTVSPropertyOp14
 70
     1
102
RTVSPropertyOp15
 70
     1
102
RTVSPropertyOp16
 70
     1
102
RTVSPropertyOp17
 70
     1
102
RTVSPropertyOp18
 70
     1
102
RTVSPropertyOp19
 70
     1
102
RTVSPropertyOp20
 70
     1
102
RTVSPropertyOp21
 70
     1
102
RTVSPropertyOp22
 70
     1
102
RTVSPropertyOp23
 70
     1
102
RTVSPropertyOp24
 70
     1
102
RTVSPropertyOp25
 70
     1
102
RTVSPropertyOp26
 70
     1
102
RTVSPropertyOp27
 70
     1
102
RTVSPropertyOp28
 70
     1
102
RTVSPropertyOp29
 70
     1
102
RTVSPropertyOp30
 70
     1
102
RTVSPropertyOp31
 70
     1
102
RTVSPropertyOp32
 70
     1
102
RTVSPropertyOp33
 70
     1
102
RTVSPropertyOp34
 70
     1
102
RTVSPropertyOp35
 70
     1
102
RTVSPropertyOp36
 70
     1
102
RTVSPropertyOp37
 70
     1
102
RTVSPropertyOp38
 70
     1
102
RTVSPropertyOp39
 70
     1
102
RTVSPropertyOp40
 70
     1
102
RTVSPropertyOp41
 70
     1
102
RTVSPropertyOp42
 70
     1
102
RTVSPropertyOp43
 70
     1
102
RTVSPropertyOp44
 70
     1
102
RTVSPropertyOp45
 70
     1
102
RTVSPropertyOp46
 70
     1
102
RTVSPropertyOp47
 70
     1
102
RTVSPropertyOp48
 70
     1
102
RTVSPropertyOp49
 70
     1
102
RTVSPropertyOp50
 70
     1
102
RTVSPropertyOp51
 70
     0
102
RTVSPropertyOp52
 70
     0
102
RTVSPropertyOp53
 70
     1
102
RTVSPropertyOp54
 70
     1
102
RTVSPropertyOp55
 70
     1
102
RTVSPropertyOp56
 70
     1
102
RTVSPropertyOp57
 70
     1
102
RTVSPropertyOp58
 70
     1
102
RTVSPropertyOp59
 70
     1
102
RTVSPropertyOp60
 70
     1
102
RTVSPropertyOp61
 70
     1
102
RTVSPropertyOp62
 70
     1
  0
ENDSEC
  0
EOF
