  0
SECTION
  2
HEADER
  9
$ACADVER
  1
AC1018
  9
$ACADMAINTVER
 70
   104
  9
$DWGCODEPAGE
  3
ANSI_932
  9
$INSBASE
 10
0.0
 20
0.0
 30
0.0
  9
$EXTMIN
 10
1.044617678323561
 20
2.256867149212439
 30
-0.0015258207003583
  9
$EXTMAX
 10
51.06445367339119
 20
24.9614871912188
 30
0.0000000349246037
  9
$LIMMIN
 10
-5.363075180526266
 20
-3.069649575427661
  9
$LIMMAX
 10
56.36869190008815
 20
30.49791067832462
  9
$ORTHOMODE
 70
     0
  9
$REGENMODE
 70
     1
  9
$FILLMODE
 70
     1
  9
$QTEXTMODE
 70
     0
  9
$MIRRTEXT
 70
     0
  9
$LTSCALE
 40
1.0
  9
$ATTMODE
 70
     1
  9
$TEXTSIZE
 40
2.5
  9
$TRACEWID
 40
1.0
  9
$TEXTSTYLE
  7
Standard
  9
$CLAYER
  8
0
  9
$CELTYPE
  6
ByLayer
  9
$CECOLOR
 62
   256
  9
$CELTSCALE
 40
1.0
  9
$DISPSILH
 70
     0
  9
$DIMSCALE
 40
1.0
  9
$DIMASZ
 40
2.5
  9
$DIMEXO
 40
0.625
  9
$DIMDLI
 40
3.75
  9
$DIMRND
 40
0.0
  9
$DIMDLE
 40
0.0
  9
$DIMEXE
 40
1.25
  9
$DIMTP
 40
0.0
  9
$DIMTM
 40
0.0
  9
$DIMTXT
 40
2.5
  9
$DIMCEN
 40
2.5
  9
$DIMTSZ
 40
0.0
  9
$DIMTOL
 70
     0
  9
$DIMLIM
 70
     0
  9
$DIMTIH
 70
     0
  9
$DIMTOH
 70
     0
  9
$DIMSE1
 70
     0
  9
$DIMSE2
 70
     0
  9
$DIMTAD
 70
     1
  9
$DIMZIN
 70
     8
  9
$DIMBLK
  1

  9
$DIMASO
 70
     1
  9
$DIMSHO
 70
     1
  9
$DIMPOST
  1

  9
$DIMAPOST
  1

  9
$DIMALT
 70
     0
  9
$DIMALTD
 70
     3
  9
$DIMALTF
 40
0.03937007874016
  9
$DIMLFAC
 40
1.0
  9
$DIMTOFL
 70
     1
  9
$DIMTVP
 40
0.0
  9
$DIMTIX
 70
     0
  9
$DIMSOXD
 70
     0
  9
$DIMSAH
 70
     0
  9
$DIMBLK1
  1

  9
$DIMBLK2
  1

  9
$DIMSTYLE
  2
ISO-25
  9
$DIMCLRD
 70
     0
  9
$DIMCLRE
 70
     0
  9
$DIMCLRT
 70
     0
  9
$DIMTFAC
 40
1.0
  9
$DIMGAP
 40
0.625
  9
$DIMJUST
 70
     0
  9
$DIMSD1
 70
     0
  9
$DIMSD2
 70
     0
  9
$DIMTOLJ
 70
     0
  9
$DIMTZIN
 70
     8
  9
$DIMALTZ
 70
     0
  9
$DIMALTTZ
 70
     0
  9
$DIMUPT
 70
     0
  9
$DIMDEC
 70
     2
  9
$DIMTDEC
 70
     2
  9
$DIMALTU
 70
     2
  9
$DIMALTTD
 70
     3
  9
$DIMTXSTY
  7
Standard
  9
$DIMAUNIT
 70
     0
  9
$DIMADEC
 70
     0
  9
$DIMALTRND
 40
0.0
  9
$DIMAZIN
 70
     0
  9
$DIMDSEP
 70
    44
  9
$DIMATFIT
 70
     3
  9
$DIMFRAC
 70
     0
  9
$DIMLDRBLK
  1

  9
$DIMLUNIT
 70
     2
  9
$DIMLWD
 70
    -2
  9
$DIMLWE
 70
    -2
  9
$DIMTMOVE
 70
     0
  9
$LUNITS
 70
     2
  9
$LUPREC
 70
     4
  9
$SKETCHINC
 40
1.0
  9
$FILLETRAD
 40
0.0
  9
$AUNITS
 70
     0
  9
$AUPREC
 70
     0
  9
$MENU
  1
.
  9
$ELEVATION
 40
0.0
  9
$PELEVATION
 40
0.0
  9
$THICKNESS
 40
0.0
  9
$LIMCHECK
 70
     0
  9
$CHAMFERA
 40
0.0
  9
$CHAMFERB
 40
0.0
  9
$CHAMFERC
 40
0.0
  9
$CHAMFERD
 40
0.0
  9
$SKPOLY
 70
     0
  9
$TDCREATE
 40
2458205.383252315
  9
$TDUCREATE
 40
2458205.049918981
  9
$TDUPDATE
 40
2458205.384004630
  9
$TDUUPDATE
 40
2458205.050671296
  9
$TDINDWG
 40
0.0004050926
  9
$TDUSRTIMER
 40
0.0004050926
  9
$USRTIMER
 70
     1
  9
$ANGBASE
 50
0.0
  9
$ANGDIR
 70
     0
  9
$PDMODE
 70
     0
  9
$PDSIZE
 40
0.0
  9
$PLINEWID
 40
0.0
  9
$SPLFRAME
 70
     0
  9
$SPLINETYPE
 70
     6
  9
$SPLINESEGS
 70
     8
  9
$HANDSEED
  5
23D
  9
$SURFTAB1
 70
     6
  9
$SURFTAB2
 70
     6
  9
$SURFTYPE
 70
     6
  9
$SURFU
 70
     6
  9
$SURFV
 70
     6
  9
$UCSBASE
  2

  9
$UCSNAME
  2

  9
$UCSORG
 10
0.0
 20
0.0
 30
0.0
  9
$UCSXDIR
 10
1.0
 20
0.0
 30
0.0
  9
$UCSYDIR
 10
0.0
 20
1.0
 30
0.0
  9
$UCSORTHOREF
  2

  9
$UCSORTHOVIEW
 70
     0
  9
$UCSORGTOP
 10
0.0
 20
0.0
 30
0.0
  9
$UCSORGBOTTOM
 10
0.0
 20
0.0
 30
0.0
  9
$UCSORGLEFT
 10
0.0
 20
0.0
 30
0.0
  9
$UCSORGRIGHT
 10
0.0
 20
0.0
 30
0.0
  9
$UCSORGFRONT
 10
0.0
 20
0.0
 30
0.0
  9
$UCSORGBACK
 10
0.0
 20
0.0
 30
0.0
  9
$PUCSBASE
  2

  9
$PUCSNAME
  2

  9
$PUCSORG
 10
0.0
 20
0.0
 30
0.0
  9
$PUCSXDIR
 10
1.0
 20
0.0
 30
0.0
  9
$PUCSYDIR
 10
0.0
 20
1.0
 30
0.0
  9
$PUCSORTHOREF
  2

  9
$PUCSORTHOVIEW
 70
     0
  9
$PUCSORGTOP
 10
0.0
 20
0.0
 30
0.0
  9
$PUCSORGBOTTOM
 10
0.0
 20
0.0
 30
0.0
  9
$PUCSORGLEFT
 10
0.0
 20
0.0
 30
0.0
  9
$PUCSORGRIGHT
 10
0.0
 20
0.0
 30
0.0
  9
$PUCSORGFRONT
 10
0.0
 20
0.0
 30
0.0
  9
$PUCSORGBACK
 10
0.0
 20
0.0
 30
0.0
  9
$USERI1
 70
     0
  9
$USERI2
 70
     0
  9
$USERI3
 70
     0
  9
$USERI4
 70
     0
  9
$USERI5
 70
     0
  9
$USERR1
 40
0.0
  9
$USERR2
 40
0.0
  9
$USERR3
 40
0.0
  9
$USERR4
 40
0.0
  9
$USERR5
 40
0.0
  9
$WORLDVIEW
 70
     1
  9
$SHADEDGE
 70
     3
  9
$SHADEDIF
 70
    70
  9
$TILEMODE
 70
     1
  9
$MAXACTVP
 70
    64
  9
$PINSBASE
 10
0.0
 20
0.0
 30
0.0
  9
$PLIMCHECK
 70
     0
  9
$PEXTMIN
 10
0.0
 20
0.0
 30
0.0
  9
$PEXTMAX
 10
0.0
 20
0.0
 30
0.0
  9
$PLIMMIN
 10
0.0
 20
0.0
  9
$PLIMMAX
 10
12.0
 20
9.0
  9
$UNITMODE
 70
     0
  9
$VISRETAIN
 70
     1
  9
$PLINEGEN
 70
     0
  9
$PSLTSCALE
 70
     1
  9
$TREEDEPTH
 70
  3020
  9
$CMLSTYLE
  2
Standard
  9
$CMLJUST
 70
     0
  9
$CMLSCALE
 40
20.0
  9
$PROXYGRAPHICS
 70
     1
  9
$MEASUREMENT
 70
     1
  9
$CELWEIGHT
370
    -1
  9
$ENDCAPS
280
     0
  9
$JOINSTYLE
280
     0
  9
$LWDISPLAY
290
     0
  9
$INSUNITS
 70
     4
  9
$HYPERLINKBASE
  1

  9
$STYLESHEET
  1

  9
$XEDIT
290
     1
  9
$CEPSNTYPE
380
     0
  9
$PSTYLEMODE
290
     1
  9
$FINGERPRINTGUID
  2
{FCFDD6E2-00A8-AF4C-BB0C-116D0CB926B7}
  9
$VERSIONGUID
  2
{DC6DD788-BCC6-FD48-B6C7-636B35187D78}
  9
$EXTNAMES
290
     1
  9
$PSVPSCALE
 40
0.0
  9
$OLESTARTUP
290
     0
  9
$SORTENTS
280
   127
  9
$INDEXCTL
280
     0
  9
$HIDETEXT
280
     1
  9
$XCLIPFRAME
290
     0
  9
$HALOGAP
280
     0
  9
$OBSCOLOR
 70
   257
  9
$OBSLTYPE
280
     0
  9
$INTERSECTIONDISPLAY
280
     0
  9
$INTERSECTIONCOLOR
 70
   257
  9
$DIMASSOC
280
     2
  9
$PROJECTNAME
  1

  0
ENDSEC
  0
SECTION
  2
CLASSES
  0
CLASS
  1
ACDBDICTIONARYWDFLT
  2
AcDbDictionaryWithDefault
  3
ObjectDBX Classes
 90
        0
 91
        1
280
     0
281
     0
  0
CLASS
  1
DICTIONARYVAR
  2
AcDbDictionaryVar
  3
ObjectDBX Classes
 90
        0
 91
       12
280
     0
281
     0
  0
CLASS
  1
TABLESTYLE
  2
AcDbTableStyle
  3
ObjectDBX Classes
 90
     4095
 91
        1
280
     0
281
     0
  0
CLASS
  1
MATERIAL
  2
AcDbMaterial
  3
ObjectDBX Classes
 90
     1153
 91
        3
280
     0
281
     0
  0
CLASS
  1
VISUALSTYLE
  2
AcDbVisualStyle
  3
ObjectDBX Classes
 90
     4095
 91
        3
280
     0
281
     0
  0
CLASS
  1
SCALE
  2
AcDbScale
  3
ObjectDBX Classes
 90
     1153
 91
       17
280
     0
281
     0
  0
CLASS
  1
MLEADERSTYLE
  2
AcDbMLeaderStyle
  3
ACDB_MLEADERSTYLE_CLASS
 90
     4095
 91
        0
280
     0
281
     0
  0
CLASS
  1
CELLSTYLEMAP
  2
AcDbCellStyleMap
  3
ObjectDBX Classes
 90
     1152
 91
        1
280
     0
281
     0
  0
CLASS
  1
EXACXREFPANELOBJECT
  2
ExAcXREFPanelObject
  3
EXAC_ESW
 90
     1025
 91
        0
280
     1
281
     0
  0
CLASS
  1
NPOCOLLECTION
  2
AcDbImpNonPersistentObjectsCollection
  3
ObjectDBX Classes
 90
     1153
 91
        0
280
     0
281
     0
  0
CLASS
  1
LAYER_INDEX
  2
AcDbLayerIndex
  3
ObjectDBX Classes
 90
        0
 91
        0
280
     0
281
     0
  0
CLASS
  1
SPATIAL_INDEX
  2
AcDbSpatialIndex
  3
ObjectDBX Classes
 90
        0
 91
        0
280
     0
281
     0
  0
CLASS
  1
IDBUFFER
  2
AcDbIdBuffer
  3
ObjectDBX Classes
 90
        0
 91
        0
280
     0
281
     0
  0
CLASS
  1
ACDBSECTIONVIEWSTYLE
  2
AcDbSectionViewStyle
  3
ObjectDBX Classes
 90
     1025
 91
        0
280
     0
281
     0
  0
CLASS
  1
ACDBDETAILVIEWSTYLE
  2
AcDbDetailViewStyle
  3
ObjectDBX Classes
 90
     1025
 91
        0
280
     0
281
     0
  0
CLASS
  1
SORTENTSTABLE
  2
AcDbSortentsTable
  3
ObjectDBX Classes
 90
        0
 91
        0
280
     0
281
     0
  0
ENDSEC
  0
SECTION
  2
TABLES
  0
TABLE
  2
VPORT
  5
28
330
0
100
AcDbSymbolTable
 70
     1
  0
VPORT
  5
29
330
28
100
AcDbSymbolTableRecord
100
AcDbViewportTableRecord
  2
*Active
 70
     0
 10
0.0
 20
0.0
 11
1.0
 21
1.0
 12
25.50280835978095
 22
13.71413055144847
 13
0.0
 23
0.0
 14
10.0
 24
10.0
 15
10.0
 25
10.0
 16
0.0
 26
0.0
 36
1.0
 17
0.0
 27
0.0
 37
0.0
 40
33.86158267933259
 41
2.326023391812865
 42
50.0
 43
0.0
 44
0.0
 50
0.0
 51
0.0
 71
     0
 72
  1000
 73
     1
 74
     3
 75
     0
 76
     1
 77
     0
 78
     0
281
     0
 65
     1
110
0.0
120
0.0
130
0.0
111
1.0
121
0.0
131
0.0
112
0.0
122
1.0
132
0.0
 79
     0
146
0.0
1001
ACAD_NAV_VCDISPLAY
1070
     3
  0
ENDTAB
  0
TABLE
  2
LTYPE
  5
23
330
0
100
AcDbSymbolTable
 70
     1
  0
LTYPE
  5
24
330
23
100
AcDbSymbolTableRecord
100
AcDbLinetypeTableRecord
  2
ByBlock
 70
     0
  3

 72
    65
 73
     0
 40
0.0
  0
LTYPE
  5
25
330
23
100
AcDbSymbolTableRecord
100
AcDbLinetypeTableRecord
  2
ByLayer
 70
     0
  3

 72
    65
 73
     0
 40
0.0
  0
LTYPE
  5
13
330
23
100
AcDbSymbolTableRecord
100
AcDbLinetypeTableRecord
  2
Continuous
 70
     0
  3
Solid line
 72
    65
 73
     0
 40
0.0
  0
ENDTAB
  0
TABLE
  2
LAYER
  5
1D
102
{ACAD_XDICTIONARY
360
1E
102
}
330
0
100
AcDbSymbolTable
 70
     1
  0
LAYER
  5
5
102
{ACAD_XDICTIONARY
360
6
102
}
330
1D
100
AcDbSymbolTableRecord
100
AcDbLayerTableRecord
  2
0
 70
     0
 62
     7
  6
Continuous
370
    -3
390
7
  0
ENDTAB
  0
TABLE
  2
STYLE
  5
20
330
0
100
AcDbSymbolTable
 70
     1
  0
STYLE
  5
21
330
20
100
AcDbSymbolTableRecord
100
AcDbTextStyleTableRecord
  2
Standard
 70
     0
 40
0.0
 41
1.0
 50
0.0
 71
     0
 42
2.5
  3
arial.ttf
  4

1001
ACAD
1000
Arial
1071
       34
  0
ENDTAB
  0
TABLE
  2
VIEW
  5
26
330
0
100
AcDbSymbolTable
 70
     0
  0
ENDTAB
  0
TABLE
  2
UCS
  5
27
330
0
100
AcDbSymbolTable
 70
     0
  0
ENDTAB
  0
TABLE
  2
APPID
  5
2D
330
0
100
AcDbSymbolTable
 70
     6
  0
APPID
  5
12
330
2D
100
AcDbSymbolTableRecord
100
AcDbRegAppTableRecord
  2
ACAD
 70
     0
  0
APPID
  5
18
330
2D
100
AcDbSymbolTableRecord
100
AcDbRegAppTableRecord
  2
ACAD_PSEXT
 70
     0
  0
APPID
  5
31
330
2D
100
AcDbSymbolTableRecord
100
AcDbRegAppTableRecord
  2
AcadAnnotative
 70
     0
  0
APPID
  5
32
330
2D
100
AcDbSymbolTableRecord
100
AcDbRegAppTableRecord
  2
ACAD_DSTYLE_DIMJAG
 70
     0
  0
APPID
  5
33
330
2D
100
AcDbSymbolTableRecord
100
AcDbRegAppTableRecord
  2
ACAD_DSTYLE_DIMTALN
 70
     0
  0
APPID
  5
2C
330
2D
100
AcDbSymbolTableRecord
100
AcDbRegAppTableRecord
  2
ACAD_NAV_VCDISPLAY
 70
     0
  0
ENDTAB
  0
TABLE
  2
DIMSTYLE
  5
2E
330
0
100
AcDbSymbolTable
 70
     2
100
AcDbDimStyleTable
 71
     2
340
2F
340
30
  0
DIMSTYLE
105
30
330
2E
100
AcDbSymbolTableRecord
100
AcDbDimStyleTableRecord
  2
Annotative
 70
     0
 40
0.0
 41
2.5
 42
0.625
 43
3.75
 44
1.25
 73
     0
 74
     0
 77
     1
 78
     8
140
2.5
141
2.5
143
0.03937007874016
147
0.625
171
     3
172
     1
271
     2
272
     2
274
     3
278
    44
283
     0
284
     8
340
21
1001
AcadAnnotative
1000
AnnotativeData
1002
{
1070
     1
1070
     1
1002
}
1001
ACAD_DSTYLE_DIMJAG
1070
   388
1040
1.5
1001
ACAD_DSTYLE_DIMTALN
1070
   392
1070
     0
  0
DIMSTYLE
105
2F
330
2E
100
AcDbSymbolTableRecord
100
AcDbDimStyleTableRecord
  2
ISO-25
 70
     0
 41
2.5
 42
0.625
 43
3.75
 44
1.25
 73
     0
 74
     0
 77
     1
 78
     8
140
2.5
141
2.5
143
0.03937007874016
147
0.625
171
     3
172
     1
271
     2
272
     2
274
     3
278
    44
283
     0
284
     8
340
21
  0
ENDTAB
  0
TABLE
  2
BLOCK_RECORD
  5
1
330
0
100
AcDbSymbolTable
 70
     0
  0
BLOCK_RECORD
  5
2
102
{ACAD_XDICTIONARY
360
3
102
}
330
1
100
AcDbSymbolTableRecord
100
AcDbBlockTableRecord
  2
*Model_Space
340
15
  0
BLOCK_RECORD
  5
19
330
1
100
AcDbSymbolTableRecord
100
AcDbBlockTableRecord
  2
*Paper_Space
340
1C
  0
ENDTAB
  0
ENDSEC
  0
SECTION
  2
BLOCKS
  0
BLOCK
  5
4
330
2
100
AcDbEntity
  8
0
100
AcDbBlockBegin
  2
*Model_Space
 70
     0
 10
0.0
 20
0.0
 30
0.0
  3
*Model_Space
  1

  0
ENDBLK
  5
14
330
2
100
AcDbEntity
  8
0
100
AcDbBlockEnd
  0
BLOCK
  5
1A
330
19
100
AcDbEntity
 67
     1
  8
0
100
AcDbBlockBegin
  2
*Paper_Space
 70
     0
 10
0.0
 20
0.0
 30
0.0
  3
*Paper_Space
  1

  0
ENDBLK
  5
1B
330
19
100
AcDbEntity
 67
     1
  8
0
100
AcDbBlockEnd
  0
ENDSEC
  0
SECTION
  2
ENTITIES
  0
LINE
  5
58
330
2
100
AcDbEntity
  8
0
100
AcDbLine
 10
50.94611758936799
 20
17.5961335463827
 30
0.0
 11
50.98611675703125
 21
17.61594331053141
 31
0.0
  0
LINE
  5
59
330
2
100
AcDbEntity
  8
0
100
AcDbLine
 10
51.00274835711252
 20
18.00015523036643
 30
0.0
 11
49.79756644118651
 21
19.04387338573463
 31
0.0
  0
LINE
  5
5A
330
2
100
AcDbEntity
  8
0
100
AcDbLine
 10
28.50903329186406
 20
19.04387338573463
 30
0.0
 11
27.30385137593805
 21
18.00015523036643
 31
0.0
  0
LINE
  5
5B
330
2
100
AcDbEntity
  8
0
100
AcDbLine
 10
27.32048297601921
 20
17.61594331053141
 30
0.0
 11
27.36048214368259
 21
17.5961335463827
 31
0.0
  0
LINE
  5
5C
330
2
100
AcDbEntity
  8
0
100
AcDbLine
 10
36.60822251237312
 20
23.55946721470218
 30
0.0
 11
36.60822251237312
 21
19.54276012699267
 31
0.0
  0
SPLINE
  5
5D
330
2
100
AcDbEntity
  8
0
100
AcDbSpline
210
0.0
220
0.0
230
1.0
 70
     8
 71
     3
 72
    12
 73
     8
 74
     0
 42
0.000000001
 43
0.0000000001
 40
0.0
 40
0.0
 40
0.0
 40
0.0
 40
0.1814292812455417
 40
0.4157921650614981
 40
0.6513173281689703
 40
0.8893818971947931
 40
1.0
 40
1.0
 40
1.0
 40
1.0
 10
38.9036746352117
 20
24.76252204473337
 30
0.0
 10
38.86937610678615
 20
24.78438207506315
 30
0.0
 10
38.79910152870491
 20
24.83760712030983
 30
0.0
 10
38.6644448411106
 20
24.8835786035819
 30
0.0
 10
38.5078165561846
 20
24.90255811700456
 30
0.0
 10
38.37198491963955
 20
24.89030853031795
 30
0.0
 10
38.29092724745942
 20
24.86918305144377
 30
0.0
 10
38.2652120438122
 20
24.862481082626
 30
0.0
  0
LINE
  5
5E
330
2
100
AcDbEntity
  8
0
100
AcDbLine
 10
38.95159230301874
 20
24.72167538263761
 30
0.0
 11
38.92146275512061
 21
24.74776833650424
 31
0.0
  0
SPLINE
  5
5F
330
2
100
AcDbEntity
  8
0
100
AcDbSpline
210
0.0
220
0.0
230
1.0
 70
     8
 71
     3
 72
    16
 73
    12
 74
     0
 42
0.000000001
 43
0.0000000001
 40
0.0
 40
0.0
 40
0.0
 40
0.0
 40
0.0698495378242813
 40
0.1990379081207492
 40
0.3285182403160749
 40
0.4581529125746114
 40
0.587925197279928
 40
0.7178828956211265
 40
0.8480723407691126
 40
0.9707891010511591
 40
1.0
 40
1.0
 40
1.0
 40
1.0
 10
37.43023751951353
 20
24.62144469944087
 30
0.0
 10
37.39987447104238
 20
24.61168132179296
 30
0.0
 10
37.31335424714257
 20
24.5838603465404
 30
0.0
 10
37.17389013489913
 20
24.5125943381754
 30
0.0
 10
37.02038657561377
 20
24.40120454763644
 30
0.0
 10
36.88385115298604
 20
24.26463051934059
 30
0.0
 10
36.76972710741097
 20
24.108800340632
 30
0.0
 10
36.68251511413087
 20
23.93949781938852
 30
0.0
 10
36.62732279967225
 20
23.76677639233344
 30
0.0
 10
36.60935963761551
 20
23.6392471394563
 30
0.0
 10
36.6084058882949
 20
23.57233274340274
 30
0.0
 10
36.60822251237005
 20
23.55946721469491
 30
0.0
  0
LINE
  5
60
330
2
100
AcDbEntity
  8
0
100
AcDbLine
 10
38.26521204382402
 20
24.86248108263794
 30
0.0
 11
37.95209659720626
 21
24.77209243894345
 31
0.0
  0
LINE
  5
61
330
2
100
AcDbEntity
  8
0
100
AcDbLine
 10
37.95209659720626
 20
24.77209243894345
 30
0.0
 11
37.43023751951012
 21
24.62144469945281
 31
0.0
  0
LINE
  5
62
330
2
100
AcDbEntity
  8
0
100
AcDbLine
 10
41.73916747857219
 20
19.53494356339877
 30
0.0
 11
41.73916747857219
 21
24.15348301134191
 31
0.0
  0
LINE
  5
63
330
2
100
AcDbEntity
  8
0
100
AcDbLine
 10
35.83567028808829
 20
23.02333515075134
 30
0.0
 11
35.83567028808829
 21
19.30729929122037
 31
0.0
  0
SPLINE
  5
64
330
2
100
AcDbEntity
  8
0
100
AcDbSpline
210
0.0
220
0.0
230
1.0
 70
     8
 71
     3
 72
    12
 73
     8
 74
     0
 42
0.000000001
 43
0.0000000001
 40
0.0
 40
0.0
 40
0.0
 40
0.0
 40
0.1814292812455437
 40
0.4157921650615009
 40
0.6513173281689825
 40
0.8893818971948025
 40
1.0
 40
1.0
 40
1.0
 40
1.0
 10
40.21492422990013
 20
24.82761642924391
 30
0.0
 10
40.18426019324317
 20
24.85084096908565
 30
0.0
 10
40.11398561516182
 20
24.90406601433233
 30
0.0
 10
39.97932892756751
 20
24.9500374976044
 30
0.0
 10
39.82270064264151
 20
24.96901701102706
 30
0.0
 10
39.68686900609646
 20
24.95676742434034
 30
0.0
 10
39.60581133391645
 20
24.93564194546627
 30
0.0
 10
39.58009613026923
 20
24.92893997664851
 30
0.0
  0
LINE
  5
65
330
2
100
AcDbEntity
  8
0
100
AcDbLine
 10
40.28154116341943
 20
24.7750877997164
 30
0.0
 11
40.23634684157218
 21
24.81422723054061
 31
0.0
  0
LINE
  5
66
330
2
100
AcDbEntity
  8
0
100
AcDbLine
 10
41.52326458433413
 20
24.66386930545969
 30
0.0
 11
41.46436408940826
 21
24.7074674740079
 31
0.0
  0
SPLINE
  5
67
330
2
100
AcDbEntity
  8
0
100
AcDbSpline
210
0.0
220
0.0
230
1.0
 70
     8
 71
     3
 72
    11
 73
     7
 74
     0
 42
0.000000001
 43
0.0000000001
 40
0.0
 40
0.0
 40
0.0
 40
0.0
 40
0.1545073475750386
 40
0.4388240648005334
 40
0.7213350165583254
 40
1.0
 40
1.0
 40
1.0
 40
1.0
 10
41.73916747857754
 20
24.153483011346
 30
0.0
 10
41.73816240559154
 20
24.1841394845037
 30
0.0
 10
41.73530784740978
 20
24.27120847102549
 30
0.0
 10
41.70323176875661
 20
24.40584899305771
 30
0.0
 10
41.6355611251995
 20
24.54840430619583
 30
0.0
 10
41.56500759627329
 20
24.62161486754485
 30
0.0
 10
41.52326458433413
 20
24.66386930545969
 30
0.0
  0
LINE
  5
68
330
2
100
AcDbEntity
  8
0
100
AcDbLine
 10
39.58009613027559
 20
24.92893997665021
 30
0.0
 11
38.92922185609644
 21
24.74104875795888
 31
0.0
  0
LINE
  5
69
330
2
100
AcDbEntity
  8
0
100
AcDbLine
 10
36.78570466495603
 20
24.12226864429908
 30
0.0
 11
36.65768529522541
 21
24.08531263550197
 31
0.0
  0
SPLINE
  5
6A
330
2
100
AcDbEntity
  8
0
100
AcDbSpline
210
0.0
220
0.0
230
1.0
 70
     8
 71
     3
 72
    16
 73
    12
 74
     0
 42
0.000000001
 43
0.0000000001
 40
0.0
 40
0.0
 40
0.0
 40
0.0
 40
0.0698495378242814
 40
0.1990379081207496
 40
0.3285182403160749
 40
0.4581529125746114
 40
0.5879251972799282
 40
0.7178828956211268
 40
0.8480723407691128
 40
0.9707891010511616
 40
1.0
 40
1.0
 40
1.0
 40
1.0
 10
36.65768529522325
 20
24.08531263550026
 30
0.0
 10
36.6273222467521
 20
24.07554925785246
 30
0.0
 10
36.54080202285229
 20
24.04772828259991
 30
0.0
 10
36.40133791060896
 20
23.97646227423479
 30
0.0
 10
36.24783435132361
 20
23.86507248369594
 30
0.0
 10
36.11129892869588
 20
23.72849845540009
 30
0.0
 10
35.99717488312081
 20
23.57266827669139
 30
0.0
 10
35.90996288984082
 20
23.40336575544802
 30
0.0
 10
35.85477057538208
 20
23.23064432839283
 30
0.0
 10
35.83680741332535
 20
23.1031150755158
 30
0.0
 10
35.83585366400473
 20
23.03620067946224
 30
0.0
 10
35.83567028807988
 20
23.0233351507544
 30
0.0
  0
LINE
  5
6B
330
2
100
AcDbEntity
  8
0
100
AcDbLine
 10
42.683252178413
 20
23.6592905809157
 30
0.0
 11
42.63805785656574
 21
23.6984300117399
 31
0.0
  0
LINE
  5
6C
330
2
100
AcDbEntity
  8
0
100
AcDbLine
 10
42.62690753946333
 20
19.2478842051454
 30
0.0
 11
42.62690753946333
 21
23.50519575824705
 31
0.0
  0
SPLINE
  5
6D
330
2
100
AcDbEntity
  8
0
100
AcDbSpline
210
0.0
220
0.0
230
1.0
 70
     8
 71
     3
 72
    10
 73
     6
 74
     0
 42
0.000000001
 43
0.0000000001
 40
0.0
 40
0.0
 40
0.0
 40
0.0
 40
0.3436729590918618
 40
0.7876155533047879
 40
1.0
 40
1.0
 40
1.0
 40
1.0
 10
41.9412733068682
 20
24.42173006883593
 30
0.0
 10
41.90690959006611
 20
24.44335949376625
 30
0.0
 10
41.83648561597055
 20
24.49605604701856
 30
0.0
 10
41.72845668844035
 20
24.53725966355546
 30
0.0
 10
41.65132000877235
 20
24.54416638297653
 30
0.0
 10
41.62635892990465
 20
24.54640136598243
 30
0.0
  0
LINE
  5
6E
330
2
100
AcDbEntity
  8
0
100
AcDbLine
 10
42.00425574860026
 20
24.3678369298068
 30
0.0
 11
41.95906142675312
 21
24.40697636063101
 31
0.0
  0
LINE
  5
6F
330
2
100
AcDbEntity
  8
0
100
AcDbLine
 10
42.41771265880152
 20
24.00968202415743
 30
0.0
 11
42.0042557489013
 21
24.36783692952201
 31
0.0
  0
SPLINE
  5
70
330
2
100
AcDbEntity
  8
0
100
AcDbSpline
210
0.0
220
0.0
230
1.0
 70
     8
 71
     3
 72
    11
 73
     7
 74
     0
 42
0.000000001
 43
0.0000000001
 40
0.0
 40
0.0
 40
0.0
 40
0.0
 40
0.1545073475750343
 40
0.4388240648005354
 40
0.7213350165583242
 40
1.0
 40
1.0
 40
1.0
 40
1.0
 10
42.62690753946685
 20
23.50519575825126
 30
0.0
 10
42.62590246648073
 20
23.53585223140908
 30
0.0
 10
42.62304790829898
 20
23.62292121793087
 30
0.0
 10
42.5909718296458
 20
23.75756173996308
 30
0.0
 10
42.5233011860887
 20
23.90011705310121
 30
0.0
 10
42.4527476571626
 20
23.97332761445023
 30
0.0
 10
42.41771265880152
 20
24.00968202415743
 30
0.0
  0
LINE
  5
71
330
2
100
AcDbEntity
  8
0
100
AcDbLine
 10
32.41289643388393
 20
12.58889073650482
 30
0.0
 11
32.4255330529129
 21
12.46396411371813
 31
0.0
  0
LINE
  5
72
330
2
100
AcDbEntity
  8
0
100
AcDbLine
 10
45.88106668016166
 20
12.46396411371813
 30
0.0
 11
45.89370329919063
 21
12.58889073650482
 31
0.0
  0
SPLINE
  5
73
330
2
100
AcDbEntity
  8
0
100
AcDbSpline
210
0.0
220
0.0
230
1.0
 70
     8
 71
     3
 72
     9
 73
     5
 74
     0
 42
0.000000001
 43
0.0000000001
 40
0.0
 40
0.0
 40
0.0
 40
0.0
 40
0.2498542969126537
 40
1.0
 40
1.0
 40
1.0
 40
1.0
 10
43.39059463409057
 20
17.03530433658852
 30
0.0
 10
43.37390108774229
 20
17.19730393889892
 30
0.0
 10
43.30708796283511
 20
17.84568022985002
 30
0.0
 10
43.23737570966113
 20
18.49309266671844
 30
0.0
 10
43.18508136249022
 20
18.9787463243606
 30
0.0
  0
SPLINE
  5
74
330
2
100
AcDbEntity
  8
0
100
AcDbSpline
210
0.0
220
0.0
230
1.0
 70
     8
 71
     3
 72
     9
 73
     5
 74
     0
 42
0.000000001
 43
0.0000000001
 40
0.0
 40
0.0
 40
0.0
 40
0.0
 40
0.2406360407857041
 40
1.0
 40
1.0
 40
1.0
 40
1.0
 10
35.12148358537536
 20
18.97877650217322
 30
0.0
 10
35.10459081367788
 20
18.82302446227425
 30
0.0
 10
35.03439030820721
 20
18.17577295584795
 30
0.0
 10
34.9671125865533
 20
17.52754481755516
 30
0.0
 10
34.91602430947137
 20
17.03530373198702
 30
0.0
  0
LINE
  5
75
330
2
100
AcDbEntity
  8
0
100
AcDbLine
 10
43.39222383497406
 20
16.93469384396474
 30
0.0
 11
43.39059463409057
 21
17.03530433658852
 31
0.0
  0
LINE
  5
76
330
2
100
AcDbEntity
  8
0
100
AcDbLine
 10
34.91602430947137
 20
17.03530373198702
 30
0.0
 11
34.91436487581814
 21
16.93468755936203
 31
0.0
  0
LINE
  5
77
330
2
100
AcDbEntity
  8
0
100
AcDbLine
 10
33.54940496762777
 20
17.07275670052081
 30
0.0
 11
33.53052852482108
 21
15.95844351845903
 31
0.0
  0
LINE
  5
78
330
2
100
AcDbEntity
  8
0
100
AcDbLine
 10
44.77607120825348
 20
15.95844351845903
 30
0.0
 11
44.75719476544691
 21
17.07275670052081
 31
0.0
  0
LINE
  5
79
330
2
100
AcDbEntity
  8
0
100
AcDbLine
 10
34.05411467262581
 20
16.02292864567391
 30
0.0
 11
33.89078480402668
 21
16.07007791747571
 31
0.0
  0
LINE
  5
7A
330
2
100
AcDbEntity
  8
0
100
AcDbLine
 10
44.41576434286275
 20
16.07006331450338
 30
0.0
 11
44.25248506042476
 21
16.02292864567391
 31
0.0
  0
LINE
  5
7B
330
2
100
AcDbEntity
  8
0
100
AcDbLine
 10
34.18907865540973
 20
17.69631736274243
 30
0.0
 11
33.77622279127263
 21
17.81549858488472
 31
0.0
  0
LINE
  5
7C
330
2
100
AcDbEntity
  8
0
100
AcDbLine
 10
44.53037694180193
 20
17.81549858488472
 30
0.0
 11
44.11752107764073
 21
17.69631736274243
 31
0.0
  0
LINE
  5
7D
330
2
100
AcDbEntity
  8
0
100
AcDbLine
 10
37.94811795061128
 20
9.133445052466754
 30
0.0
 11
37.94811795061128
 21
8.866497975268771
 31
0.0
  0
LWPOLYLINE
  5
7E
330
2
100
AcDbEntity
  8
0
100
AcDbPolyline
 90
        8
 70
   128
 43
0.0
 10
38.16303154606806
 20
9.305158605980182
 10
38.13159597231288
 20
9.292554304505642
 10
38.07603564702549
 20
9.267090746457597
 10
38.03024910652209
 20
9.241054897026629
 10
37.99443241575011
 20
9.214558245735588
 10
37.96873894731743
 20
9.187714255303944
 10
37.95327872459484
 20
9.160637875814018
 10
37.94811795061128
 20
9.133445052466754
  0
LWPOLYLINE
  5
7F
330
2
100
AcDbEntity
  8
0
100
AcDbPolyline
 90
        8
 70
   128
 43
0.0
 10
40.3584817824634
 20
9.133445052466754
 10
40.35332100847983
 20
9.160637875814018
 10
40.33786078573314
 20
9.187714255303944
 10
40.31216731730035
 20
9.214558245735588
 10
40.27635062655247
 20
9.241054897026629
 10
40.23056408602497
 20
9.267090746457597
 10
40.1750037607618
 20
9.292554304505642
 10
40.14463360159334
 20
9.304731420934672
  0
LINE
  5
80
330
2
100
AcDbEntity
  8
0
100
AcDbLine
 10
40.3584817824634
 20
9.133445052466754
 30
0.0
 11
40.3584817824634
 21
8.866497975268771
 31
0.0
  0
ARC
  5
81
330
2
100
AcDbEntity
  8
0
100
AcDbCircle
 10
39.77339991230406
 20
8.690400462383877
 30
0.0
 40
0.5853782364955459
100
AcDbArc
 50
268.2859860206984
 51
358.1767252639003
  0
LINE
  5
82
330
2
100
AcDbEntity
  8
0
100
AcDbLine
 10
39.7558908245004
 20
8.105284139231116
 30
0.0
 11
38.55070890857428
 21
8.105284139231116
 31
0.0
  0
ARC
  5
83
330
2
100
AcDbEntity
  8
0
100
AcDbCircle
 10
38.53319982074641
 20
8.690400462383877
 30
0.0
 40
0.5853782364955627
100
AcDbArc
 50
181.8232747360997
 51
271.7140139792983
  0
LINE
  5
84
330
2
100
AcDbEntity
  8
0
100
AcDbLine
 10
37.94811795061128
 20
8.706699406055577
 30
0.0
 11
37.94811795061128
 21
8.671775613691465
 31
0.0
  0
LINE
  5
85
330
2
100
AcDbEntity
  8
0
100
AcDbLine
 10
40.3584817824634
 20
8.706699406055577
 30
0.0
 11
40.3584817824634
 21
8.671775613691465
 31
0.0
  0
LINE
  5
86
330
2
100
AcDbEntity
  8
0
100
AcDbLine
 10
37.94811795061128
 20
8.866497975268771
 30
0.0
 11
37.94811795061128
 21
8.706699406055577
 31
0.0
  0
LINE
  5
87
330
2
100
AcDbEntity
  8
0
100
AcDbLine
 10
40.3584817824634
 20
8.866497975268771
 30
0.0
 11
40.3584817824634
 21
8.706699406055577
 31
0.0
  0
LINE
  5
88
330
2
100
AcDbEntity
  8
0
100
AcDbLine
 10
29.92206762229216
 20
18.1716448395781
 30
0.0
 11
28.66319201110866
 21
18.99491602187845
 31
0.0
  0
LINE
  5
89
330
2
100
AcDbEntity
  8
0
100
AcDbLine
 10
30.94257581545526
 20
17.1836814711479
 30
0.0
 11
31.70172176507208
 21
16.68722020212067
 31
0.0
  0
LINE
  5
8A
330
2
100
AcDbEntity
  8
0
100
AcDbLine
 10
30.91835351972008
 20
16.00880340112769
 30
0.0
 11
30.17881467351072
 21
16.49244214578471
 31
0.0
  0
ARC
  5
8B
330
2
100
AcDbEntity
  8
0
100
AcDbCircle
 10
29.65480633363245
 20
15.68664470549595
 30
0.0
 40
0.9611941817613075
100
AcDbArc
 50
56.96413735990269
 51
75.62988647089786
  0
LINE
  5
8C
330
2
100
AcDbEntity
  8
0
100
AcDbLine
 10
29.89335994985026
 20
16.61776576489512
 30
0.0
 11
29.85870460107992
 21
16.62663220781678
 31
0.0
  0
ARC
  5
8D
330
2
100
AcDbEntity
  8
0
100
AcDbCircle
 10
30.81291906590332
 20
20.35111644538938
 30
0.0
 40
3.844776727047728
100
AcDbArc
 50
236.9641373599995
 51
255.6298864708974
  0
LINE
  5
8E
330
2
100
AcDbEntity
  8
0
100
AcDbLine
 10
28.71688570636604
 20
17.1279266842098
 30
0.0
 11
27.69054256776099
 21
17.79912781135851
 31
0.0
  0
ARC
  5
8F
330
2
100
AcDbEntity
  8
0
100
AcDbCircle
 10
27.07591510799455
 20
19.20477295980595
 30
0.0
 40
1.469931735088466
100
AcDbArc
 50
315.6185138917995
 51
349.0309109471986
  0
LWPOLYLINE
  5
90
330
2
100
AcDbEntity
  8
0
100
AcDbPolyline
 90
        9
 70
   128
 43
0.0
 10
28.66319201110866
 20
18.99491602187845
 10
28.64112435018603
 20
19.0067137534744
 10
28.61840508813669
 20
19.01379462029751
 10
28.59611129943744
 20
19.01582293273645
 10
28.57529988765236
 20
19.0127025325803
 10
28.55695747994639
 20
19.00458135173915
 10
28.54195365289047
 20
18.9918443989776
 10
28.53099970774372
 20
18.97509550765164
 10
28.52461494890929
 20
18.95512870890195
  0
LINE
  5
91
330
2
100
AcDbEntity
  8
0
100
AcDbLine
 10
28.52461494890929
 20
18.95512870890195
 30
0.0
 11
28.51899116326843
 21
18.9250752577808
 31
0.0
  0
LINE
  5
92
330
2
100
AcDbEntity
  8
0
100
AcDbLine
 10
27.52388248459534
 20
17.65479594554074
 30
0.0
 11
28.12647344255822
 21
18.1766550232129
 31
0.0
  0
ARC
  5
93
330
2
100
AcDbEntity
  8
0
100
AcDbCircle
 10
31.8543837776208
 20
13.44564762348545
 30
0.0
 40
2.972681227187962
100
AcDbArc
 50
34.1041895558999
 51
68.35791659619856
  0
LINE
  5
94
330
2
100
AcDbEntity
  8
0
100
AcDbLine
 10
31.75490922356948
 20
16.66000950250293
 30
0.0
 11
32.95073051852649
 21
16.20877221391458
 31
0.0
  0
ARC
  5
95
330
2
100
AcDbEntity
  8
0
100
AcDbCircle
 10
31.85265282453668
 20
16.91665110934275
 30
0.0
 40
0.2746247000797487
100
AcDbArc
 50
236.6610925817996
 51
249.1503439898009
  0
LWPOLYLINE
  5
96
330
2
100
AcDbEntity
  8
0
100
AcDbPolyline
 90
        5
 70
   128
 43
0.0
 10
27.52388248459534
 20
17.65479594554074
 10
27.46685546236483
 20
17.61325811479798
 10
27.41552557620798
 20
17.59205055366703
 10
27.37186540487767
 20
17.59198825677742
 10
27.36048214368259
 20
17.5961335463827
  0
LINE
  5
97
330
2
100
AcDbEntity
  8
0
100
AcDbLine
 10
32.16736227317449
 20
15.5303554129216
 30
0.0
 11
30.97154097821749
 21
15.98159270150995
 31
0.0
  0
ARC
  5
98
330
2
100
AcDbEntity
  8
0
100
AcDbCircle
 10
31.06928457918468
 20
16.23823430834966
 30
0.0
 40
0.274624700079922
100
AcDbArc
 50
236.6610925817996
 51
249.1503439898009
  0
ARC
  5
99
330
2
100
AcDbEntity
  8
0
100
AcDbCircle
 10
31.09855728728417
 20
12.80614699370426
 30
0.0
 40
2.926372431714562
100
AcDbArc
 50
36.7693802730011
 51
68.57813619359873
  0
LWPOLYLINE
  5
9A
330
2
100
AcDbEntity
  8
0
100
AcDbPolyline
 90
       17
 70
   128
 43
0.0
 10
49.3292361480419
 20
18.1940967611124
 10
49.40554281486004
 20
18.15637076175801
 10
49.50754502890504
 20
18.14878961666636
 10
49.61971387779783
 20
18.17250748642527
 10
49.72497267107167
 20
18.22391354039257
 10
49.80729671164795
 20
18.29518167285243
 10
49.85415291058962
 20
18.37546195665573
 10
49.85840783636513
 20
18.45253244634398
 10
49.81941371511993
 20
18.51465985853292
 10
49.74310704832589
 20
18.55238585788731
 10
49.64110483425691
 20
18.55996700297896
 10
49.52893598536411
 20
18.53624913319595
 10
49.42367719209016
 20
18.48484307922854
 10
49.34135315153799
 20
18.41357494679289
 10
49.29449695259632
 20
18.3332946629896
 10
49.2902420267967
 20
18.25622417330135
 10
49.3292361480419
 20
18.1940967611124
  0
LINE
  5
9B
330
2
100
AcDbEntity
  8
0
100
AcDbLine
 10
49.58971402670852
 20
17.1279266842098
 30
0.0
 11
50.61605716531381
 21
17.79912781135851
 31
0.0
  0
LINE
  5
9C
330
2
100
AcDbEntity
  8
0
100
AcDbLine
 10
48.1473921622395
 20
16.50526466969438
 30
0.0
 11
47.38824621333037
 21
16.00880340112769
 31
0.0
  0
LINE
  5
9D
330
2
100
AcDbEntity
  8
0
100
AcDbLine
 10
46.60487796797849
 20
16.68722020212067
 30
0.0
 11
47.34441681418786
 21
17.17085894677768
 31
0.0
  0
ARC
  5
9E
330
2
100
AcDbEntity
  8
0
100
AcDbCircle
 10
46.9597779133685
 20
17.77913406989921
 30
0.0
 40
0.719684451286593
100
AcDbArc
 50
302.3069534488992
 51
324.9765156397007
  0
LINE
  5
9F
330
2
100
AcDbEntity
  8
0
100
AcDbLine
 10
47.54913965760545
 20
17.3660984250879
 30
0.0
 11
47.56564073718425
 21
17.39068692631349
 31
0.0
  0
ARC
  5
A0
330
2
100
AcDbEntity
  8
0
100
AcDbCircle
 10
49.92308771405987
 20
15.73854434711609
 30
0.0
 40
2.878737805146262
100
AcDbArc
 50
122.3069534489021
 51
144.9765156396011
  0
LINE
  5
A1
330
2
100
AcDbEntity
  8
0
100
AcDbLine
 10
48.38453211078252
 20
18.1716448395781
 30
0.0
 11
49.64340772196601
 21
18.99491602187845
 31
0.0
  0
ARC
  5
A2
330
2
100
AcDbEntity
  8
0
100
AcDbCircle
 10
51.23068462508001
 20
19.20477295980595
 30
0.0
 40
1.469931735088127
100
AcDbArc
 50
190.9690890527981
 51
224.3814861082005
  0
LWPOLYLINE
  5
A3
330
2
100
AcDbEntity
  8
0
100
AcDbPolyline
 90
        9
 70
   128
 43
0.0
 10
49.64340772196601
 20
18.99491602187845
 10
49.66547538288853
 20
19.0067137534744
 10
49.68819464491378
 20
19.01379462029751
 10
49.71048843363712
 20
19.01582293273645
 10
49.73129984539821
 20
19.0127025325803
 10
49.74964225310419
 20
19.00458135173915
 10
49.7646460801601
 20
18.9918443989776
 10
49.77560002533095
 20
18.97509550765164
 10
49.78198478414118
 20
18.95512870890195
  0
LINE
  5
A4
330
2
100
AcDbEntity
  8
0
100
AcDbLine
 10
49.78198478414118
 20
18.95512870890195
 30
0.0
 11
49.78760856980625
 21
18.9250752577808
 31
0.0
  0
LINE
  5
A5
330
2
100
AcDbEntity
  8
0
100
AcDbLine
 10
50.18012629051634
 20
18.1766550232129
 30
0.0
 11
50.78271724847946
 21
17.65479594554074
 31
0.0
  0
ARC
  5
A6
330
2
100
AcDbEntity
  8
0
100
AcDbCircle
 10
46.453946908538
 20
16.91665110934275
 30
0.0
 40
0.2746247000812766
100
AcDbArc
 50
290.8496560101991
 51
303.3389074182005
  0
LINE
  5
A7
330
2
100
AcDbEntity
  8
0
100
AcDbLine
 10
45.3558692145483
 20
16.20877221391458
 30
0.0
 11
46.55169050950519
 21
16.66000950250293
 31
0.0
  0
ARC
  5
A8
330
2
100
AcDbEntity
  8
0
100
AcDbCircle
 10
46.45221595542977
 20
13.44564762348545
 30
0.0
 40
2.972681227188015
100
AcDbArc
 50
111.6420834038014
 51
145.8958104441001
  0
LWPOLYLINE
  5
A9
330
2
100
AcDbEntity
  8
0
100
AcDbPolyline
 90
        5
 70
   128
 43
0.0
 10
50.94611758936799
 20
17.5961335463827
 10
50.9347343281728
 20
17.59198825677742
 10
50.89107415684248
 20
17.59205055366703
 10
50.83974427070973
 20
17.61325811479798
 10
50.78271724847946
 20
17.65479594554074
  0
LINE
  5
AA
330
2
100
AcDbEntity
  8
0
100
AcDbLine
 10
47.33505875485707
 20
15.98159270150995
 30
0.0
 11
46.13923745990018
 21
15.5303554129216
 31
0.0
  0
ARC
  5
AB
330
2
100
AcDbEntity
  8
0
100
AcDbCircle
 10
47.23731515388999
 20
16.23823430834966
 30
0.0
 40
0.2746247000799511
100
AcDbArc
 50
290.8496560101991
 51
303.3389074182005
  0
ARC
  5
AC
330
2
100
AcDbEntity
  8
0
100
AcDbCircle
 10
47.22931957344417
 20
12.77824329250234
 30
0.0
 40
2.960135155292269
100
AcDbArc
 50
111.6079876271994
 51
143.0444959061995
  0
LWPOLYLINE
  5
AD
330
2
100
AcDbEntity
  8
0
100
AcDbPolyline
 90
       17
 70
   128
 43
0.0
 10
49.182443840794
 20
17.45694221371116
 10
49.25875050761203
 20
17.41921621438075
 10
49.36075272168114
 20
17.411635069265
 10
49.47292157054983
 20
17.43535293904813
 10
49.57818036384776
 20
17.48675899301543
 10
49.66050440439994
 20
17.55802712545107
 10
49.70736060334161
 20
17.63830740925448
 10
49.71161552914134
 20
17.71537789896683
 10
49.67262140789614
 20
17.77750531113156
 10
49.596314741078
 20
17.81523131048607
 10
49.49431252700879
 20
17.82281245557772
 10
49.38214367814021
 20
17.79909458581869
 10
49.27688488486637
 20
17.74768853185139
 10
49.19456084429009
 20
17.67642039941575
 10
49.14770464534843
 20
17.59614011561246
 10
49.14344971954881
 20
17.5190696259001
 10
49.182443840794
 20
17.45694221371116
  0
LWPOLYLINE
  5
AE
330
2
100
AcDbEntity
  8
0
100
AcDbPolyline
 90
       17
 70
   128
 43
0.0
 10
48.17241708973586
 20
17.43756785120115
 10
48.2487237565299
 20
17.39984185184664
 10
48.350725970599
 20
17.39226070675511
 10
48.46289481949168
 20
17.41597857651402
 10
48.56815361276563
 20
17.46738463048132
 10
48.6504776533178
 20
17.53865276294107
 10
48.69733385228347
 20
17.61893304674447
 10
48.70158877805898
 20
17.69600353643261
 10
48.66259465681389
 20
17.75813094862155
 10
48.58628799001997
 20
17.79585694797606
 10
48.48428577595075
 20
17.80343809306771
 10
48.37211692705807
 20
17.7797202232847
 10
48.26685813378412
 20
17.72831416934138
 10
48.18453409323194
 20
17.65704603688164
 10
48.13767789426617
 20
17.57676575307823
 10
48.13342296849066
 20
17.49969526339009
 10
48.17241708973586
 20
17.43756785120115
  0
LINE
  5
AF
330
2
100
AcDbEntity
  8
0
100
AcDbLine
 10
49.60932112939452
 20
17.14074920811731
 30
0.0
 11
50.61605716531381
 21
17.79912781135851
 31
0.0
  0
ARC
  5
B0
330
2
100
AcDbEntity
  8
0
100
AcDbCircle
 10
47.51328776983325
 20
20.36393896927268
 30
0.0
 40
3.844776727047566
100
AcDbArc
 50
284.3701135291021
 51
303.0358626400973
  0
LINE
  5
B1
330
2
100
AcDbEntity
  8
0
100
AcDbLine
 10
48.46750223468063
 20
16.63945473170008
 30
0.0
 11
48.4328468859104
 21
16.63058828877842
 31
0.0
  0
ARC
  5
B2
330
2
100
AcDbEntity
  8
0
100
AcDbCircle
 10
48.67140050212822
 20
15.69946722940335
 30
0.0
 40
0.9611941817617568
100
AcDbArc
 50
104.3701135291021
 51
123.0358626400005
  0
ARC
  5
B3
330
2
100
AcDbEntity
  8
0
100
AcDbCircle
 10
51.28206705393847
 20
19.22872801353594
 30
0.0
 40
1.469931735088476
100
AcDbArc
 50
190.9690890527981
 51
224.3814861082005
  0
LINE
  5
B4
330
2
100
AcDbEntity
  8
0
100
AcDbLine
 10
49.83336721299974
 20
18.97908376263183
 30
0.0
 11
49.83899099866471
 21
18.94903031151079
 31
0.0
  0
LINE
  5
B5
330
2
100
AcDbEntity
  8
0
100
AcDbLine
 10
51.03854912892575
 20
17.93536560726363
 30
0.0
 11
51.04417291459071
 21
17.9053121561426
 31
0.0
  0
LWPOLYLINE
  5
B6
330
2
100
AcDbEntity
  8
0
100
AcDbPolyline
 90
        9
 70
   128
 43
0.0
 10
50.83409967733792
 20
17.67875099927073
 10
50.89112669956818
 20
17.63721316855196
 10
50.94245658570094
 20
17.61600560739703
 10
50.98611675703125
 20
17.61594331053141
 10
51.0204293776627
 20
17.63702867195275
 10
51.04407583280056
 20
17.6784513930711
 10
51.05614740245698
 20
17.7386196219353
 10
51.05618018294705
 20
17.81522112725326
 10
51.04417291459071
 20
17.9053121561426
  0
LINE
  5
B7
330
2
100
AcDbEntity
  8
0
100
AcDbLine
 10
50.23150871937492
 20
18.20061007696688
 30
0.0
 11
50.83409967733792
 21
17.67875099927073
 31
0.0
  0
LWPOLYLINE
  5
B8
330
2
100
AcDbEntity
  8
0
100
AcDbPolyline
 90
        9
 70
   128
 43
0.0
 10
49.62550161973695
 20
19.03876473213279
 10
49.65860311112078
 20
19.05646132949062
 10
49.6926820041707
 20
19.06708262972529
 10
49.72612268723162
 20
19.07012509840786
 10
49.75733980488519
 20
19.06544449816147
 10
49.7848534164683
 20
19.05326272688762
 10
49.8073591570402
 20
19.03415729778146
 10
49.82379007478437
 20
19.00903396075648
 10
49.83336721299974
 20
18.97908376263183
  0
LINE
  5
B9
330
2
100
AcDbEntity
  8
0
100
AcDbLine
 10
48.38623311123945
 20
18.22831607371574
 30
0.0
 11
49.62550161973695
 21
19.03876473213279
 31
0.0
  0
ARC
  5
BA
330
2
100
AcDbEntity
  8
0
100
AcDbCircle
 10
50.92959846047881
 20
17.91744880665885
 30
0.0
 40
0.1104140385055748
100
AcDbArc
 50
9.338634848301014
 51
48.50877017649956
  0
ARC
  5
BB
330
2
100
AcDbEntity
  8
0
100
AcDbCircle
 10
49.92478871451692
 20
15.79521558125384
 30
0.0
 40
2.878737805147444
100
AcDbArc
 50
122.3069534489021
 51
144.9765156396011
  0
ARC
  5
BC
330
2
100
AcDbEntity
  8
0
100
AcDbCircle
 10
46.47579543713812
 20
13.42531305438695
 30
0.0
 40
3.0490592943847
100
AcDbArc
 50
111.6424862234975
 51
145.9342958116989
  0
LINE
  5
BD
330
2
100
AcDbEntity
  8
0
100
AcDbLine
 10
45.35125997693149
 20
16.25942359904331
 30
0.0
 11
46.54708127188849
 21
16.71066088763154
 31
0.0
  0
ARC
  5
BE
330
2
100
AcDbEntity
  8
0
100
AcDbCircle
 10
46.47377357116909
 20
16.90314209277346
 30
0.0
 40
0.2059685250603223
100
AcDbArc
 50
290.8496560101991
 51
303.3389074182005
  0
LINE
  5
BF
330
2
100
AcDbEntity
  8
0
100
AcDbLine
 10
46.58697186577342
 20
16.73106891237501
 30
0.0
 11
47.34611781464491
 21
17.22753018091544
 31
0.0
  0
ARC
  5
C0
330
2
100
AcDbEntity
  8
0
100
AcDbCircle
 10
46.96147891382554
 20
17.83580530403696
 30
0.0
 40
0.7196844512867502
100
AcDbArc
 50
302.3069534488992
 51
324.9765156396011
  0
LINE
  5
C1
330
2
100
AcDbEntity
  8
0
100
AcDbLine
 10
47.5508406580625
 20
17.42276965922554
 30
0.0
 11
47.56734173761708
 21
17.44735816045124
 31
0.0
  0
LWPOLYLINE
  5
C2
330
2
100
AcDbEntity
  8
0
100
AcDbPolyline
 90
       17
 70
   128
 43
0.0
 10
29.54596956283069
 20
17.82224356811059
 10
29.58496368407578
 20
17.88437098027532
 10
29.58070875830026
 20
17.96144146998767
 10
29.53385255933449
 20
18.04172175379096
 10
29.45152851878243
 20
18.11298988622673
 10
29.34626972550859
 20
18.16439594019403
 10
29.2341008766158
 20
18.18811380997704
 10
29.1320986625467
 20
18.1805326648614
 10
29.05579199575266
 20
18.142806665531
 10
29.01679787450746
 20
18.08067925334205
 10
29.02105280028298
 20
18.0036087636297
 10
29.06790899922464
 20
17.92332847982629
 10
29.15023303980092
 20
17.85206034739065
 10
29.25549183307487
 20
17.80065429342335
 10
29.36766068196755
 20
17.77693642366443
 10
29.46966289603677
 20
17.78451756875597
 10
29.54596956283069
 20
17.82224356811059
  0
LWPOLYLINE
  5
C3
330
2
100
AcDbEntity
  8
0
100
AcDbPolyline
 90
        8
 70
   128
 43
0.0
 10
28.53594281174844
 20
17.84161793062049
 10
28.57493693301774
 20
17.90374534280943
 10
28.57068200721812
 20
17.98081583249768
 10
28.52382580827646
 20
18.06109611630097
 10
28.44150176770018
 20
18.13236424876072
 10
28.33624297442634
 20
18.18377030272813
 10
28.22407412555765
 20
18.20748817248705
 10
28.15834783820344
 20
18.20648036639522
  0
LWPOLYLINE
  5
C4
330
2
100
AcDbEntity
  8
0
100
AcDbPolyline
 90
        8
 70
   128
 43
0.0
 10
28.00316825216601
 20
18.06986959592473
 10
28.01102604922494
 20
18.02298312616381
 10
28.0578822481665
 20
17.9427028423604
 10
28.14020628871868
 20
17.87143470992475
 10
28.24546508199262
 20
17.82002865595746
 10
28.3576339308853
 20
17.79631078617444
 10
28.45963614495452
 20
17.80389193126598
 10
28.53594281174844
 20
17.84161793062049
  0
LWPOLYLINE
  5
C5
330
2
100
AcDbEntity
  8
0
100
AcDbPolyline
 90
       17
 70
   128
 43
0.0
 10
29.71236897276458
 20
17.07226649682593
 10
29.75136309400978
 20
17.13439390899077
 10
29.74710816821016
 20
17.21146439870301
 10
29.70025196926849
 20
17.2917446825063
 10
29.61792792869232
 20
17.36301281494206
 10
29.51266913541838
 20
17.41441886890936
 10
29.4005002865498
 20
17.43813673869249
 10
29.29849807248059
 20
17.43055559357674
 10
29.22219140566256
 20
17.39282959424634
 10
29.18319728441725
 20
17.33070218205739
 10
29.18745221021698
 20
17.25363169234504
 10
29.23430840915865
 20
17.17335140854175
 10
29.31663244971082
 20
17.10208327610598
 10
29.42189124300876
 20
17.0506772221388
 10
29.53406009187745
 20
17.02695935237978
 10
29.63606230594655
 20
17.03454049747142
 10
29.71236897276458
 20
17.07226649682593
  0
LINE
  5
C6
330
2
100
AcDbEntity
  8
0
100
AcDbLine
 10
29.90246051960617
 20
18.18446736348551
 30
0.0
 11
28.66319201110866
 21
18.99491602187845
 31
0.0
  0
ARC
  5
C7
330
2
100
AcDbEntity
  8
0
100
AcDbCircle
 10
28.36390491632869
 20
15.75136687102349
 30
0.0
 40
2.878737805146782
100
AcDbArc
 50
35.0234843603989
 51
57.69304655109792
  0
LINE
  5
C8
330
2
100
AcDbEntity
  8
0
100
AcDbLine
 10
30.72135189320443
 20
17.40350945022089
 30
0.0
 11
30.73785297278312
 21
17.3789209489953
 31
0.0
  0
ARC
  5
C9
330
2
100
AcDbEntity
  8
0
100
AcDbCircle
 10
31.32721471699597
 20
17.79195659380673
 30
0.0
 40
0.7196844512868682
100
AcDbArc
 50
215.0234843603989
 51
237.6930465510979
  0
ARC
  5
CA
330
2
100
AcDbEntity
  8
0
100
AcDbCircle
 10
27.02453267913597
 20
19.22872801353594
 30
0.0
 40
1.469931735088379
100
AcDbArc
 50
315.6185138917995
 51
349.0309109471986
  0
LWPOLYLINE
  5
CB
330
2
100
AcDbEntity
  8
0
100
AcDbPolyline
 90
        9
 70
   128
 43
0.0
 10
27.26242681848385
 20
17.9053121561426
 10
27.2504195501034
 20
17.81522112725326
 10
27.25045233061769
 20
17.7386196219353
 10
27.26252390024991
 20
17.6784513930711
 10
27.28617035541186
 20
17.63702867195275
 10
27.32048297601921
 20
17.61594331053141
 10
27.36414314734953
 20
17.61600560739703
 10
27.41547303350638
 20
17.63721316855196
 10
27.47250005571266
 20
17.67875099927073
  0
LINE
  5
CC
330
2
100
AcDbEntity
  8
0
100
AcDbLine
 10
27.26805060412483
 20
17.93536560726363
 30
0.0
 11
27.26242681848385
 21
17.9053121561426
 31
0.0
  0
LINE
  5
CD
330
2
100
AcDbEntity
  8
0
100
AcDbLine
 10
28.47323252005083
 20
18.97908376263183
 30
0.0
 11
28.46760873440997
 21
18.94903031151079
 31
0.0
  0
LINE
  5
CE
330
2
100
AcDbEntity
  8
0
100
AcDbLine
 10
27.47250005571266
 20
17.67875099927073
 30
0.0
 11
28.07509101367566
 21
18.20061007696688
 31
0.0
  0
LWPOLYLINE
  5
CF
330
2
100
AcDbEntity
  8
0
100
AcDbPolyline
 90
        9
 70
   128
 43
0.0
 10
28.68109811331351
 20
19.03876473213279
 10
28.64799662195378
 20
19.05646132949062
 10
28.61391772887976
 20
19.06708262972529
 10
28.58047704581895
 20
19.07012509840786
 10
28.54925992816538
 20
19.06544449816147
 10
28.52174631660637
 20
19.05326272688762
 10
28.49924057603448
 20
19.03415729778146
 10
28.48280965826621
 20
19.00903396075648
 10
28.47323252005083
 20
18.97908376263183
  0
LINE
  5
D0
330
2
100
AcDbEntity
  8
0
100
AcDbLine
 10
29.92036662183523
 20
18.22831607371574
 30
0.0
 11
28.68109811331351
 21
19.03876473213279
 31
0.0
  0
ARC
  5
D1
330
2
100
AcDbEntity
  8
0
100
AcDbCircle
 10
27.37700127257188
 20
17.91744880665885
 30
0.0
 40
0.1104140385058408
100
AcDbArc
 50
131.4912298235004
 51
170.6613651515999
  0
ARC
  5
D2
330
2
100
AcDbEntity
  8
0
100
AcDbCircle
 10
28.38181101855776
 20
15.79521558125384
 30
0.0
 40
2.878737805146681
100
AcDbArc
 50
35.0234843603989
 51
57.69304655109792
  0
ARC
  5
D3
330
2
100
AcDbEntity
  8
0
100
AcDbCircle
 10
31.83282616188149
 20
16.90314209277346
 30
0.0
 40
0.2059685250598621
100
AcDbArc
 50
236.6610925817996
 51
249.1503439898009
  0
LINE
  5
D4
330
2
100
AcDbEntity
  8
0
100
AcDbLine
 10
31.75951846116209
 20
16.71066088763154
 30
0.0
 11
32.95533975611909
 21
16.25942359904331
 31
0.0
  0
ARC
  5
D5
330
2
100
AcDbEntity
  8
0
100
AcDbCircle
 10
31.83080429593645
 20
13.42531305438695
 30
0.0
 40
3.049059294384669
100
AcDbArc
 50
34.06570418830109
 51
68.35751377650244
  0
LINE
  5
D6
330
2
100
AcDbEntity
  8
0
100
AcDbLine
 10
30.96048191840566
 20
17.22753018091544
 30
0.0
 11
31.71962786730115
 21
16.73106891237501
 31
0.0
  0
ARC
  5
D7
330
2
100
AcDbEntity
  8
0
100
AcDbCircle
 10
31.34512081922503
 20
17.83580530403696
 30
0.0
 40
0.719684451286487
100
AcDbArc
 50
215.0234843602984
 51
237.6930465510979
  0
LINE
  5
D8
330
2
100
AcDbEntity
  8
0
100
AcDbLine
 10
30.73925799543338
 20
17.44735816045124
 30
0.0
 11
30.75575907501218
 21
17.42276965922554
 31
0.0
  0
LWPOLYLINE
  5
D9
330
2
100
AcDbEntity
  8
0
100
AcDbPolyline
 90
       17
 70
   128
 43
0.0
 10
38.73148619596316
 20
9.136750108161663
 10
38.61618540789994
 20
9.132794008423275
 10
38.51843811963045
 20
9.121527989494211
 10
38.45312546967932
 20
9.104667200642893
 10
38.43019071698177
 20
9.084778544153095
 10
38.45312546967932
 20
9.064889887639196
 10
38.51843811963045
 20
9.048029098812094
 10
38.61618540789994
 20
9.036763079882916
 10
38.73148619596316
 20
9.032806980120426
 10
38.84678698400239
 20
9.036763079882916
 10
38.94453427229598
 20
9.048029098812094
 10
39.00984692222301
 20
9.064889887639196
 10
39.03278167494477
 20
9.084778544153095
 10
39.00984692222301
 20
9.104667200642893
 10
38.94453427229598
 20
9.121527989494211
 10
38.84678698400239
 20
9.132794008423275
 10
38.73148619596316
 20
9.136750108161663
  0
LWPOLYLINE
  5
DA
330
2
100
AcDbEntity
  8
0
100
AcDbPolyline
 90
       17
 70
   128
 43
0.0
 10
39.5751135371114
 20
9.012018354517067
 10
39.45981274904819
 20
9.008062254778565
 10
39.36206546077869
 20
8.996796235849387
 10
39.29675281082757
 20
8.979935446998183
 10
39.27381805812991
 20
8.960046790508386
 10
39.29675281082757
 20
8.940158133994486
 10
39.36206546077869
 20
8.923297345167384
 10
39.45981274904819
 20
8.912031326238206
 10
39.5751135371114
 20
8.908075226475716
 10
39.69041432515053
 20
8.912031326238206
 10
39.78816161344412
 20
8.923297345167384
 10
39.85347426337126
 20
8.940158133994486
 10
39.87640901609291
 20
8.960046790508386
 10
39.85347426337126
 20
8.979935446998183
 10
39.78816161344412
 20
8.996796235849387
 10
39.69041432515053
 20
9.008062254778565
 10
39.5751135371114
 20
9.012018354517067
  0
LWPOLYLINE
  5
DB
330
2
100
AcDbEntity
  8
0
100
AcDbPolyline
 90
       17
 70
   128
 43
0.0
 10
39.5751135371114
 20
9.261481861806373
 10
39.45981274904819
 20
9.257525762067984
 10
39.36206546077869
 20
9.246259743138921
 10
39.29675281082757
 20
9.229398954287603
 10
39.27381805812991
 20
9.209510297797805
 10
39.29675281082757
 20
9.189621641283906
 10
39.36206546077869
 20
9.172760852456804
 10
39.45981274904819
 20
9.161494833527626
 10
39.5751135371114
 20
9.157538733765136
 10
39.69041432515053
 20
9.161494833527626
 10
39.78816161344412
 20
9.172760852456804
 10
39.85347426337126
 20
9.189621641283906
 10
39.87640901609291
 20
9.209510297797805
 10
39.85347426337126
 20
9.229398954287603
 10
39.78816161344412
 20
9.246259743138921
 10
39.69041432515053
 20
9.257525762067984
 10
39.5751135371114
 20
9.261481861806373
  0
LINE
  5
DC
330
2
100
AcDbEntity
  8
0
100
AcDbLine
 10
37.94811795061128
 20
9.129287327336442
 30
0.0
 11
37.94811795061128
 21
8.866497975268771
 31
0.0
  0
LINE
  5
DD
330
2
100
AcDbEntity
  8
0
100
AcDbLine
 10
40.3584817824634
 20
9.129287327336442
 30
0.0
 11
40.3584817824634
 21
8.866497975268771
 31
0.0
  0
LWPOLYLINE
  5
DE
330
2
100
AcDbEntity
  8
0
100
AcDbPolyline
 90
       17
 70
   128
 43
0.0
 10
38.73148619596316
 20
9.136750108161663
 10
38.61618540789994
 20
9.132794008423275
 10
38.51843811963045
 20
9.121527989494211
 10
38.45312546967932
 20
9.104667200642893
 10
38.43019071698177
 20
9.084778544153095
 10
38.45312546967932
 20
9.064889887639196
 10
38.51843811963045
 20
9.048029098812094
 10
38.61618540789994
 20
9.036763079882916
 10
38.73148619596316
 20
9.032806980120426
 10
38.84678698400239
 20
9.036763079882916
 10
38.94453427229598
 20
9.048029098812094
 10
39.00984692222301
 20
9.064889887639196
 10
39.03278167494477
 20
9.084778544153095
 10
39.00984692222301
 20
9.104667200642893
 10
38.94453427229598
 20
9.121527989494211
 10
38.84678698400239
 20
9.132794008423275
 10
38.73148619596316
 20
9.136750108161663
  0
LWPOLYLINE
  5
DF
330
2
100
AcDbEntity
  8
0
100
AcDbPolyline
 90
       17
 70
   128
 43
0.0
 10
39.5751135371114
 20
9.261481861806373
 10
39.45981274904819
 20
9.257525762067984
 10
39.36206546077869
 20
9.246259743138921
 10
39.29675281082757
 20
9.229398954287603
 10
39.27381805812991
 20
9.209510297797805
 10
39.29675281082757
 20
9.189621641283906
 10
39.36206546077869
 20
9.172760852456804
 10
39.45981274904819
 20
9.161494833527626
 10
39.5751135371114
 20
9.157538733765136
 10
39.69041432515053
 20
9.161494833527626
 10
39.78816161344412
 20
9.172760852456804
 10
39.85347426337126
 20
9.189621641283906
 10
39.87640901609291
 20
9.209510297797805
 10
39.85347426337126
 20
9.229398954287603
 10
39.78816161344412
 20
9.246259743138921
 10
39.69041432515053
 20
9.257525762067984
 10
39.5751135371114
 20
9.261481861806373
  0
LWPOLYLINE
  5
E0
330
2
100
AcDbEntity
  8
0
100
AcDbPolyline
 90
       17
 70
   128
 43
0.0
 10
39.5751135371114
 20
9.012018354517067
 10
39.45981274904819
 20
9.008062254778565
 10
39.36206546077869
 20
8.996796235849387
 10
39.29675281082757
 20
8.979935446998183
 10
39.27381805812991
 20
8.960046790508386
 10
39.29675281082757
 20
8.940158133994486
 10
39.36206546077869
 20
8.923297345167384
 10
39.45981274904819
 20
8.912031326238206
 10
39.5751135371114
 20
8.908075226475716
 10
39.69041432515053
 20
8.912031326238206
 10
39.78816161344412
 20
8.923297345167384
 10
39.85347426337126
 20
8.940158133994486
 10
39.87640901609291
 20
8.960046790508386
 10
39.85347426337126
 20
8.979935446998183
 10
39.78816161344412
 20
8.996796235849387
 10
39.69041432515053
 20
9.008062254778565
 10
39.5751135371114
 20
9.012018354517067
  0
LINE
  5
E1
330
2
100
AcDbEntity
  8
0
100
AcDbLine
 10
39.15538541521073
 20
19.85107199440551
 30
0.0
 11
39.15538541521073
 21
24.23388624944335
 31
0.0
  0
LINE
  5
E2
330
2
100
AcDbEntity
  8
0
100
AcDbLine
 10
38.9036746352117
 20
24.76252204473337
 30
0.0
 11
38.92146275512061
 21
24.74776833650424
 31
0.0
  0
ARC
  5
E3
330
2
100
AcDbEntity
  8
0
100
AcDbCircle
 10
38.52862804363042
 20
24.25849954923922
 30
0.0
 40
0.6272404780901863
100
AcDbArc
 50
357.7511011825993
 51
47.59820542879924
  0
LINE
  5
E4
330
2
100
AcDbEntity
  8
0
100
AcDbLine
 10
40.48533427561131
 20
24.28729866652214
 30
0.0
 11
40.48533427561131
 21
19.77076886240183
 31
0.0
  0
ARC
  5
E5
330
2
100
AcDbEntity
  8
0
100
AcDbCircle
 10
41.07011802881436
 20
24.23909533309564
 30
0.0
 40
0.6122110899653184
100
AcDbArc
 50
49.91144720378721
 51
111.3846782333002
  0
LINE
  5
E6
330
2
100
AcDbEntity
  8
0
100
AcDbLine
 10
40.84688885038917
 20
24.80915774421828
 30
0.0
 11
40.37346890087724
 21
24.67249317657229
 31
0.0
  0
LINE
  5
E7
330
2
100
AcDbEntity
  8
0
100
AcDbLine
 10
35.41955444244559
 20
22.40744672920062
 30
0.0
 11
35.41955444244559
 21
19.13858376082442
 31
0.0
  0
ARC
  5
E8
330
2
100
AcDbEntity
  8
0
100
AcDbCircle
 10
36.58533884716826
 20
22.35660968266427
 30
0.0
 40
1.166892318759434
100
AcDbArc
 50
127.6392594851646
 51
177.5030511755998
  0
LINE
  5
E9
330
2
100
AcDbEntity
  8
0
100
AcDbLine
 10
40.21492422990013
 20
24.82761642924391
 30
0.0
 11
40.23634684157218
 21
24.81422723054061
 31
0.0
  0
ARC
  5
EA
330
2
100
AcDbEntity
  8
0
100
AcDbCircle
 10
39.85857690403111
 20
24.31191196631812
 30
0.0
 40
0.6272404780902523
100
AcDbArc
 50
357.7511011825993
 51
47.5982054286978
  0
LINE
  5
EB
330
2
100
AcDbEntity
  8
0
100
AcDbLine
 10
42.88704529060498
 20
23.17150144772142
 30
0.0
 11
42.88704529060498
 21
19.13858376082442
 31
0.0
  0
LINE
  5
EC
330
2
100
AcDbEntity
  8
0
100
AcDbLine
 10
42.58608817634478
 20
23.74153437029201
 30
0.0
 11
42.63805785656574
 21
23.6984300117399
 31
0.0
  0
ARC
  5
ED
330
2
100
AcDbEntity
  8
0
100
AcDbCircle
 10
42.26028791902467
 20
23.19611474751742
 30
0.0
 40
0.6272404780903754
100
AcDbArc
 50
357.7511011825993
 51
47.5982054286978
  0
LINE
  5
EE
330
2
100
AcDbEntity
  8
0
100
AcDbLine
 10
42.20804886079224
 20
23.88004779661253
 30
0.0
 11
42.20804886079224
 21
19.39819427563407
 31
0.0
  0
LINE
  5
EF
330
2
100
AcDbEntity
  8
0
100
AcDbLine
 10
41.9412733068682
 20
24.42173006883593
 30
0.0
 11
41.95906142675312
 21
24.40697636063101
 31
0.0
  0
ARC
  5
F0
330
2
100
AcDbEntity
  8
0
100
AcDbCircle
 10
41.58129148921204
 20
23.90466109640852
 30
0.0
 40
0.6272404780902523
100
AcDbArc
 50
357.7511011825993
 51
47.5982054286978
  0
ARC
  5
F1
330
2
100
AcDbEntity
  8
0
100
AcDbCircle
 10
38.96982368613681
 20
19.65606367729026
 30
0.0
 40
5.361414177985656
100
AcDbArc
 50
244.7332901586666
 51
296.7351499493217
  0
LWPOLYLINE
  5
F2
330
2
100
AcDbEntity
  8
0
100
AcDbPolyline
 90
       71
 70
   128
 43
0.0
 10
40.7011646293713
 20
9.97495808255212
 10
40.24440302097491
 20
9.91569998964394
 10
39.7788564915362
 20
9.877152349853304
 10
39.30827334797971
 20
9.859625526110448
 10
38.83644244907032
 20
9.863260634081825
 10
38.36716269977694
 20
9.888028406021021
 10
37.90421246469487
 20
9.933729426405989
 10
37.45131914694037
 20
9.999995737482095
 10
37.0121291771934
 20
10.08629380188904
 10
36.59017865483816
 20
10.19192879831405
 10
36.18886487739758
 20
10.31605021592338
 10
35.81141898741055
 20
10.45765870203604
 10
35.46087995730261
 20
10.61561410837714
 10
35.14007012115667
 20
10.78864467087555
 10
34.85157245120013
 20
10.97535724922761
 10
34.59770976101732
 20
11.17424854347632
 10
34.38052600372953
 20
11.38371719791894
 10
34.20176981523559
 20
11.60207669409453
 10
34.06288043525285
 20
11.82756892973793
 10
33.9649761193964
 20
12.05837837395404
 10
33.90884513569938
 20
12.29264668479732
 10
33.89493941778699
 20
12.52848767160515
 10
33.92337092633614
 20
12.76400248139919
 10
33.99391074757489
 20
12.99729488741218
 10
34.10599093634414
 20
13.22648655638249
 10
34.25870908882143
 20
13.44973217172946
 10
34.45083560827459
 20
13.66523429106109
 10
34.6808236049319
 20
13.87125781797454
 10
34.9468213506932
 20
14.06614397223461
 10
35.24668718807436
 20
14.24832364507074
 10
35.57800677368459
 20
14.41633003288109
 10
35.93811251706382
 20
14.56881044702788
 10
36.32410505847031
 20
14.70453720487273
 10
36.73287661291715
 20
14.82241751439017
 10
37.16113599223172
 20
14.92150227259787
 10
37.60543510370326
 20
15.00099370730186
 10
38.06219671209965
 20
15.06025180021004
 10
38.52774324153836
 20
15.09879944000056
 10
38.99832638509497
 20
15.11632626374342
 10
39.47015728400436
 20
15.11269115577204
 10
39.93943703329774
 20
15.08792338383284
 10
40.4023872683557
 20
15.04222236344787
 10
40.8552805861101
 20
14.97595605237177
 10
41.29447055588127
 20
14.88965798796494
 10
41.7164210782123
 20
14.78402299153981
 10
42.11773485567698
 20
14.6599015739306
 10
42.49518074563991
 20
14.51829308781782
 10
42.84571977577195
 20
14.36033768147672
 10
43.1665296118939
 20
14.18730711897831
 10
43.45502728185033
 20
14.00059454062625
 10
43.70888997203315
 20
13.80170324637754
 10
43.92607372934503
 20
13.59223459193504
 10
44.10482991783896
 20
13.37387509575933
 10
44.24371929782182
 20
13.14838286011593
 10
44.34162361365418
 20
12.91757341589994
 10
44.39775459737518
 20
12.68330510505666
 10
44.41166031526359
 20
12.44746411824872
 10
44.38322880671444
 20
12.21194930845479
 10
44.31268898547557
 20
11.97865690244168
 10
44.20060879673042
 20
11.74946523347137
 10
44.04789064422914
 20
11.52621961812451
 10
43.85576412477587
 20
11.31071749879277
 10
43.62577612811856
 20
11.10469397187933
 10
43.35977838238136
 20
10.90980781761937
 10
43.0599125449761
 20
10.72762814478324
 10
42.72859295936586
 20
10.55962175697277
 10
42.36848721601086
 20
10.40714134282609
 10
41.98249467460437
 20
10.27141458498124
 10
41.57372312013342
 20
10.1535342754637
 10
41.14546374081885
 20
10.0544495172561
 10
40.7011646293713
 20
9.97495808255212
  0
LWPOLYLINE
  5
F3
330
2
100
AcDbEntity
  8
0
100
AcDbPolyline
 90
       80
 70
   128
 43
0.0
 10
42.52148284581221
 20
9.717164412020565
 10
42.97433695000825
 20
9.860186653796972
 10
43.403033227484
 20
10.02074644630295
 10
43.80486132235728
 20
10.19782867888727
 10
44.17728074805177
 20
10.39031378064737
 10
44.5179369490462
 20
10.59698479880023
 10
44.82467618713724
 20
10.81653509261184
 10
45.09555915811415
 20
11.04757659443714
 10
45.32887325260515
 20
11.28864858551742
 10
45.52314338381745
 20
11.53822693109657
 10
45.67714131340324
 20
11.79473371654944
 10
45.78989341688156
 20
12.05654722334702
 10
45.86068683912765
 20
12.32201218223872
 10
45.88907400136906
 20
12.5894502382564
 10
45.87487543080726
 20
12.85717056193118
 10
45.8181808953932
 20
13.12348053916082
 10
45.71934883618633
 20
13.38669647252641
 10
45.57900410134812
 20
13.64515422615738
 10
45.39803399543404
 20
13.8972197468978
 10
45.17758266973124
 20
14.14129939539089
 10
44.91904388851446
 20
14.37585002149592
 10
44.62405221718973
 20
14.59938872064617
 10
44.29447268807757
 20
14.81050220919951
 10
43.93238900908045
 20
15.00785575975362
 10
43.54009038979177
 20
15.1902016395652
 10
43.12005706841808
 20
15.35638699928427
 10
42.67494463081937
 20
15.50536116158184
 10
42.20756722116823
 20
15.63618226382266
 10
41.72087974989745
 20
15.74802321289382
 10
41.2179592119337
 20
15.84017691427186
 10
40.70198523282067
 20
15.91206074262084
 10
40.17621996618743
 20
15.96322022521417
 10
39.64398746935001
 20
15.99333191532935
 10
39.10865268749376
 20
16.00220543717614
 10
38.5736001794653
 20
15.98978468951247
 10
38.04221271952565
 20
15.95614820025639
 10
37.51784991024067
 20
15.90150863014446
 10
37.00382694216216
 20
15.82621142815833
 10
36.50339363397859
 20
15.73073264742174
 10
36.01971388618847
 20
15.61567593552388
 10
35.55584567790061
 20
15.48176871804549
 10
35.11472173325728
 20
15.32985759956102
 10
34.69913097987967
 20
15.16090301103986
 10
34.31170091630884
 20
14.97597313780193
 10
33.95488100014006
 20
14.77623716604069
 10
33.6309271617962
 20
14.56295789086311
 10
33.341887541755
 20
14.33748373256287
 10
33.08958954149535
 20
14.10124021133128
 10
32.87562827028614
 20
13.8557209347631
 10
32.70135646010385
 20
13.60247815482194
 10
32.56787591349257
 20
13.34311295382713
 10
32.47603053741966
 20
13.07926512215499
 10
32.42640100791152
 20
12.81260279073331
 10
32.41930109887676
 20
12.54481188463955
 10
32.45477569818343
 20
12.2775854642548
 10
32.53260052400765
 20
12.01261302100659
 10
32.65228354277906
 20
11.7515697960107
 10
32.81306807985027
 20
11.49610618859435
 10
33.01393760366091
 20
11.2478373219285
 10
33.25362215239272
 20
11.00833283171346
 10
33.53060636313421
 20
10.77910694244633
 10
33.8431390525692
 20
10.56160889403418
 10
34.18924428838125
 20
10.35721377913353
 10
34.56673388183185
 20
10.16721384949824
 10
34.9732212221885
 20
9.992810345834072
 10
35.40613636560158
 20
9.835105903248859
 10
35.86274228312652
 20
9.695097579998105
 10
36.34015216515957
 20
9.573670553804959
 10
36.83534767271249
 20
9.471592525429286
 10
37.34519802035936
 20
9.389508864990602
 10
37.86647977002451
 20
9.327938531848303
 10
38.39589721065591
 20
9.287270793445941
 10
38.93010319473672
 20
9.267762764354301
 10
39.46572030004995
 20
9.269537780600671
 10
39.99936218277833
 20
9.292584619964941
 10
40.52765498715166
 20
9.336757572916326
 10
41.04725867593709
 20
9.401777363782343
 10
41.55488814734724
 20
9.487232916557331
 10
42.04733400437464
 20
9.592583953683742
 10
42.52148284581221
 20
9.717164412020565
  0
LWPOLYLINE
  5
F4
330
2
100
AcDbEntity
  8
0
100
AcDbPolyline
 90
       43
 70
   128
 43
0.0
 10
45.89370329919063
 20
12.58889073650482
 10
45.90172566039348
 20
12.71461255892848
 10
45.88750042093955
 20
12.98283573588742
 10
45.83069939738686
 20
13.24964591738762
 10
45.73168170408178
 20
13.51335624356397
 10
45.5910733627436
 20
13.77229945278634
 10
45.40976334459844
 20
14.02483842275853
 10
45.18889794994095
 20
14.26937652076515
 10
44.92987356091805
 20
14.50436769825137
 10
44.63432781311292
 20
14.72832626533011
 10
44.30412924189988
 20
14.93983628377737
 10
43.94136546893742
 20
15.13756051924395
 10
43.54833000364294
 20
15.32024889536558
 10
43.12750774275719
 20
15.48674639746605
 10
42.68155926007477
 20
15.63600037470678
 10
42.21330398552732
 20
15.76706719541437
 10
41.72570237972388
 20
15.87911821289981
 10
41.22183721696877
 20
15.97144500460172
 10
40.70489409508434
 20
16.04346385078224
 10
40.17814129491694
 20
16.09471942513289
 10
39.64490911727592
 20
16.12488767339891
 10
39.10856882765802
 20
16.13377786218859
 10
38.57251134207547
 20
16.1213337848784
 10
38.04012578853269
 20
16.08763411694929
 10
37.51477807992808
 20
16.03289191851081
 10
36.99978963362662
 20
15.95745328741452
 10
36.49841637237046
 20
15.86179517093273
 10
36.01382813936209
 20
15.74652235051383
 10
35.54908865743835
 20
15.61236361800536
 10
35.10713615921861
 20
15.46016716814665
 10
34.69076481069499
 20
15.29089523587174
 10
34.30260704560487
 20
15.10561801283927
 10
33.94511692232516
 20
14.90550688132521
 10
33.6205546084816
 20
14.69182700830674
 10
33.33097209154073
 20
14.46592934676721
 10
33.07820020543602
 20
14.22924209442669
 10
32.86383705537389
 20
13.9832616643024
 10
32.68923791421605
 20
13.7295432239099
 10
32.55550665397232
 20
13.469690862883
 10
32.4634887667138
 20
13.20534745153691
 10
32.41376601915636
 20
12.93818425400707
 10
32.40665277449432
 20
12.66989036203506
 10
32.41289643388393
 20
12.58889073650482
  0
SPLINE
  5
F5
330
2
100
AcDbEntity
  8
0
100
AcDbSpline
210
0.0
220
0.0
230
1.0
 70
     8
 71
     3
 72
     8
 73
     4
 74
     0
 42
0.000000001
 43
0.0000000001
 40
0.0
 40
0.0
 40
0.0
 40
0.0
 40
1.0
 40
1.0
 40
1.0
 40
1.0
 10
35.13889102277483
 20
19.00417209232591
 30
0.0
 10
35.13685443705731
 20
19.00312668702838
 30
0.0
 10
35.13484083180709
 20
19.00192187578113
 30
0.0
 10
35.13284927245206
 20
19.0005638485012
 30
0.0
  0
LWPOLYLINE
  5
F6
330
2
100
AcDbEntity
  8
0
100
AcDbPolyline
 90
       19
 70
   128
 43
0.0
 10
35.13889102277597
 20
19.00417209232796
 10
35.50117241562669
 20
19.17433927174158
 10
35.89218569275863
 20
19.32778624998002
 10
36.30885468874772
 20
19.46330583454687
 10
36.74790140042467
 20
19.57983187066031
 10
37.20587177545417
 20
19.67644762898294
 10
37.67916288593347
 20
19.75239301750218
 10
38.16405127328221
 20
19.80707056142591
 10
38.65672224117793
 20
19.84005010353689
 10
39.15329986653728
 20
19.85107218843984
 10
39.64987749187253
 20
19.84005010353689
 10
40.14254845979223
 20
19.80707056142591
 10
40.62743684711711
 20
19.75239301750218
 10
41.10072795762039
 20
19.67644762898294
 10
41.55869833262579
 20
19.57983187066031
 10
41.99774504430275
 20
19.46330583454687
 10
42.41441404029183
 20
19.32778624998002
 10
42.80542731744799
 20
19.17433927174158
 10
43.16770871029859
 20
19.00417209232796
  0
SPLINE
  5
F7
330
2
100
AcDbEntity
  8
0
100
AcDbSpline
210
0.0
220
0.0
230
1.0
 70
     8
 71
     3
 72
     8
 73
     4
 74
     0
 42
0.000000001
 43
0.0000000001
 40
0.0
 40
0.0
 40
0.0
 40
0.0
 40
1.0
 40
1.0
 40
1.0
 40
1.0
 10
43.17375046061033
 20
19.0005638485012
 30
0.0
 10
43.17175179083529
 20
19.00192672431569
 30
0.0
 10
43.16973072977498
 20
19.00313416405913
 30
0.0
 10
43.16770871028768
 20
19.00417209232591
 30
0.0
  0
ARC
  5
F8
330
2
100
AcDbEntity
  8
0
100
AcDbCircle
 10
41.0105759197471
 20
12.75762474525618
 30
0.0
 40
4.808342026883143
100
AcDbArc
 50
58.91894095319837
 51
60.30942141263778
  0
SPLINE
  5
F9
330
2
100
AcDbEntity
  8
0
100
AcDbSpline
210
0.0
220
0.0
230
1.0
 70
     8
 71
     3
 72
    12
 73
     8
 74
     0
 42
0.000000001
 43
0.0000000001
 40
0.0
 40
0.0
 40
0.0
 40
0.0
 40
0.2500000000000026
 40
0.2500000000000026
 40
0.5000000000000053
 40
0.5000000000000053
 40
1.0
 40
1.0
 40
1.0
 40
1.0
 10
43.57129214944882
 20
16.72526560716005
 30
0.0
 10
43.57100004167853
 20
16.73906580498124
 30
0.0
 10
43.56874003781138
 20
16.75382335397592
 30
0.0
 10
43.56060143933541
 20
16.78373534678451
 30
0.0
 10
43.55472772321661
 20
16.79873286903944
 30
0.0
 10
43.53313528054798
 20
16.84027248209872
 30
0.0
 10
43.51322913586398
 20
16.86340298503364
 30
0.0
 10
43.49288361707443
 20
16.87567058562649
 30
0.0
  0
LWPOLYLINE
  5
FA
330
2
100
AcDbEntity
  8
0
100
AcDbPolyline
 90
        3
 70
   128
 43
0.0
 10
43.601496533626
 20
15.29702118924126
 10
43.59779491113442
 20
15.4722516933881
 10
43.57129214945063
 20
16.72526560715039
  0
LWPOLYLINE
  5
FB
330
2
100
AcDbEntity
  8
0
100
AcDbPolyline
 90
        3
 70
   128
 43
0.0
 10
34.73530758362392
 20
16.72526560715039
 10
34.70880482191615
 20
15.4722516933881
 10
34.70509687513038
 20
15.29672180450825
  0
SPLINE
  5
FC
330
2
100
AcDbEntity
  8
0
100
AcDbSpline
210
0.0
220
0.0
230
1.0
 70
     8
 71
     3
 72
    12
 73
     8
 74
     0
 42
0.000000001
 43
0.0000000001
 40
0.0
 40
0.0
 40
0.0
 40
0.0
 40
0.2499999999999969
 40
0.2499999999999969
 40
0.4999999999999938
 40
0.4999999999999938
 40
1.0
 40
1.0
 40
1.0
 40
1.0
 10
34.81371611598798
 20
16.87567058562649
 30
0.0
 10
34.80354111187535
 20
16.86953543184768
 30
0.0
 10
34.79358340926535
 20
16.86087722928778
 30
0.0
 10
34.77488945376865
 20
16.83929897795633
 30
0.0
 10
34.76631998539915
 20
16.82651456610608
 30
0.0
 10
34.74468703141111
 20
16.78493700678882
 30
0.0
 10
34.73589193499549
 20
16.75287242042816
 30
0.0
 10
34.73530758361369
 20
16.72526560716005
 30
0.0
  0
ARC
  5
FD
330
2
100
AcDbEntity
  8
0
100
AcDbCircle
 10
37.29602381330347
 20
12.75762474525618
 30
0.0
 40
4.808342026883022
100
AcDbArc
 50
119.690729776955
 51
121.0810590468016
  0
LINE
  5
FE
330
2
100
AcDbEntity
  8
0
100
AcDbLine
 10
44.13471928835952
 20
16.00438651006266
 30
0.0
 11
44.19290306415052
 21
17.06582068456032
 31
0.0
  0
LINE
  5
FF
330
2
100
AcDbEntity
  8
0
100
AcDbLine
 10
44.13471928835952
 20
16.00438651006266
 30
0.0
 11
44.14244504463295
 21
15.38802508789308
 31
0.0
  0
LINE
  5
100
330
2
100
AcDbEntity
  8
0
100
AcDbLine
 10
43.30713356311583
 20
17.83291957434835
 30
0.0
 11
44.19290306415052
 21
17.06582068456032
 31
0.0
  0
LINE
  5
101
330
2
100
AcDbEntity
  8
0
100
AcDbLine
 10
34.17188044471516
 20
16.00438651006266
 30
0.0
 11
34.16415468835021
 21
15.38802508800177
 31
0.0
  0
LINE
  5
102
330
2
100
AcDbEntity
  8
0
100
AcDbLine
 10
34.11369666890005
 20
17.06582068456032
 30
0.0
 11
34.17188044471516
 21
16.00438651006266
 31
0.0
  0
LINE
  5
103
330
2
100
AcDbEntity
  8
0
100
AcDbLine
 10
34.11369666890005
 20
17.06582068456032
 30
0.0
 11
34.99977705239485
 21
17.83318880644458
 31
0.0
  0
SPLINE
  5
104
330
2
100
AcDbEntity
  8
0
100
AcDbSpline
210
0.0
220
0.0
230
1.0
 70
     8
 71
     3
 72
    10
 73
     6
 74
     0
 42
0.000000001
 43
0.0000000001
 40
0.0
 40
0.0
 40
0.0
 40
0.0
 40
0.4078392726141181
 40
0.8137745974586408
 40
1.0
 40
1.0
 40
1.0
 40
1.0
 10
43.17375046061033
 20
19.0005638485012
 30
0.0
 10
43.17622758903758
 20
18.99830582912216
 30
0.0
 10
43.18117028172093
 20
18.99380033165164
 30
0.0
 10
43.18451134001111
 20
18.98582380152731
 30
0.0
 10
43.18457313305566
 20
18.98041085293039
 30
0.0
 10
43.18459256601374
 20
18.97870856420229
 30
0.0
  0
SPLINE
  5
105
330
2
100
AcDbEntity
  8
0
100
AcDbSpline
210
0.0
220
0.0
230
1.0
 70
     8
 71
     3
 72
    10
 73
     6
 74
     0
 42
0.000000001
 43
0.0000000001
 40
0.0
 40
0.0
 40
0.0
 40
0.0
 40
0.1854124774339302
 40
0.5917533138519261
 40
1.0
 40
1.0
 40
1.0
 40
1.0
 10
35.1220084952821
 20
18.97873556581032
 30
0.0
 10
35.12202804548383
 20
18.9804286525333
 30
0.0
 10
35.12209044094266
 20
18.98583222457341
 30
0.0
 10
35.12542986933886
 20
18.99380018126715
 30
0.0
 10
35.1303722835745
 20
18.99830577891589
 30
0.0
 10
35.13284927245206
 20
19.0005638485012
 30
0.0
  0
LINE
  5
106
330
2
100
AcDbEntity
  8
0
100
AcDbLine
 10
34.10874709044106
 20
15.44960329528828
 30
0.0
 11
34.10673038161406
 21
15.84811975829495
 31
0.0
  0
LINE
  5
107
330
2
100
AcDbEntity
  8
0
100
AcDbLine
 10
33.90527138251753
 20
15.65989330297179
 30
0.0
 11
33.90917965638073
 21
16.0098178353827
 31
0.0
  0
LINE
  5
108
330
2
100
AcDbEntity
  8
0
100
AcDbLine
 10
34.10673038161406
 20
15.84811975829495
 30
0.0
 11
34.09229497405318
 21
15.95695699641806
 31
0.0
  0
LINE
  5
109
330
2
100
AcDbEntity
  8
0
100
AcDbLine
 10
44.19785264263362
 20
15.44960329528828
 30
0.0
 11
44.19986935146062
 21
15.84811975829495
 31
0.0
  0
LINE
  5
10A
330
2
100
AcDbEntity
  8
0
100
AcDbLine
 10
44.19986935146062
 20
15.84811975829495
 30
0.0
 11
44.2143047589974
 21
15.95695699641806
 31
0.0
  0
LINE
  5
10B
330
2
100
AcDbEntity
  8
0
100
AcDbLine
 10
44.39742007669394
 20
16.0098178353827
 30
0.0
 11
44.40132835055453
 21
15.65989330296952
 31
0.0
  0
SPLINE
  5
10C
330
2
100
AcDbEntity
  8
0
100
AcDbSpline
210
0.0
220
0.0
230
1.0
 70
     8
 71
     3
 72
     8
 73
     4
 74
     0
 42
0.000000001
 43
0.0000000001
 40
0.0
 40
0.0
 40
0.0
 40
0.0
 40
1.0
 40
1.0
 40
1.0
 40
1.0
 10
33.76202837557389
 20
17.81339812776605
 30
0.0
 10
33.76125233996663
 20
17.81235803823153
 30
0.0
 10
33.76046675231658
 20
17.81113484889226
 30
0.0
 10
33.75968001756758
 20
17.80974032463734
 30
0.0
  0
SPLINE
  5
10D
330
2
100
AcDbEntity
  8
0
100
AcDbSpline
210
0.0
220
0.0
230
1.0
 70
     8
 71
     3
 72
     8
 73
     4
 74
     0
 42
0.000000001
 43
0.0000000001
 40
0.0
 40
0.0
 40
0.0
 40
0.0
 40
1.0
 40
1.0
 40
1.0
 40
1.0
 10
33.81239251388922
 20
16.08164371276939
 30
0.0
 10
33.79367063933012
 20
16.65952799801164
 30
0.0
 10
33.77685049625075
 20
17.23679298625359
 30
0.0
 10
33.76202837557389
 20
17.81339812776605
 30
0.0
  0
LWPOLYLINE
  5
10E
330
2
100
AcDbEntity
  8
0
100
AcDbPolyline
 90
        3
 70
   128
 43
0.0
 10
33.81115959519059
 20
15.97682283905522
 10
33.81188920673037
 20
16.03885671476166
 10
33.81239251388616
 20
16.0816437127761
  0
ARC
  5
10F
330
2
100
AcDbEntity
  8
0
100
AcDbCircle
 10
35.61080300140759
 20
14.76287658211072
 30
0.0
 40
2.170802133845674
100
AcDbArc
 50
143.4429852452996
 51
145.9984365210995
  0
SPLINE
  5
110
330
2
100
AcDbEntity
  8
0
100
AcDbSpline
210
0.0
220
0.0
230
1.0
 70
     8
 71
     3
 72
    12
 73
     8
 74
     0
 42
0.000000001
 43
0.0000000001
 40
0.0
 40
0.0
 40
0.0
 40
0.0
 40
0.2499999999999952
 40
0.2499999999999952
 40
0.4999999999999905
 40
0.4999999999999905
 40
1.0
 40
1.0
 40
1.0
 40
1.0
 10
33.90917965636902
 20
16.00981783539032
 30
0.0
 10
33.90933266023012
 20
16.02349756569253
 30
0.0
 10
33.90831109412204
 20
16.03541319172427
 30
0.0
 10
33.9041191652791
 20
16.05464663463272
 30
0.0
 10
33.90095031421243
 20
16.06181306398969
 30
0.0
 10
33.88915195401819
 20
16.07443539351686
 30
0.0
 10
33.87814993423319
 20
16.07079864083732
 30
0.0
 10
33.8670745861142
 20
16.05585497247841
 30
0.0
  0
ARC
  5
111
330
2
100
AcDbEntity
  8
0
100
AcDbCircle
 10
35.07532355074352
 20
17.03587341577497
 30
0.0
 40
1.526364274680604
100
AcDbArc
 50
149.5357833041003
 51
178.6153618133015
  0
SPLINE
  5
112
330
2
100
AcDbEntity
  8
0
100
AcDbSpline
210
0.0
220
0.0
230
1.0
 70
     8
 71
     3
 72
    12
 73
     8
 74
     0
 42
0.000000001
 43
0.0000000001
 40
0.0
 40
0.0
 40
0.0
 40
0.0
 40
0.25
 40
0.25
 40
0.5
 40
0.5
 40
1.0
 40
1.0
 40
1.0
 40
1.0
 10
44.43952514694831
 20
16.05585497247841
 30
0.0
 10
44.43398625094744
 20
16.06332845539043
 30
0.0
 10
44.42853221494408
 20
16.06801720998624
 30
0.0
 10
44.41826467896283
 20
16.07152034600597
 30
0.0
 10
44.41354410227984
 20
16.07024545078877
 30
0.0
 10
44.40172317951783
 20
16.05763979859216
 30
0.0
 10
44.39711399781856
 20
16.03718365759835
 30
0.0
 10
44.39742007669337
 20
16.00981783539032
 30
0.0
  0
ARC
  5
113
330
2
100
AcDbEntity
  8
0
100
AcDbCircle
 10
42.69579673169118
 20
14.76287658213482
 30
0.0
 40
2.170802133796439
100
AcDbArc
 50
34.00156347879723
 51
36.55701475480076
  0
LWPOLYLINE
  5
114
330
2
100
AcDbEntity
  8
0
100
AcDbPolyline
 90
        3
 70
   128
 43
0.0
 10
44.49420721916442
 20
16.0816437127761
 10
44.49493691065595
 20
16.0196098623062
 10
44.49544013785998
 20
15.97682283905522
  0
SPLINE
  5
115
330
2
100
AcDbEntity
  8
0
100
AcDbSpline
210
0.0
220
0.0
230
1.0
 70
     8
 71
     3
 72
     8
 73
     4
 74
     0
 42
0.000000001
 43
0.0000000001
 40
0.0
 40
0.0
 40
0.0
 40
0.0
 40
1.0
 40
1.0
 40
1.0
 40
1.0
 10
44.5445713574885
 20
17.81339812776605
 30
0.0
 10
44.52974923678858
 20
17.23679298535137
 30
0.0
 10
44.51292909375911
 20
16.65952799883996
 30
0.0
 10
44.49420721917317
 20
16.08164371276939
 30
0.0
  0
SPLINE
  5
116
330
2
100
AcDbEntity
  8
0
100
AcDbSpline
210
0.0
220
0.0
230
1.0
 70
     8
 71
     3
 72
     8
 73
     4
 74
     0
 42
0.000000001
 43
0.0000000001
 40
0.0
 40
0.0
 40
0.0
 40
0.0
 40
1.0
 40
1.0
 40
1.0
 40
1.0
 10
44.54691971549482
 20
17.80974032463734
 30
0.0
 10
44.54612731326358
 20
17.81114489477033
 30
0.0
 10
44.54534463228992
 20
17.81236173842933
 30
0.0
 10
44.5445713574885
 20
17.81339812776605
 30
0.0
  0
ARC
  5
117
330
2
100
AcDbEntity
  8
0
100
AcDbCircle
 10
43.23127618230706
 20
17.03587341577497
 30
0.0
 40
1.52636427468099
100
AcDbArc
 50
1.384638186698476
 51
30.46421669589967
  0
ELLIPSE
  5
118
330
2
100
AcDbEntity
  8
0
100
AcDbEllipse
 10
44.1423932333264
 20
17.6407776801725
 30
0.0
 11
-0.0258700062586057
 21
0.0551648466786857
 31
0.0
210
0.0
220
0.0
230
1.0
 40
0.3316363468999999
 41
6.230574358441785
 42
7.094878122531616
  0
LINE
  5
119
330
2
100
AcDbEntity
  8
0
100
AcDbLine
 10
44.19290306415052
 20
17.06582068456032
 30
0.0
 11
44.11131572093302
 21
17.672522085065
 31
0.0
  0
LINE
  5
11A
330
2
100
AcDbEntity
  8
0
100
AcDbLine
 10
43.24000399785314
 20
18.46313231290037
 30
0.0
 11
44.12346449463939
 21
17.69803307943471
 31
0.0
  0
LINE
  5
11B
330
2
100
AcDbEntity
  8
0
100
AcDbLine
 10
34.11369666890005
 20
17.06582068456032
 30
0.0
 11
34.19528401214166
 21
17.672522085065
 31
0.0
  0
ELLIPSE
  5
11C
330
2
100
AcDbEntity
  8
0
100
AcDbEllipse
 10
34.16420649974828
 20
17.6407776801725
 30
0.0
 11
0.0258700062586057
 21
0.0551648466786857
 31
0.0
210
0.0
220
0.0
230
1.0
 40
0.3316363468999999
 41
5.471492491827785
 42
6.335796255917442
  0
LINE
  5
11D
330
2
100
AcDbEntity
  8
0
100
AcDbLine
 10
34.18313523841118
 20
17.69803307943471
 30
0.0
 11
35.06583178563847
 21
18.46247071315054
 31
0.0
  0
ELLIPSE
  5
11E
330
2
100
AcDbEntity
  8
0
100
AcDbEllipse
 10
34.03215846502269
 20
15.90382754597772
 30
0.0
 11
0.0181791438662694
 21
0.1199296650964656
 31
0.0
210
0.0
220
0.0
230
0.9999999999999998
 40
0.4926395442000001
 41
5.24450207558693
 42
6.218569152574228
  0
ELLIPSE
  5
11F
330
2
100
AcDbEntity
  8
0
100
AcDbEllipse
 10
44.27444126805198
 20
15.90382754597772
 30
0.0
 11
-0.0181791438662694
 21
0.1199296650964521
 31
0.0
210
0.0
220
0.0
230
1.0
 40
0.4926395442000001
 41
0.0646161546051304
 42
1.038683231592689
  0
ARC
  5
120
330
2
100
AcDbEntity
  8
0
100
AcDbCircle
 10
44.53366364713452
 20
17.78869783938648
 30
0.0
 40
0.0270015257199854
100
AcDbArc
 50
66.17362453180682
 51
96.99154929197804
  0
ARC
  5
121
330
2
100
AcDbEntity
  8
0
100
AcDbCircle
 10
33.77221496063999
 20
17.79357104153746
 30
0.0
 40
0.0222908022203172
100
AcDbArc
 50
79.64203470593351
 51
117.1927914557175
  0
SPLINE
  5
122
330
2
100
AcDbEntity
  8
0
100
AcDbSpline
210
0.0
220
0.0
230
1.0
 70
     8
 71
     3
 72
    10
 73
     6
 74
     0
 42
0.000000001
 43
0.0000000001
 40
0.0
 40
0.0
 40
0.0
 40
0.0
 40
0.3852248288516202
 40
0.9303658622867883
 40
1.0
 40
1.0
 40
1.0
 40
1.0
 10
19.4380173639895
 20
12.58076245774009
 30
0.0
 10
19.41662516422002
 20
12.56365348830059
 30
0.0
 10
19.36496034177321
 20
12.52233319969684
 30
0.0
 10
19.31814123400448
 20
12.46329474209494
 30
0.0
 10
19.30580637775051
 20
12.42142218887721
 30
0.0
 10
19.30440923759363
 20
12.41667938325656
 30
0.0
  0
SPLINE
  5
123
330
2
100
AcDbEntity
  8
0
100
AcDbSpline
210
0.0
220
0.0
230
1.0
 70
     8
 71
     3
 72
    10
 73
     6
 74
     0
 42
0.000000001
 43
0.0000000001
 40
0.0
 40
0.0
 40
0.0
 40
0.0
 40
0.178406816138169
 40
0.5961940725780116
 40
1.0
 40
1.0
 40
1.0
 40
1.0
 10
19.75370158475374
 20
12.59679205758925
 30
0.0
 10
19.74331296964965
 20
12.60487704249567
 30
0.0
 10
19.70859663491876
 20
12.63189518105361
 30
0.0
 10
19.63164784788648
 20
12.64531593655715
 30
0.0
 10
19.57042283427671
 20
12.6339273086557
 30
0.0
 10
19.5403312708512
 20
12.62832989677088
 30
0.0
  0
SPLINE
  5
124
330
2
100
AcDbEntity
  8
0
100
AcDbSpline
210
0.0
220
0.0
230
1.0
 70
     8
 71
     3
 72
    12
 73
     8
 74
     0
 42
0.000000001
 43
0.0000000001
 40
0.0
 40
0.0
 40
0.0
 40
0.0
 40
0.0291081485275992
 40
0.324446051290663
 40
0.5915218762100177
 40
0.8482103367107132
 40
1.0
 40
1.0
 40
1.0
 40
1.0
 10
19.32639739194246
 20
12.46015517978958
 30
0.0
 10
19.32405301217648
 20
12.45719316595023
 30
0.0
 10
19.29792202149923
 20
12.42417788525893
 30
0.0
 10
19.27645713303798
 20
12.34844439635731
 30
0.0
 10
19.27132011893428
 20
12.24831856928836
 30
0.0
 10
19.2935338082633
 20
12.16637559650775
 30
0.0
 10
19.32658391248202
 20
12.13019381083552
 30
0.0
 10
19.33886526587366
 20
12.11674873080665
 30
0.0
  0
LINE
  5
125
330
2
100
AcDbEntity
  8
0
100
AcDbLine
 10
19.82809655876059
 20
12.5516537346981
 30
0.0
 11
19.75370158475374
 21
12.59679205758925
 31
0.0
  0
LINE
  5
126
330
2
100
AcDbEntity
  8
0
100
AcDbLine
 10
19.33886526587366
 20
12.11674873080665
 30
0.0
 11
19.39415845031646
 21
12.05058609415914
 31
0.0
  0
SPLINE
  5
127
330
2
100
AcDbEntity
  8
0
100
AcDbSpline
210
0.0
220
0.0
230
1.0
 70
     8
 71
     3
 72
     9
 73
     5
 74
     0
 42
0.000000001
 43
0.0000000001
 40
0.0
 40
0.0
 40
0.0
 40
0.0
 40
0.0304439907759075
 40
1.0
 40
1.0
 40
1.0
 40
1.0
 10
9.144155373322121
 20
9.620657512512366
 30
0.0
 10
9.143140335748171
 20
9.620299976456522
 30
0.0
 10
9.109799188677698
 20
9.608555916402849
 30
0.0
 10
9.083020212340102
 20
9.58338834627608
 30
0.0
 10
9.057056494911137
 20
9.558986977422136
 30
0.0
  0
SPLINE
  5
128
330
2
100
AcDbEntity
  8
0
100
AcDbSpline
210
0.0
220
0.0
230
1.0
 70
     8
 71
     3
 72
     9
 73
     5
 74
     0
 42
0.000000001
 43
0.0000000001
 40
0.0
 40
0.0
 40
0.0
 40
0.0
 40
0.558387413646741
 40
1.0
 40
1.0
 40
1.0
 40
1.0
 10
9.057056494911137
 20
9.558986977422136
 30
0.0
 10
9.037643688373748
 20
9.539191423085753
 30
0.0
 10
9.002877850063327
 20
9.503740132722555
 30
0.0
 10
8.984642469421658
 20
9.458055174164314
 30
0.0
 10
8.9765894958133
 20
9.437880121457851
 30
0.0
  0
SPLINE
  5
129
330
2
100
AcDbEntity
  8
0
100
AcDbSpline
210
0.0
220
0.0
230
1.0
 70
     8
 71
     3
 72
    10
 73
     6
 74
     0
 42
0.000000001
 43
0.0000000001
 40
0.0
 40
0.0
 40
0.0
 40
0.0
 40
0.3341848966245098
 40
0.6760545672849795
 40
1.0
 40
1.0
 40
1.0
 40
1.0
 10
9.414445688672572
 20
9.622743179528924
 30
0.0
 10
9.386973158278181
 20
9.635178308062677
 30
0.0
 10
9.331396350841487
 20
9.660334518067656
 30
0.0
 10
9.237090729984799
 20
9.658752261638483
 30
0.0
 10
9.178844031758558
 20
9.634722272371618
 30
0.0
 10
9.150504704871195
 20
9.6230307303328
 30
0.0
  0
SPLINE
  5
12A
330
2
100
AcDbEntity
  8
0
100
AcDbSpline
210
0.0
220
0.0
230
1.0
 70
     8
 71
     3
 72
    11
 73
     7
 74
     0
 42
0.000000001
 43
0.0000000001
 40
0.0
 40
0.0
 40
0.0
 40
0.0
 40
0.1174437488512791
 40
0.4532904660140817
 40
0.7450588621110571
 40
1.0
 40
1.0
 40
1.0
 40
1.0
 10
8.979964950799399
 20
9.447207709973895
 30
0.0
 10
8.973098642093475
 20
9.43549411015374
 30
0.0
 10
8.946597169656399
 20
9.39028384419123
 30
0.0
 10
8.936884038885693
 20
9.30542932550901
 30
0.0
 10
8.949738019791482
 20
9.208701669170864
 30
0.0
 10
8.983523008299926
 20
9.160425862631598
 30
0.0
 10
8.999277596209026
 20
9.137913928438933
 30
0.0
  0
LINE
  5
12B
330
2
100
AcDbEntity
  8
0
100
AcDbLine
 10
9.461108440423004
 20
9.593246223380901
 30
0.0
 11
9.425166643237162
 21
9.616874433885698
 31
0.0
  0
LINE
  5
12C
330
2
100
AcDbEntity
  8
0
100
AcDbLine
 10
9.003777937853897
 20
9.130296493191053
 30
0.0
 11
9.032299583609585
 21
9.098099541134388
 31
0.0
  0
LINE
  5
12D
330
2
100
AcDbEntity
  8
0
100
AcDbLine
 10
19.39415845031646
 20
12.05058609415914
 30
0.0
 11
19.43633985816052
 21
12.01405592339915
 31
0.0
  0
LINE
  5
12E
330
2
100
AcDbEntity
  8
0
100
AcDbLine
 10
19.87027796658049
 20
12.515123563938
 30
0.0
 11
19.82809655876059
 21
12.5516537346981
 31
0.0
  0
LINE
  5
12F
330
2
100
AcDbEntity
  8
0
100
AcDbLine
 10
23.49778653959589
 20
13.25630002974833
 30
0.0
 11
23.49773355670203
 21
13.25628473490428
 31
0.0
  0
LINE
  5
130
330
2
100
AcDbEntity
  8
0
100
AcDbLine
 10
23.44741634950168
 20
13.24175940833334
 30
0.0
 11
23.44560052582898
 21
13.24123522518994
 31
0.0
  0
LINE
  5
131
330
2
100
AcDbEntity
  8
0
100
AcDbLine
 10
26.83272501590341
 20
13.79722699099562
 30
0.0
 11
24.52823290260875
 21
15.79297570393112
 31
0.0
  0
LINE
  5
132
330
2
100
AcDbEntity
  8
0
100
AcDbLine
 10
24.48214834831015
 20
15.83288609867588
 30
0.0
 11
23.45821553147334
 21
16.71963792982558
 31
0.0
  0
LINE
  5
133
330
2
100
AcDbEntity
  8
0
100
AcDbLine
 10
23.34986824986487
 20
16.71691678600962
 30
0.0
 11
4.771683896738011
 21
11.35385691735564
 31
0.0
  0
LINE
  5
134
330
2
100
AcDbEntity
  8
0
100
AcDbLine
 10
23.40944751475064
 20
11.59259502368991
 30
0.0
 11
26.72369778099528
 21
8.722370098602709
 31
0.0
  0
LINE
  5
135
330
2
100
AcDbEntity
  8
0
100
AcDbLine
 10
27.76275207441563
 20
9.039087415433414
 30
0.0
 11
27.76275207441563
 21
9.091273429200271
 31
0.0
  0
LINE
  5
136
330
2
100
AcDbEntity
  8
0
100
AcDbLine
 10
5.419110127181511
 20
3.587427699162276
 30
0.0
 11
25.84454203816972
 21
9.483742005235626
 31
0.0
  0
LINE
  5
137
330
2
100
AcDbEntity
  8
0
100
AcDbLine
 10
1.053068749170051
 20
5.138237474584798
 30
0.0
 11
1.053068749170051
 21
5.086051460817827
 31
0.0
  0
LINE
  5
138
330
2
100
AcDbEntity
  8
0
100
AcDbLine
 10
19.43873190104494
 20
12.58121044034146
 30
0.0
 11
19.53669003116363
 21
12.62733086265666
 31
0.0
  0
LINE
  5
139
330
2
100
AcDbEntity
  8
0
100
AcDbLine
 10
9.143353421029928
 20
9.620712436106487
 30
0.0
 11
9.149478039857626
 21
9.623788047161383
 31
0.0
  0
LINE
  5
13A
330
2
100
AcDbEntity
  8
0
100
AcDbLine
 10
9.417023295302499
 20
9.621930583567973
 30
0.0
 11
9.425166643237162
 21
9.616874433885698
 31
0.0
  0
LINE
  5
13B
330
2
100
AcDbEntity
  8
0
100
AcDbLine
 10
9.003777937853897
 20
9.130296493191053
 30
0.0
 11
8.999360995885524
 21
9.135471877932332
 31
0.0
  0
LWPOLYLINE
  5
13C
330
2
100
AcDbEntity
  8
0
100
AcDbPolyline
 90
        6
 70
   128
 43
0.0
 10
9.422850568826447
 20
9.137665690879373
 10
9.497993016355167
 20
9.232338081413331
 10
9.54169896812175
 20
9.340152833142724
 10
9.548063097187821
 20
9.446547102575379
 10
9.516228454561257
 20
9.537153292945731
 10
9.461108440423004
 20
9.593246223380901
  0
ARC
  5
13D
330
2
100
AcDbEntity
  8
0
100
AcDbCircle
 10
9.208649679798156
 20
9.304692105025878
 30
0.0
 40
0.2716244537626598
100
AcDbArc
 50
229.5154980495011
 51
322.0541318141997
  0
LWPOLYLINE
  5
13E
330
2
100
AcDbEntity
  8
0
100
AcDbPolyline
 90
       11
 70
   128
 43
0.0
 10
19.43633985816052
 20
12.01405592339915
 10
19.44219230624748
 20
12.00919267515934
 10
19.5266927607492
 20
11.97045313513274
 10
19.62829331271968
 20
11.97143805178757
 10
19.73327344740414
 20
12.0120149292552
 10
19.82745229268124
 20
12.08670319814371
 10
19.89811247726101
 20
12.18541621690565
 10
19.93571091809463
 20
12.29482219180238
 10
19.93516968718774
 20
12.40014493664
 10
19.89656032652539
 20
12.48716007714688
 10
19.87027796658049
 20
12.515123563938
  0
LWPOLYLINE
  5
13F
330
2
100
AcDbEntity
  8
0
100
AcDbPolyline
 90
       14
 70
   128
 43
0.0
 10
19.31335757443145
 20
12.03274396398797
 10
19.37519320665336
 20
11.94745722334721
 10
19.46716669148469
 20
11.89653661902207
 10
19.57931035951441
 20
11.88550003298167
 10
19.69947450983329
 20
11.91554403631517
 10
19.8146353846933
 20
11.98341250986902
 10
19.91231356777956
 20
12.08175088867131
 10
19.98192550628693
 20
12.19990262477142
 10
20.01592507256521
 20
12.32506379391958
 10
20.01063096325578
 20
12.4436720606206
 10
19.96661551448073
 20
12.54287432980493
 10
19.88864715727419
 20
12.61191959042298
 10
19.78517718126801
 20
12.64332650815248
 10
19.67767285755013
 20
12.63611112033658
  0
LWPOLYLINE
  5
140
330
2
100
AcDbEntity
  8
0
100
AcDbPolyline
 90
        3
 70
   128
 43
0.0
 10
19.28889331491018
 20
12.18482851425619
 10
19.28836141555814
 20
12.14315493603953
 10
19.31335757443145
 20
12.03274396398797
  0
LWPOLYLINE
  5
141
330
2
100
AcDbEntity
  8
0
100
AcDbPolyline
 90
       14
 70
   128
 43
0.0
 10
9.016143886170311
 20
8.991881121242101
 10
9.098232130442056
 20
8.927700251906571
 10
9.20440670576778
 20
8.901888007132129
 10
9.323160234130511
 20
8.9172408908085
 10
9.441626039169022
 20
8.972096003019828
 10
9.546965439211078
 20
9.060507948168549
 10
9.627764371908938
 20
9.172896959589422
 10
9.675266716411954
 20
9.2970834115373
 10
9.684323002692224
 20
9.4196095453824
 10
9.653953416184435
 20
9.527197916414536
 10
9.587450444913599
 20
9.608190092248037
 10
9.492018059067277
 20
9.653808789953586
 10
9.377998745973172
 20
9.659110906588125
 10
9.342401926375714
 20
9.652731308168426
  0
ARC
  5
142
330
2
100
AcDbEntity
  8
0
100
AcDbCircle
 10
9.265526706315768
 20
9.177003200186902
 30
0.0
 40
0.3105832820662421
100
AcDbArc
 50
173.769377047998
 51
216.587270882999
  0
LWPOLYLINE
  5
143
330
2
100
AcDbEntity
  8
0
100
AcDbPolyline
 90
        3
 70
   128
 43
0.0
 10
23.53121222709512
 20
13.2448818848228
 10
23.51945629645621
 20
13.25305731002413
 10
23.509176218037
 20
13.25655865904031
  0
LINE
  5
144
330
2
100
AcDbEntity
  8
0
100
AcDbLine
 10
23.53121222709512
 20
13.2448818848228
 30
0.0
 11
23.65173043901297
 21
13.14051005170898
 31
0.0
  0
LWPOLYLINE
  5
145
330
2
100
AcDbEntity
  8
0
100
AcDbPolyline
 90
        3
 70
   128
 43
0.0
 10
23.65173043901297
 20
13.14051005170898
 10
23.73661517678568
 20
13.08813643455164
 10
23.79734766003605
 20
13.08357990445222
  0
LINE
  5
146
330
2
100
AcDbEntity
  8
0
100
AcDbLine
 10
26.8454626055904
 20
13.76674037006688
 30
0.0
 11
26.8454626055904
 21
9.901816226722246
 31
0.0
  0
ARC
  5
147
330
2
100
AcDbEntity
  8
0
100
AcDbCircle
 10
23.64723905715124
 20
12.60164932557421
 30
0.0
 40
0.228480157737029
100
AcDbArc
 50
205.4159915493021
 51
222.5891566898016
  0
LINE
  5
148
330
2
100
AcDbEntity
  8
0
100
AcDbLine
 10
23.41876710736932
 20
13.17763096931162
 30
0.0
 11
23.41876710736932
 21
12.94147640416525
 31
0.0
  0
LINE
  5
149
330
2
100
AcDbEntity
  8
0
100
AcDbLine
 10
23.47902621332827
 20
12.447028429
 30
0.0
 11
23.84058084905752
 21
12.13391292961023
 31
0.0
  0
LINE
  5
14A
330
2
100
AcDbEntity
  8
0
100
AcDbLine
 10
4.758267243633554
 20
7.512483900790812
 30
0.0
 11
4.758267243633554
 21
11.32205474081149
 31
0.0
  0
LINE
  5
14B
330
2
100
AcDbEntity
  8
0
100
AcDbLine
 10
20.10092574175235
 20
13.66366286283084
 30
0.0
 11
19.26595107669692
 21
13.42262643899533
 31
0.0
  0
LINE
  5
14C
330
2
100
AcDbEntity
  8
0
100
AcDbLine
 10
20.10092574175235
 20
13.97677816780072
 30
0.0
 11
20.10092574175235
 21
13.66366286283084
 31
0.0
  0
LINE
  5
14D
330
2
100
AcDbEntity
  8
0
100
AcDbLine
 10
20.10092574175235
 20
13.97677816780072
 30
0.0
 11
19.26595107669692
 21
13.73574174398925
 31
0.0
  0
LINE
  5
14E
330
2
100
AcDbEntity
  8
0
100
AcDbLine
 10
19.26595107669692
 20
13.73574174398925
 30
0.0
 11
19.26595107669692
 21
13.42262643899533
 31
0.0
  0
LINE
  5
14F
330
2
100
AcDbEntity
  8
0
100
AcDbLine
 10
9.76811523386965
 20
10.68083739872145
 30
0.0
 11
8.933140568838325
 21
10.43980097491004
 31
0.0
  0
LINE
  5
150
330
2
100
AcDbEntity
  8
0
100
AcDbLine
 10
9.76811523386965
 20
10.99395270369126
 30
0.0
 11
9.76811523386965
 21
10.68083739872145
 31
0.0
  0
LINE
  5
151
330
2
100
AcDbEntity
  8
0
100
AcDbLine
 10
9.76811523386965
 20
10.99395270369126
 30
0.0
 11
8.933140568838325
 21
10.7529162798798
 31
0.0
  0
LINE
  5
152
330
2
100
AcDbEntity
  8
0
100
AcDbLine
 10
8.933140568838325
 20
10.7529162798798
 30
0.0
 11
8.933140568838325
 21
10.43980097491004
 31
0.0
  0
LWPOLYLINE
  5
153
330
2
100
AcDbEntity
  8
0
100
AcDbPolyline
 90
        7
 70
   128
 43
0.0
 10
23.44560052582898
 20
13.24123522518994
 10
23.44554810914087
 20
13.24121996418819
 10
23.43641660487776
 20
13.23614825724644
 10
23.42892270137582
 20
13.2268219387243
 10
23.42335407312515
 20
13.21359998237358
 10
23.4199249887688
 20
13.19699008378131
 10
23.41876710736932
 20
13.17763096931162
  0
ARC
  5
154
330
2
100
AcDbEntity
  8
0
100
AcDbCircle
 10
23.33114358211014
 20
11.64234506532977
 30
0.0
 40
0.7079302890388492
100
AcDbArc
 50
13.13109163540019
 51
43.97729533529893
  0
ARC
  5
155
330
2
100
AcDbEntity
  8
0
100
AcDbCircle
 10
22.27893347416921
 20
12.5856191211493
 30
0.0
 40
0.1484829422328895
100
AcDbArc
 50
287.2089174333018
 51
357.1688175609007
  0
LINE
  5
156
330
2
100
AcDbEntity
  8
0
100
AcDbLine
 10
22.32286315111105
 20
12.44378341470576
 30
0.0
 11
4.8927703232726
 21
7.412149021642676
 31
0.0
  0
LINE
  5
157
330
2
100
AcDbEntity
  8
0
100
AcDbLine
 10
22.42723517864482
 20
13.93511868763346
 30
0.0
 11
22.42723517864482
 21
12.57828505135643
 31
0.0
  0
LWPOLYLINE
  5
158
330
2
100
AcDbEntity
  8
0
100
AcDbPolyline
 90
        8
 70
   128
 43
0.0
 10
23.79734766003605
 20
13.08357990445222
 10
23.827248376922
 20
13.10836186871268
 10
23.87361245730193
 20
13.19316608517187
 10
23.89777318560988
 20
13.31476214508143
 10
23.89777318560988
 20
13.46329892646133
 10
23.87361245730193
 20
13.62674220654799
 10
23.827248376922
 20
13.79185214348814
 10
23.73284623694366
 20
14.01528835273637
  0
LWPOLYLINE
  5
159
330
2
100
AcDbEntity
  8
0
100
AcDbPolyline
 90
        2
 70
   128
 43
0.0
 10
23.61145965727792
 20
14.15587739743341
 10
23.59954442524605
 20
14.16916357845775
  0
ARC
  5
15A
330
2
100
AcDbEntity
  8
0
100
AcDbCircle
 10
23.64723661446447
 20
14.42815536313856
 30
0.0
 40
0.2284777198634186
100
AcDbArc
 50
179.5141952210007
 51
222.589396757799
  0
ARC
  5
15B
330
2
100
AcDbEntity
  8
0
100
AcDbCircle
 10
23.21828216444391
 20
14.42236050968324
 30
0.0
 40
0.1484801044248547
100
AcDbArc
 50
287.2081354589999
 51
357.1692786496004
  0
LINE
  5
15C
330
2
100
AcDbEntity
  8
0
100
AcDbLine
 10
23.26220906606869
 20
14.28052691450153
 30
0.0
 11
22.53160642857114
 21
14.06962009978281
 31
0.0
  0
LINE
  5
15D
330
2
100
AcDbEntity
  8
0
100
AcDbLine
 10
23.41876710736932
 20
16.72627251810877
 30
0.0
 11
23.41876710736932
 21
14.43009257805488
 31
0.0
  0
LINE
  5
15E
330
2
100
AcDbEntity
  8
0
100
AcDbLine
 10
23.36658109360246
 20
14.41502777352059
 30
0.0
 11
23.36658109360246
 21
16.6590216998041
 31
0.0
  0
LINE
  5
15F
330
2
100
AcDbEntity
  8
0
100
AcDbLine
 10
23.59954442524605
 20
14.16916357845775
 30
0.0
 11
23.47902621332827
 21
14.27353541159573
 31
0.0
  0
ARC
  5
160
330
2
100
AcDbEntity
  8
0
100
AcDbCircle
 10
22.57553476183159
 20
13.92778628120857
 30
0.0
 40
0.1484807413683804
100
AcDbArc
 50
107.2086376752012
 51
177.1694182047008
  0
ARC
  5
161
330
2
100
AcDbEntity
  8
0
100
AcDbCircle
 10
26.80629240209578
 20
13.76827895132169
 30
0.0
 40
0.0392004090991343
100
AcDbArc
 50
357.7506137228003
 51
47.60062473419931
  0
LWPOLYLINE
  5
162
330
2
100
AcDbEntity
  8
0
100
AcDbPolyline
 90
        7
 70
   128
 43
0.0
 10
4.758267243633554
 20
11.32205474081149
 10
4.758846184321214
 20
11.33173488126999
 10
4.760560670361996
 20
11.34003968475122
 10
4.763345040624699
 20
11.34665041992571
 10
4.767091992363646
 20
11.35131396800261
 10
4.771657744507251
 20
11.35384923824983
 10
4.771683896738011
 20
11.35385691735564
  0
LWPOLYLINE
  5
163
330
2
100
AcDbEntity
  8
0
100
AcDbPolyline
 90
        4
 70
   128
 43
0.0
 10
23.36658109360246
 20
16.71120771357107
 10
23.36070312829503
 20
16.71529581497543
 10
23.35505110473343
 20
16.71722083959707
 10
23.34984209763411
 20
16.71690910690381
  0
LINE
  5
164
330
2
100
AcDbEntity
  8
0
100
AcDbLine
 10
23.36658109360246
 20
16.6590216998041
 30
0.0
 11
23.36658109360246
 21
16.71120771357107
 31
0.0
  0
LINE
  5
165
330
2
100
AcDbEntity
  8
0
100
AcDbLine
 10
23.36658109360246
 20
16.71120771357107
 30
0.0
 11
23.41876710736932
 21
16.72627251810536
 31
0.0
  0
ARC
  5
166
330
2
100
AcDbEntity
  8
0
100
AcDbCircle
 10
4.930711951565513
 20
9.337337892669211
 30
0.0
 40
0.246697201205692
100
AcDbArc
 50
180.5536595746979
 51
216.0803568636978
  0
LINE
  5
167
330
2
100
AcDbEntity
  8
0
100
AcDbLine
 10
4.684026268204945
 20
11.26583267098766
 30
0.0
 11
4.684026268204945
 21
9.334954049698012
 31
0.0
  0
LINE
  5
168
330
2
100
AcDbEntity
  8
0
100
AcDbLine
 10
4.736211504340246
 20
11.33308326483575
 30
0.0
 11
4.760585558718503
 21
11.34011944827046
 31
0.0
  0
ARC
  5
169
330
2
100
AcDbEntity
  8
0
100
AcDbCircle
 10
4.758175364613236
 20
11.26216701585576
 30
0.0
 40
0.0742396492750665
100
AcDbArc
 50
107.2085625795989
 51
177.1698141882998
  0
ARC
  5
16A
330
2
100
AcDbEntity
  8
0
100
AcDbCircle
 10
24.4471570659419
 20
11.67142923497778
 30
0.0
 40
0.1948188211083488
100
AcDbArc
 50
57.13638854679942
 51
107.6021872117997
  0
LINE
  5
16B
330
2
100
AcDbEntity
  8
0
100
AcDbLine
 10
24.55287376491237
 20
11.83507016085008
 30
0.0
 11
27.74660581926332
 21
9.069217068900911
 31
0.0
  0
LWPOLYLINE
  5
16C
330
2
100
AcDbEntity
  8
0
100
AcDbPolyline
 90
        9
 70
   128
 43
0.0
 10
27.70249289766435
 20
8.986901543251292
 10
27.72169727424739
 20
8.993782375506384
 10
27.73784737383357
 20
9.002404073209845
 10
27.75032377651866
 20
9.012435668892635
 10
27.75864599010606
 20
9.023491429040063
 10
27.76249403088968
 20
9.035146286012491
 10
27.76172096938058
 20
9.046952808959304
 10
27.75635624050824
 20
9.058457193641856
 10
27.74660581926332
 20
9.069217068900911
  0
LINE
  5
16D
330
2
100
AcDbEntity
  8
0
100
AcDbLine
 10
26.7631469827067
 20
8.715735734800091
 30
0.0
 11
27.70249289766435
 21
8.986901543251292
 31
0.0
  0
LINE
  5
16E
330
2
100
AcDbEntity
  8
0
100
AcDbLine
 10
24.3882426314197
 20
11.85712646831428
 30
0.0
 11
23.44889671646206
 21
11.58596065988729
 31
0.0
  0
LWPOLYLINE
  5
16F
330
2
100
AcDbEntity
  8
0
100
AcDbPolyline
 90
        9
 70
   128
 43
0.0
 10
25.45517699800161
 20
10.39080303478556
 10
25.38446801760648
 20
10.35979799914071
 10
25.34287156269301
 20
10.31762351198153
 10
25.3367209282539
 20
10.27070043956712
 10
25.36695114079936
 20
10.2261719956104
 10
25.42896156183287
 20
10.19081770761824
 10
25.5133100245514
 20
10.17001947423205
 10
25.60715660652375
 20
10.16694402399656
 10
25.69621339375641
 20
10.18205939283018
  0
LINE
  5
170
330
2
100
AcDbEntity
  8
0
100
AcDbLine
 10
25.69621339375641
 20
10.18205939283018
 30
0.0
 11
25.90495667121655
 21
10.2423183865385
 31
0.0
  0
LWPOLYLINE
  5
171
330
2
100
AcDbEntity
  8
0
100
AcDbPolyline
 90
        9
 70
   128
 43
0.0
 10
25.90495667121655
 20
10.2423183865385
 10
25.97566565161162
 20
10.27332342218335
 10
26.01726210652515
 20
10.31549790931831
 10
26.02341274096421
 20
10.36242098175683
 10
25.99318252841874
 20
10.4069494257136
 10
25.93117210738524
 20
10.44230371370571
 10
25.8468236446667
 20
10.46310194706791
 10
25.75297706269436
 20
10.46617739732744
 10
25.66392027546175
 20
10.45106202849376
  0
LINE
  5
172
330
2
100
AcDbEntity
  8
0
100
AcDbLine
 10
25.66392027546175
 20
10.45106202849376
 30
0.0
 11
25.45517699800161
 21
10.39080303478556
 31
0.0
  0
ARC
  5
173
330
2
100
AcDbEntity
  8
0
100
AcDbCircle
 10
24.4471570659419
 20
11.72361524874463
 30
0.0
 40
0.1948188211083049
100
AcDbArc
 50
57.13638854679942
 51
107.6021872117997
  0
LINE
  5
174
330
2
100
AcDbEntity
  8
0
100
AcDbLine
 10
23.44889671646206
 20
12.48710430381015
 30
0.0
 11
23.44889671646206
 21
11.6381466736542
 31
0.0
  0
ARC
  5
175
330
2
100
AcDbEntity
  8
0
100
AcDbCircle
 10
23.43494477696231
 20
11.62158950991806
 30
0.0
 40
0.0382631881920631
100
AcDbArc
 50
177.7647556206002
 51
291.3848674344986
  0
LINE
  5
176
330
2
100
AcDbEntity
  8
0
100
AcDbLine
 10
23.3967107026952
 20
11.62308186909581
 30
0.0
 11
23.39671070269526
 21
11.91853962382828
 31
0.0
  0
LINE
  5
177
330
2
100
AcDbEntity
  8
0
100
AcDbLine
 10
24.3882426314197
 20
11.90931248208119
 30
0.0
 11
23.44889671646206
 21
11.6381466736542
 31
0.0
  0
LINE
  5
178
330
2
100
AcDbEntity
  8
0
100
AcDbLine
 10
27.74660581926332
 20
9.121403082667768
 30
0.0
 11
24.55287376491237
 21
11.88725617461699
 31
0.0
  0
ARC
  5
179
330
2
100
AcDbEntity
  8
0
100
AcDbCircle
 10
26.74935077724871
 20
8.754304294727489
 30
0.0
 40
0.0409618004824046
100
AcDbArc
 50
231.224807159
 51
289.6824349113021
  0
LWPOLYLINE
  5
17A
330
2
100
AcDbEntity
  8
0
100
AcDbPolyline
 90
       10
 70
   128
 43
0.0
 10
23.97036963221672
 20
11.78868293777145
 10
23.94710492629684
 20
11.86086397347577
 10
23.89823124240496
 20
11.95975234423082
 10
23.84058084905752
 20
12.02954090207646
 10
23.78293045568591
 20
12.05960575459926
 10
23.73405677181807
 20
12.04536908747195
 10
23.70140049851358
 20
11.98899854610488
 10
23.68993314029763
 20
11.89907635367291
 10
23.70140049851358
 20
11.78929172536789
 10
23.72107471705238
 20
11.71323857517831
  0
LINE
  5
17B
330
2
100
AcDbEntity
  8
0
100
AcDbLine
 10
23.41876710736932
 20
14.48227859182179
 30
0.0
 11
23.41876710736932
 21
12.94147640416525
 31
0.0
  0
LINE
  5
17C
330
2
100
AcDbEntity
  8
0
100
AcDbLine
 10
2.052674618486435
 20
6.453121697235474
 30
0.0
 11
2.104859854621793
 21
6.468186277292602
 31
0.0
  0
ARC
  5
17D
330
2
100
AcDbEntity
  8
0
100
AcDbCircle
 10
2.136781739765012
 20
6.530432499592961
 30
0.0
 40
0.1142408333856841
100
AcDbArc
 50
179.5143988047016
 51
222.5890500659995
  0
LINE
  5
17E
330
2
100
AcDbEntity
  8
0
100
AcDbLine
 10
23.38974712793373
 20
12.61260397575467
 30
0.0
 11
2.104859854621793
 21
6.468186277292602
 31
0.0
  0
LINE
  5
17F
330
2
100
AcDbEntity
  8
0
100
AcDbLine
 10
23.15783781616642
 20
13.9894674610515
 30
0.0
 11
23.15783781616642
 21
14.25039752988596
 31
0.0
  0
LINE
  5
180
330
2
100
AcDbEntity
  8
0
100
AcDbLine
 10
2.022545009393752
 20
8.305721297862703
 30
0.0
 11
2.022545009393752
 21
6.531400717873793
 31
0.0
  0
ARC
  5
181
330
2
100
AcDbEntity
  8
0
100
AcDbCircle
 10
2.170846392760665
 20
8.298387511793748
 30
0.0
 40
0.1484826074963791
100
AcDbArc
 50
107.2094559851002
 51
177.1689207830007
  0
LINE
  5
182
330
2
100
AcDbEntity
  8
0
100
AcDbLine
 10
2.126915481664354
 20
8.440222485534832
 30
0.0
 11
4.758268219445199
 21
9.199828591288564
 31
0.0
  0
LINE
  5
183
330
2
100
AcDbEntity
  8
0
100
AcDbLine
 10
22.79253649740565
 20
14.14494412252668
 30
0.0
 11
22.79253649740565
 21
13.88401405369211
 31
0.0
  0
LINE
  5
184
330
2
100
AcDbEntity
  8
0
100
AcDbLine
 10
22.79253649740565
 20
13.88401405369211
 30
0.0
 11
23.15783781616642
 21
13.9894674610515
 31
0.0
  0
LINE
  5
185
330
2
100
AcDbEntity
  8
0
100
AcDbLine
 10
23.15783781616642
 20
13.2588648235299
 30
0.0
 11
23.15783781616642
 21
13.4676084898058
 31
0.0
  0
LINE
  5
186
330
2
100
AcDbEntity
  8
0
100
AcDbLine
 10
23.15783781616642
 20
13.4676084898058
 30
0.0
 11
22.79253649740565
 21
13.3621550824464
 31
0.0
  0
LINE
  5
187
330
2
100
AcDbEntity
  8
0
100
AcDbLine
 10
22.79253649740565
 20
13.3621550824464
 30
0.0
 11
22.79253649740565
 21
13.15341141617057
 31
0.0
  0
LINE
  5
188
330
2
100
AcDbEntity
  8
0
100
AcDbLine
 10
22.79253649740565
 20
13.15341141617057
 30
0.0
 11
23.15783781616642
 21
13.2588648235299
 31
0.0
  0
LINE
  5
189
330
2
100
AcDbEntity
  8
0
100
AcDbLine
 10
2.104859854621793
 20
6.468186277292602
 30
0.0
 11
5.419110120866378
 21
3.597961352229503
 31
0.0
  0
ARC
  5
18A
330
2
100
AcDbEntity
  8
0
100
AcDbCircle
 10
27.72271457361018
 20
9.089208788230109
 30
0.0
 40
0.0400906998237112
100
AcDbArc
 50
2.951995516898975
 51
53.42105096630085
  0
LINE
  5
18B
330
2
100
AcDbEntity
  8
0
100
AcDbLine
 10
1.113327925921339
 20
5.190423346790964
 30
0.0
 11
2.052674618486435
 21
5.461589379695169
 31
0.0
  0
LINE
  5
18C
330
2
100
AcDbEntity
  8
0
100
AcDbLine
 10
2.052674618486435
 20
5.461589379695169
 30
0.0
 11
2.052674618486435
 21
6.453121697235474
 31
0.0
  0
LINE
  5
18D
330
2
100
AcDbEntity
  8
0
100
AcDbLine
 10
2.104859854621793
 20
5.476653959752297
 30
0.0
 11
2.104859854621793
 21
6.468186277292602
 31
0.0
  0
ARC
  5
18E
330
2
100
AcDbEntity
  8
0
100
AcDbCircle
 10
2.030709162938308
 20
5.48032085279874
 30
0.0
 40
0.0742413037482548
100
AcDbArc
 50
287.2094559851003
 51
357.1689207828996
  0
LINE
  5
18F
330
2
100
AcDbEntity
  8
0
100
AcDbLine
 10
1.113327925921339
 20
5.138237332999949
 30
0.0
 11
2.052674618486435
 21
5.409403365928255
 31
0.0
  0
LINE
  5
190
330
2
100
AcDbEntity
  8
0
100
AcDbLine
 10
2.104859854621793
 20
5.476653959752297
 30
0.0
 11
5.419110120866378
 21
2.606429034689199
 31
0.0
  0
ARC
  5
191
330
2
100
AcDbEntity
  8
0
100
AcDbCircle
 10
5.344959429182893
 20
2.610095927735756
 30
0.0
 40
0.0742413037482165
100
AcDbArc
 50
287.2094559851003
 51
357.1689207828996
  0
ARC
  5
192
330
2
100
AcDbEntity
  8
0
100
AcDbCircle
 10
4.368664063832284
 20
2.453701141486874
 30
0.0
 40
0.1948106267133355
100
AcDbArc
 50
237.1352689343988
 51
287.6028573529012
  0
LINE
  5
193
330
2
100
AcDbEntity
  8
0
100
AcDbLine
 10
4.26294861393643
 20
2.290069164379588
 30
0.0
 11
1.06921655958547
 21
5.055922256304711
 31
0.0
  0
LWPOLYLINE
  5
194
330
2
100
AcDbEntity
  8
0
100
AcDbPolyline
 90
        9
 70
   128
 43
0.0
 10
1.113327925921339
 20
5.138237332999949
 10
1.094124326945745
 20
5.131356725246121
 10
1.077972672120495
 20
5.122734578540075
 10
1.065497047042867
 20
5.112703207358549
 10
1.057174055847951
 20
5.101647222733959
 10
1.053328347959109
 20
5.089993039217176
 10
1.054100631836661
 20
5.0781862917691
 10
1.05946380544583
 20
5.066681458132109
 10
1.06921655958547
 20
5.055922256304711
  0
LINE
  5
195
330
2
100
AcDbEntity
  8
0
100
AcDbLine
 10
5.366924884731076
 20
2.539178440865157
 30
0.0
 11
4.427578192165981
 21
2.268012407936907
 31
0.0
  0
LINE
  5
196
330
2
100
AcDbEntity
  8
0
100
AcDbLine
 10
3.360644603191531
 20
3.734336065942841
 30
0.0
 11
3.151900548123933
 21
3.674076847757419
 31
0.0
  0
LWPOLYLINE
  5
197
330
2
100
AcDbEntity
  8
0
100
AcDbPolyline
 90
        9
 70
   128
 43
0.0
 10
3.119608207436726
 20
3.943079707922265
 10
3.208663439430324
 20
3.958194627777459
 10
3.30251079903428
 20
3.955119402019192
 10
3.386858484121205
 20
3.934320944155786
 10
3.448870460393777
 20
3.898967105118003
 10
3.479099117700172
 20
3.8544382122069
 10
3.472949260892676
 20
3.807515364269647
 10
3.431352028347589
 20
3.765340652633312
 10
3.360644603191531
 20
3.734336065942841
  0
LINE
  5
198
330
2
100
AcDbEntity
  8
0
100
AcDbLine
 10
2.910864152369128
 20
3.882820489712742
 30
0.0
 11
3.119608207436726
 21
3.943079707922265
 31
0.0
  0
LWPOLYLINE
  5
199
330
2
100
AcDbEntity
  8
0
100
AcDbPolyline
 90
        9
 70
   128
 43
0.0
 10
3.151900548123933
 20
3.674076847757419
 10
3.062845316154493
 20
3.658961927902225
 10
2.968997956550538
 20
3.662037153660548
 10
2.884650271463556
 20
3.682835611523955
 10
2.822638295166882
 20
3.718189450537579
 10
2.792409637884588
 20
3.762718343448796
 10
2.798559494692142
 20
3.809641191410037
 10
2.840156727237172
 20
3.85181590302227
 10
2.910864152369128
 20
3.882820489712742
  0
LINE
  5
19A
330
2
100
AcDbEntity
  8
0
100
AcDbLine
 10
5.419110120866378
 20
2.606429034689199
 30
0.0
 11
5.419110120866378
 21
3.597961352229503
 31
0.0
  0
LWPOLYLINE
  5
19B
330
2
100
AcDbEntity
  8
0
100
AcDbPolyline
 90
        7
 70
   128
 43
0.0
 10
1.053068749170051
 20
5.138237474584798
 10
1.053328347959109
 20
5.142179052984033
 10
1.057174055847951
 20
5.153833236500872
 10
1.065497047042867
 20
5.164889221125463
 10
1.077972672120495
 20
5.174920592331091
 10
1.094124326945745
 20
5.183542739012978
 10
1.113327925921339
 20
5.190423346790964
  0
LWPOLYLINE
  5
19C
330
2
100
AcDbEntity
  8
0
100
AcDbPolyline
 90
       10
 70
   128
 43
0.0
 10
19.75370158475374
 20
12.59679205758925
 10
19.81556847536791
 20
12.53899282591601
 10
19.84424593762384
 20
12.44840878165524
 10
19.83527519072135
 20
12.34327299924405
 10
19.78986622786078
 20
12.23778359751168
 10
19.71415144421007
 20
12.14618754104538
 10
19.61835668247983
 20
12.08085582734355
 10
19.5154201610888
 20
12.05061182435929
 10
19.41924280510182
 20
12.05953992551394
 10
19.35239938833109
 20
12.10055409062602
  0
LWPOLYLINE
  5
19D
330
2
100
AcDbEntity
  8
0
100
AcDbPolyline
 90
       16
 70
   128
 43
0.0
 10
9.149478039857626
 20
9.623788047161383
 10
9.150708251503488
 20
9.624386965884639
 10
9.251175018047945
 20
9.653083225579962
 10
9.343877920388251
 20
9.641113966195234
 10
9.414701407407562
 20
9.590301152112033
 10
9.452865963334659
 20
9.508381341269569
 10
9.452559576852422
 20
9.407825739777422
 10
9.413830461095074
 20
9.303943093548753
 10
9.34257150094362
 20
9.212547750152566
 10
9.249635309393624
 20
9.147555215450893
 10
9.149168542873269
 20
9.118859344571319
 10
9.056465640532962
 20
9.13082821514024
 10
8.985640598250483
 20
9.181640580269231
 10
8.947476042323387
 20
9.263560391111582
 10
8.947782428781465
 20
9.364115992603728
 10
8.971876536151341
 20
9.439160700023307
  0
ARC
  5
19E
330
2
100
AcDbEntity
  8
0
100
AcDbCircle
 10
4.867378238269907
 20
7.518430801839713
 30
0.0
 40
0.1092729371007459
100
AcDbArc
 50
183.1197180373412
 51
283.4368231249487
  0
ARC
  5
19F
330
2
100
AcDbEntity
  8
0
100
AcDbCircle
 10
23.4242032940362
 20
16.63800042929915
 30
0.0
 40
0.0884393226324457
100
AcDbArc
 50
67.38216101075011
 51
93.52407748584587
  0
POLYLINE
  5
1A0
330
2
100
AcDbEntity
  8
0
100
AcDb2dPolyline
 66
     1
 10
0.0
 20
0.0
 30
0.0
 70
     2
  0
VERTEX
  5
1A1
330
1A0
100
AcDbEntity
  8
0
100
AcDbVertex
100
AcDb2dVertex
 10
29.97418214803082
 20
18.19344107874184
 30
0.0
 42
-0.0087423135807303
  0
VERTEX
  5
1A2
330
1A0
100
AcDbEntity
  8
0
100
AcDbVertex
100
AcDb2dVertex
 10
30.3164436674312
 20
19.01416410755883
 30
0.0
 42
-0.0142582256686869
 70
     1
  0
VERTEX
  5
1A3
330
1A0
100
AcDbEntity
  8
0
100
AcDbVertex
100
AcDb2dVertex
 10
30.54924533650234
 20
19.50726428811788
 30
0.0
 42
-0.005004818057887
  0
VERTEX
  5
1A4
330
1A0
100
AcDbEntity
  8
0
100
AcDbVertex
100
AcDb2dVertex
 10
31.08053170363411
 20
20.52872085957665
 30
0.0
 42
-0.0100313573664843
 70
     1
  0
VERTEX
  5
1A5
330
1A0
100
AcDbEntity
  8
0
100
AcDbVertex
100
AcDb2dVertex
 10
31.36082386951631
 20
21.03018091992715
 30
0.0
 42
-0.0641031603482199
  0
VERTEX
  5
1A6
330
1A0
100
AcDbEntity
  8
0
100
AcDbVertex
100
AcDb2dVertex
 10
31.86340168497975
 20
21.68071713232388
 30
0.0
 42
-0.0481484310090242
 70
     1
  0
VERTEX
  5
1A7
330
1A0
100
AcDbEntity
  8
0
100
AcDbVertex
100
AcDb2dVertex
 10
32.70685757206417
 20
22.37509406513311
 30
0.0
 42
-0.0660955379057856
  0
VERTEX
  5
1A8
330
1A0
100
AcDbEntity
  8
0
100
AcDbVertex
100
AcDb2dVertex
 10
33.45921292085569
 20
22.74835144572609
 30
0.0
 42
-0.0582832503529037
 70
     1
  0
VERTEX
  5
1A9
330
1A0
100
AcDbEntity
  8
0
100
AcDbVertex
100
AcDb2dVertex
 10
34.38939970024882
 20
22.94866038406201
 30
0.0
 42
-0.0519164631301103
  0
VERTEX
  5
1AA
330
1A0
100
AcDbEntity
  8
0
100
AcDbVertex
100
AcDb2dVertex
 10
34.65079447523948
 20
22.94655065575751
 30
0.0
 42
-0.0601870701866219
 70
     1
  0
VERTEX
  5
1AB
330
1A0
100
AcDbEntity
  8
0
100
AcDbVertex
100
AcDb2dVertex
 10
35.48643268215568
 20
22.74909270659924
 30
0.0
  0
SEQEND
  5
1AC
330
1A0
100
AcDbEntity
  8
0
  0
POLYLINE
  5
1AD
330
2
100
AcDbEntity
  8
0
100
AcDb2dPolyline
 66
     1
 10
0.0
 20
0.0
 30
0.0
  0
VERTEX
  5
1AE
330
1AD
100
AcDbEntity
  8
0
100
AcDbVertex
100
AcDb2dVertex
 10
30.10232990409435
 20
18.10963585310537
 30
0.0
 42
-0.0090454594700156
  0
VERTEX
  5
1AF
330
1AD
100
AcDbEntity
  8
0
100
AcDbVertex
100
AcDb2dVertex
 10
30.45385706731207
 20
18.95401797274383
 30
0.0
 42
-0.014258225668687
  0
VERTEX
  5
1B0
330
1AD
100
AcDbEntity
  8
0
100
AcDbVertex
100
AcDb2dVertex
 10
30.68300712412128
 20
19.43938362685861
 30
0.0
 42
-0.0050048180578869
  0
VERTEX
  5
1B1
330
1AD
100
AcDbEntity
  8
0
100
AcDbVertex
100
AcDb2dVertex
 10
31.21290786932997
 20
20.45817618751943
 30
0.0
 42
-0.0100313573664842
  0
VERTEX
  5
1B2
330
1AD
100
AcDbEntity
  8
0
100
AcDbVertex
100
AcDb2dVertex
 10
31.49026370964577
 20
20.95438297940592
 30
0.0
 42
-0.0641031603482201
  0
VERTEX
  5
1B3
330
1AD
100
AcDbEntity
  8
0
100
AcDbVertex
100
AcDb2dVertex
 10
31.96942352522041
 20
21.57460695660081
 30
0.0
 42
-0.0481484310090242
  0
VERTEX
  5
1B4
330
1AD
100
AcDbEntity
  8
0
100
AcDbVertex
100
AcDb2dVertex
 10
32.79062762669446
 20
22.25066505747321
 30
0.0
 42
-0.0660955379057856
  0
VERTEX
  5
1B5
330
1AD
100
AcDbEntity
  8
0
100
AcDbVertex
100
AcDb2dVertex
 10
33.5076119244236
 20
22.60637420651637
 30
0.0
 42
-0.0582832503529036
  0
VERTEX
  5
1B6
330
1AD
100
AcDbEntity
  8
0
100
AcDbVertex
100
AcDb2dVertex
 10
34.40372815822986
 20
22.79934630136421
 30
0.0
 42
-0.0519164631301105
  0
VERTEX
  5
1B7
330
1AD
100
AcDbEntity
  8
0
100
AcDbVertex
100
AcDb2dVertex
 10
34.63405780031872
 20
22.7974873010636
 30
0.0
 42
-0.0609978249600475
  0
VERTEX
  5
1B8
330
1AD
100
AcDbEntity
  8
0
100
AcDbVertex
100
AcDb2dVertex
 10
35.44507305989589
 20
22.60446370816294
 30
0.0
 42
-0.0307746318536304
  0
SEQEND
  5
1B9
330
1AD
100
AcDbEntity
  8
0
  0
POLYLINE
  5
1BA
330
2
100
AcDbEntity
  8
0
100
AcDb2dPolyline
 66
     1
 10
0.0
 20
0.0
 30
0.0
  0
VERTEX
  5
1BB
330
1BA
100
AcDbEntity
  8
0
100
AcDbVertex
100
AcDb2dVertex
 10
23.73643893557789
 20
14.31649141128554
 30
0.0
 42
-0.0105215678565089
  0
VERTEX
  5
1BC
330
1BA
100
AcDbEntity
  8
0
100
AcDbVertex
100
AcDb2dVertex
 10
24.84233974159668
 20
16.06468972092517
 30
0.0
 42
-0.0094061727837089
  0
VERTEX
  5
1BD
330
1BA
100
AcDbEntity
  8
0
100
AcDbVertex
100
AcDb2dVertex
 10
26.25358663446628
 20
18.11035517325177
 30
0.0
 42
-0.0594959512797053
  0
VERTEX
  5
1BE
330
1BA
100
AcDbEntity
  8
0
100
AcDbVertex
100
AcDb2dVertex
 10
27.04458831506599
 20
18.97393777611137
 30
0.0
 42
-0.0626672909161185
  0
VERTEX
  5
1BF
330
1BA
100
AcDbEntity
  8
0
100
AcDbVertex
100
AcDb2dVertex
 10
27.97175969062732
 20
19.58832421559833
 30
0.0
 42
-0.1729182134589026
  0
VERTEX
  5
1C0
330
1BA
100
AcDbEntity
  8
0
100
AcDbVertex
100
AcDb2dVertex
 10
28.94857136086273
 20
19.70372280737956
 30
0.0
 42
-0.2306163698543328
  0
VERTEX
  5
1C1
330
1BA
100
AcDbEntity
  8
0
100
AcDbVertex
100
AcDb2dVertex
 10
29.53587732764231
 20
19.23057144762634
 30
0.0
 42
-0.117215426576032
  0
VERTEX
  5
1C2
330
1BA
100
AcDbEntity
  8
0
100
AcDbVertex
100
AcDb2dVertex
 10
29.6064880723593
 20
18.89259304576757
 30
0.0
 42
-0.098363413677237
  0
VERTEX
  5
1C3
330
1BA
100
AcDbEntity
  8
0
100
AcDbVertex
100
AcDb2dVertex
 10
29.51565684886674
 20
18.49298550596154
 30
0.0
  0
SEQEND
  5
1C4
330
1BA
100
AcDbEntity
  8
0
  0
POLYLINE
  5
1C5
330
2
100
AcDbEntity
  8
0
100
AcDb2dPolyline
 66
     1
 10
0.0
 20
0.0
 30
0.0
 70
     2
  0
VERTEX
  5
1C6
330
1C5
100
AcDbEntity
  8
0
100
AcDbVertex
100
AcDb2dVertex
 10
30.10232990409435
 20
18.10963585310537
 30
0.0
 42
-0.0996616698738212
  0
VERTEX
  5
1C7
330
1C5
100
AcDbEntity
  8
0
100
AcDbVertex
100
AcDb2dVertex
 10
30.7357579924826
 20
18.93233393979841
 30
0.0
 42
-0.1304846760931795
 70
     1
  0
VERTEX
  5
1C8
330
1C5
100
AcDbEntity
  8
0
100
AcDbVertex
100
AcDb2dVertex
 10
31.45258951047924
 20
19.28435435444129
 30
0.0
 42
-0.0179132293094005
  0
VERTEX
  5
1C9
330
1C5
100
AcDbEntity
  8
0
100
AcDbVertex
100
AcDb2dVertex
 10
32.12792749917458
 20
19.39414328915319
 30
0.0
 42
-0.0596171256545293
 70
     1
  0
VERTEX
  5
1CA
330
1C5
100
AcDbEntity
  8
0
100
AcDbVertex
100
AcDb2dVertex
 10
32.3341715578905
 20
19.39543090511773
 30
0.0
 42
-0.014190467470801
  0
VERTEX
  5
1CB
330
1C5
100
AcDbEntity
  8
0
100
AcDbVertex
100
AcDb2dVertex
 10
32.80571004290221
 20
19.32838956261235
 30
0.0
 42
-0.0081695280594904
 70
     1
  0
VERTEX
  5
1CC
330
1C5
100
AcDbEntity
  8
0
100
AcDbVertex
100
AcDb2dVertex
 10
33.61863832453366
 20
19.17546138267443
 30
0.0
 42
-0.014687631596192
  0
VERTEX
  5
1CD
330
1C5
100
AcDbEntity
  8
0
100
AcDbVertex
100
AcDb2dVertex
 10
33.84930800251857
 20
19.12104783880107
 30
0.0
 42
-0.0230772544378531
 70
     1
  0
VERTEX
  5
1CE
330
1C5
100
AcDbEntity
  8
0
100
AcDbVertex
100
AcDb2dVertex
 10
35.09411392865223
 20
18.72617169610936
 30
0.0
  0
SEQEND
  5
1CF
330
1C5
100
AcDbEntity
  8
0
  0
POLYLINE
  5
1D0
330
2
100
AcDbEntity
  8
0
100
AcDb2dPolyline
 66
     1
 10
0.0
 20
0.0
 30
0.0
  0
VERTEX
  5
1D1
330
1D0
100
AcDbEntity
  8
0
100
AcDbVertex
100
AcDb2dVertex
 10
23.41876710736932
 20
13.76738628059849
 30
0.0
 42
-0.0012981719354545
  0
VERTEX
  5
1D2
330
1D0
100
AcDbEntity
  8
0
100
AcDbVertex
100
AcDb2dVertex
 10
23.57561848753431
 20
14.04267146906625
 30
0.0
 42
-0.0003473206090482
  0
SEQEND
  5
1D3
330
1D0
100
AcDbEntity
  8
0
  0
POLYLINE
  5
1D4
330
2
100
AcDbEntity
  8
0
100
AcDb2dPolyline
 66
     1
 10
0.0
 20
0.0
 30
0.0
  0
VERTEX
  5
1D5
330
1D4
100
AcDbEntity
  8
0
100
AcDbVertex
100
AcDb2dVertex
 10
30.1699223997519
 20
18.06576804835532
 30
0.0
 42
-0.100602470618071
  0
VERTEX
  5
1D6
330
1D4
100
AcDbEntity
  8
0
100
AcDbVertex
100
AcDb2dVertex
 10
30.78826704359358
 20
18.87197833068518
 30
0.0
 42
-0.1304846760931796
  0
VERTEX
  5
1D7
330
1D4
100
AcDbEntity
  8
0
100
AcDbVertex
100
AcDb2dVertex
 10
31.46824632867947
 20
19.20590141285305
 30
0.0
 42
-0.0179132293094006
  0
VERTEX
  5
1D8
330
1D4
100
AcDbEntity
  8
0
100
AcDbVertex
100
AcDb2dVertex
 10
32.13792817741154
 20
19.31477083527397
 30
0.0
 42
-0.0596171256545286
  0
VERTEX
  5
1D9
330
1D4
100
AcDbEntity
  8
0
100
AcDbVertex
100
AcDb2dVertex
 10
32.32516269145526
 20
19.31593977148918
 30
0.0
 42
-0.0141904674708009
  0
VERTEX
  5
1DA
330
1D4
100
AcDbEntity
  8
0
100
AcDbVertex
100
AcDb2dVertex
 10
32.79220634297849
 20
19.24953748535142
 30
0.0
 42
-0.0081695280594905
  0
VERTEX
  5
1DB
330
1D4
100
AcDbEntity
  8
0
100
AcDbVertex
100
AcDb2dVertex
 10
33.60256561250662
 20
19.09709258832299
 30
0.0
 42
-0.0146876315961921
  0
VERTEX
  5
1DC
330
1D4
100
AcDbEntity
  8
0
100
AcDbVertex
100
AcDb2dVertex
 10
33.82866178776766
 20
19.0437579053268
 30
0.0
 42
-0.0234338856978413
  0
VERTEX
  5
1DD
330
1D4
100
AcDbEntity
  8
0
100
AcDbVertex
100
AcDb2dVertex
 10
35.08525528814386
 20
18.64415635773986
 30
0.0
 42
-0.0078405415920246
  0
SEQEND
  5
1DE
330
1D4
100
AcDbEntity
  8
0
  0
POLYLINE
  5
1DF
330
2
100
AcDbEntity
  8
0
100
AcDb2dPolyline
 66
     1
 10
0.0
 20
0.0
 30
0.0
  0
VERTEX
  5
1E0
330
1DF
100
AcDbEntity
  8
0
100
AcDbVertex
100
AcDb2dVertex
 10
23.33685236988111
 20
11.92266030249993
 30
0.0
 42
-0.0097099423530121
  0
VERTEX
  5
1E1
330
1DF
100
AcDbEntity
  8
0
100
AcDbVertex
100
AcDb2dVertex
 10
23.48883141672661
 20
13.64226157600234
 30
0.0
 42
-0.081045645706284
  0
VERTEX
  5
1E2
330
1DF
100
AcDbEntity
  8
0
100
AcDbVertex
100
AcDb2dVertex
 10
23.76148631193996
 20
14.5146129927503
 30
0.0
 42
-0.0217749119238539
  0
VERTEX
  5
1E3
330
1DF
100
AcDbEntity
  8
0
100
AcDbVertex
100
AcDb2dVertex
 10
24.65524520843633
 20
16.11916525642397
 30
0.0
 42
-0.024029778683436
  0
VERTEX
  5
1E4
330
1DF
100
AcDbEntity
  8
0
100
AcDbVertex
100
AcDb2dVertex
 10
25.59482843287219
 20
17.49312234471182
 30
0.0
 42
-0.0269578250493995
  0
VERTEX
  5
1E5
330
1DF
100
AcDbEntity
  8
0
100
AcDbVertex
100
AcDb2dVertex
 10
26.75657800318556
 20
18.86748680474432
 30
0.0
 42
-0.0501588725485598
  0
VERTEX
  5
1E6
330
1DF
100
AcDbEntity
  8
0
100
AcDbVertex
100
AcDb2dVertex
 10
27.48826498516138
 20
19.50265466158117
 30
0.0
 42
-0.1007759733468412
  0
VERTEX
  5
1E7
330
1DF
100
AcDbEntity
  8
0
100
AcDbVertex
100
AcDb2dVertex
 10
28.21490965126827
 20
19.82175990850283
 30
0.0
 42
-0.1068128346704971
  0
VERTEX
  5
1E8
330
1DF
100
AcDbEntity
  8
0
100
AcDbVertex
100
AcDb2dVertex
 10
28.96460935680193
 20
19.82183571008778
 30
0.0
 42
-0.0973345706985054
  0
VERTEX
  5
1E9
330
1DF
100
AcDbEntity
  8
0
100
AcDbVertex
100
AcDb2dVertex
 10
29.41699741467551
 20
19.62694560419737
 30
0.0
 42
-0.1029596574338274
  0
VERTEX
  5
1EA
330
1DF
100
AcDbEntity
  8
0
100
AcDbVertex
100
AcDb2dVertex
 10
29.73977286634158
 20
19.2905689474415
 30
0.0
 42
-0.1452186910174186
  0
VERTEX
  5
1EB
330
1DF
100
AcDbEntity
  8
0
100
AcDbVertex
100
AcDb2dVertex
 10
29.85933203713319
 20
18.86049343658078
 30
0.0
 42
-0.1235969589601585
  0
VERTEX
  5
1EC
330
1DF
100
AcDbEntity
  8
0
100
AcDbVertex
100
AcDb2dVertex
 10
29.72364607932707
 20
18.35696607866839
 30
0.0
 42
-0.1235969589601585
  0
SEQEND
  5
1ED
330
1DF
100
AcDbEntity
  8
0
  0
POLYLINE
  5
1EE
330
2
100
AcDbEntity
  8
0
100
AcDb2dPolyline
 66
     1
 10
0.0
 20
0.0
 30
0.0
  0
VERTEX
  5
1EF
330
1EE
100
AcDbEntity
  8
0
100
AcDbVertex
100
AcDb2dVertex
 10
23.56078822343636
 20
13.7137624174515
 30
0.0
 42
-0.0016009215248785
  0
VERTEX
  5
1F0
330
1EE
100
AcDbEntity
  8
0
100
AcDbVertex
100
AcDb2dVertex
 10
23.75407831824873
 20
14.0522216479506
 30
0.0
 42
-0.0048444187042601
  0
VERTEX
  5
1F1
330
1EE
100
AcDbEntity
  8
0
100
AcDbVertex
100
AcDb2dVertex
 10
23.82615120697744
 20
14.17472983951325
 30
0.0
 42
-0.0109042884406211
  0
VERTEX
  5
1F2
330
1EE
100
AcDbEntity
  8
0
100
AcDbVertex
100
AcDb2dVertex
 10
24.96738956925094
 20
15.98184926822455
 30
0.0
 42
-0.0094061727837087
  0
VERTEX
  5
1F3
330
1EE
100
AcDbEntity
  8
0
100
AcDbVertex
100
AcDb2dVertex
 10
26.37543194715664
 20
18.02286963287287
 30
0.0
 42
-0.0594959512797083
  0
VERTEX
  5
1F4
330
1EE
100
AcDbEntity
  8
0
100
AcDbVertex
100
AcDb2dVertex
 10
27.14240714850286
 20
18.86022112902287
 30
0.0
 42
-0.0626672909161199
  0
VERTEX
  5
1F5
330
1EE
100
AcDbEntity
  8
0
100
AcDbVertex
100
AcDb2dVertex
 10
28.03835768990501
 20
19.45391920642009
 30
0.0
 42
-0.1729182134589028
  0
VERTEX
  5
1F6
330
1EE
100
AcDbEntity
  8
0
100
AcDbVertex
100
AcDb2dVertex
 10
28.91512630355692
 20
19.55749891007883
 30
0.0
 42
-0.2306163698543421
  0
VERTEX
  5
1F7
330
1EE
100
AcDbEntity
  8
0
100
AcDbVertex
100
AcDb2dVertex
 10
29.40012144413555
 20
19.16677223059901
 30
0.0
 42
-0.1172154265760446
  0
VERTEX
  5
1F8
330
1EE
100
AcDbEntity
  8
0
100
AcDbVertex
100
AcDb2dVertex
 10
29.4565444068225
 20
18.89670366194843
 30
0.0
 42
-0.091594162847079
  0
VERTEX
  5
1F9
330
1EE
100
AcDbEntity
  8
0
100
AcDbVertex
100
AcDb2dVertex
 10
29.38822828244071
 20
18.57632040069495
 30
0.0
 42
-0.0983634136772272
  0
SEQEND
  5
1FA
330
1EE
100
AcDbEntity
  8
0
  0
POLYLINE
  5
1FB
330
2
100
AcDbEntity
  8
0
100
AcDb2dPolyline
 66
     1
 10
0.0
 20
0.0
 30
0.0
  0
VERTEX
  5
1FC
330
1FB
100
AcDbEntity
  8
0
100
AcDbVertex
100
AcDb2dVertex
 10
23.41876710736932
 20
13.46182458253196
 30
0.0
 42
-0.0005254902135228
  0
VERTEX
  5
1FD
330
1FB
100
AcDbEntity
  8
0
100
AcDbVertex
100
AcDb2dVertex
 10
23.48144489405706
 20
13.57335676926737
 30
0.0
 42
-0.0048444187042601
  0
SEQEND
  5
1FE
330
1FB
100
AcDbEntity
  8
0
  0
POLYLINE
  5
1FF
330
2
100
AcDbEntity
  8
0
100
AcDb2dPolyline
 66
     1
 10
0.0
 20
0.0
 30
0.0
  0
VERTEX
  5
200
330
1FF
100
AcDbEntity
  8
0
100
AcDbVertex
100
AcDb2dVertex
 10
23.3967107026952
 20
11.91853962382794
 30
0.0
 42
-0.0097042320385837
  0
VERTEX
  5
201
330
1FF
100
AcDbEntity
  8
0
100
AcDbVertex
100
AcDb2dVertex
 10
23.54837576926383
 20
13.6348117864747
 30
0.0
 42
-0.0809547164942278
  0
VERTEX
  5
202
330
1FF
100
AcDbEntity
  8
0
100
AcDbVertex
100
AcDb2dVertex
 10
23.81512448887526
 20
14.48772533805419
 30
0.0
 42
-0.0217749119238539
  0
VERTEX
  5
203
330
1FF
100
AcDbEntity
  8
0
100
AcDbVertex
100
AcDb2dVertex
 10
24.70634154255674
 20
16.08771426853081
 30
0.0
 42
-0.0240297786834359
  0
VERTEX
  5
204
330
1FF
100
AcDbEntity
  8
0
100
AcDbVertex
100
AcDb2dVertex
 10
25.64267119342531
 20
17.45691364047297
 30
0.0
 42
-0.0269578250493995
  0
VERTEX
  5
205
330
1FF
100
AcDbEntity
  8
0
100
AcDbVertex
100
AcDb2dVertex
 10
26.800247089967
 20
18.8263405915568
 30
0.0
 42
-0.0501588725485582
  0
VERTEX
  5
206
330
1FF
100
AcDbEntity
  8
0
100
AcDbVertex
100
AcDb2dVertex
 10
27.52286619568639
 20
19.45363674414068
 30
0.0
 42
-0.1007759733468377
  0
VERTEX
  5
207
330
1FF
100
AcDbEntity
  8
0
100
AcDbVertex
100
AcDb2dVertex
 10
28.22758853554768
 20
19.76311482436585
 30
0.0
 42
-0.1068128346704911
  0
VERTEX
  5
208
330
1FF
100
AcDbEntity
  8
0
100
AcDbVertex
100
AcDb2dVertex
 10
28.95194233190415
 20
19.76318806324463
 30
0.0
 42
-0.0973345706985059
  0
VERTEX
  5
209
330
1FF
100
AcDbEntity
  8
0
100
AcDbVertex
100
AcDb2dVertex
 10
29.38307761035281
 20
19.57745371723894
 30
0.0
 42
-0.1029596574338338
  0
VERTEX
  5
20A
330
1FF
100
AcDbEntity
  8
0
100
AcDbVertex
100
AcDb2dVertex
 10
29.68892387305522
 20
19.2587196164946
 30
0.0
 42
-0.1452186910174005
  0
VERTEX
  5
20B
330
1FF
100
AcDbEntity
  8
0
100
AcDbVertex
100
AcDb2dVertex
 10
29.79934098656418
 20
18.86152970470687
 30
0.0
 42
-0.1235969589601573
  0
VERTEX
  5
20C
330
1FF
100
AcDbEntity
  8
0
100
AcDbVertex
100
AcDb2dVertex
 10
29.67125697524711
 20
18.38621298916672
 30
0.0
 42
-0.1235969589601573
  0
SEQEND
  5
20D
330
1FF
100
AcDbEntity
  8
0
  0
ARC
  5
20E
330
2
100
AcDbEntity
  8
0
100
AcDbCircle
 10
23.85888366728864
 20
11.88659225618886
 30
0.0
 40
0.5232758158348991
100
AcDbArc
 50
176.0476165128797
 51
207.9654992701228
  0
ELLIPSE
  5
20F
330
2
100
AcDbEntity
  8
0
100
AcDbEllipse
 10
23.7683805194971
 20
11.55042187525265
 30
0.0
 11
0.0069126767367607
 21
0.2626853982696957
 31
0.0
210
0.0
220
0.0
230
1.0
 40
0.6665476738279229
 41
2.14015634691585
 42
6.71586156097118
  0
ELLIPSE
  5
210
330
2
100
AcDbEntity
  8
0
100
AcDbEllipse
 10
29.31302009593992
 20
19.48942072113669
 30
0.0
 11
-0.1119174198959172
 21
-0.203151195902592
 31
0.0
210
0.0
220
0.0
230
1.0
 40
0.6966377084348001
 41
2.317372192700862
 42
7.034536058231037
  0
ELLIPSE
  5
211
330
2
100
AcDbEntity
  8
0
100
AcDbEllipse
 10
29.31302009593992
 20
19.48942072113669
 30
0.0
 11
-0.1119174198959172
 21
-0.203151195902592
 31
0.0
210
0.0
220
0.0
230
1.0
 40
0.6966377084348001
 41
7.73475301788097
 42
8.253397697438867
  0
ELLIPSE
  5
212
330
2
100
AcDbEntity
  8
0
100
AcDbEllipse
 10
27.69132605971777
 20
19.44924336188802
 30
0.0
 11
0.1010612528625643
 21
-0.1903662191953117
 31
0.0
210
0.0
220
0.0
230
1.0
 40
0.6955370175134826
 41
2.395733646335067
 42
7.032737609202916
  0
ELLIPSE
  5
213
330
2
100
AcDbEntity
  8
0
100
AcDbEllipse
 10
27.69132605971777
 20
19.44924336188802
 30
0.0
 11
0.1010612528625643
 21
-0.1903662191953117
 31
0.0
210
0.0
220
0.0
230
1.0
 40
0.6955370175134826
 41
7.82116960028383
 42
8.325825373755158
  0
ELLIPSE
  5
214
330
2
100
AcDbEntity
  8
0
100
AcDbEllipse
 10
25.67319811694347
 20
17.33738647485125
 30
0.0
 11
0.1010612528625643
 21
-0.1903662191953117
 31
0.0
210
0.0
220
0.0
230
1.0
 40
0.6955370175134826
 41
2.748532290041686
 42
7.136116222256498
  0
ELLIPSE
  5
215
330
2
100
AcDbEntity
  8
0
100
AcDbEllipse
 10
25.67319811694347
 20
17.33738647485125
 30
0.0
 11
0.1010612528625643
 21
-0.1903662191953117
 31
0.0
210
0.0
220
0.0
230
1.0
 40
0.6955370175134826
 41
8.059929204959992
 42
8.654263675591103
  0
ELLIPSE
  5
216
330
2
100
AcDbEntity
  8
0
100
AcDbEllipse
 10
24.46952470427539
 20
15.49810398587277
 30
0.0
 11
0.1010612528625643
 21
-0.1903662191953117
 31
0.0
210
0.0
220
0.0
230
1.0
 40
0.6955370175134826
 41
2.895213874771019
 42
7.368341267273701
  0
ELLIPSE
  5
217
330
2
100
AcDbEntity
  8
0
100
AcDbEllipse
 10
24.46952470427539
 20
15.49810398587277
 30
0.0
 11
0.1010612528625643
 21
-0.1903662191953117
 31
0.0
210
0.0
220
0.0
230
1.0
 40
0.6955370175134826
 41
8.212141231175476
 42
8.776636995203439
  0
ELLIPSE
  5
218
330
2
100
AcDbEntity
  8
0
100
AcDbEllipse
 10
28.24570141823597
 20
17.62262530535889
 30
0.0
 11
0.0461151236725073
 21
0.3117011168327508
 31
0.0
210
0.0
220
0.0
230
1.0
 40
0.6954434584115975
 41
1.806710083173815
 42
7.015414053598486
  0
ELLIPSE
  5
219
330
2
100
AcDbEntity
  8
0
100
AcDbEllipse
 10
28.15395428170996
 20
17.20108402134127
 30
0.0
 11
0.0281229055792665
 21
0.1398270286443903
 31
0.0
210
0.0
220
0.0
230
1.0
 40
0.5958825818481191
 41
0.0
 42
6.283185307179586
  0
ARC
  5
21A
330
2
100
AcDbEntity
  8
0
100
AcDbCircle
 10
19.61796843436326
 20
18.79847564965689
 30
0.0
 40
8.67908441929438
100
AcDbArc
 50
300.1708019592548
 51
348.4605684668725
  0
ELLIPSE
  5
21B
330
2
100
AcDbEntity
  8
0
100
AcDbEllipse
 10
23.88241846801344
 20
11.29637824169577
 30
0.0
 11
-0.0974737781851012
 21
0.0017349511569264
 31
0.0
210
0.0
220
0.0
230
1.0
 40
0.6279380108771444
 41
0.0
 42
6.283185307179586
  0
ENDSEC
  0
SECTION
  2
OBJECTS
  0
DICTIONARY
  5
9
330
0
100
AcDbDictionary
281
     1
  3
ACAD_COLOR
350
3E
  3
ACAD_GROUP
350
35
  3
ACAD_LAYOUT
350
16
  3
ACAD_MATERIAL
350
B
  3
ACAD_MLEADERSTYLE
350
41
  3
ACAD_MLINESTYLE
350
36
  3
ACAD_PLOTSETTINGS
350
37
  3
ACAD_PLOTSTYLENAME
350
8
  3
ACAD_SCALELIST
350
3F
  3
ACAD_TABLESTYLE
350
40
  3
ACAD_VISUALSTYLE
350
2B
  3
ACDB_RECOMPOSE_DATA
350
22A
  3
AcDbVariableDictionary
350
21C
  3
AcDsDecomposeData
350
230
  0
DICTIONARY
  5
1E
330
1D
100
AcDbDictionary
280
     1
281
     1
  3
ACAD_LAYERSTATES
360
1F
  0
DICTIONARY
  5
6
330
5
100
AcDbDictionary
280
     1
281
     1
  0
DICTIONARY
  5
3
330
2
100
AcDbDictionary
280
     1
281
     1
  0
DICTIONARY
  5
3E
102
{ACAD_REACTORS
330
9
102
}
330
9
100
AcDbDictionary
281
     1
  0
DICTIONARY
  5
35
102
{ACAD_REACTORS
330
9
102
}
330
9
100
AcDbDictionary
281
     1
  0
DICTIONARY
  5
16
102
{ACAD_REACTORS
330
9
102
}
330
9
100
AcDbDictionary
281
     1
  3
Model
350
15
  3
レイアウト1
350
1C
  0
DICTIONARY
  5
B
102
{ACAD_REACTORS
330
9
102
}
330
9
100
AcDbDictionary
281
     1
  3
ByBlock
350
3B
  3
ByLayer
350
38
  3
Global
350
A
  0
DICTIONARY
  5
41
102
{ACAD_REACTORS
330
9
102
}
330
9
100
AcDbDictionary
281
     1
  0
DICTIONARY
  5
36
102
{ACAD_REACTORS
330
9
102
}
330
9
100
AcDbDictionary
281
     1
  3
Standard
350
42
  0
DICTIONARY
  5
37
102
{ACAD_REACTORS
330
9
102
}
330
9
100
AcDbDictionary
281
     1
  0
ACDBDICTIONARYWDFLT
  5
8
102
{ACAD_REACTORS
330
9
102
}
330
9
100
AcDbDictionary
281
     1
  3
Normal
350
7
100
AcDbDictionaryWithDefault
340
7
  0
DICTIONARY
  5
3F
102
{ACAD_REACTORS
330
9
102
}
330
9
100
AcDbDictionary
281
     1
  3
A0
350
47
  3
A1
350
48
  3
A2
350
49
  3
A3
350
4A
  3
A4
350
4B
  3
A5
350
4C
  3
A6
350
4D
  3
A7
350
4E
  3
A8
350
4F
  3
A9
350
50
  3
B0
350
51
  3
B1
350
52
  3
B2
350
53
  3
B3
350
54
  3
B4
350
55
  3
B5
350
56
  3
B6
350
57
  0
DICTIONARY
  5
40
102
{ACAD_REACTORS
330
9
102
}
330
9
100
AcDbDictionary
281
     1
  3
Standard
350
43
  0
DICTIONARY
  5
2B
102
{ACAD_REACTORS
330
9
102
}
330
9
100
AcDbDictionary
281
     1
  3
2dWireframe
350
2A
  3
Realistic
350
45
  3
Wireframe
350
46
  0
XRECORD
  5
22A
102
{ACAD_REACTORS
330
9
102
}
330
9
100
AcDbXrecord
280
     1
 90
        1
330
43
  0
DICTIONARY
  5
21C
102
{ACAD_REACTORS
330
9
102
}
330
9
100
AcDbDictionary
281
     1
  3
CANNOSCALE
350
222
  3
CMLEADERSTYLE
350
21E
  3
CTABLESTYLE
350
21D
  3
CVIEWDETAILSTYLE
350
21F
  3
CVIEWSECTIONSTYLE
350
220
  3
LAYEREVAL
350
224
  3
LAYERNOTIFY
350
225
  3
LIGHTINGUNITS
350
223
  3
MSLTSCALE
350
221
  3
PSOLHEIGHT
350
227
  3
PSOLWIDTH
350
226
  3
XCLIPFRAME
350
228
  0
DICTIONARY
  5
230
102
{ACAD_REACTORS
330
9
102
}
330
9
100
AcDbDictionary
281
     1
  3
AcDsRecords
350
232
  3
AcDsSchemas
350
231
1001
ACAD
1070
     2
  0
DICTIONARY
  5
1F
102
{ACAD_REACTORS
330
1E
102
}
330
1E
100
AcDbDictionary
281
     1
  0
LAYOUT
  5
15
102
{ACAD_XDICTIONARY
360
17
102
}
102
{ACAD_REACTORS
330
16
102
}
330
16
100
AcDbPlotSettings
  1

  2
none_device
  4
ISO_A4_(210.00_x_297.00_MM)
  6

 40
7.5
 41
20.0
 42
7.5
 43
20.0
 44
210.0
 45
297.0
 46
11.54999923706054
 47
-13.65000009536743
 48
0.0
 49
0.0
140
0.0
141
0.0
142
1.0
143
8.704084754739808
 70
 11952
 72
     1
 73
     0
 74
     0
  7

 75
     0
147
0.1148885871608098
 76
     0
 77
     2
 78
   300
148
0.0
149
0.0
100
AcDbLayout
  1
Model
 70
     1
 71
     0
 10
0.0
 20
0.0
 11
12.0
 21
9.0
 12
0.0
 22
0.0
 32
0.0
 14
0.0
 24
0.0
 34
0.0
 15
0.0
 25
0.0
 35
0.0
146
0.0
 13
0.0
 23
0.0
 33
0.0
 16
1.0
 26
0.0
 36
0.0
 17
0.0
 27
1.0
 37
0.0
 76
     0
330
2
331
29
1001
ACAD_PSEXT
1000
None
1000
None
1000
Not applicable
1000
The layout will not be plotted unless a new plotter configuration name is selected.
1070
     0
  0
LAYOUT
  5
1C
102
{ACAD_REACTORS
330
16
102
}
330
16
100
AcDbPlotSettings
  1

  2
C:\Documents and Settings\basas\Application Data\Autodesk\AutoCAD 2005\R16.1\enu\plotters\Default Windows System Printer.pc3
  4

  6

 40
0.0
 41
0.0
 42
0.0
 43
0.0
 44
0.0
 45
0.0
 46
0.0
 47
0.0
 48
0.0
 49
0.0
140
0.0
141
0.0
142
1.0
143
1.0
 70
   688
 72
     0
 73
     0
 74
     5
  7

 75
    16
147
1.0
 76
     0
 77
     2
 78
   300
148
0.0
149
0.0
100
AcDbLayout
  1
レイアウト1
 70
     1
 71
     1
 10
0.0
 20
0.0
 11
12.0
 21
9.0
 12
0.0
 22
0.0
 32
0.0
 14
0.0
 24
0.0
 34
0.0
 15
0.0
 25
0.0
 35
0.0
146
0.0
 13
0.0
 23
0.0
 33
0.0
 16
1.0
 26
0.0
 36
0.0
 17
0.0
 27
1.0
 37
0.0
 76
     0
330
19
  0
MATERIAL
  5
3B
102
{ACAD_XDICTIONARY
360
3C
102
}
102
{ACAD_REACTORS
330
B
102
}
330
B
100
AcDbMaterial
  1
ByBlock
  0
MATERIAL
  5
38
102
{ACAD_XDICTIONARY
360
39
102
}
102
{ACAD_REACTORS
330
B
102
}
330
B
100
AcDbMaterial
  1
ByLayer
  0
MATERIAL
  5
A
102
{ACAD_XDICTIONARY
360
C
102
}
102
{ACAD_REACTORS
330
B
102
}
330
B
100
AcDbMaterial
  1
Global
 43
0.0007999999797903
 43
0.0
 43
0.0
 43
0.0
 43
0.0
 43
0.0007999999797903
 43
0.0
 43
0.0
 43
0.0
 43
0.0
 43
1.0
 43
0.0
 43
0.0
 43
0.0
 43
0.0
 43
1.0
 49
0.0007999999797903
 49
0.0
 49
0.0
 49
0.0
 49
0.0
 49
0.0007999999797903
 49
0.0
 49
0.0
 49
0.0
 49
0.0
 49
1.0
 49
0.0
 49
0.0
 49
0.0
 49
0.0
 49
1.0
142
0.0007999999797903
142
0.0
142
0.0
142
0.0
142
0.0
142
0.0007999999797903
142
0.0
142
0.0
142
0.0
142
0.0
142
1.0
142
0.0
142
0.0
142
0.0
142
0.0
142
1.0
144
0.0007999999797903
144
0.0
144
0.0
144
0.0
144
0.0
144
0.0007999999797903
144
0.0
144
0.0
144
0.0
144
0.0
144
1.0
144
0.0
144
0.0
144
0.0
144
0.0
144
1.0
1001
ACAD
1070
    -1
1070
     3
1070
     0
1000

1071
        0
1070
     0
  0
MLINESTYLE
  5
42
102
{ACAD_REACTORS
330
36
102
}
330
36
100
AcDbMlineStyle
  2
STANDARD
 70
     0
  3

 62
   256
 51
90.0
 52
90.0
 71
     2
 49
0.5
 62
   256
  6
BYLAYER
 49
-0.5
 62
   256
  6
BYLAYER
  0
ACDBPLACEHOLDER
  5
7
102
{ACAD_REACTORS
330
8
102
}
330
8
  0
SCALE
  5
47
102
{ACAD_REACTORS
330
3F
102
}
330
3F
100
AcDbScale
 70
     0
300
1:1
140
1.0
141
1.0
290
     1
  0
SCALE
  5
48
102
{ACAD_REACTORS
330
3F
102
}
330
3F
100
AcDbScale
 70
     0
300
1:2
140
1.0
141
2.0
290
     0
  0
SCALE
  5
49
102
{ACAD_REACTORS
330
3F
102
}
330
3F
100
AcDbScale
 70
     0
300
1:4
140
1.0
141
4.0
290
     0
  0
SCALE
  5
4A
102
{ACAD_REACTORS
330
3F
102
}
330
3F
100
AcDbScale
 70
     0
300
1:5
140
1.0
141
5.0
290
     0
  0
SCALE
  5
4B
102
{ACAD_REACTORS
330
3F
102
}
330
3F
100
AcDbScale
 70
     0
300
1:8
140
1.0
141
8.0
290
     0
  0
SCALE
  5
4C
102
{ACAD_REACTORS
330
3F
102
}
330
3F
100
AcDbScale
 70
     0
300
1:10
140
1.0
141
10.0
290
     0
  0
SCALE
  5
4D
102
{ACAD_REACTORS
330
3F
102
}
330
3F
100
AcDbScale
 70
     0
300
1:16
140
1.0
141
16.0
290
     0
  0
SCALE
  5
4E
102
{ACAD_REACTORS
330
3F
102
}
330
3F
100
AcDbScale
 70
     0
300
1:20
140
1.0
141
20.0
290
     0
  0
SCALE
  5
4F
102
{ACAD_REACTORS
330
3F
102
}
330
3F
100
AcDbScale
 70
     0
300
1:30
140
1.0
141
30.0
290
     0
  0
SCALE
  5
50
102
{ACAD_REACTORS
330
3F
102
}
330
3F
100
AcDbScale
 70
     0
300
1:40
140
1.0
141
40.0
290
     0
  0
SCALE
  5
51
102
{ACAD_REACTORS
330
3F
102
}
330
3F
100
AcDbScale
 70
     0
300
1:50
140
1.0
141
50.0
290
     0
  0
SCALE
  5
52
102
{ACAD_REACTORS
330
3F
102
}
330
3F
100
AcDbScale
 70
     0
300
1:100
140
1.0
141
100.0
290
     0
  0
SCALE
  5
53
102
{ACAD_REACTORS
330
3F
102
}
330
3F
100
AcDbScale
 70
     0
300
2:1
140
2.0
141
1.0
290
     0
  0
SCALE
  5
54
102
{ACAD_REACTORS
330
3F
102
}
330
3F
100
AcDbScale
 70
     0
300
4:1
140
4.0
141
1.0
290
     0
  0
SCALE
  5
55
102
{ACAD_REACTORS
330
3F
102
}
330
3F
100
AcDbScale
 70
     0
300
8:1
140
8.0
141
1.0
290
     0
  0
SCALE
  5
56
102
{ACAD_REACTORS
330
3F
102
}
330
3F
100
AcDbScale
 70
     0
300
10:1
140
10.0
141
1.0
290
     0
  0
SCALE
  5
57
102
{ACAD_REACTORS
330
3F
102
}
330
3F
100
AcDbScale
 70
     0
300
100:1
140
100.0
141
1.0
290
     0
  0
TABLESTYLE
  5
43
102
{ACAD_XDICTIONARY
360
44
102
}
102
{ACAD_REACTORS
330
40
102
}
330
40
100
AcDbTableStyle
  3
Standard
 70
     0
 71
     0
 40
1.5
 41
1.5
280
     0
281
     0
  7
Standard
140
4.5
170
     2
 62
     0
 63
     7
283
     0
274
    -2
284
     1
 64
     0
275
    -2
285
     1
 65
     0
276
    -2
286
     1
 66
     0
277
    -2
287
     1
 67
     0
278
    -2
288
     1
 68
     0
279
    -2
289
     1
 69
     0
  7
Standard
140
6.0
170
     5
 62
     0
 63
     7
283
     0
274
    -2
284
     1
 64
     0
275
    -2
285
     1
 65
     0
276
    -2
286
     1
 66
     0
277
    -2
287
     1
 67
     0
278
    -2
288
     1
 68
     0
279
    -2
289
     1
 69
     0
  7
Standard
140
4.5
170
     5
 62
     0
 63
     7
283
     0
274
    -2
284
     1
 64
     0
275
    -2
285
     1
 65
     0
276
    -2
286
     1
 66
     0
277
    -2
287
     1
 67
     0
278
    -2
288
     1
 68
     0
279
    -2
289
     1
 69
     0
  0
VISUALSTYLE
  5
2A
102
{ACAD_XDICTIONARY
360
234
102
}
102
{ACAD_REACTORS
330
2B
102
}
330
2B
100
AcDbVisualStyle
  2
2dWireframe
 70
     4
 71
     0
 72
     2
 73
     1
 90
        0
 40
-0.6
 41
-30.0
 62
     5
 63
     7
421
 16777215
 74
     1
 91
        4
 64
     7
 65
   257
 75
     1
175
     1
 42
1.0
 92
        0
 66
   257
 43
1.0
 76
     1
 77
     6
 78
     2
 67
     7
 79
     5
170
     0
171
     0
290
     0
174
     0
 93
        1
 44
0.0
173
     0
291
     0
 45
0.0
1001
ACAD
1000
AcDbSavedByObjectVersion
1070
     0
  0
VISUALSTYLE
  5
45
102
{ACAD_XDICTIONARY
360
239
102
}
102
{ACAD_REACTORS
330
2B
102
}
330
2B
100
AcDbVisualStyle
  2
Realistic
 70
     8
 71
     2
 72
     3
 73
     0
 90
        2
 40
-0.6
 41
30.0
 62
     5
 63
     7
421
 16777215
 74
     0
 91
        0
 64
     7
 65
   257
 75
     1
175
     1
 42
1.0
 92
        8
 66
   257
 43
1.0
 76
     1
 77
     6
 78
     2
 67
     7
 79
     3
170
     0
171
     0
290
     0
174
     0
 93
       13
 44
0.0
173
     0
291
     0
 45
0.0
1001
ACAD
1000
AcDbSavedByObjectVersion
1070
     0
  0
VISUALSTYLE
  5
46
102
{ACAD_XDICTIONARY
360
23B
102
}
102
{ACAD_REACTORS
330
2B
102
}
330
2B
100
AcDbVisualStyle
  2
Wireframe
 70
     5
 71
     0
 72
     2
 73
     0
 90
        0
 40
-0.6
 41
-30.0
 62
     5
 63
     7
421
 16777215
 74
     1
 91
        4
 64
     7
 65
   257
 75
     1
175
     1
 42
1.0
 92
        0
 66
   257
 43
1.0
 76
     1
 77
     6
 78
     2
 67
     7
 79
     3
170
     0
171
     0
290
     0
174
     0
 93
        1
 44
0.0
173
     0
291
     0
 45
0.0
1001
ACAD
1000
AcDbSavedByObjectVersion
1070
     0
  0
DICTIONARYVAR
  5
222
102
{ACAD_REACTORS
330
21C
102
}
330
21C
100
DictionaryVariables
280
     0
  1
1:1
  0
DICTIONARYVAR
  5
21E
102
{ACAD_REACTORS
330
21C
102
}
330
21C
100
DictionaryVariables
280
     0
  1
STANDARD
  0
DICTIONARYVAR
  5
21D
102
{ACAD_REACTORS
330
21C
102
}
330
21C
100
DictionaryVariables
280
     0
  1
STANDARD
  0
DICTIONARYVAR
  5
21F
102
{ACAD_REACTORS
330
21C
102
}
330
21C
100
DictionaryVariables
280
     0
  1

  0
DICTIONARYVAR
  5
220
102
{ACAD_REACTORS
330
21C
102
}
330
21C
100
DictionaryVariables
280
     0
  1

  0
DICTIONARYVAR
  5
224
102
{ACAD_REACTORS
330
21C
102
}
330
21C
100
DictionaryVariables
280
     0
  1
0
  0
DICTIONARYVAR
  5
225
102
{ACAD_REACTORS
330
21C
102
}
330
21C
100
DictionaryVariables
280
     0
  1
0
  0
DICTIONARYVAR
  5
223
102
{ACAD_REACTORS
330
21C
102
}
330
21C
100
DictionaryVariables
280
     0
  1
2
  0
DICTIONARYVAR
  5
221
102
{ACAD_REACTORS
330
21C
102
}
330
21C
100
DictionaryVariables
280
     0
  1
1
  0
DICTIONARYVAR
  5
227
102
{ACAD_REACTORS
330
21C
102
}
330
21C
100
DictionaryVariables
280
     0
  1
80.000000
  0
DICTIONARYVAR
  5
226
102
{ACAD_REACTORS
330
21C
102
}
330
21C
100
DictionaryVariables
280
     0
  1
5.000000
  0
DICTIONARYVAR
  5
228
102
{ACAD_REACTORS
330
21C
102
}
330
21C
100
DictionaryVariables
280
     0
  1
2
  0
DICTIONARY
  5
232
102
{ACAD_REACTORS
330
230
102
}
330
230
100
AcDbDictionary
281
     1
  0
DICTIONARY
  5
231
102
{ACAD_REACTORS
330
230
102
}
330
230
100
AcDbDictionary
281
     1
  3
1031826608
350
22B
  3
1031826624
350
22C
  3
1031826640
350
22D
  3
1031826656
350
22E
  3
1031826672
350
22F
  0
DICTIONARY
  5
17
330
15
100
AcDbDictionary
280
     1
281
     1
  0
DICTIONARY
  5
3C
330
3B
100
AcDbDictionary
280
     1
281
     1
  3
ACAD_XREC_ROUNDTRIP
360
237
  3
FBXASSET
360
3D
  0
DICTIONARY
  5
39
330
38
100
AcDbDictionary
280
     1
281
     1
  3
ACAD_XREC_ROUNDTRIP
360
236
  3
FBXASSET
360
3A
  0
DICTIONARY
  5
C
330
A
100
AcDbDictionary
280
     1
281
     1
  3
ACAD_XREC_ROUNDTRIP
360
233
  3
BUMPTILE
360
D
  3
DIFFUSETILE
360
E
  3
FBXASSET
360
F
  3
OPACITYTILE
360
10
  3
REFLECTIONTILE
360
11
  0
DICTIONARY
  5
44
330
43
100
AcDbDictionary
280
     1
281
     1
  3
ACAD_ROUNDTRIP_2008_TABLESTYLE_CELLSTYLEMAP
360
229
  3
ACAD_XREC_ROUNDTRIP
360
238
  0
DICTIONARY
  5
234
330
2A
100
AcDbDictionary
280
     1
281
     1
  3
ACAD_XREC_ROUNDTRIP
360
235
  0
DICTIONARY
  5
239
330
45
100
AcDbDictionary
280
     1
281
     1
  3
ACAD_XREC_ROUNDTRIP
360
23A
  0
DICTIONARY
  5
23B
330
46
100
AcDbDictionary
280
     1
281
     1
  3
ACAD_XREC_ROUNDTRIP
360
23C
  0
XRECORD
  5
22B
102
{ACAD_REACTORS
330
231
102
}
330
231
100
AcDbXrecord
280
     1
  1
AcDb_Thumbnail_Schema
102
{ATTRRECORD
341
22C
  2
AcDbDs::TreatedAsObjectData
280
     1
291
     1
102
ATTRRECORD}
102
{ATTRRECORD
341
22D
  2
AcDbDs::Legacy
280
     1
291
     1
102
ATTRRECORD}
  2
AcDbDs::ID
280
    10
 91
        8
102
{ATTRRECORD
341
22E
  2
AcDs:Indexable
280
     1
291
     1
102
ATTRRECORD}
102
{ATTRRECORD
341
22F
  2
AcDbDs::HandleAttribute
280
     7
282
     1
102
ATTRRECORD}
  2
Thumbnail_Data
280
    15
 91
        0
  0
XRECORD
  5
22C
102
{ACAD_REACTORS
330
231
102
}
330
231
100
AcDbXrecord
280
     1
  1
AcDbDs::TreatedAsObjectDataSchema
  2
AcDbDs::TreatedAsObjectData
280
     1
 91
        0
  0
XRECORD
  5
22D
102
{ACAD_REACTORS
330
231
102
}
330
231
100
AcDbXrecord
280
     1
  1
AcDbDs::LegacySchema
  2
AcDbDs::Legacy
280
     1
 91
        0
  0
XRECORD
  5
22E
102
{ACAD_REACTORS
330
231
102
}
330
231
100
AcDbXrecord
280
     1
  1
AcDbDs::IndexedPropertySchema
  2
AcDs:Indexable
280
     1
 91
        0
  0
XRECORD
  5
22F
102
{ACAD_REACTORS
330
231
102
}
330
231
100
AcDbXrecord
280
     1
  1
AcDbDs::HandleAttributeSchema
  2
AcDbDs::HandleAttribute
280
     7
 91
        1
284
     1
  0
XRECORD
  5
237
102
{ACAD_REACTORS
330
3C
102
}
330
3C
100
AcDbXrecord
280
     1
102
MATERIAL
148
0.0
149
0.0
149
0.0
 93
        0
 94
       63
282
     0
 72
     1
 77
     1
171
     1
175
     1
179
     1
273
     0
  0
XRECORD
  5
3D
102
{ACAD_REACTORS
330
3C
102
}
330
3C
100
AcDbXrecord
280
     1
 70
     1
 90
429727718
  1
D62C5603-E3A1-4AEA-B7FB-FE5D8D0755AF
310
504B03040A0000080000CC70623B3DEE336E79000000790000001B0000006175746F6465736B2D64657369676E2D7061636B6167652E786D6C3C3F786D6C2076657273696F6E3D22312E302220656E636F64696E673D227574662D3822203F3E3C666F726D6174733E3C666F726D61743E687474703A2F2F736368656D612E
310
6175746F6465736B2E636F6D2F64657369676E2D7061636B6167652F323030393C2F666F726D61743E3C2F666F726D6174733E504B0304140006080800CC70623BD486FD9CA0000000F4000000130000005B436F6E74656E745F54797065735D2E786D6C7D8EC10E82300C865F65E91D8A1E8C310C0EEA1BF002731658846E
310
D98AC1B77784ABF1D8FE5FBFBF75BBCE937A534CCEB38643598122B6FEE978D0B0485F9C41B54DDD7D022595594E1A469170414C76A4D9A4D207E29CF43ECE46F218070CC6BECC4078ACAA135ACF422C856C0E68EA1BF5669944DDD7BCDE7B1F8E415D77AECB980613C2E4AC91FC167A2B244592486606FC29C8FD7F045B9A
310
EF7053A7E60B504B0304140006080800CC70623B853B8169EB0000007C01000008000000636F72652E786D6C8D90416EC3201045AF62CDB6C206821CC7C244919D9CA01740401C94182C03558F5F9C3852BBEB6A467FFE9B197D7EFC9E1EC5975982F5AE035262288C535E5B377690E21535501C055FBC8FBF6C503839990E
310
5619041F179FE64D52DE45E362569DD7661365082642A11EB9E920A89B99642953CC8E702F67A9EE7234257977194EC9EAE275C4EABCCF5EAD5940D4AC6F0E35A568B8F43562CD7046CD199FD07E60174276A7BE677B5EADB0E0D14EEFFB6A31321A0D82627C4084204C3F096B71DD52F6819B16635EADF63F509AF53FA164
310
5DDCD1EDDD17164090FCC8732078B56691CB33A85CD7DCC40F504B0304140006080800CC70623B55019EA25F0000007C00000007000000636E782E786D6C4DCB3B0E80201045D1AD90E915ED2CF8AC45050C11660C8261F98AB1B07AC9C97D42D718D865D3E909258CFD00CCE24AC6E326A164D74DC0B4128928FF32603847
310
2BA13128B1252AC747C6BAB984FC68F0B87FE8960A5C09FE86CFB69FBA01504B0304140006080800CC70623BDBABAAF470010000D40300000C0000006662782F636F72652E786D6CC553D16E823014FD95A6AF4B694182CC941A83FA05FB810A9511A125A5257EFE2E82712ECEB8A7F100CD39F7F69E734AF9FADC366850B6
310
AF8DCE7018308C942E4C59EB2AC3DE1D498AD15A706B8CFB56869196ADCAF00863C12B6B7C374385D14E6907A836A59A41D9F7CA615434B0C8705F7CAA5606D23BA8E84F41278B93AC54100640439DE0BDB320004D43C63716C7C399D30917DCFBBA9CD9BA8469F5B156168B24CED3F7248AC8769F27244EB73B92EED8862C
310
B7F13E0C179B3C8F979C8ECD82BBBABDAA2BAC924E9558448CBD9330242CFA08E3154B5651FCC6D215639C8EE5774DBE2B5F6CF2B5768B68963BB5F5588420E442FC700B1139D4CB01F450C1E918227C2E09DF070D8140C84E1E9AAB8F1340832A9CB13130A5F1376A908D57309505ECF2A0DF179C4E9D30F5B239B87E3823
310
7A79C6F31DE1A8A5AEC08474B03C7837EAE4938639B44E5932B833D2C6B6B279CDC613877FA26EE21F4A2A4C63EC7F29A2F301D1F9F7A0E37D145F504B0304140006080800CC70623B9C113CC27E0000009D0000000B0000006662782F636E782E786D6C4DCCDF0A83201C86E15B91DFB94BFB330DD428C8FB886521330DA7
310
6397BF1A1DECE883878F57749FCDA1B7892F1BBC047A23808C7F84D9FA55424E0BE6803A256208E9EF06C84F9B91703228B1C690F78B66B34CD9A5439DF5CF0BFBF65E35BCA1B8D6A5C6F540381E886698B5741C695F9503EBA150A2F8958E3DC3EA0B504B0304140006080800CC70623B7DF2F77C2A010000120200003100
310
00006662782F41393633353835312D344632462D344230382D423046372D3739314545314133324237412F636F72652E786D6C8D51DB8EC22014FC15C2939B0D2DB4B45643319AE817EC0F6041255A68B86CFCFC856D4D76DF7CE190393373060EDB3DC707F856CE6B6B7A480A0C81328395DA5C7B18C3057510EC3873D686
310
3F34088C18550F330C39BB3A1BA7051AAC09CA84841A2BD5020AEF55806078A44B0FFD7053A328440C89E1EFC52486BBB8AA8214A99D789CF9E05200300FC927E4FB4D5B375D43103D5527440FB843077C5AA3F5861C8F645F5787F59E95B390B318B55CE45AA638FAA2957BD7248B390B7A7CC51F9C124149C82B8C378810
310
84AB2F42B7B8DD56F413775B8C5999E9FF4471926F8AA236A1AE96B8B3CC434E5839373893369E1FAF30EA395917409EB7F26AF8801C171837A4A6AC9C89E9F9C9B1A58BA30FD6A5EF5DDDCF894B9AD9B6A59C957943A9FCAE2FD5BC4DFE03504B0304140006080800CC70623BAD7543B64E01000033030000300000006662
310
782F41393633353835312D344632462D344230382D423046372D3739314545314133324237412F636E782E786D6CD593CD6EC32010845F0571AD6CE3D48AD20813A9873E410FBD12D82434182C7EAAE6EDBB2424CD25871E7B41D6EC30B3FA84F9E67BB2E40B4234DE8DB46F1925E094D7C6ED479AD3AE5951B2113C789FEE
310
6C943839C1488B4C05DF079FE72A69D8C96C13AAD6B8631503449F83828872B949AC57D26200B826A308D316B4064D6E46FCDA41C05550DC9E483A00797BFD207EFB092A45DE9514C1BBD22178396BD39D891265658C238DEA00936C654E5E433CB65A26D9F6EDB5EBC14EBF49A45CB856E66048291F6939A9A81BB5C89177
310
38143CA680F4AA299D66A042CEB3354A2684DC9D8D178FE0D9B8B41CAAD720F880EE7EF93C0C18769E099ECC04D5A102C8049A8A05632F4DDF376CF1DE0F6BB65C2F8627B65A33C6BB62177CEBBDAD973006829F89F22E814B54F4BC2BE347F8AA8F681390B50FA73F804400B5F542E796F19FF974E7F78DB802FE05E20750
310
4B0304140006080800CC70623BE75B7789680500003C100000340000006662782F41393633353835312D344632462D344230382D423046372D3739314545314133324237412F6F626A656374732E786D6CAD575B8F9B3818FD2B887D06C22499CB8AA1CA655245D5B455A356FB305264C061D8018C6C3393D95FBFC7600890
310
A4CD5EF210B0B1BFEBF98E3F7B1FF6596ABC522E1296DF9BAE3D320D9A872C4AF2F8DE2CE5CEBA358D0FBEC719939D65A691938CDE9B6ADAF4BD98B3B2D05311DD91329583D9D5FC0F438434A7A611A644887B5384CF34233629258BA878B12322891DEFF6B66BD70BFB62634E8AE781D082709A4B588AF91C528CDA28B73F
310
1C998EEF39EABBEFA97FBD6A7C7E9553F9D3D79FE442923C3C523610337627CB87ABE99D359D4CC6D6E4FACAB5E6ABF9D2726FC6A3C5F56271377BB88362213924694B38DD99FE47C48627A1E7D49F5A8BB5E1A74C0A599ED3B0F21F1E56366B89112D681E218F0915D0D6F17AD41FBA2A369DCF6335D62ABBD39779D5DDD1
310
11D4D8DE3CBB96B2E04FB8202E41051754A1AA8E8F76B4C6DFE810B580B1547F4B84911149794252234D024EF8BBE963A95AE27B3D310A9D5C215C7960FAEE415ED75694C6AFB17BCACA5D99A60A9AA65F217B0BFC53292ACB92BF283FAD0D3621576592CB5BED907C2FA8E9DF794E35E97BEA31BED21FEB401ABB94C44839
310
DCACBF0E1C5DA8DA5B2F4DFFD32AD86F543D9E565E7056502E157C00AD2671CD534549AB752FCA9CDA00677A313F04E51B22FF19E57B300579E3C97EB29F682D92935CEC18CF901B7B54FD8C51F362B56FC72FE0B3C1EAE335EDCCBF5AEC39ADB17DC238973F804BA5E6F6BFE7AF1FB32E523BE9F3BD571418E3631DCA4D48
310
5250CF639223210A9446CA30052EDF057BD35F8329C1ECD84552BF0DC8D18BE7BCE23BFE6BD960AB4A7DE79923A103BEBD80F911CBAA2C60DB19B01CF164A5583B772EE6D3FFA56666CBCDA74DC97724A48F9A58967497E489C4D979006FD7A05E227A1EBDD0F737C623387A9C844D3709995625106D157315F8B8392CD4E0
310
A0B9A720C4BE9829CEF37EA1E13111214D53925356365ADA634861B52519DD27A00AEB808EAF0628E6F435519D446F45CF2C9CF5214F0A15B2F6D06B79DA3EE3CBF7F56780D2F4E7EF73A0F5E5B02A38D07DC852C6B7C1FBB6664213E0C39E3EBA7FF4E1AD23EA2829407C85E586727488B751B2DB9502BC7B228A3FD68B6E
310
A65A22397E690AA8D158D7E404EC8CDA235CC3B7D1898680131CEC2CDF2638C65196279577750F15884AEE19F94199155B92B13297978469D4F8D358DF0AEF7631E28DC8F0D9F437D5D39A83B2231A1D52D543813A824EF8D44BCFF2FA6A31BD1E8DAD87F1CCB526B3879935BF59CDADD5C37479BB1CDD4CA7B3556B516589
310
EF352754B706114D9C885EC9131DE6EFEB43D99AFE2391C2F958179413D7CFEF6B1B6DB1E7600F00DE6E5C67454A339A4BA2E0FBA85ED26F045D454F463DBFCE484C2F90F2E5E3666003662ED8F755951A7D1BECD5B30B550B2785C8E7320B7292A4838DDA71BBC863ED7613CAF659337A3354231D4FF4A182A54904C2898C
310
98B28C4AD0CE056CCF332A80986E571EE9DBC305BB5FEB7E509220A58D25CF042D712A806AC0AD0C657FDEF80D2D9CEAA2EE4D1C76F60BFE74219A06527D6F82DF6412526107381E55E353090704D085B52408A8913C4ED159D79BDA71BB4BC506F4831350EB6F975CD22D69BF7AC49B91A2C0A9DDA3D5CA36AD20FC478E37
310
E61844E2352865EBCB61A275A65283CAAA9DD27703B4102F5AF51EF5F573B75CBB5AD38BC845F7A49F82A0966A49C2E3EA5EA0ECD326CD965F1DB402C6FA8B51A4658C5C5E2EC9E214602E55810345408596591009A82E7E7FFACA19EEA299B14A0081A705CB3296EBC14CDF658DCD336EA6D1136881AAEB87B81AB9EE53D5
310
F5EB8BC8362082DA24122F98680A4E7930C01A0079749CEA14382A0783E5EBA5A10F8C098456A03D6A4AEB6BB881E2513747552A5DB22C7EDAF83BD5528081A365F7FF06504B0304140006080000CC70623B000000000000000000000000350000006662782F41393633353835312D344632462D344230382D423046372D37
310
39314545314133324237412F76657274696365732E62696E504B0304140006080800CC70623BF270F1330600000004000000360000006662782F41393633353835312D344632462D344230382D423046372D3739314545314133324237412F747269616E676C65732E62696E636660600000504B0304140006080000CC7062
310
3B000000000000000000000000370000006662782F41393633353835312D344632462D344230382D423046372D3739314545314133324237412F617474726962757465732E62696E504B0304140006080800CC70623B08DA0BD19000000041010000360000006662782F41393633353835312D344632462D344230382D4230
310
46372D3739314545314133324237412F6469726563746F72792E786D6C858F410AC3201045AF22B36F53E9A60B35CBEEBAE80D244E44489C6234F4F835464A48035D0DF398FF9F8AF63D0E6CC63039F212F8F9020C7D47C6792B21C5FE7403D62A1188E2E60C98D7234A5830286103A55745067B9D86B8A3CF9C7F90C11DE6
310
07FB144396D7B6A82D282E9A152AD114D5EF2CB866EEE831B8EEA07A7BB5A8D7D61A2BAAEB7FD5F70921FF497D00504B0304140006080800CC70623BEDD1DC58FD000000A00100003B0000006662782F41393633353835312D344632462D344230382D423046372D3739314545314133324237412F7265736F75726365732F
310
636F72652E786D6C8D504B6E833010BD0A9A6D65B00922041947112427E8052C33A156828DFCA97AFC9A40A576D7CDCCE87D344F8F9FBFE667F689CE6B6B3A6039850C8DB2A336530731DC4903D95970676DF82583CCC8193B5861107C72362E3BA4AC096842428D1D7107A5F7182053CF7474E0D507CE32973124857FE48B
310
540F3961CEF244279DE03EB81420DB9EAC1384436FA353E879B1B182C7A8C75DA3C7F453DF353A1075D537A7BA6464B8F535A99AE14A9A2BBD90E350DD183B5CFABE3AF262350B1EF4FC9351399401471025A527C218A1E53BAB5A5AB765F5469B96525EACF23FA6B88CFF34456DC2A1DCE36E360F82A5202F42F062ED2BAD
310
579969AFDD8A6F504B010214000A0000080000CC70623B3DEE336E79000000790000001B00000000000000000000000000000000006175746F6465736B2D64657369676E2D7061636B6167652E786D6C504B01021400140006080800CC70623BD486FD9CA0000000F40000001300000000000000000000000000B20000005B
310
436F6E74656E745F54797065735D2E786D6C504B01021400140006080800CC70623B853B8169EB0000007C010000080000000000000000000000000083010000636F72652E786D6C504B01021400140006080800CC70623B55019EA25F0000007C000000070000000000000000000000000094020000636E782E786D6C504B
310
01021400140006080800CC70623BDBABAAF470010000D40300000C00000000000000000000000000180300006662782F636F72652E786D6C504B01021400140006080800CC70623B9C113CC27E0000009D0000000B00000000000000000000000000B20400006662782F636E782E786D6C504B01021400140006080800CC70
310
623B7DF2F77C2A010000120200003100000000000000000000000000590500006662782F41393633353835312D344632462D344230382D423046372D3739314545314133324237412F636F72652E786D6C504B01021400140006080800CC70623BAD7543B64E010000330300003000000000000000000000000000D2060000
310
6662782F41393633353835312D344632462D344230382D423046372D3739314545314133324237412F636E782E786D6C504B01021400140006080800CC70623BE75B7789680500003C10000034000000000000000000000000006E0800006662782F41393633353835312D344632462D344230382D423046372D3739314545
310
314133324237412F6F626A656374732E786D6C504B01021400140006080000CC70623B0000000000000000000000003500000000000000000000000000280E00006662782F41393633353835312D344632462D344230382D423046372D3739314545314133324237412F76657274696365732E62696E504B01021400140006
310
080800CC70623BF270F133060000000400000036000000000000000000000000007B0E00006662782F41393633353835312D344632462D344230382D423046372D3739314545314133324237412F747269616E676C65732E62696E504B01021400140006080000CC70623B0000000000000000000000003700000000000000
310
000000000000D50E00006662782F41393633353835312D344632462D344230382D423046372D3739314545314133324237412F617474726962757465732E62696E504B01021400140006080800CC70623B08DA0BD1900000004101000036000000000000000000000000002A0F00006662782F41393633353835312D344632
310
462D344230382D423046372D3739314545314133324237412F6469726563746F72792E786D6C504B01021400140006080800CC70623BEDD1DC58FD000000A00100003B000000000000000000000000000E1000006662782F41393633353835312D344632462D344230382D423046372D3739314545314133324237412F7265
310
736F75726365732F636F72652E786D6C504B0506000000000E000E0080040000641100000000
  0
XRECORD
  5
236
102
{ACAD_REACTORS
330
39
102
}
330
39
100
AcDbXrecord
280
     1
102
MATERIAL
148
0.0
149
0.0
149
0.0
 93
        0
 94
       63
282
     0
 72
     1
 77
     1
171
     1
175
     1
179
     1
273
     0
  0
XRECORD
  5
3A
102
{ACAD_REACTORS
330
39
102
}
330
39
100
AcDbXrecord
280
     1
 70
     1
 90
429727718
  1
30362254-06B7-45E0-A893-8CFA70E3D6BC
310
504B03040A0000080000CC70623B3DEE336E79000000790000001B0000006175746F6465736B2D64657369676E2D7061636B6167652E786D6C3C3F786D6C2076657273696F6E3D22312E302220656E636F64696E673D227574662D3822203F3E3C666F726D6174733E3C666F726D61743E687474703A2F2F736368656D612E
310
6175746F6465736B2E636F6D2F64657369676E2D7061636B6167652F323030393C2F666F726D61743E3C2F666F726D6174733E504B0304140006080800CC70623BD486FD9CA0000000F4000000130000005B436F6E74656E745F54797065735D2E786D6C7D8EC10E82300C865F65E91D8A1E8C310C0EEA1BF002731658846E
310
D98AC1B77784ABF1D8FE5FBFBF75BBCE937A534CCEB38643598122B6FEE978D0B0485F9C41B54DDD7D022595594E1A469170414C76A4D9A4D207E29CF43ECE46F218070CC6BECC4078ACAA135ACF422C856C0E68EA1BF5669944DDD7BCDE7B1F8E415D77AECB980613C2E4AC91FC167A2B244592486606FC29C8FD7F045B9A
310
EF7053A7E60B504B0304140006080800CC70623B1EC5D7A3EB0000007C01000008000000636F72652E786D6C8D90416EC3201045AF82665B6103C6756C6122AB4D4ED00B204C5C94182C03558F5F9C3852BBEB6A467FFE9B197D71FC9E6FE8CBACC17AD7032D0820E3B41FAD9B7A48F1820F808E52ACDEC75F36404ECDA687
310
4D0629A6D5A76597B477D1B89855E747B38B2A041301E95B6E7A08FAD3CCAA50296647B8168BD2573599823EBB0CA76447F43862C7BCCF5EAC59410E4DDD9C7973C2755553CCCFA4C603E3040F1565ED3B1FDE4E432BCA0D9622DAF9795FAF464533826484B498524CD807E51D79ED187F21878E10516EF63F505AC67F42C9
310
BA58B1FDDD071640D2FCC87D2045B96591CB3DA85CB7DCE40F504B0304140006080800CC70623B55019EA25F0000007C00000007000000636E782E786D6C4DCB3B0E80201045D1AD90E915ED2CF8AC45050C11660C8261F98AB1B07AC9C97D42D718D865D3E909258CFD00CCE24AC6E326A164D74DC0B4128928FF32603847
310
2BA13128B1252AC747C6BAB984FC68F0B87FE8960A5C09FE86CFB69FBA01504B0304140006080800CC70623B8C9102E971010000D40300000C0000006662782F636F72652E786D6CC5535B6E833010BC8AE5DF0A6C08340F1947A84D4ED00B38C6A128602363A31CBFCB234A53A551FA553EC09AD9F5CE8C31DB9E9B1AF5CA
310
7695D1198E428A91D2D214952E33ECDD315861B4E5CC1AE3BE9561A445A3323CC098B3D21ADFCE9034DA29ED00D5A6503328BA4E398C640D8B0C77F253352214DE4145770A5B214FA2546114020D759C75CE8200340D19DE981F0F6746269C33EFAB6266AB02A655C74A59CCF365BADC27CB5D902ED22848F6340DF238A141
310
BE88E2F57B92BFEDF23523433367AE6A2EEAA455C2A902F398D2751045018D3FA264435F3771F242571B4A1919CA6F9A7C5B3CD9E42BED16F12C776AEB308F40C848FC700B1139D4891EF410CEC810227CC6846F8386402064270EF5C5C709A05E49676C024C61FC95EA45ED154CA5211D1FF4FB8291A913A68E9B83EBBB33
310
E2A7673CDE118E5AE8124C0807CB8377834E366998436B950D7A7746DAD846D4CFD978E0F04FD455FC5D49D2D4C6FE9722321F10997F0F32DC47FE05504B0304140006080800CC70623BFFEA85907E0000009D0000000B0000006662782F636E782E786D6C4DCCD10A83201886E15B91FFDC95D95A811AB6F23E625948A6C3
310
E9D8E5AF46073BFAE0E1E365ED67B3E8ADC3CB78C7815C7240DA3DFC64DCC221C519D7805AC182F7F1EF06C88D9BE6703008B6049F9E274D7A1E938DBB5AE3D6131B2589BA0D3D965551E0B2EA732C9B9A624AAEB41E3A557677029960D9AFB4EF11165F504B0304140006080800CC70623B4FEEA4082C0100001202000031
310
0000006662782F39464131463745442D413632322D343644302D413938332D3331353338454246344243312F636F72652E786D6C8D515B6EC32010BC0AE2AB55850DD871ED0813254D72825EC00192A2C460F1A872FC42ED48ED5F7E00CDCECCCEB26C731F6FE05B39AFADE921293004CA082BB5B9F43086336A21D870E6AC
310
0D7F68109861543DCC30E4ECE26C9C164858139409093556AA051CBC570102714B8F1E7AF1A5C6A11862480C7F2DA6415C878B2A4891CA89C7990F2E050073937C42DE1DB7E4F87ED8A36D4329AA9B3D46DBAEAD504556557BD81DEBDD0761E52CE42C462D17B996298E3E6BE59E35C962CE821E1FF18553435012728A7187
310
0841987E927A8D9B35ADDF70BBC6989599FE4F1427F9A4286A132ABAC49D651EF234CD5CE04CDA78BA3DC2A8FB645D00B9DF8B57E215725C60BCA2A463E54C4CE327C7A65E1C7DB02E7DEFCBF594B864C5CA6CDBD49C957943E9FA5D5FBAF336F90F504B0304140006080800CC70623BAD7543B64E01000033030000300000
310
006662782F39464131463745442D413632322D343644302D413938332D3331353338454246344243312F636E782E786D6CD593CD6EC32010845F0571AD6CE3D48AD20813A9873E410FBD12D82434182C7EAAE6EDBB2424CD25871E7B41D6EC30B3FA84F9E67BB2E40B4234DE8DB46F1925E094D7C6ED479AD3AE5951B2113C
310
789FEE6C943839C1488B4C05DF079FE72A69D8C96C13AAD6B8631503449F83828872B949AC57D26200B826A308D316B4064D6E46FCDA41C05550DC9E483A00797BFD207EFB092A45DE9514C1BBD22178396BD39D891265658C238DEA00936C654E5E433CB65A26D9F6EDB5EBC14EBF49A45CB856E66048291F6939A9A81BB5
310
C8917738143CA680F4AA299D66A042CEB3354A2684DC9D8D178FE0D9B8B41CAAD720F880EE7EF93C0C18769E099ECC04D5A102C8049A8A05632F4DDF376CF1DE0F6BB65C2F8627B65A33C6BB62177CEBBDAD973006829F89F22E814B54F4BC2BE347F8AA8F681390B50FA73F804400B5F542E796F19FF974E7F78DB802FE05
310
E207504B0304140006080800CC70623B16AB87BA640500003C100000340000006662782F39464131463745442D413632322D343644302D413938332D3331353338454246344243312F6F626A656374732E786D6CAD575B6FA33818FD2B887DE6924B3BED8A326A92B68A663B534DD4D13E548A0C38942D60649B369D5FBFC7
310
600890A493BDE42160637FD7F31D7FF63E6FB3D478A55C242CBF3247B66B1A340F5994E4F19559CA8D75611A9F7D8F33263BCB4C232719BD32D5B4E97B316765A1A722BA21652A07B3B7B33F0D11D29C9A46981221AE4C113ED38CD8A4942CA2E2C58E882476BCD9DA23BB5ED8171B73523C0F841684D35CC252CCE79062D4
310
468DFA43D7747CCF51DF7D4FFDEB5593E3AB9CCA9FBEFE241792E4E19EB28198C968BAB8199F5D5A67D3E9C49A9E8F47D6EC76B6B0469F26EEFC7C3EBFBCBEB98462213924694B38DD98FE1D62C393D073EA4FADC5DAF04326852CCF6958F90F0F2B9BB5C48816348F90C7840A68EB78EDF68723159BCEE7891A6B95DDE9D3
310
BCEAEEE8086A6C6F9E5D4B59F0175C10A7A0820BAA5055C7473B5AE3CFDD452D602CD5DF12616444529E90D448938013FE6EFA58AA96F85E4F8C42275708571E98FE6827AF6B2B4AE3D7D83D64E5A64C53054DD3AF90BD06FEA9149565C94FCA0F6B834DC85599E4F2423B24DF0B6AFA979E534DFA9E7A4CC6FA631D486393
310
921829879BF5D781A373557BCB85E97FB90DB62B558F8795179C15944B051F40AB495CF35451D26A4727654E6D8033BD98EF82F21D91FF8AF2DD9982BCF1643BDD4EB516C9492E368C67C88DED563FC36D5EACF66DFF057C3658BDBFA69DF9578B3DA735B64F18C7F20770A9D45CFCF7FCF563D6456A277DBEF78A02637CA2
310
43B90A490AEAB94F72244481D24819A6C0E59B606BFA4B3025981DBB48EAB701D97BF19C577CC77F2D1B6C55A9EF3C732474C0B727303F625995056C3B02963D9EAC146BE78EC5FCEC7FA999EBC5EACBAAE41B12D27B4D2C0BBA49F244E2ECDC81B76B502F113D8F5EE8FB1BE3111CDD4FC2AA9B844CAB1288B68AB90A7CDC
310
1C166AB0D3DC5310625FCC14E779BFD0709F8890A629C9292B1B2DED31A4B0DA928CEE135085754027E3018A397D4D5427D15BD1330B677DC8934285AC3DF45A9EB68FF8F2B8FC0A509AFEECFD0FF2DE25CC6047F7214B195F07EFEB9A094D800F7BFAE8FED187B78EA8A3A400F115961BCAD1215E47C966530AF0EE8128FE
310
58CEBB996A8964FFA529A046635D9353B0336A8F700DDF46271A024E70B0B37C9DE01847591E54DED53D54202AB947E4076556AC49C6CA5C9E1226B7F1A7B1BE15DEED62C41B91E1B3E9AFAAA735036547343A925075041DF0A9979E893B391F8FCFA6967B3EFB644DCF6E5CEBFAE272625DCC6FAF3FB93793C5F90CE1EF57
310
407342756B10D1C489E8953CD1617E5CEECAD6F4EF8914CE5D5D504E5C3F1F9736DA62CFC11E00BCDDB8CC8A9466349744C1F75EBDA4DF09BA8A9E8C7A7E9991989E20E5DBDD6A6003664ED8F7A04A8DBE0DF6EAD9B9AA858342E47399053949D2C146EDB85DE4B176BB0965FBAC19BD19AA918E27FA50C1D22402E144464C
310
59462568E704B6E71915404CB72B8FF4EDE184DDAF753F284990D2C6926782963815403548A70C657FDEF80D2D9CEAA2AE4C1C76F60BFE74219A06527D6582DF6412526107381E55E353090704D085B52408D0933C4ED159D79BDA71BB4BC506F4831350EB6F979CD22D69BF7AC49B91A2C0A9DDA3D5CA36AD20FC478E37E6
310
1844E2352865EBCB6EA275A652E3836BE04EFB400BF1A2556F515F1FBB35B2AB35BD889C744FFA1004B5544B121E57F70215746DD2F5E2C1412B602CBF19455AC6C8E5E9922C4E01E65215385004546899059180EAFCF7A707CE7017CD8CDB0410789AB32C63B91E5CEBBBACB17AC6CD347A022D5075FD106377347AAABA7E
310
7D11590744509B44E205134DC1290F06580320F78E537D3D73540E06CB970B431F185308AD40BBD794D6D77003C5A36E8EAA54BA64597CD8F83BD552A080A365F7FF06504B0304140006080000CC70623B000000000000000000000000350000006662782F39464131463745442D413632322D343644302D413938332D3331
310
353338454246344243312F76657274696365732E62696E504B0304140006080800CC70623BF270F1330600000004000000360000006662782F39464131463745442D413632322D343644302D413938332D3331353338454246344243312F747269616E676C65732E62696E636660600000504B0304140006080000CC70623B
310
000000000000000000000000370000006662782F39464131463745442D413632322D343644302D413938332D3331353338454246344243312F617474726962757465732E62696E504B0304140006080800CC70623B08DA0BD19000000041010000360000006662782F39464131463745442D413632322D343644302D413938
310
332D3331353338454246344243312F6469726563746F72792E786D6C858F410AC3201045AF22B36F53E9A60B35CBEEBAE80D244E44489C6234F4F835464A48035D0DF398FF9F8AF63D0E6CC63039F212F8F9020C7D47C6792B21C5FE7403D62A1188E2E60C98D7234A5830286103A55745067B9D86B8A3CF9C7F90C11DE607
310
FB144396D7B6A82D282E9A152AD114D5EF2CB866EEE831B8EEA07A7BB5A8D7D61A2BAAEB7FD5F70921FF497D00504B0304140006080800CC70623B0D6EF93BFE000000A00100003B0000006662782F39464131463745442D413632322D343644302D413938332D3331353338454246344243312F7265736F75726365732F63
310
6F72652E786D6C8D50596E833010BD0A9ADFCA60B334011947A8694ED00B586642AC041B79A97AFC9A40A5F6AF3F33A3B7689E1E3F7DCD8FEC139DD7D6F4C0720A191A65476DA61E62B892236427C19DB5E1970C322367EC618541F0C9D9B8EC90B226A009093576C41D94DE63804C3DD2D18357379C652E63480A7FCF17A9
310
EE72C29CE5894E3AC17D702940B63D59270887DE46A7D0F36263058F518FBB468FE9A7BE6A7420864373B8D4873369AA8691FA421B3294352543C5CAF65C0F6FEF43CB8BD52C78D0F34F46E550061C419494B6843142CB0F5677F4B52BEB177AEC28E5C52AFF638ACBF84F53D42654E51E77B379102C05791282176B5F693D
310
CB4C7BED567C03504B010214000A0000080000CC70623B3DEE336E79000000790000001B00000000000000000000000000000000006175746F6465736B2D64657369676E2D7061636B6167652E786D6C504B01021400140006080800CC70623BD486FD9CA0000000F40000001300000000000000000000000000B20000005B
310
436F6E74656E745F54797065735D2E786D6C504B01021400140006080800CC70623B1EC5D7A3EB0000007C010000080000000000000000000000000083010000636F72652E786D6C504B01021400140006080800CC70623B55019EA25F0000007C000000070000000000000000000000000094020000636E782E786D6C504B
310
01021400140006080800CC70623B8C9102E971010000D40300000C00000000000000000000000000180300006662782F636F72652E786D6C504B01021400140006080800CC70623BFFEA85907E0000009D0000000B00000000000000000000000000B30400006662782F636E782E786D6C504B01021400140006080800CC70
310
623B4FEEA4082C0100001202000031000000000000000000000000005A0500006662782F39464131463745442D413632322D343644302D413938332D3331353338454246344243312F636F72652E786D6C504B01021400140006080800CC70623BAD7543B64E010000330300003000000000000000000000000000D5060000
310
6662782F39464131463745442D413632322D343644302D413938332D3331353338454246344243312F636E782E786D6C504B01021400140006080800CC70623B16AB87BA640500003C1000003400000000000000000000000000710800006662782F39464131463745442D413632322D343644302D413938332D3331353338
310
454246344243312F6F626A656374732E786D6C504B01021400140006080000CC70623B0000000000000000000000003500000000000000000000000000270E00006662782F39464131463745442D413632322D343644302D413938332D3331353338454246344243312F76657274696365732E62696E504B01021400140006
310
080800CC70623BF270F133060000000400000036000000000000000000000000007A0E00006662782F39464131463745442D413632322D343644302D413938332D3331353338454246344243312F747269616E676C65732E62696E504B01021400140006080000CC70623B0000000000000000000000003700000000000000
310
000000000000D40E00006662782F39464131463745442D413632322D343644302D413938332D3331353338454246344243312F617474726962757465732E62696E504B01021400140006080800CC70623B08DA0BD190000000410100003600000000000000000000000000290F00006662782F39464131463745442D413632
310
322D343644302D413938332D3331353338454246344243312F6469726563746F72792E786D6C504B01021400140006080800CC70623B0D6EF93BFE000000A00100003B000000000000000000000000000D1000006662782F39464131463745442D413632322D343644302D413938332D3331353338454246344243312F7265
310
736F75726365732F636F72652E786D6C504B0506000000000E000E0080040000641100000000
  0
XRECORD
  5
233
102
{ACAD_REACTORS
330
C
102
}
330
C
100
AcDbXrecord
280
     1
102
MATERIAL
148
0.0
149
0.0
149
0.0
 93
        0
 94
       63
282
     0
 72
     1
 77
     1
171
     1
175
     1
179
     1
273
     0
  0
XRECORD
  5
D
102
{ACAD_REACTORS
330
C
102
}
330
C
100
AcDbXrecord
280
     1
270
     1
271
     1
  0
XRECORD
  5
E
102
{ACAD_REACTORS
330
C
102
}
330
C
100
AcDbXrecord
280
     1
270
     1
271
     1
  0
XRECORD
  5
F
102
{ACAD_REACTORS
330
C
102
}
330
C
100
AcDbXrecord
280
     1
 70
     0
 90
1673772943
  1
ECE7A1D2-D628-4531-984C-D00F80459256
310
504B03040A0000080000CC70623B3DEE336E79000000790000001B0000006175746F6465736B2D64657369676E2D7061636B6167652E786D6C3C3F786D6C2076657273696F6E3D22312E302220656E636F64696E673D227574662D3822203F3E3C666F726D6174733E3C666F726D61743E687474703A2F2F736368656D612E
310
6175746F6465736B2E636F6D2F64657369676E2D7061636B6167652F323030393C2F666F726D61743E3C2F666F726D6174733E504B0304140006080800CC70623BD486FD9CA0000000F4000000130000005B436F6E74656E745F54797065735D2E786D6C7D8EC10E82300C865F65E91D8A1E8C310C0EEA1BF002731658846E
310
D98AC1B77784ABF1D8FE5FBFBF75BBCE937A534CCEB38643598122B6FEE978D0B0485F9C41B54DDD7D022595594E1A469170414C76A4D9A4D207E29CF43ECE46F218070CC6BECC4078ACAA135ACF422C856C0E68EA1BF5669944DDD7BCDE7B1F8E415D77AECB980613C2E4AC91FC167A2B244592486606FC29C8FD7F045B9A
310
EF7053A7E60B504B0304140006080800CC70623BD9DDAED0EC0000007C01000008000000636F72652E786D6C8D90416EC3201045AF82665B61836D9CD8C2444DD39CA01740405C94182C03558F5F9C3852BBEB6A467FFE9B197D7EF89E6EE8CB2CC17A37002D0820E394D7D68D03A478C17B4007C117EFE32F1B20272733C0
310
2A83E0E3E2D3BC49CABB685CCCAAF3DA6CA20CC14440EA969B0182FA34932C648AD911AEC52CD5558EA6A0CF2EC329598D1E47ACCEFBECC59A050463A7EA5833865FEBDD0E37353BE3EE8DBDE3F6786A48D375FBF6CC78B9C282473B3DEFABC5C86834888A900E538A49F5419B9EB47DD5BC907D4F082F57FB1F28CDFA9F50
310
B22ED6D5F6EE030B20687EE43E10BC5CB3C8E51E54AE6B6EE207504B0304140006080800CC70623B55019EA25F0000007C00000007000000636E782E786D6C4DCB3B0E80201045D1AD90E915ED2CF8AC45050C11660C8261F98AB1B07AC9C97D42D718D865D3E909258CFD00CCE24AC6E326A164D74DC0B4128928FF326038
310
472BA13128B1252AC747C6BAB984FC68F0B87FE8960A5C09FE86CFB69FBA01504B0304140006080800CC70623BA24EB22D72010000D40300000C0000006662782F636F72652E786D6CC5535B6E833010BC8AE5DF0A6C5E49888CA3A6694ED00B38E05014B091B1518EDFE511A5A9D228FD2A1F60CDEC7A67C6986DCE4D8D7A
310
69BA4AAB0C073EC548AA5C17952A33ECECD15B61B4E1CC686DBF9561A44423333CC098B3D268D7CE50AE9595CA02AA74216750749DB418E5352C32DCE59FB211BE70162ABA93DF8AFC244AE9073ED050C759670D0840D390E18DF9F1706664C23973AE2A66B62A605A75ACA4C13C4976E1364A12EF355A2EBD384AF65EFA96
310
BC7B8BED2EA6719AAE16FB8491A199335B351775B991C2CA02F390D2D40B028F861F41BCA68B7518BFD0D59A524686F29B26D7164F36B94AD9289CE54E6D1DE6010819891F6E21228B3AD1831EC219194284CF98F06DD01008846CC5A1BEF83801D4CBDC6A1303536877A57A513B0953A94FC707FDBE6064EA84A9E3E6E0FA
310
EE8CF0E9198F7784A316AA0413C2C2F2E0ECA0934D1AE6D05A69BCDE9E91D2A611F573361E38FC1375157F5752AE6B6DFE4B11990F88CCBF0719EE23FF02504B0304140006080800CC70623B408A7D3B7C0000009D0000000B0000006662782F636E782E786D6C4DCCD10A83201886E15B91FFDC552A92A0064DBC8F581632
310
D3703A76F9ABD1C18E3E78F878E5F0D9027ABBFCF2292AE86E2D20171F69F6715550CB827B40839639A5F2770314A7CD293819B45C73AAFB45B35BA61ACAA1C1C7E7855C58C15BC331339661262CC762340413D68D77DA5B42298546CBE6573AF60CEB2F504B0304140006080800CC70623B449FB9BD290100001202000031
310
0000006662782F36394639363044362D344446342D343946362D394244322D3234314243333846323333332F636F72652E786D6C8D515B6EC32010BC0AE22B55850D98B871848994463E412FE002495162B07854397EA176A4F62F3F2C9A9D991D587EB84F37F0AD7D30CEF6905418026DA553C65E7A98E219ED203808EE9D
310
8B7F6810D871D23D2C3014FCE25D9A57483A1BB58D19B54EE9151C43D0110279CB971E06F9A5A7B11A53CC8C70ADE6515EC78BAE4895DB992778883E0700CB907242D17643D7E2538BD869608875438BBAE38922CAC8F1BDD90DB4691A5E2F42C153326A951B95E398B3D1FE599322163C9AE9115F7A3D46ADA0A018778810
310
84E907617BDCEE297BC5BB3DC6BC2EF47FA234AB2745C9D8D8D035EE220B50105E2F0DC1954B9FB747187D9F9D8FA0CCDB042D5FA0C015C65B42DF78BD10F3F3B363CB56C7109DCFDFBBB97E662ED92EB62D13BC2E1BCAE5777DB9966D8A1F504B0304140006080800CC70623BAD7543B64E01000033030000300000006662
310
782F36394639363044362D344446342D343946362D394244322D3234314243333846323333332F636E782E786D6CD593CD6EC32010845F0571AD6CE3D48AD20813A9873E410FBD12D82434182C7EAAE6EDBB2424CD25871E7B41D6EC30B3FA84F9E67BB2E40B4234DE8DB46F1925E094D7C6ED479AD3AE5951B2113C789FEE
310
6C943839C1488B4C05DF079FE72A69D8C96C13AAD6B8631503449F83828872B949AC57D26200B826A308D316B4064D6E46FCDA41C05550DC9E483A00797BFD207EFB092A45DE9514C1BBD22178396BD39D891265658C238DEA00936C654E5E433CB65A26D9F6EDB5EBC14EBF49A45CB856E66048291F6939A9A81BB5C89177
310
38143CA680F4AA299D66A042CEB3354A2684DC9D8D178FE0D9B8B41CAAD720F880EE7EF93C0C18769E099ECC04D5A102C8049A8A05632F4DDF376CF1DE0F6BB65C2F8627B65A33C6BB62177CEBBDAD973006829F89F22E814B54F4BC2BE347F8AA8F681390B50FA73F804400B5F542E796F19FF974E7F78DB802FE05E20750
310
4B0304140006080800CC70623B8D05915C650500003B100000340000006662782F36394639363044362D344446342D343946362D394244322D3234314243333846323333332F6F626A656374732E786D6CAD575B6FA33814FE2B887D06429276DA1565D4266D158D3A339A6846FB502932E050B66023DB74D2FDF5FB190C01
310
9276B2973C046C8ECFF53B17071F77456EBD502133CEAE6CDF9DD81665314F32965ED995DA3A17B6F5310C04E7AA47665B8C14F4CAD6DB7618A48257A5D94AE89654B91AEDDEDDFC61C998326A5B714EA4BCB265FC440BE2924AF184CA6737218AB8E976E7FA6E4338649B0A523E8D98964450A6A029F619B8588D52FE7039
310
B1BD30F0F4F730D0FF866AF6369557DB33949F31A9088B0F848DD8CCFCF9F2767A76E99CCDE733677E3EF59D9BBB9BA5E37F984D16E78BC5E5F5ED25044B25C0C96822E8D60EEFE11B91C581D77CEA34368A1F5329E68CD1B8B61F16D63A1B8E092D294B10C78C4A48EB593D192E7DED9BDEE7995E1B91FDEDD3ACEA9FE831
310
6A756F9F7D4D79F4274C90A7A04248AA51D5F8C718DAE06FB2F75AC4796EBE65D22A88A22223B995679120E2D50E41AA49C260C046A35368846B0BECD0DFF3EBEB8AD4F835768F69B9ADF25C43D30E6B646F807FAA64AD59F61715C7A54127C4AACA98BA3006A9D792DAE165E0D59B61A01FB3A9F9D838D2DAE62445C86166
310
F37564E842E7DE6A69879FEEA2DD5AE7E371E1A5E025154AC307D06A03D73EB5978C58FFA4C8E9033066E0F3BD53BEC1F39F91BE7B55103791EDE6BBB991A2046172CB4581D8B893FA674DDA17A77B3B7C413D1B511FD2743BFF8A38F03A658705E3ADF8015C3A3417FF3D7E439FF591DA0B5F18BC20C1B8981957AE6392A3
310
F43C640C01D1A0B4728E2DD4F26DB4B3C3152A252A3B4E913CEC1C72F012782FF88EFF8637AA552DBEF76408E8A8DE9E50F9E1CB3A2DA0DB1B6039A893B56063DC5B3E3FFB5F72E67AB9FEB4AEC496C4F4C1149625DD662C53E89D7BF0F6151A046260D1337DFDC94502430F83B0EE07A130A224BCAD7DAE1D9FB6CD422FF6
310
920702629C4BB9AE79C12F243C6432A6794E18E5552BA56B431AAB5D91317302B2B071E86C3A42B1A02F999E24061403B5D0EB639195DA655DD3EBEAB4FB862DDF579F014AD0E73C22F99E28DA57FB98E75C6CA2D74D53086D600F4786E0FE3144B771A8A7B900F03594DB8A633CBC49B2EDB69228BB479CF863B5E807AAAB
310
23872F6DFEB4129B949CA33823F58830E86D65621E10047D9DB34D862E8EAC3C2ABC2F7B2C40D67CDFE01F5545B92105AF983AC54D93D69E56FB8E797F88913F898A9FEC705D3F9D1B54EC8426FB500D40A03BD0119B06E1B95DDC7EB8F6975367793EBD70E66733DFB9BC982F9CE564727731999F5D4ECFCE3B8D6A4DC2A0
310
6D50FD148437D110834A64C6CDDF57FBACB5C307A2A477DFE4939736CFEF2B175371E0E10CF0DD1D5C15654E0BCA14D1E87DD02FF93782A162C0A3D95F1524A52770F972BF1EE9809D13CE7DD599467F8ECE9ADD85CE85A34CD45355448C64F9E8A031DC2D596ACC6E5DD93D9B82DE2EF5CAF81363A8E47996A0DE24564A79
310
4115AACE09C55E14540231FDA13C319787134EBF34E3A022514E5B4D9E0826E25C02D5805B15ABE1BEF51B26383D445DD9E875EE33FE4C22DA16427D65A3BCA92CA6D28DD01DF5DC53330704308475351050232CCD31583787BA75774AFB06E5070DD0C8EF484E19968C5D83BA5B90B244D31E54D55A372320FE4786B7EA58
310
44E135AA5467CB7EA333A61683CC6A8C3257034C10CF46F40EF9F5BE59BE5BD30C3C72D235E95D10345C1D45445A5F0BB47E46A5EBE5570F9380B5FA629579952296A773720405982B9DE04011506178964401AA8BDF1FBF0A8EAB6861DD6580C0E38217056766716DAEB2D6FA0917D3E4116581EADB879C4E7CFFB11EFACD
310
3D641311495D92C8676CB409A72D18610D803CE8A626049E8EC1887CB5B44CC39883690DDA8399B4B9855B481E7D71D4A9D22F96E5BB73BF5793020C02137BF837504B0304140006080000CC70623B000000000000000000000000350000006662782F36394639363044362D344446342D343946362D394244322D32343142
310
43333846323333332F76657274696365732E62696E504B0304140006080800CC70623BF270F1330600000004000000360000006662782F36394639363044362D344446342D343946362D394244322D3234314243333846323333332F747269616E676C65732E62696E636660600000504B0304140006080000CC70623B0000
310
00000000000000000000370000006662782F36394639363044362D344446342D343946362D394244322D3234314243333846323333332F617474726962757465732E62696E504B0304140006080800CC70623B08DA0BD19000000041010000360000006662782F36394639363044362D344446342D343946362D394244322D
310
3234314243333846323333332F6469726563746F72792E786D6C858F410AC3201045AF22B36F53E9A60B35CBEEBAE80D244E44489C6234F4F835464A48035D0DF398FF9F8AF63D0E6CC63039F212F8F9020C7D47C6792B21C5FE7403D62A1188E2E60C98D7234A5830286103A55745067B9D86B8A3CF9C7F90C11DE607FB14
310
4396D7B6A82D282E9A152AD114D5EF2CB866EEE831B8EEA07A7BB5A8D7D61A2BAAEB7FD5F70921FF497D00504B0304140006080800CC70623BCA768048FE000000A00100003B0000006662782F36394639363044362D344446342D343946362D394244322D3234314243333846323333332F7265736F75726365732F636F72
310
652E786D6C8D50596E833010BD0A9ADFCA60D600328E9AA639412F609909B1126CE4A5EAF16B0295DABFFECC8CDEA2797AECF8353F924FB44E193D409E5248504B332A3D0D10FC95B4901C39B3C6F85F3248B49871801506CE266BC2B243D2688FDA47549B11775038871E12F988C7004EDE7016A9083E2ADC3D5D84BC8B09
310
D33C8D74D471E6BC8D0192EDC93A815B742658898E651BCB59086ADC356A8C3FD555A1055ED7E7E254D615792D0F075295F585746FF53B694EE78A565DD736979A65AB9933AFE69F8CD2A2F038022F28ED489E135A7CE4554F9BBEA85E68DB53CAB255FEC71496F19FA6A0B42F8B3DEE6673C0F318E4497096AD7DC5F52C33
310
EEB55BFE0D504B010214000A0000080000CC70623B3DEE336E79000000790000001B00000000000000000000000000000000006175746F6465736B2D64657369676E2D7061636B6167652E786D6C504B01021400140006080800CC70623BD486FD9CA0000000F40000001300000000000000000000000000B20000005B436F
310
6E74656E745F54797065735D2E786D6C504B01021400140006080800CC70623BD9DDAED0EC0000007C010000080000000000000000000000000083010000636F72652E786D6C504B01021400140006080800CC70623B55019EA25F0000007C000000070000000000000000000000000095020000636E782E786D6C504B0102
310
1400140006080800CC70623BA24EB22D72010000D40300000C00000000000000000000000000190300006662782F636F72652E786D6C504B01021400140006080800CC70623B408A7D3B7C0000009D0000000B00000000000000000000000000B50400006662782F636E782E786D6C504B01021400140006080800CC70623B
310
449FB9BD290100001202000031000000000000000000000000005A0500006662782F36394639363044362D344446342D343946362D394244322D3234314243333846323333332F636F72652E786D6C504B01021400140006080800CC70623BAD7543B64E010000330300003000000000000000000000000000D20600006662
310
782F36394639363044362D344446342D343946362D394244322D3234314243333846323333332F636E782E786D6C504B01021400140006080800CC70623B8D05915C650500003B10000034000000000000000000000000006E0800006662782F36394639363044362D344446342D343946362D394244322D32343142433338
310
46323333332F6F626A656374732E786D6C504B01021400140006080000CC70623B0000000000000000000000003500000000000000000000000000250E00006662782F36394639363044362D344446342D343946362D394244322D3234314243333846323333332F76657274696365732E62696E504B010214001400060808
310
00CC70623BF270F13306000000040000003600000000000000000000000000780E00006662782F36394639363044362D344446342D343946362D394244322D3234314243333846323333332F747269616E676C65732E62696E504B01021400140006080000CC70623B00000000000000000000000037000000000000000000
310
00000000D20E00006662782F36394639363044362D344446342D343946362D394244322D3234314243333846323333332F617474726962757465732E62696E504B01021400140006080800CC70623B08DA0BD190000000410100003600000000000000000000000000270F00006662782F36394639363044362D344446342D
310
343946362D394244322D3234314243333846323333332F6469726563746F72792E786D6C504B01021400140006080800CC70623BCA768048FE000000A00100003B000000000000000000000000000B1000006662782F36394639363044362D344446342D343946362D394244322D3234314243333846323333332F7265736F
310
75726365732F636F72652E786D6C504B0506000000000E000E0080040000621100000000
  0
XRECORD
  5
10
102
{ACAD_REACTORS
330
C
102
}
330
C
100
AcDbXrecord
280
     1
270
     1
271
     1
  0
XRECORD
  5
11
102
{ACAD_REACTORS
330
C
102
}
330
C
100
AcDbXrecord
280
     1
270
     1
271
     1
  0
CELLSTYLEMAP
  5
229
102
{ACAD_REACTORS
330
44
102
}
330
44
100
AcDbCellStyleMap
 90
        3
300
CELLSTYLE
  1
TABLEFORMAT_BEGIN
 90
        5
170
     1
 91
        0
 92
    32768
 62
   257
 93
        1
300
CONTENTFORMAT
  1
CONTENTFORMAT_BEGIN
 90
        0
 91
        0
 92
      512
 93
        0
300

 40
0.0
140
1.0
 94
        5
 62
     0
340
21
144
6.0
309
CONTENTFORMAT_END
171
     1
301
MARGIN
  1
CELLMARGIN_BEGIN
 40
1.5
 40
1.5
 40
1.5
 40
1.5
 40
4.5
 40
4.5
309
CELLMARGIN_END
 94
        6
 95
        1
302
GRIDFORMAT
  1
GRIDFORMAT_BEGIN
 90
        0
 91
        1
 62
     0
 92
       -2
340
24
 93
        0
 40
1.125
309
GRIDFORMAT_END
 95
        2
302
GRIDFORMAT
  1
GRIDFORMAT_BEGIN
 90
        0
 91
        1
 62
     0
 92
       -2
340
24
 93
        0
 40
1.125
309
GRIDFORMAT_END
 95
        4
302
GRIDFORMAT
  1
GRIDFORMAT_BEGIN
 90
        0
 91
        1
 62
     0
 92
       -2
340
24
 93
        0
 40
1.125
309
GRIDFORMAT_END
 95
        8
302
GRIDFORMAT
  1
GRIDFORMAT_BEGIN
 90
        0
 91
        1
 62
     0
 92
       -2
340
24
 93
        0
 40
1.125
309
GRIDFORMAT_END
 95
       16
302
GRIDFORMAT
  1
GRIDFORMAT_BEGIN
 90
        0
 91
        1
 62
     0
 92
       -2
340
24
 93
        0
 40
1.125
309
GRIDFORMAT_END
 95
       32
302
GRIDFORMAT
  1
GRIDFORMAT_BEGIN
 90
        0
 91
        1
 62
     0
 92
       -2
340
24
 93
        0
 40
1.125
309
GRIDFORMAT_END
309
TABLEFORMAT_END
  1
CELLSTYLE_BEGIN
 90
        1
 91
        1
300
_TITLE
309
CELLSTYLE_END
300
CELLSTYLE
  1
TABLEFORMAT_BEGIN
 90
        5
170
     1
 91
        0
 92
        0
 62
   257
 93
        1
300
CONTENTFORMAT
  1
CONTENTFORMAT_BEGIN
 90
        0
 91
        0
 92
      512
 93
        0
300

 40
0.0
140
1.0
 94
        5
 62
     0
340
21
144
4.5
309
CONTENTFORMAT_END
171
     1
301
MARGIN
  1
CELLMARGIN_BEGIN
 40
1.5
 40
1.5
 40
1.5
 40
1.5
 40
4.5
 40
4.5
309
CELLMARGIN_END
 94
        6
 95
        1
302
GRIDFORMAT
  1
GRIDFORMAT_BEGIN
 90
        0
 91
        1
 62
     0
 92
       -2
340
24
 93
        0
 40
1.125
309
GRIDFORMAT_END
 95
        2
302
GRIDFORMAT
  1
GRIDFORMAT_BEGIN
 90
        0
 91
        1
 62
     0
 92
       -2
340
24
 93
        0
 40
1.125
309
GRIDFORMAT_END
 95
        4
302
GRIDFORMAT
  1
GRIDFORMAT_BEGIN
 90
        0
 91
        1
 62
     0
 92
       -2
340
24
 93
        0
 40
1.125
309
GRIDFORMAT_END
 95
        8
302
GRIDFORMAT
  1
GRIDFORMAT_BEGIN
 90
        0
 91
        1
 62
     0
 92
       -2
340
24
 93
        0
 40
1.125
309
GRIDFORMAT_END
 95
       16
302
GRIDFORMAT
  1
GRIDFORMAT_BEGIN
 90
        0
 91
        1
 62
     0
 92
       -2
340
24
 93
        0
 40
1.125
309
GRIDFORMAT_END
 95
       32
302
GRIDFORMAT
  1
GRIDFORMAT_BEGIN
 90
        0
 91
        1
 62
     0
 92
       -2
340
24
 93
        0
 40
1.125
309
GRIDFORMAT_END
309
TABLEFORMAT_END
  1
CELLSTYLE_BEGIN
 90
        2
 91
        1
300
_HEADER
309
CELLSTYLE_END
300
CELLSTYLE
  1
TABLEFORMAT_BEGIN
 90
        5
170
     1
 91
        0
 92
        0
 62
   257
 93
        1
300
CONTENTFORMAT
  1
CONTENTFORMAT_BEGIN
 90
        0
 91
        0
 92
      512
 93
        0
300

 40
0.0
140
1.0
 94
        2
 62
     0
340
21
144
4.5
309
CONTENTFORMAT_END
171
     1
301
MARGIN
  1
CELLMARGIN_BEGIN
 40
1.5
 40
1.5
 40
1.5
 40
1.5
 40
4.5
 40
4.5
309
CELLMARGIN_END
 94
        6
 95
        1
302
GRIDFORMAT
  1
GRIDFORMAT_BEGIN
 90
        0
 91
        1
 62
     0
 92
       -2
340
24
 93
        0
 40
1.125
309
GRIDFORMAT_END
 95
        2
302
GRIDFORMAT
  1
GRIDFORMAT_BEGIN
 90
        0
 91
        1
 62
     0
 92
       -2
340
24
 93
        0
 40
1.125
309
GRIDFORMAT_END
 95
        4
302
GRIDFORMAT
  1
GRIDFORMAT_BEGIN
 90
        0
 91
        1
 62
     0
 92
       -2
340
24
 93
        0
 40
1.125
309
GRIDFORMAT_END
 95
        8
302
GRIDFORMAT
  1
GRIDFORMAT_BEGIN
 90
        0
 91
        1
 62
     0
 92
       -2
340
24
 93
        0
 40
1.125
309
GRIDFORMAT_END
 95
       16
302
GRIDFORMAT
  1
GRIDFORMAT_BEGIN
 90
        0
 91
        1
 62
     0
 92
       -2
340
24
 93
        0
 40
1.125
309
GRIDFORMAT_END
 95
       32
302
GRIDFORMAT
  1
GRIDFORMAT_BEGIN
 90
        0
 91
        1
 62
     0
 92
       -2
340
24
 93
        0
 40
1.125
309
GRIDFORMAT_END
309
TABLEFORMAT_END
  1
CELLSTYLE_BEGIN
 90
        3
 91
        2
300
_DATA
309
CELLSTYLE_END
  0
XRECORD
  5
238
102
{ACAD_REACTORS
330
44
102
}
330
44
100
AcDbXrecord
280
     1
102
ACAD_ROUNDTRIP_PRE2007_TABLESTYLE
 90
      512
 91
        0
  1

 92
      512
 93
        0
  2

 94
      512
 95
        0
  3

  0
XRECORD
  5
235
102
{ACAD_REACTORS
330
234
102
}
330
234
100
AcDbXrecord
280
     1
102
RTVSPost2010Prop28
280
     1
102
RTVSPost2010PropOp28
 70
     1
102
RTVSPost2010Prop29
280
     1
102
RTVSPost2010PropOp29
 70
     1
102
RTVSPost2010Prop30
280
     0
102
RTVSPost2010PropOp30
 70
     1
102
RTVSPost2010Prop31
280
     0
102
RTVSPost2010PropOp31
 70
     1
102
RTVSPost2010Prop32
280
     0
102
RTVSPost2010PropOp32
 70
     1
102
RTVSPost2010Prop33
280
     0
102
RTVSPost2010PropOp33
 70
     1
102
RTVSPost2010Prop34
280
     0
102
RTVSPost2010PropOp34
 70
     1
102
RTVSPost2010Prop35
280
     0
102
RTVSPost2010PropOp35
 70
     1
102
RTVSPost2010Prop36
280
     0
102
RTVSPost2010PropOp36
 70
     1
102
RTVSPost2010Prop37
 90
       50
102
RTVSPost2010PropOp37
 70
     1
102
RTVSPost2010Prop38
140
0.0
102
RTVSPost2010PropOp38
 70
     1
102
RTVSPost2010Prop39
140
1.0
102
RTVSPost2010PropOp39
 70
     1
102
RTVSPost2010Prop40
 90
        0
102
RTVSPost2010PropOp40
 70
     1
102
RTVSPost2010Prop41ColorIndex
 90
       18
102
RTVSPost2010Prop41ColorRGB
 90
        0
102
RTVSPost2010PropOp41
 70
     1
102
RTVSPost2010Prop42
 90
       50
102
RTVSPost2010PropOp42
 70
     1
102
RTVSPost2010Prop43
 90
        3
102
RTVSPost2010PropOp43
 70
     1
102
RTVSPost2010Prop44ColorIndex
 90
        5
102
RTVSPost2010Prop44ColorRGB
 90
      255
102
RTVSPost2010PropOp44
 70
     1
102
RTVSPost2010Prop45
280
     0
102
RTVSPost2010PropOp45
 70
     1
102
RTVSPost2010Prop46
 90
       50
102
RTVSPost2010PropOp46
 70
     1
102
RTVSPost2010Prop47
 90
       50
102
RTVSPost2010PropOp47
 70
     1
102
RTVSPost2010Prop48
 90
       50
102
RTVSPost2010PropOp48
 70
     1
102
RTVSPost2010Prop49
280
     0
102
RTVSPost2010PropOp49
 70
     1
102
RTVSPost2010Prop50
 90
       50
102
RTVSPost2010PropOp50
 70
     1
102
RTVSPost2010Prop51ColorIndex
 90
      256
102
RTVSPost2010Prop51ColorRGB
 90
-16777216
102
RTVSPost2010PropOp51
 70
     0
102
RTVSPost2010Prop52
140
1.0
102
RTVSPost2010PropOp52
 70
     0
102
RTVSPost2010Prop53
 90
        2
102
RTVSPost2010PropOp53
 70
     1
102
RTVSPost2010Prop54
  1
strokes_ogs.tif
102
RTVSPost2010PropOp54
 70
     1
102
RTVSPost2010Prop55
280
     0
102
RTVSPost2010PropOp55
 70
     1
102
RTVSPost2010Prop56
140
1.0
102
RTVSPost2010PropOp56
 70
     1
102
RTVSPost2010Prop57
140
1.0
102
RTVSPost2010PropOp57
 70
     1
102
RTVSPropertyOp0
 70
     1
102
RTVSPropertyOp1
 70
     1
102
RTVSPropertyOp2
 70
     1
102
RTVSPropertyOp3
 70
     1
102
RTVSPropertyOp4
 70
     1
102
RTVSPropertyOp5
 70
     1
102
RTVSPropertyOp6
 70
     1
102
RTVSPropertyOp7
 70
     1
102
RTVSPropertyOp8
 70
     1
102
RTVSPropertyOp9
 70
     1
102
RTVSPropertyOp10
 70
     1
102
RTVSPropertyOp11
 70
     1
102
RTVSPropertyOp12
 70
     1
102
RTVSPropertyOp13
 70
     1
102
RTVSPropertyOp14
 70
     1
102
RTVSPropertyOp15
 70
     1
102
RTVSPropertyOp16
 70
     1
102
RTVSPropertyOp17
 70
     1
102
RTVSPropertyOp18
 70
     1
102
RTVSPropertyOp19
 70
     1
102
RTVSPropertyOp20
 70
     1
102
RTVSPropertyOp21
 70
     1
102
RTVSPropertyOp22
 70
     1
102
RTVSPropertyOp23
 70
     1
102
RTVSPropertyOp24
 70
     1
102
RTVSPropertyOp25
 70
     1
102
RTVSPropertyOp26
 70
     1
102
RTVSPropertyOp27
 70
     1
102
RTVSPropertyOp28
 70
     1
102
RTVSPropertyOp29
 70
     1
102
RTVSPropertyOp30
 70
     1
102
RTVSPropertyOp31
 70
     1
102
RTVSPropertyOp32
 70
     1
102
RTVSPropertyOp33
 70
     1
102
RTVSPropertyOp34
 70
     1
102
RTVSPropertyOp35
 70
     1
102
RTVSPropertyOp36
 70
     1
102
RTVSPropertyOp37
 70
     1
102
RTVSPropertyOp38
 70
     1
102
RTVSPropertyOp39
 70
     1
102
RTVSPropertyOp40
 70
     1
102
RTVSPropertyOp41
 70
     1
102
RTVSPropertyOp42
 70
     1
102
RTVSPropertyOp43
 70
     1
102
RTVSPropertyOp44
 70
     1
102
RTVSPropertyOp45
 70
     1
102
RTVSPropertyOp46
 70
     1
102
RTVSPropertyOp47
 70
     1
102
RTVSPropertyOp48
 70
     1
102
RTVSPropertyOp49
 70
     1
102
RTVSPropertyOp50
 70
     1
102
RTVSPropertyOp51
 70
     0
102
RTVSPropertyOp52
 70
     0
102
RTVSPropertyOp53
 70
     1
102
RTVSPropertyOp54
 70
     1
102
RTVSPropertyOp55
 70
     1
102
RTVSPropertyOp56
 70
     1
102
RTVSPropertyOp57
 70
     1
102
RTVSPropertyOp58
 70
     1
102
RTVSPropertyOp59
 70
     1
102
RTVSPropertyOp60
 70
     1
102
RTVSPropertyOp61
 70
     1
102
RTVSPropertyOp62
 70
     1
  0
XRECORD
  5
23A
102
{ACAD_REACTORS
330
239
102
}
330
239
100
AcDbXrecord
280
     1
102
RTVSPost2010Prop28
280
     0
102
RTVSPost2010PropOp28
 70
     1
102
RTVSPost2010Prop29
280
     1
102
RTVSPost2010PropOp29
 70
     1
102
RTVSPost2010Prop30
280
     1
102
RTVSPost2010PropOp30
 70
     1
102
RTVSPost2010Prop31
280
     0
102
RTVSPost2010PropOp31
 70
     1
102
RTVSPost2010Prop32
280
     0
102
RTVSPost2010PropOp32
 70
     1
102
RTVSPost2010Prop33
280
     0
102
RTVSPost2010PropOp33
 70
     1
102
RTVSPost2010Prop34
280
     0
102
RTVSPost2010PropOp34
 70
     1
102
RTVSPost2010Prop35
280
     0
102
RTVSPost2010PropOp35
 70
     1
102
RTVSPost2010Prop36
280
     0
102
RTVSPost2010PropOp36
 70
     1
102
RTVSPost2010Prop37
 90
       50
102
RTVSPost2010PropOp37
 70
     1
102
RTVSPost2010Prop38
140
0.0
102
RTVSPost2010PropOp38
 70
     1
102
RTVSPost2010Prop39
140
1.0
102
RTVSPost2010PropOp39
 70
     1
102
RTVSPost2010Prop40
 90
        0
102
RTVSPost2010PropOp40
 70
     1
102
RTVSPost2010Prop41ColorIndex
 90
       18
102
RTVSPost2010Prop41ColorRGB
 90
        0
102
RTVSPost2010PropOp41
 70
     1
102
RTVSPost2010Prop42
 90
       50
102
RTVSPost2010PropOp42
 70
     1
102
RTVSPost2010Prop43
 90
        3
102
RTVSPost2010PropOp43
 70
     1
102
RTVSPost2010Prop44ColorIndex
 90
        5
102
RTVSPost2010Prop44ColorRGB
 90
      255
102
RTVSPost2010PropOp44
 70
     1
102
RTVSPost2010Prop45
280
     0
102
RTVSPost2010PropOp45
 70
     1
102
RTVSPost2010Prop46
 90
       50
102
RTVSPost2010PropOp46
 70
     1
102
RTVSPost2010Prop47
 90
       50
102
RTVSPost2010PropOp47
 70
     1
102
RTVSPost2010Prop48
 90
       50
102
RTVSPost2010PropOp48
 70
     1
102
RTVSPost2010Prop49
280
     0
102
RTVSPost2010PropOp49
 70
     1
102
RTVSPost2010Prop50
 90
       50
102
RTVSPost2010PropOp50
 70
     1
102
RTVSPost2010Prop51ColorIndex
 90
      256
102
RTVSPost2010Prop51ColorRGB
 90
-16777216
102
RTVSPost2010PropOp51
 70
     0
102
RTVSPost2010Prop52
140
1.0
102
RTVSPost2010PropOp52
 70
     0
102
RTVSPost2010Prop53
 90
        2
102
RTVSPost2010PropOp53
 70
     1
102
RTVSPost2010Prop54
  1
strokes_ogs.tif
102
RTVSPost2010PropOp54
 70
     1
102
RTVSPost2010Prop55
280
     0
102
RTVSPost2010PropOp55
 70
     1
102
RTVSPost2010Prop56
140
1.0
102
RTVSPost2010PropOp56
 70
     1
102
RTVSPost2010Prop57
140
1.0
102
RTVSPost2010PropOp57
 70
     1
102
RTVSPropertyOp0
 70
     1
102
RTVSPropertyOp1
 70
     1
102
RTVSPropertyOp2
 70
     1
102
RTVSPropertyOp3
 70
     1
102
RTVSPropertyOp4
 70
     1
102
RTVSPropertyOp5
 70
     1
102
RTVSPropertyOp6
 70
     1
102
RTVSPropertyOp7
 70
     1
102
RTVSPropertyOp8
 70
     1
102
RTVSPropertyOp9
 70
     1
102
RTVSPropertyOp10
 70
     1
102
RTVSPropertyOp11
 70
     1
102
RTVSPropertyOp12
 70
     1
102
RTVSPropertyOp13
 70
     1
102
RTVSPropertyOp14
 70
     1
102
RTVSPropertyOp15
 70
     1
102
RTVSPropertyOp16
 70
     1
102
RTVSPropertyOp17
 70
     1
102
RTVSPropertyOp18
 70
     1
102
RTVSPropertyOp19
 70
     1
102
RTVSPropertyOp20
 70
     1
102
RTVSPropertyOp21
 70
     1
102
RTVSPropertyOp22
 70
     1
102
RTVSPropertyOp23
 70
     1
102
RTVSPropertyOp24
 70
     1
102
RTVSPropertyOp25
 70
     1
102
RTVSPropertyOp26
 70
     1
102
RTVSPropertyOp27
 70
     1
102
RTVSPropertyOp28
 70
     1
102
RTVSPropertyOp29
 70
     1
102
RTVSPropertyOp30
 70
     1
102
RTVSPropertyOp31
 70
     1
102
RTVSPropertyOp32
 70
     1
102
RTVSPropertyOp33
 70
     1
102
RTVSPropertyOp34
 70
     1
102
RTVSPropertyOp35
 70
     1
102
RTVSPropertyOp36
 70
     1
102
RTVSPropertyOp37
 70
     1
102
RTVSPropertyOp38
 70
     1
102
RTVSPropertyOp39
 70
     1
102
RTVSPropertyOp40
 70
     1
102
RTVSPropertyOp41
 70
     1
102
RTVSPropertyOp42
 70
     1
102
RTVSPropertyOp43
 70
     1
102
RTVSPropertyOp44
 70
     1
102
RTVSPropertyOp45
 70
     1
102
RTVSPropertyOp46
 70
     1
102
RTVSPropertyOp47
 70
     1
102
RTVSPropertyOp48
 70
     1
102
RTVSPropertyOp49
 70
     1
102
RTVSPropertyOp50
 70
     1
102
RTVSPropertyOp51
 70
     0
102
RTVSPropertyOp52
 70
     0
102
RTVSPropertyOp53
 70
     1
102
RTVSPropertyOp54
 70
     1
102
RTVSPropertyOp55
 70
     1
102
RTVSPropertyOp56
 70
     1
102
RTVSPropertyOp57
 70
     1
102
RTVSPropertyOp58
 70
     1
102
RTVSPropertyOp59
 70
     1
102
RTVSPropertyOp60
 70
     1
102
RTVSPropertyOp61
 70
     1
102
RTVSPropertyOp62
 70
     1
  0
XRECORD
  5
23C
102
{ACAD_REACTORS
330
23B
102
}
330
23B
100
AcDbXrecord
280
     1
102
RTVSPost2010Prop28
280
     0
102
RTVSPost2010PropOp28
 70
     1
102
RTVSPost2010Prop29
280
     1
102
RTVSPost2010PropOp29
 70
     1
102
RTVSPost2010Prop30
280
     1
102
RTVSPost2010PropOp30
 70
     1
102
RTVSPost2010Prop31
280
     0
102
RTVSPost2010PropOp31
 70
     1
102
RTVSPost2010Prop32
280
     0
102
RTVSPost2010PropOp32
 70
     1
102
RTVSPost2010Prop33
280
     0
102
RTVSPost2010PropOp33
 70
     1
102
RTVSPost2010Prop34
280
     0
102
RTVSPost2010PropOp34
 70
     1
102
RTVSPost2010Prop35
280
     0
102
RTVSPost2010PropOp35
 70
     1
102
RTVSPost2010Prop36
280
     0
102
RTVSPost2010PropOp36
 70
     1
102
RTVSPost2010Prop37
 90
       50
102
RTVSPost2010PropOp37
 70
     1
102
RTVSPost2010Prop38
140
0.0
102
RTVSPost2010PropOp38
 70
     1
102
RTVSPost2010Prop39
140
1.0
102
RTVSPost2010PropOp39
 70
     1
102
RTVSPost2010Prop40
 90
        0
102
RTVSPost2010PropOp40
 70
     1
102
RTVSPost2010Prop41ColorIndex
 90
       18
102
RTVSPost2010Prop41ColorRGB
 90
        0
102
RTVSPost2010PropOp41
 70
     1
102
RTVSPost2010Prop42
 90
       50
102
RTVSPost2010PropOp42
 70
     1
102
RTVSPost2010Prop43
 90
        3
102
RTVSPost2010PropOp43
 70
     1
102
RTVSPost2010Prop44ColorIndex
 90
        5
102
RTVSPost2010Prop44ColorRGB
 90
      255
102
RTVSPost2010PropOp44
 70
     1
102
RTVSPost2010Prop45
280
     0
102
RTVSPost2010PropOp45
 70
     1
102
RTVSPost2010Prop46
 90
       50
102
RTVSPost2010PropOp46
 70
     1
102
RTVSPost2010Prop47
 90
       50
102
RTVSPost2010PropOp47
 70
     1
102
RTVSPost2010Prop48
 90
       50
102
RTVSPost2010PropOp48
 70
     1
102
RTVSPost2010Prop49
280
     0
102
RTVSPost2010PropOp49
 70
     1
102
RTVSPost2010Prop50
 90
       50
102
RTVSPost2010PropOp50
 70
     1
102
RTVSPost2010Prop51ColorIndex
 90
      256
102
RTVSPost2010Prop51ColorRGB
 90
-16777216
102
RTVSPost2010PropOp51
 70
     0
102
RTVSPost2010Prop52
140
1.0
102
RTVSPost2010PropOp52
 70
     0
102
RTVSPost2010Prop53
 90
        2
102
RTVSPost2010PropOp53
 70
     1
102
RTVSPost2010Prop54
  1
strokes_ogs.tif
102
RTVSPost2010PropOp54
 70
     1
102
RTVSPost2010Prop55
280
     0
102
RTVSPost2010PropOp55
 70
     1
102
RTVSPost2010Prop56
140
1.0
102
RTVSPost2010PropOp56
 70
     1
102
RTVSPost2010Prop57
140
1.0
102
RTVSPost2010PropOp57
 70
     1
102
RTVSPropertyOp0
 70
     1
102
RTVSPropertyOp1
 70
     1
102
RTVSPropertyOp2
 70
     1
102
RTVSPropertyOp3
 70
     1
102
RTVSPropertyOp4
 70
     1
102
RTVSPropertyOp5
 70
     1
102
RTVSPropertyOp6
 70
     1
102
RTVSPropertyOp7
 70
     1
102
RTVSPropertyOp8
 70
     1
102
RTVSPropertyOp9
 70
     1
102
RTVSPropertyOp10
 70
     1
102
RTVSPropertyOp11
 70
     1
102
RTVSPropertyOp12
 70
     1
102
RTVSPropertyOp13
 70
     1
102
RTVSPropertyOp14
 70
     1
102
RTVSPropertyOp15
 70
     1
102
RTVSPropertyOp16
 70
     1
102
RTVSPropertyOp17
 70
     1
102
RTVSPropertyOp18
 70
     1
102
RTVSPropertyOp19
 70
     1
102
RTVSPropertyOp20
 70
     1
102
RTVSPropertyOp21
 70
     1
102
RTVSPropertyOp22
 70
     1
102
RTVSPropertyOp23
 70
     1
102
RTVSPropertyOp24
 70
     1
102
RTVSPropertyOp25
 70
     1
102
RTVSPropertyOp26
 70
     1
102
RTVSPropertyOp27
 70
     1
102
RTVSPropertyOp28
 70
     1
102
RTVSPropertyOp29
 70
     1
102
RTVSPropertyOp30
 70
     1
102
RTVSPropertyOp31
 70
     1
102
RTVSPropertyOp32
 70
     1
102
RTVSPropertyOp33
 70
     1
102
RTVSPropertyOp34
 70
     1
102
RTVSPropertyOp35
 70
     1
102
RTVSPropertyOp36
 70
     1
102
RTVSPropertyOp37
 70
     1
102
RTVSPropertyOp38
 70
     1
102
RTVSPropertyOp39
 70
     1
102
RTVSPropertyOp40
 70
     1
102
RTVSPropertyOp41
 70
     1
102
RTVSPropertyOp42
 70
     1
102
RTVSPropertyOp43
 70
     1
102
RTVSPropertyOp44
 70
     1
102
RTVSPropertyOp45
 70
     1
102
RTVSPropertyOp46
 70
     1
102
RTVSPropertyOp47
 70
     1
102
RTVSPropertyOp48
 70
     1
102
RTVSPropertyOp49
 70
     1
102
RTVSPropertyOp50
 70
     1
102
RTVSPropertyOp51
 70
     0
102
RTVSPropertyOp52
 70
     0
102
RTVSPropertyOp53
 70
     1
102
RTVSPropertyOp54
 70
     1
102
RTVSPropertyOp55
 70
     1
102
RTVSPropertyOp56
 70
     1
102
RTVSPropertyOp57
 70
     1
102
RTVSPropertyOp58
 70
     1
102
RTVSPropertyOp59
 70
     1
102
RTVSPropertyOp60
 70
     1
102
RTVSPropertyOp61
 70
     1
102
RTVSPropertyOp62
 70
     1
  0
ENDSEC
  0
EOF
