  0
SECTION
  2
HEADER
  9
$ACADVER
  1
AC1018
  9
$ACADMAINTVER
 70
   104
  9
$DWGCODEPAGE
  3
ANSI_932
  9
$INSBASE
 10
0.0
 20
0.0
 30
0.0
  9
$EXTMIN
 10
1.73851219769375
 20
3.837132772890015
 30
0.0
  9
$EXTMAX
 10
51.73880458099194
 20
28.41341959048432
 30
0.0
  9
$LIMMIN
 10
-2.978526512997632
 20
-1.127926132925495
  9
$LIMMAX
 10
55.35338878184484
 20
31.68928929318099
  9
$ORTHOMODE
 70
     0
  9
$REGENMODE
 70
     1
  9
$FILLMODE
 70
     1
  9
$QTEXTMODE
 70
     0
  9
$MIRRTEXT
 70
     0
  9
$LTSCALE
 40
1.0
  9
$ATTMODE
 70
     1
  9
$TEXTSIZE
 40
2.5
  9
$TRACEWID
 40
1.0
  9
$TEXTSTYLE
  7
Standard
  9
$CLAYER
  8
0
  9
$CELTYPE
  6
ByLayer
  9
$CECOLOR
 62
   256
  9
$CELTSCALE
 40
1.0
  9
$DISPSILH
 70
     0
  9
$DIMSCALE
 40
1.0
  9
$DIMASZ
 40
2.5
  9
$DIMEXO
 40
0.625
  9
$DIMDLI
 40
3.75
  9
$DIMRND
 40
0.0
  9
$DIMDLE
 40
0.0
  9
$DIMEXE
 40
1.25
  9
$DIMTP
 40
0.0
  9
$DIMTM
 40
0.0
  9
$DIMTXT
 40
2.5
  9
$DIMCEN
 40
2.5
  9
$DIMTSZ
 40
0.0
  9
$DIMTOL
 70
     0
  9
$DIMLIM
 70
     0
  9
$DIMTIH
 70
     0
  9
$DIMTOH
 70
     0
  9
$DIMSE1
 70
     0
  9
$DIMSE2
 70
     0
  9
$DIMTAD
 70
     1
  9
$DIMZIN
 70
     8
  9
$DIMBLK
  1

  9
$DIMASO
 70
     1
  9
$DIMSHO
 70
     1
  9
$DIMPOST
  1

  9
$DIMAPOST
  1

  9
$DIMALT
 70
     0
  9
$DIMALTD
 70
     3
  9
$DIMALTF
 40
0.03937007874016
  9
$DIMLFAC
 40
1.0
  9
$DIMTOFL
 70
     1
  9
$DIMTVP
 40
0.0
  9
$DIMTIX
 70
     0
  9
$DIMSOXD
 70
     0
  9
$DIMSAH
 70
     0
  9
$DIMBLK1
  1

  9
$DIMBLK2
  1

  9
$DIMSTYLE
  2
ISO-25
  9
$DIMCLRD
 70
     0
  9
$DIMCLRE
 70
     0
  9
$DIMCLRT
 70
     0
  9
$DIMTFAC
 40
1.0
  9
$DIMGAP
 40
0.625
  9
$DIMJUST
 70
     0
  9
$DIMSD1
 70
     0
  9
$DIMSD2
 70
     0
  9
$DIMTOLJ
 70
     0
  9
$DIMTZIN
 70
     8
  9
$DIMALTZ
 70
     0
  9
$DIMALTTZ
 70
     0
  9
$DIMUPT
 70
     0
  9
$DIMDEC
 70
     2
  9
$DIMTDEC
 70
     2
  9
$DIMALTU
 70
     2
  9
$DIMALTTD
 70
     3
  9
$DIMTXSTY
  7
Standard
  9
$DIMAUNIT
 70
     0
  9
$DIMADEC
 70
     0
  9
$DIMALTRND
 40
0.0
  9
$DIMAZIN
 70
     0
  9
$DIMDSEP
 70
    44
  9
$DIMATFIT
 70
     3
  9
$DIMFRAC
 70
     0
  9
$DIMLDRBLK
  1

  9
$DIMLUNIT
 70
     2
  9
$DIMLWD
 70
    -2
  9
$DIMLWE
 70
    -2
  9
$DIMTMOVE
 70
     0
  9
$LUNITS
 70
     2
  9
$LUPREC
 70
     4
  9
$SKETCHINC
 40
1.0
  9
$FILLETRAD
 40
0.0
  9
$AUNITS
 70
     0
  9
$AUPREC
 70
     0
  9
$MENU
  1
.
  9
$ELEVATION
 40
0.0
  9
$PELEVATION
 40
0.0
  9
$THICKNESS
 40
0.0
  9
$LIMCHECK
 70
     1
  9
$CHAMFERA
 40
0.0
  9
$CHAMFERB
 40
0.0
  9
$CHAMFERC
 40
0.0
  9
$CHAMFERD
 40
0.0
  9
$SKPOLY
 70
     0
  9
$TDCREATE
 40
2458205.436967593
  9
$TDUCREATE
 40
2458205.103634259
  9
$TDUPDATE
 40
2458205.439594907
  9
$TDUUPDATE
 40
2458205.106261575
  9
$TDINDWG
 40
0.0041666667
  9
$TDUSRTIMER
 40
0.0041666667
  9
$USRTIMER
 70
     1
  9
$ANGBASE
 50
0.0
  9
$ANGDIR
 70
     0
  9
$PDMODE
 70
     0
  9
$PDSIZE
 40
0.0
  9
$PLINEWID
 40
0.0
  9
$SPLFRAME
 70
     0
  9
$SPLINETYPE
 70
     6
  9
$SPLINESEGS
 70
     8
  9
$HANDSEED
  5
286
  9
$SURFTAB1
 70
     6
  9
$SURFTAB2
 70
     6
  9
$SURFTYPE
 70
     6
  9
$SURFU
 70
     6
  9
$SURFV
 70
     6
  9
$UCSBASE
  2

  9
$UCSNAME
  2

  9
$UCSORG
 10
0.0
 20
0.0
 30
0.0
  9
$UCSXDIR
 10
1.0
 20
0.0
 30
0.0
  9
$UCSYDIR
 10
0.0
 20
1.0
 30
0.0
  9
$UCSORTHOREF
  2

  9
$UCSORTHOVIEW
 70
     0
  9
$UCSORGTOP
 10
0.0
 20
0.0
 30
0.0
  9
$UCSORGBOTTOM
 10
0.0
 20
0.0
 30
0.0
  9
$UCSORGLEFT
 10
0.0
 20
0.0
 30
0.0
  9
$UCSORGRIGHT
 10
0.0
 20
0.0
 30
0.0
  9
$UCSORGFRONT
 10
0.0
 20
0.0
 30
0.0
  9
$UCSORGBACK
 10
0.0
 20
0.0
 30
0.0
  9
$PUCSBASE
  2

  9
$PUCSNAME
  2

  9
$PUCSORG
 10
0.0
 20
0.0
 30
0.0
  9
$PUCSXDIR
 10
1.0
 20
0.0
 30
0.0
  9
$PUCSYDIR
 10
0.0
 20
1.0
 30
0.0
  9
$PUCSORTHOREF
  2

  9
$PUCSORTHOVIEW
 70
     0
  9
$PUCSORGTOP
 10
0.0
 20
0.0
 30
0.0
  9
$PUCSORGBOTTOM
 10
0.0
 20
0.0
 30
0.0
  9
$PUCSORGLEFT
 10
0.0
 20
0.0
 30
0.0
  9
$PUCSORGRIGHT
 10
0.0
 20
0.0
 30
0.0
  9
$PUCSORGFRONT
 10
0.0
 20
0.0
 30
0.0
  9
$PUCSORGBACK
 10
0.0
 20
0.0
 30
0.0
  9
$USERI1
 70
     0
  9
$USERI2
 70
     0
  9
$USERI3
 70
     0
  9
$USERI4
 70
     0
  9
$USERI5
 70
     0
  9
$USERR1
 40
0.0
  9
$USERR2
 40
0.0
  9
$USERR3
 40
0.0
  9
$USERR4
 40
0.0
  9
$USERR5
 40
0.0
  9
$WORLDVIEW
 70
     1
  9
$SHADEDGE
 70
     3
  9
$SHADEDIF
 70
    70
  9
$TILEMODE
 70
     1
  9
$MAXACTVP
 70
    64
  9
$PINSBASE
 10
0.0
 20
0.0
 30
0.0
  9
$PLIMCHECK
 70
     0
  9
$PEXTMIN
 10
0.0
 20
0.0
 30
0.0
  9
$PEXTMAX
 10
0.0
 20
0.0
 30
0.0
  9
$PLIMMIN
 10
0.0
 20
0.0
  9
$PLIMMAX
 10
12.0
 20
9.0
  9
$UNITMODE
 70
     0
  9
$VISRETAIN
 70
     1
  9
$PLINEGEN
 70
     0
  9
$PSLTSCALE
 70
     1
  9
$TREEDEPTH
 70
  3020
  9
$CMLSTYLE
  2
Standard
  9
$CMLJUST
 70
     0
  9
$CMLSCALE
 40
20.0
  9
$PROXYGRAPHICS
 70
     1
  9
$MEASUREMENT
 70
     1
  9
$CELWEIGHT
370
    -1
  9
$ENDCAPS
280
     0
  9
$JOINSTYLE
280
     0
  9
$LWDISPLAY
290
     0
  9
$INSUNITS
 70
     4
  9
$HYPERLINKBASE
  1

  9
$STYLESHEET
  1

  9
$XEDIT
290
     1
  9
$CEPSNTYPE
380
     0
  9
$PSTYLEMODE
290
     1
  9
$FINGERPRINTGUID
  2
{ABF867B3-4619-084E-A299-46967562E470}
  9
$VERSIONGUID
  2
{8241105C-179B-7D47-865C-982AEE5DD998}
  9
$EXTNAMES
290
     1
  9
$PSVPSCALE
 40
0.0
  9
$OLESTARTUP
290
     0
  9
$SORTENTS
280
   127
  9
$INDEXCTL
280
     0
  9
$HIDETEXT
280
     1
  9
$XCLIPFRAME
290
     0
  9
$HALOGAP
280
     0
  9
$OBSCOLOR
 70
   257
  9
$OBSLTYPE
280
     0
  9
$INTERSECTIONDISPLAY
280
     0
  9
$INTERSECTIONCOLOR
 70
   257
  9
$DIMASSOC
280
     2
  9
$PROJECTNAME
  1

  0
ENDSEC
  0
SECTION
  2
CLASSES
  0
CLASS
  1
ACDBDICTIONARYWDFLT
  2
AcDbDictionaryWithDefault
  3
ObjectDBX Classes
 90
        0
 91
        1
280
     0
281
     0
  0
CLASS
  1
DICTIONARYVAR
  2
AcDbDictionaryVar
  3
ObjectDBX Classes
 90
        0
 91
       15
280
     0
281
     0
  0
CLASS
  1
TABLESTYLE
  2
AcDbTableStyle
  3
ObjectDBX Classes
 90
     4095
 91
        1
280
     0
281
     0
  0
CLASS
  1
MATERIAL
  2
AcDbMaterial
  3
ObjectDBX Classes
 90
     1153
 91
        3
280
     0
281
     0
  0
CLASS
  1
VISUALSTYLE
  2
AcDbVisualStyle
  3
ObjectDBX Classes
 90
     4095
 91
        3
280
     0
281
     0
  0
CLASS
  1
SCALE
  2
AcDbScale
  3
ObjectDBX Classes
 90
     1153
 91
       17
280
     0
281
     0
  0
CLASS
  1
MLEADERSTYLE
  2
AcDbMLeaderStyle
  3
ACDB_MLEADERSTYLE_CLASS
 90
     4095
 91
        0
280
     0
281
     0
  0
CLASS
  1
CELLSTYLEMAP
  2
AcDbCellStyleMap
  3
ObjectDBX Classes
 90
     1152
 91
        1
280
     0
281
     0
  0
CLASS
  1
EXACXREFPANELOBJECT
  2
ExAcXREFPanelObject
  3
EXAC_ESW
 90
     1025
 91
        0
280
     1
281
     0
  0
CLASS
  1
NPOCOLLECTION
  2
AcDbImpNonPersistentObjectsCollection
  3
ObjectDBX Classes
 90
     1153
 91
        0
280
     0
281
     0
  0
CLASS
  1
LAYER_INDEX
  2
AcDbLayerIndex
  3
ObjectDBX Classes
 90
        0
 91
        0
280
     0
281
     0
  0
CLASS
  1
SPATIAL_INDEX
  2
AcDbSpatialIndex
  3
ObjectDBX Classes
 90
        0
 91
        0
280
     0
281
     0
  0
CLASS
  1
IDBUFFER
  2
AcDbIdBuffer
  3
ObjectDBX Classes
 90
        0
 91
        0
280
     0
281
     0
  0
CLASS
  1
ACDBSECTIONVIEWSTYLE
  2
AcDbSectionViewStyle
  3
ObjectDBX Classes
 90
     1025
 91
        0
280
     0
281
     0
  0
CLASS
  1
ACDBDETAILVIEWSTYLE
  2
AcDbDetailViewStyle
  3
ObjectDBX Classes
 90
     1025
 91
        0
280
     0
281
     0
  0
CLASS
  1
SORTENTSTABLE
  2
AcDbSortentsTable
  3
ObjectDBX Classes
 90
        0
 91
        0
280
     0
281
     0
  0
ENDSEC
  0
SECTION
  2
TABLES
  0
TABLE
  2
VPORT
  5
2B
330
0
100
AcDbSymbolTable
 70
     1
  0
VPORT
  5
2C
330
2B
100
AcDbSymbolTableRecord
100
AcDbViewportTableRecord
  2
*Active
 70
     0
 10
0.0
 20
0.0
 11
1.0
 21
1.0
 12
26.18743113442361
 22
18.9347784286096
 13
0.0
 23
0.0
 14
10.0
 24
10.0
 15
10.0
 25
10.0
 16
0.0
 26
0.0
 36
1.0
 17
0.0
 27
0.0
 37
0.0
 40
33.11340734672216
 41
2.326023391812865
 42
50.0
 43
0.0
 44
0.0
 50
0.0
 51
0.0
 71
     0
 72
  1000
 73
     1
 74
     3
 75
     0
 76
     1
 77
     0
 78
     0
281
     0
 65
     1
110
0.0
120
0.0
130
0.0
111
1.0
121
0.0
131
0.0
112
0.0
122
1.0
132
0.0
 79
     0
146
0.0
1001
ACAD_NAV_VCDISPLAY
1070
     3
  0
ENDTAB
  0
TABLE
  2
LTYPE
  5
26
330
0
100
AcDbSymbolTable
 70
     1
  0
LTYPE
  5
27
330
26
100
AcDbSymbolTableRecord
100
AcDbLinetypeTableRecord
  2
ByBlock
 70
     0
  3

 72
    65
 73
     0
 40
0.0
  0
LTYPE
  5
28
330
26
100
AcDbSymbolTableRecord
100
AcDbLinetypeTableRecord
  2
ByLayer
 70
     0
  3

 72
    65
 73
     0
 40
0.0
  0
LTYPE
  5
13
330
26
100
AcDbSymbolTableRecord
100
AcDbLinetypeTableRecord
  2
Continuous
 70
     0
  3
Solid line
 72
    65
 73
     0
 40
0.0
  0
ENDTAB
  0
TABLE
  2
LAYER
  5
20
102
{ACAD_XDICTIONARY
360
21
102
}
330
0
100
AcDbSymbolTable
 70
     1
  0
LAYER
  5
5
102
{ACAD_XDICTIONARY
360
6
102
}
330
20
100
AcDbSymbolTableRecord
100
AcDbLayerTableRecord
  2
0
 70
     0
 62
     7
  6
Continuous
370
    -3
390
7
  0
ENDTAB
  0
TABLE
  2
STYLE
  5
23
330
0
100
AcDbSymbolTable
 70
     1
  0
STYLE
  5
24
330
23
100
AcDbSymbolTableRecord
100
AcDbTextStyleTableRecord
  2
Standard
 70
     0
 40
0.0
 41
1.0
 50
0.0
 71
     0
 42
2.5
  3
arial.ttf
  4

1001
ACAD
1000
Arial
1071
       34
  0
ENDTAB
  0
TABLE
  2
VIEW
  5
29
330
0
100
AcDbSymbolTable
 70
     0
  0
ENDTAB
  0
TABLE
  2
UCS
  5
2A
330
0
100
AcDbSymbolTable
 70
     0
  0
ENDTAB
  0
TABLE
  2
APPID
  5
30
330
0
100
AcDbSymbolTable
 70
     6
  0
APPID
  5
12
330
30
100
AcDbSymbolTableRecord
100
AcDbRegAppTableRecord
  2
ACAD
 70
     0
  0
APPID
  5
1B
330
30
100
AcDbSymbolTableRecord
100
AcDbRegAppTableRecord
  2
ACAD_PSEXT
 70
     0
  0
APPID
  5
34
330
30
100
AcDbSymbolTableRecord
100
AcDbRegAppTableRecord
  2
AcadAnnotative
 70
     0
  0
APPID
  5
35
330
30
100
AcDbSymbolTableRecord
100
AcDbRegAppTableRecord
  2
ACAD_DSTYLE_DIMJAG
 70
     0
  0
APPID
  5
36
330
30
100
AcDbSymbolTableRecord
100
AcDbRegAppTableRecord
  2
ACAD_DSTYLE_DIMTALN
 70
     0
  0
APPID
  5
2F
330
30
100
AcDbSymbolTableRecord
100
AcDbRegAppTableRecord
  2
ACAD_NAV_VCDISPLAY
 70
     0
  0
ENDTAB
  0
TABLE
  2
DIMSTYLE
  5
31
330
0
100
AcDbSymbolTable
 70
     2
100
AcDbDimStyleTable
 71
     2
340
32
340
33
  0
DIMSTYLE
105
33
330
31
100
AcDbSymbolTableRecord
100
AcDbDimStyleTableRecord
  2
Annotative
 70
     0
 40
0.0
 41
2.5
 42
0.625
 43
3.75
 44
1.25
 73
     0
 74
     0
 77
     1
 78
     8
140
2.5
141
2.5
143
0.03937007874016
147
0.625
171
     3
172
     1
271
     2
272
     2
274
     3
278
    44
283
     0
284
     8
340
24
1001
AcadAnnotative
1000
AnnotativeData
1002
{
1070
     1
1070
     1
1002
}
1001
ACAD_DSTYLE_DIMJAG
1070
   388
1040
1.5
1001
ACAD_DSTYLE_DIMTALN
1070
   392
1070
     0
  0
DIMSTYLE
105
32
330
31
100
AcDbSymbolTableRecord
100
AcDbDimStyleTableRecord
  2
ISO-25
 70
     0
 41
2.5
 42
0.625
 43
3.75
 44
1.25
 73
     0
 74
     0
 77
     1
 78
     8
140
2.5
141
2.5
143
0.03937007874016
147
0.625
171
     3
172
     1
271
     2
272
     2
274
     3
278
    44
283
     0
284
     8
340
24
  0
ENDTAB
  0
TABLE
  2
BLOCK_RECORD
  5
1
330
0
100
AcDbSymbolTable
 70
     0
  0
BLOCK_RECORD
  5
2
102
{ACAD_XDICTIONARY
360
3
102
}
330
1
100
AcDbSymbolTableRecord
100
AcDbBlockTableRecord
  2
*Model_Space
340
18
  0
BLOCK_RECORD
  5
1C
330
1
100
AcDbSymbolTableRecord
100
AcDbBlockTableRecord
  2
*Paper_Space
340
1F
  0
ENDTAB
  0
ENDSEC
  0
SECTION
  2
BLOCKS
  0
BLOCK
  5
4
330
2
100
AcDbEntity
  8
0
100
AcDbBlockBegin
  2
*Model_Space
 70
     0
 10
0.0
 20
0.0
 30
0.0
  3
*Model_Space
  1

  0
ENDBLK
  5
17
330
2
100
AcDbEntity
  8
0
100
AcDbBlockEnd
  0
BLOCK
  5
1D
330
1C
100
AcDbEntity
 67
     1
  8
0
100
AcDbBlockBegin
  2
*Paper_Space
 70
     0
 10
0.0
 20
0.0
 30
0.0
  3
*Paper_Space
  1

  0
ENDBLK
  5
1E
330
1C
100
AcDbEntity
 67
     1
  8
0
100
AcDbBlockEnd
  0
ENDSEC
  0
SECTION
  2
ENTITIES
  0
LINE
  5
58
330
2
100
AcDbEntity
  8
0
100
AcDbLine
 10
51.6853724883706
 20
18.70898976757638
 30
0.0
 11
50.48018455574929
 21
19.75271313357962
 31
0.0
  0
LINE
  5
59
330
2
100
AcDbEntity
  8
0
100
AcDbLine
 10
29.19154512654888
 20
19.75271313357962
 30
0.0
 11
27.98635719392758
 21
18.70898976757638
 31
0.0
  0
LINE
  5
5A
330
2
100
AcDbEntity
  8
0
100
AcDbLine
 10
51.62874143794141
 20
18.30496606653724
 30
0.0
 11
51.66874080529463
 21
18.32477592961942
 31
0.0
  0
LINE
  5
5B
330
2
100
AcDbEntity
  8
0
100
AcDbLine
 10
28.00298887706379
 20
18.32477592961942
 30
0.0
 11
28.04298824441702
 21
18.30496606653724
 31
0.0
  0
LINE
  5
5C
330
2
100
AcDbEntity
  8
0
100
AcDbLine
 10
39.70690534776436
 20
20.93045169530211
 30
0.0
 11
39.70690534776436
 21
27.45334701144702
 31
0.0
  0
LINE
  5
5D
330
2
100
AcDbEntity
  8
0
100
AcDbLine
 10
36.09957009012544
 20
26.98604687167534
 30
0.0
 11
36.09957009012544
 21
20.23584104321509
 31
0.0
  0
SPLINE
  5
5E
330
2
100
AcDbEntity
  8
0
100
AcDbSpline
210
0.0
220
0.0
230
1.0
 70
     8
 71
     3
 72
    12
 73
     8
 74
     0
 42
0.000000001
 43
0.0000000001
 40
0.0
 40
0.0
 40
0.0
 40
0.0
 40
0.1814292812455421
 40
0.4157921650615057
 40
0.6513173281689834
 40
0.8893818971947961
 40
1.0
 40
1.0
 40
1.0
 40
1.0
 10
38.70451617254594
 20
28.27813228642197
 30
0.0
 10
38.67385198280317
 20
28.30135694220889
 30
0.0
 10
38.60357705388634
 20
28.35458225317387
 30
0.0
 10
38.46891969403799
 20
28.40055396595193
 30
0.0
 10
38.31229062716841
 20
28.41953357412695
 30
0.0
 10
38.17645831250354
 20
28.40728392628597
 30
0.0
 10
38.09540023565478
 20
28.38615834194587
 30
0.0
 10
38.06968490362834
 20
28.3794563396695
 30
0.0
  0
LINE
  5
5F
330
2
100
AcDbEntity
  8
0
100
AcDbLine
 10
38.77113343862607
 20
28.2256033946706
 30
0.0
 11
38.72593889115274
 21
28.26474302084449
 31
0.0
  0
LINE
  5
60
330
2
100
AcDbEntity
  8
0
100
AcDbLine
 10
39.49100137569877
 20
27.96373585356997
 30
0.0
 11
39.41417257385973
 21
28.02230372154184
 31
0.0
  0
SPLINE
  5
61
330
2
100
AcDbEntity
  8
0
100
AcDbSpline
210
0.0
220
0.0
230
1.0
 70
     8
 71
     3
 72
    11
 73
     7
 74
     0
 42
0.000000001
 43
0.0000000001
 40
0.0
 40
0.0
 40
0.0
 40
0.0
 40
0.1545073475750386
 40
0.4388240648005335
 40
0.7213350165583309
 40
1.0
 40
1.0
 40
1.0
 40
1.0
 10
39.70690534779351
 20
27.45334701143344
 30
0.0
 10
39.70590026979016
 20
27.48400363763926
 30
0.0
 10
39.70304569735708
 20
27.57107305884029
 30
0.0
 10
39.67096945856906
 20
27.70571425304559
 30
0.0
 10
39.60329847717583
 20
27.84827027787031
 30
0.0
 10
39.53274459602171
 20
27.92148120471251
 30
0.0
 10
39.49770942275353
 20
27.95783579591381
 30
0.0
  0
LINE
  5
62
330
2
100
AcDbEntity
  8
0
100
AcDbLine
 10
38.0696849036441
 20
28.37945633965279
 30
0.0
 11
37.86036059869394
 21
28.31902961780247
 31
0.0
  0
SPLINE
  5
63
330
2
100
AcDbEntity
  8
0
100
AcDbSpline
210
0.0
220
0.0
230
1.0
 70
     8
 71
     3
 72
    16
 73
    12
 74
     0
 42
0.000000001
 43
0.0000000001
 40
0.0
 40
0.0
 40
0.0
 40
0.0
 40
0.0698495378242813
 40
0.1990379081207496
 40
0.3285182403160729
 40
0.4581529125746114
 40
0.587925197279928
 40
0.717882895621127
 40
0.8480723407691128
 40
0.9707891010511616
 40
1.0
 40
1.0
 40
1.0
 40
1.0
 10
36.92158920104544
 20
28.04802965819869
 30
0.0
 10
36.8912260009912
 20
28.03826623180873
 30
0.0
 10
36.80470534515178
 20
28.01044511766401
 30
0.0
 10
36.66524053665416
 20
27.93917875351366
 30
0.0
 10
36.51173621102441
 20
27.82778840687746
 30
0.0
 10
36.37520010676337
 20
27.69121369675571
 30
0.0
 10
36.26107549144069
 20
27.53538274008764
 30
0.0
 10
36.17386306276757
 20
27.36607937362595
 30
0.0
 10
36.1186704727694
 20
27.19335708428423
 30
0.0
 10
36.10070722103416
 20
27.06582719473586
 30
0.0
 10
36.099753466952
 20
26.99891246462204
 30
0.0
 10
36.09957009011168
 20
26.98604687168501
 30
0.0
  0
LINE
  5
64
330
2
100
AcDbEntity
  8
0
100
AcDbLine
 10
37.86036059869394
 20
28.31902961780247
 30
0.0
 11
36.92158920101657
 21
28.04802965818197
 31
0.0
  0
SPLINE
  5
65
330
2
100
AcDbEntity
  8
0
100
AcDbSpline
210
0.0
220
0.0
230
1.0
 70
     8
 71
     3
 72
    12
 73
     8
 74
     0
 42
0.000000001
 43
0.0000000001
 40
0.0
 40
0.0
 40
0.0
 40
0.0
 40
0.1814292812455341
 40
0.415792165061499
 40
0.6513173281689814
 40
0.8893818971947844
 40
1.0
 40
1.0
 40
1.0
 40
1.0
 10
42.88056889991469
 20
27.67453436853049
 30
0.0
 10
42.84990471017221
 20
27.69775902431735
 30
0.0
 10
42.77962978125538
 20
27.75098433528234
 30
0.0
 10
42.64497242140703
 20
27.79695604806045
 30
0.0
 10
42.48834335453715
 20
27.81593565623547
 30
0.0
 10
42.3525110398723
 20
27.80368600839445
 30
0.0
 10
42.27145296302381
 20
27.78256042405457
 30
0.0
 10
42.24573763099715
 20
27.77585842177814
 30
0.0
  0
LINE
  5
66
330
2
100
AcDbEntity
  8
0
100
AcDbLine
 10
42.94718616598157
 20
27.62200547674263
 30
0.0
 11
42.90199161850829
 21
27.66114510297683
 31
0.0
  0
LINE
  5
67
330
2
100
AcDbEntity
  8
0
100
AcDbLine
 10
34.53514430458364
 20
24.72531554645349
 30
0.0
 11
34.53514430458364
 21
18.82564570549289
 31
0.0
  0
LINE
  5
68
330
2
100
AcDbEntity
  8
0
100
AcDbLine
 10
42.24573763099964
 20
27.77585842178502
 30
0.0
 11
41.73666049180075
 21
27.62890051008458
 31
0.0
  0
SPLINE
  5
69
330
2
100
AcDbEntity
  8
0
100
AcDbSpline
210
0.0
220
0.0
230
1.0
 70
     8
 71
     3
 72
    11
 73
     7
 74
     0
 42
0.000000001
 43
0.0000000001
 40
0.0
 40
0.0
 40
0.0
 40
0.0
 40
0.1104046517395704
 40
0.5209289446612722
 40
0.9078897400403908
 40
1.0
 40
1.0
 40
1.0
 40
1.0
 10
34.63797034322022
 20
25.1496577797771
 30
0.0
 10
34.62994306051968
 20
25.1346225179305
 30
0.0
 10
34.59206744712924
 20
25.06368073275104
 30
0.0
 10
34.55564296698844
 20
24.9321832481017
 30
0.0
 10
34.53621712889486
 20
24.80511622047556
 30
0.0
 10
34.53531731114936
 20
24.73818442123167
 30
0.0
 10
34.53514430456591
 20
24.72531554643917
 30
0.0
  0
LINE
  5
6A
330
2
100
AcDbEntity
  8
0
100
AcDbLine
 10
45.13658537777485
 20
18.83121851257005
 30
0.0
 11
45.13658537777472
 21
25.40251962281644
 31
0.0
  0
SPLINE
  5
6B
330
2
100
AcDbEntity
  8
0
100
AcDbSpline
210
0.0
220
0.0
230
1.0
 70
     8
 71
     3
 72
    11
 73
     7
 74
     0
 42
0.000000001
 43
0.0000000001
 40
0.0
 40
0.0
 40
0.0
 40
0.0
 40
0.2705903802847378
 40
0.6201279048840167
 40
0.9713988960623025
 40
1.0
 40
1.0
 40
1.0
 40
1.0
 10
43.87689987094882
 20
26.15334516832201
 30
0.0
 10
43.84262058832121
 20
26.1753384302786
 30
0.0
 10
43.77239015856189
 20
26.22886882586016
 30
0.0
 10
43.63732325860723
 20
26.27203274646246
 30
0.0
 10
43.53025689613708
 20
26.29292901818514
 30
0.0
 10
43.47144319307671
 20
26.28690663711218
 30
0.0
 10
43.46701502671277
 20
26.28645320357697
 30
0.0
  0
LINE
  5
6C
330
2
100
AcDbEntity
  8
0
100
AcDbLine
 10
43.93988262713564
 20
26.09945176025127
 30
0.0
 11
43.89468807966237
 21
26.13859138648543
 31
0.0
  0
SPLINE
  5
6D
330
2
100
AcDbEntity
  8
0
100
AcDbSpline
210
0.0
220
0.0
230
1.0
 70
     8
 71
     3
 72
    11
 73
     7
 74
     0
 42
0.000000001
 43
0.0000000001
 40
0.0
 40
0.0
 40
0.0
 40
0.0
 40
0.1545073475750416
 40
0.4388240648005168
 40
0.7213350165583227
 40
1.0
 40
1.0
 40
1.0
 40
1.0
 10
45.13658537777496
 20
25.40251962281548
 30
0.0
 10
45.13558029977099
 20
25.43317624902119
 30
0.0
 10
45.13272572733852
 20
25.52024567022233
 30
0.0
 10
45.10064948854989
 20
25.65488686442762
 30
0.0
 10
45.03297850715727
 20
25.79744288925241
 30
0.0
 10
44.96242462600252
 20
25.8706538160946
 30
0.0
 10
44.92738945273457
 20
25.90700840729591
 30
0.0
  0
LINE
  5
6E
330
2
100
AcDbEntity
  8
0
100
AcDbLine
 10
41.89696595849972
 20
20.74133598871668
 30
0.0
 11
41.89696595849972
 21
27.18100280250098
 31
0.0
  0
LINE
  5
6F
330
2
100
AcDbEntity
  8
0
100
AcDbLine
 10
35.8681924916924
 20
26.01469366180896
 30
0.0
 11
35.8681924916924
 21
20.13036549739599
 31
0.0
  0
SPLINE
  5
70
330
2
100
AcDbEntity
  8
0
100
AcDbSpline
210
0.0
220
0.0
230
1.0
 70
     8
 71
     3
 72
    10
 73
     6
 74
     0
 42
0.000000001
 43
0.0000000001
 40
0.0
 40
0.0
 40
0.0
 40
0.0
 40
0.2867385838583293
 40
0.6571356937018638
 40
1.0
 40
1.0
 40
1.0
 40
1.0
 10
39.95522575385036
 20
27.73462079262419
 30
0.0
 10
39.92453661836595
 20
27.75774482207129
 30
0.0
 10
39.85420451982367
 20
27.81073952172864
 30
0.0
 10
39.7239003086031
 20
27.85746141586691
 30
0.0
 10
39.62303281071644
 20
27.86518452986849
 30
0.0
 10
39.57454586903111
 20
27.86889702582681
 30
0.0
  0
LINE
  5
71
330
2
100
AcDbEntity
  8
0
100
AcDbLine
 10
41.68777003344405
 20
27.68549158695601
 30
0.0
 11
41.61474050262632
 21
27.74113717880374
 31
0.0
  0
LINE
  5
72
330
2
100
AcDbEntity
  8
0
100
AcDbLine
 10
40.02184301992236
 20
27.68209190082456
 30
0.0
 11
39.97664847244909
 21
27.72123152705872
 31
0.0
  0
SPLINE
  5
73
330
2
100
AcDbEntity
  8
0
100
AcDbSpline
210
0.0
220
0.0
230
1.0
 70
     8
 71
     3
 72
    11
 73
     7
 74
     0
 42
0.000000001
 43
0.0000000001
 40
0.0
 40
0.0
 40
0.0
 40
0.0
 40
0.1545073475750336
 40
0.4388240648005334
 40
0.7213350165583262
 40
1.0
 40
1.0
 40
1.0
 40
1.0
 10
41.89696595848436
 20
27.18100280247558
 30
0.0
 10
41.89596088048074
 20
27.21165942868129
 30
0.0
 10
41.8931063080477
 20
27.2987288498823
 30
0.0
 10
41.86103006925963
 20
27.43337004408778
 30
0.0
 10
41.79335908786663
 20
27.57592606891251
 30
0.0
 10
41.72280520671228
 20
27.64913699575465
 30
0.0
 10
41.68777003344405
 20
27.68549158695601
 30
0.0
  0
SPLINE
  5
74
330
2
100
AcDbEntity
  8
0
100
AcDbSpline
210
0.0
220
0.0
230
1.0
 70
     8
 71
     3
 72
    12
 73
     8
 74
     0
 42
0.000000001
 43
0.0000000001
 40
0.0
 40
0.0
 40
0.0
 40
0.0
 40
0.1535692531581339
 40
0.4205115435837768
 40
0.6879298583172734
 40
0.9399987505909608
 40
1.0
 40
1.0
 40
1.0
 40
1.0
 10
36.09957009011168
 20
26.65110119674557
 30
0.0
 10
36.07700945078637
 20
26.62180498679532
 30
0.0
 10
36.01523270139217
 20
26.54158453762369
 30
0.0
 10
35.94319617068544
 20
26.39425270607052
 30
0.0
 10
35.88710741371603
 20
26.22212742441792
 30
0.0
 10
35.86933815193754
 20
26.09446830281849
 30
0.0
 10
35.86837724401664
 20
26.02755833844259
 30
0.0
 10
35.86819249171839
 20
26.01469366180663
 30
0.0
  0
LINE
  5
75
330
2
100
AcDbEntity
  8
0
100
AcDbLine
 10
43.20023814096639
 20
26.86257000284314
 30
0.0
 11
43.1509802956291
 21
26.89248950035426
 31
0.0
  0
LINE
  5
76
330
2
100
AcDbEntity
  8
0
100
AcDbLine
 10
43.26322089709289
 20
26.80867659477258
 30
0.0
 11
43.21802634961961
 21
26.84781622100655
 31
0.0
  0
LINE
  5
77
330
2
100
AcDbEntity
  8
0
100
AcDbLine
 10
43.84451124375686
 20
19.75002925531764
 30
0.0
 11
43.84451124375686
 21
20.06314626513068
 31
0.0
  0
LINE
  5
78
330
2
100
AcDbEntity
  8
0
100
AcDbLine
 10
35.82721843854132
 20
20.06314626513068
 30
0.0
 11
35.82721843854132
 21
19.75002925531764
 31
0.0
  0
LINE
  5
79
330
2
100
AcDbEntity
  8
0
100
AcDbLine
 10
45.56050752110018
 20
17.7578540227629
 30
0.0
 11
45.56050752110018
 21
18.07097103251573
 31
0.0
  0
LINE
  5
7A
330
2
100
AcDbEntity
  8
0
100
AcDbLine
 10
34.11122216119799
 20
18.07097103251573
 30
0.0
 11
34.11122216119799
 21
17.7578540227629
 31
0.0
  0
LINE
  5
7B
330
2
100
AcDbEntity
  8
0
100
AcDbLine
 10
33.09542775803715
 20
13.29769825876485
 30
0.0
 11
33.10806444016453
 21
13.17277101230002
 31
0.0
  0
LINE
  5
7C
330
2
100
AcDbEntity
  8
0
100
AcDbLine
 10
46.56366524219385
 20
13.17277101230002
 30
0.0
 11
46.57630192432129
 21
13.29769825876485
 31
0.0
  0
SPLINE
  5
7D
330
2
100
AcDbEntity
  8
0
100
AcDbSpline
210
0.0
220
0.0
230
1.0
 70
     8
 71
     3
 72
     9
 73
     5
 74
     0
 42
0.000000001
 43
0.0000000001
 40
0.0
 40
0.0
 40
0.0
 40
0.0
 40
0.2498542969126537
 40
1.0
 40
1.0
 40
1.0
 40
1.0
 10
44.07318076280683
 20
17.74413405691968
 30
0.0
 10
44.05648713311854
 20
17.90613446798949
 30
0.0
 10
43.98967367465654
 20
18.55451399586491
 30
0.0
 10
43.9199610734543
 20
19.20192966484558
 30
0.0
 10
43.86766646521141
 20
19.68758574704293
 30
0.0
  0
SPLINE
  5
7E
330
2
100
AcDbEntity
  8
0
100
AcDbSpline
210
0.0
220
0.0
230
1.0
 70
     8
 71
     3
 72
     9
 73
     5
 74
     0
 42
0.000000001
 43
0.0000000001
 40
0.0
 40
0.0
 40
0.0
 40
0.0
 40
0.2406360407857041
 40
1.0
 40
1.0
 40
1.0
 40
1.0
 10
35.80402843175898
 20
19.68761592500607
 30
0.0
 10
35.78713557572672
 20
19.53186310753784
 30
0.0
 10
35.71693471979012
 20
18.88460836980278
 30
0.0
 10
35.64965666226186
 20
18.23637699532531
 30
0.0
 10
35.59911225947896
 20
17.74331280636983
 30
0.0
  0
LINE
  5
7F
330
2
100
AcDbEntity
  8
0
100
AcDbLine
 10
44.07480997183256
 20
17.64352306199583
 30
0.0
 11
44.07318076280683
 21
17.74413405691968
 31
0.0
  0
LINE
  5
80
330
2
100
AcDbEntity
  8
0
100
AcDbLine
 10
35.59911225947896
 20
17.74331280636983
 30
0.0
 11
35.59694680244684
 21
17.64353850894969
 31
0.0
  0
LINE
  5
81
330
2
100
AcDbEntity
  8
0
100
AcDbLine
 10
34.23194196564629
 20
17.78158660781668
 30
0.0
 11
34.21306542860185
 21
16.66726786272062
 31
0.0
  0
LINE
  5
82
330
2
100
AcDbEntity
  8
0
100
AcDbLine
 10
45.45866425375658
 20
16.66726786272062
 30
0.0
 11
45.43978771671207
 21
17.78158660781668
 31
0.0
  0
LINE
  5
83
330
2
100
AcDbEntity
  8
0
100
AcDbLine
 10
34.73665419032204
 20
16.73175331188019
 30
0.0
 11
34.5733235063102
 21
16.77890281904382
 31
0.0
  0
LINE
  5
84
330
2
100
AcDbEntity
  8
0
100
AcDbLine
 10
45.09835558961049
 20
16.77888821602261
 30
0.0
 11
44.93507549203639
 21
16.73175331188019
 31
0.0
  0
LINE
  5
85
330
2
100
AcDbEntity
  8
0
100
AcDbLine
 10
34.87161884689408
 20
18.40515038305006
 30
0.0
 11
34.44456643507505
 21
18.52223173261723
 31
0.0
  0
LINE
  5
86
330
2
100
AcDbEntity
  8
0
100
AcDbLine
 10
45.21302815027229
 20
18.52434934453515
 30
0.0
 11
44.80011083546441
 21
18.40515038305006
 31
0.0
  0
LWPOLYLINE
  5
87
330
2
100
AcDbEntity
  8
0
100
AcDbPolyline
 90
       17
 70
   128
 43
0.0
 10
30.24809377484053
 20
18.5182546291764
 10
30.28708809078222
 20
18.58038235152725
 10
30.28283314375256
 20
18.65745322599088
 10
30.235976710876
 20
18.73773391061792
 10
30.15365225933317
 20
18.80900239886142
 10
30.04839294054597
 20
18.86040870946607
 10
29.9362235316425
 20
18.88412669764506
 10
29.83422080835408
 20
18.87654551465738
 10
29.75791376061022
 20
18.83881932698551
 10
29.71891944472867
 20
18.77669160463455
 10
29.72317439175856
 20
18.69962073017103
 10
29.77003082457469
 20
18.61934004560413
 10
29.85235527617783
 20
18.54807155736063
 10
29.95761459490484
 20
18.49666524675608
 10
30.0697840038082
 20
18.47294725857711
 10
30.17178672709662
 20
18.48052844150435
 10
30.24809377484053
 20
18.5182546291764
  0
LWPOLYLINE
  5
88
330
2
100
AcDbEntity
  8
0
100
AcDbPolyline
 90
        9
 70
   128
 43
0.0
 10
29.23806198133468
 20
18.53762908847028
 10
29.27705629727649
 20
18.59975681082136
 10
29.27280135024677
 20
18.67682768528476
 10
29.22594491737039
 20
18.75710836985166
 10
29.14362046582733
 20
18.82837685809517
 10
29.03836114704024
 20
18.8797831686997
 10
28.92619173819696
 20
18.90350115687869
 10
28.82418901490871
 20
18.89591997389112
 10
28.81923993356185
 20
18.89460723004612
  0
LWPOLYLINE
  5
89
330
2
100
AcDbEntity
  8
0
100
AcDbPolyline
 90
        9
 70
   128
 43
0.0
 10
28.70983591038277
 20
18.79962622511657
 10
28.70888765122305
 20
18.79606606386818
 10
28.71314259825272
 20
18.71899518940472
 10
28.75999903112916
 20
18.63871450483788
 10
28.84232348267199
 20
18.56744601659437
 10
28.94758280145931
 20
18.51603970598972
 10
29.05975221030252
 20
18.49232171781074
 10
29.16175493359083
 20
18.49990290073816
 10
29.23806198133468
 20
18.53762908847028
  0
LINE
  5
8A
330
2
100
AcDbEntity
  8
0
100
AcDbLine
 10
30.60458651130892
 20
18.88048023294908
 30
0.0
 11
29.3457046154204
 21
19.70375552532306
 31
0.0
  0
LINE
  5
8B
330
2
100
AcDbEntity
  8
0
100
AcDbLine
 10
31.64470700052766
 20
17.87968934385895
 30
0.0
 11
32.38424953876512
 21
17.39604818468176
 31
0.0
  0
LINE
  5
8C
330
2
100
AcDbEntity
  8
0
100
AcDbLine
 10
31.60087738256135
 20
16.71762799680374
 30
0.0
 11
30.86133484432395
 21
17.20126915598081
 31
0.0
  0
ARC
  5
8D
330
2
100
AcDbEntity
  8
0
100
AcDbCircle
 10
30.33732388839815
 20
16.39546769284146
 30
0.0
 40
0.9611989803824352
100
AcDbArc
 50
56.96413735990332
 51
75.62988647089767
  0
LINE
  5
8E
330
2
100
AcDbEntity
  8
0
100
AcDbLine
 10
30.57587869558449
 20
17.32659340075116
 30
0.0
 11
30.54122317376624
 21
17.33545988792508
 31
0.0
  0
ARC
  5
8F
330
2
100
AcDbEntity
  8
0
100
AcDbCircle
 10
31.49544240239038
 20
21.05996271944304
 30
0.0
 40
3.844795921537306
100
AcDbArc
 50
236.9641373600047
 51
255.6298864708976
  0
LINE
  5
90
330
2
100
AcDbEntity
  8
0
100
AcDbLine
 10
29.39939857868768
 20
17.83675686694579
 30
0.0
 11
28.37305031623782
 21
18.50796134495636
 31
0.0
  0
ARC
  5
91
330
2
100
AcDbEntity
  8
0
100
AcDbCircle
 10
27.75841978805761
 20
19.91361351087045
 30
0.0
 40
1.469939073508761
100
AcDbArc
 50
315.6185138918031
 51
349.0309109471987
  0
LWPOLYLINE
  5
92
330
2
100
AcDbEntity
  8
0
100
AcDbPolyline
 90
        9
 70
   128
 43
0.0
 10
29.3457046154204
 20
19.70375552532306
 10
29.32363684431613
 20
19.71555331578133
 10
29.30091746883216
 20
19.72263421796668
 10
29.27862356885868
 20
19.72466254051966
 10
29.25781205317554
 20
19.72154212480944
 10
29.23946955388572
 20
19.71342090337623
 10
29.22446565192536
 20
19.70068388706346
 10
29.21351165210473
 20
19.68393491208491
 10
29.2071268614074
 20
19.6639680136779
  0
LINE
  5
93
330
2
100
AcDbEntity
  8
0
100
AcDbLine
 10
29.2071268614074
 20
19.6639680136779
 30
0.0
 11
29.20150304764235
 21
19.63391441249536
 31
0.0
  0
LINE
  5
94
330
2
100
AcDbEntity
  8
0
100
AcDbLine
 10
28.20638940107017
 20
18.36362875860692
 30
0.0
 11
28.80898336738074
 21
18.88549044160851
 31
0.0
  0
ARC
  5
95
330
2
100
AcDbEntity
  8
0
100
AcDbCircle
 10
32.53691231348081
 20
14.15445942300357
 30
0.0
 40
2.972696067866369
100
AcDbArc
 50
34.10418955589987
 51
68.35791659620203
  0
LINE
  5
96
330
2
100
AcDbEntity
  8
0
100
AcDbLine
 10
32.43743726284134
 20
17.36883734921849
 30
0.0
 11
33.63326452772583
 21
16.91759780789368
 31
0.0
  0
ARC
  5
97
330
2
100
AcDbEntity
  8
0
100
AcDbCircle
 10
32.53518135176717
 20
17.62548023732819
 30
0.0
 40
0.2746260711031665
100
AcDbArc
 50
236.6610925817988
 51
249.1503439898984
  0
LWPOLYLINE
  5
98
330
2
100
AcDbEntity
  8
0
100
AcDbPolyline
 90
        5
 70
   128
 43
0.0
 10
28.20638940107017
 20
18.36362875860692
 10
28.14936209412861
 20
18.32209072046845
 10
28.09803195170281
 20
18.30088305348596
 10
28.05437156242943
 20
18.30082075629735
 10
28.04298824441702
 20
18.30496606653724
  0
LINE
  5
99
330
2
100
AcDbEntity
  8
0
100
AcDbLine
 10
32.84989237152212
 20
16.23917762001571
 30
0.0
 11
31.65406510663746
 21
16.69041716134046
 31
0.0
  0
ARC
  5
9A
330
2
100
AcDbEntity
  8
0
100
AcDbCircle
 10
31.7518091955634
 20
16.94706004945021
 30
0.0
 40
0.274626071102168
100
AcDbArc
 50
236.6610925817988
 51
249.1503439898984
  0
ARC
  5
9B
330
2
100
AcDbEntity
  8
0
100
AcDbCircle
 10
31.78108204979049
 20
13.51495560059646
 30
0.0
 40
2.926387041202075
100
AcDbArc
 50
36.76938027300236
 51
68.57813619359816
  0
LINE
  5
9C
330
2
100
AcDbEntity
  8
0
100
AcDbLine
 10
50.27233110361049
 20
17.83675686694579
 30
0.0
 11
51.2986793661206
 21
18.50796134495636
 31
0.0
  0
ARC
  5
9D
330
2
100
AcDbEntity
  8
0
100
AcDbCircle
 10
48.17628727990779
 20
21.05996271944304
 30
0.0
 40
3.844795921536998
100
AcDbArc
 50
284.3701135291023
 51
303.0358626399953
  0
LINE
  5
9E
330
2
100
AcDbEntity
  8
0
100
AcDbLine
 10
49.13050650853193
 20
17.33545988792508
 30
0.0
 11
49.0958509867741
 21
17.32659340075116
 31
0.0
  0
ARC
  5
9F
330
2
100
AcDbEntity
  8
0
100
AcDbCircle
 10
49.33440579390003
 20
16.39546769284146
 30
0.0
 40
0.9611989803826011
100
AcDbArc
 50
104.3701135291023
 51
123.0358626400967
  0
LINE
  5
A0
330
2
100
AcDbEntity
  8
0
100
AcDbLine
 10
48.81039483797422
 20
17.20126915598081
 30
0.0
 11
48.070852299737
 21
16.71762799680374
 31
0.0
  0
LINE
  5
A1
330
2
100
AcDbEntity
  8
0
100
AcDbLine
 10
47.28748014353306
 20
17.39604818468176
 30
0.0
 11
48.02702268177053
 21
17.87968934385895
 31
0.0
  0
LINE
  5
A2
330
2
100
AcDbEntity
  8
0
100
AcDbLine
 10
49.06714317098924
 20
18.88048023294908
 30
0.0
 11
50.32602506693809
 21
19.70375552532306
 31
0.0
  0
ARC
  5
A3
330
2
100
AcDbEntity
  8
0
100
AcDbCircle
 10
51.91330989430088
 20
19.91361351087045
 30
0.0
 40
1.469939073508768
100
AcDbArc
 50
190.9690890528014
 51
224.3814861081969
  0
LWPOLYLINE
  5
A4
330
2
100
AcDbEntity
  8
0
100
AcDbPolyline
 90
        9
 70
   128
 43
0.0
 10
50.32602506693809
 20
19.70375552532306
 10
50.34809283804213
 20
19.71555331578133
 10
50.37081221346602
 20
19.72263421796668
 10
50.39310611349993
 20
19.72466254051966
 10
50.41391762918289
 20
19.72154212480944
 10
50.4322601284727
 20
19.71342090337623
 10
50.44726403037287
 20
19.70068388706346
 10
50.4582180302537
 20
19.68393491208491
 10
50.46460282095103
 20
19.6639680136779
  0
LINE
  5
A5
330
2
100
AcDbEntity
  8
0
100
AcDbLine
 10
50.46460282095103
 20
19.6639680136779
 30
0.0
 11
50.47022663465583
 21
19.63391441249536
 31
0.0
  0
LINE
  5
A6
330
2
100
AcDbEntity
  8
0
100
AcDbLine
 10
50.86274631497763
 20
18.88549044160851
 30
0.0
 11
51.46534028128832
 21
18.36362875860692
 31
0.0
  0
ARC
  5
A7
330
2
100
AcDbEntity
  8
0
100
AcDbCircle
 10
47.13654833059131
 20
17.62548023732819
 30
0.0
 40
0.2746260711039925
100
AcDbArc
 50
290.8496560101991
 51
303.3389074182013
  0
LINE
  5
A8
330
2
100
AcDbEntity
  8
0
100
AcDbLine
 10
46.03846515463259
 20
16.91759780789368
 30
0.0
 11
47.23429241951714
 21
17.36883734921849
 31
0.0
  0
ARC
  5
A9
330
2
100
AcDbEntity
  8
0
100
AcDbCircle
 10
47.13481736887763
 20
14.15445942300357
 30
0.0
 40
2.972696067866522
100
AcDbArc
 50
111.6420834037979
 51
145.8958104441001
  0
LWPOLYLINE
  5
AA
330
2
100
AcDbEntity
  8
0
100
AcDbPolyline
 90
        5
 70
   128
 43
0.0
 10
51.62874143794141
 20
18.30496606653724
 10
51.61735811992901
 20
18.30082075629735
 10
51.57369773059548
 20
18.30088305348596
 10
51.52236758822983
 20
18.32209072046845
 10
51.46534028128832
 20
18.36362875860692
  0
LINE
  5
AB
330
2
100
AcDbEntity
  8
0
100
AcDbLine
 10
48.01766457572103
 20
16.69041716134046
 30
0.0
 11
46.82183731083632
 21
16.23917762001571
 31
0.0
  0
ARC
  5
AC
330
2
100
AcDbEntity
  8
0
100
AcDbCircle
 10
47.9199204867952
 20
16.94706004945021
 30
0.0
 40
0.2746260711008925
100
AcDbArc
 50
290.8496560100982
 51
303.3389074182013
  0
ARC
  5
AD
330
2
100
AcDbEntity
  8
0
100
AcDbCircle
 10
47.91192486643263
 20
13.48705176007735
 30
0.0
 40
2.960149933335955
100
AcDbArc
 50
111.6079876271987
 51
143.0444959061994
  0
LWPOLYLINE
  5
AE
330
2
100
AcDbEntity
  8
0
100
AcDbPolyline
 90
       17
 70
   128
 43
0.0
 10
39.41404906473156
 20
9.849698141975238
 10
39.29874770110632
 20
9.845742022498598
 10
39.20099992478748
 20
9.83447594733758
 10
39.13568694882065
 20
9.817615074335376
 10
39.11275208157628
 20
9.797726318506247
 10
39.13568694882065
 20
9.777837562737259
 10
39.20099992478748
 20
9.760976689674803
 10
39.29874770110632
 20
9.749710614513844
 10
39.41404906473156
 20
9.745754495037148
 10
39.52935042841728
 20
9.749710614513844
 10
39.62709820467593
 20
9.760976689674803
 10
39.69241118070306
 20
9.777837562737259
 10
39.71534604788685
 20
9.797726318506247
 10
39.69241118070306
 20
9.817615074335376
 10
39.62709820467593
 20
9.83447594733758
 10
39.52935042841728
 20
9.845742022498598
 10
39.41404906473156
 20
9.849698141975238
  0
LWPOLYLINE
  5
AF
330
2
100
AcDbEntity
  8
0
100
AcDbPolyline
 90
       17
 70
   128
 43
0.0
 10
40.25768061756649
 20
9.724965765661581
 10
40.14237925394121
 20
9.721009646124626
 10
40.04463147762225
 20
9.709743570963667
 10
39.97931850165554
 20
9.692882697961524
 10
39.95638363441118
 20
9.672993942192476
 10
39.97931850165554
 20
9.653105186363234
 10
40.04463147762225
 20
9.636244313361032
 10
40.14237925394121
 20
9.624978238200071
 10
40.25768061756649
 20
9.621022118663177
 10
40.37298198125228
 20
9.624978238200071
 10
40.47072975751079
 20
9.636244313361032
 10
40.53604273353795
 20
9.653105186363234
 10
40.55897760072173
 20
9.672993942192476
 10
40.53604273353795
 20
9.692882697961524
 10
40.47072975751079
 20
9.709743570963667
 10
40.37298198125228
 20
9.721009646124626
 10
40.25768061756649
 20
9.724965765661581
  0
LWPOLYLINE
  5
B0
330
2
100
AcDbEntity
  8
0
100
AcDbPolyline
 90
       17
 70
   128
 43
0.0
 10
40.25768061756649
 20
9.974430518349207
 10
40.14237925394121
 20
9.970474398872568
 10
40.04463147762225
 20
9.959208323651296
 10
39.97931850165554
 20
9.942347450649092
 10
39.95638363441118
 20
9.922458694880162
 10
39.97931850165554
 20
9.902569939050863
 10
40.04463147762225
 20
9.885709066048717
 10
40.14237925394121
 20
9.874442990887699
 10
40.25768061756649
 20
9.87048687141106
 10
40.37298198125228
 20
9.874442990887699
 10
40.47072975751079
 20
9.885709066048717
 10
40.53604273353795
 20
9.902569939050863
 10
40.55897760072173
 20
9.922458694880162
 10
40.53604273353795
 20
9.942347450649092
 10
40.47072975751079
 20
9.959208323651296
 10
40.37298198125228
 20
9.970474398872568
 10
40.25768061756649
 20
9.974430518349207
  0
LINE
  5
B1
330
2
100
AcDbEntity
  8
0
100
AcDbLine
 10
38.63067690852786
 20
9.842235323929287
 30
0.0
 11
38.63067690852786
 21
9.575286914000797
 31
0.0
  0
LWPOLYLINE
  5
B2
330
2
100
AcDbEntity
  8
0
100
AcDbPolyline
 90
        8
 70
   128
 43
0.0
 10
38.84001151488218
 20
10.01171237185053
 10
38.81415584624079
 20
10.00134537026184
 10
38.75859524361289
 20
9.975881685138856
 10
38.71280847450265
 20
9.949845705739733
 10
38.67699160490906
 20
9.923348922131992
 10
38.6512980081933
 20
9.896504797697671
 10
38.63583770831196
 20
9.869428283020623
 10
38.63067690852786
 20
9.842235323929287
  0
LINE
  5
B3
330
2
100
AcDbEntity
  8
0
100
AcDbLine
 10
41.04105277377033
 20
9.842235323929287
 30
0.0
 11
41.04105277377033
 21
9.575286914000797
 31
0.0
  0
ARC
  5
B4
330
2
100
AcDbEntity
  8
0
100
AcDbCircle
 10
40.45596798268713
 20
9.399188521998835
 30
0.0
 40
0.5853811589111281
100
AcDbArc
 50
268.2859860207017
 51
358.1767252639003
  0
LINE
  5
B5
330
2
100
AcDbEntity
  8
0
100
AcDbLine
 10
40.43845880745975
 20
8.814069277725934
 30
0.0
 11
39.23327087483847
 21
8.814069277725934
 31
0.0
  0
ARC
  5
B6
330
2
100
AcDbEntity
  8
0
100
AcDbCircle
 10
39.21576169961117
 20
9.399188521998835
 30
0.0
 40
0.5853811589111899
100
AcDbArc
 50
181.8232747360965
 51
271.7140139792982
  0
LINE
  5
B7
330
2
100
AcDbEntity
  8
0
100
AcDbLine
 10
38.63067690852786
 20
9.415487547052693
 30
0.0
 11
38.63067690852786
 21
9.38056358028831
 31
0.0
  0
LINE
  5
B8
330
2
100
AcDbEntity
  8
0
100
AcDbLine
 10
41.04105277377033
 20
9.415487547052693
 30
0.0
 11
41.04105277377033
 21
9.38056358028831
 31
0.0
  0
LINE
  5
B9
330
2
100
AcDbEntity
  8
0
100
AcDbLine
 10
38.63067690852786
 20
9.575286914000797
 30
0.0
 11
38.63067690852786
 21
9.415487547052693
 31
0.0
  0
LINE
  5
BA
330
2
100
AcDbEntity
  8
0
100
AcDbLine
 10
41.04105277377033
 20
9.575286914000797
 30
0.0
 11
41.04105277377033
 21
9.415487547052693
 31
0.0
  0
LWPOLYLINE
  5
BB
330
2
100
AcDbEntity
  8
0
100
AcDbPolyline
 90
       17
 70
   128
 43
0.0
 10
49.86505888448295
 20
18.16577403902141
 10
49.94136593222691
 20
18.12804785134932
 10
50.04336865551517
 20
18.12046666836176
 10
50.15553806441864
 20
18.14418465654085
 10
50.26079738314553
 20
18.19559096714539
 10
50.34312183474878
 20
18.2668594553889
 10
50.38997826762521
 20
18.34714014001605
 10
50.39423321465489
 20
18.42421101447945
 10
50.35523889871313
 20
18.48633873683053
 10
50.27893185096928
 20
18.52406492450245
 10
50.17692912768092
 20
18.53164610742988
 10
50.0647597187775
 20
18.50792811925072
 10
49.95950039999018
 20
18.45652180864618
 10
49.87717594844736
 20
18.38525332040268
 10
49.83031951557098
 20
18.30497263583584
 10
49.82606456854124
 20
18.22790176137232
 10
49.86505888448295
 20
18.16577403902141
  0
LWPOLYLINE
  5
BC
330
2
100
AcDbEntity
  8
0
100
AcDbPolyline
 90
       17
 70
   128
 43
0.0
 10
50.03145912515389
 20
18.91575485444519
 10
50.10776617289774
 20
18.87802866677333
 10
50.20976889618594
 20
18.87044748384596
 10
50.32193830502928
 20
18.8941654719648
 10
50.42719762381643
 20
18.94557178256929
 10
50.50952207535942
 20
19.01684027081279
 10
50.55637850823585
 20
19.09712095543994
 10
50.56063345526553
 20
19.17419182990346
 10
50.52163913932378
 20
19.23631955225431
 10
50.44533209157993
 20
19.27404573992628
 10
50.34332936829161
 20
19.2816269228536
 10
50.23115995944824
 20
19.25790893467467
 10
50.1259006406611
 20
19.20650262407007
 10
50.04357618911825
 20
19.13523413582658
 10
49.99671975624181
 20
19.05495345125968
 10
49.99246480921198
 20
18.97788257679627
 10
50.03145912515389
 20
18.91575485444519
  0
LWPOLYLINE
  5
BD
330
2
100
AcDbEntity
  8
0
100
AcDbPolyline
 90
       17
 70
   128
 43
0.0
 10
48.85502709097721
 20
18.14639957978761
 10
48.93133413878132
 20
18.10867339205548
 10
49.03333686206956
 20
18.10109220912812
 10
49.14550627091291
 20
18.12481019730711
 10
49.25076558970011
 20
18.17621650791176
 10
49.33309004124304
 20
18.24748499615521
 10
49.37994647411938
 20
18.32776568072211
 10
49.38420142114927
 20
18.40483655518557
 10
49.34520710520752
 20
18.46696427753653
 10
49.26890005746351
 20
18.50469046526876
 10
49.16689733417519
 20
18.51227164819608
 10
49.05472792527167
 20
18.48855366001697
 10
48.94946860654477
 20
18.43714734941255
 10
48.86714415500183
 20
18.36587886116905
 10
48.82028772212539
 20
18.28559817660215
 10
48.81603277509572
 20
18.20852730213863
 10
48.85502709097721
 20
18.14639957978761
  0
LINE
  5
BE
330
2
100
AcDbEntity
  8
0
100
AcDbLine
 10
50.29193830421825
 20
17.84957945485593
 30
0.0
 11
51.2986793661206
 21
18.50796134495636
 31
0.0
  0
ARC
  5
BF
330
2
100
AcDbEntity
  8
0
100
AcDbCircle
 10
48.19589448051567
 20
21.07278530735306
 30
0.0
 40
3.844795921536011
100
AcDbArc
 50
284.3701135291023
 51
303.0358626399953
  0
LINE
  5
C0
330
2
100
AcDbEntity
  8
0
100
AcDbLine
 10
49.15011370913981
 20
17.3482824758351
 30
0.0
 11
49.1154581873215
 21
17.33941598866107
 31
0.0
  0
ARC
  5
C1
330
2
100
AcDbEntity
  8
0
100
AcDbCircle
 10
49.35401299450767
 20
16.40829028075143
 30
0.0
 40
0.9611989803844574
100
AcDbArc
 50
104.3701135291023
 51
123.0358626399953
  0
LINE
  5
C2
330
2
100
AcDbEntity
  8
0
100
AcDbLine
 10
48.83000203858198
 20
17.21409174389083
 30
0.0
 11
48.070852299737
 21
16.71762799680374
 31
0.0
  0
LINE
  5
C3
330
2
100
AcDbEntity
  8
0
100
AcDbLine
 10
47.28748014353306
 20
17.39604818468176
 30
0.0
 11
48.04662988237828
 21
17.89251193176886
 31
0.0
  0
ARC
  5
C4
330
2
100
AcDbEntity
  8
0
100
AcDbCircle
 10
47.66198906128114
 20
18.50079009157918
 30
0.0
 40
0.7196880442068416
100
AcDbArc
 50
302.3069534488982
 51
324.9765156397045
  0
LINE
  5
C5
330
2
100
AcDbEntity
  8
0
100
AcDbLine
 10
48.2513537478087
 20
18.08775238480768
 30
0.0
 11
48.26785490975463
 21
18.11234100876379
 31
0.0
  0
ARC
  5
C6
330
2
100
AcDbEntity
  8
0
100
AcDbCircle
 10
50.62531365586522
 20
16.46019018149712
 30
0.0
 40
2.878752176824908
100
AcDbArc
 50
122.3069534488982
 51
144.9765156397045
  0
LINE
  5
C7
330
2
100
AcDbEntity
  8
0
100
AcDbLine
 10
49.08675037159702
 20
18.89330282085905
 30
0.0
 11
50.32602506693809
 21
19.70375552532306
 31
0.0
  0
ARC
  5
C8
330
2
100
AcDbEntity
  8
0
100
AcDbCircle
 10
51.96469257966663
 20
19.93756868419263
 30
0.0
 40
1.469939073508352
100
AcDbArc
 50
190.9690890528014
 51
224.3814861081969
  0
LINE
  5
C9
330
2
100
AcDbEntity
  8
0
100
AcDbLine
 10
50.51598550631665
 20
19.68792318700008
 30
0.0
 11
50.52160932008189
 21
19.65786958581736
 31
0.0
  0
LINE
  5
CA
330
2
100
AcDbEntity
  8
0
100
AcDbLine
 10
51.72117343893813
 20
18.64419982099684
 30
0.0
 11
51.72679725270319
 21
18.61414621987438
 31
0.0
  0
LWPOLYLINE
  5
CB
330
2
100
AcDbEntity
  8
0
100
AcDbPolyline
 90
        9
 70
   128
 43
0.0
 10
51.51672296665402
 20
18.38758393192899
 10
51.57375027359552
 20
18.34604589379052
 10
51.62508041602149
 20
18.32483822680808
 10
51.66874080529463
 20
18.32477592961942
 10
51.70305359721488
 20
18.3458613963304
 10
51.72670017041622
 20
18.38728432419748
 10
51.73877180030206
 20
18.44745285345476
 10
51.73880458099194
 20
18.52405474120672
 10
51.72679725270319
 20
18.61414621987438
  0
LINE
  5
CC
330
2
100
AcDbEntity
  8
0
100
AcDbLine
 10
50.91412900034338
 20
18.90944561493063
 30
0.0
 11
51.51672296665402
 21
18.38758393192899
 31
0.0
  0
LWPOLYLINE
  5
CD
330
2
100
AcDbEntity
  8
0
100
AcDbPolyline
 90
        9
 70
   128
 43
0.0
 10
50.30811887532735
 20
19.74760445443752
 10
50.34122053195352
 20
19.76530114015503
 10
50.37529959514933
 20
19.77592249340301
 10
50.40874044517018
 20
19.77896497726266
 10
50.4399577186345
 20
19.77428435369717
 10
50.46747146759924
 20
19.76210252160757
 10
50.48997732053999
 20
19.74299699710838
 10
50.50640832030097
 20
19.71787353467084
 10
50.51598550631665
 20
19.68792318700008
  0
LINE
  5
CE
330
2
100
AcDbEntity
  8
0
100
AcDbLine
 10
49.06884417992603
 20
18.93715174997356
 30
0.0
 11
50.30811887532735
 21
19.74760445443752
 31
0.0
  0
ARC
  5
CF
330
2
100
AcDbEntity
  8
0
100
AcDbCircle
 10
51.61222222655863
 20
18.62628293099317
 30
0.0
 40
0.1104145897320291
100
AcDbArc
 50
9.338634848400038
 51
48.50877017650113
  0
ARC
  5
D0
330
2
100
AcDbEntity
  8
0
100
AcDbCircle
 10
50.60740746425455
 20
16.50403911061158
 30
0.0
 40
2.878752176826196
100
AcDbArc
 50
122.3069534488982
 51
144.9765156396051
  0
ARC
  5
D1
330
2
100
AcDbEntity
  8
0
100
AcDbCircle
 10
47.15839696827913
 20
14.13412475233946
 30
0.0
 40
3.049074516369262
100
AcDbArc
 50
111.6424862234977
 51
145.9342958116007
  0
LINE
  5
D2
330
2
100
AcDbEntity
  8
0
100
AcDbLine
 10
46.03385589398071
 20
16.96824944590406
 30
0.0
 11
47.22968315892558
 21
17.41948898722887
 31
0.0
  0
ARC
  5
D3
330
2
100
AcDbEntity
  8
0
100
AcDbCircle
 10
47.15637509221618
 20
17.61197115328099
 30
0.0
 40
0.2059695533220346
100
AcDbArc
 50
290.8496560099995
 51
303.3389074183022
  0
LINE
  5
D4
330
2
100
AcDbEntity
  8
0
100
AcDbLine
 10
47.26957395192237
 20
17.43989711385637
 30
0.0
 11
48.02872369076766
 21
17.93636086088327
 31
0.0
  0
ARC
  5
D5
330
2
100
AcDbEntity
  8
0
100
AcDbCircle
 10
47.6440828696705
 20
18.54463902075389
 30
0.0
 40
0.7196880442073251
100
AcDbArc
 50
302.3069534488982
 51
324.9765156396052
  0
LINE
  5
D6
330
2
100
AcDbEntity
  8
0
100
AcDbLine
 10
48.23344755619821
 20
18.1316013139222
 30
0.0
 11
48.24994871814396
 21
18.15618993787825
 31
0.0
  0
LINE
  5
D7
330
2
100
AcDbEntity
  8
0
100
AcDbLine
 10
38.63067690852786
 20
9.838077578018042
 30
0.0
 11
38.63067690852786
 21
9.575286914000797
 31
0.0
  0
LWPOLYLINE
  5
D8
330
2
100
AcDbEntity
  8
0
100
AcDbPolyline
 90
        8
 70
   128
 43
0.0
 10
41.04105277377033
 20
9.842235323929287
 10
41.03589197404652
 20
9.865270537109436
 10
41.02043167410488
 20
9.892347051786316
 10
40.99473807738911
 20
9.919191176280886
 10
40.95892120785578
 20
9.945687959828488
 10
40.91313443874553
 20
9.971723939227556
 10
40.85757383611769
 20
9.997187624410742
 10
40.82260214776778
 20
10.01103425508375
  0
LINE
  5
D9
330
2
100
AcDbEntity
  8
0
100
AcDbLine
 10
41.04105277377033
 20
9.838077578018042
 30
0.0
 11
41.04105277377033
 21
9.575286914000797
 31
0.0
  0
LWPOLYLINE
  5
DA
330
2
100
AcDbEntity
  8
0
100
AcDbPolyline
 90
       17
 70
   128
 43
0.0
 10
30.39488681490366
 20
17.78109640166241
 10
30.43388113084541
 20
17.84322412401337
 10
30.42962618381551
 20
17.92029499847689
 10
30.3827697509392
 20
18.00057568310404
 10
30.30044529939625
 20
18.07184417134743
 10
30.19518598060893
 20
18.12325048189183
 10
30.08301657176571
 20
18.14696847007082
 10
29.98101384847752
 20
18.13938728714351
 10
29.90470680067335
 20
18.10166109947153
 10
29.86571248479186
 20
18.03953337712068
 10
29.86996743182152
 20
17.96246250265705
 10
29.91682386469796
 20
17.88218181809026
 10
29.99914831624091
 20
17.8109133298467
 10
30.1044076349678
 20
17.75950701924211
 10
30.21657704387133
 20
17.73578903106318
 10
30.31857976715958
 20
17.74337021399054
 10
30.39488681490366
 20
17.78109640166241
  0
LINE
  5
DB
330
2
100
AcDbEntity
  8
0
100
AcDbLine
 10
30.58497931076141
 20
18.89330282085905
 30
0.0
 11
29.3457046154204
 21
19.70375552532306
 31
0.0
  0
ARC
  5
DC
330
2
100
AcDbEntity
  8
0
100
AcDbCircle
 10
29.0464160264932
 20
16.46019018149712
 30
0.0
 40
2.878752176826564
100
AcDbArc
 50
35.02348436039476
 51
57.6930465511018
  0
LINE
  5
DD
330
2
100
AcDbEntity
  8
0
100
AcDbLine
 10
31.40387477254353
 20
18.11234100876379
 30
0.0
 11
31.42037593454967
 21
18.08775238480768
 31
0.0
  0
ARC
  5
DE
330
2
100
AcDbEntity
  8
0
100
AcDbCircle
 10
32.00974062107742
 20
18.50079009157918
 30
0.0
 40
0.7196880442073522
100
AcDbArc
 50
215.0234843603946
 51
237.6930465511018
  0
LINE
  5
DF
330
2
100
AcDbEntity
  8
0
100
AcDbLine
 10
31.62509979998015
 20
17.89251193176886
 30
0.0
 11
32.38424953876512
 21
17.39604818468176
 31
0.0
  0
ARC
  5
E0
330
2
100
AcDbEntity
  8
0
100
AcDbCircle
 10
27.70703710269197
 20
19.93756868419263
 30
0.0
 40
1.469939073508399
100
AcDbArc
 50
315.6185138918031
 51
349.0309109471987
  0
LWPOLYLINE
  5
E1
330
2
100
AcDbEntity
  8
0
100
AcDbPolyline
 90
        9
 70
   128
 43
0.0
 10
27.9449324296553
 20
18.61414621987438
 10
27.93292510136649
 20
18.52405474120672
 10
27.93295788199612
 20
18.44745285345476
 10
27.94502951194227
 20
18.38728432419748
 10
27.96867608514361
 20
18.3458613963304
 10
28.00298887706379
 20
18.32477592961942
 10
28.046649266337
 20
18.32483822680808
 10
28.09797940876297
 20
18.34604589379052
 10
28.15500671564416
 20
18.38758393192899
  0
LINE
  5
E2
330
2
100
AcDbEntity
  8
0
100
AcDbLine
 10
27.95055624342035
 20
18.64419982099684
 30
0.0
 11
27.9449324296553
 21
18.61414621987438
 31
0.0
  0
LINE
  5
E3
330
2
100
AcDbEntity
  8
0
100
AcDbLine
 10
29.1557441760416
 20
19.68792318700008
 30
0.0
 11
29.15012036227654
 21
19.65786958581736
 31
0.0
  0
LINE
  5
E4
330
2
100
AcDbEntity
  8
0
100
AcDbLine
 10
28.15500671564416
 20
18.38758393192899
 30
0.0
 11
28.75760068195479
 21
18.90944561493063
 31
0.0
  0
LWPOLYLINE
  5
E5
330
2
100
AcDbEntity
  8
0
100
AcDbPolyline
 90
        9
 70
   128
 43
0.0
 10
29.36361080703114
 20
19.74760445443752
 10
29.33050915040491
 20
19.76530114015503
 10
29.29643008720899
 20
19.77592249340301
 10
29.26298923718832
 20
19.77896497726266
 10
29.23177196366373
 20
19.77428435369717
 10
29.20425821475914
 20
19.76210252160757
 10
29.18175236181856
 20
19.74299699710838
 10
29.16532136205745
 20
19.71787353467084
 10
29.1557441760416
 20
19.68792318700008
  0
LINE
  5
E6
330
2
100
AcDbEntity
  8
0
100
AcDbLine
 10
30.60288550237215
 20
18.93715174997356
 30
0.0
 11
29.36361080703114
 21
19.74760445443752
 31
0.0
  0
ARC
  5
E7
330
2
100
AcDbEntity
  8
0
100
AcDbCircle
 10
28.05950745573955
 20
18.62628293099317
 30
0.0
 40
0.1104145897321503
100
AcDbArc
 50
131.4912298236046
 51
170.6613651516
  0
ARC
  5
E8
330
2
100
AcDbEntity
  8
0
100
AcDbCircle
 10
29.06432221810394
 20
16.50403911061158
 30
0.0
 40
2.878752176825877
100
AcDbArc
 50
35.02348436039476
 51
57.6930465511018
  0
ARC
  5
E9
330
2
100
AcDbEntity
  8
0
100
AcDbCircle
 10
32.51535459014242
 20
17.61197115328099
 30
0.0
 40
0.2059695533227616
100
AcDbArc
 50
236.661092581602
 51
249.1503439898984
  0
LINE
  5
EA
330
2
100
AcDbEntity
  8
0
100
AcDbLine
 10
32.44204652343291
 20
17.41948898722887
 30
0.0
 11
33.6378737883777
 21
16.96824944590406
 31
0.0
  0
ARC
  5
EB
330
2
100
AcDbEntity
  8
0
100
AcDbCircle
 10
32.51333271407935
 20
14.13412475233946
 30
0.0
 40
3.049074516369473
100
AcDbArc
 50
34.06570418839932
 51
68.35751377650236
  0
LINE
  5
EC
330
2
100
AcDbEntity
  8
0
100
AcDbLine
 10
31.64300599159083
 20
17.93636086088327
 30
0.0
 11
32.40215573043612
 21
17.43989711385637
 31
0.0
  0
ARC
  5
ED
330
2
100
AcDbEntity
  8
0
100
AcDbCircle
 10
32.02764681268798
 20
18.54463902075389
 30
0.0
 40
0.7196880442072371
100
AcDbArc
 50
215.0234843603946
 51
237.6930465511018
  0
LINE
  5
EE
330
2
100
AcDbEntity
  8
0
100
AcDbLine
 10
31.42178096421441
 20
18.15618993787825
 30
0.0
 11
31.43828212616029
 21
18.1316013139222
 31
0.0
  0
LINE
  5
EF
330
2
100
AcDbEntity
  8
0
100
AcDbLine
 10
30.41279300651411
 20
17.82494533083718
 30
0.0
 11
30.43542209745329
 21
17.85032108731656
 31
0.0
  0
LINE
  5
F0
330
2
100
AcDbEntity
  8
0
100
AcDbLine
 10
38.97492756821345
 20
27.73781182622395
 30
0.0
 11
38.97492756821345
 21
20.89893187214745
 31
0.0
  0
ARC
  5
F1
330
2
100
AcDbEntity
  8
0
100
AcDbCircle
 10
39.04317555492396
 20
27.54185628306021
 30
0.0
 40
0.6070160864448609
100
AcDbArc
 50
52.32501578654819
 51
107.1778750529978
  0
LINE
  5
F2
330
2
100
AcDbEntity
  8
0
100
AcDbLine
 10
38.70815068249948
 20
28.27949680274134
 30
0.0
 11
38.72593889115274
 21
28.26474302084449
 31
0.0
  0
ARC
  5
F3
330
2
100
AcDbEntity
  8
0
100
AcDbCircle
 10
38.34816706766229
 20
27.76242524891023
 30
0.0
 40
0.6272436094965699
100
AcDbArc
 50
357.7511011825993
 51
47.59820542880007
  0
LINE
  5
F4
330
2
100
AcDbEntity
  8
0
100
AcDbLine
 10
43.1509802956291
 20
27.13421390835624
 30
0.0
 11
43.1509802956291
 21
20.40107322643724
 31
0.0
  0
LINE
  5
F5
330
2
100
AcDbEntity
  8
0
100
AcDbLine
 10
42.88056889991469
 20
27.67453436853049
 30
0.0
 11
42.90199161850829
 21
27.66114510297683
 31
0.0
  0
ARC
  5
F6
330
2
100
AcDbEntity
  8
0
100
AcDbCircle
 10
42.52421979501787
 20
27.15882733104257
 30
0.0
 40
0.6272436094969059
100
AcDbArc
 50
357.7511011825993
 51
47.59820542880007
  0
LINE
  5
F7
330
2
100
AcDbEntity
  8
0
100
AcDbLine
 10
44.14367675672308
 20
25.61166019186482
 30
0.0
 11
44.14367675672308
 21
19.22130760602607
 31
0.0
  0
ARC
  5
F8
330
2
100
AcDbEntity
  8
0
100
AcDbCircle
 10
44.45640705433492
 20
25.39778622820245
 30
0.0
 40
0.6936365383130708
100
AcDbArc
 50
47.23409234720789
 51
107.8054939517955
  0
LINE
  5
F9
330
2
100
AcDbEntity
  8
0
100
AcDbLine
 10
44.24430229500865
 20
26.0581976290174
 30
0.0
 11
44.03181082348118
 21
25.99685662490634
 31
0.0
  0
LINE
  5
FA
330
2
100
AcDbEntity
  8
0
100
AcDbLine
 10
43.87689987094882
 20
26.15334516832201
 30
0.0
 11
43.89468807966237
 21
26.13859138648543
 31
0.0
  0
ARC
  5
FB
330
2
100
AcDbEntity
  8
0
100
AcDbCircle
 10
43.51691625617189
 20
25.6362736144909
 30
0.0
 40
0.6272436094968809
100
AcDbArc
 50
357.7511011825993
 51
47.59820542880007
  0
LINE
  5
FC
330
2
100
AcDbEntity
  8
0
100
AcDbLine
 10
40.22563714957004
 20
27.19430033243816
 30
0.0
 11
40.22563714957004
 21
20.92443002278043
 31
0.0
  0
ARC
  5
FD
330
2
100
AcDbEntity
  8
0
100
AcDbCircle
 10
41.22791316861003
 20
27.26661555164986
 30
0.0
 40
0.6122141463401249
100
AcDbArc
 50
50.81327660355196
 51
111.3846782333007
  0
LINE
  5
FE
330
2
100
AcDbEntity
  8
0
100
AcDbLine
 10
41.00468287573358
 20
27.83668080870183
 30
0.0
 11
40.11377121632818
 21
27.57949676553989
 31
0.0
  0
LINE
  5
FF
330
2
100
AcDbEntity
  8
0
100
AcDbLine
 10
34.63797034321033
 20
25.16379051863982
 30
0.0
 11
34.63797034321033
 21
18.80607679129542
 31
0.0
  0
ARC
  5
100
330
2
100
AcDbEntity
  8
0
100
AcDbCircle
 10
35.82437962619963
 20
25.10512389060699
 30
0.0
 40
1.187858897340374
100
AcDbArc
 50
107.2086421099009
 51
177.1690928842982
  0
LINE
  5
101
330
2
100
AcDbEntity
  8
0
100
AcDbLine
 10
35.94174594032916
 20
26.3751368074532
 30
0.0
 11
35.47294903602494
 21
26.2398067979787
 31
0.0
  0
LINE
  5
102
330
2
100
AcDbEntity
  8
0
100
AcDbLine
 10
39.95522575385036
 20
27.73462079262419
 30
0.0
 11
39.97664847244909
 21
27.72123152705872
 31
0.0
  0
ARC
  5
103
330
2
100
AcDbEntity
  8
0
100
AcDbCircle
 10
39.59887664895859
 20
27.21891375512445
 30
0.0
 40
0.6272436094969756
100
AcDbArc
 50
357.7511011825993
 51
47.59820542869864
  0
LINE
  5
104
330
2
100
AcDbEntity
  8
0
100
AcDbLine
 10
43.4670150267405
 20
26.32088502638618
 30
0.0
 11
43.4670150267405
 21
20.2837906220542
 31
0.0
  0
LINE
  5
105
330
2
100
AcDbEntity
  8
0
100
AcDbLine
 10
43.20023814096639
 20
26.86257000284314
 30
0.0
 11
43.21802634961961
 21
26.84781622100655
 31
0.0
  0
ARC
  5
106
330
2
100
AcDbEntity
  8
0
100
AcDbCircle
 10
42.84025452612929
 20
26.3454984490723
 30
0.0
 40
0.6272436094972437
100
AcDbArc
 50
357.7511011825993
 51
47.59820542869864
  0
ARC
  5
107
330
2
100
AcDbEntity
  8
0
100
AcDbCircle
 10
35.60949358412364
 20
17.75906272363755
 30
0.0
 40
1.496833360738242
100
AcDbArc
 50
153.7491252294997
 51
202.0399703625993
  0
ARC
  5
108
330
2
100
AcDbEntity
  8
0
100
AcDbCircle
 10
34.50279885445463
 20
18.06599863204786
 30
0.0
 40
0.4477303325805313
100
AcDbArc
 50
74.55564542800061
 51
93.16583361735487
  0
ARC
  5
109
330
2
100
AcDbEntity
  8
0
100
AcDbCircle
 10
34.44364922903901
 20
18.28863294665637
 30
0.0
 40
0.2207813061029244
100
AcDbArc
 50
91.71834299110129
 51
143.1255749662011
  0
LINE
  5
10A
330
2
100
AcDbEntity
  8
0
100
AcDbLine
 10
34.88330844401611
 20
18.42213677221747
 30
0.0
 11
34.62203050592008
 21
18.49756121618606
 31
0.0
  0
LWPOLYLINE
  5
10B
330
2
100
AcDbEntity
  8
0
100
AcDbPolyline
 90
        6
 70
   128
 43
0.0
 10
35.90264684637299
 20
19.83759739742191
 10
35.86674044264481
 20
19.81615524901508
 10
35.84168459601079
 20
19.79115256273854
 10
35.82882843228816
 20
19.76393560202825
 10
35.82886418846658
 20
19.735969857513
 10
35.8348782932444
 20
19.71988811904555
  0
LWPOLYLINE
  5
10C
330
2
100
AcDbEntity
  8
0
100
AcDbPolyline
 90
       18
 70
   128
 43
0.0
 10
35.90264684637299
 20
19.83759739742191
 10
36.28841981703692
 20
20.00436062268051
 10
36.70234377279508
 20
20.15329654588169
 10
37.14113399261761
 20
20.28322327627956
 10
37.60130842764358
 20
20.39310977162057
 10
38.07921533318887
 20
20.48208402034545
 10
38.57106224724777
 20
20.54943996141657
 10
39.07294608614473
 20
20.59464308723676
 10
39.58088411732308
 20
20.61733468554934
 10
40.09084556497521
 20
20.61733468554934
 10
40.59878359621375
 20
20.59464308723676
 10
41.10066743505064
 20
20.54943996141657
 10
41.59251434916956
 20
20.48208402034545
 10
42.0704212546546
 20
20.39310977162057
 10
42.53059568968057
 20
20.28322327627956
 10
42.96938590950299
 20
20.15329654588169
 10
43.38330986526107
 20
20.00436062268051
 10
43.76908283598544
 20
19.83759739742191
  0
LWPOLYLINE
  5
10D
330
2
100
AcDbEntity
  8
0
100
AcDbPolyline
 90
        6
 70
   128
 43
0.0
 10
43.83685138911409
 20
19.71988811904555
 10
43.8428654938919
 20
19.735969857513
 10
43.84290125007033
 20
19.76393560202825
 10
43.83004508634768
 20
19.79115256273854
 10
43.80498923965336
 20
19.81615524901508
 10
43.76908283598544
 20
19.83759739742191
  0
LINE
  5
10E
330
2
100
AcDbEntity
  8
0
100
AcDbLine
 10
44.78842123828211
 20
18.42213677221747
 30
0.0
 11
45.04969917637818
 21
18.49756121618606
 31
0.0
  0
ARC
  5
10F
330
2
100
AcDbEntity
  8
0
100
AcDbCircle
 10
45.2230465439162
 20
18.27893065387769
 30
0.0
 40
0.2306789025436437
100
AcDbArc
 50
38.05200051430304
 51
87.10408152840058
  0
ARC
  5
110
330
2
100
AcDbEntity
  8
0
100
AcDbCircle
 10
45.16893082784355
 20
18.06599863204786
 30
0.0
 40
0.4477303325775277
100
AcDbArc
 50
89.0898963465983
 51
105.4443545719994
  0
ARC
  5
111
330
2
100
AcDbEntity
  8
0
100
AcDbCircle
 10
44.06552956344547
 20
17.75918380332536
 30
0.0
 40
1.493826618236854
100
AcDbArc
 50
337.9083226160975
 51
26.30258179170065
  0
LINE
  5
112
330
2
100
AcDbEntity
  8
0
100
AcDbLine
 10
35.90264684637299
 20
20.15071440723483
 30
0.0
 11
35.90264684637299
 21
19.83759739742191
 31
0.0
  0
LWPOLYLINE
  5
113
330
2
100
AcDbEntity
  8
0
100
AcDbPolyline
 90
       18
 70
   128
 43
0.0
 10
35.90264684637299
 20
20.15071440723483
 10
36.28841981703692
 20
20.31747763243328
 10
36.70234377279508
 20
20.46641355569471
 10
37.14113399261761
 20
20.59634028609258
 10
37.60130842764358
 20
20.7062267814336
 10
38.07921533318887
 20
20.79520103009821
 10
38.57106224724777
 20
20.86255697116934
 10
39.07294608614473
 20
20.90776009704996
 10
39.58088411732308
 20
20.93045169530211
 10
40.09084556497521
 20
20.93045169530211
 10
40.59878359621375
 20
20.90776009704996
 10
41.10066743505064
 20
20.86255697116934
 10
41.59251434916956
 20
20.79520103009821
 10
42.0704212546546
 20
20.7062267814336
 10
42.53059568968057
 20
20.59634028609258
 10
42.96938590950299
 20
20.46641355569471
 10
43.38330986526107
 20
20.31747763243328
 10
43.76908283598544
 20
20.15071440723483
  0
ARC
  5
114
330
2
100
AcDbEntity
  8
0
100
AcDbCircle
 10
43.73909996842735
 20
20.04861823554239
 30
0.0
 40
0.1064077094097081
100
AcDbArc
 50
7.847202258501437
 51
73.63392158790083
  0
ARC
  5
115
330
2
100
AcDbEntity
  8
0
100
AcDbCircle
 10
35.93262971393108
 20
20.04861823554239
 30
0.0
 40
0.1064077094099535
100
AcDbArc
 50
106.3660784122015
 51
172.1527977414985
  0
LINE
  5
116
330
2
100
AcDbEntity
  8
0
100
AcDbLine
 10
44.72579783635564
 20
18.7171759630412
 30
0.0
 11
44.72579783635564
 21
18.47637022918542
 31
0.0
  0
LINE
  5
117
330
2
100
AcDbEntity
  8
0
100
AcDbLine
 10
44.72579783635564
 20
18.7171759630412
 30
0.0
 11
43.89433235856153
 21
19.43724618910056
 31
0.0
  0
LINE
  5
118
330
2
100
AcDbEntity
  8
0
100
AcDbLine
 10
34.94593184600274
 20
18.7171759630412
 30
0.0
 11
34.94593184600274
 21
18.47637022918542
 31
0.0
  0
LINE
  5
119
330
2
100
AcDbEntity
  8
0
100
AcDbLine
 10
35.77692305070923
 20
19.43683545665425
 30
0.0
 11
34.94593184600274
 21
18.7171759630412
 31
0.0
  0
ARC
  5
11A
330
2
100
AcDbEntity
  8
0
100
AcDbCircle
 10
45.16875952737211
 20
18.50108449609251
 30
0.0
 40
0.3316981229037822
100
AcDbArc
 50
44.6595515861996
 51
111.0352280554994
  0
ARC
  5
11B
330
2
100
AcDbEntity
  8
0
100
AcDbCircle
 10
34.50297015492605
 20
18.50108449609251
 30
0.0
 40
0.331698122903723
100
AcDbArc
 50
68.96477194439873
 51
135.3404484138003
  0
LINE
  5
11C
330
2
100
AcDbEntity
  8
0
100
AcDbLine
 10
34.94593184600274
 20
18.7171759630412
 30
0.0
 11
34.62203050592008
 21
18.81067822593894
 31
0.0
  0
LINE
  5
11D
330
2
100
AcDbEntity
  8
0
100
AcDbLine
 10
45.04969917637818
 20
18.81067822593894
 30
0.0
 11
44.72579783635564
 21
18.7171759630412
 31
0.0
  0
ARC
  5
11E
330
2
100
AcDbEntity
  8
0
100
AcDbCircle
 10
44.03335848165409
 20
18.06214779935584
 30
0.0
 40
1.527174527727154
100
AcDbArc
 50
0.3310275457033453
 51
26.10923335450205
  0
ARC
  5
11F
330
2
100
AcDbEntity
  8
0
100
AcDbCircle
 10
35.63330777028296
 20
18.06333729321068
 30
0.0
 40
1.522104751744636
100
AcDbArc
 50
153.8470930919008
 51
179.7126460079025
  0
LWPOLYLINE
  5
120
330
2
100
AcDbEntity
  8
0
100
AcDbPolyline
 90
       71
 70
   128
 43
0.0
 10
41.38373733150871
 20
10.68375255513376
 10
40.92697344280856
 20
10.62449416638827
 10
40.46142458916039
 20
10.58594633413008
 10
39.99083909629815
 20
10.56841942287502
 10
39.51900584181766
 20
10.57205454904243
 10
39.04972374976154
 20
10.59682244464312
 10
38.58677120343168
 20
10.64252369313561
 10
38.13387562469745
 20
10.70879033503655
 10
37.69468346234628
 20
10.79508883027403
 10
37.27273083346461
 20
10.90072435407847
 10
36.87141505249935
 20
11.02484639134587
 10
36.49396727819271
 20
11.16645558445447
 10
36.14342649803365
 20
11.32441177934078
 10
35.82261506035155
 20
11.49744320565713
 10
35.53411595007617
 20
11.68415671616861
 10
35.280251992557
 20
11.88304900337726
 10
35.06306715097475
 20
12.0925187035254
 10
34.88431007004243
 20
12.31087928981696
 10
34.7454199966988
 20
12.53637265120955
 10
34.64751519210552
 20
12.76718324770826
 10
34.59138392817073
 20
13.00145272808993
 10
34.57747814084815
 20
13.23729489231158
 10
34.60590979131325
 20
13.47281087784273
 10
34.67644996472387
 20
13.70610444855839
 10
34.78853071301307
 20
13.93529726175876
 10
34.94124962791346
 20
14.15854399159087
 10
35.13337710655452
 20
14.3740471867855
 10
35.3633662514174
 20
14.58007174225327
 10
35.62936532510969
 20
14.77495886944206
 10
35.92923265950316
 20
14.95713945180779
 10
36.26055389920242
 20
15.12514667837769
 10
36.62066144032099
 20
15.2776278537487
 10
37.00665590873894
 20
15.41335528918961
 10
37.4154295039304
 20
15.53123618717114
 10
37.84369102131558
 20
15.63032144008122
 10
38.28799235084979
 20
15.70981327159848
 10
38.74475623954993
 20
15.76907166034397
 10
39.21030509313778
 20
15.80761949260221
 10
39.68089058606035
 20
15.82514640385727
 10
40.15272384048052
 20
15.82151127775012
 10
40.62200593259682
 20
15.79674338214937
 10
41.0849584788665
 20
15.75104213359674
 10
41.53785405766109
 20
15.68477549169569
 10
41.97704622001221
 20
15.59847699645836
 10
42.39899884889381
 20
15.49284147265388
 10
42.80031462979883
 20
15.36871943538642
 10
43.17776240410546
 20
15.22711024233814
 10
43.52830318426454
 20
15.06915404745183
 10
43.84911462200698
 20
14.89612262107522
 10
44.137613732222
 20
14.70940911062399
 10
44.39147768980149
 20
14.5105168234154
 10
44.60866253138362
 20
14.30104712320695
 10
44.78741961225574
 20
14.08268653691533
 10
44.9263096856597
 20
13.85719317558295
 10
45.02421449025286
 20
13.62638257908446
 10
45.08034575418775
 20
13.39211309864248
 10
45.09425154151045
 20
13.15627093448091
 10
45.06581989098509
 20
12.92075494888951
 10
44.99527971763455
 20
12.6874613781739
 10
44.88319896934536
 20
12.45826856503379
 10
44.7304800543847
 20
12.23502183514154
 10
44.53835257580395
 20
12.01951863994674
 10
44.30836343094097
 20
11.81349408447892
 10
44.04236435724879
 20
11.61860695729018
 10
43.74249702279501
 20
11.43642637498482
 10
43.41117578315595
 20
11.2684191484148
 10
43.05106824197718
 20
11.11593797304402
 10
42.66507377355924
 20
10.98021053754274
 10
42.25630017836789
 20
10.86232963956121
 10
41.82803866104278
 20
10.76324438671139
 10
41.38373733150871
 20
10.68375255513376
  0
LWPOLYLINE
  5
121
330
2
100
AcDbEntity
  8
0
100
AcDbPolyline
 90
       80
 70
   128
 43
0.0
 10
43.2040646356113
 20
10.42595759762906
 10
43.65692100060335
 20
10.56898055337495
 10
44.08561941831914
 20
10.72954114751258
 10
44.48744951926069
 20
10.90662426410603
 10
44.8598708042047
 20
11.09911032683197
 10
45.20052870586368
 20
11.3057823767478
 10
45.5072694753058
 20
11.52533376663217
 10
45.77815379859038
 20
11.7563764218865
 10
46.01146905792814
 20
11.99744961647155
 10
46.20574015896965
 20
12.24702920808255
 10
46.3597388573919
 20
12.50353727410805
 10
46.47249152374434
 20
12.76535208793524
 10
46.54328529942853
 20
13.03081837214631
 10
46.57167260337668
 20
13.2982577633457
 10
46.55747396195454
 20
13.56597942353903
 10
46.50077914346508
 20
13.83229073027053
 10
46.40194659086574
 20
14.09550797772743
 10
46.2616011553527
 20
14.35396702162285
 10
46.08063014599588
 20
14.60603380078777
 10
45.86017771970984
 20
14.85011466780082
 10
45.60163764777581
 20
15.084666464902
 10
45.3066445037482
 20
15.30820628004863
 10
44.97706332927021
 20
15.51932082255536
 10
44.61497784263502
 20
15.71667535835632
 10
44.22267726487677
 20
15.89902214849115
 10
43.80264184648764
 20
16.06520833784219
 10
43.35752718677816
 20
16.21418324387162
 10
42.89014744380124
 20
16.34500499925394
 10
42.40345754282617
 20
16.45684650665072
 10
41.90053449405673
 20
16.54900066808051
 10
41.38455793903079
 20
16.6208848553232
 10
40.85879004760299
 20
16.67204459333476
 10
40.32655489368432
 20
16.70215643377815
 10
39.79121743923521
 20
16.71102999992484
 10
39.25616226004701
 20
16.69860919021624
 10
38.72477214720885
 20
16.66497253307096
 10
38.20040672014285
 20
16.61033269016701
 10
37.68638118589161
 20
16.53503511229462
 10
37.18594537933137
 20
16.43955585483382
 10
36.70226321688871
 20
16.32449856858028
 10
36.23839269277033
 20
16.19059068261367
 10
35.79726654587996
 20
16.03867880572301
 10
35.38167371770186
 20
15.8697233736845
 10
34.99424171997902
 20
15.68479257722322
 10
34.63742002246272
 20
15.4850556083212
 10
34.3134645667904
 20
15.27177526837801
 10
34.02442350374895
 20
15.04629998444289
 10
33.77212424395231
 20
14.81005528377574
 10
33.55816190454869
 20
14.56453478151246
 10
33.38388922432763
 20
14.31129073723332
 10
33.25040801134623
 20
14.05192424141961
 10
33.1585621767606
 20
13.78807509253767
 10
33.10893239952048
 20
13.52141142983106
 10
33.10183245500423
 20
13.25361918684217
 10
33.13730723140054
 20
12.98639143236852
 10
33.21513244576613
 20
12.72141766628397
 10
33.33481606204941
 20
12.46037313807972
 10
33.49560140180216
 20
12.20490825531072
 10
33.69647192841239
 20
11.95663814913831
 10
33.93615767377088
 20
11.71713246325606
 10
34.21314326729151
 20
11.48790542964821
 10
34.5256775170364
 20
11.27040629536059
 10
34.87178448069239
 20
11.06601016005919
 10
35.24927595872897
 20
10.87600928186486
 10
35.65576532839037
 20
10.70160490750442
 10
36.08868263306926
 20
10.54389967763899
 10
36.54529083010864
 20
10.40389065545315
 10
37.02270309555314
 20
10.28246302304131
 10
37.51790107533361
 20
10.18038448499567
 10
38.02775396833408
 20
10.09830041481439
 10
38.54903832039838
 20
10.03672977425498
 10
39.0784584040573
 20
9.996061832873179
 10
39.61266705508359
 20
9.976553706366358
 10
40.14828683438735
 20
9.978328731498264
 10
40.68193138123308
 20
10.00137568592055
 10
41.2102268230434
 20
10.04554885933879
 10
41.72983310589853
 20
10.11056897481882
 10
42.23746511153875
 20
10.19602495420611
 10
42.72991342709059
 20
10.30137651729427
 10
43.2040646356113
 20
10.42595759762906
  0
LWPOLYLINE
  5
122
330
2
100
AcDbEntity
  8
0
100
AcDbPolyline
 90
       43
 70
   128
 43
0.0
 10
46.57630192432129
 20
13.29769825876485
 10
46.58432432552632
 20
13.42342070883631
 10
46.57009901510314
 20
13.69164522483646
 10
46.51329770795546
 20
13.95845673837146
 10
46.41427952031921
 20
14.2221683810954
 10
46.27367047706252
 20
14.4811128830662
 10
46.09235955372922
 20
14.73365311380234
 10
45.87149305644567
 20
14.97819243261773
 10
45.61246737428109
 20
15.21318478327515
 10
45.31692015100697
 20
15.43714446842239
 10
44.98671993126531
 20
15.6486555428267
 10
44.62395434731774
 20
15.84638076533048
 10
44.23091691982692
 20
16.02907005354552
 10
43.81009255805935
 20
16.19556838687259
 10
43.364141849056
 20
16.34482310921788
 10
42.89588423682447
 20
16.47589058428156
 10
42.40828019670476
 20
16.58794216117752
 10
41.90441251850024
 20
16.68026941374711
 10
41.38746681581642
 20
16.75228861951956
 10
40.8607113859245
 20
16.8035444497562
 10
40.32747654621153
 20
16.83371284858452
 10
39.79113357900479
 20
16.84260308175726
 10
39.25507341722136
 20
16.83015894232187
 10
38.72268520582111
 20
16.79645910615204
 10
38.19733487447042
 20
16.74171663444514
 10
37.68234385717619
 20
16.6662776267446
 10
37.18096809291121
 20
16.57061903267953
 10
36.69637744064261
 20
16.45534563676568
 10
36.23163563856265
 20
16.32118623452533
 10
35.78968093394713
 20
16.16898902481205
 10
35.37330750681059
 20
15.9997162475077
 10
34.98514780389928
 20
15.81443809949371
 10
34.62765589589009
 20
15.61432596896588
 10
34.30309196168031
 20
15.40064502919387
 10
34.01350799907709
 20
15.17474623986908
 10
33.76073485100933
 20
14.93805780587786
 10
33.54637063078252
 20
14.69207614779231
 10
33.37177061796376
 20
14.43835644072334
 10
33.23803869009822
 20
14.17850278239729
 10
33.14602034346587
 20
13.91415805137922
 10
33.09629734765076
 20
13.64699352003998
 10
33.08918406748899
 20
13.37869828867377
 10
33.09542775803715
 20
13.29769825876485
  0
SPLINE
  5
123
330
2
100
AcDbEntity
  8
0
100
AcDbSpline
210
0.0
220
0.0
230
1.0
 70
     8
 71
     3
 72
     8
 73
     4
 74
     0
 42
0.000000001
 43
0.0000000001
 40
0.0
 40
0.0
 40
0.0
 40
0.0
 40
1.0
 40
1.0
 40
1.0
 40
1.0
 10
35.82143595606243
 20
19.71301164194261
 30
0.0
 10
35.81939936017743
 20
19.71196623142595
 30
0.0
 10
35.81738574487463
 20
19.71076141416398
 30
0.0
 10
35.81539417557717
 20
19.70940338010422
 30
0.0
  0
LWPOLYLINE
  5
124
330
2
100
AcDbEntity
  8
0
100
AcDbPolyline
 90
       19
 70
   128
 43
0.0
 10
35.82143595606033
 20
19.71301164192192
 10
36.18371915757212
 20
19.8831796709066
 10
36.57473438679301
 20
20.03662741519469
 10
36.99140546292939
 20
20.17214767629917
 10
37.43045436645907
 20
20.28867429417602
 10
37.88842702786303
 20
20.38529053485075
 10
38.36172050117915
 20
20.46123630250429
 10
38.84661130923861
 20
20.51591411937358
 10
39.33928473672239
 20
20.54889382616619
 10
39.83586484114909
 20
20.55991596610744
 10
40.3324449456361
 20
20.54889382616619
 10
40.82511837311988
 20
20.51591411937358
 10
41.31000918117933
 20
20.46123630250429
 10
41.78330265449539
 20
20.38529053485075
 10
42.24127531589953
 20
20.28867429417602
 10
42.68032421942911
 20
20.17214767629917
 10
43.09699529556549
 20
20.03662741519469
 10
43.48801052478637
 20
19.8831796709066
 10
43.85029372629816
 20
19.71301164192192
  0
SPLINE
  5
125
330
2
100
AcDbEntity
  8
0
100
AcDbSpline
210
0.0
220
0.0
230
1.0
 70
     8
 71
     3
 72
     8
 73
     4
 74
     0
 42
0.000000001
 43
0.0000000001
 40
0.0
 40
0.0
 40
0.0
 40
0.0
 40
1.0
 40
1.0
 40
1.0
 40
1.0
 10
43.85633550676362
 20
19.70940338010422
 30
0.0
 10
43.85433682701068
 20
19.71076626272276
 30
0.0
 10
43.85231575586057
 20
19.7119737084941
 30
0.0
 10
43.85029372627838
 20
19.71301164194261
 30
0.0
  0
ARC
  5
126
330
2
100
AcDbEntity
  8
0
100
AcDbCircle
 10
41.693150166503
 20
13.46643310977555
 30
0.0
 40
4.808366031955308
100
AcDbArc
 50
58.91894095319822
 51
60.30942141249123
  0
SPLINE
  5
127
330
2
100
AcDbEntity
  8
0
100
AcDbSpline
210
0.0
220
0.0
230
1.0
 70
     8
 71
     3
 72
    12
 73
     8
 74
     0
 42
0.000000001
 43
0.0000000001
 40
0.0
 40
0.0
 40
0.0
 40
0.0
 40
0.2500000000000026
 40
0.2500000000000026
 40
0.5000000000000054
 40
0.5000000000000054
 40
1.0
 40
1.0
 40
1.0
 40
1.0
 10
44.25387918027104
 20
17.43409377966787
 30
0.0
 10
44.25358707104272
 20
17.44789404638465
 30
0.0
 10
44.25132705589271
 20
17.46265166905419
 30
0.0
 10
44.24318841678586
 20
17.49256381119409
 30
0.0
 10
44.23731467134332
 20
17.50756140832203
 30
0.0
 10
44.21572212087789
 20
17.54910122876168
 30
0.0
 10
44.19581587681546
 20
17.5722318471723
 30
0.0
 10
44.17547025645371
 20
17.58449950900933
 30
0.0
  0
LWPOLYLINE
  5
128
330
2
100
AcDbEntity
  8
0
100
AcDbPolyline
 90
        3
 70
   128
 43
0.0
 10
44.28408371527222
 20
16.00584223144818
 10
44.2803820743008
 20
16.18107361040785
 10
44.25387918026973
 20
17.43409377969584
  0
LWPOLYLINE
  5
129
330
2
100
AcDbEntity
  8
0
100
AcDbPolyline
 90
        3
 70
   128
 43
0.0
 10
35.41785050208864
 20
17.43409377969584
 10
35.39134760805764
 20
16.18107361040785
 10
35.38753210177397
 20
16.00045197882599
  0
SPLINE
  5
12A
330
2
100
AcDbEntity
  8
0
100
AcDbSpline
210
0.0
220
0.0
230
1.0
 70
     8
 71
     3
 72
    12
 73
     8
 74
     0
 42
0.000000001
 43
0.0000000001
 40
0.0
 40
0.0
 40
0.0
 40
0.0
 40
0.2499999999999969
 40
0.2499999999999969
 40
0.4999999999999938
 40
0.4999999999999938
 40
1.0
 40
1.0
 40
1.0
 40
1.0
 10
35.49625942588715
 20
17.58449950900933
 30
0.0
 10
35.48608437097716
 20
17.57836432460164
 30
0.0
 10
35.47612661865493
 20
17.56970607881686
 30
0.0
 10
35.45743256983144
 20
17.54812771975929
 30
0.0
 10
35.44886305867982
 20
17.53534324408468
 30
0.0
 10
35.42722999669246
 20
17.49376547719753
 30
0.0
 10
35.41843485636861
 20
17.46170073075899
 30
0.0
 10
35.41785050206982
 20
17.43409377966787
 30
0.0
  0
ARC
  5
12B
330
2
100
AcDbEntity
  8
0
100
AcDbCircle
 10
37.9785795156144
 20
13.46643311013707
 30
0.0
 40
4.808366031534922
100
AcDbArc
 50
119.6902069767078
 51
121.0810590468965
  0
LINE
  5
12C
330
2
100
AcDbEntity
  8
0
100
AcDbLine
 10
44.81730913198235
 20
16.71321108366379
 30
0.0
 11
44.87549319830776
 21
17.77465055722911
 31
0.0
  0
LINE
  5
12D
330
2
100
AcDbEntity
  8
0
100
AcDbLine
 10
44.81730913198235
 20
16.71321108366379
 30
0.0
 11
44.82503492687198
 21
16.09684658441159
 31
0.0
  0
LINE
  5
12E
330
2
100
AcDbEntity
  8
0
100
AcDbLine
 10
43.98971927518572
 20
18.54175327664671
 30
0.0
 11
44.87549319830776
 21
17.77465055722911
 31
0.0
  0
LINE
  5
12F
330
2
100
AcDbEntity
  8
0
100
AcDbLine
 10
34.85442055031581
 20
16.71321108366379
 30
0.0
 11
34.84669475542716
 21
16.09684658448253
 31
0.0
  0
LINE
  5
130
330
2
100
AcDbEntity
  8
0
100
AcDbLine
 10
34.79623648405067
 20
17.77465055722911
 30
0.0
 11
34.85442055031581
 21
16.71321108366379
 31
0.0
  0
SPLINE
  5
131
330
2
100
AcDbEntity
  8
0
100
AcDbSpline
210
0.0
220
0.0
230
1.0
 70
     8
 71
     3
 72
    10
 73
     6
 74
     0
 42
0.000000001
 43
0.0000000001
 40
0.0
 40
0.0
 40
0.0
 40
0.0
 40
0.4078392726141181
 40
0.8137745974586408
 40
1.0
 40
1.0
 40
1.0
 40
1.0
 10
43.85633550676362
 20
19.70940338010422
 30
0.0
 10
43.85881264755754
 20
19.70714534945244
 30
0.0
 10
43.86375536491664
 20
19.70263982948887
 30
0.0
 10
43.86709643988661
 20
19.69466325954289
 30
0.0
 10
43.8671582332397
 20
19.6892502839226
 30
0.0
 10
43.86717766629494
 20
19.68754798669612
 30
0.0
  0
SPLINE
  5
132
330
2
100
AcDbEntity
  8
0
100
AcDbSpline
210
0.0
220
0.0
230
1.0
 70
     8
 71
     3
 72
    10
 73
     6
 74
     0
 42
0.000000001
 43
0.0000000001
 40
0.0
 40
0.0
 40
0.0
 40
0.0
 40
0.1854124774339302
 40
0.5917533138519261
 40
1.0
 40
1.0
 40
1.0
 40
1.0
 10
35.8045533442862
 20
19.68757498843894
 30
0.0
 10
35.80457289458554
 20
19.68926808361442
 30
0.0
 10
35.80463529035569
 20
19.69467168263105
 30
0.0
 10
35.80797473542361
 20
19.70263967910358
 30
0.0
 10
35.81291717433334
 20
19.70714529924606
 30
0.0
 10
35.81539417557717
 20
19.70940338010432
 30
0.0
  0
LINE
  5
133
330
2
100
AcDbEntity
  8
0
100
AcDbLine
 10
34.79128688085757
 20
16.15842509925125
 30
0.0
 11
34.78927016197451
 21
16.55694355176928
 31
0.0
  0
LINE
  5
134
330
2
100
AcDbEntity
  8
0
100
AcDbLine
 10
34.58781015715795
 20
16.36871615672015
 30
0.0
 11
34.59171845049787
 21
16.71864243614715
 31
0.0
  0
LINE
  5
135
330
2
100
AcDbEntity
  8
0
100
AcDbLine
 10
34.78927016197451
 20
16.55694355176928
 30
0.0
 11
34.77483468238308
 21
16.66578133324634
 31
0.0
  0
LINE
  5
136
330
2
100
AcDbEntity
  8
0
100
AcDbLine
 10
44.88044280144061
 20
16.15842509925125
 30
0.0
 11
44.88245952038396
 21
16.55694355176928
 31
0.0
  0
LINE
  5
137
330
2
100
AcDbEntity
  8
0
100
AcDbLine
 10
44.88245952038396
 20
16.55694355176928
 30
0.0
 11
44.89689499997536
 21
16.66578133324634
 31
0.0
  0
LINE
  5
138
330
2
100
AcDbEntity
  8
0
100
AcDbLine
 10
45.0800112318605
 20
16.71864243614715
 30
0.0
 11
45.08391952523299
 21
16.36871615674994
 31
0.0
  0
SPLINE
  5
139
330
2
100
AcDbEntity
  8
0
100
AcDbSpline
210
0.0
220
0.0
230
1.0
 70
     8
 71
     3
 72
     8
 73
     4
 74
     0
 42
0.000000001
 43
0.0000000001
 40
0.0
 40
0.0
 40
0.0
 40
0.0
 40
1.0
 40
1.0
 40
1.0
 40
1.0
 10
34.44456643507505
 20
18.52223173261723
 30
0.0
 10
34.44379039559358
 20
18.52119163789024
 30
0.0
 10
34.44300480402177
 20
18.51996844244439
 30
0.0
 10
34.442218065345
 20
18.51857391122752
 30
0.0
  0
SPLINE
  5
13A
330
2
100
AcDbEntity
  8
0
100
AcDbSpline
210
0.0
220
0.0
230
1.0
 70
     8
 71
     3
 72
     8
 73
     4
 74
     0
 42
0.000000001
 43
0.0000000001
 40
0.0
 40
0.0
 40
0.0
 40
0.0
 40
1.0
 40
1.0
 40
1.0
 40
1.0
 10
34.4949308248261
 20
16.7904686720887
 30
0.0
 10
34.47620885680078
 20
17.3683558423341
 30
0.0
 10
34.45938862974923
 20
17.94562371248759
 30
0.0
 10
34.44456643507505
 20
18.52223173261723
 30
0.0
  0
LWPOLYLINE
  5
13B
330
2
100
AcDbEntity
  8
0
100
AcDbPolyline
 90
        3
 70
   128
 43
0.0
 10
34.49369789995694
 20
16.68564727504878
 10
34.4944275151874
 20
16.74768146047444
 10
34.49493082480768
 20
16.79046867210883
  0
ARC
  5
13C
330
2
100
AcDbEntity
  8
0
100
AcDbCircle
 10
36.29335029070387
 20
15.47169495763017
 30
0.0
 40
2.170812971349374
100
AcDbArc
 50
143.4429852452975
 51
145.9984365210994
  0
SPLINE
  5
13D
330
2
100
AcDbEntity
  8
0
100
AcDbSpline
210
0.0
220
0.0
230
1.0
 70
     8
 71
     3
 72
    12
 73
     8
 74
     0
 42
0.000000001
 43
0.0000000001
 40
0.0
 40
0.0
 40
0.0
 40
0.0
 40
0.2499999999999952
 40
0.2499999999999952
 40
0.4999999999999905
 40
0.4999999999999905
 40
1.0
 40
1.0
 40
1.0
 40
1.0
 10
34.59171845050173
 20
16.71864243612947
 30
0.0
 10
34.59187145512635
 20
16.73232223472581
 30
0.0
 10
34.59084988391857
 20
16.74423792024447
 30
0.0
 10
34.58665793414792
 20
16.7634714591731
 30
0.0
 10
34.58348906726127
 20
16.77063792430732
 30
0.0
 10
34.57169064816532
 20
16.78326031684963
 30
0.0
 10
34.56068857345423
 20
16.77962354601419
 30
0.0
 10
34.54961317004324
 20
16.76467980305131
 30
0.0
  0
ARC
  5
13E
330
2
100
AcDbEntity
  8
0
100
AcDbCircle
 10
35.75786816670058
 20
17.74470313894841
 30
0.0
 40
1.526371894832136
100
AcDbArc
 50
149.5357833040965
 51
178.6153618132983
  0
SPLINE
  5
13F
330
2
100
AcDbEntity
  8
0
100
AcDbSpline
210
0.0
220
0.0
230
1.0
 70
     8
 71
     3
 72
    12
 73
     8
 74
     0
 42
0.000000001
 43
0.0000000001
 40
0.0
 40
0.0
 40
0.0
 40
0.0
 40
0.25
 40
0.25
 40
0.5
 40
0.5
 40
1.0
 40
1.0
 40
1.0
 40
1.0
 10
45.12211651229727
 20
16.76467980305114
 30
0.0
 10
45.11657758864436
 20
16.77215332327347
 30
0.0
 10
45.11112352541242
 20
16.77684210127711
 30
0.0
 10
45.10085593817222
 20
16.78034525478597
 30
0.0
 10
45.09613533792246
 20
16.77907035320385
 30
0.0
 10
45.08431435614618
 20
16.76646463807543
 30
0.0
 10
45.07970515143614
 20
16.74600839495736
 30
0.0
 10
45.08001123183907
 20
16.71864243612947
 30
0.0
  0
ARC
  5
140
330
2
100
AcDbEntity
  8
0
100
AcDbCircle
 10
43.37837939171481
 20
15.47169495769043
 30
0.0
 40
2.170812971255303
100
AcDbArc
 50
34.00156347890045
 51
36.55701475479987
  0
LWPOLYLINE
  5
141
330
2
100
AcDbEntity
  8
0
100
AcDbPolyline
 90
        3
 70
   128
 43
0.0
 10
45.17679885749049
 20
16.79046867210883
 10
45.17752855262499
 20
16.72843451193188
 10
45.17803178234124
 20
16.68564727504878
  0
SPLINE
  5
142
330
2
100
AcDbEntity
  8
0
100
AcDbSpline
210
0.0
220
0.0
230
1.0
 70
     8
 71
     3
 72
     8
 73
     4
 74
     0
 42
0.000000001
 43
0.0000000001
 40
0.0
 40
0.0
 40
0.0
 40
0.0
 40
1.0
 40
1.0
 40
1.0
 40
1.0
 10
45.22716324726576
 20
18.52223173261723
 30
0.0
 10
45.21234105256826
 20
17.94562371158537
 30
0.0
 10
45.19552082556679
 20
17.36835584316253
 30
0.0
 10
45.17679885751472
 20
16.7904686720887
 30
0.0
  0
SPLINE
  5
143
330
2
100
AcDbEntity
  8
0
100
AcDbSpline
210
0.0
220
0.0
230
1.0
 70
     8
 71
     3
 72
     8
 73
     4
 74
     0
 42
0.000000001
 43
0.0000000001
 40
0.0
 40
0.0
 40
0.0
 40
0.0
 40
1.0
 40
1.0
 40
1.0
 40
1.0
 10
45.22951161699586
 20
18.51857391122752
 30
0.0
 10
45.2287192108085
 20
18.5199784883726
 30
0.0
 10
45.22793652592753
 20
18.52119533810634
 30
0.0
 10
45.22716324726576
 20
18.52223173261723
 30
0.0
  0
ARC
  5
144
330
2
100
AcDbEntity
  8
0
100
AcDbCircle
 10
43.91386151559766
 20
17.74470313894841
 30
0.0
 40
1.526371894911544
100
AcDbArc
 50
1.38463818740217
 51
30.46421669510243
  0
ELLIPSE
  5
145
330
2
100
AcDbEntity
  8
0
100
AcDbEllipse
 10
44.82498311528462
 20
18.34961042324249
 30
0.0
 11
-0.0258701354108521
 21
0.0551651220811644
 31
0.0
210
0.0
220
0.0
230
0.9999999999999998
 40
0.3316363469000001
 41
6.230574358443153
 42
7.094878122530499
  0
LINE
  5
146
330
2
100
AcDbEntity
  8
0
100
AcDbLine
 10
44.87549319830776
 20
17.77465055722911
 30
0.0
 11
44.79390544771706
 21
18.38135498661421
 31
0.0
  0
LINE
  5
147
330
2
100
AcDbEntity
  8
0
100
AcDbLine
 10
43.92258937476436
 20
19.17196916145605
 30
0.0
 11
44.8060542821226
 21
18.40686610835593
 31
0.0
  0
LINE
  5
148
330
2
100
AcDbEntity
  8
0
100
AcDbLine
 10
34.79623648405067
 20
17.77465055722911
 30
0.0
 11
34.8778242345811
 21
18.38135498661421
 31
0.0
  0
ELLIPSE
  5
149
330
2
100
AcDbEntity
  8
0
100
AcDbEllipse
 10
34.84674656707375
 20
18.34961042324249
 30
0.0
 11
0.0258701354108521
 21
0.0551651220811644
 31
0.0
210
0.0
220
0.0
230
0.9999999999999998
 40
0.3316363469000001
 41
5.471492491827452
 42
6.335796255916787
  0
LINE
  5
14A
330
2
100
AcDbEntity
  8
0
100
AcDbLine
 10
34.86567540023583
 20
18.40686610835593
 30
0.0
 11
35.74837635420921
 21
19.17130755841532
 31
0.0
  0
ELLIPSE
  5
14B
330
2
100
AcDbEntity
  8
0
100
AcDbEllipse
 10
34.71469787306951
 20
16.61265161757711
 30
0.0
 11
0.0181792346229846
 21
0.1199302638278225
 31
0.0
210
0.0
220
0.0
230
1.0
 40
0.4926395442000002
 41
5.244502075587121
 42
6.218569152574162
  0
ELLIPSE
  5
14C
330
2
100
AcDbEntity
  8
0
100
AcDbEllipse
 10
44.95703180922868
 20
16.61265161757711
 30
0.0
 11
-0.0181792346229846
 21
0.1199302638278568
 31
0.0
210
0.0
220
0.0
230
1.0
 40
0.4926395442000002
 41
0.0646161546055559
 42
1.038683231592637
  0
SPLINE
  5
14D
330
2
100
AcDbEntity
  8
0
100
AcDbSpline
210
0.0
220
0.0
230
1.0
 70
     8
 71
     3
 72
    10
 73
     6
 74
     0
 42
0.000000001
 43
0.0000000001
 40
0.0
 40
0.0
 40
0.0
 40
0.0
 40
0.25
 40
0.25
 40
0.3134236595885231
 40
0.3134236595885231
 40
0.3134236595885231
 40
0.3134236595885231
 10
45.22716324726576
 20
18.52223173261723
 30
0.0
 10
45.22516242402207
 20
18.52491335611052
 30
0.0
 10
45.22123774918425
 20
18.52585903407543
 30
0.0
 10
45.21546423286662
 20
18.52498786650182
 30
0.0
 10
45.21425949895672
 20
18.52471326744268
 30
0.0
 10
45.2130281502719
 20
18.52434934452702
 30
0.0
  0
ELLIPSE
  5
14E
330
2
100
AcDbEntity
  8
0
100
AcDbEllipse
 10
28.90054512395477
 20
18.19548792955243
 30
0.0
 11
-0.0063499600464577
 21
0.3468935845490969
 31
0.0
210
0.0
220
0.0
230
0.9999999999999998
 40
0.814281221439867
 41
1.147565261479764
 42
6.283185307179584
  0
ELLIPSE
  5
14F
330
2
100
AcDbEntity
  8
0
100
AcDbEllipse
 10
28.88357234424484
 20
17.69733877182892
 30
0.0
 11
0.0193839080562648
 21
0.2195125356862523
 31
0.0
210
0.0
220
0.0
230
1.0
 40
0.6457159237112303
 41
0.0
 42
6.283185307179584
  0
POLYLINE
  5
150
330
2
100
AcDbEntity
  8
0
100
AcDb2dPolyline
 66
     1
 10
0.0
 20
0.0
 30
0.0
  0
VERTEX
  5
151
330
150
100
AcDbEntity
  8
0
100
AcDbVertex
100
AcDb2dVertex
 10
30.29464237180321
 20
19.13897721129257
 30
0.0
 42
0.0006037448902222
  0
VERTEX
  5
152
330
150
100
AcDbEntity
  8
0
100
AcDbVertex
100
AcDb2dVertex
 10
30.85494212770692
 20
20.37489526940863
 30
0.0
 42
0.0007647010685485
  0
VERTEX
  5
153
330
150
100
AcDbEntity
  8
0
100
AcDbVertex
100
AcDb2dVertex
 10
31.2946364430203
 20
21.35188149615641
 30
0.0
 42
0.0017626404754466
  0
VERTEX
  5
154
330
150
100
AcDbEntity
  8
0
100
AcDbVertex
100
AcDb2dVertex
 10
32.14340174304499
 20
23.26357119513279
 30
0.0
 42
-0.002619272766959
  0
VERTEX
  5
155
330
150
100
AcDbEntity
  8
0
100
AcDbVertex
100
AcDb2dVertex
 10
32.71678400216729
 20
24.54906777625587
 30
0.0
 42
-0.1749357632335214
  0
VERTEX
  5
156
330
150
100
AcDbEntity
  8
0
100
AcDbVertex
100
AcDb2dVertex
 10
33.59293364438491
 20
25.45052776660049
 30
0.0
 42
-0.1478817340090604
  0
VERTEX
  5
157
330
150
100
AcDbEntity
  8
0
100
AcDbVertex
100
AcDb2dVertex
 10
34.76322986178968
 20
25.63894964633931
 30
0.0
 42
-0.0969150506333591
  0
SEQEND
  5
158
330
150
100
AcDbEntity
  8
0
  0
POLYLINE
  5
159
330
2
100
AcDbEntity
  8
0
100
AcDb2dPolyline
 66
     1
 10
0.0
 20
0.0
 30
0.0
  0
VERTEX
  5
15A
330
159
100
AcDbEntity
  8
0
100
AcDbVertex
100
AcDb2dVertex
 10
30.48519699494011
 20
19.01435955499863
 30
0.0
 42
0.0006191094235402
  0
VERTEX
  5
15B
330
159
100
AcDbEntity
  8
0
100
AcDbVertex
100
AcDb2dVertex
 10
31.06002472824838
 20
20.28222005247534
 30
0.0
 42
0.0007647010685485
  0
VERTEX
  5
15C
330
159
100
AcDbEntity
  8
0
100
AcDbVertex
100
AcDb2dVertex
 10
31.50000155901
 20
21.25983401920547
 30
0.0
 42
0.0017626404754467
  0
VERTEX
  5
15D
330
159
100
AcDbEntity
  8
0
100
AcDbVertex
100
AcDb2dVertex
 10
32.34941073505814
 20
23.17297393199402
 30
0.0
 42
-0.002619272766959
  0
VERTEX
  5
15E
330
159
100
AcDbEntity
  8
0
100
AcDbVertex
100
AcDb2dVertex
 10
32.92183251134952
 20
24.45631715490697
 30
0.0
 42
-0.1749357632335211
  0
VERTEX
  5
15F
330
159
100
AcDbEntity
  8
0
100
AcDbVertex
100
AcDb2dVertex
 10
33.69148461524645
 20
25.24820308935927
 30
0.0
 42
-0.1403364824140866
  0
VERTEX
  5
160
330
159
100
AcDbEntity
  8
0
100
AcDbVertex
100
AcDb2dVertex
 10
34.67965636710415
 20
25.42232638125967
 30
0.0
 42
-0.0969150506333573
  0
SEQEND
  5
161
330
159
100
AcDbEntity
  8
0
  0
POLYLINE
  5
162
330
2
100
AcDbEntity
  8
0
100
AcDb2dPolyline
 66
     1
 10
0.0
 20
0.0
 30
0.0
  0
VERTEX
  5
163
330
162
100
AcDbEntity
  8
0
100
AcDbVertex
100
AcDb2dVertex
 10
30.56981678209087
 20
18.95902046441546
 30
0.0
 42
-0.0337349947023
  0
VERTEX
  5
164
330
162
100
AcDbEntity
  8
0
100
AcDbVertex
100
AcDb2dVertex
 10
31.32890877378117
 20
19.33462307266239
 30
0.0
 42
-0.0365289724527151
  0
VERTEX
  5
165
330
162
100
AcDbEntity
  8
0
100
AcDbVertex
100
AcDb2dVertex
 10
32.07174635473882
 20
19.57997830303253
 30
0.0
 42
-0.0236306789244121
  0
VERTEX
  5
166
330
162
100
AcDbEntity
  8
0
100
AcDbVertex
100
AcDb2dVertex
 10
32.79361210281667
 20
19.72535740928083
 30
0.0
 42
-0.0322252972238375
  0
VERTEX
  5
167
330
162
100
AcDbEntity
  8
0
100
AcDbVertex
100
AcDb2dVertex
 10
33.33179480246379
 20
19.77232723528476
 30
0.0
 42
-0.2143068448211105
  0
VERTEX
  5
168
330
162
100
AcDbEntity
  8
0
100
AcDbVertex
100
AcDb2dVertex
 10
34.03772077169185
 20
19.47419841351046
 30
0.0
 42
-0.097484282920407
  0
VERTEX
  5
169
330
162
100
AcDbEntity
  8
0
100
AcDbVertex
100
AcDb2dVertex
 10
34.43892589454276
 20
18.82654106377828
 30
0.0
  0
SEQEND
  5
16A
330
162
100
AcDbEntity
  8
0
  0
POLYLINE
  5
16B
330
2
100
AcDbEntity
  8
0
100
AcDb2dPolyline
 66
     1
 10
0.0
 20
0.0
 30
0.0
  0
VERTEX
  5
16C
330
16B
100
AcDbEntity
  8
0
100
AcDbVertex
100
AcDb2dVertex
 10
30.66383095215844
 20
18.8977606568892
 30
0.0
 42
-0.0316928671166253
  0
VERTEX
  5
16D
330
16B
100
AcDbEntity
  8
0
100
AcDbVertex
100
AcDb2dVertex
 10
31.36712460993283
 20
19.24218926976931
 30
0.0
 42
-0.036528972452715
  0
VERTEX
  5
16E
330
16B
100
AcDbEntity
  8
0
100
AcDbVertex
100
AcDb2dVertex
 10
32.09610322483121
 20
19.48296695869902
 30
0.0
 42
-0.023630678924412
  0
VERTEX
  5
16F
330
16B
100
AcDbEntity
  8
0
100
AcDbVertex
100
AcDb2dVertex
 10
32.80870585701587
 20
19.62648053314575
 30
0.0
 42
-0.0322252972238374
  0
VERTEX
  5
170
330
16B
100
AcDbEntity
  8
0
100
AcDbVertex
100
AcDb2dVertex
 10
33.33405771289557
 20
19.67233054890755
 30
0.0
 42
-0.2143068448211092
  0
VERTEX
  5
171
330
16B
100
AcDbEntity
  8
0
100
AcDbVertex
100
AcDb2dVertex
 10
33.96446526721297
 20
19.4060948958803
 30
0.0
 42
-0.0972875434694386
  0
VERTEX
  5
172
330
16B
100
AcDbEntity
  8
0
100
AcDbVertex
100
AcDb2dVertex
 10
34.34480942250083
 20
18.79264722940479
 30
0.0
 42
-0.1439978508364684
  0
SEQEND
  5
173
330
16B
100
AcDbEntity
  8
0
  0
SPLINE
  5
174
330
2
100
AcDbEntity
  8
0
100
AcDbSpline
210
0.0
220
0.0
230
1.0
 70
     8
 71
     3
 72
    10
 73
     6
 74
     0
 42
0.000000001
 43
0.0000000001
 40
0.0
 40
0.0
 40
0.0
 40
0.0
 40
0.3852248288516202
 40
0.9303658622867883
 40
1.0
 40
1.0
 40
1.0
 40
1.0
 10
20.12373128774436
 20
14.15915656891622
 30
0.0
 10
20.10233877325766
 20
14.14204734777331
 30
0.0
 10
20.05067319072953
 20
14.10072645127485
 30
0.0
 10
20.00385339416863
 20
14.04168712511244
 30
0.0
 10
19.99151835644699
 20
13.99981395587514
 30
0.0
 10
19.99012119573581
 20
13.99507108047936
 30
0.0
  0
SPLINE
  5
175
330
2
100
AcDbEntity
  8
0
100
AcDbSpline
210
0.0
220
0.0
230
1.0
 70
     8
 71
     3
 72
    10
 73
     6
 74
     0
 42
0.000000001
 43
0.0000000001
 40
0.0
 40
0.0
 40
0.0
 40
0.0
 40
0.178406816138169
 40
0.5961940725780118
 40
1.0
 40
1.0
 40
1.0
 40
1.0
 10
20.43942015278384
 20
14.17518640458928
 30
0.0
 10
20.42903138484479
 20
14.18327150844016
 30
0.0
 10
20.39431453937499
 20
14.21029004448286
 30
0.0
 10
20.31736462028954
 20
14.22371099742958
 30
0.0
 10
20.25613870595106
 20
14.21232220198118
 30
0.0
 10
20.22604669982519
 20
14.20672470774849
 30
0.0
  0
SPLINE
  5
176
330
2
100
AcDbEntity
  8
0
100
AcDbSpline
210
0.0
220
0.0
230
1.0
 70
     8
 71
     3
 72
    12
 73
     8
 74
     0
 42
0.000000001
 43
0.0000000001
 40
0.0
 40
0.0
 40
0.0
 40
0.0
 40
0.0291081485275992
 40
0.324446051290663
 40
0.5915218762100177
 40
0.8482103367107132
 40
1.0
 40
1.0
 40
1.0
 40
1.0
 10
20.0121096735694
 20
14.03854751661851
 30
0.0
 10
20.00976525931339
 20
14.03558545920265
 30
0.0
 10
19.9836338842029
 20
14.00256969279797
 30
0.0
 10
19.96216867995491
 20
13.92683508972226
 30
0.0
 10
19.95703159027675
 20
13.82670778962472
 30
0.0
 10
19.9792456064086
 20
13.74476361131752
 30
0.0
 10
20.01229619685302
 20
13.70858129334698
 30
0.0
 10
20.02457773092516
 20
13.69513601551716
 30
0.0
  0
LINE
  5
177
330
2
100
AcDbEntity
  8
0
100
AcDbLine
 10
20.51381622127286
 20
14.13004741763319
 30
0.0
 11
20.43942015278384
 21
14.17518640458928
 31
0.0
  0
LINE
  5
178
330
2
100
AcDbEntity
  8
0
100
AcDbLine
 10
20.02457773092516
 20
13.69513601551716
 30
0.0
 11
20.07987172882883
 21
13.62897240549978
 31
0.0
  0
SPLINE
  5
179
330
2
100
AcDbEntity
  8
0
100
AcDbSpline
210
0.0
220
0.0
230
1.0
 70
     8
 71
     3
 72
     9
 73
     5
 74
     0
 42
0.000000001
 43
0.0000000001
 40
0.0
 40
0.0
 40
0.0
 40
0.0
 40
0.0304439907759075
 40
1.0
 40
1.0
 40
1.0
 40
1.0
 10
9.829717856093395
 20
11.19900807529001
 30
0.0
 10
9.828702803586452
 20
11.19865053397404
 30
0.0
 10
9.79536116600849
 20
11.18690630114446
 30
0.0
 10
9.768581795704676
 20
11.16173836075808
 30
0.0
 10
9.742617696303282
 20
11.13733663291668
 30
0.0
  0
SPLINE
  5
17A
330
2
100
AcDbEntity
  8
0
100
AcDbSpline
210
0.0
220
0.0
230
1.0
 70
     8
 71
     3
 72
     9
 73
     5
 74
     0
 42
0.000000001
 43
0.0000000001
 40
0.0
 40
0.0
 40
0.0
 40
0.0
 40
0.558387413646741
 40
1.0
 40
1.0
 40
1.0
 40
1.0
 10
9.742617696303282
 20
11.13733663291668
 30
0.0
 10
9.723204604169039
 20
11.11754078735254
 30
0.0
 10
9.688438254391483
 20
11.08208897543795
 30
0.0
 10
9.670202605474965
 20
11.03640334477285
 30
0.0
 10
9.662149513393046
 20
11.01622799525563
 30
0.0
  0
SPLINE
  5
17B
330
2
100
AcDbEntity
  8
0
100
AcDbSpline
210
0.0
220
0.0
230
1.0
 70
     8
 71
     3
 72
    10
 73
     6
 74
     0
 42
0.000000001
 43
0.0000000001
 40
0.0
 40
0.0
 40
0.0
 40
0.0
 40
0.3341848966245098
 40
0.6760545672849795
 40
1.0
 40
1.0
 40
1.0
 40
1.0
 10
10.10001214789417
 20
11.20109377299042
 30
0.0
 10
10.07253921333017
 20
11.21352908446692
 30
0.0
 10
10.01696158825996
 20
11.23868566456446
 30
0.0
 10
9.92265458000014
 20
11.23710338485745
 30
0.0
 10
9.864407024861575
 20
11.21307304206681
 30
0.0
 10
9.836067281052407
 20
11.20138132802463
 30
0.0
  0
SPLINE
  5
17C
330
2
100
AcDbEntity
  8
0
100
AcDbSpline
210
0.0
220
0.0
230
1.0
 70
     8
 71
     3
 72
    11
 73
     7
 74
     0
 42
0.000000001
 43
0.0000000001
 40
0.0
 40
0.0
 40
0.0
 40
0.0
 40
0.1174437488512791
 40
0.4532904660140817
 40
0.7450588621110571
 40
1.0
 40
1.0
 40
1.0
 40
1.0
 10
9.665525018038067
 20
11.02555572099698
 30
0.0
 10
9.6586586083165
 20
11.01384194884889
 30
0.0
 10
9.632156745995814
 20
10.96863101776318
 30
0.0
 10
9.622443472327688
 20
10.88377525072036
 30
0.0
 10
9.635297642338343
 20
10.78704617134673
 30
0.0
 10
9.669083127883991
 20
10.73876965458459
 30
0.0
 10
9.684837947570995
 20
10.71625738920136
 30
0.0
  0
LINE
  5
17D
330
2
100
AcDbEntity
  8
0
100
AcDbLine
 10
10.14667558613655
 20
11.17159638288979
 30
0.0
 11
10.11073326018305
 21
11.19522494100749
 31
0.0
  0
LINE
  5
17E
330
2
100
AcDbEntity
  8
0
100
AcDbLine
 10
9.689338355423956
 20
10.70863984188753
 30
0.0
 11
9.717860420783608
 21
10.67644241615659
 31
0.0
  0
LINE
  5
17F
330
2
100
AcDbEntity
  8
0
100
AcDbLine
 10
20.07987172882883
 20
13.62897240549978
 30
0.0
 11
20.1220537572363
 21
13.59244169731613
 31
0.0
  0
LINE
  5
180
330
2
100
AcDbEntity
  8
0
100
AcDbLine
 10
20.55599824965611
 20
14.09351670944949
 30
0.0
 11
20.51381622127286
 21
14.13004741763319
 31
0.0
  0
LINE
  5
181
330
2
100
AcDbEntity
  8
0
100
AcDbLine
 10
24.18356018976221
 20
14.83470407928132
 30
0.0
 11
24.13137340824631
 21
14.81963905309294
 31
0.0
  0
LINE
  5
182
330
2
100
AcDbEntity
  8
0
100
AcDbLine
 10
27.53128550601451
 20
15.36460775998574
 30
0.0
 11
25.62335729787615
 21
17.01692205683162
 31
0.0
  0
LINE
  5
183
330
2
100
AcDbEntity
  8
0
100
AcDbLine
 10
25.46331279518468
 20
17.15552466189857
 30
0.0
 11
25.40441092054397
 21
17.20653518166798
 31
0.0
  0
LINE
  5
184
330
2
100
AcDbEntity
  8
0
100
AcDbLine
 10
25.34104655736183
 20
17.2614103298784
 30
0.0
 11
24.14398859947983
 21
18.29809293120723
 31
0.0
  0
LINE
  5
185
330
2
100
AcDbEntity
  8
0
100
AcDbLine
 10
24.03563972389054
 20
18.29537174735844
 30
0.0
 11
5.457182052691846
 21
12.93223297857327
 31
0.0
  0
LINE
  5
186
330
2
100
AcDbEntity
  8
0
100
AcDbLine
 10
24.09521986529308
 20
13.17097459716882
 30
0.0
 11
27.40951889004259
 21
10.30070744597782
 31
0.0
  0
LINE
  5
187
330
2
100
AcDbEntity
  8
0
100
AcDbLine
 10
28.44858846979611
 20
10.61742942228244
 30
0.0
 11
28.44858846979611
 21
10.66961620379828
 31
0.0
  0
LINE
  5
188
330
2
100
AcDbEntity
  8
0
100
AcDbLine
 10
6.104617807924512
 20
5.16568950241907
 30
0.0
 11
26.53035021327537
 21
11.06209055374307
 31
0.0
  0
LINE
  5
189
330
2
100
AcDbEntity
  8
0
100
AcDbLine
 10
1.73851219769375
 20
6.716522093006402
 30
0.0
 11
1.73851219769375
 21
6.664335311490559
 31
0.0
  0
LINE
  5
18A
330
2
100
AcDbEntity
  8
0
100
AcDbLine
 10
20.12444583531193
 20
14.15960455810818
 30
0.0
 11
20.22240540656856
 21
14.20572565893667
 31
0.0
  0
LINE
  5
18B
330
2
100
AcDbEntity
  8
0
100
AcDbLine
 10
9.828915892003008
 20
11.1990629996921
 30
0.0
 11
9.835040600934805
 21
11.2021386559947
 31
0.0
  0
LINE
  5
18C
330
2
100
AcDbEntity
  8
0
100
AcDbLine
 10
10.10258979244526
 20
11.20028116507473
 30
0.0
 11
10.11073326018305
 21
11.19522494100749
 31
0.0
  0
LINE
  5
18D
330
2
100
AcDbEntity
  8
0
100
AcDbLine
 10
9.689338355423956
 20
10.70863984188753
 30
0.0
 11
9.684921348474516
 21
10.71381530276795
 31
0.0
  0
LWPOLYLINE
  5
18E
330
2
100
AcDbEntity
  8
0
100
AcDbPolyline
 90
        6
 70
   128
 43
0.0
 10
10.10841715169874
 20
10.71600914798984
 10
10.18356070470634
 20
10.81068293132279
 10
10.22726729946504
 20
10.91849926919855
 10
10.23363152215876
 20
11.02489510387977
 10
10.20179641118801
 20
11.11550262722807
 10
10.14667558613655
 20
11.17159638288979
  0
ARC
  5
18F
330
2
100
AcDbEntity
  8
0
100
AcDbCircle
 10
9.894213111395233
 20
10.88303801939145
 30
0.0
 40
0.2716284498405623
100
AcDbArc
 50
229.515498049501
 51
322.0541318141967
  0
LWPOLYLINE
  5
190
330
2
100
AcDbEntity
  8
0
100
AcDbPolyline
 90
       11
 70
   128
 43
0.0
 10
20.1220537572363
 20
13.59244169731613
 10
20.12790629142313
 20
13.58757837752927
 10
20.21240798907655
 20
13.54883826757526
 10
20.31401003577145
 20
13.54982319871993
 10
20.41899171490013
 20
13.59040067314555
 10
20.51317194571522
 20
13.6650900408311
 10
20.58383316983174
 20
13.76380451183678
 10
20.62143216380514
 20
13.87321209628959
 10
20.62089092493579
 20
13.97853639061174
 10
20.58228099626127
 20
14.06555281126577
 10
20.55599824965611
 20
14.09351670944949
  0
LWPOLYLINE
  5
191
330
2
100
AcDbEntity
  8
0
100
AcDbPolyline
 90
       14
 70
   128
 43
0.0
 10
19.99906966421946
 20
13.61113001283917
 10
20.06090620615333
 20
13.52584201747902
 10
20.1528810440779
 20
13.47492066402151
 10
20.26502636194004
 20
13.46388391561317
 10
20.38519228008687
 20
13.49392836094745
 10
20.50035484916782
 20
13.56179783296704
 10
20.5980344692735
 20
13.66013765850147
 10
20.66764743189606
 20
13.77829113282331
 10
20.70164749836834
 20
13.90345414331449
 10
20.69635331117314
 20
14.02206415495362
 10
20.65233721485276
 20
14.12126788357937
 10
20.57436771059327
 20
14.1903141599758
 10
20.47089621236001
 20
14.22172153975686
 10
20.36339030706273
 20
14.21450604578979
  0
LWPOLYLINE
  5
192
330
2
100
AcDbEntity
  8
0
100
AcDbPolyline
 90
        3
 70
   128
 43
0.0
 10
19.97460504478545
 20
13.7632168005411
 10
19.97407313760828
 20
13.72154260923219
 10
19.99906966421946
 20
13.61113001283917
  0
LWPOLYLINE
  5
193
330
2
100
AcDbEntity
  8
0
100
AcDbPolyline
 90
       14
 70
   128
 43
0.0
 10
9.701704485665343
 20
10.57022243360279
 10
9.783793937600878
 20
10.50604062005271
 10
9.889970074943164
 20
10.48022799553433
 10
10.00872535038104
 20
10.49558110507888
 10
10.12719289826191
 20
10.55043702430629
 10
10.23253384803348
 20
10.63885027015163
 10
10.3133339694271
 20
10.75124093501443
 10
10.36083701277386
 20
10.87542921396544
 10
10.36989343228822
 20
10.99795715038749
 10
10.33952339898991
 20
11.10554710423554
 10
10.27301944934237
 20
11.18654047160777
 10
10.17758565951618
 20
11.23215984044537
 10
10.06356466899558
 20
11.23746203508341
 10
10.02796732570573
 20
11.23108234280852
  0
ARC
  5
194
330
2
100
AcDbEntity
  8
0
100
AcDbCircle
 10
9.951090974674796
 20
10.75534723602203
 30
0.0
 40
0.3105878512976687
100
AcDbArc
 50
173.769377047998
 51
216.587270882999
  0
LWPOLYLINE
  5
195
330
2
100
AcDbEntity
  8
0
100
AcDbPolyline
 90
        4
 70
   128
 43
0.0
 10
24.2169863690126
 20
14.82328576637468
 10
24.2052302654231
 20
14.831461311851
 10
24.1939259397692
 20
14.83531151492269
 10
24.18350777230302
 20
14.8346888180551
  0
LINE
  5
196
330
2
100
AcDbEntity
  8
0
100
AcDbLine
 10
24.2169863690126
 20
14.82328576637468
 30
0.0
 11
24.33750635396729
 21
14.71891239776585
 31
0.0
  0
LWPOLYLINE
  5
197
330
2
100
AcDbEntity
  8
0
100
AcDbPolyline
 90
        3
 70
   128
 43
0.0
 10
24.33750635396729
 20
14.71891239776585
 10
24.42239234054523
 20
14.66653801009966
 10
24.48312571727826
 20
14.66198141296553
  0
LINE
  5
198
330
2
100
AcDbEntity
  8
0
100
AcDbLine
 10
27.53128550601451
 20
15.36460775998574
 30
0.0
 11
27.53128550601446
 21
11.48017092584354
 31
0.0
  0
ARC
  5
199
330
2
100
AcDbEntity
  8
0
100
AcDbCircle
 10
24.33301490602941
 20
14.18004374403318
 30
0.0
 40
0.2284835190857473
100
AcDbArc
 50
179.5143398835012
 51
222.5891566898015
  0
LINE
  5
19A
330
2
100
AcDbEntity
  8
0
100
AcDbLine
 10
24.1045395950195
 20
14.7560338614831
 30
0.0
 11
24.1045395950195
 21
14.18198043124977
 31
0.0
  0
LINE
  5
19B
330
2
100
AcDbEntity
  8
0
100
AcDbLine
 10
24.16479958749693
 20
14.02542057271114
 30
0.0
 11
24.52635954233659
 21
13.71230046683655
 31
0.0
  0
LINE
  5
19C
330
2
100
AcDbEntity
  8
0
100
AcDbLine
 10
5.443765202204643
 20
9.090803448592113
 30
0.0
 11
5.443765202204643
 21
12.90043033416265
 31
0.0
  0
LINE
  5
19D
330
2
100
AcDbEntity
  8
0
100
AcDbLine
 10
20.78664941806625
 20
15.24207290539431
 30
0.0
 11
19.9516624690512
 21
15.00103293548511
 31
0.0
  0
LINE
  5
19E
330
2
100
AcDbEntity
  8
0
100
AcDbLine
 10
20.78664941806625
 20
15.55519281684604
 30
0.0
 11
20.78664941806625
 21
15.24207290539431
 31
0.0
  0
LINE
  5
19F
330
2
100
AcDbEntity
  8
0
100
AcDbLine
 10
20.78664941806625
 20
15.55519281684604
 30
0.0
 11
19.9516624690512
 21
15.31415284696095
 31
0.0
  0
LINE
  5
1A0
330
2
100
AcDbEntity
  8
0
100
AcDbLine
 10
19.9516624690512
 20
15.31415284696095
 30
0.0
 11
19.9516624690512
 21
15.00103293548511
 31
0.0
  0
LINE
  5
1A1
330
2
100
AcDbEntity
  8
0
100
AcDbLine
 10
10.45368689619806
 20
12.25920355862723
 30
0.0
 11
9.618699947207232
 21
12.01816358874208
 31
0.0
  0
LINE
  5
1A2
330
2
100
AcDbEntity
  8
0
100
AcDbLine
 10
10.45368689619806
 20
12.57232347007897
 30
0.0
 11
10.45368689619806
 21
12.25920355862723
 31
0.0
  0
LINE
  5
1A3
330
2
100
AcDbEntity
  8
0
100
AcDbLine
 10
10.45368689619806
 20
12.57232347007897
 30
0.0
 11
9.618699947207232
 21
12.33128350019382
 31
0.0
  0
LINE
  5
1A4
330
2
100
AcDbEntity
  8
0
100
AcDbLine
 10
9.618699947207232
 20
12.33128350019382
 30
0.0
 11
9.618699947207232
 21
12.01816358874208
 31
0.0
  0
LWPOLYLINE
  5
1A5
330
2
100
AcDbEntity
  8
0
100
AcDbPolyline
 90
        7
 70
   128
 43
0.0
 10
24.13137340824631
 20
14.81963905309294
 10
24.13132099078718
 20
14.8196237918666
 10
24.1221893521834
 20
14.81455201031105
 10
24.1146953384328
 20
14.80522555458225
 10
24.1091266282578
 20
14.79200340371306
 10
24.10569749345348
 20
14.7753932607597
 10
24.1045395950195
 20
14.7560338614831
  0
ARC
  5
1A6
330
2
100
AcDbEntity
  8
0
100
AcDbCircle
 10
24.01691478066278
 20
13.22072537072012
 30
0.0
 40
0.7079407039501186
100
AcDbArc
 50
13.13109163540021
 51
43.97729533529892
  0
ARC
  5
1A7
330
2
100
AcDbEntity
  8
0
100
AcDbCircle
 10
22.9646891928432
 20
14.16401330377556
 30
0.0
 40
0.1484851266805567
100
AcDbArc
 50
287.2089174333015
 51
357.1688175609007
  0
LINE
  5
1A8
330
2
100
AcDbEntity
  8
0
100
AcDbLine
 10
23.00861951606856
 20
14.02217551067707
 30
0.0
 11
5.57827026062273
 21
8.990467093339873
 31
0.0
  0
LINE
  5
1A9
330
2
100
AcDbEntity
  8
0
100
AcDbLine
 10
23.11299307910019
 20
15.51353272379396
 30
0.0
 11
23.11299307910019
 21
14.15667912608552
 31
0.0
  0
LWPOLYLINE
  5
1AA
330
2
100
AcDbEntity
  8
0
100
AcDbPolyline
 90
        8
 70
   128
 43
0.0
 10
24.48312571727826
 20
14.66198141296553
 10
24.51302687405672
 20
14.68676374181274
 10
24.55939163653467
 20
14.77156920589249
 10
24.58355272028979
 20
14.89316705469593
 10
24.58355272028979
 20
15.04170602131557
 10
24.55939163653467
 20
15.20515170594302
 10
24.51302687405672
 20
15.37026407194349
 10
24.47837056636805
 20
15.45229053891033
  0
LWPOLYLINE
  5
1AB
330
2
100
AcDbEntity
  8
0
100
AcDbPolyline
 90
        2
 70
   128
 43
0.0
 10
24.3830421342515
 20
15.63165769460389
 10
24.37020555902944
 20
15.6529282150621
  0
LWPOLYLINE
  5
1AC
330
2
100
AcDbEntity
  8
0
100
AcDbPolyline
 90
        2
 70
   128
 43
0.0
 10
24.31863769979353
 20
15.7104293959886
 10
24.29856429746815
 20
15.73281241432647
  0
ARC
  5
1AD
330
2
100
AcDbEntity
  8
0
100
AcDbCircle
 10
24.33301246330666
 20
16.00657665274383
 30
0.0
 40
0.2284810811762714
100
AcDbArc
 50
179.5141952210006
 51
222.5893967578022
  0
ARC
  5
1AE
330
2
100
AcDbEntity
  8
0
100
AcDbCircle
 10
23.90405170260465
 20
16.00078171403589
 30
0.0
 40
0.1484822888307726
100
AcDbArc
 50
287.2081354590002
 51
357.1692786496003
  0
LINE
  5
1AF
330
2
100
AcDbEntity
  8
0
100
AcDbLine
 10
23.94797925047214
 20
15.85894603223022
 30
0.0
 11
23.21736586451283
 21
15.64803611469784
 31
0.0
  0
LINE
  5
1B0
330
2
100
AcDbEntity
  8
0
100
AcDbLine
 10
24.1045395950195
 20
18.304727617097
 30
0.0
 11
24.1045395950195
 21
16.00851389615997
 31
0.0
  0
LINE
  5
1B1
330
2
100
AcDbEntity
  8
0
100
AcDbLine
 10
24.05235281350377
 20
15.99344886999569
 30
0.0
 11
24.05235281350377
 21
18.23747580941341
 31
0.0
  0
LINE
  5
1B2
330
2
100
AcDbEntity
  8
0
100
AcDbLine
 10
24.29856429746815
 20
15.73281241432647
 30
0.0
 11
24.16479958749693
 21
15.85195442646699
 31
0.0
  0
ARC
  5
1B3
330
2
100
AcDbEntity
  8
0
100
AcDbCircle
 10
23.26129484403708
 20
15.5062002094964
 30
0.0
 40
0.148482925783669
100
AcDbArc
 50
107.2086376752012
 51
177.1694182046975
  0
LWPOLYLINE
  5
1B4
330
2
100
AcDbEntity
  8
0
100
AcDbPolyline
 90
        7
 70
   128
 43
0.0
 10
5.443765202204643
 20
12.90043033416265
 10
5.444344151409552
 20
12.91011061703324
 10
5.446058662673465
 20
12.9184155426928
 10
5.448843073899126
 20
12.92502637512297
 10
5.452590080762433
 20
12.92968999180891
 10
5.457155900076372
 20
12.93222529935446
 10
5.457182052691846
 20
12.93223297857327
  0
LWPOLYLINE
  5
1B5
330
2
100
AcDbEntity
  8
0
100
AcDbPolyline
 90
        4
 70
   128
 43
0.0
 10
24.05235281350377
 20
18.2896625909292
 10
24.04647476172096
 20
18.29375075247685
 10
24.04082265500813
 20
18.29567580541908
 10
24.03561357127501
 20
18.29536406813957
  0
LINE
  5
1B6
330
2
100
AcDbEntity
  8
0
100
AcDbLine
 10
24.05235281350377
 20
18.23747580941341
 30
0.0
 11
24.05235281350377
 21
18.2896625909292
 31
0.0
  0
LINE
  5
1B7
330
2
100
AcDbEntity
  8
0
100
AcDbLine
 10
24.05235281350377
 20
18.2896625909292
 30
0.0
 11
24.1045395950195
 21
18.30472761709353
 31
0.0
  0
ARC
  5
1B8
330
2
100
AcDbEntity
  8
0
100
AcDbCircle
 10
5.616212447104429
 20
10.91568428731227
 30
0.0
 40
0.2467008305594585
100
AcDbArc
 50
180.5536595746979
 51
216.0803568636985
  0
LINE
  5
1B9
330
2
100
AcDbEntity
  8
0
100
AcDbLine
 10
5.369523134559471
 20
12.84420743721233
 30
0.0
 11
5.369523134559471
 21
10.91330040927044
 31
0.0
  0
LINE
  5
1BA
330
2
100
AcDbEntity
  8
0
100
AcDbLine
 10
5.421709138432277
 20
12.9114590204361
 30
0.0
 11
5.446083551396099
 21
12.91849530738551
 31
0.0
  0
ARC
  5
1BB
330
2
100
AcDbEntity
  8
0
100
AcDbCircle
 10
5.443673321832648
 20
12.84054172815217
 30
0.0
 40
0.0742407414720976
100
AcDbArc
 50
107.2085625796016
 51
177.1698141882998
  0
ARC
  5
1BC
330
2
100
AcDbEntity
  8
0
100
AcDbCircle
 10
25.132944683034
 20
13.24980996824791
 30
0.0
 40
0.1948216872390498
100
AcDbArc
 50
57.13638854679938
 51
107.6021872118
  0
LINE
  5
1BD
330
2
100
AcDbEntity
  8
0
100
AcDbLine
 10
25.23866293728474
 20
13.41345330156878
 30
0.0
 11
28.43244197710374
 21
10.6475595190106
 31
0.0
  0
LWPOLYLINE
  5
1BE
330
2
100
AcDbEntity
  8
0
100
AcDbPolyline
 90
        9
 70
   128
 43
0.0
 10
28.38832840652538
 20
10.56524278235343
 10
28.40753306563886
 20
10.57212371583784
 10
28.42368340282167
 20
10.58074554038182
 10
28.43615998905688
 20
10.59077728364713
 10
28.44448232507881
 20
10.60183320644449
 10
28.44833042247393
 20
10.61348823488055
 10
28.44755734959171
 20
10.6252949315222
 10
28.44219254179461
 20
10.63679948545479
 10
28.43244197710374
 20
10.6475595190106
  0
LINE
  5
1BF
330
2
100
AcDbEntity
  8
0
100
AcDbLine
 10
27.4489686721218
 20
10.29407298457198
 30
0.0
 11
28.38832840652538
 21
10.56524278235343
 31
0.0
  0
LINE
  5
1C0
330
2
100
AcDbEntity
  8
0
100
AcDbLine
 10
25.07402938177586
 20
13.43550993352039
 30
0.0
 11
24.13466964737222
 21
13.16434013576298
 31
0.0
  0
LWPOLYLINE
  5
1C1
330
2
100
AcDbEntity
  8
0
100
AcDbPolyline
 90
        9
 70
   128
 43
0.0
 10
26.14097944485627
 20
11.96916492777092
 10
26.07026942420657
 20
11.93815943598696
 10
26.02867235733538
 20
11.89598432836618
 10
26.02252163240951
 20
11.84906056563017
 10
26.05275228969515
 20
11.80453146658095
 10
26.11476362301198
 20
11.76917665846446
 10
26.19911332664606
 20
11.7483781190993
 10
26.29296128926831
 20
11.74530262361844
 10
26.38201938668442
 20
11.76041821482607
  0
LINE
  5
1C2
330
2
100
AcDbEntity
  8
0
100
AcDbLine
 10
26.38201938668442
 20
11.76041821482607
 30
0.0
 11
26.59076573512868
 21
11.82067809505105
 31
0.0
  0
LWPOLYLINE
  5
1C3
330
2
100
AcDbEntity
  8
0
100
AcDbPolyline
 90
        9
 70
   128
 43
0.0
 10
26.59076573512868
 20
11.82067809505105
 10
26.66147575577838
 20
11.85168358683501
 10
26.70307282264957
 20
11.89385869443168
 10
26.70922354757545
 20
11.9407824571918
 10
26.67899289028992
 20
11.98531155624101
 10
26.61698155697298
 20
12.02066636435751
 10
26.53263185333884
 20
12.04146490369857
 10
26.43878389071671
 20
12.04454039920352
 10
26.34972579330065
 20
12.02942480799595
  0
LINE
  5
1C4
330
2
100
AcDbEntity
  8
0
100
AcDbLine
 10
26.34972579330065
 20
12.02942480799595
 30
0.0
 11
26.14097944485627
 21
11.96916492777092
 31
0.0
  0
ARC
  5
1C5
330
2
100
AcDbEntity
  8
0
100
AcDbCircle
 10
25.132944683034
 20
13.30199674976376
 30
0.0
 40
0.1948216872390057
100
AcDbArc
 50
57.13638854679938
 51
107.6021872118
  0
LINE
  5
1C6
330
2
100
AcDbEntity
  8
0
100
AcDbLine
 10
24.10453990547893
 20
14.19937611470698
 30
0.0
 11
24.08248286585655
 21
14.1930087958313
 31
0.0
  0
LINE
  5
1C7
330
2
100
AcDbEntity
  8
0
100
AcDbLine
 10
24.13466964737222
 20
14.06549703710863
 30
0.0
 11
24.13466964737222
 21
13.21652691727883
 31
0.0
  0
ARC
  5
1C8
330
2
100
AcDbEntity
  8
0
100
AcDbCircle
 10
24.12071750261475
 20
13.19996950995738
 30
0.0
 40
0.0382637511114862
100
AcDbArc
 50
177.7647556206002
 51
291.3848674344984
  0
LINE
  5
1C9
330
2
100
AcDbEntity
  8
0
100
AcDbLine
 10
24.08248286585655
 20
13.20146189109039
 30
0.0
 11
24.08248286585655
 21
14.1930087958313
 31
0.0
  0
LINE
  5
1CA
330
2
100
AcDbEntity
  8
0
100
AcDbLine
 10
25.07402938177586
 20
13.48769671503618
 30
0.0
 11
24.13466964737222
 21
13.21652691727883
 31
0.0
  0
LINE
  5
1CB
330
2
100
AcDbEntity
  8
0
100
AcDbLine
 10
28.43244197710374
 20
10.69974630052644
 30
0.0
 11
25.23866293728474
 21
13.46564008308456
 31
0.0
  0
ARC
  5
1CC
330
2
100
AcDbEntity
  8
0
100
AcDbCircle
 10
27.4351722636971
 20
10.3326421119113
 30
0.0
 40
0.040962403103205
100
AcDbArc
 50
231.224807159
 51
289.682434911299
  0
LWPOLYLINE
  5
1CD
330
2
100
AcDbEntity
  8
0
100
AcDbPolyline
 90
       10
 70
   128
 43
0.0
 10
24.65615023491921
 20
13.36706539605171
 10
24.63288518673426
 20
13.43924749366721
 10
24.58401078382371
 20
13.53813731924572
 10
24.52635954233659
 20
13.60792690380492
 10
24.46870830082537
 20
13.63799219863512
 10
24.41983389793893
 20
13.62375532206118
 10
24.38717714420261
 20
13.5673839513833
 10
24.37570961728154
 20
13.47746043603632
 10
24.38717714420261
 20
13.36767419260451
 10
24.40685165218423
 20
13.29161992353812
  0
LINE
  5
1CE
330
2
100
AcDbEntity
  8
0
100
AcDbLine
 10
24.10453959501965
 20
16.00463940929407
 30
0.0
 11
24.1045395950196
 21
15.3990963249168
 31
0.0
  0
LINE
  5
1CF
330
2
100
AcDbEntity
  8
0
100
AcDbLine
 10
24.10453959501959
 20
15.25166215700017
 30
0.0
 11
24.1045395950195
 21
14.28635399428134
 31
0.0
  0
LINE
  5
1D0
330
2
100
AcDbEntity
  8
0
100
AcDbLine
 10
2.738132772987056
 20
8.031425659938179
 30
0.0
 11
2.790318776859805
 21
8.046490461621997
 31
0.0
  0
ARC
  5
1D1
330
2
100
AcDbEntity
  8
0
100
AcDbCircle
 10
2.822241131630676
 20
8.108737599674839
 30
0.0
 40
0.1142425140711435
100
AcDbArc
 50
179.5143988047016
 51
222.5890500659987
  0
LINE
  5
1D2
330
2
100
AcDbEntity
  8
0
100
AcDbLine
 10
24.08248286585655
 20
14.1930087958313
 30
0.0
 11
23.8843349335056
 21
14.13580841479015
 31
0.0
  0
LINE
  5
1D3
330
2
100
AcDbEntity
  8
0
100
AcDbLine
 10
23.80447751965854
 20
14.11275556509946
 30
0.0
 11
2.790318776859805
 21
8.046490461621997
 31
0.0
  0
LINE
  5
1D4
330
2
100
AcDbEntity
  8
0
100
AcDbLine
 10
23.84360646508355
 20
15.56788229677892
 30
0.0
 11
23.84360646508355
 21
15.82881620435796
 31
0.0
  0
LINE
  5
1D5
330
2
100
AcDbEntity
  8
0
100
AcDbLine
 10
2.708002720634283
 20
9.884052515594305
 30
0.0
 11
2.708002720634283
 21
8.109705832199836
 31
0.0
  0
ARC
  5
1D6
330
2
100
AcDbEntity
  8
0
100
AcDbCircle
 10
2.856306285777803
 20
9.876718621632337
 30
0.0
 40
0.1484847919391217
100
AcDbArc
 50
107.2094559851005
 51
177.1689207830007
  0
LINE
  5
1D7
330
2
100
AcDbEntity
  8
0
100
AcDbLine
 10
2.812374728379836
 20
10.01855568201768
 30
0.0
 11
5.443766178030728
 21
10.77817296292562
 31
0.0
  0
LINE
  5
1D8
330
2
100
AcDbEntity
  8
0
100
AcDbLine
 10
23.47829977209187
 20
15.72336124559177
 30
0.0
 11
23.47829977209187
 21
15.46242733801278
 31
0.0
  0
LINE
  5
1D9
330
2
100
AcDbEntity
  8
0
100
AcDbLine
 10
23.47829977209187
 20
15.46242733801278
 30
0.0
 11
23.84360646508355
 21
15.56788229677892
 31
0.0
  0
LINE
  5
1DA
330
2
100
AcDbEntity
  8
0
100
AcDbLine
 10
23.84360646508355
 20
14.83726891079555
 30
0.0
 11
23.84360646508355
 21
15.04601564806143
 31
0.0
  0
LINE
  5
1DB
330
2
100
AcDbEntity
  8
0
100
AcDbLine
 10
23.84360646508355
 20
15.04601564806143
 30
0.0
 11
23.47829977209187
 21
14.94056068929518
 31
0.0
  0
LINE
  5
1DC
330
2
100
AcDbEntity
  8
0
100
AcDbLine
 10
23.47829977209187
 20
14.94056068929518
 30
0.0
 11
23.47829977209187
 21
14.73181395202942
 31
0.0
  0
LINE
  5
1DD
330
2
100
AcDbEntity
  8
0
100
AcDbLine
 10
23.47829977209187
 20
14.73181395202942
 30
0.0
 11
23.84360646508355
 21
14.83726891079555
 31
0.0
  0
LINE
  5
1DE
330
2
100
AcDbEntity
  8
0
100
AcDbLine
 10
2.790318776859805
 20
8.046490461621997
 30
0.0
 11
6.104617801609322
 21
5.176223310455099
 31
0.0
  0
ARC
  5
1DF
330
2
100
AcDbEntity
  8
0
100
AcDbCircle
 10
28.40855037996789
 20
10.6675515324535
 30
0.0
 40
0.0400912896290746
100
AcDbArc
 50
2.951995516898983
 51
53.4210509663034
  0
LINE
  5
1E0
330
2
100
AcDbEntity
  8
0
100
AcDbLine
 10
1.798772260964482
 20
6.768708732959396
 30
0.0
 11
2.738132772987056
 21
7.039878755197321
 31
0.0
  0
LINE
  5
1E1
330
2
100
AcDbEntity
  8
0
100
AcDbLine
 10
2.738132772987056
 20
7.039878755197321
 30
0.0
 11
2.738132772987056
 21
8.031425659938179
 31
0.0
  0
LINE
  5
1E2
330
2
100
AcDbEntity
  8
0
100
AcDbLine
 10
2.790318776859805
 20
7.054943556881141
 30
0.0
 11
2.790318776859805
 21
8.046490461621997
 31
0.0
  0
ARC
  5
1E3
330
2
100
AcDbEntity
  8
0
100
AcDbCircle
 10
2.716166994288015
 20
7.058610503874148
 30
0.0
 40
0.0742423959696261
100
AcDbArc
 50
287.2094559851005
 51
357.1689207828996
  0
LINE
  5
1E4
330
2
100
AcDbEntity
  8
0
100
AcDbLine
 10
1.798772260964482
 20
6.716521951419565
 30
0.0
 11
2.738132772987056
 21
6.987691973681477
 31
0.0
  0
LINE
  5
1E5
330
2
100
AcDbEntity
  8
0
100
AcDbLine
 10
2.790318776859805
 20
7.054943556881141
 30
0.0
 11
6.104617801609322
 21
4.184676405714242
 31
0.0
  0
ARC
  5
1E6
330
2
100
AcDbEntity
  8
0
100
AcDbCircle
 10
6.030466019037532
 20
4.188343352707248
 30
0.0
 40
0.0742423959695878
100
AcDbArc
 50
287.2094559851005
 51
357.1689207828996
  0
ARC
  5
1E7
330
2
100
AcDbEntity
  8
0
100
AcDbCircle
 10
5.05415629064896
 20
4.031946265613497
 30
0.0
 40
0.1948134927234822
100
AcDbArc
 50
237.1352689343989
 51
287.6028573528977
  0
LINE
  5
1E8
330
2
100
AcDbEntity
  8
0
100
AcDbLine
 10
4.94843928549119
 20
3.868311881189298
 30
0.0
 11
1.754660245672198
 21
6.634205663723378
 31
0.0
  0
LWPOLYLINE
  5
1E9
330
2
100
AcDbEntity
  8
0
100
AcDbPolyline
 90
        9
 70
   128
 43
0.0
 10
1.798772260964482
 20
6.716521951419565
 10
1.779568379469991
 20
6.709641242439771
 10
1.763416487025152
 20
6.701018968886558
 10
1.750940678408936
 20
6.690987450125759
 10
1.742617564768123
 20
6.679931302848046
 10
1.73877180030206
 20
6.668276947877473
 10
1.73954409554119
 20
6.656470026731255
 10
1.744907348052208
 20
6.644965023837754
 10
1.754660245672198
 20
6.634205663723378
  0
LINE
  5
1EA
330
2
100
AcDbEntity
  8
0
100
AcDbLine
 10
6.052431797736517
 20
4.117424822514577
 30
0.0
 11
5.113071285714056
 21
3.846254800252608
 31
0.0
  0
LINE
  5
1EB
330
2
100
AcDbEntity
  8
0
100
AcDbLine
 10
4.046122000252522
 20
5.312600030482541
 30
0.0
 11
3.837374874189321
 21
5.252339925777049
 31
0.0
  0
LWPOLYLINE
  5
1EC
330
2
100
AcDbEntity
  8
0
100
AcDbPolyline
 90
        9
 70
   128
 43
0.0
 10
3.805082058424431
 20
5.521346743451601
 10
3.894138600578513
 20
5.536461885673986
 10
3.987987340843801
 20
5.533386614673702
 10
4.072336266834894
 20
5.512587850828026
 10
4.1343491554137
 20
5.477233491672563
 10
4.164578257437312
 20
5.432703943662318
 10
4.158428310154532
 20
5.385780405406761
 10
4.116830465640305
 20
5.343605073305582
 10
4.046122000252522
 20
5.312600030482541
  0
LINE
  5
1ED
330
2
100
AcDbEntity
  8
0
100
AcDbLine
 10
3.596334932361173
 20
5.461086638721951
 30
0.0
 11
3.805082058424431
 21
5.521346743451601
 31
0.0
  0
LWPOLYLINE
  5
1EE
330
2
100
AcDbEntity
  8
0
100
AcDbPolyline
 90
        9
 70
   128
 43
0.0
 10
3.837374874189321
 20
5.252339925777049
 10
3.748318332059227
 20
5.237224783554608
 10
3.654469591794111
 20
5.240300054554893
 10
3.570120665802959
 20
5.261098818400625
 10
3.508107777199994
 20
5.296453177531929
 10
3.477878675200486
 20
5.340982725542119
 10
3.484028622483322
 20
5.387906263821832
 10
3.525626466997549
 20
5.430081595898911
 10
3.596334932361173
 20
5.461086638721951
  0
LINE
  5
1EF
330
2
100
AcDbEntity
  8
0
100
AcDbLine
 10
6.104617801609322
 20
4.184676405714242
 30
0.0
 11
6.104617801609322
 21
5.176223310455099
 31
0.0
  0
LWPOLYLINE
  5
1F0
330
2
100
AcDbEntity
  8
0
100
AcDbPolyline
 90
        7
 70
   128
 43
0.0
 10
1.73851219769375
 20
6.716522093006402
 10
1.73877180030206
 20
6.720463729393316
 10
1.742617564768123
 20
6.732118084363888
 10
1.750940678408936
 20
6.743174231641602
 10
1.763416487025152
 20
6.753205750426503
 10
1.779568379469991
 20
6.761828023955501
 10
1.798772260964482
 20
6.768708732959396
  0
LWPOLYLINE
  5
1F1
330
2
100
AcDbEntity
  8
0
100
AcDbPolyline
 90
       10
 70
   128
 43
0.0
 10
20.43942015278384
 20
14.17518640458928
 10
20.50128795356982
 20
14.1173863225867
 10
20.5299658377221
 20
14.02680094567387
 10
20.52099495884397
 20
13.92166361652863
 10
20.47558532793704
 20
13.81617266285991
 10
20.39986943038735
 20
13.72457525885301
 10
20.30407325934618
 20
13.65924258400565
 10
20.20113522357616
 20
13.62899813607851
 10
20.10495645264956
 20
13.6379263685813
 10
20.03811205249349
 20
13.67894113708462
  0
LWPOLYLINE
  5
1F2
330
2
100
AcDbEntity
  8
0
100
AcDbPolyline
 90
       16
 70
   128
 43
0.0
 10
9.835040600934805
 20
11.2021386559947
 10
9.836270830679268
 20
11.20273758352908
 10
9.936739075268119
 20
11.23143426539735
 10
10.02944334143274
 20
11.21946482992365
 10
10.10026787039123
 20
11.16865126829361
 10
10.13843298778676
 20
11.08673025226534
 10
10.13812659679706
 20
10.98617317142185
 10
10.09939691126556
 20
10.88228899689505
 10
10.02813690276838
 20
10.79089230891105
 10
9.935199343961983
 20
10.72589881805385
 10
9.834731099397174
 20
10.69720252500713
 10
9.742026833232614
 20
10.70917157165934
 10
9.671200748987985
 20
10.75998468432834
 10
9.633035631592576
 20
10.84190570035662
 10
9.633342022558167
 20
10.94246278120016
 10
9.657436484395075
 20
11.01750859266059
  0
ARC
  5
1F3
330
2
100
AcDbEntity
  8
0
100
AcDbCircle
 10
5.552877802057366
 20
9.096750437130424
 30
0.0
 40
0.109274544699632
100
AcDbArc
 50
183.1197180373412
 51
283.4368231249491
  0
ARC
  5
1F4
330
2
100
AcDbEntity
  8
0
100
AcDbCircle
 10
24.10997586166229
 20
18.21645422964815
 30
0.0
 40
0.088440623731879
100
AcDbArc
 50
67.38216101075017
 51
93.52407748584592
  0
LINE
  5
1F5
330
2
100
AcDbEntity
  8
0
  6
Continuous
 62
     7
370
    15
100
AcDbLine
 10
24.28142287988745
 20
12.93008027173661
 30
0.0
 11
24.45715085759792
 21
12.7778953788748
 31
0.0
  0
LINE
  5
1F6
330
2
100
AcDbEntity
  8
0
  6
Continuous
 62
     7
370
    15
100
AcDbLine
 10
24.33500903641186
 20
12.90557418337931
 30
0.0
 11
24.38501064373151
 21
12.92000840409275
 31
0.0
  0
ARC
  5
1F7
330
2
100
AcDbEntity
  8
0
  6
Continuous
 62
     7
370
    15
100
AcDbCircle
 10
24.36958850032681
 20
13.04203943650543
 30
0.0
 40
0.1407782107858966
100
AcDbArc
 50
174.8069247138071
 51
197.7982758284785
  0
ARC
  5
1F8
330
2
100
AcDbEntity
  8
0
  6
Continuous
 62
     7
370
    15
100
AcDbCircle
 10
24.36958850032681
 20
13.04203943650543
 30
0.0
 40
0.1407782107858966
100
AcDbArc
 50
231.7295710137046
 51
255.7808851649022
  0
POLYLINE
  5
1F9
330
2
100
AcDbEntity
  8
0
100
AcDb2dPolyline
 66
     1
 10
0.0
 20
0.0
 30
0.0
  0
VERTEX
  5
1FA
330
1F9
100
AcDbEntity
  8
0
100
AcDbVertex
100
AcDb2dVertex
 10
24.10453959501956
 20
15.42148896939051
 30
0.0
 42
0.0010063905421377
  0
VERTEX
  5
1FB
330
1F9
100
AcDbEntity
  8
0
100
AcDbVertex
100
AcDb2dVertex
 10
24.13337938283835
 20
15.44246269252454
 30
0.0
 42
0.0291794099195393
  0
SEQEND
  5
1FC
330
1F9
100
AcDbEntity
  8
0
  0
LWPOLYLINE
  5
1FD
330
2
100
AcDbEntity
  8
0
  6
Continuous
 62
     7
370
    15
100
AcDbPolyline
 90
        3
 70
   128
 43
0.0
 10
24.45715085759792
 20
12.7778953788748
 10
24.48009518680129
 20
12.76209552717671
 10
24.51578895770558
 20
12.74901417903561
  0
LINE
  5
1FE
330
2
100
AcDbEntity
  8
0
  6
Continuous
 62
     7
370
    15
100
AcDbLine
 10
24.51578895770558
 20
12.74901417903561
 30
0.0
 11
24.56579056502528
 21
12.76344839977321
 31
0.0
  0
POLYLINE
  5
1FF
330
2
100
AcDbEntity
  8
0
100
AcDb2dPolyline
 66
     1
 10
0.0
 20
0.0
 30
0.0
  0
VERTEX
  5
200
330
1FF
100
AcDbEntity
  8
0
100
AcDbVertex
100
AcDb2dVertex
 10
24.33475738998065
 20
15.59397427588558
 30
0.0
 42
0.0044112531648725
  0
VERTEX
  5
201
330
1FF
100
AcDbEntity
  8
0
100
AcDbVertex
100
AcDb2dVertex
 10
24.45745871155799
 20
15.69079925826349
 30
0.0
 42
0.0291794099195393
  0
VERTEX
  5
202
330
1FF
100
AcDbEntity
  8
0
100
AcDbVertex
100
AcDb2dVertex
 10
24.59895185367185
 20
15.81876309292409
 30
0.0
 42
0.1060429522538081
  0
VERTEX
  5
203
330
1FF
100
AcDbEntity
  8
0
100
AcDbVertex
100
AcDb2dVertex
 10
25.4858659289531
 20
17.21495664437378
 30
0.0
 42
-0.0805593695922003
  0
VERTEX
  5
204
330
1FF
100
AcDbEntity
  8
0
100
AcDbVertex
100
AcDb2dVertex
 10
26.5539862489714
 20
19.10051952512771
 30
0.0
 42
-0.0517676505868929
  0
VERTEX
  5
205
330
1FF
100
AcDbEntity
  8
0
100
AcDbVertex
100
AcDb2dVertex
 10
27.76198328380372
 20
20.32256554933241
 30
0.0
 42
-0.0977815306855604
  0
VERTEX
  5
206
330
1FF
100
AcDbEntity
  8
0
100
AcDbVertex
100
AcDb2dVertex
 10
28.56896083706448
 20
20.75589744423325
 30
0.0
 42
-0.1184190061307396
  0
VERTEX
  5
207
330
1FF
100
AcDbEntity
  8
0
100
AcDbVertex
100
AcDb2dVertex
 10
29.33187132921677
 20
20.80334258333755
 30
0.0
 42
-0.1921535501220301
  0
VERTEX
  5
208
330
1FF
100
AcDbEntity
  8
0
100
AcDbVertex
100
AcDb2dVertex
 10
29.74170324709291
 20
20.55020235312253
 30
0.0
 42
-0.0831129062954341
  0
VERTEX
  5
209
330
1FF
100
AcDbEntity
  8
0
100
AcDbVertex
100
AcDb2dVertex
 10
29.9662470949462
 20
20.11029758499973
 30
0.0
 42
-0.0861746503897062
  0
VERTEX
  5
20A
330
1FF
100
AcDbEntity
  8
0
100
AcDbVertex
100
AcDb2dVertex
 10
30.03001137958364
 20
19.63798625536759
 30
0.0
 42
-0.0297993162658494
  0
VERTEX
  5
20B
330
1FF
100
AcDbEntity
  8
0
100
AcDbVertex
100
AcDb2dVertex
 10
30.01611412565097
 20
19.49562624246835
 30
0.0
 42
-0.0271912732367879
  0
VERTEX
  5
20C
330
1FF
100
AcDbEntity
  8
0
100
AcDbVertex
100
AcDb2dVertex
 10
29.98324815470164
 20
19.34237810220554
 30
0.0
  0
SEQEND
  5
20D
330
1FF
100
AcDbEntity
  8
0
  0
POLYLINE
  5
20E
330
2
100
AcDbEntity
  8
0
100
AcDb2dPolyline
 66
     1
 10
0.0
 20
0.0
 30
0.0
 70
     2
  0
VERTEX
  5
20F
330
20E
100
AcDbEntity
  8
0
100
AcDbVertex
100
AcDb2dVertex
 10
24.34065992500066
 20
12.9584172703542
 30
0.0
 42
-0.1151182201586705
  0
VERTEX
  5
210
330
20E
100
AcDbEntity
  8
0
100
AcDbVertex
100
AcDb2dVertex
 10
24.18062813994908
 20
12.90786172516138
 30
0.0
 42
-0.0930958482265581
 70
     1
  0
VERTEX
  5
211
330
20E
100
AcDbEntity
  8
0
100
AcDbVertex
100
AcDb2dVertex
 10
24.10295286236129
 20
12.91635385129234
 30
0.0
 42
-0.1200410900046724
  0
VERTEX
  5
212
330
20E
100
AcDbEntity
  8
0
100
AcDbVertex
100
AcDb2dVertex
 10
23.92539541460786
 20
13.02122226015382
 30
0.0
 42
-0.1606151241716885
 70
     1
  0
VERTEX
  5
213
330
20E
100
AcDbEntity
  8
0
100
AcDbVertex
100
AcDb2dVertex
 10
23.85344671352598
 20
13.15947140118527
 30
0.0
 42
-0.0180577322826295
  0
VERTEX
  5
214
330
20E
100
AcDbEntity
  8
0
100
AcDbVertex
100
AcDb2dVertex
 10
23.83878519712943
 20
13.27593120639784
 30
0.0
 42
-0.009203459628712
 70
     1
  0
VERTEX
  5
215
330
20E
100
AcDbEntity
  8
0
100
AcDbVertex
100
AcDb2dVertex
 10
23.82251633605563
 20
13.50560483661229
 30
0.0
 42
-0.0136552259772848
  0
VERTEX
  5
216
330
20E
100
AcDbEntity
  8
0
100
AcDbVertex
100
AcDb2dVertex
 10
23.80417527564576
 20
14.23905267415131
 30
0.0
 42
-0.0255451955335001
 70
     1
  0
VERTEX
  5
217
330
20E
100
AcDbEntity
  8
0
100
AcDbVertex
100
AcDb2dVertex
 10
23.82511268975796
 20
14.63086471959639
 30
0.0
 42
-0.0502361945230798
  0
VERTEX
  5
218
330
20E
100
AcDbEntity
  8
0
100
AcDbVertex
100
AcDb2dVertex
 10
23.9040470294541
 20
15.010779758583
 30
0.0
 42
-0.0644183283987058
 70
     1
  0
VERTEX
  5
219
330
20E
100
AcDbEntity
  8
0
100
AcDbVertex
100
AcDb2dVertex
 10
24.03147099365094
 20
15.28578517086208
 30
0.0
 42
-0.0099057539411911
  0
VERTEX
  5
21A
330
20E
100
AcDbEntity
  8
0
100
AcDbVertex
100
AcDb2dVertex
 10
24.17568983193786
 20
15.50477576641287
 30
0.0
 42
-0.0052134826287925
 70
     1
  0
VERTEX
  5
21B
330
20E
100
AcDbEntity
  8
0
100
AcDbVertex
100
AcDb2dVertex
 10
24.46214346641807
 20
15.91236006361222
 30
0.0
 42
-0.0122586785159455
  0
VERTEX
  5
21C
330
20E
100
AcDbEntity
  8
0
100
AcDbVertex
100
AcDb2dVertex
 10
24.83785979048889
 20
16.40911088108061
 30
0.0
 42
0.0162354669869509
 70
     1
  0
VERTEX
  5
21D
330
20E
100
AcDbEntity
  8
0
100
AcDbVertex
100
AcDb2dVertex
 10
25.11858675490008
 20
16.7864720440877
 30
0.0
 42
0.0576879473984295
  0
VERTEX
  5
21E
330
20E
100
AcDbEntity
  8
0
100
AcDbVertex
100
AcDb2dVertex
 10
25.22969608971767
 20
16.99383932767074
 30
0.0
 42
-0.0203422342568804
 70
     1
  0
VERTEX
  5
21F
330
20E
100
AcDbEntity
  8
0
100
AcDbVertex
100
AcDb2dVertex
 10
25.49931568663617
 20
17.60197487584804
 30
0.0
 42
-0.0536520744420392
  0
VERTEX
  5
220
330
20E
100
AcDbEntity
  8
0
100
AcDbVertex
100
AcDb2dVertex
 10
26.66350657548543
 20
19.43763357939207
 30
0.0
 42
-0.074633849108014
 70
     1
  0
VERTEX
  5
221
330
20E
100
AcDbEntity
  8
0
100
AcDbVertex
100
AcDb2dVertex
 10
27.81055060059697
 20
20.50495128964531
 30
0.0
 42
-0.0567687690580313
  0
VERTEX
  5
222
330
20E
100
AcDbEntity
  8
0
100
AcDbVertex
100
AcDb2dVertex
 10
28.42335043876166
 20
20.8294555489224
 30
0.0
 42
-0.0685491451265846
 70
     1
  0
VERTEX
  5
223
330
20E
100
AcDbEntity
  8
0
100
AcDbVertex
100
AcDb2dVertex
 10
28.98241075295698
 20
20.96431447847053
 30
0.0
 42
-0.0704824027024928
  0
VERTEX
  5
224
330
20E
100
AcDbEntity
  8
0
100
AcDbVertex
100
AcDb2dVertex
 10
29.51359116685597
 20
20.94256965463813
 30
0.0
 42
-0.1219889887757701
 70
     1
  0
VERTEX
  5
225
330
20E
100
AcDbEntity
  8
0
100
AcDbVertex
100
AcDb2dVertex
 10
29.79626051733132
 20
20.81483423069093
 30
0.0
 42
-0.1038622959485782
  0
VERTEX
  5
226
330
20E
100
AcDbEntity
  8
0
100
AcDbVertex
100
AcDb2dVertex
 10
29.95766181624649
 20
20.62188852767477
 30
0.0
 42
-0.0517745217082802
 70
     1
  0
VERTEX
  5
227
330
20E
100
AcDbEntity
  8
0
100
AcDbVertex
100
AcDb2dVertex
 10
30.14620229738975
 20
20.15817350622686
 30
0.0
 42
-0.08086374955725
  0
VERTEX
  5
228
330
20E
100
AcDbEntity
  8
0
100
AcDbVertex
100
AcDb2dVertex
 10
30.19841066402792
 20
19.73001796584984
 30
0.0
 42
-0.0727473130169917
 70
     1
  0
VERTEX
  5
229
330
20E
100
AcDbEntity
  8
0
100
AcDbVertex
100
AcDb2dVertex
 10
30.11019666211889
 20
19.25935715329828
 30
0.0
  0
SEQEND
  5
22A
330
20E
100
AcDbEntity
  8
0
  0
POLYLINE
  5
22B
330
2
100
AcDbEntity
  8
0
100
AcDb2dPolyline
 66
     1
 10
0.0
 20
0.0
 30
0.0
  0
VERTEX
  5
22C
330
22B
100
AcDbEntity
  8
0
100
AcDbVertex
100
AcDb2dVertex
 10
24.27589845743659
 20
13.01450234645145
 30
0.0
 42
-0.0914136302802417
  0
VERTEX
  5
22D
330
22B
100
AcDbEntity
  8
0
100
AcDbVertex
100
AcDb2dVertex
 10
24.17449332750726
 20
12.98762615380161
 30
0.0
 42
-0.093095848226562
  0
VERTEX
  5
22E
330
22B
100
AcDbEntity
  8
0
100
AcDbVertex
100
AcDb2dVertex
 10
24.12617780547144
 20
12.99290842017973
 30
0.0
 42
-0.1200410900046716
  0
VERTEX
  5
22F
330
22B
100
AcDbEntity
  8
0
100
AcDbVertex
100
AcDb2dVertex
 10
23.98122565234732
 20
13.07851959476855
 30
0.0
 42
-0.1606151241716851
  0
VERTEX
  5
230
330
22B
100
AcDbEntity
  8
0
100
AcDbVertex
100
AcDb2dVertex
 10
23.93240766856403
 20
13.17232315513092
 30
0.0
 42
-0.0180577322826296
  0
VERTEX
  5
231
330
22B
100
AcDbEntity
  8
0
100
AcDbVertex
100
AcDb2dVertex
 10
23.91846769118156
 20
13.28305160959081
 30
0.0
 42
-0.009203459628712
  0
VERTEX
  5
232
330
22B
100
AcDbEntity
  8
0
100
AcDbVertex
100
AcDb2dVertex
 10
23.90240690682964
 20
13.50978774246853
 30
0.0
 42
-0.0136552259772848
  0
VERTEX
  5
233
330
22B
100
AcDbEntity
  8
0
100
AcDbVertex
100
AcDb2dVertex
 10
23.88417506269446
 20
14.23886808768694
 30
0.0
 42
-0.0255451955335001
  0
VERTEX
  5
234
330
22B
100
AcDbEntity
  8
0
100
AcDbVertex
100
AcDb2dVertex
 10
23.90467656165217
 20
14.62252264016728
 30
0.0
 42
-0.0502361945230799
  0
VERTEX
  5
235
330
22B
100
AcDbEntity
  8
0
100
AcDbVertex
100
AcDb2dVertex
 10
23.98034897236435
 20
14.98673784709243
 30
0.0
 42
-0.0644183283987055
  0
VERTEX
  5
236
330
22B
100
AcDbEntity
  8
0
100
AcDbVertex
100
AcDb2dVertex
 10
24.09914240788672
 20
15.24311691925354
 30
0.0
 42
-0.0099057539411911
  0
VERTEX
  5
237
330
22B
100
AcDbEntity
  8
0
100
AcDbVertex
100
AcDb2dVertex
 10
24.2416179878901
 20
15.4594604461256
 30
0.0
 42
-0.0052134826287926
  0
VERTEX
  5
238
330
22B
100
AcDbEntity
  8
0
100
AcDbVertex
100
AcDb2dVertex
 10
24.52711236203239
 20
15.86567984721753
 30
0.0
 42
-0.0122586785159455
  0
VERTEX
  5
239
330
22B
100
AcDbEntity
  8
0
100
AcDbVertex
100
AcDb2dVertex
 10
24.90046268445889
 20
16.35930247148363
 30
0.0
 42
0.016235466986951
  0
VERTEX
  5
23A
330
22B
100
AcDbEntity
  8
0
100
AcDbVertex
100
AcDb2dVertex
 10
25.184289800681
 20
16.74083094665227
 30
0.0
 42
0.0576879473984295
  0
VERTEX
  5
23B
330
22B
100
AcDbEntity
  8
0
100
AcDbVertex
100
AcDb2dVertex
 10
25.30408869461953
 20
16.96441586193475
 30
0.0
 42
-0.0203422342568804
  0
VERTEX
  5
23C
330
22B
100
AcDbEntity
  8
0
100
AcDbVertex
100
AcDb2dVertex
 10
25.57107103605881
 20
17.56660299677392
 30
0.0
 42
-0.0536520744420391
  0
VERTEX
  5
23D
330
22B
100
AcDbEntity
  8
0
100
AcDbVertex
100
AcDb2dVertex
 10
26.72609313094652
 20
19.38780464125852
 30
0.0
 42
-0.0746338491080141
  0
VERTEX
  5
23E
330
22B
100
AcDbEntity
  8
0
100
AcDbVertex
100
AcDb2dVertex
 10
27.85574959654257
 20
20.4389433297805
 30
0.0
 42
-0.0567687690580315
  0
VERTEX
  5
23F
330
22B
100
AcDbEntity
  8
0
100
AcDbVertex
100
AcDb2dVertex
 10
28.45254698458763
 20
20.7549735933101
 30
0.0
 42
-0.0685491451265845
  0
VERTEX
  5
240
330
22B
100
AcDbEntity
  8
0
100
AcDbVertex
100
AcDb2dVertex
 10
28.99038294854639
 20
20.88471269395859
 30
0.0
 42
-0.0704824027024928
  0
VERTEX
  5
241
330
22B
100
AcDbEntity
  8
0
100
AcDbVertex
100
AcDb2dVertex
 10
29.49913926613808
 20
20.86388584076487
 30
0.0
 42
-0.121988988775771
  0
VERTEX
  5
242
330
22B
100
AcDbEntity
  8
0
100
AcDbVertex
100
AcDb2dVertex
 10
29.74675722748802
 20
20.75198978547348
 30
0.0
 42
-0.1038622959485785
  0
VERTEX
  5
243
330
22B
100
AcDbEntity
  8
0
100
AcDbVertex
100
AcDb2dVertex
 10
29.88706120654278
 20
20.58426468005834
 30
0.0
 42
-0.0517745217082799
  0
VERTEX
  5
244
330
22B
100
AcDbEntity
  8
0
100
AcDbVertex
100
AcDb2dVertex
 10
30.06937817441305
 20
20.13585637986924
 30
0.0
 42
-0.0808637495572497
  0
VERTEX
  5
245
330
22B
100
AcDbEntity
  8
0
100
AcDbVertex
100
AcDb2dVertex
 10
30.11847477564187
 20
19.7332201132439
 30
0.0
 42
-0.0727473130169919
  0
VERTEX
  5
246
330
22B
100
AcDbEntity
  8
0
100
AcDbVertex
100
AcDb2dVertex
 10
30.03452663764681
 20
19.28531957607418
 30
0.0
 42
-0.0727473130169919
  0
SEQEND
  5
247
330
22B
100
AcDbEntity
  8
0
  0
POLYLINE
  5
248
330
2
100
AcDbEntity
  8
0
100
AcDb2dPolyline
 66
     1
 10
0.0
 20
0.0
 30
0.0
  0
VERTEX
  5
249
330
248
100
AcDbEntity
  8
0
100
AcDbVertex
100
AcDb2dVertex
 10
24.10453959501958
 20
15.17596658981793
 30
0.0
 42
0.0165060973529034
  0
VERTEX
  5
24A
330
248
100
AcDbEntity
  8
0
100
AcDbVertex
100
AcDb2dVertex
 10
24.58273282482707
 20
15.53489417000577
 30
0.0
 42
0.029179409919539
  0
VERTEX
  5
24B
330
248
100
AcDbEntity
  8
0
100
AcDbVertex
100
AcDb2dVertex
 10
24.74152457234078
 20
15.67850255003569
 30
0.0
 42
0.1060429522538083
  0
VERTEX
  5
24C
330
248
100
AcDbEntity
  8
0
100
AcDbVertex
100
AcDb2dVertex
 10
25.6734208801518
 20
17.14550781226802
 30
0.0
 42
-0.0805593695922002
  0
VERTEX
  5
24D
330
248
100
AcDbEntity
  8
0
100
AcDbVertex
100
AcDb2dVertex
 10
26.70998081934774
 20
18.97535685492167
 30
0.0
 42
-0.0517676505868929
  0
VERTEX
  5
24E
330
248
100
AcDbEntity
  8
0
100
AcDbVertex
100
AcDb2dVertex
 10
27.8889412531692
 20
20.16802858283381
 30
0.0
 42
-0.0977815306855602
  0
VERTEX
  5
24F
330
248
100
AcDbEntity
  8
0
100
AcDbVertex
100
AcDb2dVertex
 10
28.62765391587793
 20
20.56470350473881
 30
0.0
 42
-0.1184190061307401
  0
VERTEX
  5
250
330
248
100
AcDbEntity
  8
0
100
AcDbVertex
100
AcDb2dVertex
 10
29.29731944989008
 20
20.60634977221238
 30
0.0
 42
-0.1921535501220296
  0
VERTEX
  5
251
330
248
100
AcDbEntity
  8
0
100
AcDbVertex
100
AcDb2dVertex
 10
29.58102258334879
 20
20.43111530807249
 30
0.0
 42
-0.0831129062954346
  0
VERTEX
  5
252
330
248
100
AcDbEntity
  8
0
100
AcDbVertex
100
AcDb2dVertex
 10
29.77554496816
 20
20.05002571063679
 30
0.0
 42
-0.0861746503897062
  0
VERTEX
  5
253
330
248
100
AcDbEntity
  8
0
100
AcDbVertex
100
AcDb2dVertex
 10
29.8301537266513
 20
19.64553069466919
 30
0.0
 42
-0.0297993162658487
  0
VERTEX
  5
254
330
248
100
AcDbEntity
  8
0
100
AcDbVertex
100
AcDb2dVertex
 10
29.81857062650163
 20
19.5268762975696
 30
0.0
 42
-0.0140152693381043
  0
VERTEX
  5
255
330
248
100
AcDbEntity
  8
0
100
AcDbVertex
100
AcDb2dVertex
 10
29.80576979536764
 20
19.45844423092328
 30
0.0
 42
-0.0271912732367882
  0
SEQEND
  5
256
330
248
100
AcDbEntity
  8
0
  0
ELLIPSE
  5
257
330
2
100
AcDbEntity
  8
0
100
AcDbEllipse
 10
24.47805457485273
 20
13.09743379894442
 30
0.0
 11
0.0209037172548108
 21
0.3195384200696266
 31
0.0
210
0.0
220
0.0
230
1.0
 40
0.6128168285279183
 41
1.9018349736237
 42
6.870853096261243
  0
ELLIPSE
  5
258
330
2
100
AcDbEntity
  8
0
100
AcDbEllipse
 10
24.54417391741876
 20
12.71684602025897
 30
0.0
 11
-0.0514574791528446
 21
0.0796506000355777
 31
0.0
210
0.0
220
0.0
230
0.9999999999999998
 40
0.6994241437507363
 41
0.0
 42
6.283185307179585
  0
ARC
  5
259
330
2
100
AcDbEntity
  8
0
100
AcDbCircle
 10
23.0592722077098
 20
18.30480757725425
 30
0.0
 40
5.861561785176789
100
AcDbArc
 50
285.3438350290872
 51
351.8912514965148
  0
ELLIPSE
  5
25A
330
2
100
AcDbEntity
  8
0
100
AcDbEllipse
 10
29.53762740846578
 20
20.72076913752244
 30
0.0
 11
0.1787526731557278
 21
0.2466434124300818
 31
0.0
210
0.0
220
0.0
230
0.9999999999999998
 40
0.4949311225052129
 41
5.557379370176533
 42
10.31889283821844
  0
ELLIPSE
  5
25B
330
2
100
AcDbEntity
  8
0
100
AcDbEllipse
 10
29.53762740846578
 20
20.72076913752244
 30
0.0
 11
0.1787526731557278
 21
0.2466434124300818
 31
0.0
210
0.0
220
0.0
230
0.9999999999999998
 40
0.4949311225052129
 41
11.01767635897517
 42
11.50461603394536
  0
ELLIPSE
  5
25C
330
2
100
AcDbEntity
  8
0
100
AcDbEllipse
 10
27.47534152310203
 20
20.02492070738455
 30
0.0
 11
-0.1480299295608063
 21
0.1690362076325797
 31
0.0
210
0.0
220
0.0
230
1.0
 40
0.6295284862771259
 41
5.608737805326533
 42
10.19703491182317
  0
ELLIPSE
  5
25D
330
2
100
AcDbEntity
  8
0
100
AcDbEllipse
 10
27.47534152310203
 20
20.02492070738455
 30
0.0
 11
-0.1480299295608063
 21
0.1690362076325797
 31
0.0
210
0.0
220
0.0
230
1.0
 40
0.6295284862771259
 41
11.17092692178789
 42
11.42811975830026
  0
ELLIPSE
  5
25E
330
2
100
AcDbEntity
  8
0
100
AcDbEllipse
 10
26.00738918706027
 20
18.20508445626194
 30
0.0
 11
-0.2284750326648606
 21
0.1084353123905401
 31
0.0
210
0.0
220
0.0
230
1.0
 40
0.543729199522505
 41
5.345997738397891
 42
10.32604693078228
  0
ELLIPSE
  5
25F
330
2
100
AcDbEntity
  8
0
100
AcDbEllipse
 10
26.00738918706027
 20
18.20508445626194
 30
0.0
 11
-0.2284750326648606
 21
0.1084353123905401
 31
0.0
210
0.0
220
0.0
230
1.0
 40
0.543729199522505
 41
11.15955990656775
 42
11.26398927792468
  0
ELLIPSE
  5
260
330
2
100
AcDbEntity
  8
0
100
AcDbEllipse
 10
24.8815465204531
 20
16.1001960681996
 30
0.0
 11
-0.1735116638047884
 21
0.2177924330815131
 31
0.0
210
0.0
220
0.0
230
1.0
 40
0.4687092867517304
 41
5.796091500005254
 42
10.40444679973371
  0
ELLIPSE
  5
261
330
2
100
AcDbEntity
  8
0
100
AcDbEllipse
 10
24.8815465204531
 20
16.1001960681996
 30
0.0
 11
-0.1735116638047884
 21
0.2177924330815131
 31
0.0
210
0.0
220
0.0
230
1.0
 40
0.4687092867517304
 41
11.19813408258396
 42
11.66857418650151
  0
ENDSEC
  0
SECTION
  2
OBJECTS
  0
DICTIONARY
  5
9
330
0
100
AcDbDictionary
281
     1
  3
ACAD_COLOR
350
3E
  3
ACAD_GROUP
350
38
  3
ACAD_LAYOUT
350
19
  3
ACAD_MATERIAL
350
B
  3
ACAD_MLEADERSTYLE
350
41
  3
ACAD_MLINESTYLE
350
39
  3
ACAD_PLOTSETTINGS
350
3A
  3
ACAD_PLOTSTYLENAME
350
8
  3
ACAD_SCALELIST
350
3F
  3
ACAD_TABLESTYLE
350
40
  3
ACAD_VISUALSTYLE
350
2E
  3
ACDB_RECOMPOSE_DATA
350
273
  3
AcDbVariableDictionary
350
262
  3
AcDsDecomposeData
350
279
  0
DICTIONARY
  5
21
330
20
100
AcDbDictionary
280
     1
281
     1
  3
ACAD_LAYERSTATES
360
22
  0
DICTIONARY
  5
6
330
5
100
AcDbDictionary
280
     1
281
     1
  0
DICTIONARY
  5
3
330
2
100
AcDbDictionary
280
     1
281
     1
  0
DICTIONARY
  5
3E
102
{ACAD_REACTORS
330
9
102
}
330
9
100
AcDbDictionary
281
     1
  0
DICTIONARY
  5
38
102
{ACAD_REACTORS
330
9
102
}
330
9
100
AcDbDictionary
281
     1
  0
DICTIONARY
  5
19
102
{ACAD_REACTORS
330
9
102
}
330
9
100
AcDbDictionary
281
     1
  3
Model
350
18
  3
レイアウト1
350
1F
  0
DICTIONARY
  5
B
102
{ACAD_REACTORS
330
9
102
}
330
9
100
AcDbDictionary
281
     1
  3
ByBlock
350
3B
  3
ByLayer
350
14
  3
Global
350
A
  0
DICTIONARY
  5
41
102
{ACAD_REACTORS
330
9
102
}
330
9
100
AcDbDictionary
281
     1
  0
DICTIONARY
  5
39
102
{ACAD_REACTORS
330
9
102
}
330
9
100
AcDbDictionary
281
     1
  3
Standard
350
42
  0
DICTIONARY
  5
3A
102
{ACAD_REACTORS
330
9
102
}
330
9
100
AcDbDictionary
281
     1
  0
ACDBDICTIONARYWDFLT
  5
8
102
{ACAD_REACTORS
330
9
102
}
330
9
100
AcDbDictionary
281
     1
  3
Normal
350
7
100
AcDbDictionaryWithDefault
340
7
  0
DICTIONARY
  5
3F
102
{ACAD_REACTORS
330
9
102
}
330
9
100
AcDbDictionary
281
     1
  3
A0
350
47
  3
A1
350
48
  3
A2
350
49
  3
A3
350
4A
  3
A4
350
4B
  3
A5
350
4C
  3
A6
350
4D
  3
A7
350
4E
  3
A8
350
4F
  3
A9
350
50
  3
B0
350
51
  3
B1
350
52
  3
B2
350
53
  3
B3
350
54
  3
B4
350
55
  3
B5
350
56
  3
B6
350
57
  0
DICTIONARY
  5
40
102
{ACAD_REACTORS
330
9
102
}
330
9
100
AcDbDictionary
281
     1
  3
Standard
350
43
  0
DICTIONARY
  5
2E
102
{ACAD_REACTORS
330
9
102
}
330
9
100
AcDbDictionary
281
     1
  3
2dWireframe
350
2D
  3
Realistic
350
45
  3
Wireframe
350
46
  0
XRECORD
  5
273
102
{ACAD_REACTORS
330
9
102
}
330
9
100
AcDbXrecord
280
     1
 90
        1
330
43
  0
DICTIONARY
  5
262
102
{ACAD_REACTORS
330
9
102
}
330
9
100
AcDbDictionary
281
     1
  3
CANNOSCALE
350
268
  3
CMLEADERSTYLE
350
264
  3
CTABLESTYLE
350
263
  3
CVIEWDETAILSTYLE
350
265
  3
CVIEWSECTIONSTYLE
350
266
  3
LAYEREVAL
350
26A
  3
LAYERNOTIFY
350
26B
  3
LIGHTINGUNITS
350
269
  3
LOFTANG1
350
26E
  3
LOFTANG2
350
26F
  3
LONGITUDE
350
270
  3
MSLTSCALE
350
267
  3
PSOLHEIGHT
350
26D
  3
PSOLWIDTH
350
26C
  3
XCLIPFRAME
350
271
  0
DICTIONARY
  5
279
102
{ACAD_REACTORS
330
9
102
}
330
9
100
AcDbDictionary
281
     1
  3
AcDsRecords
350
27B
  3
AcDsSchemas
350
27A
1001
ACAD
1070
     2
  0
DICTIONARY
  5
22
102
{ACAD_REACTORS
330
21
102
}
330
21
100
AcDbDictionary
281
     1
  0
LAYOUT
  5
18
102
{ACAD_XDICTIONARY
360
1A
102
}
102
{ACAD_REACTORS
330
19
102
}
330
19
100
AcDbPlotSettings
  1

  2
none_device
  4
ISO_A4_(210.00_x_297.00_MM)
  6

 40
7.5
 41
20.0
 42
7.5
 43
20.0
 44
210.0
 45
297.0
 46
11.54999923706054
 47
-13.65000009536743
 48
0.0
 49
0.0
140
0.0
141
0.0
142
1.0
143
8.704084754739808
 70
 11952
 72
     1
 73
     0
 74
     0
  7

 75
     0
147
0.1148885871608098
 76
     0
 77
     2
 78
   300
148
0.0
149
0.0
100
AcDbLayout
  1
Model
 70
     1
 71
     0
 10
0.0
 20
0.0
 11
12.0
 21
9.0
 12
0.0
 22
0.0
 32
0.0
 14
0.0
 24
0.0
 34
0.0
 15
0.0
 25
0.0
 35
0.0
146
0.0
 13
0.0
 23
0.0
 33
0.0
 16
1.0
 26
0.0
 36
0.0
 17
0.0
 27
1.0
 37
0.0
 76
     0
330
2
331
2C
1001
ACAD_PSEXT
1000
None
1000
None
1000
Not applicable
1000
The layout will not be plotted unless a new plotter configuration name is selected.
1070
     0
  0
LAYOUT
  5
1F
102
{ACAD_REACTORS
330
19
102
}
330
19
100
AcDbPlotSettings
  1

  2
C:\Documents and Settings\basas\Application Data\Autodesk\AutoCAD 2005\R16.1\enu\plotters\Default Windows System Printer.pc3
  4

  6

 40
0.0
 41
0.0
 42
0.0
 43
0.0
 44
0.0
 45
0.0
 46
0.0
 47
0.0
 48
0.0
 49
0.0
140
0.0
141
0.0
142
1.0
143
1.0
 70
   688
 72
     0
 73
     0
 74
     5
  7

 75
    16
147
1.0
 76
     0
 77
     2
 78
   300
148
0.0
149
0.0
100
AcDbLayout
  1
レイアウト1
 70
     1
 71
     1
 10
0.0
 20
0.0
 11
12.0
 21
9.0
 12
0.0
 22
0.0
 32
0.0
 14
0.0
 24
0.0
 34
0.0
 15
0.0
 25
0.0
 35
0.0
146
0.0
 13
0.0
 23
0.0
 33
0.0
 16
1.0
 26
0.0
 36
0.0
 17
0.0
 27
1.0
 37
0.0
 76
     0
330
1C
  0
MATERIAL
  5
3B
102
{ACAD_XDICTIONARY
360
3C
102
}
102
{ACAD_REACTORS
330
B
102
}
330
B
100
AcDbMaterial
  1
ByBlock
  0
MATERIAL
  5
14
102
{ACAD_XDICTIONARY
360
15
102
}
102
{ACAD_REACTORS
330
B
102
}
330
B
100
AcDbMaterial
  1
ByLayer
  0
MATERIAL
  5
A
102
{ACAD_XDICTIONARY
360
C
102
}
102
{ACAD_REACTORS
330
B
102
}
330
B
100
AcDbMaterial
  1
Global
 43
0.0007999999797903
 43
0.0
 43
0.0
 43
0.0
 43
0.0
 43
0.0007999999797903
 43
0.0
 43
0.0
 43
0.0
 43
0.0
 43
1.0
 43
0.0
 43
0.0
 43
0.0
 43
0.0
 43
1.0
 49
0.0007999999797903
 49
0.0
 49
0.0
 49
0.0
 49
0.0
 49
0.0007999999797903
 49
0.0
 49
0.0
 49
0.0
 49
0.0
 49
1.0
 49
0.0
 49
0.0
 49
0.0
 49
0.0
 49
1.0
142
0.0007999999797903
142
0.0
142
0.0
142
0.0
142
0.0
142
0.0007999999797903
142
0.0
142
0.0
142
0.0
142
0.0
142
1.0
142
0.0
142
0.0
142
0.0
142
0.0
142
1.0
144
0.0007999999797903
144
0.0
144
0.0
144
0.0
144
0.0
144
0.0007999999797903
144
0.0
144
0.0
144
0.0
144
0.0
144
1.0
144
0.0
144
0.0
144
0.0
144
0.0
144
1.0
1001
ACAD
1070
    -1
1070
     3
1070
     0
1000

1071
        0
1070
     0
  0
MLINESTYLE
  5
42
102
{ACAD_REACTORS
330
39
102
}
330
39
100
AcDbMlineStyle
  2
STANDARD
 70
     0
  3

 62
   256
 51
90.0
 52
90.0
 71
     2
 49
0.5
 62
   256
  6
BYLAYER
 49
-0.5
 62
   256
  6
BYLAYER
  0
ACDBPLACEHOLDER
  5
7
102
{ACAD_REACTORS
330
8
102
}
330
8
  0
SCALE
  5
47
102
{ACAD_REACTORS
330
3F
102
}
330
3F
100
AcDbScale
 70
     0
300
1:1
140
1.0
141
1.0
290
     1
  0
SCALE
  5
48
102
{ACAD_REACTORS
330
3F
102
}
330
3F
100
AcDbScale
 70
     0
300
1:2
140
1.0
141
2.0
290
     0
  0
SCALE
  5
49
102
{ACAD_REACTORS
330
3F
102
}
330
3F
100
AcDbScale
 70
     0
300
1:4
140
1.0
141
4.0
290
     0
  0
SCALE
  5
4A
102
{ACAD_REACTORS
330
3F
102
}
330
3F
100
AcDbScale
 70
     0
300
1:5
140
1.0
141
5.0
290
     0
  0
SCALE
  5
4B
102
{ACAD_REACTORS
330
3F
102
}
330
3F
100
AcDbScale
 70
     0
300
1:8
140
1.0
141
8.0
290
     0
  0
SCALE
  5
4C
102
{ACAD_REACTORS
330
3F
102
}
330
3F
100
AcDbScale
 70
     0
300
1:10
140
1.0
141
10.0
290
     0
  0
SCALE
  5
4D
102
{ACAD_REACTORS
330
3F
102
}
330
3F
100
AcDbScale
 70
     0
300
1:16
140
1.0
141
16.0
290
     0
  0
SCALE
  5
4E
102
{ACAD_REACTORS
330
3F
102
}
330
3F
100
AcDbScale
 70
     0
300
1:20
140
1.0
141
20.0
290
     0
  0
SCALE
  5
4F
102
{ACAD_REACTORS
330
3F
102
}
330
3F
100
AcDbScale
 70
     0
300
1:30
140
1.0
141
30.0
290
     0
  0
SCALE
  5
50
102
{ACAD_REACTORS
330
3F
102
}
330
3F
100
AcDbScale
 70
     0
300
1:40
140
1.0
141
40.0
290
     0
  0
SCALE
  5
51
102
{ACAD_REACTORS
330
3F
102
}
330
3F
100
AcDbScale
 70
     0
300
1:50
140
1.0
141
50.0
290
     0
  0
SCALE
  5
52
102
{ACAD_REACTORS
330
3F
102
}
330
3F
100
AcDbScale
 70
     0
300
1:100
140
1.0
141
100.0
290
     0
  0
SCALE
  5
53
102
{ACAD_REACTORS
330
3F
102
}
330
3F
100
AcDbScale
 70
     0
300
2:1
140
2.0
141
1.0
290
     0
  0
SCALE
  5
54
102
{ACAD_REACTORS
330
3F
102
}
330
3F
100
AcDbScale
 70
     0
300
4:1
140
4.0
141
1.0
290
     0
  0
SCALE
  5
55
102
{ACAD_REACTORS
330
3F
102
}
330
3F
100
AcDbScale
 70
     0
300
8:1
140
8.0
141
1.0
290
     0
  0
SCALE
  5
56
102
{ACAD_REACTORS
330
3F
102
}
330
3F
100
AcDbScale
 70
     0
300
10:1
140
10.0
141
1.0
290
     0
  0
SCALE
  5
57
102
{ACAD_REACTORS
330
3F
102
}
330
3F
100
AcDbScale
 70
     0
300
100:1
140
100.0
141
1.0
290
     0
  0
TABLESTYLE
  5
43
102
{ACAD_XDICTIONARY
360
44
102
}
102
{ACAD_REACTORS
330
40
102
}
330
40
100
AcDbTableStyle
  3
Standard
 70
     0
 71
     0
 40
1.5
 41
1.5
280
     0
281
     0
  7
Standard
140
4.5
170
     2
 62
     0
 63
     7
283
     0
274
    -2
284
     1
 64
     0
275
    -2
285
     1
 65
     0
276
    -2
286
     1
 66
     0
277
    -2
287
     1
 67
     0
278
    -2
288
     1
 68
     0
279
    -2
289
     1
 69
     0
  7
Standard
140
6.0
170
     5
 62
     0
 63
     7
283
     0
274
    -2
284
     1
 64
     0
275
    -2
285
     1
 65
     0
276
    -2
286
     1
 66
     0
277
    -2
287
     1
 67
     0
278
    -2
288
     1
 68
     0
279
    -2
289
     1
 69
     0
  7
Standard
140
4.5
170
     5
 62
     0
 63
     7
283
     0
274
    -2
284
     1
 64
     0
275
    -2
285
     1
 65
     0
276
    -2
286
     1
 66
     0
277
    -2
287
     1
 67
     0
278
    -2
288
     1
 68
     0
279
    -2
289
     1
 69
     0
  0
VISUALSTYLE
  5
2D
102
{ACAD_XDICTIONARY
360
27E
102
}
102
{ACAD_REACTORS
330
2E
102
}
330
2E
100
AcDbVisualStyle
  2
2dWireframe
 70
     4
 71
     0
 72
     2
 73
     1
 90
        0
 40
-0.6
 41
-30.0
 62
     5
 63
     7
421
 16777215
 74
     1
 91
        4
 64
     7
 65
   257
 75
     1
175
     1
 42
1.0
 92
        0
 66
   257
 43
1.0
 76
     1
 77
     6
 78
     2
 67
     7
 79
     5
170
     0
171
     0
290
     0
174
     0
 93
        1
 44
0.0
173
     0
291
     0
 45
0.0
1001
ACAD
1000
AcDbSavedByObjectVersion
1070
     0
  0
VISUALSTYLE
  5
45
102
{ACAD_XDICTIONARY
360
282
102
}
102
{ACAD_REACTORS
330
2E
102
}
330
2E
100
AcDbVisualStyle
  2
Realistic
 70
     8
 71
     2
 72
     3
 73
     0
 90
        2
 40
-0.6
 41
30.0
 62
     5
 63
     7
421
 16777215
 74
     0
 91
        0
 64
     7
 65
   257
 75
     1
175
     1
 42
1.0
 92
        8
 66
   257
 43
1.0
 76
     1
 77
     6
 78
     2
 67
     7
 79
     3
170
     0
171
     0
290
     0
174
     0
 93
       13
 44
0.0
173
     0
291
     0
 45
0.0
1001
ACAD
1000
AcDbSavedByObjectVersion
1070
     0
  0
VISUALSTYLE
  5
46
102
{ACAD_XDICTIONARY
360
284
102
}
102
{ACAD_REACTORS
330
2E
102
}
330
2E
100
AcDbVisualStyle
  2
Wireframe
 70
     5
 71
     0
 72
     2
 73
     0
 90
        0
 40
-0.6
 41
-30.0
 62
     5
 63
     7
421
 16777215
 74
     1
 91
        4
 64
     7
 65
   257
 75
     1
175
     1
 42
1.0
 92
        0
 66
   257
 43
1.0
 76
     1
 77
     6
 78
     2
 67
     7
 79
     3
170
     0
171
     0
290
     0
174
     0
 93
        1
 44
0.0
173
     0
291
     0
 45
0.0
1001
ACAD
1000
AcDbSavedByObjectVersion
1070
     0
  0
DICTIONARYVAR
  5
268
102
{ACAD_REACTORS
330
262
102
}
330
262
100
DictionaryVariables
280
     0
  1
1:1
  0
DICTIONARYVAR
  5
264
102
{ACAD_REACTORS
330
262
102
}
330
262
100
DictionaryVariables
280
     0
  1
STANDARD
  0
DICTIONARYVAR
  5
263
102
{ACAD_REACTORS
330
262
102
}
330
262
100
DictionaryVariables
280
     0
  1
STANDARD
  0
DICTIONARYVAR
  5
265
102
{ACAD_REACTORS
330
262
102
}
330
262
100
DictionaryVariables
280
     0
  1

  0
DICTIONARYVAR
  5
266
102
{ACAD_REACTORS
330
262
102
}
330
262
100
DictionaryVariables
280
     0
  1

  0
DICTIONARYVAR
  5
26A
102
{ACAD_REACTORS
330
262
102
}
330
262
100
DictionaryVariables
280
     0
  1
0
  0
DICTIONARYVAR
  5
26B
102
{ACAD_REACTORS
330
262
102
}
330
262
100
DictionaryVariables
280
     0
  1
0
  0
DICTIONARYVAR
  5
269
102
{ACAD_REACTORS
330
262
102
}
330
262
100
DictionaryVariables
280
     0
  1
2
  0
DICTIONARYVAR
  5
26E
102
{ACAD_REACTORS
330
262
102
}
330
262
100
DictionaryVariables
280
     0
  1
1.570796
  0
DICTIONARYVAR
  5
26F
102
{ACAD_REACTORS
330
262
102
}
330
262
100
DictionaryVariables
280
     0
  1
1.570796
  0
DICTIONARYVAR
  5
270
102
{ACAD_REACTORS
330
262
102
}
330
262
100
DictionaryVariables
280
     0
  1
-122.394000
  0
DICTIONARYVAR
  5
267
102
{ACAD_REACTORS
330
262
102
}
330
262
100
DictionaryVariables
280
     0
  1
1
  0
DICTIONARYVAR
  5
26D
102
{ACAD_REACTORS
330
262
102
}
330
262
100
DictionaryVariables
280
     0
  1
80.000000
  0
DICTIONARYVAR
  5
26C
102
{ACAD_REACTORS
330
262
102
}
330
262
100
DictionaryVariables
280
     0
  1
5.000000
  0
DICTIONARYVAR
  5
271
102
{ACAD_REACTORS
330
262
102
}
330
262
100
DictionaryVariables
280
     0
  1
2
  0
DICTIONARY
  5
27B
102
{ACAD_REACTORS
330
279
102
}
330
279
100
AcDbDictionary
281
     1
  0
DICTIONARY
  5
27A
102
{ACAD_REACTORS
330
279
102
}
330
279
100
AcDbDictionary
281
     1
  3
1207687616
350
274
  3
1207687632
350
275
  3
1207687648
350
276
  3
1207687664
350
277
  3
1207687680
350
278
  0
DICTIONARY
  5
1A
330
18
100
AcDbDictionary
280
     1
281
     1
  0
DICTIONARY
  5
3C
330
3B
100
AcDbDictionary
280
     1
281
     1
  3
ACAD_XREC_ROUNDTRIP
360
280
  3
FBXASSET
360
3D
  0
DICTIONARY
  5
15
330
14
100
AcDbDictionary
280
     1
281
     1
  3
ACAD_XREC_ROUNDTRIP
360
27D
  3
FBXASSET
360
16
  0
DICTIONARY
  5
C
330
A
100
AcDbDictionary
280
     1
281
     1
  3
ACAD_XREC_ROUNDTRIP
360
27C
  3
BUMPTILE
360
D
  3
DIFFUSETILE
360
E
  3
FBXASSET
360
F
  3
OPACITYTILE
360
10
  3
REFLECTIONTILE
360
11
  0
DICTIONARY
  5
44
330
43
100
AcDbDictionary
280
     1
281
     1
  3
ACAD_ROUNDTRIP_2008_TABLESTYLE_CELLSTYLEMAP
360
272
  3
ACAD_XREC_ROUNDTRIP
360
281
  0
DICTIONARY
  5
27E
330
2D
100
AcDbDictionary
280
     1
281
     1
  3
ACAD_XREC_ROUNDTRIP
360
27F
  0
DICTIONARY
  5
282
330
45
100
AcDbDictionary
280
     1
281
     1
  3
ACAD_XREC_ROUNDTRIP
360
283
  0
DICTIONARY
  5
284
330
46
100
AcDbDictionary
280
     1
281
     1
  3
ACAD_XREC_ROUNDTRIP
360
285
  0
XRECORD
  5
274
102
{ACAD_REACTORS
330
27A
102
}
330
27A
100
AcDbXrecord
280
     1
  1
AcDb_Thumbnail_Schema
102
{ATTRRECORD
341
275
  2
AcDbDs::TreatedAsObjectData
280
     1
291
     1
102
ATTRRECORD}
102
{ATTRRECORD
341
276
  2
AcDbDs::Legacy
280
     1
291
     1
102
ATTRRECORD}
  2
AcDbDs::ID
280
    10
 91
        8
102
{ATTRRECORD
341
277
  2
AcDs:Indexable
280
     1
291
     1
102
ATTRRECORD}
102
{ATTRRECORD
341
278
  2
AcDbDs::HandleAttribute
280
     7
282
     1
102
ATTRRECORD}
  2
Thumbnail_Data
280
    15
 91
        0
  0
XRECORD
  5
275
102
{ACAD_REACTORS
330
27A
102
}
330
27A
100
AcDbXrecord
280
     1
  1
AcDbDs::TreatedAsObjectDataSchema
  2
AcDbDs::TreatedAsObjectData
280
     1
 91
        0
  0
XRECORD
  5
276
102
{ACAD_REACTORS
330
27A
102
}
330
27A
100
AcDbXrecord
280
     1
  1
AcDbDs::LegacySchema
  2
AcDbDs::Legacy
280
     1
 91
        0
  0
XRECORD
  5
277
102
{ACAD_REACTORS
330
27A
102
}
330
27A
100
AcDbXrecord
280
     1
  1
AcDbDs::IndexedPropertySchema
  2
AcDs:Indexable
280
     1
 91
        0
  0
XRECORD
  5
278
102
{ACAD_REACTORS
330
27A
102
}
330
27A
100
AcDbXrecord
280
     1
  1
AcDbDs::HandleAttributeSchema
  2
AcDbDs::HandleAttribute
280
     7
 91
        1
284
     1
  0
XRECORD
  5
280
102
{ACAD_REACTORS
330
3C
102
}
330
3C
100
AcDbXrecord
280
     1
102
MATERIAL
148
0.0
149
0.0
149
0.0
 93
        0
 94
       63
282
     0
 72
     1
 77
     1
171
     1
175
     1
179
     1
273
     0
  0
XRECORD
  5
3D
102
{ACAD_REACTORS
330
3C
102
}
330
3C
100
AcDbXrecord
280
     1
 70
     1
 90
429727718
  1
D62C5603-E3A1-4AEA-B7FB-FE5D8D0755AF
310
504B03040A0000080000CC70623B3DEE336E79000000790000001B0000006175746F6465736B2D64657369676E2D7061636B6167652E786D6C3C3F786D6C2076657273696F6E3D22312E302220656E636F64696E673D227574662D3822203F3E3C666F726D6174733E3C666F726D61743E687474703A2F2F736368656D612E
310
6175746F6465736B2E636F6D2F64657369676E2D7061636B6167652F323030393C2F666F726D61743E3C2F666F726D6174733E504B0304140006080800CC70623BD486FD9CA0000000F4000000130000005B436F6E74656E745F54797065735D2E786D6C7D8EC10E82300C865F65E91D8A1E8C310C0EEA1BF002731658846E
310
D98AC1B77784ABF1D8FE5FBFBF75BBCE937A534CCEB38643598122B6FEE978D0B0485F9C41B54DDD7D022595594E1A469170414C76A4D9A4D207E29CF43ECE46F218070CC6BECC4078ACAA135ACF422C856C0E68EA1BF5669944DDD7BCDE7B1F8E415D77AECB980613C2E4AC91FC167A2B244592486606FC29C8FD7F045B9A
310
EF7053A7E60B504B0304140006080800CC70623B853B8169EB0000007C01000008000000636F72652E786D6C8D90416EC3201045AF62CDB6C206821CC7C244919D9CA01740401C94182C03558F5F9C3852BBEB6A467FFE9B197D7EFC9E1EC5975982F5AE035262288C535E5B377690E21535501C055FBC8FBF6C503839990E
310
5619041F179FE64D52DE45E362569DD7661365082642A11EB9E920A89B99642953CC8E702F67A9EE7234257977194EC9EAE275C4EABCCF5EAD5940D4AC6F0E35A568B8F43562CD7046CD199FD07E60174276A7BE677B5EADB0E0D14EEFFB6A31321A0D82627C4084204C3F096B71DD52F6819B16635EADF63F509AF53FA164
310
5DDCD1EDDD17164090FCC8732078B56691CB33A85CD7DCC40F504B0304140006080800CC70623B55019EA25F0000007C00000007000000636E782E786D6C4DCB3B0E80201045D1AD90E915ED2CF8AC45050C11660C8261F98AB1B07AC9C97D42D718D865D3E909258CFD00CCE24AC6E326A164D74DC0B4128928FF32603847
310
2BA13128B1252AC747C6BAB984FC68F0B87FE8960A5C09FE86CFB69FBA01504B0304140006080800CC70623BDBABAAF470010000D40300000C0000006662782F636F72652E786D6CC553D16E823014FD95A6AF4B694182CC941A83FA05FB810A9511A125A5257EFE2E82712ECEB8A7F100CD39F7F69E734AF9FADC366850B6
310
AF8DCE7018308C942E4C59EB2AC3DE1D498AD15A706B8CFB56869196ADCAF00863C12B6B7C374385D14E6907A836A59A41D9F7CA615434B0C8705F7CAA5606D23BA8E84F41278B93AC54100640439DE0BDB320004D43C63716C7C399D30917DCFBBA9CD9BA8469F5B156168B24CED3F7248AC8769F27244EB73B92EED8862C
310
B7F13E0C179B3C8F979C8ECD82BBBABDAA2BAC924E9558448CBD9330242CFA08E3154B5651FCC6D215639C8EE5774DBE2B5F6CF2B5768B68963BB5F5588420E442FC700B1139D4CB01F450C1E918227C2E09DF070D8140C84E1E9AAB8F1340832A9CB13130A5F1376A908D57309505ECF2A0DF179C4E9D30F5B239B87E3823
310
7A79C6F31DE1A8A5AEC08474B03C7837EAE4938639B44E5932B833D2C6B6B279CDC613877FA26EE21F4A2A4C63EC7F29A2F301D1F9F7A0E37D145F504B0304140006080800CC70623B9C113CC27E0000009D0000000B0000006662782F636E782E786D6C4DCCDF0A83201C86E15B91DFB94BFB330DD428C8FB886521330DA7
310
6397BF1A1DECE883878F57749FCDA1B7892F1BBC047A23808C7F84D9FA55424E0BE6803A256208E9EF06C84F9B91703228B1C690F78B66B34CD9A5439DF5CF0BFBF65E35BCA1B8D6A5C6F540381E886698B5741C695F9503EBA150A2F8958E3DC3EA0B504B0304140006080800CC70623B7DF2F77C2A010000120200003100
310
00006662782F41393633353835312D344632462D344230382D423046372D3739314545314133324237412F636F72652E786D6C8D51DB8EC22014FC15C2939B0D2DB4B45643319AE817EC0F6041255A68B86CFCFC856D4D76DF7CE190393373060EDB3DC707F856CE6B6B7A480A0C81328395DA5C7B18C3057510EC3873D686
310
3F34088C18550F330C39BB3A1BA7051AAC09CA84841A2BD5020AEF55806078A44B0FFD7053A328440C89E1EFC52486BBB8AA8214A99D789CF9E05200300FC927E4FB4D5B375D43103D5527440FB843077C5AA3F5861C8F645F5787F59E95B390B318B55CE45AA638FAA2957BD7248B390B7A7CC51F9C124149C82B8C378810
310
84AB2F42B7B8DD56F413775B8C5999E9FF4471926F8AA236A1AE96B8B3CC434E5839373893369E1FAF30EA395917409EB7F26AF8801C171837A4A6AC9C89E9F9C9B1A58BA30FD6A5EF5DDDCF894B9AD9B6A59C957943A9FCAE2FD5BC4DFE03504B0304140006080800CC70623BAD7543B64E01000033030000300000006662
310
782F41393633353835312D344632462D344230382D423046372D3739314545314133324237412F636E782E786D6CD593CD6EC32010845F0571AD6CE3D48AD20813A9873E410FBD12D82434182C7EAAE6EDBB2424CD25871E7B41D6EC30B3FA84F9E67BB2E40B4234DE8DB46F1925E094D7C6ED479AD3AE5951B2113C789FEE
310
6C943839C1488B4C05DF079FE72A69D8C96C13AAD6B8631503449F83828872B949AC57D26200B826A308D316B4064D6E46FCDA41C05550DC9E483A00797BFD207EFB092A45DE9514C1BBD22178396BD39D891265658C238DEA00936C654E5E433CB65A26D9F6EDB5EBC14EBF49A45CB856E66048291F6939A9A81BB5C89177
310
38143CA680F4AA299D66A042CEB3354A2684DC9D8D178FE0D9B8B41CAAD720F880EE7EF93C0C18769E099ECC04D5A102C8049A8A05632F4DDF376CF1DE0F6BB65C2F8627B65A33C6BB62177CEBBDAD973006829F89F22E814B54F4BC2BE347F8AA8F681390B50FA73F804400B5F542E796F19FF974E7F78DB802FE05E20750
310
4B0304140006080800CC70623BE75B7789680500003C100000340000006662782F41393633353835312D344632462D344230382D423046372D3739314545314133324237412F6F626A656374732E786D6CAD575B8F9B3818FD2B887D06C22499CB8AA1CA655245D5B455A356FB305264C061D8018C6C3393D95FBFC7600890
310
A4CD5EF210B0B1BFEBF98E3F7B1FF6596ABC522E1296DF9BAE3D320D9A872C4AF2F8DE2CE5CEBA358D0FBEC719939D65A691938CDE9B6ADAF4BD98B3B2D05311DD91329583D9D5FC0F438434A7A611A644887B5384CF34233629258BA878B12322891DEFF6B66BD70BFB62634E8AE781D082709A4B588AF91C528CDA28B73F
310
1C998EEF39EABBEFA97FBD6A7C7E9553F9D3D79FE442923C3C523610337627CB87ABE99D359D4CC6D6E4FACAB5E6ABF9D2726FC6A3C5F56271377BB88362213924694B38DD99FE47C48627A1E7D49F5A8BB5E1A74C0A599ED3B0F21F1E56366B89112D681E218F0915D0D6F17AD41FBA2A369DCF6335D62ABBD39779D5DDD1
310
11D4D8DE3CBB96B2E04FB8202E41051754A1AA8E8F76B4C6DFE810B580B1547F4B84911149794252234D024EF8BBE963A95AE27B3D310A9D5C215C7960FAEE415ED75694C6AFB17BCACA5D99A60A9AA65F217B0BFC53292ACB92BF283FAD0D3621576592CB5BED907C2FA8E9DF794E35E97BEA31BED21FEB401ABB94C44839
310
DCACBF0E1C5DA8DA5B2F4DFFD32AD86F543D9E565E7056502E157C00AD2671CD534549AB752FCA9CDA00677A313F04E51B22FF19E57B300579E3C97EB29F682D92935CEC18CF901B7B54FD8C51F362B56FC72FE0B3C1EAE335EDCCBF5AEC39ADB17DC238973F804BA5E6F6BFE7AF1FB32E523BE9F3BD571418E3631DCA4D48
310
5250CF639223210A9446CA30052EDF057BD35F8329C1ECD84552BF0DC8D18BE7BCE23BFE6BD960AB4A7DE79923A103BEBD80F911CBAA2C60DB19B01CF164A5583B772EE6D3FFA56666CBCDA74DC97724A48F9A58967497E489C4D979006FD7A05E227A1EBDD0F737C623387A9C844D3709995625106D157315F8B8392CD4E0
310
A0B9A720C4BE9829CEF37EA1E13111214D53925356365ADA634861B52519DD27A00AEB808EAF0628E6F435519D446F45CF2C9CF5214F0A15B2F6D06B79DA3EE3CBF7F56780D2F4E7EF73A0F5E5B02A38D07DC852C6B7C1FBB6664213E0C39E3EBA7FF4E1AD23EA2829407C85E586727488B751B2DB9502BC7B228A3FD68B6E
310
A65A22397E690AA8D158D7E404EC8CDA235CC3B7D1898680131CEC2CDF2638C65196279577750F15884AEE19F94199155B92B13297978469D4F8D358DF0AEF7631E28DC8F0D9F437D5D39A83B2231A1D52D543813A824EF8D44BCFF2FA6A31BD1E8DAD87F1CCB526B3879935BF59CDADD5C37479BB1CDD4CA7B3556B516589
310
EF352754B706114D9C885EC9131DE6EFEB43D99AFE2391C2F958179413D7CFEF6B1B6DB1E7600F00DE6E5C67454A339A4BA2E0FBA85ED26F045D454F463DBFCE484C2F90F2E5E3666003662ED8F755951A7D1BECD5B30B550B2785C8E7320B7292A4838DDA71BBC863ED7613CAF659337A3354231D4FF4A182A54904C2898C
310
98B28C4AD0CE056CCF332A80986E571EE9DBC305BB5FEB7E509220A58D25CF042D712A806AC0AD0C657FDEF80D2D9CEAA2EE4D1C76F60BFE74219A06527D6F82DF6412526107381E55E353090704D085B52408A8913C4ED159D79BDA71BB4BC506F4831350EB6F975CD22D69BF7AC49B91A2C0A9DDA3D5CA36AD20FC478E37
310
E61844E2352865EBCB61A275A65283CAAA9DD27703B4102F5AF51EF5F573B75CBB5AD38BC845F7A49F82A0966A49C2E3EA5EA0ECD326CD965F1DB402C6FA8B51A4658C5C5E2EC9E214602E55810345408596591009A82E7E7FFACA19EEA299B14A0081A705CB3296EBC14CDF658DCD336EA6D1136881AAEB87B81AB9EE53D5
310
F5EB8BC8362082DA24122F98680A4E7930C01A0079749CEA14382A0783E5EBA5A10F8C098456A03D6A4AEB6BB881E2513747552A5DB22C7EDAF83BD5528081A365F7FF06504B0304140006080000CC70623B000000000000000000000000350000006662782F41393633353835312D344632462D344230382D423046372D37
310
39314545314133324237412F76657274696365732E62696E504B0304140006080800CC70623BF270F1330600000004000000360000006662782F41393633353835312D344632462D344230382D423046372D3739314545314133324237412F747269616E676C65732E62696E636660600000504B0304140006080000CC7062
310
3B000000000000000000000000370000006662782F41393633353835312D344632462D344230382D423046372D3739314545314133324237412F617474726962757465732E62696E504B0304140006080800CC70623B08DA0BD19000000041010000360000006662782F41393633353835312D344632462D344230382D4230
310
46372D3739314545314133324237412F6469726563746F72792E786D6C858F410AC3201045AF22B36F53E9A60B35CBEEBAE80D244E44489C6234F4F835464A48035D0DF398FF9F8AF63D0E6CC63039F212F8F9020C7D47C6792B21C5FE7403D62A1188E2E60C98D7234A5830286103A55745067B9D86B8A3CF9C7F90C11DE6
310
07FB144396D7B6A82D282E9A152AD114D5EF2CB866EEE831B8EEA07A7BB5A8D7D61A2BAAEB7FD5F70921FF497D00504B0304140006080800CC70623BEDD1DC58FD000000A00100003B0000006662782F41393633353835312D344632462D344230382D423046372D3739314545314133324237412F7265736F75726365732F
310
636F72652E786D6C8D504B6E833010BD0A9A6D65B00922041947112427E8052C33A156828DFCA97AFC9A40A576D7CDCCE87D344F8F9FBFE667F689CE6B6B3A6039850C8DB2A336530731DC4903D95970676DF82583CCC8193B5861107C72362E3BA4AC096842428D1D7107A5F7182053CF7474E0D507CE32973124857FE48B
310
540F3961CEF244279DE03EB81420DB9EAC1384436FA353E879B1B182C7A8C75DA3C7F453DF353A1075D537A7BA6464B8F535A99AE14A9A2BBD90E350DD183B5CFABE3AF262350B1EF4FC9351399401471025A527C218A1E53BAB5A5AB765F5469B96525EACF23FA6B88CFF34456DC2A1DCE36E360F82A5202F42F062ED2BAD
310
579969AFDD8A6F504B010214000A0000080000CC70623B3DEE336E79000000790000001B00000000000000000000000000000000006175746F6465736B2D64657369676E2D7061636B6167652E786D6C504B01021400140006080800CC70623BD486FD9CA0000000F40000001300000000000000000000000000B20000005B
310
436F6E74656E745F54797065735D2E786D6C504B01021400140006080800CC70623B853B8169EB0000007C010000080000000000000000000000000083010000636F72652E786D6C504B01021400140006080800CC70623B55019EA25F0000007C000000070000000000000000000000000094020000636E782E786D6C504B
310
01021400140006080800CC70623BDBABAAF470010000D40300000C00000000000000000000000000180300006662782F636F72652E786D6C504B01021400140006080800CC70623B9C113CC27E0000009D0000000B00000000000000000000000000B20400006662782F636E782E786D6C504B01021400140006080800CC70
310
623B7DF2F77C2A010000120200003100000000000000000000000000590500006662782F41393633353835312D344632462D344230382D423046372D3739314545314133324237412F636F72652E786D6C504B01021400140006080800CC70623BAD7543B64E010000330300003000000000000000000000000000D2060000
310
6662782F41393633353835312D344632462D344230382D423046372D3739314545314133324237412F636E782E786D6C504B01021400140006080800CC70623BE75B7789680500003C10000034000000000000000000000000006E0800006662782F41393633353835312D344632462D344230382D423046372D3739314545
310
314133324237412F6F626A656374732E786D6C504B01021400140006080000CC70623B0000000000000000000000003500000000000000000000000000280E00006662782F41393633353835312D344632462D344230382D423046372D3739314545314133324237412F76657274696365732E62696E504B01021400140006
310
080800CC70623BF270F133060000000400000036000000000000000000000000007B0E00006662782F41393633353835312D344632462D344230382D423046372D3739314545314133324237412F747269616E676C65732E62696E504B01021400140006080000CC70623B0000000000000000000000003700000000000000
310
000000000000D50E00006662782F41393633353835312D344632462D344230382D423046372D3739314545314133324237412F617474726962757465732E62696E504B01021400140006080800CC70623B08DA0BD1900000004101000036000000000000000000000000002A0F00006662782F41393633353835312D344632
310
462D344230382D423046372D3739314545314133324237412F6469726563746F72792E786D6C504B01021400140006080800CC70623BEDD1DC58FD000000A00100003B000000000000000000000000000E1000006662782F41393633353835312D344632462D344230382D423046372D3739314545314133324237412F7265
310
736F75726365732F636F72652E786D6C504B0506000000000E000E0080040000641100000000
  0
XRECORD
  5
27D
102
{ACAD_REACTORS
330
15
102
}
330
15
100
AcDbXrecord
280
     1
102
MATERIAL
148
0.0
149
0.0
149
0.0
 93
        0
 94
       63
282
     0
 72
     1
 77
     1
171
     1
175
     1
179
     1
273
     0
  0
XRECORD
  5
16
102
{ACAD_REACTORS
330
15
102
}
330
15
100
AcDbXrecord
280
     1
 70
     1
 90
429727718
  1
30362254-06B7-45E0-A893-8CFA70E3D6BC
310
504B03040A0000080000CC70623B3DEE336E79000000790000001B0000006175746F6465736B2D64657369676E2D7061636B6167652E786D6C3C3F786D6C2076657273696F6E3D22312E302220656E636F64696E673D227574662D3822203F3E3C666F726D6174733E3C666F726D61743E687474703A2F2F736368656D612E
310
6175746F6465736B2E636F6D2F64657369676E2D7061636B6167652F323030393C2F666F726D61743E3C2F666F726D6174733E504B0304140006080800CC70623BD486FD9CA0000000F4000000130000005B436F6E74656E745F54797065735D2E786D6C7D8EC10E82300C865F65E91D8A1E8C310C0EEA1BF002731658846E
310
D98AC1B77784ABF1D8FE5FBFBF75BBCE937A534CCEB38643598122B6FEE978D0B0485F9C41B54DDD7D022595594E1A469170414C76A4D9A4D207E29CF43ECE46F218070CC6BECC4078ACAA135ACF422C856C0E68EA1BF5669944DDD7BCDE7B1F8E415D77AECB980613C2E4AC91FC167A2B244592486606FC29C8FD7F045B9A
310
EF7053A7E60B504B0304140006080800CC70623B1EC5D7A3EB0000007C01000008000000636F72652E786D6C8D90416EC3201045AF82665B6103C6756C6122AB4D4ED00B204C5C94182C03558F5F9C3852BBEB6A467FFE9B197D71FC9E6FE8CBACC17AD7032D0820E3B41FAD9B7A48F1820F808E52ACDEC75F36404ECDA687
310
4D0629A6D5A76597B477D1B89855E747B38B2A041301E95B6E7A08FAD3CCAA50296647B8168BD2573599823EBB0CA76447F43862C7BCCF5EAC59410E4DDD9C7973C2755553CCCFA4C603E3040F1565ED3B1FDE4E432BCA0D9622DAF9795FAF464533826484B498524CD807E51D79ED187F21878E10516EF63F505AC67F42C9
310
BA58B1FDDD071640D2FCC87D2045B96591CB3DA85CB7DCE40F504B0304140006080800CC70623B55019EA25F0000007C00000007000000636E782E786D6C4DCB3B0E80201045D1AD90E915ED2CF8AC45050C11660C8261F98AB1B07AC9C97D42D718D865D3E909258CFD00CCE24AC6E326A164D74DC0B4128928FF32603847
310
2BA13128B1252AC747C6BAB984FC68F0B87FE8960A5C09FE86CFB69FBA01504B0304140006080800CC70623B8C9102E971010000D40300000C0000006662782F636F72652E786D6CC5535B6E833010BC8AE5DF0A6C08340F1947A84D4ED00B38C6A128602363A31CBFCB234A53A551FA553EC09AD9F5CE8C31DB9E9B1AF5CA
310
7695D1198E428A91D2D214952E33ECDD315861B4E5CC1AE3BE9561A445A3323CC098B3D21ADFCE9034DA29ED00D5A6503328BA4E398C640D8B0C77F253352214DE4145770A5B214FA2546114020D759C75CE8200340D19DE981F0F6746269C33EFAB6266AB02A655C74A59CCF365BADC27CB5D902ED22848F6340DF238A141
310
BE88E2F57B92BFEDF23523433367AE6A2EEAA455C2A902F398D2751045018D3FA264435F3771F242571B4A1919CA6F9A7C5B3CD9E42BED16F12C776AEB308F40C848FC700B1139D4891EF410CEC810227CC6846F8386402064270EF5C5C709A05E49676C024C61FC95EA45ED154CA5211D1FF4FB8291A913A68E9B83EBBB33
310
E2A7673CDE118E5AE8124C0807CB8377834E366998436B950D7A7746DAD846D4CFD978E0F04FD455FC5D49D2D4C6FE9722321F10997F0F32DC47FE05504B0304140006080800CC70623BFFEA85907E0000009D0000000B0000006662782F636E782E786D6C4DCCD10A83201886E15B91FFDC95D95A811AB6F23E625948A6C3
310
E9D8E5AF46073BFAE0E1E365ED67B3E8ADC3CB78C7815C7240DA3DFC64DCC221C519D7805AC182F7F1EF06C88D9BE6703008B6049F9E274D7A1E938DBB5AE3D6131B2589BA0D3D965551E0B2EA732C9B9A624AAEB41E3A557677029960D9AFB4EF11165F504B0304140006080800CC70623B4FEEA4082C0100001202000031
310
0000006662782F39464131463745442D413632322D343644302D413938332D3331353338454246344243312F636F72652E786D6C8D515B6EC32010BC0AE2AB55850DD871ED0813254D72825EC00192A2C460F1A872FC42ED48ED5F7E00CDCECCCEB26C731F6FE05B39AFADE921293004CA082BB5B9F43086336A21D870E6AC
310
0D7F68109861543DCC30E4ECE26C9C164858139409093556AA051CBC570102714B8F1E7AF1A5C6A11862480C7F2DA6415C878B2A4891CA89C7990F2E050073937C42DE1DB7E4F87ED8A36D4329AA9B3D46DBAEAD504556557BD81DEBDD0761E52CE42C462D17B996298E3E6BE59E35C962CE821E1FF18553435012728A7187
310
0841987E927A8D9B35ADDF70BBC6989599FE4F1427F9A4286A132ABAC49D651EF234CD5CE04CDA78BA3DC2A8FB645D00B9DF8B57E215725C60BCA2A463E54C4CE327C7A65E1C7DB02E7DEFCBF594B864C5CA6CDBD49C957943E9FA5D5FBAF336F90F504B0304140006080800CC70623BAD7543B64E01000033030000300000
310
006662782F39464131463745442D413632322D343644302D413938332D3331353338454246344243312F636E782E786D6CD593CD6EC32010845F0571AD6CE3D48AD20813A9873E410FBD12D82434182C7EAAE6EDBB2424CD25871E7B41D6EC30B3FA84F9E67BB2E40B4234DE8DB46F1925E094D7C6ED479AD3AE5951B2113C
310
789FEE6C943839C1488B4C05DF079FE72A69D8C96C13AAD6B8631503449F83828872B949AC57D26200B826A308D316B4064D6E46FCDA41C05550DC9E483A00797BFD207EFB092A45DE9514C1BBD22178396BD39D891265658C238DEA00936C654E5E433CB65A26D9F6EDB5EBC14EBF49A45CB856E66048291F6939A9A81BB5
310
C8917738143CA680F4AA299D66A042CEB3354A2684DC9D8D178FE0D9B8B41CAAD720F880EE7EF93C0C18769E099ECC04D5A102C8049A8A05632F4DDF376CF1DE0F6BB65C2F8627B65A33C6BB62177CEBBDAD973006829F89F22E814B54F4BC2BE347F8AA8F681390B50FA73F804400B5F542E796F19FF974E7F78DB802FE05
310
E207504B0304140006080800CC70623B16AB87BA640500003C100000340000006662782F39464131463745442D413632322D343644302D413938332D3331353338454246344243312F6F626A656374732E786D6CAD575B6FA33818FD2B887DE6924B3BED8A326A92B68A663B534DD4D13E548A0C38942D60649B369D5FBFC7
310
600890A493BDE42160637FD7F31D7FF63E6FB3D478A55C242CBF3247B66B1A340F5994E4F19559CA8D75611A9F7D8F33263BCB4C232719BD32D5B4E97B316765A1A722BA21652A07B3B7B33F0D11D29C9A46981221AE4C113ED38CD8A4942CA2E2C58E882476BCD9DA23BB5ED8171B73523C0F841684D35CC252CCE79062D4
310
468DFA43D7747CCF51DF7D4FFDEB5593E3AB9CCA9FBEFE241792E4E19EB28198C968BAB8199F5D5A67D3E9C49A9E8F47D6EC76B6B0469F26EEFC7C3EBFBCBEB98462213924694B38DD98FE1D62C393D073EA4FADC5DAF04326852CCF6958F90F0F2B9BB5C48816348F90C7840A68EB78EDF68723159BCEE7891A6B95DDE9D3
310
BCEAEEE8086A6C6F9E5D4B59F0175C10A7A0820BAA5055C7473B5AE3CFDD452D602CD5DF12616444529E90D448938013FE6EFA58AA96F85E4F8C42275708571E98FE6827AF6B2B4AE3D7D83D64E5A64C53054DD3AF90BD06FEA9149565C94FCA0F6B834DC85599E4F2423B24DF0B6AFA979E534DFA9E7A4CC6FA631D486393
310
921829879BF5D781A373557BCB85E97FB90DB62B558F8795179C15944B051F40AB495CF35451D26A4727654E6D8033BD98EF82F21D91FF8AF2DD9982BCF1643BDD4EB516C9492E368C67C88DED563FC36D5EACF66DFF057C3658BDBFA69DF9578B3DA735B64F18C7F20770A9D45CFCF7FCF563D6456A277DBEF78A02637CA2
310
43B90A490AEAB94F72244481D24819A6C0E59B606BFA4B3025981DBB48EAB701D97BF19C577CC77F2D1B6C55A9EF3C732474C0B727303F625995056C3B02963D9EAC146BE78EC5FCEC7FA999EBC5EACBAAE41B12D27B4D2C0BBA49F244E2ECDC81B76B502F113D8F5EE8FB1BE3111CDD4FC2AA9B844CAB1288B68AB90A7CDC
310
1C166AB0D3DC5310625FCC14E779BFD0709F8890A629C9292B1B2DED31A4B0DA928CEE135085754027E3018A397D4D5427D15BD1330B677DC8934285AC3DF45A9EB68FF8F2B8FC0A509AFEECFD0FF2DE25CC6047F7214B195F07EFEB9A094D800F7BFAE8FED187B78EA8A3A400F115961BCAD1215E47C966530AF0EE8128FE
310
58CEBB996A8964FFA529A046635D9353B0336A8F700DDF46271A024E70B0B37C9DE01847591E54DED53D54202AB947E4076556AC49C6CA5C9E1226B7F1A7B1BE15DEED62C41B91E1B3E9AFAAA735036547343A925075041DF0A9979E893B391F8FCFA6967B3EFB644DCF6E5CEBFAE272625DCC6FAF3FB93793C5F90CE1EF57
310
407342756B10D1C489E8953CD1617E5CEECAD6F4EF8914CE5D5D504E5C3F1F9736DA62CFC11E00BCDDB8CC8A9466349744C1F75EBDA4DF09BA8A9E8C7A7E9991989E20E5DBDD6A6003664ED8F7A04A8DBE0DF6EAD9B9AA858342E47399053949D2C146EDB85DE4B176BB0965FBAC19BD19AA918E27FA50C1D22402E144464C
310
59462568E704B6E71915404CB72B8FF4EDE184DDAF753F284990D2C6926782963815403548A70C657FDEF80D2D9CEAA2AE4C1C76F60BFE74219A06527D6582DF6412526107381E55E353090704D085B52408D0933C4ED159D79BDA71BB4BC506F4831350EB6F979CD22D69BF7AC49B91A2C0A9DDA3D5CA36AD20FC478E37E6
310
1844E2352865EBCB6EA275A652E3836BE04EFB400BF1A2556F515F1FBB35B2AB35BD889C744FFA1004B5544B121E57F70215746DD2F5E2C1412B602CBF19455AC6C8E5E9922C4E01E65215385004546899059180EAFCF7A707CE7017CD8CDB0410789AB32C63B91E5CEBBBACB17AC6CD347A022D5075FD106377347AAABA7E
310
7D11590744509B44E205134DC1290F06580320F78E537D3D73540E06CB970B431F185308AD40BBD794D6D77003C5A36E8EAA54BA64597CD8F83BD552A080A365F7FF06504B0304140006080000CC70623B000000000000000000000000350000006662782F39464131463745442D413632322D343644302D413938332D3331
310
353338454246344243312F76657274696365732E62696E504B0304140006080800CC70623BF270F1330600000004000000360000006662782F39464131463745442D413632322D343644302D413938332D3331353338454246344243312F747269616E676C65732E62696E636660600000504B0304140006080000CC70623B
310
000000000000000000000000370000006662782F39464131463745442D413632322D343644302D413938332D3331353338454246344243312F617474726962757465732E62696E504B0304140006080800CC70623B08DA0BD19000000041010000360000006662782F39464131463745442D413632322D343644302D413938
310
332D3331353338454246344243312F6469726563746F72792E786D6C858F410AC3201045AF22B36F53E9A60B35CBEEBAE80D244E44489C6234F4F835464A48035D0DF398FF9F8AF63D0E6CC63039F212F8F9020C7D47C6792B21C5FE7403D62A1188E2E60C98D7234A5830286103A55745067B9D86B8A3CF9C7F90C11DE607
310
FB144396D7B6A82D282E9A152AD114D5EF2CB866EEE831B8EEA07A7BB5A8D7D61A2BAAEB7FD5F70921FF497D00504B0304140006080800CC70623B0D6EF93BFE000000A00100003B0000006662782F39464131463745442D413632322D343644302D413938332D3331353338454246344243312F7265736F75726365732F63
310
6F72652E786D6C8D50596E833010BD0A9ADFCA60B334011947A8694ED00B586642AC041B79A97AFC9A40A5F6AF3F33A3B7689E1E3F7DCD8FEC139DD7D6F4C0720A191A65476DA61E62B892236427C19DB5E1970C322367EC618541F0C9D9B8EC90B226A009093576C41D94DE63804C3DD2D18357379C652E63480A7FCF17A9
310
EE72C29CE5894E3AC17D702940B63D59270887DE46A7D0F36263058F518FBB468FE9A7BE6A7420864373B8D4873369AA8691FA421B3294352543C5CAF65C0F6FEF43CB8BD52C78D0F34F46E550061C419494B6843142CB0F5677F4B52BEB177AEC28E5C52AFF638ACBF84F53D42654E51E77B379102C05791282176B5F693D
310
CB4C7BED567C03504B010214000A0000080000CC70623B3DEE336E79000000790000001B00000000000000000000000000000000006175746F6465736B2D64657369676E2D7061636B6167652E786D6C504B01021400140006080800CC70623BD486FD9CA0000000F40000001300000000000000000000000000B20000005B
310
436F6E74656E745F54797065735D2E786D6C504B01021400140006080800CC70623B1EC5D7A3EB0000007C010000080000000000000000000000000083010000636F72652E786D6C504B01021400140006080800CC70623B55019EA25F0000007C000000070000000000000000000000000094020000636E782E786D6C504B
310
01021400140006080800CC70623B8C9102E971010000D40300000C00000000000000000000000000180300006662782F636F72652E786D6C504B01021400140006080800CC70623BFFEA85907E0000009D0000000B00000000000000000000000000B30400006662782F636E782E786D6C504B01021400140006080800CC70
310
623B4FEEA4082C0100001202000031000000000000000000000000005A0500006662782F39464131463745442D413632322D343644302D413938332D3331353338454246344243312F636F72652E786D6C504B01021400140006080800CC70623BAD7543B64E010000330300003000000000000000000000000000D5060000
310
6662782F39464131463745442D413632322D343644302D413938332D3331353338454246344243312F636E782E786D6C504B01021400140006080800CC70623B16AB87BA640500003C1000003400000000000000000000000000710800006662782F39464131463745442D413632322D343644302D413938332D3331353338
310
454246344243312F6F626A656374732E786D6C504B01021400140006080000CC70623B0000000000000000000000003500000000000000000000000000270E00006662782F39464131463745442D413632322D343644302D413938332D3331353338454246344243312F76657274696365732E62696E504B01021400140006
310
080800CC70623BF270F133060000000400000036000000000000000000000000007A0E00006662782F39464131463745442D413632322D343644302D413938332D3331353338454246344243312F747269616E676C65732E62696E504B01021400140006080000CC70623B0000000000000000000000003700000000000000
310
000000000000D40E00006662782F39464131463745442D413632322D343644302D413938332D3331353338454246344243312F617474726962757465732E62696E504B01021400140006080800CC70623B08DA0BD190000000410100003600000000000000000000000000290F00006662782F39464131463745442D413632
310
322D343644302D413938332D3331353338454246344243312F6469726563746F72792E786D6C504B01021400140006080800CC70623B0D6EF93BFE000000A00100003B000000000000000000000000000D1000006662782F39464131463745442D413632322D343644302D413938332D3331353338454246344243312F7265
310
736F75726365732F636F72652E786D6C504B0506000000000E000E0080040000641100000000
  0
XRECORD
  5
27C
102
{ACAD_REACTORS
330
C
102
}
330
C
100
AcDbXrecord
280
     1
102
MATERIAL
148
0.0
149
0.0
149
0.0
 93
        0
 94
       63
282
     0
 72
     1
 77
     1
171
     1
175
     1
179
     1
273
     0
  0
XRECORD
  5
D
102
{ACAD_REACTORS
330
C
102
}
330
C
100
AcDbXrecord
280
     1
270
     1
271
     1
  0
XRECORD
  5
E
102
{ACAD_REACTORS
330
C
102
}
330
C
100
AcDbXrecord
280
     1
270
     1
271
     1
  0
XRECORD
  5
F
102
{ACAD_REACTORS
330
C
102
}
330
C
100
AcDbXrecord
280
     1
 70
     0
 90
1673772943
  1
ECE7A1D2-D628-4531-984C-D00F80459256
310
504B03040A0000080000CC70623B3DEE336E79000000790000001B0000006175746F6465736B2D64657369676E2D7061636B6167652E786D6C3C3F786D6C2076657273696F6E3D22312E302220656E636F64696E673D227574662D3822203F3E3C666F726D6174733E3C666F726D61743E687474703A2F2F736368656D612E
310
6175746F6465736B2E636F6D2F64657369676E2D7061636B6167652F323030393C2F666F726D61743E3C2F666F726D6174733E504B0304140006080800CC70623BD486FD9CA0000000F4000000130000005B436F6E74656E745F54797065735D2E786D6C7D8EC10E82300C865F65E91D8A1E8C310C0EEA1BF002731658846E
310
D98AC1B77784ABF1D8FE5FBFBF75BBCE937A534CCEB38643598122B6FEE978D0B0485F9C41B54DDD7D022595594E1A469170414C76A4D9A4D207E29CF43ECE46F218070CC6BECC4078ACAA135ACF422C856C0E68EA1BF5669944DDD7BCDE7B1F8E415D77AECB980613C2E4AC91FC167A2B244592486606FC29C8FD7F045B9A
310
EF7053A7E60B504B0304140006080800CC70623BD9DDAED0EC0000007C01000008000000636F72652E786D6C8D90416EC3201045AF82665B61836D9CD8C2444DD39CA01740405C94182C03558F5F9C3852BBEB6A467FFE9B197D7EF89E6EE8CB2CC17A37002D0820E394D7D68D03A478C17B4007C117EFE32F1B20272733C0
310
2A83E0E3E2D3BC49CABB685CCCAAF3DA6CA20CC14440EA969B0182FA34932C648AD911AEC52CD5558EA6A0CF2EC329598D1E47ACCEFBECC59A050463A7EA5833865FEBDD0E37353BE3EE8DBDE3F6786A48D375FBF6CC78B9C282473B3DEFABC5C86834888A900E538A49F5419B9EB47DD5BC907D4F082F57FB1F28CDFA9F50
310
B22ED6D5F6EE030B20687EE43E10BC5CB3C8E51E54AE6B6EE207504B0304140006080800CC70623B55019EA25F0000007C00000007000000636E782E786D6C4DCB3B0E80201045D1AD90E915ED2CF8AC45050C11660C8261F98AB1B07AC9C97D42D718D865D3E909258CFD00CCE24AC6E326A164D74DC0B4128928FF326038
310
472BA13128B1252AC747C6BAB984FC68F0B87FE8960A5C09FE86CFB69FBA01504B0304140006080800CC70623BA24EB22D72010000D40300000C0000006662782F636F72652E786D6CC5535B6E833010BC8AE5DF0A6C5E49888CA3A6694ED00B38E05014B091B1518EDFE511A5A9D228FD2A1F60CDEC7A67C6986DCE4D8D7A
310
69BA4AAB0C073EC548AA5C17952A33ECECD15B61B4E1CC686DBF9561A44423333CC098B3D268D7CE50AE9595CA02AA74216750749DB418E5352C32DCE59FB211BE70162ABA93DF8AFC244AE9073ED050C759670D0840D390E18DF9F1706664C23973AE2A66B62A605A75ACA4C13C4976E1364A12EF355A2EBD384AF65EFA96
310
BC7B8BED2EA6719AAE16FB8491A199335B351775B991C2CA02F390D2D40B028F861F41BCA68B7518BFD0D59A524686F29B26D7164F36B94AD9289CE54E6D1DE6010819891F6E21228B3AD1831EC219194284CF98F06DD01008846CC5A1BEF83801D4CBDC6A1303536877A57A513B0953A94FC707FDBE6064EA84A9E3E6E0FA
310
EE8CF0E9198F7784A316AA0413C2C2F2E0ECA0934D1AE6D05A69BCDE9E91D2A611F573361E38FC1375157F5752AE6B6DFE4B11990F88CCBF0719EE23FF02504B0304140006080800CC70623B408A7D3B7C0000009D0000000B0000006662782F636E782E786D6C4DCCD10A83201886E15B91FFDC552A92A0064DBC8F581632
310
D3703A76F9ABD1C18E3E78F878E5F0D9027ABBFCF2292AE86E2D20171F69F6715550CB827B40839639A5F2770314A7CD293819B45C73AAFB45B35BA61ACAA1C1C7E7855C58C15BC331339661262CC762340413D68D77DA5B42298546CBE6573AF60CEB2F504B0304140006080800CC70623B449FB9BD290100001202000031
310
0000006662782F36394639363044362D344446342D343946362D394244322D3234314243333846323333332F636F72652E786D6C8D515B6EC32010BC0AE22B55850D98B871848994463E412FE002495162B07854397EA176A4F62F3F2C9A9D991D587EB84F37F0AD7D30CEF6905418026DA553C65E7A98E219ED203808EE9D
310
8B7F6810D871D23D2C3014FCE25D9A57483A1BB58D19B54EE9151C43D0110279CB971E06F9A5A7B11A53CC8C70ADE6515EC78BAE4895DB992778883E0700CB907242D17643D7E2538BD869608875438BBAE38922CAC8F1BDD90DB4691A5E2F42C153326A951B95E398B3D1FE599322163C9AE9115F7A3D46ADA0A018778810
310
84E907617BDCEE297BC5BB3DC6BC2EF47FA234AB2745C9D8D8D035EE220B50105E2F0DC1954B9FB747187D9F9D8FA0CCDB042D5FA0C015C65B42DF78BD10F3F3B363CB56C7109DCFDFBBB97E662ED92EB62D13BC2E1BCAE5777DB9966D8A1F504B0304140006080800CC70623BAD7543B64E01000033030000300000006662
310
782F36394639363044362D344446342D343946362D394244322D3234314243333846323333332F636E782E786D6CD593CD6EC32010845F0571AD6CE3D48AD20813A9873E410FBD12D82434182C7EAAE6EDBB2424CD25871E7B41D6EC30B3FA84F9E67BB2E40B4234DE8DB46F1925E094D7C6ED479AD3AE5951B2113C789FEE
310
6C943839C1488B4C05DF079FE72A69D8C96C13AAD6B8631503449F83828872B949AC57D26200B826A308D316B4064D6E46FCDA41C05550DC9E483A00797BFD207EFB092A45DE9514C1BBD22178396BD39D891265658C238DEA00936C654E5E433CB65A26D9F6EDB5EBC14EBF49A45CB856E66048291F6939A9A81BB5C89177
310
38143CA680F4AA299D66A042CEB3354A2684DC9D8D178FE0D9B8B41CAAD720F880EE7EF93C0C18769E099ECC04D5A102C8049A8A05632F4DDF376CF1DE0F6BB65C2F8627B65A33C6BB62177CEBBDAD973006829F89F22E814B54F4BC2BE347F8AA8F681390B50FA73F804400B5F542E796F19FF974E7F78DB802FE05E20750
310
4B0304140006080800CC70623B8D05915C650500003B100000340000006662782F36394639363044362D344446342D343946362D394244322D3234314243333846323333332F6F626A656374732E786D6CAD575B6FA33814FE2B887D06429276DA1565D4266D158D3A339A6846FB502932E050B66023DB74D2FDF5FB190C01
310
9276B2973C046C8ECFF53B17071F77456EBD502133CEAE6CDF9DD81665314F32965ED995DA3A17B6F5310C04E7AA47665B8C14F4CAD6DB7618A48257A5D94AE89654B91AEDDEDDFC61C998326A5B714EA4BCB265FC440BE2924AF184CA6737218AB8E976E7FA6E4338649B0A523E8D98964450A6A029F619B8588D52FE7039
310
B1BD30F0F4F730D0FF866AF6369557DB33949F31A9088B0F848DD8CCFCF9F2767A76E99CCDE733677E3EF59D9BBB9BA5E37F984D16E78BC5E5F5ED25044B25C0C96822E8D60EEFE11B91C581D77CEA34368A1F5329E68CD1B8B61F16D63A1B8E092D294B10C78C4A48EB593D192E7DED9BDEE7995E1B91FDEDD3ACEA9FE831
310
6A756F9F7D4D79F4274C90A7A04248AA51D5F8C718DAE06FB2F75AC4796EBE65D22A88A22223B995679120E2D50E41AA49C260C046A35368846B0BECD0DFF3EBEB8AD4F835768F69B9ADF25C43D30E6B646F807FAA64AD59F61715C7A54127C4AACA98BA3006A9D792DAE165E0D59B61A01FB3A9F9D838D2DAE62445C86166
310
F37564E842E7DE6A69879FEEA2DD5AE7E371E1A5E025154AC307D06A03D73EB5978C58FFA4C8E9033066E0F3BD53BEC1F39F91BE7B55103791EDE6BBB991A2046172CB4581D8B893FA674DDA17A77B3B7C413D1B511FD2743BFF8A38F03A658705E3ADF8015C3A3417FF3D7E439FF591DA0B5F18BC20C1B8981957AE6392A3
310
F43C640C01D1A0B4728E2DD4F26DB4B3C3152A252A3B4E913CEC1C72F012782FF88EFF8637AA552DBEF76408E8A8DE9E50F9E1CB3A2DA0DB1B6039A893B56063DC5B3E3FFB5F72E67AB9FEB4AEC496C4F4C1149625DD662C53E89D7BF0F6151A046260D1337DFDC94502430F83B0EE07A130A224BCAD7DAE1D9FB6CD422FF6
310
920702629C4BB9AE79C12F243C6432A6794E18E5552BA56B431AAB5D91317302B2B071E86C3A42B1A02F999E24061403B5D0EB639195DA655DD3EBEAB4FB862DDF579F014AD0E73C22F99E28DA57FB98E75C6CA2D74D53086D600F4786E0FE3144B771A8A7B900F03594DB8A633CBC49B2EDB69228BB479CF863B5E807AAAB
310
23872F6DFEB4129B949CA33823F58830E86D65621E10047D9DB34D862E8EAC3C2ABC2F7B2C40D67CDFE01F5545B92105AF983AC54D93D69E56FB8E797F88913F898A9FEC705D3F9D1B54EC8426FB500D40A03BD0119B06E1B95DDC7EB8F6975367793EBD70E66733DFB9BC982F9CE564727731999F5D4ECFCE3B8D6A4DC2A0
310
6D50FD148437D110834A64C6CDDF57FBACB5C307A2A477DFE4939736CFEF2B175371E0E10CF0DD1D5C15654E0BCA14D1E87DD02FF93782A162C0A3D95F1524A52770F972BF1EE9809D13CE7DD599467F8ECE9ADD85CE85A34CD45355448C64F9E8A031DC2D596ACC6E5DD93D9B82DE2EF5CAF81363A8E47996A0DE24564A79
310
4115AACE09C55E14540231FDA13C319787134EBF34E3A022514E5B4D9E0826E25C02D5805B15ABE1BEF51B26383D445DD9E875EE33FE4C22DA16427D65A3BCA92CA6D28DD01DF5DC53330704308475351050232CCD31583787BA75774AFB06E5070DD0C8EF484E19968C5D83BA5B90B244D31E54D55A372320FE4786B7EA58
310
44E135AA5467CB7EA333A61683CC6A8C3257034C10CF46F40EF9F5BE59BE5BD30C3C72D235E95D10345C1D45445A5F0BB47E46A5EBE5570F9380B5FA629579952296A773720405982B9DE04011506178964401AA8BDF1FBF0A8EAB6861DD6580C0E38217056766716DAEB2D6FA0917D3E4116581EADB879C4E7CFFB11EFACD
310
3D641311495D92C8676CB409A72D18610D803CE8A626049E8EC1887CB5B44CC39883690DDA8399B4B9855B481E7D71D4A9D22F96E5BB73BF5793020C02137BF837504B0304140006080000CC70623B000000000000000000000000350000006662782F36394639363044362D344446342D343946362D394244322D32343142
310
43333846323333332F76657274696365732E62696E504B0304140006080800CC70623BF270F1330600000004000000360000006662782F36394639363044362D344446342D343946362D394244322D3234314243333846323333332F747269616E676C65732E62696E636660600000504B0304140006080000CC70623B0000
310
00000000000000000000370000006662782F36394639363044362D344446342D343946362D394244322D3234314243333846323333332F617474726962757465732E62696E504B0304140006080800CC70623B08DA0BD19000000041010000360000006662782F36394639363044362D344446342D343946362D394244322D
310
3234314243333846323333332F6469726563746F72792E786D6C858F410AC3201045AF22B36F53E9A60B35CBEEBAE80D244E44489C6234F4F835464A48035D0DF398FF9F8AF63D0E6CC63039F212F8F9020C7D47C6792B21C5FE7403D62A1188E2E60C98D7234A5830286103A55745067B9D86B8A3CF9C7F90C11DE607FB14
310
4396D7B6A82D282E9A152AD114D5EF2CB866EEE831B8EEA07A7BB5A8D7D61A2BAAEB7FD5F70921FF497D00504B0304140006080800CC70623BCA768048FE000000A00100003B0000006662782F36394639363044362D344446342D343946362D394244322D3234314243333846323333332F7265736F75726365732F636F72
310
652E786D6C8D50596E833010BD0A9ADFCA60D600328E9AA639412F609909B1126CE4A5EAF16B0295DABFFECC8CDEA2797AECF8353F924FB44E193D409E5248504B332A3D0D10FC95B4901C39B3C6F85F3248B49871801506CE266BC2B243D2688FDA47549B11775038871E12F988C7004EDE7016A9083E2ADC3D5D84BC8B09
310
D33C8D74D471E6BC8D0192EDC93A815B742658898E651BCB59086ADC356A8C3FD555A1055ED7E7E254D615792D0F075295F585746FF53B694EE78A565DD736979A65AB9933AFE69F8CD2A2F038022F28ED489E135A7CE4554F9BBEA85E68DB53CAB255FEC71496F19FA6A0B42F8B3DEE6673C0F318E4497096AD7DC5F52C33
310
EEB55BFE0D504B010214000A0000080000CC70623B3DEE336E79000000790000001B00000000000000000000000000000000006175746F6465736B2D64657369676E2D7061636B6167652E786D6C504B01021400140006080800CC70623BD486FD9CA0000000F40000001300000000000000000000000000B20000005B436F
310
6E74656E745F54797065735D2E786D6C504B01021400140006080800CC70623BD9DDAED0EC0000007C010000080000000000000000000000000083010000636F72652E786D6C504B01021400140006080800CC70623B55019EA25F0000007C000000070000000000000000000000000095020000636E782E786D6C504B0102
310
1400140006080800CC70623BA24EB22D72010000D40300000C00000000000000000000000000190300006662782F636F72652E786D6C504B01021400140006080800CC70623B408A7D3B7C0000009D0000000B00000000000000000000000000B50400006662782F636E782E786D6C504B01021400140006080800CC70623B
310
449FB9BD290100001202000031000000000000000000000000005A0500006662782F36394639363044362D344446342D343946362D394244322D3234314243333846323333332F636F72652E786D6C504B01021400140006080800CC70623BAD7543B64E010000330300003000000000000000000000000000D20600006662
310
782F36394639363044362D344446342D343946362D394244322D3234314243333846323333332F636E782E786D6C504B01021400140006080800CC70623B8D05915C650500003B10000034000000000000000000000000006E0800006662782F36394639363044362D344446342D343946362D394244322D32343142433338
310
46323333332F6F626A656374732E786D6C504B01021400140006080000CC70623B0000000000000000000000003500000000000000000000000000250E00006662782F36394639363044362D344446342D343946362D394244322D3234314243333846323333332F76657274696365732E62696E504B010214001400060808
310
00CC70623BF270F13306000000040000003600000000000000000000000000780E00006662782F36394639363044362D344446342D343946362D394244322D3234314243333846323333332F747269616E676C65732E62696E504B01021400140006080000CC70623B00000000000000000000000037000000000000000000
310
00000000D20E00006662782F36394639363044362D344446342D343946362D394244322D3234314243333846323333332F617474726962757465732E62696E504B01021400140006080800CC70623B08DA0BD190000000410100003600000000000000000000000000270F00006662782F36394639363044362D344446342D
310
343946362D394244322D3234314243333846323333332F6469726563746F72792E786D6C504B01021400140006080800CC70623BCA768048FE000000A00100003B000000000000000000000000000B1000006662782F36394639363044362D344446342D343946362D394244322D3234314243333846323333332F7265736F
310
75726365732F636F72652E786D6C504B0506000000000E000E0080040000621100000000
  0
XRECORD
  5
10
102
{ACAD_REACTORS
330
C
102
}
330
C
100
AcDbXrecord
280
     1
270
     1
271
     1
  0
XRECORD
  5
11
102
{ACAD_REACTORS
330
C
102
}
330
C
100
AcDbXrecord
280
     1
270
     1
271
     1
  0
CELLSTYLEMAP
  5
272
102
{ACAD_REACTORS
330
44
102
}
330
44
100
AcDbCellStyleMap
 90
        3
300
CELLSTYLE
  1
TABLEFORMAT_BEGIN
 90
        5
170
     1
 91
        0
 92
    32768
 62
   257
 93
        1
300
CONTENTFORMAT
  1
CONTENTFORMAT_BEGIN
 90
        0
 91
        0
 92
      512
 93
        0
300

 40
0.0
140
1.0
 94
        5
 62
     0
340
24
144
6.0
309
CONTENTFORMAT_END
171
     1
301
MARGIN
  1
CELLMARGIN_BEGIN
 40
1.5
 40
1.5
 40
1.5
 40
1.5
 40
0.18
 40
0.18
309
CELLMARGIN_END
 94
        6
 95
        1
302
GRIDFORMAT
  1
GRIDFORMAT_BEGIN
 90
        0
 91
        1
 62
     0
 92
       -2
340
27
 93
        0
 40
1.125
309
GRIDFORMAT_END
 95
        2
302
GRIDFORMAT
  1
GRIDFORMAT_BEGIN
 90
        0
 91
        1
 62
     0
 92
       -2
340
27
 93
        0
 40
1.125
309
GRIDFORMAT_END
 95
        4
302
GRIDFORMAT
  1
GRIDFORMAT_BEGIN
 90
        0
 91
        1
 62
     0
 92
       -2
340
27
 93
        0
 40
1.125
309
GRIDFORMAT_END
 95
        8
302
GRIDFORMAT
  1
GRIDFORMAT_BEGIN
 90
        0
 91
        1
 62
     0
 92
       -2
340
27
 93
        0
 40
1.125
309
GRIDFORMAT_END
 95
       16
302
GRIDFORMAT
  1
GRIDFORMAT_BEGIN
 90
        0
 91
        1
 62
     0
 92
       -2
340
27
 93
        0
 40
1.125
309
GRIDFORMAT_END
 95
       32
302
GRIDFORMAT
  1
GRIDFORMAT_BEGIN
 90
        0
 91
        1
 62
     0
 92
       -2
340
27
 93
        0
 40
1.125
309
GRIDFORMAT_END
309
TABLEFORMAT_END
  1
CELLSTYLE_BEGIN
 90
        1
 91
        1
300
_TITLE
309
CELLSTYLE_END
300
CELLSTYLE
  1
TABLEFORMAT_BEGIN
 90
        5
170
     1
 91
        0
 92
        0
 62
   257
 93
        1
300
CONTENTFORMAT
  1
CONTENTFORMAT_BEGIN
 90
        0
 91
        0
 92
      512
 93
        0
300

 40
0.0
140
1.0
 94
        5
 62
     0
340
24
144
4.5
309
CONTENTFORMAT_END
171
     1
301
MARGIN
  1
CELLMARGIN_BEGIN
 40
1.5
 40
1.5
 40
1.5
 40
1.5
 40
0.18
 40
0.18
309
CELLMARGIN_END
 94
        6
 95
        1
302
GRIDFORMAT
  1
GRIDFORMAT_BEGIN
 90
        0
 91
        1
 62
     0
 92
       -2
340
27
 93
        0
 40
1.125
309
GRIDFORMAT_END
 95
        2
302
GRIDFORMAT
  1
GRIDFORMAT_BEGIN
 90
        0
 91
        1
 62
     0
 92
       -2
340
27
 93
        0
 40
1.125
309
GRIDFORMAT_END
 95
        4
302
GRIDFORMAT
  1
GRIDFORMAT_BEGIN
 90
        0
 91
        1
 62
     0
 92
       -2
340
27
 93
        0
 40
1.125
309
GRIDFORMAT_END
 95
        8
302
GRIDFORMAT
  1
GRIDFORMAT_BEGIN
 90
        0
 91
        1
 62
     0
 92
       -2
340
27
 93
        0
 40
1.125
309
GRIDFORMAT_END
 95
       16
302
GRIDFORMAT
  1
GRIDFORMAT_BEGIN
 90
        0
 91
        1
 62
     0
 92
       -2
340
27
 93
        0
 40
1.125
309
GRIDFORMAT_END
 95
       32
302
GRIDFORMAT
  1
GRIDFORMAT_BEGIN
 90
        0
 91
        1
 62
     0
 92
       -2
340
27
 93
        0
 40
1.125
309
GRIDFORMAT_END
309
TABLEFORMAT_END
  1
CELLSTYLE_BEGIN
 90
        2
 91
        1
300
_HEADER
309
CELLSTYLE_END
300
CELLSTYLE
  1
TABLEFORMAT_BEGIN
 90
        5
170
     1
 91
        0
 92
        0
 62
   257
 93
        1
300
CONTENTFORMAT
  1
CONTENTFORMAT_BEGIN
 90
        0
 91
        0
 92
      512
 93
        0
300

 40
0.0
140
1.0
 94
        2
 62
     0
340
24
144
4.5
309
CONTENTFORMAT_END
171
     1
301
MARGIN
  1
CELLMARGIN_BEGIN
 40
1.5
 40
1.5
 40
1.5
 40
1.5
 40
0.18
 40
0.18
309
CELLMARGIN_END
 94
        6
 95
        1
302
GRIDFORMAT
  1
GRIDFORMAT_BEGIN
 90
        0
 91
        1
 62
     0
 92
       -2
340
27
 93
        0
 40
1.125
309
GRIDFORMAT_END
 95
        2
302
GRIDFORMAT
  1
GRIDFORMAT_BEGIN
 90
        0
 91
        1
 62
     0
 92
       -2
340
27
 93
        0
 40
1.125
309
GRIDFORMAT_END
 95
        4
302
GRIDFORMAT
  1
GRIDFORMAT_BEGIN
 90
        0
 91
        1
 62
     0
 92
       -2
340
27
 93
        0
 40
1.125
309
GRIDFORMAT_END
 95
        8
302
GRIDFORMAT
  1
GRIDFORMAT_BEGIN
 90
        0
 91
        1
 62
     0
 92
       -2
340
27
 93
        0
 40
1.125
309
GRIDFORMAT_END
 95
       16
302
GRIDFORMAT
  1
GRIDFORMAT_BEGIN
 90
        0
 91
        1
 62
     0
 92
       -2
340
27
 93
        0
 40
1.125
309
GRIDFORMAT_END
 95
       32
302
GRIDFORMAT
  1
GRIDFORMAT_BEGIN
 90
        0
 91
        1
 62
     0
 92
       -2
340
27
 93
        0
 40
1.125
309
GRIDFORMAT_END
309
TABLEFORMAT_END
  1
CELLSTYLE_BEGIN
 90
        3
 91
        2
300
_DATA
309
CELLSTYLE_END
  0
XRECORD
  5
281
102
{ACAD_REACTORS
330
44
102
}
330
44
100
AcDbXrecord
280
     1
102
ACAD_ROUNDTRIP_PRE2007_TABLESTYLE
 90
      512
 91
        0
  1

 92
      512
 93
        0
  2

 94
      512
 95
        0
  3

  0
XRECORD
  5
27F
102
{ACAD_REACTORS
330
27E
102
}
330
27E
100
AcDbXrecord
280
     1
102
RTVSPost2010Prop28
280
     1
102
RTVSPost2010PropOp28
 70
     1
102
RTVSPost2010Prop29
280
     1
102
RTVSPost2010PropOp29
 70
     1
102
RTVSPost2010Prop30
280
     0
102
RTVSPost2010PropOp30
 70
     1
102
RTVSPost2010Prop31
280
     0
102
RTVSPost2010PropOp31
 70
     1
102
RTVSPost2010Prop32
280
     0
102
RTVSPost2010PropOp32
 70
     1
102
RTVSPost2010Prop33
280
     0
102
RTVSPost2010PropOp33
 70
     1
102
RTVSPost2010Prop34
280
     0
102
RTVSPost2010PropOp34
 70
     1
102
RTVSPost2010Prop35
280
     0
102
RTVSPost2010PropOp35
 70
     1
102
RTVSPost2010Prop36
280
     0
102
RTVSPost2010PropOp36
 70
     1
102
RTVSPost2010Prop37
 90
       50
102
RTVSPost2010PropOp37
 70
     1
102
RTVSPost2010Prop38
140
0.0
102
RTVSPost2010PropOp38
 70
     1
102
RTVSPost2010Prop39
140
1.0
102
RTVSPost2010PropOp39
 70
     1
102
RTVSPost2010Prop40
 90
        0
102
RTVSPost2010PropOp40
 70
     1
102
RTVSPost2010Prop41ColorIndex
 90
       18
102
RTVSPost2010Prop41ColorRGB
 90
-16777216
102
RTVSPost2010PropOp41
 70
     1
102
RTVSPost2010Prop42
 90
       50
102
RTVSPost2010PropOp42
 70
     1
102
RTVSPost2010Prop43
 90
        3
102
RTVSPost2010PropOp43
 70
     1
102
RTVSPost2010Prop44ColorIndex
 90
        5
102
RTVSPost2010Prop44ColorRGB
 90
      255
102
RTVSPost2010PropOp44
 70
     1
102
RTVSPost2010Prop45
280
     0
102
RTVSPost2010PropOp45
 70
     1
102
RTVSPost2010Prop46
 90
       50
102
RTVSPost2010PropOp46
 70
     1
102
RTVSPost2010Prop47
 90
       50
102
RTVSPost2010PropOp47
 70
     1
102
RTVSPost2010Prop48
 90
       50
102
RTVSPost2010PropOp48
 70
     1
102
RTVSPost2010Prop49
280
     0
102
RTVSPost2010PropOp49
 70
     1
102
RTVSPost2010Prop50
 90
       50
102
RTVSPost2010PropOp50
 70
     1
102
RTVSPost2010Prop51ColorIndex
 90
      256
102
RTVSPost2010Prop51ColorRGB
 90
-16777216
102
RTVSPost2010PropOp51
 70
     0
102
RTVSPost2010Prop52
140
1.0
102
RTVSPost2010PropOp52
 70
     0
102
RTVSPost2010Prop53
 90
        2
102
RTVSPost2010PropOp53
 70
     1
102
RTVSPost2010Prop54
  1
strokes_ogs.tif
102
RTVSPost2010PropOp54
 70
     1
102
RTVSPost2010Prop55
280
     0
102
RTVSPost2010PropOp55
 70
     1
102
RTVSPost2010Prop56
140
1.0
102
RTVSPost2010PropOp56
 70
     1
102
RTVSPost2010Prop57
140
1.0
102
RTVSPost2010PropOp57
 70
     1
102
RTVSPropertyOp0
 70
     1
102
RTVSPropertyOp1
 70
     1
102
RTVSPropertyOp2
 70
     1
102
RTVSPropertyOp3
 70
     1
102
RTVSPropertyOp4
 70
     1
102
RTVSPropertyOp5
 70
     1
102
RTVSPropertyOp6
 70
     1
102
RTVSPropertyOp7
 70
     1
102
RTVSPropertyOp8
 70
     1
102
RTVSPropertyOp9
 70
     1
102
RTVSPropertyOp10
 70
     1
102
RTVSPropertyOp11
 70
     1
102
RTVSPropertyOp12
 70
     1
102
RTVSPropertyOp13
 70
     1
102
RTVSPropertyOp14
 70
     1
102
RTVSPropertyOp15
 70
     1
102
RTVSPropertyOp16
 70
     1
102
RTVSPropertyOp17
 70
     1
102
RTVSPropertyOp18
 70
     1
102
RTVSPropertyOp19
 70
     1
102
RTVSPropertyOp20
 70
     1
102
RTVSPropertyOp21
 70
     1
102
RTVSPropertyOp22
 70
     1
102
RTVSPropertyOp23
 70
     1
102
RTVSPropertyOp24
 70
     1
102
RTVSPropertyOp25
 70
     1
102
RTVSPropertyOp26
 70
     1
102
RTVSPropertyOp27
 70
     1
102
RTVSPropertyOp28
 70
     1
102
RTVSPropertyOp29
 70
     1
102
RTVSPropertyOp30
 70
     1
102
RTVSPropertyOp31
 70
     1
102
RTVSPropertyOp32
 70
     1
102
RTVSPropertyOp33
 70
     1
102
RTVSPropertyOp34
 70
     1
102
RTVSPropertyOp35
 70
     1
102
RTVSPropertyOp36
 70
     1
102
RTVSPropertyOp37
 70
     1
102
RTVSPropertyOp38
 70
     1
102
RTVSPropertyOp39
 70
     1
102
RTVSPropertyOp40
 70
     1
102
RTVSPropertyOp41
 70
     1
102
RTVSPropertyOp42
 70
     1
102
RTVSPropertyOp43
 70
     1
102
RTVSPropertyOp44
 70
     1
102
RTVSPropertyOp45
 70
     1
102
RTVSPropertyOp46
 70
     1
102
RTVSPropertyOp47
 70
     1
102
RTVSPropertyOp48
 70
     1
102
RTVSPropertyOp49
 70
     1
102
RTVSPropertyOp50
 70
     1
102
RTVSPropertyOp51
 70
     0
102
RTVSPropertyOp52
 70
     0
102
RTVSPropertyOp53
 70
     1
102
RTVSPropertyOp54
 70
     1
102
RTVSPropertyOp55
 70
     1
102
RTVSPropertyOp56
 70
     1
102
RTVSPropertyOp57
 70
     1
102
RTVSPropertyOp58
 70
     1
102
RTVSPropertyOp59
 70
     1
102
RTVSPropertyOp60
 70
     1
102
RTVSPropertyOp61
 70
     1
102
RTVSPropertyOp62
 70
     1
  0
XRECORD
  5
283
102
{ACAD_REACTORS
330
282
102
}
330
282
100
AcDbXrecord
280
     1
102
RTVSPost2010Prop28
280
     0
102
RTVSPost2010PropOp28
 70
     1
102
RTVSPost2010Prop29
280
     1
102
RTVSPost2010PropOp29
 70
     1
102
RTVSPost2010Prop30
280
     1
102
RTVSPost2010PropOp30
 70
     1
102
RTVSPost2010Prop31
280
     0
102
RTVSPost2010PropOp31
 70
     1
102
RTVSPost2010Prop32
280
     0
102
RTVSPost2010PropOp32
 70
     1
102
RTVSPost2010Prop33
280
     0
102
RTVSPost2010PropOp33
 70
     1
102
RTVSPost2010Prop34
280
     0
102
RTVSPost2010PropOp34
 70
     1
102
RTVSPost2010Prop35
280
     0
102
RTVSPost2010PropOp35
 70
     1
102
RTVSPost2010Prop36
280
     0
102
RTVSPost2010PropOp36
 70
     1
102
RTVSPost2010Prop37
 90
       50
102
RTVSPost2010PropOp37
 70
     1
102
RTVSPost2010Prop38
140
0.0
102
RTVSPost2010PropOp38
 70
     1
102
RTVSPost2010Prop39
140
1.0
102
RTVSPost2010PropOp39
 70
     1
102
RTVSPost2010Prop40
 90
        0
102
RTVSPost2010PropOp40
 70
     1
102
RTVSPost2010Prop41ColorIndex
 90
       18
102
RTVSPost2010Prop41ColorRGB
 90
-16777216
102
RTVSPost2010PropOp41
 70
     1
102
RTVSPost2010Prop42
 90
       50
102
RTVSPost2010PropOp42
 70
     1
102
RTVSPost2010Prop43
 90
        3
102
RTVSPost2010PropOp43
 70
     1
102
RTVSPost2010Prop44ColorIndex
 90
        5
102
RTVSPost2010Prop44ColorRGB
 90
      255
102
RTVSPost2010PropOp44
 70
     1
102
RTVSPost2010Prop45
280
     0
102
RTVSPost2010PropOp45
 70
     1
102
RTVSPost2010Prop46
 90
       50
102
RTVSPost2010PropOp46
 70
     1
102
RTVSPost2010Prop47
 90
       50
102
RTVSPost2010PropOp47
 70
     1
102
RTVSPost2010Prop48
 90
       50
102
RTVSPost2010PropOp48
 70
     1
102
RTVSPost2010Prop49
280
     0
102
RTVSPost2010PropOp49
 70
     1
102
RTVSPost2010Prop50
 90
       50
102
RTVSPost2010PropOp50
 70
     1
102
RTVSPost2010Prop51ColorIndex
 90
      256
102
RTVSPost2010Prop51ColorRGB
 90
-16777216
102
RTVSPost2010PropOp51
 70
     0
102
RTVSPost2010Prop52
140
1.0
102
RTVSPost2010PropOp52
 70
     0
102
RTVSPost2010Prop53
 90
        2
102
RTVSPost2010PropOp53
 70
     1
102
RTVSPost2010Prop54
  1
strokes_ogs.tif
102
RTVSPost2010PropOp54
 70
     1
102
RTVSPost2010Prop55
280
     0
102
RTVSPost2010PropOp55
 70
     1
102
RTVSPost2010Prop56
140
1.0
102
RTVSPost2010PropOp56
 70
     1
102
RTVSPost2010Prop57
140
1.0
102
RTVSPost2010PropOp57
 70
     1
102
RTVSPropertyOp0
 70
     1
102
RTVSPropertyOp1
 70
     1
102
RTVSPropertyOp2
 70
     1
102
RTVSPropertyOp3
 70
     1
102
RTVSPropertyOp4
 70
     1
102
RTVSPropertyOp5
 70
     1
102
RTVSPropertyOp6
 70
     1
102
RTVSPropertyOp7
 70
     1
102
RTVSPropertyOp8
 70
     1
102
RTVSPropertyOp9
 70
     1
102
RTVSPropertyOp10
 70
     1
102
RTVSPropertyOp11
 70
     1
102
RTVSPropertyOp12
 70
     1
102
RTVSPropertyOp13
 70
     1
102
RTVSPropertyOp14
 70
     1
102
RTVSPropertyOp15
 70
     1
102
RTVSPropertyOp16
 70
     1
102
RTVSPropertyOp17
 70
     1
102
RTVSPropertyOp18
 70
     1
102
RTVSPropertyOp19
 70
     1
102
RTVSPropertyOp20
 70
     1
102
RTVSPropertyOp21
 70
     1
102
RTVSPropertyOp22
 70
     1
102
RTVSPropertyOp23
 70
     1
102
RTVSPropertyOp24
 70
     1
102
RTVSPropertyOp25
 70
     1
102
RTVSPropertyOp26
 70
     1
102
RTVSPropertyOp27
 70
     1
102
RTVSPropertyOp28
 70
     1
102
RTVSPropertyOp29
 70
     1
102
RTVSPropertyOp30
 70
     1
102
RTVSPropertyOp31
 70
     1
102
RTVSPropertyOp32
 70
     1
102
RTVSPropertyOp33
 70
     1
102
RTVSPropertyOp34
 70
     1
102
RTVSPropertyOp35
 70
     1
102
RTVSPropertyOp36
 70
     1
102
RTVSPropertyOp37
 70
     1
102
RTVSPropertyOp38
 70
     1
102
RTVSPropertyOp39
 70
     1
102
RTVSPropertyOp40
 70
     1
102
RTVSPropertyOp41
 70
     1
102
RTVSPropertyOp42
 70
     1
102
RTVSPropertyOp43
 70
     1
102
RTVSPropertyOp44
 70
     1
102
RTVSPropertyOp45
 70
     1
102
RTVSPropertyOp46
 70
     1
102
RTVSPropertyOp47
 70
     1
102
RTVSPropertyOp48
 70
     1
102
RTVSPropertyOp49
 70
     1
102
RTVSPropertyOp50
 70
     1
102
RTVSPropertyOp51
 70
     0
102
RTVSPropertyOp52
 70
     0
102
RTVSPropertyOp53
 70
     1
102
RTVSPropertyOp54
 70
     1
102
RTVSPropertyOp55
 70
     1
102
RTVSPropertyOp56
 70
     1
102
RTVSPropertyOp57
 70
     1
102
RTVSPropertyOp58
 70
     1
102
RTVSPropertyOp59
 70
     1
102
RTVSPropertyOp60
 70
     1
102
RTVSPropertyOp61
 70
     1
102
RTVSPropertyOp62
 70
     1
  0
XRECORD
  5
285
102
{ACAD_REACTORS
330
284
102
}
330
284
100
AcDbXrecord
280
     1
102
RTVSPost2010Prop28
280
     0
102
RTVSPost2010PropOp28
 70
     1
102
RTVSPost2010Prop29
280
     1
102
RTVSPost2010PropOp29
 70
     1
102
RTVSPost2010Prop30
280
     1
102
RTVSPost2010PropOp30
 70
     1
102
RTVSPost2010Prop31
280
     0
102
RTVSPost2010PropOp31
 70
     1
102
RTVSPost2010Prop32
280
     0
102
RTVSPost2010PropOp32
 70
     1
102
RTVSPost2010Prop33
280
     0
102
RTVSPost2010PropOp33
 70
     1
102
RTVSPost2010Prop34
280
     0
102
RTVSPost2010PropOp34
 70
     1
102
RTVSPost2010Prop35
280
     0
102
RTVSPost2010PropOp35
 70
     1
102
RTVSPost2010Prop36
280
     0
102
RTVSPost2010PropOp36
 70
     1
102
RTVSPost2010Prop37
 90
       50
102
RTVSPost2010PropOp37
 70
     1
102
RTVSPost2010Prop38
140
0.0
102
RTVSPost2010PropOp38
 70
     1
102
RTVSPost2010Prop39
140
1.0
102
RTVSPost2010PropOp39
 70
     1
102
RTVSPost2010Prop40
 90
        0
102
RTVSPost2010PropOp40
 70
     1
102
RTVSPost2010Prop41ColorIndex
 90
       18
102
RTVSPost2010Prop41ColorRGB
 90
-16777216
102
RTVSPost2010PropOp41
 70
     1
102
RTVSPost2010Prop42
 90
       50
102
RTVSPost2010PropOp42
 70
     1
102
RTVSPost2010Prop43
 90
        3
102
RTVSPost2010PropOp43
 70
     1
102
RTVSPost2010Prop44ColorIndex
 90
        5
102
RTVSPost2010Prop44ColorRGB
 90
      255
102
RTVSPost2010PropOp44
 70
     1
102
RTVSPost2010Prop45
280
     0
102
RTVSPost2010PropOp45
 70
     1
102
RTVSPost2010Prop46
 90
       50
102
RTVSPost2010PropOp46
 70
     1
102
RTVSPost2010Prop47
 90
       50
102
RTVSPost2010PropOp47
 70
     1
102
RTVSPost2010Prop48
 90
       50
102
RTVSPost2010PropOp48
 70
     1
102
RTVSPost2010Prop49
280
     0
102
RTVSPost2010PropOp49
 70
     1
102
RTVSPost2010Prop50
 90
       50
102
RTVSPost2010PropOp50
 70
     1
102
RTVSPost2010Prop51ColorIndex
 90
      256
102
RTVSPost2010Prop51ColorRGB
 90
-16777216
102
RTVSPost2010PropOp51
 70
     0
102
RTVSPost2010Prop52
140
1.0
102
RTVSPost2010PropOp52
 70
     0
102
RTVSPost2010Prop53
 90
        2
102
RTVSPost2010PropOp53
 70
     1
102
RTVSPost2010Prop54
  1
strokes_ogs.tif
102
RTVSPost2010PropOp54
 70
     1
102
RTVSPost2010Prop55
280
     0
102
RTVSPost2010PropOp55
 70
     1
102
RTVSPost2010Prop56
140
1.0
102
RTVSPost2010PropOp56
 70
     1
102
RTVSPost2010Prop57
140
1.0
102
RTVSPost2010PropOp57
 70
     1
102
RTVSPropertyOp0
 70
     1
102
RTVSPropertyOp1
 70
     1
102
RTVSPropertyOp2
 70
     1
102
RTVSPropertyOp3
 70
     1
102
RTVSPropertyOp4
 70
     1
102
RTVSPropertyOp5
 70
     1
102
RTVSPropertyOp6
 70
     1
102
RTVSPropertyOp7
 70
     1
102
RTVSPropertyOp8
 70
     1
102
RTVSPropertyOp9
 70
     1
102
RTVSPropertyOp10
 70
     1
102
RTVSPropertyOp11
 70
     1
102
RTVSPropertyOp12
 70
     1
102
RTVSPropertyOp13
 70
     1
102
RTVSPropertyOp14
 70
     1
102
RTVSPropertyOp15
 70
     1
102
RTVSPropertyOp16
 70
     1
102
RTVSPropertyOp17
 70
     1
102
RTVSPropertyOp18
 70
     1
102
RTVSPropertyOp19
 70
     1
102
RTVSPropertyOp20
 70
     1
102
RTVSPropertyOp21
 70
     1
102
RTVSPropertyOp22
 70
     1
102
RTVSPropertyOp23
 70
     1
102
RTVSPropertyOp24
 70
     1
102
RTVSPropertyOp25
 70
     1
102
RTVSPropertyOp26
 70
     1
102
RTVSPropertyOp27
 70
     1
102
RTVSPropertyOp28
 70
     1
102
RTVSPropertyOp29
 70
     1
102
RTVSPropertyOp30
 70
     1
102
RTVSPropertyOp31
 70
     1
102
RTVSPropertyOp32
 70
     1
102
RTVSPropertyOp33
 70
     1
102
RTVSPropertyOp34
 70
     1
102
RTVSPropertyOp35
 70
     1
102
RTVSPropertyOp36
 70
     1
102
RTVSPropertyOp37
 70
     1
102
RTVSPropertyOp38
 70
     1
102
RTVSPropertyOp39
 70
     1
102
RTVSPropertyOp40
 70
     1
102
RTVSPropertyOp41
 70
     1
102
RTVSPropertyOp42
 70
     1
102
RTVSPropertyOp43
 70
     1
102
RTVSPropertyOp44
 70
     1
102
RTVSPropertyOp45
 70
     1
102
RTVSPropertyOp46
 70
     1
102
RTVSPropertyOp47
 70
     1
102
RTVSPropertyOp48
 70
     1
102
RTVSPropertyOp49
 70
     1
102
RTVSPropertyOp50
 70
     1
102
RTVSPropertyOp51
 70
     0
102
RTVSPropertyOp52
 70
     0
102
RTVSPropertyOp53
 70
     1
102
RTVSPropertyOp54
 70
     1
102
RTVSPropertyOp55
 70
     1
102
RTVSPropertyOp56
 70
     1
102
RTVSPropertyOp57
 70
     1
102
RTVSPropertyOp58
 70
     1
102
RTVSPropertyOp59
 70
     1
102
RTVSPropertyOp60
 70
     1
102
RTVSPropertyOp61
 70
     1
102
RTVSPropertyOp62
 70
     1
  0
ENDSEC
  0
EOF
