  0
SECTION
  2
HEADER
  9
$ACADVER
  1
AC1018
  9
$ACADMAINTVER
 70
   104
  9
$DWGCODEPAGE
  3
ANSI_932
  9
$INSBASE
 10
0.0
 20
0.0
 30
0.0
  9
$EXTMIN
 10
13.69645633478696
 20
12.30933214668735
 30
-0.0015258207003583
  9
$EXTMAX
 10
63.70359747871154
 20
33.39903658280413
 30
0.0000000349246037
  9
$LIMMIN
 10
8.678965719815096
 20
6.775127324414825
  9
$LIMMAX
 10
68.10897755637597
 20
37.93938596463978
  9
$ORTHOMODE
 70
     0
  9
$REGENMODE
 70
     1
  9
$FILLMODE
 70
     1
  9
$QTEXTMODE
 70
     0
  9
$MIRRTEXT
 70
     0
  9
$LTSCALE
 40
1.0
  9
$ATTMODE
 70
     1
  9
$TEXTSIZE
 40
2.5
  9
$TRACEWID
 40
1.0
  9
$TEXTSTYLE
  7
Standard
  9
$CLAYER
  8
0
  9
$CELTYPE
  6
ByLayer
  9
$CECOLOR
 62
   256
  9
$CELTSCALE
 40
1.0
  9
$DISPSILH
 70
     0
  9
$DIMSCALE
 40
1.0
  9
$DIMASZ
 40
2.5
  9
$DIMEXO
 40
0.625
  9
$DIMDLI
 40
3.75
  9
$DIMRND
 40
0.0
  9
$DIMDLE
 40
0.0
  9
$DIMEXE
 40
1.25
  9
$DIMTP
 40
0.0
  9
$DIMTM
 40
0.0
  9
$DIMTXT
 40
2.5
  9
$DIMCEN
 40
2.5
  9
$DIMTSZ
 40
0.0
  9
$DIMTOL
 70
     0
  9
$DIMLIM
 70
     0
  9
$DIMTIH
 70
     0
  9
$DIMTOH
 70
     0
  9
$DIMSE1
 70
     0
  9
$DIMSE2
 70
     0
  9
$DIMTAD
 70
     1
  9
$DIMZIN
 70
     8
  9
$DIMBLK
  1

  9
$DIMASO
 70
     1
  9
$DIMSHO
 70
     1
  9
$DIMPOST
  1

  9
$DIMAPOST
  1

  9
$DIMALT
 70
     0
  9
$DIMALTD
 70
     3
  9
$DIMALTF
 40
0.03937007874016
  9
$DIMLFAC
 40
1.0
  9
$DIMTOFL
 70
     1
  9
$DIMTVP
 40
0.0
  9
$DIMTIX
 70
     0
  9
$DIMSOXD
 70
     0
  9
$DIMSAH
 70
     0
  9
$DIMBLK1
  1

  9
$DIMBLK2
  1

  9
$DIMSTYLE
  2
ISO-25
  9
$DIMCLRD
 70
     0
  9
$DIMCLRE
 70
     0
  9
$DIMCLRT
 70
     0
  9
$DIMTFAC
 40
1.0
  9
$DIMGAP
 40
0.625
  9
$DIMJUST
 70
     0
  9
$DIMSD1
 70
     0
  9
$DIMSD2
 70
     0
  9
$DIMTOLJ
 70
     0
  9
$DIMTZIN
 70
     8
  9
$DIMALTZ
 70
     0
  9
$DIMALTTZ
 70
     0
  9
$DIMUPT
 70
     0
  9
$DIMDEC
 70
     2
  9
$DIMTDEC
 70
     2
  9
$DIMALTU
 70
     2
  9
$DIMALTTD
 70
     3
  9
$DIMTXSTY
  7
Standard
  9
$DIMAUNIT
 70
     0
  9
$DIMADEC
 70
     0
  9
$DIMALTRND
 40
0.0
  9
$DIMAZIN
 70
     0
  9
$DIMDSEP
 70
    44
  9
$DIMATFIT
 70
     3
  9
$DIMFRAC
 70
     0
  9
$DIMLDRBLK
  1

  9
$DIMLUNIT
 70
     2
  9
$DIMLWD
 70
    -2
  9
$DIMLWE
 70
    -2
  9
$DIMTMOVE
 70
     0
  9
$LUNITS
 70
     2
  9
$LUPREC
 70
     4
  9
$SKETCHINC
 40
1.0
  9
$FILLETRAD
 40
0.0
  9
$AUNITS
 70
     0
  9
$AUPREC
 70
     0
  9
$MENU
  1
.
  9
$ELEVATION
 40
0.0
  9
$PELEVATION
 40
0.0
  9
$THICKNESS
 40
0.0
  9
$LIMCHECK
 70
     0
  9
$CHAMFERA
 40
0.0
  9
$CHAMFERB
 40
0.0
  9
$CHAMFERC
 40
0.0
  9
$CHAMFERD
 40
0.0
  9
$SKPOLY
 70
     0
  9
$TDCREATE
 40
2458226.642118055
  9
$TDUCREATE
 40
2458226.308784722
  9
$TDUPDATE
 40
2458226.642372685
  9
$TDUUPDATE
 40
2458226.309039352
  9
$TDINDWG
 40
0.0009375000
  9
$TDUSRTIMER
 40
0.0009375000
  9
$USRTIMER
 70
     1
  9
$ANGBASE
 50
0.0
  9
$ANGDIR
 70
     0
  9
$PDMODE
 70
     0
  9
$PDSIZE
 40
0.0
  9
$PLINEWID
 40
0.0
  9
$SPLFRAME
 70
     0
  9
$SPLINETYPE
 70
     6
  9
$SPLINESEGS
 70
     8
  9
$HANDSEED
  5
242
  9
$SURFTAB1
 70
     6
  9
$SURFTAB2
 70
     6
  9
$SURFTYPE
 70
     6
  9
$SURFU
 70
     6
  9
$SURFV
 70
     6
  9
$UCSBASE
  2

  9
$UCSNAME
  2

  9
$UCSORG
 10
0.0
 20
0.0
 30
0.0
  9
$UCSXDIR
 10
1.0
 20
0.0
 30
0.0
  9
$UCSYDIR
 10
0.0
 20
1.0
 30
0.0
  9
$UCSORTHOREF
  2

  9
$UCSORTHOVIEW
 70
     0
  9
$UCSORGTOP
 10
0.0
 20
0.0
 30
0.0
  9
$UCSORGBOTTOM
 10
0.0
 20
0.0
 30
0.0
  9
$UCSORGLEFT
 10
0.0
 20
0.0
 30
0.0
  9
$UCSORGRIGHT
 10
0.0
 20
0.0
 30
0.0
  9
$UCSORGFRONT
 10
0.0
 20
0.0
 30
0.0
  9
$UCSORGBACK
 10
0.0
 20
0.0
 30
0.0
  9
$PUCSBASE
  2

  9
$PUCSNAME
  2

  9
$PUCSORG
 10
0.0
 20
0.0
 30
0.0
  9
$PUCSXDIR
 10
1.0
 20
0.0
 30
0.0
  9
$PUCSYDIR
 10
0.0
 20
1.0
 30
0.0
  9
$PUCSORTHOREF
  2

  9
$PUCSORTHOVIEW
 70
     0
  9
$PUCSORGTOP
 10
0.0
 20
0.0
 30
0.0
  9
$PUCSORGBOTTOM
 10
0.0
 20
0.0
 30
0.0
  9
$PUCSORGLEFT
 10
0.0
 20
0.0
 30
0.0
  9
$PUCSORGRIGHT
 10
0.0
 20
0.0
 30
0.0
  9
$PUCSORGFRONT
 10
0.0
 20
0.0
 30
0.0
  9
$PUCSORGBACK
 10
0.0
 20
0.0
 30
0.0
  9
$USERI1
 70
     0
  9
$USERI2
 70
     0
  9
$USERI3
 70
     0
  9
$USERI4
 70
     0
  9
$USERI5
 70
     0
  9
$USERR1
 40
0.0
  9
$USERR2
 40
0.0
  9
$USERR3
 40
0.0
  9
$USERR4
 40
0.0
  9
$USERR5
 40
0.0
  9
$WORLDVIEW
 70
     1
  9
$SHADEDGE
 70
     3
  9
$SHADEDIF
 70
    70
  9
$TILEMODE
 70
     1
  9
$MAXACTVP
 70
    64
  9
$PINSBASE
 10
0.0
 20
0.0
 30
0.0
  9
$PLIMCHECK
 70
     0
  9
$PEXTMIN
 10
0.0
 20
0.0
 30
0.0
  9
$PEXTMAX
 10
0.0
 20
0.0
 30
0.0
  9
$PLIMMIN
 10
0.0
 20
0.0
  9
$PLIMMAX
 10
12.0
 20
9.0
  9
$UNITMODE
 70
     0
  9
$VISRETAIN
 70
     1
  9
$PLINEGEN
 70
     0
  9
$PSLTSCALE
 70
     1
  9
$TREEDEPTH
 70
  3020
  9
$CMLSTYLE
  2
Standard
  9
$CMLJUST
 70
     0
  9
$CMLSCALE
 40
20.0
  9
$PROXYGRAPHICS
 70
     1
  9
$MEASUREMENT
 70
     1
  9
$CELWEIGHT
370
    -1
  9
$ENDCAPS
280
     0
  9
$JOINSTYLE
280
     0
  9
$LWDISPLAY
290
     0
  9
$INSUNITS
 70
     4
  9
$HYPERLINKBASE
  1

  9
$STYLESHEET
  1

  9
$XEDIT
290
     1
  9
$CEPSNTYPE
380
     0
  9
$PSTYLEMODE
290
     1
  9
$FINGERPRINTGUID
  2
{45696F7F-1F01-E648-922E-BFC7B4E55F34}
  9
$VERSIONGUID
  2
{3C0F0328-7C23-244C-8635-448A03D89430}
  9
$EXTNAMES
290
     1
  9
$PSVPSCALE
 40
0.0
  9
$OLESTARTUP
290
     0
  9
$SORTENTS
280
   127
  9
$INDEXCTL
280
     0
  9
$HIDETEXT
280
     1
  9
$XCLIPFRAME
290
     0
  9
$HALOGAP
280
     0
  9
$OBSCOLOR
 70
   257
  9
$OBSLTYPE
280
     0
  9
$INTERSECTIONDISPLAY
280
     0
  9
$INTERSECTIONCOLOR
 70
   257
  9
$DIMASSOC
280
     2
  9
$PROJECTNAME
  1

  0
ENDSEC
  0
SECTION
  2
CLASSES
  0
CLASS
  1
ACDBDICTIONARYWDFLT
  2
AcDbDictionaryWithDefault
  3
ObjectDBX Classes
 90
        0
 91
        1
280
     0
281
     0
  0
CLASS
  1
DICTIONARYVAR
  2
AcDbDictionaryVar
  3
ObjectDBX Classes
 90
        0
 91
       12
280
     0
281
     0
  0
CLASS
  1
TABLESTYLE
  2
AcDbTableStyle
  3
ObjectDBX Classes
 90
     4095
 91
        1
280
     0
281
     0
  0
CLASS
  1
MATERIAL
  2
AcDbMaterial
  3
ObjectDBX Classes
 90
     1153
 91
        3
280
     0
281
     0
  0
CLASS
  1
VISUALSTYLE
  2
AcDbVisualStyle
  3
ObjectDBX Classes
 90
     4095
 91
        3
280
     0
281
     0
  0
CLASS
  1
SCALE
  2
AcDbScale
  3
ObjectDBX Classes
 90
     1153
 91
       17
280
     0
281
     0
  0
CLASS
  1
MLEADERSTYLE
  2
AcDbMLeaderStyle
  3
ACDB_MLEADERSTYLE_CLASS
 90
     4095
 91
        0
280
     0
281
     0
  0
CLASS
  1
CELLSTYLEMAP
  2
AcDbCellStyleMap
  3
ObjectDBX Classes
 90
     1152
 91
        1
280
     0
281
     0
  0
CLASS
  1
EXACXREFPANELOBJECT
  2
ExAcXREFPanelObject
  3
EXAC_ESW
 90
     1025
 91
        0
280
     1
281
     0
  0
CLASS
  1
NPOCOLLECTION
  2
AcDbImpNonPersistentObjectsCollection
  3
ObjectDBX Classes
 90
     1153
 91
        0
280
     0
281
     0
  0
CLASS
  1
LAYER_INDEX
  2
AcDbLayerIndex
  3
ObjectDBX Classes
 90
        0
 91
        0
280
     0
281
     0
  0
CLASS
  1
SPATIAL_INDEX
  2
AcDbSpatialIndex
  3
ObjectDBX Classes
 90
        0
 91
        0
280
     0
281
     0
  0
CLASS
  1
IDBUFFER
  2
AcDbIdBuffer
  3
ObjectDBX Classes
 90
        0
 91
        0
280
     0
281
     0
  0
CLASS
  1
ACDBSECTIONVIEWSTYLE
  2
AcDbSectionViewStyle
  3
ObjectDBX Classes
 90
     1025
 91
        0
280
     0
281
     0
  0
CLASS
  1
ACDBDETAILVIEWSTYLE
  2
AcDbDetailViewStyle
  3
ObjectDBX Classes
 90
     1025
 91
        0
280
     0
281
     0
  0
CLASS
  1
SORTENTSTABLE
  2
AcDbSortentsTable
  3
ObjectDBX Classes
 90
        0
 91
        2
280
     0
281
     0
  0
ENDSEC
  0
SECTION
  2
TABLES
  0
TABLE
  2
VPORT
  5
2E
330
0
100
AcDbSymbolTable
 70
     1
  0
VPORT
  5
2F
330
2E
100
AcDbSymbolTableRecord
100
AcDbViewportTableRecord
  2
*Active
 70
     0
 10
0.0
 20
0.0
 11
1.0
 21
1.0
 12
38.39397163809554
 22
22.3572566445273
 13
0.0
 23
0.0
 14
10.0
 24
10.0
 15
10.0
 25
10.0
 16
0.0
 26
0.0
 36
1.0
 17
0.0
 27
0.0
 37
0.0
 40
31.43723024875247
 41
2.326023391812865
 42
50.0
 43
0.0
 44
0.0
 50
0.0
 51
0.0
 71
     0
 72
  1000
 73
     1
 74
     3
 75
     0
 76
     1
 77
     0
 78
     0
281
     0
 65
     1
110
0.0
120
0.0
130
0.0
111
1.0
121
0.0
131
0.0
112
0.0
122
1.0
132
0.0
 79
     0
146
0.0
1001
ACAD_NAV_VCDISPLAY
1070
     3
  0
ENDTAB
  0
TABLE
  2
LTYPE
  5
29
330
0
100
AcDbSymbolTable
 70
     1
  0
LTYPE
  5
2A
330
29
100
AcDbSymbolTableRecord
100
AcDbLinetypeTableRecord
  2
ByBlock
 70
     0
  3

 72
    65
 73
     0
 40
0.0
  0
LTYPE
  5
2B
330
29
100
AcDbSymbolTableRecord
100
AcDbLinetypeTableRecord
  2
ByLayer
 70
     0
  3

 72
    65
 73
     0
 40
0.0
  0
LTYPE
  5
15
330
29
100
AcDbSymbolTableRecord
100
AcDbLinetypeTableRecord
  2
Continuous
 70
     0
  3
Solid line
 72
    65
 73
     0
 40
0.0
  0
ENDTAB
  0
TABLE
  2
LAYER
  5
23
102
{ACAD_XDICTIONARY
360
24
102
}
330
0
100
AcDbSymbolTable
 70
     1
  0
LAYER
  5
6
102
{ACAD_XDICTIONARY
360
7
102
}
330
23
100
AcDbSymbolTableRecord
100
AcDbLayerTableRecord
  2
0
 70
     0
 62
     7
  6
Continuous
370
    -3
390
8
  0
ENDTAB
  0
TABLE
  2
STYLE
  5
26
330
0
100
AcDbSymbolTable
 70
     1
  0
STYLE
  5
27
330
26
100
AcDbSymbolTableRecord
100
AcDbTextStyleTableRecord
  2
Standard
 70
     0
 40
0.0
 41
1.0
 50
0.0
 71
     0
 42
2.5
  3
arial.ttf
  4

1001
ACAD
1000
Arial
1071
       34
  0
ENDTAB
  0
TABLE
  2
VIEW
  5
2C
330
0
100
AcDbSymbolTable
 70
     0
  0
ENDTAB
  0
TABLE
  2
UCS
  5
2D
330
0
100
AcDbSymbolTable
 70
     0
  0
ENDTAB
  0
TABLE
  2
APPID
  5
33
330
0
100
AcDbSymbolTable
 70
     6
  0
APPID
  5
14
330
33
100
AcDbSymbolTableRecord
100
AcDbRegAppTableRecord
  2
ACAD
 70
     0
  0
APPID
  5
1E
330
33
100
AcDbSymbolTableRecord
100
AcDbRegAppTableRecord
  2
ACAD_PSEXT
 70
     0
  0
APPID
  5
37
330
33
100
AcDbSymbolTableRecord
100
AcDbRegAppTableRecord
  2
AcadAnnotative
 70
     0
  0
APPID
  5
38
330
33
100
AcDbSymbolTableRecord
100
AcDbRegAppTableRecord
  2
ACAD_DSTYLE_DIMJAG
 70
     0
  0
APPID
  5
39
330
33
100
AcDbSymbolTableRecord
100
AcDbRegAppTableRecord
  2
ACAD_DSTYLE_DIMTALN
 70
     0
  0
APPID
  5
32
330
33
100
AcDbSymbolTableRecord
100
AcDbRegAppTableRecord
  2
ACAD_NAV_VCDISPLAY
 70
     0
  0
ENDTAB
  0
TABLE
  2
DIMSTYLE
  5
34
330
0
100
AcDbSymbolTable
 70
     2
100
AcDbDimStyleTable
 71
     2
340
35
340
36
  0
DIMSTYLE
105
36
330
34
100
AcDbSymbolTableRecord
100
AcDbDimStyleTableRecord
  2
Annotative
 70
     0
 40
0.0
 41
2.5
 42
0.625
 43
3.75
 44
1.25
 73
     0
 74
     0
 77
     1
 78
     8
140
2.5
141
2.5
143
0.03937007874016
147
0.625
171
     3
172
     1
271
     2
272
     2
274
     3
278
    44
283
     0
284
     8
340
27
1001
AcadAnnotative
1000
AnnotativeData
1002
{
1070
     1
1070
     1
1002
}
1001
ACAD_DSTYLE_DIMJAG
1070
   388
1040
1.5
1001
ACAD_DSTYLE_DIMTALN
1070
   392
1070
     0
  0
DIMSTYLE
105
35
330
34
100
AcDbSymbolTableRecord
100
AcDbDimStyleTableRecord
  2
ISO-25
 70
     0
 41
2.5
 42
0.625
 43
3.75
 44
1.25
 73
     0
 74
     0
 77
     1
 78
     8
140
2.5
141
2.5
143
0.03937007874016
147
0.625
171
     3
172
     1
271
     2
272
     2
274
     3
278
    44
283
     0
284
     8
340
27
  0
ENDTAB
  0
TABLE
  2
BLOCK_RECORD
  5
1
330
0
100
AcDbSymbolTable
 70
     0
  0
BLOCK_RECORD
  5
2
102
{ACAD_XDICTIONARY
360
3
102
}
330
1
100
AcDbSymbolTableRecord
100
AcDbBlockTableRecord
  2
*Model_Space
340
1B
  0
BLOCK_RECORD
  5
1F
330
1
100
AcDbSymbolTableRecord
100
AcDbBlockTableRecord
  2
*Paper_Space
340
22
  0
ENDTAB
  0
ENDSEC
  0
SECTION
  2
BLOCKS
  0
BLOCK
  5
5
330
2
100
AcDbEntity
  8
0
100
AcDbBlockBegin
  2
*Model_Space
 70
     0
 10
0.0
 20
0.0
 30
0.0
  3
*Model_Space
  1

  0
ENDBLK
  5
1A
330
2
100
AcDbEntity
  8
0
100
AcDbBlockEnd
  0
BLOCK
  5
20
330
1F
100
AcDbEntity
 67
     1
  8
0
100
AcDbBlockBegin
  2
*Paper_Space
 70
     0
 10
0.0
 20
0.0
 30
0.0
  3
*Paper_Space
  1

  0
ENDBLK
  5
21
330
1F
100
AcDbEntity
 67
     1
  8
0
100
AcDbBlockEnd
  0
ENDSEC
  0
SECTION
  2
ENTITIES
  0
LINE
  5
5C
330
2
100
AcDbEntity
  8
0
100
AcDbLine
 10
63.65998941183103
 20
25.28339472212491
 30
0.0
 11
62.5935687202848
 21
26.20694213214193
 31
0.0
  0
LINE
  5
5D
330
2
100
AcDbEntity
  8
0
100
AcDbLine
 10
63.62384167432515
 20
24.94201371323533
 30
0.0
 11
63.64104889063436
 21
24.95106386263838
 31
0.0
  0
LINE
  5
5E
330
2
100
AcDbEntity
  8
0
100
AcDbLine
 10
39.16632524006786
 20
26.20694213214193
 30
0.0
 11
38.09990454852152
 21
25.28339472212491
 31
0.0
  0
LINE
  5
5F
330
2
100
AcDbEntity
  8
0
100
AcDbLine
 10
38.11884506971819
 20
24.95106386263838
 30
0.0
 11
38.13605228602728
 21
24.94201371323533
 31
0.0
  0
LINE
  5
60
330
2
100
AcDbEntity
  8
0
100
AcDbLine
 10
47.57385510488926
 20
31.60608022247328
 30
0.0
 11
47.57385510488926
 21
26.78689531360465
 31
0.0
  0
SPLINE
  5
61
330
2
100
AcDbEntity
  8
0
100
AcDbSpline
210
0.0
220
0.0
230
1.0
 70
     8
 71
     3
 72
    12
 73
     8
 74
     0
 42
0.000000001
 43
0.0000000001
 40
0.0
 40
0.0
 40
0.0
 40
0.0
 40
0.1814292812455421
 40
0.4157921650615058
 40
0.6513173281689835
 40
0.8893818971947961
 40
1.0
 40
1.0
 40
1.0
 40
1.0
 10
49.88207960992361
 20
32.75060028662199
 30
0.0
 10
49.85542732611246
 20
32.76994341511995
 30
0.0
 10
49.78954675401826
 20
32.81704027975877
 30
0.0
 10
49.67039405515346
 20
32.85771873695649
 30
0.0
 10
49.53179950629806
 20
32.87451300308499
 30
0.0
 10
49.41160713876911
 20
32.86367379903379
 30
0.0
 10
49.33988221684717
 20
32.8449806478236
 30
0.0
 10
49.31712778874453
 20
32.83905032466913
 30
0.0
  0
LINE
  5
62
330
2
100
AcDbEntity
  8
0
100
AcDbLine
 10
49.93781043211697
 20
32.70291225060083
 30
0.0
 11
49.89781965618397
 21
32.73754527849514
 31
0.0
  0
LINE
  5
63
330
2
100
AcDbEntity
  8
0
100
AcDbLine
 10
49.31712778874022
 20
32.83905032467846
 30
0.0
 11
48.48593511974616
 21
32.59910566908053
 31
0.0
  0
SPLINE
  5
64
330
2
100
AcDbEntity
  8
0
100
AcDbSpline
210
0.0
220
0.0
230
1.0
 70
     8
 71
     3
 72
    16
 73
    12
 74
     0
 42
0.000000001
 43
0.0000000001
 40
0.0
 40
0.0
 40
0.0
 40
0.0
 40
0.0698495378242813
 40
0.1990379081207496
 40
0.3285182403160729
 40
0.4581529125746114
 40
0.5879251972799279
 40
0.7178828956211269
 40
0.8480723407691126
 40
0.9707891010511616
 40
1.0
 40
1.0
 40
1.0
 40
1.0
 10
48.30122563774398
 20
32.54578463449389
 30
0.0
 10
48.27435850447546
 20
32.53714538443097
 30
0.0
 10
48.19779997353111
 20
32.51252763728735
 30
0.0
 10
48.07439336324342
 20
32.44946699480659
 30
0.0
 10
47.93856376798919
 20
32.35090230852325
 30
0.0
 10
47.81774864630914
 20
32.23005302612205
 30
0.0
 10
47.71676451935195
 20
32.0921646917999
 30
0.0
 10
47.63959386739009
 20
31.94235518221541
 30
0.0
 10
47.59075623933131
 20
31.7895204099284
 30
0.0
 10
47.57486130475785
 20
31.6766745131817
 30
0.0
 10
47.57401736742632
 20
31.61746445072487
 30
0.0
 10
47.57385510488484
 20
31.60608022246822
 30
0.0
  0
LINE
  5
65
330
2
100
AcDbEntity
  8
0
100
AcDbLine
 10
48.48593511974616
 20
32.59910566908053
 30
0.0
 11
48.30122563774273
 21
32.54578463450322
 31
0.0
  0
SPLINE
  5
66
330
2
100
AcDbEntity
  8
0
100
AcDbSpline
210
0.0
220
0.0
230
1.0
 70
     8
 71
     3
 72
    13
 73
     9
 74
     0
 42
0.000000001
 43
0.0000000001
 40
0.0
 40
0.0
 40
0.0
 40
0.0
 40
0.2785574303014062
 40
0.6383864624489386
 40
1.0
 40
1.0
 40
1.0
 40
1.030364617040246
 40
1.030364617040246
 40
1.030364617040246
 40
1.030364617040246
 10
54.45569085744523
 20
30.86925710774915
 30
0.0
 10
54.42532382044714
 20
30.8933283308752
 30
0.0
 10
54.36310025171986
 20
30.93545216221095
 30
0.0
 10
54.24431758221874
 20
30.9777000529192
 30
0.0
 10
54.15134277389734
 20
30.9846661074796
 30
0.0
 10
54.1047403820337
 20
30.98815775011082
 30
0.0
 10
54.1008271884301
 20
30.98845094265016
 30
0.0
 10
54.09691399482653
 20
30.98874413518951
 30
0.0
 10
54.09300080122296
 20
30.98903732772888
 30
0.0
  0
LINE
  5
67
330
2
100
AcDbEntity
  8
0
100
AcDbLine
 10
54.5114216796386
 20
30.82156907172798
 30
0.0
 11
54.47143090370559
 21
30.85620209962229
 31
0.0
  0
SPLINE
  5
68
330
2
100
AcDbEntity
  8
0
100
AcDbSpline
210
0.0
220
0.0
230
1.0
 70
     8
 71
     3
 72
    12
 73
     8
 74
     0
 42
0.000000001
 43
0.0000000001
 40
0.0
 40
0.0
 40
0.0
 40
0.0
 40
0.1814292812455341
 40
0.415792165061499
 40
0.6513173281689814
 40
0.8893818971947844
 40
1.0
 40
1.0
 40
1.0
 40
1.0
 10
53.57729503393375
 20
32.21650158583759
 30
0.0
 10
53.54694554069489
 20
32.24167646360093
 30
0.0
 10
53.48476217802954
 20
32.2829415789746
 30
0.0
 10
53.36560947916472
 20
32.32362003617237
 30
0.0
 10
53.22701493030946
 20
32.34041430230087
 30
0.0
 10
53.10682256278038
 20
32.32957509824962
 30
0.0
 10
53.03509764085856
 20
32.31088194703943
 30
0.0
 10
53.01234321275582
 20
32.30495162388502
 30
0.0
  0
LINE
  5
69
330
2
100
AcDbEntity
  8
0
100
AcDbLine
 10
53.63302585612712
 20
32.16881354981643
 30
0.0
 11
53.59303508019412
 21
32.20344657771074
 31
0.0
  0
LINE
  5
6A
330
2
100
AcDbEntity
  8
0
100
AcDbLine
 10
46.189559773891
 20
29.60565307081271
 30
0.0
 11
46.189559773891
 21
26.34412636142008
 31
0.0
  0
LINE
  5
6B
330
2
100
AcDbEntity
  8
0
100
AcDbLine
 10
53.01234321275025
 20
32.30495162389406
 30
0.0
 11
52.55074450129985
 21
32.17169955373174
 31
0.0
  0
SPLINE
  5
6C
330
2
100
AcDbEntity
  8
0
100
AcDbSpline
210
0.0
220
0.0
230
1.0
 70
     8
 71
     3
 72
    11
 73
     7
 74
     0
 42
0.000000001
 43
0.0000000001
 40
0.0
 40
0.0
 40
0.0
 40
0.0
 40
0.1104046517395713
 40
0.5209289446612724
 40
0.9078897400403908
 40
1.0
 40
1.0
 40
1.0
 40
1.0
 10
46.28054626013589
 20
29.98113586953156
 30
0.0
 10
46.27344325143734
 20
29.9678317914686
 30
0.0
 10
46.23992869596327
 20
29.90505835542365
 30
0.0
 10
46.20769818796543
 20
29.78870169873914
 30
0.0
 10
46.19050907153575
 20
29.67626536926213
 30
0.0
 10
46.18971286022587
 20
29.61704020304205
 30
0.0
 10
46.18955977389372
 20
29.60565307080793
 30
0.0
  0
LINE
  5
6D
330
2
100
AcDbEntity
  8
0
100
AcDbLine
 10
53.85694102720094
 20
31.49682067523935
 30
0.0
 11
53.81335480795588
 21
31.52329519457601
 31
0.0
  0
LINE
  5
6E
330
2
100
AcDbEntity
  8
0
100
AcDbLine
 10
53.91267184941568
 20
31.44913263923951
 30
0.0
 11
53.87268107348267
 21
31.48376566711249
 31
0.0
  0
LINE
  5
6F
330
2
100
AcDbEntity
  8
0
100
AcDbLine
 10
47.36911868842503
 20
30.7465701545504
 30
0.0
 11
47.36911868842503
 21
26.73435038549724
 31
0.0
  0
SPLINE
  5
70
330
2
100
AcDbEntity
  8
0
100
AcDbSpline
210
0.0
220
0.0
230
1.0
 70
     8
 71
     3
 72
    13
 73
     9
 74
     0
 42
0.000000001
 43
0.0000000001
 40
0.0
 40
0.0
 40
0.0
 40
0.0
 40
0.2867385838583181
 40
0.6571356937018562
 40
1.0
 40
1.0
 40
1.0
 40
1.049545685410342
 40
1.049545685410342
 40
1.049545685410342
 40
1.049545685410342
 10
50.98878051566657
 20
32.26966956419807
 30
0.0
 10
50.95840894897333
 20
32.29269545975876
 30
0.0
 10
50.8961749992835
 20
32.33581645892389
 30
0.0
 10
50.78087422064164
 20
32.37715872041571
 30
0.0
 10
50.69162076569137
 20
32.3839925828795
 30
0.0
 10
50.64871668701322
 20
32.38727761619259
 30
0.0
 10
50.6425168232597
 20
32.38775232068679
 30
0.0
 10
50.63631695950618
 20
32.38822702518096
 30
0.0
 10
50.63011709575267
 20
32.38870172967512
 30
0.0
  0
LINE
  5
71
330
2
100
AcDbEntity
  8
0
100
AcDbLine
 10
51.04451133785993
 20
32.22198152819824
 30
0.0
 11
51.00452056192693
 21
32.25661455607121
 31
0.0
  0
SPLINE
  5
72
330
2
100
AcDbEntity
  8
0
100
AcDbSpline
210
0.0
220
0.0
230
1.0
 70
     8
 71
     3
 72
    12
 73
     8
 74
     0
 42
0.000000001
 43
0.0000000001
 40
0.0
 40
0.0
 40
0.0
 40
0.0
 40
0.1535692531581339
 40
0.4205115435837768
 40
0.6879298583172734
 40
0.9399987505909608
 40
1.0
 40
1.0
 40
1.0
 40
1.0
 10
47.57385510488484
 20
31.30970072128753
 30
0.0
 10
47.55389213318561
 20
31.28377772319806
 30
0.0
 10
47.49922845623779
 20
31.21279398318018
 30
0.0
 10
47.43548632539364
 20
31.0824261712906
 30
0.0
 10
47.38585571644364
 20
30.93011966628478
 30
0.0
 10
47.37013243551699
 20
30.8171594174695
 30
0.0
 10
47.36928216805063
 20
30.75795357201605
 30
0.0
 10
47.3691186884239
 20
30.7465701545562
 30
0.0
  0
LINE
  5
73
330
2
100
AcDbEntity
  8
0
100
AcDbLine
 10
41.82694226701801
 20
19.76667109544286
 30
0.0
 11
41.83812394160635
 21
19.65612816936789
 31
0.0
  0
LINE
  5
74
330
2
100
AcDbEntity
  8
0
100
AcDbLine
 10
59.92177001876758
 20
19.65612816936789
 30
0.0
 11
59.93295169335589
 21
19.76667109544286
 31
0.0
  0
LINE
  5
75
330
2
100
AcDbEntity
  8
0
100
AcDbLine
 10
44.05899896830272
 20
23.54994315858482
 30
0.0
 11
43.98088940562411
 21
23.5724914471204
 31
0.0
  0
LINE
  5
76
330
2
100
AcDbEntity
  8
0
100
AcDbLine
 10
57.77900985637494
 20
23.57249297756204
 30
0.0
 11
57.70089499204981
 21
23.54994315858482
 31
0.0
  0
LINE
  5
77
330
2
100
AcDbEntity
  8
0
100
AcDbLine
 10
44.15461795457713
 20
24.7918889284926
 30
0.0
 11
43.97264846411188
 21
24.84441899564371
 31
0.0
  0
LINE
  5
78
330
2
100
AcDbEntity
  8
0
100
AcDbLine
 10
57.7872454962619
 20
24.84441899564371
 30
0.0
 11
57.60527600579679
 21
24.7918889284926
 31
0.0
  0
LWPOLYLINE
  5
79
330
2
100
AcDbEntity
  8
0
100
AcDbPolyline
 90
       17
 70
   128
 43
0.0
 10
62.04588271770159
 20
24.8075023005897
 10
62.11340365150977
 20
24.77411996569959
 10
62.20366162022742
 20
24.76741169213154
 10
62.30291566629762
 20
24.78839875369971
 10
62.39605526093567
 20
24.8338860605511
 10
62.46890074517034
 20
24.89694858254291
 10
62.51036205438698
 20
24.96798562237882
 10
62.51412708010946
 20
25.03618243470294
 10
62.47962263128318
 20
25.09115667302746
 10
62.41210169745365
 20
25.12453900789615
 10
62.32184372873586
 20
25.13124728148557
 10
62.22258968268715
 20
25.11026021989608
 10
62.12945008804901
 20
25.06477291304469
 10
62.05660460379306
 20
25.00171039105282
 10
62.01514329457632
 20
24.93067335121703
 10
62.01137826887521
 20
24.86247653889285
 10
62.04588271770159
 20
24.8075023005897
  0
LWPOLYLINE
  5
7A
330
2
100
AcDbEntity
  8
0
100
AcDbPolyline
 90
       17
 70
   128
 43
0.0
 10
62.19312337194971
 20
25.47112914101456
 10
62.26064430577912
 20
25.43774680612449
 10
62.35090227447563
 20
25.43103853255644
 10
62.4501563205457
 20
25.45202559412463
 10
62.54329591518375
 20
25.49751290097595
 10
62.61614139943981
 20
25.56057542296782
 10
62.65760270865643
 20
25.63161246280368
 10
62.66136773435754
 20
25.69980927512779
 10
62.62686328553127
 20
25.75478351345231
 10
62.55934235172309
 20
25.78816584832106
 10
62.46908438300533
 20
25.79487412191042
 10
62.36983033693525
 20
25.77388706032093
 10
62.27669074229719
 20
25.72839975346955
 10
62.20384525806252
 20
25.66533723147774
 10
62.1623839488459
 20
25.59430019164188
 10
62.1586189231234
 20
25.52610337931771
 10
62.19312337194971
 20
25.47112914101456
  0
LWPOLYLINE
  5
7B
330
2
100
AcDbEntity
  8
0
100
AcDbPolyline
 90
       17
 70
   128
 43
0.0
 10
61.15214757934973
 20
24.79035864715541
 10
61.21966851317916
 20
24.75697631226536
 10
61.30992648187565
 20
24.7502680386973
 10
61.40918052794564
 20
24.77125510026542
 10
61.5023201225838
 20
24.81674240711686
 10
61.57516560683984
 20
24.87980492912999
 10
61.61662691605648
 20
24.95084196896585
 10
61.62039194175759
 20
25.01903878126871
 10
61.5858874929313
 20
25.07401301959317
 10
61.51836655912314
 20
25.10739535448323
 10
61.42810859040537
 20
25.11410362805128
 10
61.32885454433528
 20
25.09311656648316
 10
61.23571494969723
 20
25.04762925963178
 10
61.16286946546257
 20
24.9845667376186
 10
61.12140815624582
 20
24.91352969778275
 10
61.11764313052333
 20
24.84533288547993
 10
61.15214757934973
 20
24.79035864715541
  0
LINE
  5
7C
330
2
100
AcDbEntity
  8
0
100
AcDbLine
 10
62.42361056714354
 20
24.52771485999063
 30
0.0
 11
63.33178347047999
 21
25.12163579484838
 31
0.0
  0
ARC
  5
7D
330
2
100
AcDbEntity
  8
0
100
AcDbCircle
 10
60.56890853812252
 20
27.37979570243766
 30
0.0
 40
3.402100049725772
100
AcDbArc
 50
284.3701135290991
 51
303.0358626400005
  0
LINE
  5
7E
330
2
100
AcDbEntity
  8
0
100
AcDbLine
 10
61.41325745842983
 20
24.08413800645111
 30
0.0
 11
61.38259222813303
 21
24.07629242061768
 31
0.0
  0
ARC
  5
7F
330
2
100
AcDbEntity
  8
0
100
AcDbCircle
 10
61.59367945821521
 20
23.25237799661568
 30
0.0
 40
0.8505250124308123
100
AcDbArc
 50
104.3701135290991
 51
123.035862640101
  0
LINE
  5
80
330
2
100
AcDbEntity
  8
0
100
AcDbLine
 10
61.13000395094934
 20
23.96539820722745
 30
0.0
 11
60.47561350801903
 21
23.5374442546165
 31
0.0
  0
LINE
  5
81
330
2
100
AcDbEntity
  8
0
100
AcDbLine
 10
59.78244005851401
 20
24.1377500711169
 30
0.0
 11
60.4368305014442
 21
24.56570402372785
 31
0.0
  0
ARC
  5
82
330
2
100
AcDbEntity
  8
0
100
AcDbCircle
 10
60.09647783170454
 20
25.10394407602007
 30
0.0
 40
0.6368220266950369
100
AcDbArc
 50
302.3069534489021
 51
324.9765156397061
  0
LINE
  5
83
330
2
100
AcDbEntity
  8
0
100
AcDbLine
 10
60.61798213786335
 20
24.73846418277537
 30
0.0
 11
60.63258332998476
 21
24.76022163377486
 31
0.0
  0
ARC
  5
84
330
2
100
AcDbEntity
  8
0
100
AcDbCircle
 10
62.7186005545559
 20
23.29830206083887
 30
0.0
 40
2.54728810678092
100
AcDbArc
 50
122.3069534489021
 51
144.9765156395968
  0
LINE
  5
85
330
2
100
AcDbEntity
  8
0
100
AcDbLine
 10
61.3571898755972
 20
25.45126226998633
 30
0.0
 11
62.47112212276147
 21
26.17974434556106
 31
0.0
  0
ARC
  5
86
330
2
100
AcDbEntity
  8
0
100
AcDbCircle
 10
63.8756444694095
 20
26.36543895140221
 30
0.0
 40
1.300687968135155
100
AcDbArc
 50
190.9690890527981
 51
224.3814861081967
  0
ARC
  5
87
330
2
100
AcDbEntity
  8
0
100
AcDbCircle
 10
63.90292431053614
 20
26.37815711353358
 30
0.0
 40
1.300687968135027
100
AcDbArc
 50
190.9690890527981
 51
224.3814861081967
  0
LINE
  5
88
330
2
100
AcDbEntity
  8
0
100
AcDbLine
 10
62.62102365653412
 20
26.15725619295756
 30
0.0
 11
62.62599993548315
 21
26.13066301087901
 31
0.0
  0
LINE
  5
89
330
2
100
AcDbEntity
  8
0
100
AcDbLine
 10
63.68744434808036
 20
25.23370878296181
 30
0.0
 11
63.69242062702937
 21
25.2071156008833
 31
0.0
  0
LWPOLYLINE
  5
8A
330
2
100
AcDbEntity
  8
0
100
AcDbPolyline
 90
        9
 70
   128
 43
0.0
 10
63.50653462593186
 20
25.00664005242379
 10
63.55699571871809
 20
24.96988476958995
 10
63.60241562748308
 20
24.95111898684104
 10
63.64104889063436
 20
24.95106386263838
 10
63.67141085353728
 20
24.96972151542661
 10
63.69233472296094
 20
25.00637494203147
 10
63.70301640635739
 20
25.05961557183719
 10
63.70304541259496
 20
25.12739739729875
 10
63.69242062702937
 20
25.2071156008833
  0
LINE
  5
8B
330
2
100
AcDbEntity
  8
0
100
AcDbLine
 10
62.97332428015875
 20
25.46841375741099
 30
0.0
 11
63.50653462593186
 21
25.00664005242379
 31
0.0
  0
LWPOLYLINE
  5
8C
330
2
100
AcDbEntity
  8
0
100
AcDbPolyline
 90
        9
 70
   128
 43
0.0
 10
62.46161545608572
 20
26.20302440210014
 10
62.48700036509284
 20
26.21659558863991
 10
62.51313482503133
 20
26.22474086334336
 10
62.53877985375265
 20
26.22707407512872
 10
62.56271967211977
 20
26.223484611152
 10
62.58381934157035
 20
26.21414264065362
 10
62.60107856926424
 20
26.19949104765613
 10
62.61367912997684
 20
26.18022443463417
 10
62.62102365653412
 20
26.15725619295756
  0
LWPOLYLINE
  5
8D
330
2
100
AcDbEntity
  8
0
100
AcDbPolyline
 90
        9
 70
   128
 43
0.0
 10
62.47112212276147
 20
26.17974434556106
 10
62.49064897585379
 20
26.19018371981258
 10
62.51075240654768
 20
26.19644931575306
 10
62.53047935172777
 20
26.19824409405608
 10
62.5488945966207
 20
26.19548296791527
 10
62.56512511157609
 20
26.18829683675938
 10
62.57840144057957
 20
26.17702638060092
 10
62.58809417960083
 20
26.16220590905209
 10
62.59374381540749
 20
26.14453803082614
  0
LINE
  5
8E
330
2
100
AcDbEntity
  8
0
100
AcDbLine
 10
62.59374381540749
 20
26.14453803082614
 30
0.0
 11
62.59872009435661
 21
26.11794484876896
 31
0.0
  0
LINE
  5
8F
330
2
100
AcDbEntity
  8
0
100
AcDbLine
 10
61.34768320892145
 20
25.47454232652536
 30
0.0
 11
62.46161545608572
 21
26.20302440210014
 31
0.0
  0
ARC
  5
90
330
2
100
AcDbEntity
  8
0
100
AcDbCircle
 10
63.60389213666849
 20
25.21996872670059
 30
0.0
 40
0.0846744422934872
100
AcDbArc
 50
9.338634848396724
 51
48.5087701764932
  0
LINE
  5
91
330
2
100
AcDbEntity
  8
0
100
AcDbLine
 10
62.94604443903222
 20
25.45569559530094
 30
0.0
 11
63.47925478480533
 21
24.99392189031374
 31
0.0
  0
ARC
  5
92
330
2
100
AcDbEntity
  8
0
100
AcDbCircle
 10
62.70909388788015
 20
23.32158211737789
 30
0.0
 40
2.547288106779793
100
AcDbArc
 50
122.3069534489021
 51
144.9765156395968
  0
ARC
  5
93
330
2
100
AcDbEntity
  8
0
100
AcDbCircle
 10
59.64888677275439
 20
24.34076495501836
 30
0.0
 40
0.2430051917516291
100
AcDbArc
 50
290.8496560101955
 51
303.3389074182013
  0
LINE
  5
94
330
2
100
AcDbEntity
  8
0
100
AcDbLine
 10
58.67723862709135
 20
23.71438922597406
 30
0.0
 11
59.73537645299291
 21
24.11367233420407
 31
0.0
  0
ARC
  5
95
330
2
100
AcDbEntity
  8
0
100
AcDbCircle
 10
59.61295826109903
 20
21.32306516454469
 30
0.0
 40
2.567878891291146
100
AcDbArc
 50
111.3702925525074
 51
139.2451524088939
  0
ARC
  5
96
330
2
100
AcDbEntity
  8
0
100
AcDbCircle
 10
59.62467137054932
 20
21.31361721509887
 30
0.0
 40
2.606879924768144
100
AcDbArc
 50
111.369076922597
 51
139.4251938799348
  0
LINE
  5
97
330
2
100
AcDbEntity
  8
0
100
AcDbLine
 10
58.67479150125018
 20
23.74128094305536
 30
0.0
 11
59.73292932715175
 21
24.14056405126406
 31
0.0
  0
ARC
  5
98
330
2
100
AcDbEntity
  8
0
100
AcDbCircle
 10
59.65941309893935
 20
24.33359277895829
 30
0.0
 40
0.2065544129882924
100
AcDbArc
 50
290.8496560101955
 51
303.3389074182013
  0
LINE
  5
99
330
2
100
AcDbEntity
  8
0
100
AcDbLine
 10
59.77293339183824
 20
24.16103012765598
 30
0.0
 11
60.42732383478983
 21
24.58898408026693
 31
0.0
  0
ARC
  5
9A
330
2
100
AcDbEntity
  8
0
100
AcDbCircle
 10
60.08697116505015
 20
25.12722413253778
 30
0.0
 40
0.6368220266947128
100
AcDbArc
 50
302.3069534489021
 51
324.9765156397061
  0
LWPOLYLINE
  5
9B
330
2
100
AcDbEntity
  8
0
100
AcDbPolyline
 90
        5
 70
   128
 43
0.0
 10
63.62384167432515
 20
24.94201371323533
 10
63.61376904950772
 20
24.93834570052832
 10
63.57513578635644
 20
24.93840082470967
 10
63.52971587759146
 20
24.95716660747985
 10
63.47925478480533
 20
24.99392189031374
  0
LINE
  5
9C
330
2
100
AcDbEntity
  8
0
100
AcDbLine
 10
60.6084754711876
 20
24.76174423931445
 30
0.0
 11
60.62307666330888
 21
24.78350169031387
 31
0.0
  0
LINE
  5
9D
330
2
100
AcDbEntity
  8
0
100
AcDbLine
 10
60.42854990249793
 20
23.51336651770367
 30
0.0
 11
59.3704120765965
 21
23.11408340947366
 31
0.0
  0
ARC
  5
9E
330
2
100
AcDbEntity
  8
0
100
AcDbCircle
 10
60.34206022225953
 20
23.74045913851791
 30
0.0
 40
0.2430051917500507
100
AcDbArc
 50
290.8496560101955
 51
303.3389074182013
  0
ARC
  5
9F
330
2
100
AcDbEntity
  8
0
100
AcDbCircle
 10
60.298316399153
 20
20.73766546691013
 30
0.0
 40
2.551150459998286
100
AcDbArc
 50
111.3288275699043
 51
136.5619213279002
  0
LWPOLYLINE
  5
A0
330
2
100
AcDbEntity
  8
0
100
AcDbPolyline
 90
       17
 70
   128
 43
0.0
 10
51.25319422222809
 20
15.3503893947439
 10
51.15116883957227
 20
15.34688878907696
 10
51.06467589657699
 20
15.33691990758399
 10
51.00688315972366
 20
15.32200042211588
 10
50.98658904934153
 20
15.30440168905062
 10
51.00688315972366
 20
15.28680295600668
 10
51.06467589657699
 20
15.27188347051725
 10
51.15116883957227
 20
15.26191458902428
 10
51.25319422222809
 20
15.25841398337866
 10
51.35521960486267
 20
15.26191458902428
 10
51.4417125478792
 20
15.27188347051725
 10
51.49950528471141
 20
15.28680295600668
 10
51.51979939511466
 20
15.30440168905062
 10
51.49950528471141
 20
15.32200042211588
 10
51.4417125478792
 20
15.33691990758399
 10
51.35521960486267
 20
15.34688878907696
 10
51.25319422222809
 20
15.3503893947439
  0
LINE
  5
A1
330
2
100
AcDbEntity
  8
0
100
AcDbLine
 10
49.81352628864067
 20
15.38960238022207
 30
0.0
 11
49.81352628864067
 21
15.21794480237877
 31
0.0
  0
LINE
  5
A2
330
2
100
AcDbEntity
  8
0
100
AcDbLine
 10
51.94636767173324
 20
15.38960238022207
 30
0.0
 11
51.94636767173324
 21
15.21794480237877
 31
0.0
  0
ARC
  5
A3
330
2
100
AcDbEntity
  8
0
100
AcDbCircle
 10
51.42865046710108
 20
15.06212265719995
 30
0.0
 40
0.5179794481898485
100
AcDbArc
 50
268.285986020705
 51
358.176725263897
  0
LINE
  5
A4
330
2
100
AcDbEntity
  8
0
100
AcDbLine
 10
51.41315732596012
 20
14.54437496639423
 30
0.0
 11
50.34673663441378
 21
14.54437496639423
 31
0.0
  0
ARC
  5
A5
330
2
100
AcDbEntity
  8
0
100
AcDbCircle
 10
50.33124349325145
 20
15.06212265719995
 30
0.0
 40
0.5179794481898377
100
AcDbArc
 50
181.823274736103
 51
271.7140139792918
  0
LINE
  5
A6
330
2
100
AcDbEntity
  8
0
100
AcDbLine
 10
49.81352628864067
 20
15.07654498674748
 30
0.0
 11
49.81352628864067
 21
15.04564222069013
 31
0.0
  0
LINE
  5
A7
330
2
100
AcDbEntity
  8
0
100
AcDbLine
 10
51.94636767173324
 20
15.07654498674748
 30
0.0
 11
51.94636767173324
 21
15.04564222069013
 31
0.0
  0
LINE
  5
A8
330
2
100
AcDbEntity
  8
0
100
AcDbLine
 10
49.81352628864067
 20
15.21794480237877
 30
0.0
 11
49.81352628864067
 21
15.07654498674748
 31
0.0
  0
LINE
  5
A9
330
2
100
AcDbEntity
  8
0
100
AcDbLine
 10
51.94636767173324
 20
15.21794480237877
 30
0.0
 11
51.94636767173324
 21
15.07654498674748
 31
0.0
  0
LWPOLYLINE
  5
AA
330
2
100
AcDbEntity
  8
0
100
AcDbPolyline
 90
       17
 70
   128
 43
0.0
 10
40.08725848471351
 20
25.13074389408496
 10
40.12176293353991
 20
25.18571813240948
 10
40.11799790781731
 20
25.25391494471228
 10
40.07653659860067
 20
25.32495198454814
 10
40.003691114366
 20
25.38801450654001
 10
39.91055151972796
 20
25.43350181339139
 10
39.81129747365789
 20
25.45448887498088
 10
39.72103950494011
 20
25.44778060139146
 10
39.65351857113193
 20
25.41439826652277
 10
39.61901412230555
 20
25.35942402819825
 10
39.62277914800677
 20
25.29122721589545
 10
39.66424045722339
 20
25.22019017603827
 10
39.73708594147935
 20
25.15712765404642
 10
39.8302255361175
 20
25.11164034719502
 10
39.92947958218758
 20
25.09065328562684
 10
40.01973755088396
 20
25.09736155919495
 10
40.08725848471351
 20
25.13074389408496
  0
LWPOLYLINE
  5
AB
330
2
100
AcDbEntity
  8
0
100
AcDbPolyline
 90
        9
 70
   128
 43
0.0
 10
39.19352334636164
 20
25.14788754749793
 10
39.22802779518793
 20
25.20286178582239
 10
39.22426276948682
 20
25.27105859814657
 10
39.18280146027019
 20
25.34209563798242
 10
39.10995597601413
 20
25.40515815997429
 10
39.01681638137598
 20
25.45064546682568
 10
38.91756233532726
 20
25.4716325283938
 10
38.82730436660949
 20
25.46492425482575
 10
38.82292513030165
 20
25.46376266235802
  0
LWPOLYLINE
  5
AC
330
2
100
AcDbEntity
  8
0
100
AcDbPolyline
 90
        9
 70
   128
 43
0.0
 10
38.72611805904626
 20
25.37971792026264
 10
38.72527898395367
 20
25.37656768163254
 10
38.72904400967616
 20
25.30837086930836
 10
38.7705053188929
 20
25.23733382947251
 10
38.84335080312758
 20
25.1742713074807
 10
38.93649039776562
 20
25.12878400062926
 10
39.03574444383571
 20
25.10779693903983
 10
39.12600241255347
 20
25.11450521262919
 10
39.19352334636164
 20
25.14788754749793
  0
LWPOLYLINE
  5
AD
330
2
100
AcDbEntity
  8
0
100
AcDbPolyline
 90
       17
 70
   128
 43
0.0
 10
40.2344991389616
 20
24.46711705366011
 10
40.26900358778799
 20
24.52209129198458
 10
40.26523856208678
 20
24.59028810428743
 10
40.22377725287014
 20
24.66132514412328
 10
40.1509317686141
 20
24.72438766611515
 10
40.05779217397605
 20
24.76987497296653
 10
39.95853812792734
 20
24.79086203455597
 10
39.86828015920946
 20
24.78415376098792
 10
39.80075922538004
 20
24.75077142609786
 10
39.76625477655375
 20
24.69579718777334
 10
39.77001980227625
 20
24.62760037547054
 10
39.81148111149287
 20
24.55656333563468
 10
39.88432659572755
 20
24.4935008136215
 10
39.9774661903656
 20
24.44801350677018
 10
40.07672023643567
 20
24.42702644520199
 10
40.16697820515343
 20
24.43373471877004
 10
40.2344991389616
 20
24.46711705366011
  0
LINE
  5
AE
330
2
100
AcDbEntity
  8
0
100
AcDbLine
 10
40.40270408477659
 20
25.45126226998633
 30
0.0
 11
39.28877183759107
 21
26.17974434556106
 31
0.0
  0
ARC
  5
AF
330
2
100
AcDbEntity
  8
0
100
AcDbCircle
 10
39.04129340581789
 20
23.29830206083887
 30
0.0
 40
2.547288106780039
100
AcDbArc
 50
35.02348436040321
 51
57.69304655109791
  0
LINE
  5
B0
330
2
100
AcDbEntity
  8
0
100
AcDbLine
 10
41.12731063038915
 20
24.76022163377486
 30
0.0
 11
41.14191182251056
 21
24.73846418277537
 31
0.0
  0
ARC
  5
B1
330
2
100
AcDbEntity
  8
0
100
AcDbCircle
 10
41.6634161286479
 20
25.10394407602007
 30
0.0
 40
0.6368220266949704
100
AcDbArc
 50
215.0234843604032
 51
237.6930465510979
  0
LINE
  5
B2
330
2
100
AcDbEntity
  8
0
100
AcDbLine
 10
41.32306345890834
 20
24.56570402372785
 30
0.0
 11
41.97745390185992
 21
24.1377500711169
 31
0.0
  0
LINE
  5
B3
330
2
100
AcDbEntity
  8
0
100
AcDbLine
 10
41.28428045235478
 20
23.5374442546165
 30
0.0
 11
40.62989000940318
 21
23.96539820722745
 31
0.0
  0
ARC
  5
B4
330
2
100
AcDbEntity
  8
0
100
AcDbCircle
 10
40.16621450215859
 20
23.25237799661568
 30
0.0
 40
0.8505250124308222
100
AcDbArc
 50
56.96413735989896
 51
75.62988647090094
  0
LINE
  5
B5
330
2
100
AcDbEntity
  8
0
100
AcDbLine
 10
40.37730173221939
 20
24.07629242061768
 30
0.0
 11
40.3466365019226
 21
24.08413800645111
 31
0.0
  0
ARC
  5
B6
330
2
100
AcDbEntity
  8
0
100
AcDbCircle
 10
41.19098542222991
 20
27.37979570243766
 30
0.0
 40
3.402100049724888
100
AcDbArc
 50
236.9641373599995
 51
255.629886470901
  0
LINE
  5
B7
330
2
100
AcDbEntity
  8
0
100
AcDbLine
 10
39.33628339323036
 20
24.52771485999063
 30
0.0
 11
38.42811048989381
 21
25.12163579484838
 31
0.0
  0
ARC
  5
B8
330
2
100
AcDbEntity
  8
0
100
AcDbCircle
 10
37.88424949096429
 20
26.36543895140221
 30
0.0
 40
1.300687968134949
100
AcDbArc
 50
315.6185138918031
 51
349.0309109472018
  0
ARC
  5
B9
330
2
100
AcDbEntity
  8
0
100
AcDbCircle
 10
37.85696964983777
 20
26.37815711353358
 30
0.0
 40
1.300687968135018
100
AcDbArc
 50
315.6185138918031
 51
349.0309109472018
  0
LWPOLYLINE
  5
BA
330
2
100
AcDbEntity
  8
0
100
AcDbPolyline
 90
        9
 70
   128
 43
0.0
 10
38.06747333334442
 20
25.2071156008833
 10
38.05684854775757
 20
25.12739739729875
 10
38.0568775540164
 20
25.05961557183719
 10
38.06755923741287
 20
25.00637494203147
 10
38.08848310683663
 20
24.96972151542661
 10
38.11884506971819
 20
24.95106386263838
 10
38.15747833286947
 20
24.95111898684104
 10
38.20289824165583
 20
24.96988476958995
 10
38.25335933444194
 20
25.00664005242379
  0
LINE
  5
BB
330
2
100
AcDbEntity
  8
0
100
AcDbLine
 10
38.07244961227207
 20
25.23370878296181
 30
0.0
 11
38.06747333334442
 21
25.2071156008833
 31
0.0
  0
LINE
  5
BC
330
2
100
AcDbEntity
  8
0
100
AcDbLine
 10
39.13887030381841
 20
26.15725619295756
 30
0.0
 11
39.13389402489065
 21
26.13066301087901
 31
0.0
  0
LINE
  5
BD
330
2
100
AcDbEntity
  8
0
100
AcDbLine
 10
38.25335933444194
 20
25.00664005242379
 30
0.0
 11
38.78656968021505
 21
25.46841375741099
 31
0.0
  0
LWPOLYLINE
  5
BE
330
2
100
AcDbEntity
  8
0
100
AcDbPolyline
 90
        9
 70
   128
 43
0.0
 10
39.28877183759107
 20
26.17974434556106
 10
39.26924498452013
 20
26.19018371981258
 10
39.24914155380486
 20
26.19644931575306
 10
39.22941460864604
 20
26.19824409405608
 10
39.21099936373185
 20
26.19548296791527
 10
39.19476884877646
 20
26.18829683675938
 10
39.18149251977297
 20
26.17702638060092
 10
39.17179978075171
 20
26.16220590905209
 10
39.16615014494504
 20
26.14453803082614
  0
LWPOLYLINE
  5
BF
330
2
100
AcDbEntity
  8
0
100
AcDbPolyline
 90
        9
 70
   128
 43
0.0
 10
39.29827850426682
 20
26.20302440210014
 10
39.27289359525957
 20
26.21659558863991
 10
39.24675913534258
 20
26.22474086334336
 10
39.22111410662115
 20
26.22707407512872
 10
39.19717428825413
 20
26.223484611152
 10
39.17607461880358
 20
26.21414264065362
 10
39.15881539110967
 20
26.19949104765613
 10
39.1462148303756
 20
26.18022443463417
 10
39.13887030381841
 20
26.15725619295756
  0
LINE
  5
C0
330
2
100
AcDbEntity
  8
0
100
AcDbLine
 10
39.16615014494504
 20
26.14453803082614
 30
0.0
 11
39.1611738660173
 21
26.11794484876896
 31
0.0
  0
LINE
  5
C1
330
2
100
AcDbEntity
  8
0
100
AcDbLine
 10
40.41221075143107
 20
25.47454232652536
 30
0.0
 11
39.29827850426682
 21
26.20302440210014
 31
0.0
  0
ARC
  5
C2
330
2
100
AcDbEntity
  8
0
100
AcDbCircle
 10
38.15600182370543
 20
25.21996872670059
 30
0.0
 40
0.0846744422932334
100
AcDbArc
 50
131.4912298233989
 51
170.6613651516956
  0
LINE
  5
C3
330
2
100
AcDbEntity
  8
0
100
AcDbLine
 10
38.28063917554721
 20
24.99392189031374
 30
0.0
 11
38.81384952132044
 21
25.45569559530094
 31
0.0
  0
ARC
  5
C4
330
2
100
AcDbEntity
  8
0
100
AcDbCircle
 10
39.05080007249376
 20
23.32158211737789
 30
0.0
 40
2.547288106780372
100
AcDbArc
 50
35.02348436040321
 51
57.69304655109791
  0
ARC
  5
C5
330
2
100
AcDbEntity
  8
0
100
AcDbCircle
 10
42.10048086141319
 20
24.33359277895829
 30
0.0
 40
0.2065544129888011
100
AcDbArc
 50
236.6610925817988
 51
249.1503439898045
  0
LINE
  5
C6
330
2
100
AcDbEntity
  8
0
100
AcDbLine
 10
42.02696463322218
 20
24.14056405126406
 30
0.0
 11
43.08510245912361
 21
23.74128094305536
 31
0.0
  0
ARC
  5
C7
330
2
100
AcDbEntity
  8
0
100
AcDbCircle
 10
42.13522258982448
 20
21.31361721509887
 30
0.0
 40
2.606879924768064
100
AcDbArc
 50
40.83879218669737
 51
68.63092307740301
  0
ARC
  5
C8
330
2
100
AcDbEntity
  8
0
100
AcDbCircle
 10
42.1469356992535
 20
21.32306516454469
 30
0.0
 40
2.56787889129121
100
AcDbArc
 50
40.75484759110604
 51
68.62970744749548
  0
LINE
  5
C9
330
2
100
AcDbEntity
  8
0
100
AcDbLine
 10
42.024517507381
 20
24.11367233420407
 30
0.0
 11
43.08265533328245
 21
23.71438922597406
 31
0.0
  0
ARC
  5
CA
330
2
100
AcDbEntity
  8
0
100
AcDbCircle
 10
42.11100718761939
 20
24.34076495501836
 30
0.0
 40
0.2430051917521371
100
AcDbArc
 50
236.6610925817988
 51
249.1503439898045
  0
LINE
  5
CB
330
2
100
AcDbEntity
  8
0
100
AcDbLine
 10
41.33257012558408
 20
24.58898408026693
 30
0.0
 11
41.98696056853554
 21
24.16103012765598
 31
0.0
  0
ARC
  5
CC
330
2
100
AcDbEntity
  8
0
100
AcDbCircle
 10
41.67292279532374
 20
25.12722413253778
 30
0.0
 40
0.6368220266949197
100
AcDbArc
 50
215.0234843602939
 51
237.6930465510979
  0
LWPOLYLINE
  5
CD
330
2
100
AcDbEntity
  8
0
100
AcDbPolyline
 90
        5
 70
   128
 43
0.0
 10
38.28063917554721
 20
24.99392189031374
 10
38.23017808278246
 20
24.95716660747985
 10
38.18475817399599
 20
24.93840082470967
 10
38.14612491084472
 20
24.93834570052832
 10
38.13605228602728
 20
24.94201371323533
  0
LINE
  5
CE
330
2
100
AcDbEntity
  8
0
100
AcDbLine
 10
41.13681729706491
 20
24.78350169031387
 30
0.0
 11
41.1514184891862
 21
24.76174423931445
 31
0.0
  0
LINE
  5
CF
330
2
100
AcDbEntity
  8
0
100
AcDbLine
 10
42.38948188377742
 20
23.11408340947366
 30
0.0
 11
41.33134405787585
 21
23.51336651770367
 31
0.0
  0
ARC
  5
D0
330
2
100
AcDbEntity
  8
0
100
AcDbCircle
 10
41.41783373811438
 20
23.74045913851791
 30
0.0
 40
0.2430051917521806
100
AcDbArc
 50
236.6610925817988
 51
249.1503439898045
  0
LINE
  5
D1
330
2
100
AcDbEntity
  8
0
100
AcDbLine
 10
40.24400580563734
 20
24.49039711019918
 30
0.0
 11
40.26848201704011
 21
24.5200868348557
 31
0.0
  0
ARC
  5
D2
330
2
100
AcDbEntity
  8
0
100
AcDbCircle
 10
41.46157756122078
 20
20.73766546691013
 30
0.0
 40
2.551150459998048
100
AcDbArc
 50
43.43807867209977
 51
68.67117243009565
  0
LINE
  5
D3
330
2
100
AcDbEntity
  8
0
100
AcDbLine
 10
50.11813938394562
 20
32.27128577342757
 30
0.0
 11
50.11813938394562
 21
27.1534217465798
 31
0.0
  0
LINE
  5
D4
330
2
100
AcDbEntity
  8
0
100
AcDbLine
 10
50.71512981439332
 20
27.17199863322924
 30
0.0
 11
50.71512981439332
 21
32.07420310228838
 31
0.0
  0
ARC
  5
D5
330
2
100
AcDbEntity
  8
0
100
AcDbCircle
 10
50.1785291896765
 20
32.09789286082902
 30
0.0
 40
0.537123296007244
100
AcDbArc
 50
357.4721565200956
 51
107.1778750461018
  0
LINE
  5
D6
330
2
100
AcDbEntity
  8
0
100
AcDbLine
 10
49.88207960992361
 20
32.75060028662199
 30
0.0
 11
49.89781965618397
 21
32.73754527849514
 31
0.0
  0
ARC
  5
D7
330
2
100
AcDbEntity
  8
0
100
AcDbCircle
 10
49.5635450768126
 20
32.29306516776029
 30
0.0
 40
0.5550217901310514
100
AcDbArc
 50
357.7511011826058
 51
47.59820542869344
  0
LINE
  5
D8
330
2
100
AcDbEntity
  8
0
100
AcDbLine
 10
54.69175063144597
 20
30.38994259455467
 30
0.0
 11
54.69175063144597
 21
26.64962421860247
 31
0.0
  0
LINE
  5
D9
330
2
100
AcDbEntity
  8
0
100
AcDbLine
 10
55.51962791442985
 20
26.36442145841193
 30
0.0
 11
55.51962791442985
 21
30.25951121663718
 31
0.0
  0
ARC
  5
DA
330
2
100
AcDbEntity
  8
0
100
AcDbCircle
 10
54.97831719096826
 20
30.28063796285039
 30
0.0
 40
0.5417228430875115
100
AcDbArc
 50
357.7649448217018
 51
111.3846782333069
  0
LINE
  5
DB
330
2
100
AcDbEntity
  8
0
100
AcDbLine
 10
54.78078998641628
 20
30.78506500632022
 30
0.0
 11
54.59276511838139
 21
30.73078690223435
 31
0.0
  0
LINE
  5
DC
330
2
100
AcDbEntity
  8
0
100
AcDbLine
 10
54.45569085744523
 20
30.86925710774915
 30
0.0
 11
54.47143090370559
 21
30.85620209962229
 31
0.0
  0
ARC
  5
DD
330
2
100
AcDbEntity
  8
0
100
AcDbCircle
 10
54.13715632433422
 20
30.41172198888745
 30
0.0
 40
0.555021790131004
100
AcDbArc
 50
357.7511011826058
 51
47.59820542869344
  0
LINE
  5
DE
330
2
100
AcDbEntity
  8
0
100
AcDbLine
 10
53.81335480795588
 20
31.73718707264317
 30
0.0
 11
53.81335480795588
 21
26.87265546410737
 31
0.0
  0
LINE
  5
DF
330
2
100
AcDbEntity
  8
0
100
AcDbLine
 10
53.57729503393375
 20
32.21650158583759
 30
0.0
 11
53.59303508019412
 21
32.20344657771074
 31
0.0
  0
ARC
  5
E0
330
2
100
AcDbEntity
  8
0
100
AcDbCircle
 10
53.25876050082275
 20
31.75896646697589
 30
0.0
 40
0.5550217901309927
100
AcDbArc
 50
357.7511011826058
 51
47.59820542869344
  0
LINE
  5
E1
330
2
100
AcDbEntity
  8
0
100
AcDbLine
 10
54.09300080122307
 20
31.01750616204493
 30
0.0
 11
54.09300080122307
 21
26.80947474989983
 31
0.0
  0
LINE
  5
E2
330
2
100
AcDbEntity
  8
0
100
AcDbLine
 10
53.85694102720094
 20
31.49682067523935
 30
0.0
 11
53.87268107348267
 21
31.48376566711249
 31
0.0
  0
ARC
  5
E3
330
2
100
AcDbEntity
  8
0
100
AcDbCircle
 10
53.53840649408994
 20
31.03928555637765
 30
0.0
 40
0.5550217901311877
100
AcDbArc
 50
357.7511011826058
 51
47.59820542869344
  0
LINE
  5
E4
330
2
100
AcDbEntity
  8
0
100
AcDbLine
 10
52.65302338913034
 20
27.06609467922209
 30
0.0
 11
52.65302338913034
 21
31.83321703546238
 31
0.0
  0
LINE
  5
E5
330
2
100
AcDbEntity
  8
0
100
AcDbLine
 10
51.22484028966733
 20
31.79035505100364
 30
0.0
 11
51.22484028966733
 21
27.16892269180875
 31
0.0
  0
ARC
  5
E6
330
2
100
AcDbEntity
  8
0
100
AcDbCircle
 10
52.11171266568999
 20
31.85434378169691
 30
0.0
 40
0.5417228430874866
100
AcDbArc
 50
357.7649448217018
 51
111.3846782333069
  0
LINE
  5
E7
330
2
100
AcDbEntity
  8
0
100
AcDbLine
 10
51.914185461138
 20
32.3587708251668
 30
0.0
 11
51.12585477660275
 21
32.13119935870464
 31
0.0
  0
LINE
  5
E8
330
2
100
AcDbEntity
  8
0
100
AcDbLine
 10
46.28054626014067
 20
29.99364134254506
 30
0.0
 11
46.28054626014067
 21
26.38028786874185
 31
0.0
  0
ARC
  5
E9
330
2
100
AcDbEntity
  8
0
100
AcDbCircle
 10
47.33035050539638
 20
29.94172968266457
 30
0.0
 40
1.051086948743386
100
AcDbArc
 50
107.2086421098947
 51
177.169092884308
  0
LINE
  5
EA
330
2
100
AcDbEntity
  8
0
100
AcDbLine
 10
47.43420307686357
 20
31.0655113074086
 30
0.0
 11
47.01938418813289
 21
30.94576340886795
 31
0.0
  0
LINE
  5
EB
330
2
100
AcDbEntity
  8
0
100
AcDbLine
 10
50.98878051566657
 20
32.26966956419807
 30
0.0
 11
51.00452056192693
 21
32.25661455607121
 31
0.0
  0
ARC
  5
EC
330
2
100
AcDbEntity
  8
0
100
AcDbCircle
 10
50.6702459825342
 20
31.81213444533637
 30
0.0
 40
0.5550217901309346
100
AcDbArc
 50
357.7511011826058
 51
47.59820542879029
  0
LWPOLYLINE
  5
ED
330
2
100
AcDbEntity
  8
0
100
AcDbPolyline
 90
       89
 70
   128
 43
0.0
 10
49.23439135341073
 20
16.15807539467886
 10
48.72531195710871
 20
16.22593747130474
 10
48.22721208701365
 20
16.31178529730738
 10
47.74262994585774
 20
16.41518141181859
 10
47.27403485316881
 20
16.53559893197172
 10
46.82381466214486
 20
16.67242423765867
 10
46.39426359164485
 20
16.82496009848836
 10
45.98757053548878
 20
16.99242922669521
 10
45.60580790827191
 20
17.17397823795392
 10
45.25092108481476
 20
17.36868200015732
 10
44.92471848703622
 20
17.57554834752926
 10
44.62886236860663
 20
17.79352313661047
 10
44.3648603444751
 20
18.02149561784063
 10
44.13405770843916
 20
18.25830409569318
 10
43.9376305778511
 20
18.50274184844039
 10
43.77657990031207
 20
18.75356327732697
 10
43.65172635319537
 20
19.00949025388479
 10
43.5637061615074
 20
19.26921863284132
 10
43.51296785603246
 20
19.53142489796806
 10
43.49976998748092
 20
19.7947729062102
 10
43.52417980920495
 20
20.05792069650556
 10
43.58607293436374
 20
20.31952732799397
 10
43.68513396972071
 20
20.57825971327867
 10
43.82085812299385
 20
20.83279941144031
 10
43.99255377499911
 20
21.08184934648796
 10
44.19934600404281
 20
21.32414041705516
 10
44.44018104432791
 20
21.55843796341025
 10
44.71383165570181
 20
21.78354805891166
 10
45.01890337736107
 20
21.99832359417229
 10
45.35384163375351
 20
22.20167012223965
 10
45.71693965631356
 20
22.39255143584808
 10
46.10634718069899
 20
22.56999484756597
 10
46.52007987546425
 20
22.7330961464553
 10
46.95602945362656
 20
22.88102420569146
 10
47.41197441606573
 20
23.01302521774653
 10
47.88559137174945
 20
23.12842653576445
 10
48.37446687726515
 20
23.22664010105848
 10
48.87610973505967
 20
23.30716543983874
 10
49.38796368815406
 20
23.36959221338634
 10
49.90742044608849
 20
23.41360230921964
 10
50.43183297632049
 20
23.43897146196787
 10
50.95852899282614
 20
23.4455703962542
 10
51.48482457337411
 20
23.43336548538161
 10
52.0080378363724
 20
23.40241892281278
 10
52.52550260696307
 20
23.35288840512368
 10
53.03458200324371
 20
23.28502632847643
 10
53.53268187336027
 20
23.1991785024951
 10
54.01726401451606
 20
23.09578238796263
 10
54.4858591071836
 20
22.97536486780945
 10
54.93607929822907
 20
22.83853956214386
 10
55.36563036870757
 20
22.68600370129286
 10
55.77232342486378
 20
22.51853457310728
 10
56.15408605208063
 20
22.33698556182725
 10
56.50897287553767
 20
22.14228179964516
 10
56.83517547331621
 20
21.9354154522519
 10
57.13103159174602
 20
21.71744066317075
 10
57.39503361587754
 20
21.48946818196191
 10
57.62583625191337
 20
21.2526597041093
 10
57.82226338252279
 20
21.00822195136209
 10
57.98331406004058
 20
20.75740052245419
 10
58.10816760717854
 20
20.50147354591769
 10
58.19618779884513
 20
20.24174516693983
 10
58.24692610434135
 20
19.9795389018131
 10
58.26012397287151
 20
19.71619089357102
 10
58.2357141511477
 20
19.45304310329698
 10
58.17382102601005
 20
19.1914364717872
 10
58.07475999063171
 20
18.93270408650255
 10
57.93903583735867
 20
18.67816438836218
 10
57.76734018535329
 20
18.42911445331458
 10
57.56054795630961
 20
18.18682338272606
 10
57.31971291602462
 20
17.95252583639222
 10
57.04606230465071
 20
17.72741574086955
 10
56.74099058299145
 20
17.51264020563025
 10
56.4060523265989
 20
17.30929367756283
 10
56.04295430406023
 20
17.11841236393309
 10
55.65354677965342
 20
16.9409689522152
 10
55.23981408488817
 20
16.77786765332593
 10
54.80386450672585
 20
16.62993959411108
 10
54.34791954428693
 20
16.49793858203463
 10
53.87430258860309
 20
16.38253726403803
 10
53.38542708310864
 20
16.28432369872269
 10
52.88378422529286
 20
16.2037983599638
 10
52.37193027221974
 20
16.14137158639482
 10
51.85247351426415
 20
16.09736149056152
 10
51.32806098403193
 20
16.07199233781335
 10
50.80136496754779
 20
16.06539340354828
 10
50.27506938697842
 20
16.07759831442091
 10
49.75185612398013
 20
16.1085448769897
 10
49.23439135341073
 20
16.15807539467886
  0
LWPOLYLINE
  5
EE
330
2
100
AcDbEntity
  8
0
100
AcDbPolyline
 90
       16
 70
   128
 43
0.0
 10
50.38777137761464
 20
21.70875516704535
 10
50.11109950042236
 20
21.75008107679389
 10
49.84758281676068
 20
21.80910990097505
 10
49.60173017018427
 20
21.88483164003827
 10
49.37774816759223
 20
21.97595067401914
 10
49.17946920316786
 20
22.08090793099456
 10
49.01028588498196
 20
22.1979075632122
 10
48.87309298651405
 20
22.32494767448855
 10
48.77023791627504
 20
22.45985457334268
 10
48.7034805530336
 20
22.60031996529267
 10
48.67396313378595
 20
22.74394044857752
 10
48.68219070976227
 20
22.8882586368747
 10
48.72802250487836
 20
23.03080520598576
 10
48.81067432437544
 20
23.1691411445712
 10
48.92873197273786
 20
23.30089948641267
 10
48.94203356413846
 20
23.31327850878427
  0
LWPOLYLINE
  5
EF
330
2
100
AcDbEntity
  8
0
100
AcDbPolyline
 90
       19
 70
   128
 43
0.0
 10
52.81786039623534
 20
23.31327850878427
 10
52.88680097385975
 20
23.24448713488931
 10
52.98965604409886
 20
23.1095802360565
 10
53.05641340734018
 20
22.96911484408514
 10
53.08593082656647
 20
22.82549436082161
 10
53.07770325059028
 20
22.68117617252449
 10
53.03187145547417
 20
22.53862960341348
 10
52.94921963597698
 20
22.40029366482799
 10
52.83116198761468
 20
22.26853532298651
 10
52.6797185095096
 20
22.14560899969831
 10
52.49748044154785
 20
22.03361799839155
 10
52.28756592757566
 20
21.9344785161901
 10
52.05356666316174
 20
21.84988685710778
 10
51.79948644058778
 20
21.78129040785251
 10
51.52967264290079
 20
21.72986287274364
 10
51.24874185897943
 20
21.69648419111229
 10
50.96150089243099
 20
21.68172548150977
 10
50.67286451583676
 20
21.68583926949793
 10
50.38777137761464
 20
21.70875516704535
  0
LWPOLYLINE
  5
F0
330
2
100
AcDbEntity
  8
0
100
AcDbPolyline
 90
       98
 70
   128
 43
0.0
 10
43.0394899866037
 20
17.62143355940191
 10
42.7629209686304
 20
17.8799358656808
 10
42.52039757859278
 20
18.14684717885592
 10
42.31293704389975
 20
18.42104798012588
 10
42.14140952614821
 20
18.70138817604521
 10
42.00653447131968
 20
18.98669192239356
 10
41.90887759227928
 20
19.27576255611495
 10
41.84884849590367
 20
19.56738761449122
 10
41.82669896512073
 20
19.86034392071002
 10
41.84252190274718
 20
20.15340271420166
 10
41.89625094186157
 20
20.44533480454351
 10
41.98766072420403
 20
20.7349157270923
 10
42.11636784540838
 20
21.02093087884487
 10
42.28183246305865
 20
21.30218061281482
 10
42.48336056106245
 20
21.57748526989639
 10
42.7201068605101
 20
21.84569012667208
 10
42.99107836518238
 20
22.10567023879713
 10
43.29513852639228
 20
22.35633515931381
 10
43.63101201016343
 20
22.59663351242301
 10
43.99729004637378
 20
22.82555740332589
 10
44.39243633766614
 20
23.04214664568616
 10
44.8147935031659
 20
23.24549278892499
 10
45.26259003013717
 20
23.43474292864897
 10
45.73394770431128
 20
23.60910328404344
 10
46.22688948783479
 20
23.76784252713145
 10
46.73934781152275
 20
23.91029485039678
 10
47.26917324707664
 20
24.03586275929172
 10
47.81414352249817
 20
24.14401957834724
 10
48.37197284307558
 20
24.23431166028462
 10
48.94032147876192
 20
24.30636028872334
 10
49.51680557786801
 20
24.35986326669985
 10
50.09900716573815
 20
24.39459618410882
 10
50.68448428658143
 20
24.41041335905379
 10
51.27078124588752
 20
24.40724844877844
 10
51.85543891047302
 20
24.38511472802344
 10
52.43600502290155
 20
24.34410503329571
 10
53.01004448711182
 20
24.28439137353918
 10
53.57514958212596
 20
24.20622420855205
 10
54.12895006077542
 20
24.10993139862637
 10
54.66912309138752
 20
23.99591682924949
 10
55.19340300058264
 20
23.86465871715825
 10
55.69959077617102
 20
23.71670760448745
 10
56.18556329075307
 20
23.55268404960634
 10
56.6492822066732
 20
23.3732760243268
 10
57.08880252568542
 20
23.17923602825453
 10
57.50228074681558
 20
22.97137793256746
 10
57.88798259870054
 20
22.75057356633937
 10
58.24429031372869
 20
22.51774905980437
 10
58.5697094135262
 20
22.27388095989869
 10
58.86287497729211
 20
22.01999213415945
 10
59.12255736679231
 20
21.75714748055748
 10
59.34766738380517
 20
21.48644946090059
 10
59.53726083870981
 20
21.20903347679087
 10
59.69054251066109
 20
20.92606310722453
 10
59.80686948305503
 20
20.63872522833083
 10
59.88575384016495
 20
20.34822503497895
 10
59.92686471353931
 20
20.0557809859655
 10
59.93002966992685
 20
19.76261969325713
 10
59.89523543439452
 20
19.46997077717196
 10
59.82262794603821
 20
19.17906170901972
 10
59.71251174592088
 20
18.89111266248682
 10
59.56534869962798
 20
18.60733139594714
 10
59.38175606015807
 20
18.32890818666544
 10
59.16250387880165
 20
18.0570108383489
 10
58.90851177542253
 20
17.79277978294857
 10
58.62084508117175
 20
17.5373232973364
 10
58.30071037012022
 20
17.29171285481982
 10
57.94945039851747
 20
17.05697863092513
 10
57.56853847276749
 20
16.83410518255954
 10
57.15957226984108
 20
16.62402731842485
 10
56.72426713612241
 20
16.42762617808734
 10
56.26444889261051
 20
16.24572553621129
 10
55.78204617684503
 20
16.0790883472709
 10
55.27908235346568
 20
15.92841354554161
 10
54.75766702748728
 20
15.79433311355217
 10
54.21998719605733
 20
15.67740943117633
 10
53.66829807521288
 20
15.57813291700859
 10
53.10491364083475
 20
15.49691997123898
 10
52.53219692306789
 20
15.43411122917553
 10
51.95255009483664
 20
15.38997013251821
 10
51.36840439638763
 20
15.36468182437613
 10
50.78220993779122
 20
15.35835237267901
 10
50.19642542231406
 20
15.3710083253726
 10
49.61350783379021
 20
15.40259659897827
 10
49.03590213115819
 20
15.45298470130404
 10
48.46603099348168
 20
15.52196128713496
 10
47.90628465834765
 20
15.60923704470622
 10
47.35901089640174
 20
15.71444590914052
 10
46.82650516402078
 20
15.83714659790172
 10
46.31100097528178
 20
15.97682446169631
 10
45.81466053390442
 20
16.13289364297236
 10
45.3395656641967
 20
16.30469953335864
 10
44.88770907913749
 20
16.49152151927075
 10
44.46098602228381
 20
16.692576004361
 10
44.0611863184571
 20
16.90701969622694
 10
43.68998686650455
 20
17.13395314353664
 10
43.34894460597695
 20
17.37242450851357
 10
43.0394899866037
 20
17.62143355940191
  0
LWPOLYLINE
  5
F1
330
2
100
AcDbEntity
  8
0
100
AcDbPolyline
 90
       52
 70
   128
 43
0.0
 10
41.82694226701801
 20
19.76667109544286
 10
41.8155031617166
 20
19.9711393925661
 10
41.83134566694707
 20
20.26456060059843
 10
41.8851411507037
 20
20.55685371211695
 10
41.97666397600675
 20
20.84679274824646
 10
42.1055302643598
 20
21.13316160390878
 10
42.27119950572467
 20
21.41475914859853
 10
42.47297682577482
 20
21.69040426436766
 10
42.71001590025252
 20
21.95894079977609
 10
42.98132250495496
 20
22.21924241929054
 10
43.28575868565292
 20
22.47021732746436
 10
43.62204753124
 20
22.71081284829705
 10
43.98877852942587
 20
22.94001984057854
 10
44.38441348291791
 20
23.15687693051319
 10
44.80729296126628
 20
23.36047454409049
 10
45.25564326096594
 20
23.5499587222057
 10
45.72758384504095
 20
23.72453470231858
 10
46.22113523069822
 20
23.88347025214887
 10
46.7342272918596
 20
24.02609874071141
 10
47.26470794215162
 20
24.15182193459981
 10
47.81035216134603
 20
24.26011250701782
 10
48.36887132796983
 20
24.35051624970681
 10
48.93792281854189
 20
24.42265397791414
 10
49.51511983333853
 20
24.47622312096007
 10
50.0980414075243
 20
24.51099899123506
 10
50.68424256539696
 20
24.52683572666035
 10
51.27126457559985
 20
24.52366690247175
 10
51.85664526381639
 20
24.50150580979022
 10
52.43792933998713
 20
24.46044539995483
 10
53.01267869673461
 20
24.40065789461778
 10
53.57848263546362
 20
24.32239406330854
 10
54.13296797784198
 20
24.22598217177233
 10
54.67380901966464
 20
24.11182660496513
 10
55.19873728563846
 20
23.98040617101827
 10
55.70555104417952
 20
23.83227209289066
 10
56.19212454225385
 20
23.66804569641193
 10
56.65641692152849
 20
23.48841580412045
 10
57.09648077840313
 20
23.29413584626582
 10
57.51047033213057
 20
23.08602070045004
 10
57.89664916664776
 20
22.86494327396189
 10
58.25339751371665
 20
22.63183084232895
 10
58.57921904679233
 20
22.38766116012334
 10
58.87274715714307
 20
22.13345835984916
 10
59.13275068584038
 20
21.87028865637888
 10
59.35813908775164
 20
21.59925587489642
 10
59.54796700558961
 20
21.32149682109605
 10
59.70143823507736
 20
21.03817651298078
 10
59.81790906457252
 20
20.75048329437317
 10
59.89689097492533
 20
20.45962385063615
 10
59.93805268854112
 20
20.16681814731208
 10
59.94122155890591
 20
19.87329431330829
 10
59.93295169335589
 20
19.76667109544286
  0
LINE
  5
F2
330
2
100
AcDbEntity
  8
0
100
AcDbLine
 10
44.72717162491699
 20
24.15253269072446
 30
0.0
 11
44.67274546173256
 21
23.29569592223624
 31
0.0
  0
SPLINE
  5
F3
330
2
100
AcDbEntity
  8
0
100
AcDbSpline
210
0.0
220
0.0
230
1.0
 70
     8
 71
     3
 72
    12
 73
     8
 74
     0
 42
0.000000001
 43
0.0000000001
 40
0.0
 40
0.0
 40
0.0
 40
0.0
 40
0.2499999999999977
 40
0.2499999999999977
 40
0.4999999999999953
 40
0.4999999999999953
 40
1.0
 40
1.0
 40
1.0
 40
1.0
 10
44.79533548451671
 20
24.28597176639499
 30
0.0
 10
44.78698683765037
 20
24.28030254989335
 30
0.0
 10
44.77870873476149
 20
24.27241337233772
 30
0.0
 10
44.76299228061122
 20
24.25298787661694
 30
0.0
 10
44.75567779248398
 20
24.24155747895566
 30
0.0
 10
44.73690029663361
 20
24.20469375308585
 30
0.0
 10
44.72869968408576
 20
24.17658239309702
 30
0.0
 10
44.72717162492743
 20
24.15253269071917
 30
0.0
  0
ARC
  5
F4
330
2
100
AcDbEntity
  8
0
100
AcDbCircle
 10
47.98348760055342
 20
19.5903903717267
 30
0.0
 40
5.675631995556943
100
AcDbArc
 50
123.1209904229043
 51
124.1752714889005
  0
LWPOLYLINE
  5
F5
330
2
100
AcDbEntity
  8
0
100
AcDbPolyline
 90
        4
 70
   128
 43
0.0
 10
44.90954341465385
 20
24.76913717859839
 10
44.90603996921527
 20
24.71450725029712
 10
44.89202747027957
 20
24.49598711690089
 10
44.88227219481337
 20
24.34383770562277
  0
LWPOLYLINE
  5
F6
330
2
100
AcDbEntity
  8
0
100
AcDbPolyline
 90
        4
 70
   128
 43
0.0
 10
44.98730481343557
 20
25.72999567686077
 10
44.98282970586489
 20
25.67478378137435
 10
44.96493746671695
 20
25.45393338092163
 10
44.90954341465385
 20
24.76913717859839
  0
SPLINE
  5
F7
330
2
100
AcDbEntity
  8
0
100
AcDbSpline
210
0.0
220
0.0
230
1.0
 70
     8
 71
     3
 72
     8
 73
     4
 74
     0
 42
0.000000001
 43
0.0000000001
 40
0.0
 40
0.0
 40
0.0
 40
0.0
 40
1.0
 40
1.0
 40
1.0
 40
1.0
 10
44.99693333791253
 20
25.73801914163107
 30
0.0
 10
44.99367421814077
 20
25.73593287908409
 30
0.0
 10
44.99046529299731
 20
25.73325344799872
 30
0.0
 10
44.9873048134459
 20
25.7299956768606
 30
0.0
  0
LWPOLYLINE
  5
F8
330
2
100
AcDbEntity
  8
0
100
AcDbPolyline
 90
       26
 70
   128
 43
0.0
 10
44.99693333791356
 20
25.73801914162288
 10
45.34582368660936
 20
25.9453752291326
 10
45.72388261876812
 20
26.13952858817714
 10
46.12911750738578
 20
26.31945589886493
 10
46.55939248975982
 20
26.48420882226037
 10
47.01243972486179
 20
26.63291899865476
 10
47.48587134646185
 20
26.76480262460155
 10
47.97719204881309
 20
26.87916458390993
 10
48.4838122385404
 20
26.97540211148265
 10
49.00306168363113
 20
27.05300797026848
 10
49.53220358728754
 20
27.11157312477872
 10
50.06844901280214
 20
27.15078889692075
 10
50.6089715830152
 20
27.1704485929509
 10
51.15092237735871
 20
27.1704485929509
 10
51.69144494757166
 20
27.15078889692075
 10
52.22769037306489
 20
27.11157312477872
 10
52.75683227672129
 20
27.05300797026848
 10
53.27608172181214
 20
26.97540211148265
 10
53.78270191153956
 20
26.87916458390993
 10
54.27402261389068
 20
26.76480262460155
 10
54.74745423551201
 20
26.63291899865476
 10
55.20050147061397
 20
26.48420882226037
 10
55.63077645296676
 20
26.31945589886493
 10
56.03601134160567
 20
26.13952858817714
 10
56.41407027376454
 20
25.9453752291326
 10
56.76296062246024
 20
25.73801914162288
  0
SPLINE
  5
F9
330
2
100
AcDbEntity
  8
0
100
AcDbSpline
210
0.0
220
0.0
230
1.0
 70
     8
 71
     3
 72
     8
 73
     4
 74
     0
 42
0.000000001
 43
0.0000000001
 40
0.0
 40
0.0
 40
0.0
 40
0.0
 40
1.0
 40
1.0
 40
1.0
 40
1.0
 10
56.77258914691719
 20
25.7299956768606
 30
0.0
 10
56.76946377921558
 20
25.73321725527245
 30
0.0
 10
56.76619955844056
 20
25.73594579934201
 30
0.0
 10
56.76296062245057
 20
25.73801914163107
 30
0.0
  0
LWPOLYLINE
  5
FA
330
2
100
AcDbEntity
  8
0
100
AcDbPolyline
 90
        4
 70
   128
 43
0.0
 10
56.85035054569869
 20
24.76913717859839
 10
56.84588873091263
 20
24.8243536464488
 10
56.82803345386311
 20
25.04521676087563
 10
56.77258914691697
 20
25.72999567686077
  0
LWPOLYLINE
  5
FB
330
2
100
AcDbEntity
  8
0
100
AcDbPolyline
 90
        4
 70
   128
 43
0.0
 10
56.87762176553917
 20
24.34383770562277
 10
56.87411918801764
 20
24.39846791821049
 10
56.86010760245006
 20
24.61698835078033
 10
56.85035054569869
 20
24.76913717859839
  0
ARC
  5
FC
330
2
100
AcDbEntity
  8
0
100
AcDbCircle
 10
53.77640635979911
 20
19.5903903717267
 30
0.0
 40
5.675631995552802
100
AcDbArc
 50
55.82472851109947
 51
56.87900957709564
  0
SPLINE
  5
FD
330
2
100
AcDbEntity
  8
0
100
AcDbSpline
210
0.0
220
0.0
230
1.0
 70
     8
 71
     3
 72
    12
 73
     8
 74
     0
 42
0.000000001
 43
0.0000000001
 40
0.0
 40
0.0
 40
0.0
 40
0.0
 40
0.2499999999999977
 40
0.2499999999999977
 40
0.4999999999999953
 40
0.4999999999999953
 40
1.0
 40
1.0
 40
1.0
 40
1.0
 10
57.03272233543554
 20
24.15253269071911
 30
0.0
 10
57.03195835253177
 20
24.16455680729655
 30
0.0
 10
57.02960065121897
 20
24.17744451053693
 30
0.0
 10
57.02199300525695
 20
24.20370724184204
 30
0.0
 10
57.01676128045164
 20
24.21691892086852
 30
0.0
 10
56.99800212784861
 20
24.25377704386739
 30
0.0
 10
56.98125418878408
 20
24.27463440684335
 30
0.0
 10
56.96455847584639
 20
24.28597176639499
 30
0.0
  0
LINE
  5
FE
330
2
100
AcDbEntity
  8
0
100
AcDbLine
 10
57.08698119931886
 20
23.29832973266503
 30
0.0
 11
57.03272233543554
 21
24.15253269072446
 31
0.0
  0
ELLIPSE
  5
FF
330
2
100
AcDbEntity
  8
0
100
AcDbEllipse
 10
57.6207352566214
 20
24.74085333745461
 30
0.0
 11
-0.015606090639106
 21
0.0509919294702858
 31
0.0
210
0.0
220
0.0
230
1.0
 40
0.4241965134
 41
6.276413276825082
 42
7.226106511357236
  0
LINE
  5
100
330
2
100
AcDbEntity
  8
0
100
AcDbLine
 10
57.59253276347692
 20
23.86507583253251
 30
0.0
 11
57.59406266811163
 21
24.76544988937758
 31
0.0
  0
LINE
  5
101
330
2
100
AcDbEntity
  8
0
100
AcDbLine
 10
57.59253276347692
 20
23.86507583253251
 30
0.0
 11
57.60296148169584
 21
23.03307190188531
 31
0.0
  0
LINE
  5
102
330
2
100
AcDbEntity
  8
0
100
AcDbLine
 10
56.7908202821476
 20
25.50482743671205
 30
0.0
 11
57.61185707250309
 21
24.79378871881937
 31
0.0
  0
ELLIPSE
  5
103
330
2
100
AcDbEntity
  8
0
100
AcDbEllipse
 10
44.13915870373113
 20
24.74085333745461
 30
0.0
 11
0.0156060906391181
 21
0.0509919294702858
 31
0.0
210
0.0
220
0.0
230
1.0
 40
0.4241965134
 41
5.340264103002398
 42
6.289957337534119
  0
LINE
  5
104
330
2
100
AcDbEntity
  8
0
100
AcDbLine
 10
44.16736119689686
 20
23.86507583253251
 30
0.0
 11
44.15692133650134
 21
23.03218298115547
 31
0.0
  0
LINE
  5
105
330
2
100
AcDbEntity
  8
0
100
AcDbLine
 10
44.1658312922409
 20
24.76544988937758
 30
0.0
 11
44.16736119689686
 21
23.86507583253251
 31
0.0
  0
LINE
  5
106
330
2
100
AcDbEntity
  8
0
100
AcDbLine
 10
44.14803688784945
 20
24.79378871881937
 30
0.0
 11
44.96905967638929
 21
25.50481531075547
 31
0.0
  0
LINE
  5
107
330
2
100
AcDbEntity
  8
0
100
AcDbLine
 10
44.10746406942076
 20
23.01834196950256
 30
0.0
 11
44.10555665393007
 21
23.3952612702509
 31
0.0
  0
LINE
  5
108
330
2
100
AcDbEntity
  8
0
100
AcDbLine
 10
43.97658822416575
 20
23.15559132313012
 30
0.0
 11
43.996161721902
 21
23.51945954429607
 31
0.0
  0
LINE
  5
109
330
2
100
AcDbEntity
  8
0
100
AcDbLine
 10
44.10555665393007
 20
23.3952612702509
 30
0.0
 11
44.09278329821471
 21
23.4915672977358
 31
0.0
  0
LINE
  5
10A
330
2
100
AcDbEntity
  8
0
100
AcDbLine
 10
57.65242989093177
 20
23.01834196950256
 30
0.0
 11
57.65433730644372
 21
23.3952612702509
 31
0.0
  0
LINE
  5
10B
330
2
100
AcDbEntity
  8
0
100
AcDbLine
 10
57.65433730644372
 20
23.3952612702509
 30
0.0
 11
57.66711066213781
 21
23.4915672977358
 31
0.0
  0
LINE
  5
10C
330
2
100
AcDbEntity
  8
0
100
AcDbLine
 10
57.76373223845053
 20
23.51945954429607
 30
0.0
 11
57.78313506433892
 21
23.15876408596529
 31
0.0
  0
SPLINE
  5
10D
330
2
100
AcDbEntity
  8
0
100
AcDbSpline
210
0.0
220
0.0
230
1.0
 70
     8
 71
     3
 72
     8
 73
     4
 74
     0
 42
0.000000001
 43
0.0000000001
 40
0.0
 40
0.0
 40
0.0
 40
0.0
 40
1.0
 40
1.0
 40
1.0
 40
1.0
 10
43.96461408061509
 20
24.84431952201413
 30
0.0
 10
43.9628147401804
 20
24.8432761780739
 30
0.0
 10
43.96088120328477
 20
24.84150333195783
 30
0.0
 10
43.95890953709339
 20
24.83906416038895
 30
0.0
  0
LWPOLYLINE
  5
10E
330
2
100
AcDbEntity
  8
0
100
AcDbPolyline
 90
        4
 70
   128
 43
0.0
 10
43.92382673901102
 20
23.91548149654625
 10
43.9261639712024
 20
23.96885802189769
 10
43.93552083027725
 20
24.18236129046352
 10
43.96461408060964
 20
24.8443195220118
  0
LWPOLYLINE
  5
10F
330
2
100
AcDbEntity
  8
0
100
AcDbPolyline
 90
        4
 70
   128
 43
0.0
 10
43.90092918131881
 20
23.49396972611066
 10
43.90386997232304
 20
23.54811341729555
 10
43.91563437057265
 20
23.76468772855043
 10
43.92382673901102
 20
23.91548149654625
  0
ARC
  5
110
330
2
100
AcDbEntity
  8
0
100
AcDbCircle
 10
46.46843600618989
 20
21.36261684864701
 30
0.0
 40
3.336878239327805
100
AcDbArc
 50
138.8008210537994
 51
140.3030696584019
  0
SPLINE
  5
111
330
2
100
AcDbEntity
  8
0
100
AcDbSpline
210
0.0
220
0.0
230
1.0
 70
     8
 71
     3
 72
    12
 73
     8
 74
     0
 42
0.000000001
 43
0.0000000001
 40
0.0
 40
0.0
 40
0.0
 40
0.0
 40
0.2499999999999977
 40
0.2499999999999977
 40
0.4999999999999953
 40
0.4999999999999953
 40
1.0
 40
1.0
 40
1.0
 40
1.0
 10
43.99616172191133
 20
23.51945954428913
 30
0.0
 10
43.99680303008517
 20
23.53137742143406
 30
0.0
 10
43.99628151509931
 20
23.54177165021667
 30
0.0
 10
43.99304497142589
 20
23.55864303781402
 30
0.0
 10
43.99032876815328
 20
23.56497160921765
 30
0.0
 10
43.97962049057809
 20
23.57631018909791
 30
0.0
 10
43.96897659924753
 20
23.5734455310955
 30
0.0
 10
43.95768757294923
 20
23.56054739555053
 30
0.0
  0
ARC
  5
112
330
2
100
AcDbEntity
  8
0
100
AcDbCircle
 10
45.70105571172393
 20
23.34878642027979
 30
0.0
 40
2.292597006993313
100
AcDbArc
 50
139.4554486086958
 51
174.1405686756938
  0
SPLINE
  5
113
330
2
100
AcDbEntity
  8
0
100
AcDbSpline
210
0.0
220
0.0
230
1.0
 70
     8
 71
     3
 72
    12
 73
     8
 74
     0
 42
0.000000001
 43
0.0000000001
 40
0.0
 40
0.0
 40
0.0
 40
0.0
 40
0.2499999999999977
 40
0.2499999999999977
 40
0.4999999999999953
 40
0.4999999999999953
 40
1.0
 40
1.0
 40
1.0
 40
1.0
 10
57.80220638741389
 20
23.56054739555049
 30
0.0
 10
57.79656133982712
 20
23.56699707393807
 30
0.0
 10
57.7911307076331
 20
23.57098000921792
 30
0.0
 10
57.78117199144684
 20
23.57378986325512
 30
0.0
 10
57.77672724728336
 20
23.57254325948657
 30
0.0
 10
57.76600570173332
 20
23.56122645285683
 30
0.0
 10
57.76244954374282
 20
23.54329675482075
 30
0.0
 10
57.76373223845165
 20
23.51945954428913
 30
0.0
  0
ARC
  5
114
330
2
100
AcDbEntity
  8
0
100
AcDbCircle
 10
55.29145795407725
 20
21.36261684856174
 30
0.0
 40
3.336878239446098
100
AcDbArc
 50
39.69693034169575
 51
41.19917894620064
  0
LWPOLYLINE
  5
115
330
2
100
AcDbEntity
  8
0
100
AcDbPolyline
 90
        4
 70
   128
 43
0.0
 10
57.83606722134152
 20
23.91548149654625
 10
57.83900885219474
 20
23.86133811396218
 10
57.85077413422982
 20
23.64476412747507
 10
57.85896477903373
 20
23.49396972611066
  0
LWPOLYLINE
  5
116
330
2
100
AcDbEntity
  8
0
100
AcDbPolyline
 90
        4
 70
   128
 43
0.0
 10
57.7952798797429
 20
24.8443195220118
 10
57.7976302597283
 20
24.79094769462745
 10
57.80702367764547
 20
24.57745748924589
 10
57.83606722134152
 20
23.91548149654625
  0
SPLINE
  5
117
330
2
100
AcDbEntity
  8
0
100
AcDbSpline
210
0.0
220
0.0
230
1.0
 70
     8
 71
     3
 72
     8
 73
     4
 74
     0
 42
0.000000001
 43
0.0000000001
 40
0.0
 40
0.0
 40
0.0
 40
0.0
 40
1.0
 40
1.0
 40
1.0
 40
1.0
 10
57.80098442326971
 20
24.83906416038889
 30
0.0
 10
57.79900047042611
 20
24.8415185319206
 30
0.0
 10
57.79709943481885
 20
24.84326445665761
 30
0.0
 10
57.79527987974802
 20
24.84431952201413
 30
0.0
  0
ARC
  5
118
330
2
100
AcDbEntity
  8
0
100
AcDbCircle
 10
56.08546548407911
 20
23.36019996343452
 30
0.0
 40
2.26496016383422
100
AcDbArc
 50
5.640979907208009
 51
40.76300280839808
  0
ELLIPSE
  5
119
330
2
100
AcDbEntity
  8
0
100
AcDbEllipse
 10
44.03957073611104
 20
23.44455502141
 30
0.0
 11
0.0160860488507166
 21
0.1061213039284617
 31
0.0
210
0.0
220
0.0
230
0.9999999999999998
 40
0.4926395442000001
 41
5.24450207558701
 42
6.218569152574259
  0
ELLIPSE
  5
11A
330
2
100
AcDbEntity
  8
0
100
AcDbEllipse
 10
57.72032322426287
 20
23.44455502141
 30
0.0
 11
-0.0160860488507045
 21
0.1061213039284617
 31
0.0
210
0.0
220
0.0
230
1.0
 40
0.4926395442000001
 41
0.0646161546055805
 42
1.03868323159278
  0
SPLINE
  5
11B
330
2
100
AcDbEntity
  8
0
100
AcDbSpline
210
0.0
220
0.0
230
1.0
 70
     8
 71
     3
 72
     8
 73
     4
 74
     0
 42
0.000000001
 43
0.0000000001
 40
0.0
 40
0.0
 40
0.0
 40
0.0
 40
1.0
 40
1.0
 40
1.0
 40
1.0
 10
43.96461408061509
 20
24.84431952201413
 30
0.0
 10
43.96677928549912
 20
24.84557501172123
 30
0.0
 10
43.97021031322924
 20
24.84535794910506
 30
0.0
 10
43.97264846411188
 20
24.84441899564371
 30
0.0
  0
SPLINE
  5
11C
330
2
100
AcDbEntity
  8
0
100
AcDbSpline
210
0.0
220
0.0
230
1.0
 70
     8
 71
     3
 72
     8
 73
     4
 74
     0
 42
0.000000001
 43
0.0000000001
 40
0.0
 40
0.0
 40
0.0
 40
0.0
 40
1.0
 40
1.0
 40
1.0
 40
1.0
 10
57.79527987974802
 20
24.84431952201413
 30
0.0
 10
57.79311467486399
 20
24.84557501172118
 30
0.0
 10
57.78968364713374
 20
24.84535794910506
 30
0.0
 10
57.7872454962619
 20
24.84441899564371
 30
0.0
  0
ELLIPSE
  5
11D
330
2
100
AcDbEntity
  8
0
100
AcDbEllipse
 10
39.02913146167021
 20
24.75720273591782
 30
0.0
 11
-0.0078266386231758
 21
0.4275634345886039
 31
0.0
210
0.0
220
0.0
230
1.0
 40
0.584460762865635
 41
1.255334287596886
 42
6.733877229837813
  0
ELLIPSE
  5
11E
330
2
100
AcDbEntity
  8
0
100
AcDbEllipse
 10
39.01411601676818
 20
24.18458334210868
 30
0.0
 11
0.0171485171186244
 21
0.194197912260099
 31
0.0
210
0.0
220
0.0
230
1.0
 40
0.6457159237112302
 41
0.0
 42
6.283185307179584
  0
SPLINE
  5
11F
330
2
100
AcDbEntity
  8
0
100
AcDbSpline
210
0.0
220
0.0
230
1.0
 70
     8
 71
     3
 72
    10
 73
     6
 74
     0
 42
0.000000001
 43
0.0000000001
 40
0.0
 40
0.0
 40
0.0
 40
0.0
 40
0.3852248288516202
 40
0.9303658622867883
 40
1.0
 40
1.0
 40
1.0
 40
1.0
 10
29.96292236110128
 20
21.4428491038295
 30
0.0
 10
29.94399687405189
 20
21.42771295219256
 30
0.0
 10
29.89828946954629
 20
21.39115726389153
 30
0.0
 10
29.8568690253054
 20
21.33892647057425
 30
0.0
 10
29.84595648873574
 20
21.3018821987281
 30
0.0
 10
29.84472045138421
 20
21.29768628118248
 30
0.0
  0
SPLINE
  5
120
330
2
100
AcDbEntity
  8
0
100
AcDbSpline
210
0.0
220
0.0
230
1.0
 70
     8
 71
     3
 72
    10
 73
     6
 74
     0
 42
0.000000001
 43
0.0000000001
 40
0.0
 40
0.0
 40
0.0
 40
0.0
 40
0.178406816138169
 40
0.5961940725780118
 40
1.0
 40
1.0
 40
1.0
 40
1.0
 10
30.24220535659299
 20
21.45703034688171
 30
0.0
 10
30.23301464209271
 20
21.46418306043103
 30
0.0
 10
30.20230141248419
 20
21.48808576500966
 30
0.0
 10
30.13422551154179
 20
21.49995898689491
 30
0.0
 10
30.08006029175806
 20
21.4898835700522
 30
0.0
 10
30.05343855579611
 20
21.48493159001845
 30
0.0
  0
SPLINE
  5
121
330
2
100
AcDbEntity
  8
0
100
AcDbSpline
210
0.0
220
0.0
230
1.0
 70
     8
 71
     3
 72
    12
 73
     8
 74
     0
 42
0.000000001
 43
0.0000000001
 40
0.0
 40
0.0
 40
0.0
 40
0.0
 40
0.0291081485275992
 40
0.324446051290663
 40
0.5915218762100177
 40
0.8482103367107132
 40
1.0
 40
1.0
 40
1.0
 40
1.0
 10
29.86417317409871
 20
21.33614892799369
 30
0.0
 10
29.86209912237064
 20
21.33352846094675
 30
0.0
 10
29.83898126955603
 20
21.30432013857276
 30
0.0
 10
29.81999147547367
 20
21.237319400974
 30
0.0
 10
29.8154468052229
 20
21.14873898082445
 30
0.0
 10
29.83509905670928
 20
21.07624476859474
 30
0.0
 10
29.86433818714534
 20
21.04423506769703
 30
0.0
 10
29.87520339021319
 20
21.03234032612272
 30
0.0
  0
LINE
  5
122
330
2
100
AcDbEntity
  8
0
100
AcDbLine
 10
30.30802192208319
 20
21.41709687792968
 30
0.0
 11
30.24220535659299
 21
21.45703034688171
 31
0.0
  0
LINE
  5
123
330
2
100
AcDbEntity
  8
0
100
AcDbLine
 10
29.87520339021319
 20
21.03234032612272
 30
0.0
 11
29.92412077399638
 21
20.97380683557378
 31
0.0
  0
SPLINE
  5
124
330
2
100
AcDbEntity
  8
0
100
AcDbSpline
210
0.0
220
0.0
230
1.0
 70
     8
 71
     3
 72
     9
 73
     5
 74
     0
 42
0.000000001
 43
0.0000000001
 40
0.0
 40
0.0
 40
0.0
 40
0.0
 40
0.0304439907759075
 40
1.0
 40
1.0
 40
1.0
 40
1.0
 10
20.85603508947281
 20
18.82407083841087
 30
0.0
 10
20.85513709484542
 20
18.82375452947255
 30
0.0
 10
20.82564048141183
 20
18.81336466499638
 30
0.0
 10
20.80194936150201
 20
18.79109914169203
 30
0.0
 10
20.77897949382816
 20
18.76951146977376
 30
0.0
  0
SPLINE
  5
125
330
2
100
AcDbEntity
  8
0
100
AcDbSpline
210
0.0
220
0.0
230
1.0
 70
     8
 71
     3
 72
     9
 73
     5
 74
     0
 42
0.000000001
 43
0.0000000001
 40
0.0
 40
0.0
 40
0.0
 40
0.0
 40
0.558387413646741
 40
1.0
 40
1.0
 40
1.0
 40
1.0
 10
20.77897949382816
 20
18.76951146977376
 30
0.0
 10
20.76180515819761
 20
18.75199852060228
 30
0.0
 10
20.73104813321675
 20
18.72063508234521
 30
0.0
 10
20.71491545570371
 20
18.68021800972693
 30
0.0
 10
20.70779106226234
 20
18.66236932175513
 30
0.0
  0
SPLINE
  5
126
330
2
100
AcDbEntity
  8
0
100
AcDbSpline
210
0.0
220
0.0
230
1.0
 70
     8
 71
     3
 72
    10
 73
     6
 74
     0
 42
0.000000001
 43
0.0000000001
 40
0.0
 40
0.0
 40
0.0
 40
0.0
 40
0.3341848966245098
 40
0.6760545672849795
 40
1.0
 40
1.0
 40
1.0
 40
1.0
 10
21.09515850444962
 20
18.82591600929259
 30
0.0
 10
21.07085380349349
 20
18.83691725584779
 30
0.0
 10
21.02168550099418
 20
18.85917272895449
 30
0.0
 10
20.9382541650192
 20
18.85777292089909
 30
0.0
 10
20.88672383411211
 20
18.83651380516681
 30
0.0
 10
20.86165228608184
 20
18.82617040290677
 30
0.0
  0
SPLINE
  5
127
330
2
100
AcDbEntity
  8
0
100
AcDbSpline
210
0.0
220
0.0
230
1.0
 70
     8
 71
     3
 72
    11
 73
     7
 74
     0
 42
0.000000001
 43
0.0000000001
 40
0.0
 40
0.0
 40
0.0
 40
0.0
 40
0.1174437488512791
 40
0.4532904660140817
 40
0.7450588621110571
 40
1.0
 40
1.0
 40
1.0
 40
1.0
 10
20.71077729697936
 20
18.67062135556014
 30
0.0
 10
20.70470273532169
 20
18.66025843897893
 30
0.0
 10
20.68125712062101
 20
18.62026132263778
 30
0.0
 10
20.67266400104518
 20
18.54519129189248
 30
0.0
 10
20.68403580253289
 20
18.45961720287531
 30
0.0
 10
20.71392507850135
 20
18.41690803031216
 30
0.0
 10
20.7278630209596
 20
18.39699192427292
 30
0.0
  0
LINE
  5
128
330
2
100
AcDbEntity
  8
0
100
AcDbLine
 10
21.13644062192509
 20
18.79982031704997
 30
0.0
 11
21.10464323668646
 21
18.82072398271913
 31
0.0
  0
LINE
  5
129
330
2
100
AcDbEntity
  8
0
100
AcDbLine
 10
20.73184443280297
 20
18.3902528477083
 30
0.0
 11
20.75707727669897
 21
18.36176849332941
 31
0.0
  0
LINE
  5
12A
330
2
100
AcDbEntity
  8
0
100
AcDbLine
 10
29.92412077399638
 20
20.97380683557378
 30
0.0
 11
29.96143828675725
 21
20.94148892151722
 31
0.0
  0
LINE
  5
12B
330
2
100
AcDbEntity
  8
0
100
AcDbLine
 10
30.34533943482256
 20
21.38477896387309
 30
0.0
 11
30.30802192208319
 21
21.41709687792968
 31
0.0
  0
LINE
  5
12C
330
2
100
AcDbEntity
  8
0
100
AcDbLine
 10
33.55456369693798
 20
22.04049112794113
 30
0.0
 11
33.50839519915144
 21
22.02716343061951
 31
0.0
  0
LINE
  5
12D
330
2
100
AcDbEntity
  8
0
100
AcDbLine
 10
36.51622265278775
 20
22.50928525931056
 30
0.0
 11
34.86580697249883
 21
23.93858716524582
 31
0.0
  0
LINE
  5
12E
330
2
100
AcDbEntity
  8
0
100
AcDbLine
 10
34.72907044436988
 20
24.0570044722308
 30
0.0
 11
34.6162977469827
 21
24.15466849302152
 31
0.0
  0
LINE
  5
12F
330
2
100
AcDbEntity
  8
0
100
AcDbLine
 10
34.55536060407826
 20
24.20744160681091
 30
0.0
 11
33.51955558137126
 21
25.10447506984335
 31
0.0
  0
LINE
  5
130
330
2
100
AcDbEntity
  8
0
100
AcDbLine
 10
33.42370171421328
 20
25.10206769834332
 30
0.0
 11
16.98774883580393
 21
20.35741678898521
 31
0.0
  0
LINE
  5
131
330
2
100
AcDbEntity
  8
0
100
AcDbLine
 10
33.47641095487859
 20
20.5686262479617
 30
0.0
 11
36.40849840582929
 21
18.02936402930317
 31
0.0
  0
LINE
  5
132
330
2
100
AcDbEntity
  8
0
100
AcDbLine
 10
37.32774040925426
 20
18.30956099560836
 30
0.0
 11
37.32774040925426
 21
18.3557294933949
 31
0.0
  0
LINE
  5
133
330
2
100
AcDbEntity
  8
0
100
AcDbLine
 10
17.56052100845295
 20
13.48652659662662
 30
0.0
 11
35.63071721434108
 21
18.70294291852639
 31
0.0
  0
LINE
  5
134
330
2
100
AcDbEntity
  8
0
100
AcDbLine
 10
13.69792340525373
 20
14.8585140797808
 30
0.0
 11
13.69792340525373
 21
14.81234558199426
 31
0.0
  0
LINE
  5
135
330
2
100
AcDbEntity
  8
0
100
AcDbLine
 10
29.96355450561816
 20
21.44324543001431
 30
0.0
 11
30.0502171837403
 21
21.48404775350821
 31
0.0
  0
LINE
  5
136
330
2
100
AcDbEntity
  8
0
100
AcDbLine
 10
20.8553256094807
 20
18.82411942882135
 30
0.0
 11
20.86074400476298
 21
18.82684039430484
 31
0.0
  0
LINE
  5
137
330
2
100
AcDbEntity
  8
0
100
AcDbLine
 10
21.0974388898901
 20
18.82519711294247
 30
0.0
 11
21.10464323668646
 21
18.82072398271913
 31
0.0
  0
LINE
  5
138
330
2
100
AcDbEntity
  8
0
100
AcDbLine
 10
20.73184443280297
 20
18.3902528477083
 30
0.0
 11
20.72793680390453
 21
18.39483146411771
 31
0.0
  0
LWPOLYLINE
  5
139
330
2
100
AcDbEntity
  8
0
100
AcDbPolyline
 90
        6
 70
   128
 43
0.0
 10
21.10259422645186
 20
18.39677231073304
 10
21.16907207505528
 20
18.48052812454816
 10
21.20773833813496
 20
18.5759108673038
 10
21.21336862597445
 20
18.67003692212646
 10
21.18520480349491
 20
18.7501954051684
 10
21.13644062192509
 20
18.79982031704997
  0
ARC
  5
13A
330
2
100
AcDbEntity
  8
0
100
AcDbCircle
 10
20.91309262329946
 20
18.54453907955081
 30
0.0
 40
0.2403037152505904
100
AcDbArc
 50
229.5154980495007
 51
322.0541318141942
  0
LWPOLYLINE
  5
13B
330
2
100
AcDbEntity
  8
0
100
AcDbPolyline
 90
       11
 70
   128
 43
0.0
 10
29.96143828675725
 20
20.94148892151722
 10
29.9666158950289
 20
20.9371864494679
 10
30.04137268837292
 20
20.90291392625971
 10
30.13125778440099
 20
20.90378527318037
 10
30.22413276690986
 20
20.93968327232474
 10
30.30745194566782
 20
21.0057593131632
 10
30.3699643764877
 20
21.09308983448963
 10
30.40322737948611
 20
21.18988031809337
 10
30.40274855736266
 20
21.28305840472831
 10
30.36859120266911
 20
21.36003991820102
 10
30.34533943482256
 20
21.38477896387309
  0
LWPOLYLINE
  5
13C
330
2
100
AcDbEntity
  8
0
100
AcDbPolyline
 90
       14
 70
   128
 43
0.0
 10
29.85263696463495
 20
20.95802206322088
 10
29.90734239322194
 20
20.88256964958987
 10
29.98871050939624
 20
20.83752064817412
 10
30.08792300553216
 20
20.82775667960468
 10
30.19423115033112
 20
20.8543363395803
 10
30.29611294225765
 20
20.9143789687231
 10
30.38252795375377
 20
21.0013780494412
 10
30.4441130106859
 20
21.10590582945087
 10
30.47419212168052
 20
21.21663479193856
 10
30.46950847071173
 20
21.32156646047156
 10
30.43056839840768
 20
21.40932981725348
 10
30.36159049288722
 20
21.47041353934526
 10
30.27005153420077
 20
21.49819895744892
 10
30.17494342431951
 20
21.49181556863721
  0
LWPOLYLINE
  5
13D
330
2
100
AcDbEntity
  8
0
100
AcDbPolyline
 90
        3
 70
   128
 43
0.0
 10
29.83099365390797
 20
21.09256989923273
 10
29.83052308732727
 20
21.05570165878342
 10
29.85263696463495
 20
20.95802206322088
  0
LWPOLYLINE
  5
13E
330
2
100
AcDbEntity
  8
0
100
AcDbPolyline
 90
       14
 70
   128
 43
0.0
 10
20.74278447624101
 20
18.26779801101611
 10
20.8154072088546
 20
18.21101777221321
 10
20.90933890227359
 20
18.18818191103676
 10
21.01439908249426
 20
18.20176446936732
 10
21.11920471647386
 20
18.25029429458104
 10
21.21239753781845
 20
18.32851154857809
 10
21.28387962805971
 20
18.42794109780928
 10
21.32590452570446
 20
18.53780773674205
 10
21.33391654085767
 20
18.64620550715781
 10
21.30704884037141
 20
18.74138797294335
 10
21.24821425883715
 20
18.81304102365148
 10
21.1637860839935
 20
18.85339947588835
 10
21.06291422151094
 20
18.85809021086567
 10
21.03142203484708
 20
18.85244623742801
  0
ARC
  5
13F
330
2
100
AcDbEntity
  8
0
100
AcDbCircle
 10
20.96341121794444
 20
18.43157385199478
 30
0.0
 40
0.2747702408283685
100
AcDbArc
 50
173.769377047998
 51
216.5872708829968
  0
LWPOLYLINE
  5
140
330
2
100
AcDbEntity
  8
0
100
AcDbPolyline
 90
        4
 70
   128
 43
0.0
 10
33.58413510252979
 20
22.03038959765235
 10
33.57373473625341
 20
22.03762232291848
 10
33.56373404798001
 20
22.04102851289281
 10
33.55451732436473
 20
22.04047762666994
  0
LINE
  5
141
330
2
100
AcDbEntity
  8
0
100
AcDbLine
 10
33.58413510252979
 20
22.03038959765235
 30
0.0
 11
33.69075648244621
 21
21.93805277408086
 31
0.0
  0
LWPOLYLINE
  5
142
330
2
100
AcDbEntity
  8
0
100
AcDbPolyline
 90
        3
 70
   128
 43
0.0
 10
33.69075648244621
 20
21.93805277408086
 10
33.76585324774953
 20
21.89171830525939
 10
33.81958273034695
 20
21.88768718399479
  0
LINE
  5
143
330
2
100
AcDbEntity
  8
0
100
AcDbLine
 10
36.51622265278775
 20
22.50928525931056
 30
0.0
 11
36.51622265278775
 21
19.07280942826813
 31
0.0
  0
ARC
  5
144
330
2
100
AcDbEntity
  8
0
100
AcDbCircle
 10
33.68678299724252
 20
21.46132752825315
 30
0.0
 40
0.2021343439616214
100
AcDbArc
 50
179.5143398835028
 51
222.5891566898016
  0
LINE
  5
145
330
2
100
AcDbEntity
  8
0
100
AcDbLine
 10
33.4846559147851
 20
21.97089331656465
 30
0.0
 11
33.4846559147851
 21
21.46304087283727
 31
0.0
  0
LINE
  5
146
330
2
100
AcDbEntity
  8
0
100
AcDbLine
 10
33.53796660474336
 20
21.324535809439
 30
0.0
 11
33.85783074447103
 21
21.04752533868202
 31
0.0
  0
LINE
  5
147
330
2
100
AcDbEntity
  8
0
100
AcDbLine
 10
16.97587924327433
 20
16.95898857401124
 30
0.0
 11
16.97587924327433
 21
20.3292816889574
 31
0.0
  0
LINE
  5
148
330
2
100
AcDbEntity
  8
0
100
AcDbLine
 10
30.54939145046524
 20
22.40088136854252
 30
0.0
 11
29.81069686176568
 21
22.18763860870985
 31
0.0
  0
LINE
  5
149
330
2
100
AcDbEntity
  8
0
100
AcDbLine
 10
30.54939145046524
 20
22.67789166729787
 30
0.0
 11
30.54939145046524
 21
22.40088136854252
 31
0.0
  0
LINE
  5
14A
330
2
100
AcDbEntity
  8
0
100
AcDbLine
 10
30.54939145046524
 20
22.67789166729787
 30
0.0
 11
29.81069686176568
 21
22.46464890748652
 31
0.0
  0
LINE
  5
14B
330
2
100
AcDbEntity
  8
0
100
AcDbLine
 10
29.81069686176568
 20
22.46464890748652
 30
0.0
 11
29.81069686176568
 21
22.18763860870985
 31
0.0
  0
LINE
  5
14C
330
2
100
AcDbEntity
  8
0
100
AcDbLine
 10
21.40804677538597
 20
19.76200246408325
 30
0.0
 11
20.6693521867079
 21
19.54875970427184
 31
0.0
  0
LINE
  5
14D
330
2
100
AcDbEntity
  8
0
100
AcDbLine
 10
21.40804677538597
 20
20.03901276283861
 30
0.0
 11
21.40804677538597
 21
19.76200246408325
 31
0.0
  0
LINE
  5
14E
330
2
100
AcDbEntity
  8
0
100
AcDbLine
 10
21.40804677538597
 20
20.03901276283861
 30
0.0
 11
20.6693521867079
 21
19.82577000302723
 31
0.0
  0
LINE
  5
14F
330
2
100
AcDbEntity
  8
0
100
AcDbLine
 10
20.6693521867079
 20
19.82577000302723
 30
0.0
 11
20.6693521867079
 21
19.54875970427184
 31
0.0
  0
LWPOLYLINE
  5
150
330
2
100
AcDbEntity
  8
0
100
AcDbPolyline
 90
        7
 70
   128
 43
0.0
 10
33.50839519915144
 20
22.02716343061951
 10
33.5083488265782
 20
22.02714992934821
 10
33.50027026675093
 20
22.02266303575718
 10
33.49364047761265
 20
22.01441212550435
 10
33.4887139622017
 20
22.00271477944454
 10
33.48568028206229
 20
21.98802015130497
 10
33.4846559147851
 20
21.97089331656465
  0
ARC
  5
151
330
2
100
AcDbEntity
  8
0
100
AcDbCircle
 10
33.40713616878498
 20
20.61263966308073
 30
0.0
 40
0.626299570005232
100
AcDbArc
 50
13.13109163540028
 51
43.97729533529893
  0
ARC
  5
152
330
2
100
AcDbEntity
  8
0
100
AcDbCircle
 10
32.47625533438338
 20
21.44714575033822
 30
0.0
 40
0.1313615257228627
100
AcDbArc
 50
287.2089174333017
 51
357.1688175609007
  0
LINE
  5
153
330
2
100
AcDbEntity
  8
0
100
AcDbLine
 10
32.51511952511669
 20
21.32166497443086
 30
0.0
 11
17.09487291008963
 21
16.8702232073644
 31
0.0
  0
LINE
  5
154
330
2
100
AcDbEntity
  8
0
100
AcDbLine
 10
32.60745652068977
 20
22.64103589926628
 30
0.0
 11
32.60745652068977
 21
21.44065736464719
 31
0.0
  0
LWPOLYLINE
  5
155
330
2
100
AcDbEntity
  8
0
100
AcDbPolyline
 90
        8
 70
   128
 43
0.0
 10
33.81958273034695
 20
21.88768718399479
 10
33.84603562608879
 20
21.90961156525174
 10
33.88705351168471
 20
21.98463709407201
 10
33.90842829107271
 20
22.09221203642835
 10
33.90842829107271
 20
22.22362119316114
 10
33.88705351168471
 20
22.36821799545012
 10
33.84603562608879
 20
22.51428927409202
 10
33.82072532826987
 20
22.57419508767759
  0
LWPOLYLINE
  5
156
330
2
100
AcDbEntity
  8
0
100
AcDbPolyline
 90
        2
 70
   128
 43
0.0
 10
33.73611546328607
 20
22.73712992888417
 10
33.67406379910472
 20
22.81522605451926
  0
LWPOLYLINE
  5
157
330
2
100
AcDbEntity
  8
0
100
AcDbPolyline
 90
        2
 70
   128
 43
0.0
 10
33.67406379910472
 20
22.81522605451926
 10
33.65630530157125
 20
22.83502781854017
  0
ARC
  5
158
330
2
100
AcDbEntity
  8
0
100
AcDbCircle
 10
33.68678083621944
 20
23.07722101896911
 30
0.0
 40
0.2021321871967286
100
AcDbArc
 50
179.5141952210023
 51
222.5893967577978
  0
ARC
  5
159
330
2
100
AcDbEntity
  8
0
100
AcDbCircle
 10
33.30728868599023
 20
23.07209436415082
 30
0.0
 40
0.1313590151395757
100
AcDbArc
 50
287.2081354590032
 51
357.1692786496003
  0
LINE
  5
15A
330
2
100
AcDbEntity
  8
0
100
AcDbLine
 10
33.34615042142559
 20
22.94661545605777
 30
0.0
 11
32.69979282832049
 21
22.76002809086836
 31
0.0
  0
LINE
  5
15B
330
2
100
AcDbEntity
  8
0
100
AcDbLine
 10
33.4846559147851
 20
25.11034463052363
 30
0.0
 11
33.4846559147851
 21
23.07893485561075
 31
0.0
  0
LINE
  5
15C
330
2
100
AcDbEntity
  8
0
100
AcDbLine
 10
33.43848741699868
 20
23.06560715831046
 30
0.0
 11
33.43848741699868
 21
25.05084843543372
 31
0.0
  0
LINE
  5
15D
330
2
100
AcDbEntity
  8
0
100
AcDbLine
 10
33.65630530157125
 20
22.83502781854017
 30
0.0
 11
33.63209189934116
 21
22.85659429495291
 31
0.0
  0
LINE
  5
15E
330
2
100
AcDbEntity
  8
0
100
AcDbLine
 10
33.56594817817404
 20
22.91550741211233
 30
0.0
 11
33.53796660474336
 21
22.94043013621567
 31
0.0
  0
ARC
  5
15F
330
2
100
AcDbEntity
  8
0
100
AcDbCircle
 10
32.73865583031103
 20
22.63454898514198
 30
0.0
 40
0.1313595786377937
100
AcDbArc
 50
107.2086376752048
 51
177.1694182046991
  0
LWPOLYLINE
  5
160
330
2
100
AcDbEntity
  8
0
100
AcDbPolyline
 90
        7
 70
   128
 43
0.0
 10
16.97587924327433
 20
20.3292816889574
 10
16.97639142690229
 20
20.33784562230033
 10
16.97790821730768
 20
20.34519280736891
 10
16.98037152467736
 20
20.35104126541813
 10
16.98368641923593
 20
20.35516706452643
 10
16.98772569916025
 20
20.35740999534923
 10
16.98774883580393
 20
20.35741678898521
  0
LWPOLYLINE
  5
161
330
2
100
AcDbEntity
  8
0
100
AcDbPolyline
 90
        4
 70
   128
 43
0.0
 10
33.43848741699868
 20
25.0970169332202
 10
33.43328723387106
 20
25.10063363982448
 10
33.42828693937736
 20
25.10233669182196
 10
33.4236785775696
 20
25.10206090470729
  0
LINE
  5
162
330
2
100
AcDbEntity
  8
0
100
AcDbLine
 10
33.43848741699868
 20
25.05084843543372
 30
0.0
 11
33.43848741699868
 21
25.0970169332202
 31
0.0
  0
LINE
  5
163
330
2
100
AcDbEntity
  8
0
100
AcDbLine
 10
33.43848741699868
 20
25.0970169332202
 30
0.0
 11
33.4846559147851
 21
25.11034463052056
 31
0.0
  0
ARC
  5
164
330
2
100
AcDbEntity
  8
0
100
AcDbCircle
 10
17.12843952795174
 20
18.57342051474308
 30
0.0
 40
0.2182507987423323
100
AcDbArc
 50
180.5536595746947
 51
216.0803568636967
  0
LINE
  5
165
330
2
100
AcDbEntity
  8
0
100
AcDbLine
 10
16.91019891894348
 20
20.27954252861818
 30
0.0
 11
16.91019891894348
 21
18.57131155027159
 31
0.0
  0
LINE
  5
166
330
2
100
AcDbEntity
  8
0
100
AcDbLine
 10
16.9563667287664
 20
20.33903852513342
 30
0.0
 11
16.97793023581323
 21
20.34526337343817
 31
0.0
  0
ARC
  5
167
330
2
100
AcDbEntity
  8
0
100
AcDbCircle
 10
16.97579795873014
 20
20.27629955643797
 30
0.0
 40
0.0656791510947229
100
AcDbArc
 50
107.2085625796092
 51
177.1698141882998
  0
ARC
  5
168
330
2
100
AcDbEntity
  8
0
100
AcDbCircle
 10
34.39446327692826
 20
20.6383701668133
 30
0.0
 40
0.1723544617009448
100
AcDbArc
 50
57.13638854680236
 51
107.6021872118065
  0
LINE
  5
169
330
2
100
AcDbEntity
  8
0
100
AcDbLine
 10
34.48798989124714
 20
20.78314182455414
 30
0.0
 11
37.3134559623029
 21
18.3362164294883
 31
0.0
  0
LWPOLYLINE
  5
16A
330
2
100
AcDbEntity
  8
0
100
AcDbPolyline
 90
        9
 70
   128
 43
0.0
 10
37.27442965666671
 20
18.26339262308056
 10
37.29141959618824
 20
18.26948003359175
 10
37.30570744427564
 20
18.27710757213336
 10
37.3167452057021
 20
18.28598243475733
 10
37.32410779333532
 20
18.29576336648699
 10
37.32751212046401
 20
18.30607431379823
 10
37.32682819988838
 20
18.31651943863507
 10
37.32208207242639
 20
18.32669726446269
 10
37.3134559623029
 20
18.3362164294883
  0
LINE
  5
16B
330
2
100
AcDbEntity
  8
0
100
AcDbLine
 10
36.44339876035792
 20
18.02349466721887
 30
0.0
 11
37.27442965666671
 21
18.26339262308056
 31
0.0
  0
LINE
  5
16C
330
2
100
AcDbEntity
  8
0
100
AcDbLine
 10
34.34234220571602
 20
20.80265484171784
 30
0.0
 11
33.51131130940701
 21
20.5627568858774
 31
0.0
  0
LWPOLYLINE
  5
16D
330
2
100
AcDbEntity
  8
0
100
AcDbPolyline
 90
        9
 70
   128
 43
0.0
 10
35.28624945952379
 20
19.50541166661017
 10
35.22369385948422
 20
19.47798178997823
 10
35.18689384932873
 20
19.44067039988516
 10
35.18145243826871
 20
19.39915797905584
 10
35.20819683586206
 20
19.35976406452087
 10
35.26305689854122
 20
19.32848644339043
 10
35.33767922611946
 20
19.31008643306688
 10
35.4207044545152
 20
19.30736560985883
 10
35.49949219451379
 20
19.32073804094085
  0
LINE
  5
16E
330
2
100
AcDbEntity
  8
0
100
AcDbLine
 10
35.49949219451379
 20
19.32073804094085
 30
0.0
 11
35.68416549771746
 21
19.37404863159185
 31
0.0
  0
LWPOLYLINE
  5
16F
330
2
100
AcDbEntity
  8
0
100
AcDbPolyline
 90
        9
 70
   128
 43
0.0
 10
35.68416549771746
 20
19.37404863159185
 10
35.7467210977569
 20
19.40147850822382
 10
35.78352110791241
 20
19.43878989829551
 10
35.78896251897243
 20
19.48030231914617
 10
35.76221812137919
 20
19.51969623368114
 10
35.70735805870004
 20
19.55097385481161
 10
35.63273573112179
 20
19.56937386511384
 10
35.54971050272604
 20
19.57209468834317
 10
35.47092276272747
 20
19.55872225726122
  0
LINE
  5
170
330
2
100
AcDbEntity
  8
0
100
AcDbLine
 10
35.47092276272747
 20
19.55872225726122
 30
0.0
 11
35.28624945952379
 21
19.50541166661017
 31
0.0
  0
ARC
  5
171
330
2
100
AcDbEntity
  8
0
100
AcDbCircle
 10
34.39446327692826
 20
20.68453866459987
 30
0.0
 40
0.1723544617009058
100
AcDbArc
 50
57.13638854680236
 51
107.6021872118065
  0
LINE
  5
172
330
2
100
AcDbEntity
  8
0
100
AcDbLine
 10
33.48465618944181
 20
21.47843045138302
 30
0.0
 11
33.4651428116207
 21
21.47279742441952
 31
0.0
  0
LINE
  5
173
330
2
100
AcDbEntity
  8
0
100
AcDbLine
 10
33.51131130940701
 20
21.35999057603092
 30
0.0
 11
33.51131130940701
 21
20.60892538366397
 31
0.0
  0
ARC
  5
174
330
2
100
AcDbEntity
  8
0
100
AcDbCircle
 10
33.4989681538101
 20
20.59427740957807
 30
0.0
 40
0.0338510990174674
100
AcDbArc
 50
177.7647556206018
 51
291.3848674345053
  0
LINE
  5
175
330
2
100
AcDbEntity
  8
0
100
AcDbLine
 10
33.4651428116207
 20
20.5955976863423
 30
0.0
 11
33.4651428116207
 21
21.47279742441952
 31
0.0
  0
LINE
  5
176
330
2
100
AcDbEntity
  8
0
100
AcDbLine
 10
34.34234220571602
 20
20.84882333950435
 30
0.0
 11
33.51131130940701
 21
20.60892538366397
 31
0.0
  0
LINE
  5
177
330
2
100
AcDbEntity
  8
0
100
AcDbLine
 10
37.3134559623029
 20
18.38238492727487
 30
0.0
 11
34.48798989124714
 21
20.82931032234063
 31
0.0
  0
ARC
  5
178
330
2
100
AcDbEntity
  8
0
100
AcDbCircle
 10
36.43119338126928
 20
18.0576159258685
 30
0.0
 40
0.0362385370791251
100
AcDbArc
 50
231.2248071589955
 51
289.6824349112952
  0
LWPOLYLINE
  5
179
330
2
100
AcDbEntity
  8
0
100
AcDbPolyline
 90
       10
 70
   128
 43
0.0
 10
33.97265371552157
 20
20.74210346482053
 10
33.9520716390947
 20
20.80596137897408
 10
33.9088335298062
 20
20.89344703263424
 10
33.85783074447103
 20
20.95518834310897
 10
33.80682795911447
 20
20.98178644817506
 10
33.76358984984733
 20
20.96919139660264
 10
33.73469913808469
 20
20.91932088482224
 10
33.72455406923985
 20
20.83976752861468
 10
33.73469913808469
 20
20.74264205374061
 10
33.75210474256574
 20
20.67535851467079
  0
LINE
  5
17A
330
2
100
AcDbEntity
  8
0
100
AcDbLine
 10
33.48465591478521
 20
23.07550718229777
 30
0.0
 11
33.48465591478521
 21
22.87539115408575
 31
0.0
  0
LINE
  5
17B
330
2
100
AcDbEntity
  8
0
100
AcDbLine
 10
33.48465591478521
 20
22.77233769146036
 30
0.0
 11
33.48465591478521
 21
22.53979653414743
 31
0.0
  0
LINE
  5
17C
330
2
100
AcDbEntity
  8
0
100
AcDbLine
 10
33.48465591478521
 20
22.31428757881201
 30
0.0
 11
33.4846559147851
 21
21.55537786841026
 31
0.0
  0
LINE
  5
17D
330
2
100
AcDbEntity
  8
0
100
AcDbLine
 10
14.58226574209254
 20
16.02178034484041
 30
0.0
 11
14.62843355191535
 21
16.03510784354779
 31
0.0
  0
ARC
  5
17E
330
2
100
AcDbEntity
  8
0
100
AcDbCircle
 10
14.65667455706591
 20
16.09017651749042
 30
0.0
 40
0.1010678394953756
100
AcDbArc
 50
179.5143988047048
 51
222.5890500659964
  0
LINE
  5
17F
330
2
100
AcDbEntity
  8
0
100
AcDbLine
 10
33.4651428116207
 20
21.47279742441952
 30
0.0
 11
33.39292145427248
 21
21.4519489143664
 31
0.0
  0
LINE
  5
180
330
2
100
AcDbEntity
  8
0
100
AcDbLine
 10
33.3139587952453
 20
21.42915435814376
 30
0.0
 11
14.62843355191535
 21
16.03510784354779
 31
0.0
  0
LINE
  5
181
330
2
100
AcDbEntity
  8
0
100
AcDbLine
 10
33.25381411381626
 20
22.68911777109611
 30
0.0
 11
33.25381411381626
 21
22.91996026002872
 31
0.0
  0
LINE
  5
182
330
2
100
AcDbEntity
  8
0
100
AcDbLine
 10
14.55561034747052
 20
17.66075857649656
 30
0.0
 11
14.55561034747052
 21
16.09103309150953
 31
0.0
  0
ARC
  5
183
330
2
100
AcDbEntity
  8
0
100
AcDbCircle
 10
14.68681124969487
 20
17.65427044181351
 30
0.0
 40
0.1313612295844776
100
AcDbArc
 50
107.2094559851007
 51
177.1689207830023
  0
LINE
  5
184
330
2
100
AcDbEntity
  8
0
100
AcDbLine
 10
14.64794596711613
 20
17.77975056950566
 30
0.0
 11
16.97588010656625
 21
18.45176727054667
 31
0.0
  0
LINE
  5
185
330
2
100
AcDbEntity
  8
0
100
AcDbLine
 10
32.93063531725295
 20
22.82666657743403
 30
0.0
 11
32.93063531725295
 21
22.59582408850147
 31
0.0
  0
LINE
  5
186
330
2
100
AcDbEntity
  8
0
100
AcDbLine
 10
32.93063531725295
 20
22.59582408850147
 30
0.0
 11
33.25381411381626
 21
22.68911777109611
 31
0.0
  0
LINE
  5
187
330
2
100
AcDbEntity
  8
0
100
AcDbLine
 10
33.25381411381626
 20
22.04276017796965
 30
0.0
 11
33.25381411381626
 21
22.22743382515526
 31
0.0
  0
LINE
  5
188
330
2
100
AcDbEntity
  8
0
100
AcDbLine
 10
33.25381411381626
 20
22.22743382515526
 30
0.0
 11
32.93063531725295
 21
22.13414014256051
 31
0.0
  0
LINE
  5
189
330
2
100
AcDbEntity
  8
0
100
AcDbLine
 10
32.93063531725295
 20
22.13414014256051
 30
0.0
 11
32.93063531725295
 21
21.94946649537502
 31
0.0
  0
LINE
  5
18A
330
2
100
AcDbEntity
  8
0
100
AcDbLine
 10
32.93063531725295
 20
21.94946649537502
 30
0.0
 11
33.25381411381626
 21
22.04276017796965
 31
0.0
  0
LINE
  5
18B
330
2
100
AcDbEntity
  8
0
100
AcDbLine
 10
14.62843355191535
 20
16.03510784354779
 30
0.0
 11
17.56052100286615
 21
13.49584562491057
 31
0.0
  0
ARC
  5
18C
330
2
100
AcDbEntity
  8
0
100
AcDbCircle
 10
37.2923195917997
 20
18.35390292406754
 30
0.0
 40
0.0354678821482397
100
AcDbArc
 50
2.951995516900622
 51
53.42105096630671
  0
LINE
  5
18D
330
2
100
AcDbEntity
  8
0
100
AcDbLine
 10
13.75123415784128
 20
14.90468245232984
 30
0.0
 11
14.58226574209254
 21
15.14458060676324
 31
0.0
  0
LINE
  5
18E
330
2
100
AcDbEntity
  8
0
100
AcDbLine
 10
14.58226574209254
 20
15.14458060676324
 30
0.0
 11
14.58226574209254
 21
16.02178034484041
 31
0.0
  0
LINE
  5
18F
330
2
100
AcDbEntity
  8
0
100
AcDbLine
 10
14.62843355191535
 20
15.15790810547059
 30
0.0
 11
14.62843355191535
 21
16.03510784354779
 31
0.0
  0
ARC
  5
190
330
2
100
AcDbEntity
  8
0
100
AcDbCircle
 10
14.56283310080312
 20
15.16115217282276
 30
0.0
 40
0.0656806147922965
100
AcDbArc
 50
287.2094559851007
 51
357.1689207829028
  0
LINE
  5
191
330
2
100
AcDbEntity
  8
0
100
AcDbLine
 10
13.75123415784128
 20
14.85851395452204
 30
0.0
 11
14.58226574209254
 21
15.09841210897667
 31
0.0
  0
LINE
  5
192
330
2
100
AcDbEntity
  8
0
100
AcDbLine
 10
14.62843355191535
 20
15.15790810547059
 30
0.0
 11
17.56052100286615
 21
12.61864588683337
 31
0.0
  0
ARC
  5
193
330
2
100
AcDbEntity
  8
0
100
AcDbCircle
 10
17.49492055175392
 20
12.62188995418555
 30
0.0
 40
0.0656806147922627
100
AcDbArc
 50
287.2094559851007
 51
357.1689207829028
  0
ARC
  5
194
330
2
100
AcDbEntity
  8
0
100
AcDbCircle
 10
16.63120080846193
 20
12.4835288911045
 30
0.0
 40
0.1723472121932562
100
AcDbArc
 50
237.13526893439
 51
287.6028573528975
  0
LINE
  5
195
330
2
100
AcDbEntity
  8
0
100
AcDbLine
 10
16.53767529918821
 20
12.33876515025571
 30
0.0
 11
13.71220922813245
 21
14.78569054530024
 31
0.0
  0
LWPOLYLINE
  5
196
330
2
100
AcDbEntity
  8
0
100
AcDbPolyline
 90
        9
 70
   128
 43
0.0
 10
13.75123415784128
 20
14.85851395452204
 10
13.73424490626223
 20
14.85242674262517
 10
13.71995568226862
 20
14.84479880685495
 10
13.70891860878453
 20
14.83592414284521
 10
13.70155533320894
 20
14.82614301252269
 10
13.69815306997145
 20
14.81583266101157
 10
13.69883630258323
 20
14.80538733756046
 10
13.70358105411787
 20
14.79520911454699
 10
13.71220922813245
 20
14.78569054530024
  0
LINE
  5
197
330
2
100
AcDbEntity
  8
0
100
AcDbLine
 10
17.51435319304323
 20
12.55914989033948
 30
0.0
 11
16.68332160879208
 21
12.31925173588479
 31
0.0
  0
LINE
  5
198
330
2
100
AcDbEntity
  8
0
100
AcDbLine
 10
15.73941504292657
 20
13.6164951095854
 30
0.0
 11
15.55474105178052
 21
13.56318432034141
 31
0.0
  0
LWPOLYLINE
  5
199
330
2
100
AcDbEntity
  8
0
100
AcDbPolyline
 90
        9
 70
   128
 43
0.0
 10
15.52617230793657
 20
13.80116873527612
 10
15.60495867202905
 20
13.81454076915076
 10
15.68798458838864
 20
13.81182014453577
 10
15.76260622800305
 20
13.79341993561925
 10
15.8174676665883
 20
13.76214271167475
 10
15.84421068827555
 20
13.72274839995381
 10
15.83876996517927
 20
13.68123617771741
 10
15.80196926706003
 20
13.64392458903148
 10
15.73941504292657
 20
13.6164951095854
  0
LINE
  5
19A
330
2
100
AcDbEntity
  8
0
100
AcDbLine
 10
15.34149831679053
 20
13.74785794601078
 30
0.0
 11
15.52617230793657
 21
13.80116873527612
 31
0.0
  0
LWPOLYLINE
  5
19B
330
2
100
AcDbEntity
  8
0
100
AcDbPolyline
 90
        9
 70
   128
 43
0.0
 10
15.55474105178052
 20
13.56318432034141
 10
15.4759546877093
 20
13.54981228646673
 10
15.39292877134994
 20
13.55253291108172
 10
15.31830713173531
 20
13.5709331199983
 10
15.2634456931288
 20
13.60221034392143
 10
15.23670267146281
 20
13.64160465564231
 10
15.24214339455921
 20
13.68311687790009
 10
15.27894409267844
 20
13.72042846656467
 10
15.34149831679053
 20
13.74785794601078
  0
LINE
  5
19C
330
2
100
AcDbEntity
  8
0
100
AcDbLine
 10
17.56052100286615
 20
12.61864588683337
 30
0.0
 11
17.56052100286615
 21
13.49584562491057
 31
0.0
  0
LWPOLYLINE
  5
19D
330
2
100
AcDbEntity
  8
0
100
AcDbPolyline
 90
        7
 70
   128
 43
0.0
 10
13.69792340525373
 20
14.8585140797808
 10
13.69815306997145
 20
14.86200115879813
 10
13.70155533320894
 20
14.87231151030926
 10
13.70891860878453
 20
14.88209264063175
 10
13.71995568226862
 20
14.89096730466284
 10
13.73424490626223
 20
14.89859524041162
 10
13.75123415784128
 20
14.90468245232984
  0
LWPOLYLINE
  5
19E
330
2
100
AcDbEntity
  8
0
100
AcDbPolyline
 90
       10
 70
   128
 43
0.0
 10
30.24220535659299
 20
21.45703034688171
 10
30.29693843919881
 20
21.40589588561613
 10
30.32230913255353
 20
21.32575699503854
 10
30.31437279331977
 20
21.23274431238343
 10
30.27419989161717
 20
21.13941878589014
 10
30.20721570238584
 20
21.05838457720145
 10
30.12246693685154
 20
21.00058619672146
 10
30.03139992067327
 20
20.97382959885084
 10
29.94631267743546
 20
20.98172820977436
 10
29.88717690682438
 20
21.01801307337121
  0
LWPOLYLINE
  5
19F
330
2
100
AcDbEntity
  8
0
100
AcDbPolyline
 90
       16
 70
   128
 43
0.0
 10
20.86074400476298
 20
18.82684039430484
 10
20.86183236195962
 20
18.8273702523214
 10
20.95071440820175
 20
18.85275757560203
 10
21.03272783349666
 20
18.8421684792998
 10
21.09538473651833
 20
18.79721483894298
 10
21.12914857645671
 20
18.72474111787198
 10
21.12887751908693
 20
18.63578048014926
 10
21.09461421813614
 20
18.5438764358226
 10
21.03157205594471
 20
18.46301979618471
 10
20.94935224178084
 20
18.40552148432064
 10
20.86047019555997
 20
18.38013450502194
 10
20.77845677026529
 20
18.3907232573423
 10
20.71579849131603
 20
18.43567650051318
 10
20.68203465137788
 20
18.50815022158417
 10
20.68230570872618
 20
18.59711085930692
 10
20.70362154916836
 20
18.66350223811327
  0
ARC
  5
1A0
330
2
100
AcDbEntity
  8
0
100
AcDbCircle
 10
17.07240876049047
 20
16.96424974397024
 30
0.0
 40
0.0966727862602447
100
AcDbArc
 50
183.1197180373444
 51
283.4368231249525
  0
ARC
  5
1A1
330
2
100
AcDbEntity
  8
0
100
AcDbCircle
 10
33.48946526031614
 20
25.03225110617388
 30
0.0
 40
0.0782414746110899
100
AcDbArc
 50
67.38216101075375
 51
93.52407748584914
  0
LINE
  5
1A2
330
2
100
AcDbEntity
  8
0
100
AcDbLine
 10
33.6513326446883
 20
20.34668582452827
 30
0.0
 11
33.79660334329094
 21
20.22087770910542
 31
0.0
  0
LINE
  5
1A3
330
2
100
AcDbEntity
  8
0
100
AcDbLine
 10
33.68854716053204
 20
20.33383233922315
 30
0.0
 11
33.73278248276904
 21
20.34660197681529
 31
0.0
  0
ARC
  5
1A4
330
2
100
AcDbEntity
  8
0
100
AcDbCircle
 10
33.71913885170068
 20
20.45456014718312
 30
0.0
 40
0.124543386740375
100
AcDbArc
 50
174.8069247138021
 51
197.7982758284819
  0
ARC
  5
1A5
330
2
100
AcDbEntity
  8
0
100
AcDbCircle
 10
33.71913885170068
 20
20.45456014718312
 30
0.0
 40
0.124543386740375
100
AcDbArc
 50
238.8205845890726
 51
255.7808851649026
  0
LWPOLYLINE
  5
1A6
330
2
100
AcDbEntity
  8
0
100
AcDbPolyline
 90
        3
 70
   128
 43
0.0
 10
33.79660334329094
 20
20.22087770910542
 10
33.81690168668888
 20
20.20689992781746
 10
33.84847918074239
 20
20.19532714683433
  0
LINE
  5
1A7
330
2
100
AcDbEntity
  8
0
100
AcDbLine
 10
33.84847918074239
 20
20.19532714683433
 30
0.0
 11
33.89271450297929
 21
20.20809678444789
 31
0.0
  0
ELLIPSE
  5
1A8
330
2
100
AcDbEntity
  8
0
100
AcDbEllipse
 10
33.81509640218019
 20
20.50356632126336
 30
0.0
 11
0.0184930588891826
 21
0.2826886121579176
 31
0.0
210
0.0
220
0.0
230
1.0
 40
0.6128168285279187
 41
1.901834973623699
 42
6.870853096261242
  0
ELLIPSE
  5
1A9
330
2
100
AcDbEntity
  8
0
100
AcDbEllipse
 10
33.87359073028847
 20
20.16686868428619
 30
0.0
 11
-0.0455233000266227
 21
0.0704651339788705
 31
0.0
210
0.0
220
0.0
230
0.9999999999999998
 40
0.6994241437507363
 41
0.0
 42
6.283185307179584
  0
ARC
  5
1AA
330
2
100
AcDbEntity
  8
0
100
AcDbCircle
 10
33.33837676273015
 20
26.11295837624891
 30
0.0
 40
6.041907002565187
100
AcDbArc
 50
275.5546823295032
 51
339.4343720710991
  0
POLYLINE
  5
1AB
330
2
100
AcDbEntity
  8
0
100
AcDb2dPolyline
 66
     1
 10
0.0
 20
0.0
 30
0.0
 70
     2
  0
VERTEX
  5
1AC
330
1AB
100
AcDbEntity
  8
0
100
AcDbVertex
100
AcDb2dVertex
 10
33.48465591478521
 20
22.53979653414743
 30
0.0
 42
0.0067045199463909
  0
VERTEX
  5
1AD
330
1AB
100
AcDbEntity
  8
0
100
AcDbVertex
100
AcDb2dVertex
 10
33.73897096255871
 20
22.73943331812879
 30
0.0
 42
0.0501186739966826
 70
     1
  0
VERTEX
  5
1AE
330
1AB
100
AcDbEntity
  8
0
100
AcDbVertex
100
AcDb2dVertex
 10
33.76982192164167
 20
22.76989739746126
 30
0.0
 42
0.0172839214496608
  0
VERTEX
  5
1AF
330
1AB
100
AcDbEntity
  8
0
100
AcDbVertex
100
AcDb2dVertex
 10
34.32916526417262
 20
23.49509970050457
 30
0.0
 42
0.0066833728106379
 70
     1
  0
VERTEX
  5
1B0
330
1AB
100
AcDbEntity
  8
0
100
AcDbVertex
100
AcDb2dVertex
 10
35.68382417122837
 20
25.4372102446913
 30
0.0
 42
0.0058690167807455
  0
VERTEX
  5
1B1
330
1AB
100
AcDbEntity
  8
0
100
AcDbVertex
100
AcDb2dVertex
 10
36.12153635348307
 20
26.09957250205412
 30
0.0
 42
-0.0055899550345994
 70
     1
  0
VERTEX
  5
1B2
330
1AB
100
AcDbEntity
  8
0
100
AcDbVertex
100
AcDb2dVertex
 10
36.58071034134946
 20
26.79525536031326
 30
0.0
 42
-0.0583248844971142
  0
VERTEX
  5
1B3
330
1AB
100
AcDbEntity
  8
0
100
AcDbVertex
100
AcDb2dVertex
 10
37.09005379554663
 20
27.38653029671068
 30
0.0
 42
-0.0473375732486717
 70
     1
  0
VERTEX
  5
1B4
330
1AB
100
AcDbEntity
  8
0
100
AcDbVertex
100
AcDb2dVertex
 10
37.8554631362797
 20
27.96668486024728
 30
0.0
 42
-0.174617249837134
  0
VERTEX
  5
1B5
330
1AB
100
AcDbEntity
  8
0
100
AcDbVertex
100
AcDb2dVertex
 10
38.83357301682885
 20
28.17334938849633
 30
0.0
 42
-0.1834518074477105
 70
     1
  0
VERTEX
  5
1B6
330
1AB
100
AcDbEntity
  8
0
100
AcDbVertex
100
AcDb2dVertex
 10
39.67103155827056
 20
27.71541927407156
 30
0.0
 42
-0.0396751802337727
  0
VERTEX
  5
1B7
330
1AB
100
AcDbEntity
  8
0
100
AcDbVertex
100
AcDb2dVertex
 10
39.99417552725936
 20
27.27056557950098
 30
0.0
 42
-0.059738168795049
 70
     1
  0
VERTEX
  5
1B8
330
1AB
100
AcDbEntity
  8
0
100
AcDbVertex
100
AcDb2dVertex
 10
40.14657051460176
 20
26.93791197008122
 30
0.0
 42
-0.0348577842408616
  0
VERTEX
  5
1B9
330
1AB
100
AcDbEntity
  8
0
100
AcDbVertex
100
AcDb2dVertex
 10
40.26646632636482
 20
26.44916752880354
 30
0.0
 42
-0.0505908605494362
 70
     1
  0
VERTEX
  5
1BA
330
1AB
100
AcDbEntity
  8
0
100
AcDbVertex
100
AcDb2dVertex
 10
40.29067458105987
 20
26.10281077741126
 30
0.0
 42
-0.0772983630562495
  0
VERTEX
  5
1BB
330
1AB
100
AcDbEntity
  8
0
100
AcDbVertex
100
AcDb2dVertex
 10
40.2580631543567
 20
25.92912960174079
 30
0.0
 42
-0.0454054468664174
 70
     1
  0
VERTEX
  5
1BC
330
1AB
100
AcDbEntity
  8
0
100
AcDbVertex
100
AcDb2dVertex
 10
40.13296339154931
 20
25.65681841440315
 30
0.0
  0
SEQEND
  5
1BD
330
1AB
100
AcDbEntity
  8
0
  0
POLYLINE
  5
1BE
330
2
100
AcDbEntity
  8
0
100
AcDb2dPolyline
 66
     1
 10
0.0
 20
0.0
 30
0.0
  0
VERTEX
  5
1BF
330
1BE
100
AcDbEntity
  8
0
100
AcDbVertex
100
AcDb2dVertex
 10
33.48465591478521
 20
22.31428757881201
 30
0.0
 42
0.0095008428507942
  0
VERTEX
  5
1C0
330
1BE
100
AcDbEntity
  8
0
100
AcDbVertex
100
AcDb2dVertex
 10
33.85200458159341
 20
22.59934976817402
 30
0.0
 42
0.0501186739966924
  0
VERTEX
  5
1C1
330
1BE
100
AcDbEntity
  8
0
100
AcDbVertex
100
AcDb2dVertex
 10
33.90846795732854
 20
22.65510507721152
 30
0.0
 42
0.0172839214496618
  0
VERTEX
  5
1C2
330
1BE
100
AcDbEntity
  8
0
100
AcDbVertex
100
AcDb2dVertex
 10
34.47540928837327
 20
23.39015835790974
 30
0.0
 42
0.0066833728106379
  0
VERTEX
  5
1C3
330
1BE
100
AcDbEntity
  8
0
100
AcDbVertex
100
AcDb2dVertex
 10
35.83282101384464
 20
25.33621548794423
 30
0.0
 42
0.0058690167807453
  0
VERTEX
  5
1C4
330
1BE
100
AcDbEntity
  8
0
100
AcDbVertex
100
AcDb2dVertex
 10
36.27286285562786
 20
26.00210307223836
 30
0.0
 42
-0.0055899550345992
  0
VERTEX
  5
1C5
330
1BE
100
AcDbEntity
  8
0
100
AcDbVertex
100
AcDb2dVertex
 10
36.72981982251088
 20
26.69442697825861
 30
0.0
 42
-0.0583248844971176
  0
VERTEX
  5
1C6
330
1BE
100
AcDbEntity
  8
0
100
AcDbVertex
100
AcDb2dVertex
 10
37.21184832282995
 20
27.253993158052
 30
0.0
 42
-0.0473375732486709
  0
VERTEX
  5
1C7
330
1BE
100
AcDbEntity
  8
0
100
AcDbVertex
100
AcDb2dVertex
 10
37.9501561682256
 20
27.81360569869717
 30
0.0
 42
-0.1746172498371493
  0
VERTEX
  5
1C8
330
1BE
100
AcDbEntity
  8
0
100
AcDbVertex
100
AcDb2dVertex
 10
38.8088971075706
 20
27.99504880099798
 30
0.0
 42
-0.1834518074477271
  0
VERTEX
  5
1C9
330
1BE
100
AcDbEntity
  8
0
100
AcDbVertex
100
AcDb2dVertex
 10
39.53423788680948
 20
27.59842572105177
 30
0.0
 42
-0.0396751802337699
  0
VERTEX
  5
1CA
330
1BE
100
AcDbEntity
  8
0
100
AcDbVertex
100
AcDb2dVertex
 10
39.84061957159111
 20
27.17664769792979
 30
0.0
 42
-0.0597381687950483
  0
VERTEX
  5
1CB
330
1BE
100
AcDbEntity
  8
0
100
AcDbVertex
100
AcDb2dVertex
 10
39.97516424580295
 20
26.88295843501335
 30
0.0
 42
-0.0348577842408601
  0
VERTEX
  5
1CC
330
1BE
100
AcDbEntity
  8
0
100
AcDbVertex
100
AcDb2dVertex
 10
40.08908781418256
 20
26.4185593041571
 30
0.0
 42
-0.0505908605494308
  0
VERTEX
  5
1CD
330
1BE
100
AcDbEntity
  8
0
100
AcDbVertex
100
AcDb2dVertex
 10
40.11076283061766
 20
26.1084465606576
 30
0.0
 42
-0.0772983630562457
  0
VERTEX
  5
1CE
330
1BE
100
AcDbEntity
  8
0
100
AcDbVertex
100
AcDb2dVertex
 10
40.08836100426208
 20
25.98913943637874
 30
0.0
 42
-0.0435860634477136
  0
VERTEX
  5
1CF
330
1BE
100
AcDbEntity
  8
0
100
AcDbVertex
100
AcDb2dVertex
 10
39.9821770690487
 20
25.75577292228781
 30
0.0
 42
-0.0454054468664149
  0
SEQEND
  5
1D0
330
1BE
100
AcDbEntity
  8
0
  0
POLYLINE
  5
1D1
330
2
100
AcDbEntity
  8
0
100
AcDb2dPolyline
 66
     1
 10
0.0
 20
0.0
 30
0.0
 70
     2
  0
VERTEX
  5
1D2
330
1D1
100
AcDbEntity
  8
0
100
AcDbVertex
100
AcDb2dVertex
 10
33.63796835403844
 20
20.42871343611898
 30
0.0
 42
-0.0522236093001447
  0
VERTEX
  5
1D3
330
1D1
100
AcDbEntity
  8
0
100
AcDbVertex
100
AcDb2dVertex
 10
33.6170465312905
 20
20.4193675711731
 30
0.0
 42
-0.0716608154131766
 70
     1
  0
VERTEX
  5
1D4
330
1D1
100
AcDbEntity
  8
0
100
AcDbVertex
100
AcDb2dVertex
 10
33.60055628687678
 20
20.4164913870174
 30
0.0
 42
-0.0981337861266901
  0
VERTEX
  5
1D5
330
1D1
100
AcDbEntity
  8
0
100
AcDbVertex
100
AcDb2dVertex
 10
33.5614568075423
 20
20.42304370875516
 30
0.0
 42
-0.081569919082386
 70
     1
  0
VERTEX
  5
1D6
330
1D1
100
AcDbEntity
  8
0
100
AcDbVertex
100
AcDb2dVertex
 10
33.52029388414519
 20
20.44685634592071
 30
0.0
 42
-0.085903982657382
  0
VERTEX
  5
1D7
330
1D1
100
AcDbEntity
  8
0
100
AcDbVertex
100
AcDb2dVertex
 10
33.47188538671628
 20
20.50292942721847
 30
0.0
 42
-0.0972633807585109
 70
     1
  0
VERTEX
  5
1D8
330
1D1
100
AcDbEntity
  8
0
100
AcDbVertex
100
AcDb2dVertex
 10
33.44959748128828
 20
20.5645864233195
 30
0.0
 42
-0.0090938820223754
  0
VERTEX
  5
1D9
330
1D1
100
AcDbEntity
  8
0
100
AcDbVertex
100
AcDb2dVertex
 10
33.44208239307693
 20
20.6200136371445
 30
0.0
 42
-0.0067669099887715
 70
     1
  0
VERTEX
  5
1DA
330
1D1
100
AcDbEntity
  8
0
100
AcDbVertex
100
AcDb2dVertex
 10
33.43435082364329
 20
20.69478096610092
 30
0.0
 42
-0.0088501182275486
  0
VERTEX
  5
1DB
330
1D1
100
AcDbEntity
  8
0
100
AcDbVertex
100
AcDb2dVertex
 10
33.42689163348018
 20
20.79847812668583
 30
0.0
 42
-0.0012355515575566
 70
     1
  0
VERTEX
  5
1DC
330
1D1
100
AcDbEntity
  8
0
100
AcDbVertex
100
AcDb2dVertex
 10
33.38845743574814
 20
21.54211877650866
 30
0.0
 42
-0.0195778265971305
  0
VERTEX
  5
1DD
330
1D1
100
AcDbEntity
  8
0
100
AcDbVertex
100
AcDb2dVertex
 10
33.37936870693886
 20
22.44949751916479
 30
0.0
 42
-0.0790087975948558
 70
     1
  0
VERTEX
  5
1DE
330
1D1
100
AcDbEntity
  8
0
100
AcDbVertex
100
AcDb2dVertex
 10
33.4213774967667
 20
22.67173223758394
 30
0.0
 42
-0.2230685931993146
  0
VERTEX
  5
1DF
330
1D1
100
AcDbEntity
  8
0
100
AcDbVertex
100
AcDb2dVertex
 10
33.58699292072549
 20
22.83798914499795
 30
0.0
 42
0.1514243915724875
 70
     1
  0
VERTEX
  5
1E0
330
1D1
100
AcDbEntity
  8
0
100
AcDbVertex
100
AcDb2dVertex
 10
33.85538005006242
 20
23.04157213664325
 30
0.0
 42
0.0084154427520946
  0
VERTEX
  5
1E1
330
1D1
100
AcDbEntity
  8
0
100
AcDbVertex
100
AcDb2dVertex
 10
34.38289539595996
 20
23.80531627324453
 30
0.0
 42
-0.0035690854634239
 70
     1
  0
VERTEX
  5
1E2
330
1D1
100
AcDbEntity
  8
0
100
AcDbVertex
100
AcDb2dVertex
 10
35.60912503260102
 20
25.61799176146772
 30
0.0
 42
-0.0022600936830834
  0
VERTEX
  5
1E3
330
1D1
100
AcDbEntity
  8
0
100
AcDbVertex
100
AcDb2dVertex
 10
36.30868429049679
 20
26.62657737285963
 30
0.0
 42
-0.0024018306525935
 70
     1
  0
VERTEX
  5
1E4
330
1D1
100
AcDbEntity
  8
0
100
AcDbVertex
100
AcDb2dVertex
 10
36.97578175656349
 20
27.5694660686392
 30
0.0
 42
-0.2068838122284174
  0
VERTEX
  5
1E5
330
1D1
100
AcDbEntity
  8
0
100
AcDbVertex
100
AcDb2dVertex
 10
38.30065468409305
 20
28.36766771485998
 30
0.0
 42
-0.2177678617245061
 70
     1
  0
VERTEX
  5
1E6
330
1D1
100
AcDbEntity
  8
0
100
AcDbVertex
100
AcDb2dVertex
 10
39.71301147000861
 20
27.93909370962908
 30
0.0
 42
-0.0490479462761191
  0
VERTEX
  5
1E7
330
1D1
100
AcDbEntity
  8
0
100
AcDbVertex
100
AcDb2dVertex
 10
40.17893703415256
 20
27.43827794280907
 30
0.0
 42
-0.077969508977539
 70
     1
  0
VERTEX
  5
1E8
330
1D1
100
AcDbEntity
  8
0
100
AcDbVertex
100
AcDb2dVertex
 10
40.38435254490025
 20
27.05837741841879
 30
0.0
 42
-0.0451372916589528
  0
VERTEX
  5
1E9
330
1D1
100
AcDbEntity
  8
0
100
AcDbVertex
100
AcDb2dVertex
 10
40.53308509627777
 20
26.47551488993058
 30
0.0
 42
-0.0672992237023312
 70
     1
  0
VERTEX
  5
1EA
330
1D1
100
AcDbEntity
  8
0
100
AcDbVertex
100
AcDb2dVertex
 10
40.54329044329346
 20
26.07119032107002
 30
0.0
 42
-0.082833913616645
  0
VERTEX
  5
1EB
330
1D1
100
AcDbEntity
  8
0
100
AcDbVertex
100
AcDb2dVertex
 10
40.48066377971497
 20
25.84875986412715
 30
0.0
 42
-0.0543039207141835
 70
     1
  0
VERTEX
  5
1EC
330
1D1
100
AcDbEntity
  8
0
100
AcDbVertex
100
AcDb2dVertex
 10
40.29766805330904
 20
25.54910591988278
 30
0.0
  0
SEQEND
  5
1ED
330
1D1
100
AcDbEntity
  8
0
  0
POLYLINE
  5
1EE
330
2
100
AcDbEntity
  8
0
100
AcDb2dPolyline
 66
     1
 10
0.0
 20
0.0
 30
0.0
  0
VERTEX
  5
1EF
330
1EE
100
AcDbEntity
  8
0
100
AcDbVertex
100
AcDb2dVertex
 10
33.70041042826756
 20
20.37463701357112
 30
0.0
 42
-0.0880119848073951
  0
VERTEX
  5
1F0
330
1EE
100
AcDbEntity
  8
0
100
AcDbVertex
100
AcDb2dVertex
 10
33.64188944433204
 20
20.34332265239735
 30
0.0
 42
-0.0716608154131926
  0
VERTEX
  5
1F1
330
1EE
100
AcDbEntity
  8
0
100
AcDbVertex
100
AcDb2dVertex
 10
33.60292419603104
 20
20.33652643840716
 30
0.0
 42
-0.098133786126553
  0
VERTEX
  5
1F2
330
1EE
100
AcDbEntity
  8
0
100
AcDbVertex
100
AcDb2dVertex
 10
33.53314919014042
 20
20.34821938919908
 30
0.0
 42
-0.0815699190824735
  0
VERTEX
  5
1F3
330
1EE
100
AcDbEntity
  8
0
100
AcDbVertex
100
AcDb2dVertex
 10
33.46954151689477
 20
20.38501625198092
 30
0.0
 42
-0.0859039826574027
  0
VERTEX
  5
1F4
330
1EE
100
AcDbEntity
  8
0
100
AcDbVertex
100
AcDb2dVertex
 10
33.40330095541141
 20
20.46174477252058
 30
0.0
 42
-0.0972633807585175
  0
VERTEX
  5
1F5
330
1EE
100
AcDbEntity
  8
0
100
AcDbVertex
100
AcDb2dVertex
 10
33.37053141010131
 20
20.55239805234274
 30
0.0
 42
-0.0090938820223737
  0
VERTEX
  5
1F6
330
1EE
100
AcDbEntity
  8
0
100
AcDbVertex
100
AcDb2dVertex
 10
33.36262537407299
 20
20.6107086851828
 30
0.0
 42
-0.0067669099887718
  0
VERTEX
  5
1F7
330
1EE
100
AcDbEntity
  8
0
100
AcDbVertex
100
AcDb2dVertex
 10
33.35467108085675
 20
20.68762984105129
 30
0.0
 42
-0.0088501182275505
  0
VERTEX
  5
1F8
330
1EE
100
AcDbEntity
  8
0
100
AcDbVertex
100
AcDb2dVertex
 10
33.34700871620873
 20
20.794151519678
 30
0.0
 42
-0.0012355515575567
  0
VERTEX
  5
1F9
330
1EE
100
AcDbEntity
  8
0
100
AcDbVertex
100
AcDb2dVertex
 10
33.30855411117364
 20
21.53818701838358
 30
0.0
 42
-0.0195778265971307
  0
VERTEX
  5
1FA
330
1EE
100
AcDbEntity
  8
0
100
AcDbVertex
100
AcDb2dVertex
 10
33.29940265734773
 20
22.45182795105382
 30
0.0
 42
-0.0790087975948656
  0
VERTEX
  5
1FB
330
1EE
100
AcDbEntity
  8
0
100
AcDbVertex
100
AcDb2dVertex
 10
33.3460783354285
 20
22.69875142154209
 30
0.0
 42
-0.2230685931993589
  0
VERTEX
  5
1FC
330
1EE
100
AcDbEntity
  8
0
100
AcDbVertex
100
AcDb2dVertex
 10
33.55968284488415
 20
22.91318329209421
 30
0.0
 42
0.1514243915725038
  0
VERTEX
  5
1FD
330
1EE
100
AcDbEntity
  8
0
100
AcDbVertex
100
AcDb2dVertex
 10
33.79032956301865
 20
23.08813858524485
 30
0.0
 42
0.0084154427520943
  0
VERTEX
  5
1FE
330
1EE
100
AcDbEntity
  8
0
100
AcDbVertex
100
AcDb2dVertex
 10
34.31631458239497
 20
23.84966709358669
 30
0.0
 42
-0.0035690854634239
  0
VERTEX
  5
1FF
330
1EE
100
AcDbEntity
  8
0
100
AcDbVertex
100
AcDb2dVertex
 10
35.54318414718864
 20
25.66328855639893
 30
0.0
 42
-0.0022600936830835
  0
VERTEX
  5
200
330
1EE
100
AcDbEntity
  8
0
100
AcDbVertex
100
AcDb2dVertex
 10
36.24315559340289
 20
26.67246843797227
 30
0.0
 42
-0.0024018306525934
  0
VERTEX
  5
201
330
1EE
100
AcDbEntity
  8
0
100
AcDbVertex
100
AcDb2dVertex
 10
36.91069696624243
 20
27.61598456032661
 30
0.0
 42
-0.2068838122284107
  0
VERTEX
  5
202
330
1EE
100
AcDbEntity
  8
0
100
AcDbVertex
100
AcDb2dVertex
 10
38.28994888311036
 20
28.44694814009424
 30
0.0
 42
-0.2177678617245121
  0
VERTEX
  5
203
330
1EE
100
AcDbEntity
  8
0
100
AcDbVertex
100
AcDb2dVertex
 10
39.76596976891268
 20
27.99905551895129
 30
0.0
 42
-0.0490479462761149
  0
VERTEX
  5
204
330
1EE
100
AcDbEntity
  8
0
100
AcDbVertex
100
AcDb2dVertex
 10
40.24256045616982
 20
27.48677598576759
 30
0.0
 42
-0.0779695089775292
  0
VERTEX
  5
205
330
1EE
100
AcDbEntity
  8
0
100
AcDbVertex
100
AcDb2dVertex
 10
40.45977138089336
 20
27.08506073113375
 30
0.0
 42
-0.0451372916589505
  0
VERTEX
  5
206
330
1EE
100
AcDbEntity
  8
0
100
AcDbVertex
100
AcDb2dVertex
 10
40.61206797772864
 20
26.48823119590799
 30
0.0
 42
-0.067299223702331
  0
VERTEX
  5
207
330
1EE
100
AcDbEntity
  8
0
100
AcDbVertex
100
AcDb2dVertex
 10
40.62281427436665
 20
26.06247480092213
 30
0.0
 42
-0.0828339136166399
  0
VERTEX
  5
208
330
1EE
100
AcDbEntity
  8
0
100
AcDbVertex
100
AcDb2dVertex
 10
40.55305271501299
 20
25.81470341031263
 30
0.0
 42
-0.0533449078694019
  0
VERTEX
  5
209
330
1EE
100
AcDbEntity
  8
0
100
AcDbVertex
100
AcDb2dVertex
 10
40.36498972120079
 20
25.5054236249172
 30
0.0
 42
-0.0543039207141832
  0
SEQEND
  5
20A
330
1EE
100
AcDbEntity
  8
0
  0
POLYLINE
  5
20B
330
2
100
AcDbEntity
  8
0
100
AcDb2dPolyline
 66
     1
 10
0.0
 20
0.0
 30
0.0
  0
VERTEX
  5
20C
330
20B
100
AcDbEntity
  8
0
100
AcDbVertex
100
AcDb2dVertex
 10
40.59731949216677
 20
25.34527872696614
 30
0.0
 42
-0.0126313408439932
  0
VERTEX
  5
20D
330
20B
100
AcDbEntity
  8
0
100
AcDbVertex
100
AcDb2dVertex
 10
41.47271334917377
 20
27.24521422504319
 30
0.0
 42
-0.0199910048208844
  0
VERTEX
  5
20E
330
20B
100
AcDbEntity
  8
0
100
AcDbVertex
100
AcDb2dVertex
 10
42.10306786743195
 20
28.40735721313837
 30
0.0
 42
-0.0063314807418255
  0
VERTEX
  5
20F
330
20B
100
AcDbEntity
  8
0
100
AcDbVertex
100
AcDb2dVertex
 10
43.38356685945973
 20
30.49761841036531
 30
0.0
 42
-0.0124454299934577
  0
VERTEX
  5
210
330
20B
100
AcDbEntity
  8
0
100
AcDbVertex
100
AcDb2dVertex
 10
44.07455094444549
 20
31.53592876432874
 30
0.0
 42
-0.0618612185897802
  0
VERTEX
  5
211
330
20B
100
AcDbEntity
  8
0
100
AcDbVertex
100
AcDb2dVertex
 10
45.21545089502352
 20
32.79641254087628
 30
0.0
 42
-0.0937738624238892
  0
VERTEX
  5
212
330
20B
100
AcDbEntity
  8
0
100
AcDbVertex
100
AcDb2dVertex
 10
46.19099428114849
 20
33.36093164767141
 30
0.0
 42
-0.0949537826242413
  0
VERTEX
  5
213
330
20B
100
AcDbEntity
  8
0
100
AcDbVertex
100
AcDb2dVertex
 10
46.44203324260081
 20
33.3984228152327
 30
0.0
 42
-0.1620941311966212
  0
VERTEX
  5
214
330
20B
100
AcDbEntity
  8
0
100
AcDbVertex
100
AcDb2dVertex
 10
48.52214291302584
 20
32.609557958679
 30
0.0
  0
SEQEND
  5
215
330
20B
100
AcDbEntity
  8
0
  0
POLYLINE
  5
216
330
2
100
AcDbEntity
  8
0
100
AcDb2dPolyline
 66
     1
 10
0.0
 20
0.0
 30
0.0
  0
VERTEX
  5
217
330
216
100
AcDbEntity
  8
0
100
AcDbVertex
100
AcDb2dVertex
 10
40.74198153238592
 20
25.22600646556907
 30
0.0
 42
-0.0129488501704755
  0
VERTEX
  5
218
330
216
100
AcDbEntity
  8
0
100
AcDbVertex
100
AcDb2dVertex
 10
41.63424035095613
 20
27.16578483693524
 30
0.0
 42
-0.0199910048208844
  0
VERTEX
  5
219
330
216
100
AcDbEntity
  8
0
100
AcDbVertex
100
AcDb2dVertex
 10
42.25773497691671
 20
28.31528069472233
 30
0.0
 42
-0.0063314807418256
  0
VERTEX
  5
21A
330
216
100
AcDbEntity
  8
0
100
AcDbVertex
100
AcDb2dVertex
 10
43.53585272860822
 20
30.40165480237926
 30
0.0
 42
-0.0124454299934575
  0
VERTEX
  5
21B
330
216
100
AcDbEntity
  8
0
100
AcDbVertex
100
AcDb2dVertex
 10
44.22187315890437
 20
31.4325064982207
 30
0.0
 42
-0.0618612185897826
  0
VERTEX
  5
21C
330
216
100
AcDbEntity
  8
0
100
AcDbVertex
100
AcDb2dVertex
 10
45.33299786398879
 20
32.66009412654023
 30
0.0
 42
-0.0937738624238907
  0
VERTEX
  5
21D
330
216
100
AcDbEntity
  8
0
100
AcDbVertex
100
AcDb2dVertex
 10
46.25061251517093
 20
33.19109152822946
 30
0.0
 42
-0.094953782624239
  0
VERTEX
  5
21E
330
216
100
AcDbEntity
  8
0
100
AcDbVertex
100
AcDb2dVertex
 10
46.4346388461364
 20
33.21857476019474
 30
0.0
 42
-0.152403413500486
  0
VERTEX
  5
21F
330
216
100
AcDbEntity
  8
0
100
AcDbVertex
100
AcDb2dVertex
 10
48.30896152374929
 20
32.5480177924373
 30
0.0
 42
-0.0412505636532654
  0
SEQEND
  5
220
330
216
100
AcDbEntity
  8
0
  0
ARC
  5
221
330
2
100
AcDbEntity
  8
0
100
AcDbCircle
 10
43.90017816189504
 20
21.89928497419952
 30
0.0
 40
4.497189651957062
100
AcDbArc
 50
67.98688206008908
 51
133.4340973090381
  0
ARC
  5
222
330
2
100
AcDbEntity
  8
0
100
AcDbCircle
 10
43.90017816189504
 20
21.89928497419952
 30
0.0
 40
4.417189651957062
100
AcDbArc
 50
68.88888202283027
 51
133.4340973090381
  0
ELLIPSE
  5
223
330
2
100
AcDbEntity
  8
0
100
AcDbEllipse
 10
40.28527641388199
 20
26.77462904933197
 30
0.0
 11
-0.2975199166743347
 21
-0.0738179717522064
 31
0.0
210
0.0
220
0.0
230
1.0
 40
0.5660109677204617
 41
2.583794123332249
 42
6.794339374965185
  0
ELLIPSE
  5
224
330
2
100
AcDbEntity
  8
0
100
AcDbEllipse
 10
40.28527641388199
 20
26.77462904933197
 30
0.0
 11
-0.2975199166743347
 21
-0.0738179717522064
 31
0.0
210
0.0
220
0.0
230
1.0
 40
0.5660109677204617
 41
7.559267606818733
 42
8.479226141818768
  0
ELLIPSE
  5
225
330
2
100
AcDbEntity
  8
0
100
AcDbEllipse
 10
38.27376526173829
 20
28.20135095676611
 30
0.0
 11
-0.0487725195990834
 21
0.2654057707878508
 31
0.0
210
0.0
220
0.0
230
1.0
 40
0.5611334380277662
 41
5.79298932616165
 42
9.944559693964292
  0
ELLIPSE
  5
226
330
2
100
AcDbEntity
  8
0
100
AcDbEllipse
 10
38.27376526173829
 20
28.20135095676611
 30
0.0
 11
-0.0487725195990834
 21
0.2654057707878508
 31
0.0
210
0.0
220
0.0
230
1.0
 40
0.5611334380277662
 41
10.78786918776028
 42
11.60379770470409
  0
ELLIPSE
  5
227
330
2
100
AcDbEntity
  8
0
100
AcDbEllipse
 10
36.23276598131679
 20
26.31281093485365
 30
0.0
 11
-0.2130452760820845
 21
0.1304372846925615
 31
0.0
210
0.0
220
0.0
230
0.9999999999999998
 40
0.6931773132916838
 41
5.583791809800896
 42
10.02719966741963
  0
ELLIPSE
  5
228
330
2
100
AcDbEntity
  8
0
100
AcDbEllipse
 10
36.23276598131679
 20
26.31281093485365
 30
0.0
 11
-0.2130452760820845
 21
0.1304372846925615
 31
0.0
210
0.0
220
0.0
230
0.9999999999999998
 40
0.6931773132916838
 41
10.88255966674286
 42
11.44409926742288
  0
ELLIPSE
  5
229
330
2
100
AcDbEntity
  8
0
100
AcDbEllipse
 10
34.60391208334613
 20
23.92131168928978
 30
0.0
 11
-0.1868381040658277
 21
0.1677219512093873
 31
0.0
210
0.0
220
0.0
230
0.9999999999999998
 40
0.8279377963067846
 41
5.75258166754291
 42
10.14123187143013
  0
ELLIPSE
  5
22A
330
2
100
AcDbEntity
  8
0
100
AcDbEllipse
 10
34.60391208334613
 20
23.92131168928978
 30
0.0
 11
-0.1868381040658277
 21
0.1677219512093873
 31
0.0
210
0.0
220
0.0
230
0.9999999999999998
 40
0.8279377963067846
 41
10.99655524060161
 42
11.6109456381251
  0
ENDSEC
  0
SECTION
  2
OBJECTS
  0
DICTIONARY
  5
A
330
0
100
AcDbDictionary
281
     1
  3
ACAD_COLOR
350
42
  3
ACAD_GROUP
350
3B
  3
ACAD_LAYOUT
350
1C
  3
ACAD_MATERIAL
350
C
  3
ACAD_MLEADERSTYLE
350
45
  3
ACAD_MLINESTYLE
350
3C
  3
ACAD_PLOTSETTINGS
350
3D
  3
ACAD_PLOTSTYLENAME
350
9
  3
ACAD_SCALELIST
350
43
  3
ACAD_TABLESTYLE
350
44
  3
ACAD_VISUALSTYLE
350
31
  3
ACDB_RECOMPOSE_DATA
350
23A
  3
AcDbVariableDictionary
350
22C
  0
DICTIONARY
  5
24
330
23
100
AcDbDictionary
280
     1
281
     1
  3
ACAD_LAYERSTATES
360
25
  0
DICTIONARY
  5
7
330
6
100
AcDbDictionary
280
     1
281
     1
  0
DICTIONARY
  5
3
330
2
100
AcDbDictionary
280
     1
281
     1
  3
ACAD_SORTENTS
360
22B
  0
DICTIONARY
  5
42
102
{ACAD_REACTORS
330
A
102
}
330
A
100
AcDbDictionary
281
     1
  0
DICTIONARY
  5
3B
102
{ACAD_REACTORS
330
A
102
}
330
A
100
AcDbDictionary
281
     1
  0
DICTIONARY
  5
1C
102
{ACAD_REACTORS
330
A
102
}
330
A
100
AcDbDictionary
281
     1
  3
Model
350
1B
  3
レイアウト1
350
22
  0
DICTIONARY
  5
C
102
{ACAD_REACTORS
330
A
102
}
330
A
100
AcDbDictionary
281
     1
  3
ByBlock
350
3E
  3
ByLayer
350
16
  3
Global
350
B
  0
DICTIONARY
  5
45
102
{ACAD_REACTORS
330
A
102
}
330
A
100
AcDbDictionary
281
     1
  0
DICTIONARY
  5
3C
102
{ACAD_REACTORS
330
A
102
}
330
A
100
AcDbDictionary
281
     1
  3
Standard
350
46
  0
DICTIONARY
  5
3D
102
{ACAD_REACTORS
330
A
102
}
330
A
100
AcDbDictionary
281
     1
  0
ACDBDICTIONARYWDFLT
  5
9
102
{ACAD_REACTORS
330
A
102
}
330
A
100
AcDbDictionary
281
     1
  3
Normal
350
8
100
AcDbDictionaryWithDefault
340
8
  0
DICTIONARY
  5
43
102
{ACAD_REACTORS
330
A
102
}
330
A
100
AcDbDictionary
281
     1
  3
A0
350
4B
  3
A1
350
4C
  3
A2
350
4D
  3
A3
350
4E
  3
A4
350
4F
  3
A5
350
50
  3
A6
350
51
  3
A7
350
52
  3
A8
350
53
  3
A9
350
54
  3
B0
350
55
  3
B1
350
56
  3
B2
350
57
  3
B3
350
58
  3
B4
350
59
  3
B5
350
5A
  3
B6
350
5B
  0
DICTIONARY
  5
44
102
{ACAD_REACTORS
330
A
102
}
330
A
100
AcDbDictionary
281
     1
  3
Standard
350
47
  0
DICTIONARY
  5
31
102
{ACAD_REACTORS
330
A
102
}
330
A
100
AcDbDictionary
281
     1
  3
2dWireframe
350
30
  3
Realistic
350
49
  3
Wireframe
350
4A
  0
XRECORD
  5
23A
102
{ACAD_REACTORS
330
A
102
}
330
A
100
AcDbXrecord
280
     1
 90
        1
330
47
  0
DICTIONARY
  5
22C
102
{ACAD_REACTORS
330
A
102
}
330
A
100
AcDbDictionary
281
     1
  3
CANNOSCALE
350
232
  3
CMLEADERSTYLE
350
22E
  3
CTABLESTYLE
350
22D
  3
CVIEWDETAILSTYLE
350
22F
  3
CVIEWSECTIONSTYLE
350
230
  3
LAYEREVAL
350
234
  3
LAYERNOTIFY
350
235
  3
LIGHTINGUNITS
350
233
  3
MSLTSCALE
350
231
  3
PSOLHEIGHT
350
237
  3
PSOLWIDTH
350
236
  3
XCLIPFRAME
350
238
  0
DICTIONARY
  5
25
102
{ACAD_REACTORS
330
24
102
}
330
24
100
AcDbDictionary
281
     1
  0
SORTENTSTABLE
  5
22B
102
{ACAD_REACTORS
330
3
102
}
330
3
100
AcDbSortentsTable
330
2
  0
LAYOUT
  5
1B
102
{ACAD_XDICTIONARY
360
1D
102
}
102
{ACAD_REACTORS
330
1C
102
}
330
1C
100
AcDbPlotSettings
  1

  2
none_device
  4
ISO_A4_(210.00_x_297.00_MM)
  6

 40
7.5
 41
20.0
 42
7.5
 43
20.0
 44
210.0
 45
297.0
 46
11.54999923706054
 47
-13.65000009536743
 48
0.0
 49
0.0
140
0.0
141
0.0
142
1.0
143
8.704084754739808
 70
 11952
 72
     1
 73
     0
 74
     0
  7

 75
     0
147
0.1148885871608098
 76
     0
 77
     2
 78
   300
148
0.0
149
0.0
100
AcDbLayout
  1
Model
 70
     1
 71
     0
 10
0.0
 20
0.0
 11
12.0
 21
9.0
 12
0.0
 22
0.0
 32
0.0
 14
0.0
 24
0.0
 34
0.0
 15
0.0
 25
0.0
 35
0.0
146
0.0
 13
0.0
 23
0.0
 33
0.0
 16
1.0
 26
0.0
 36
0.0
 17
0.0
 27
1.0
 37
0.0
 76
     0
330
2
331
2F
1001
ACAD_PSEXT
1000
None
1000
None
1000
Not applicable
1000
The layout will not be plotted unless a new plotter configuration name is selected.
1070
     0
  0
LAYOUT
  5
22
102
{ACAD_REACTORS
330
1C
102
}
330
1C
100
AcDbPlotSettings
  1

  2
C:\Documents and Settings\basas\Application Data\Autodesk\AutoCAD 2005\R16.1\enu\plotters\Default Windows System Printer.pc3
  4

  6

 40
0.0
 41
0.0
 42
0.0
 43
0.0
 44
0.0
 45
0.0
 46
0.0
 47
0.0
 48
0.0
 49
0.0
140
0.0
141
0.0
142
1.0
143
1.0
 70
   688
 72
     0
 73
     0
 74
     5
  7

 75
    16
147
1.0
 76
     0
 77
     2
 78
   300
148
0.0
149
0.0
100
AcDbLayout
  1
レイアウト1
 70
     1
 71
     1
 10
0.0
 20
0.0
 11
12.0
 21
9.0
 12
0.0
 22
0.0
 32
0.0
 14
0.0
 24
0.0
 34
0.0
 15
0.0
 25
0.0
 35
0.0
146
0.0
 13
0.0
 23
0.0
 33
0.0
 16
1.0
 26
0.0
 36
0.0
 17
0.0
 27
1.0
 37
0.0
 76
     0
330
1F
  0
MATERIAL
  5
3E
102
{ACAD_XDICTIONARY
360
3F
102
}
102
{ACAD_REACTORS
330
C
102
}
330
C
100
AcDbMaterial
  1
ByBlock
  0
MATERIAL
  5
16
102
{ACAD_XDICTIONARY
360
17
102
}
102
{ACAD_REACTORS
330
C
102
}
330
C
100
AcDbMaterial
  1
ByLayer
  0
MATERIAL
  5
B
102
{ACAD_XDICTIONARY
360
D
102
}
102
{ACAD_REACTORS
330
C
102
}
330
C
100
AcDbMaterial
  1
Global
 43
0.0007999999797903
 43
0.0
 43
0.0
 43
0.0
 43
0.0
 43
0.0007999999797903
 43
0.0
 43
0.0
 43
0.0
 43
0.0
 43
1.0
 43
0.0
 43
0.0
 43
0.0
 43
0.0
 43
1.0
 49
0.0007999999797903
 49
0.0
 49
0.0
 49
0.0
 49
0.0
 49
0.0007999999797903
 49
0.0
 49
0.0
 49
0.0
 49
0.0
 49
1.0
 49
0.0
 49
0.0
 49
0.0
 49
0.0
 49
1.0
142
0.0007999999797903
142
0.0
142
0.0
142
0.0
142
0.0
142
0.0007999999797903
142
0.0
142
0.0
142
0.0
142
0.0
142
1.0
142
0.0
142
0.0
142
0.0
142
0.0
142
1.0
144
0.0007999999797903
144
0.0
144
0.0
144
0.0
144
0.0
144
0.0007999999797903
144
0.0
144
0.0
144
0.0
144
0.0
144
1.0
144
0.0
144
0.0
144
0.0
144
0.0
144
1.0
1001
ACAD
1070
    -1
1070
     3
1070
     0
1000

1071
        0
1070
     0
  0
MLINESTYLE
  5
46
102
{ACAD_REACTORS
330
3C
102
}
330
3C
100
AcDbMlineStyle
  2
STANDARD
 70
     0
  3

 62
   256
 51
90.0
 52
90.0
 71
     2
 49
0.5
 62
   256
  6
BYLAYER
 49
-0.5
 62
   256
  6
BYLAYER
  0
ACDBPLACEHOLDER
  5
8
102
{ACAD_REACTORS
330
9
102
}
330
9
  0
SCALE
  5
4B
102
{ACAD_REACTORS
330
43
102
}
330
43
100
AcDbScale
 70
     0
300
1:1
140
1.0
141
1.0
290
     1
  0
SCALE
  5
4C
102
{ACAD_REACTORS
330
43
102
}
330
43
100
AcDbScale
 70
     0
300
1:2
140
1.0
141
2.0
290
     0
  0
SCALE
  5
4D
102
{ACAD_REACTORS
330
43
102
}
330
43
100
AcDbScale
 70
     0
300
1:4
140
1.0
141
4.0
290
     0
  0
SCALE
  5
4E
102
{ACAD_REACTORS
330
43
102
}
330
43
100
AcDbScale
 70
     0
300
1:5
140
1.0
141
5.0
290
     0
  0
SCALE
  5
4F
102
{ACAD_REACTORS
330
43
102
}
330
43
100
AcDbScale
 70
     0
300
1:8
140
1.0
141
8.0
290
     0
  0
SCALE
  5
50
102
{ACAD_REACTORS
330
43
102
}
330
43
100
AcDbScale
 70
     0
300
1:10
140
1.0
141
10.0
290
     0
  0
SCALE
  5
51
102
{ACAD_REACTORS
330
43
102
}
330
43
100
AcDbScale
 70
     0
300
1:16
140
1.0
141
16.0
290
     0
  0
SCALE
  5
52
102
{ACAD_REACTORS
330
43
102
}
330
43
100
AcDbScale
 70
     0
300
1:20
140
1.0
141
20.0
290
     0
  0
SCALE
  5
53
102
{ACAD_REACTORS
330
43
102
}
330
43
100
AcDbScale
 70
     0
300
1:30
140
1.0
141
30.0
290
     0
  0
SCALE
  5
54
102
{ACAD_REACTORS
330
43
102
}
330
43
100
AcDbScale
 70
     0
300
1:40
140
1.0
141
40.0
290
     0
  0
SCALE
  5
55
102
{ACAD_REACTORS
330
43
102
}
330
43
100
AcDbScale
 70
     0
300
1:50
140
1.0
141
50.0
290
     0
  0
SCALE
  5
56
102
{ACAD_REACTORS
330
43
102
}
330
43
100
AcDbScale
 70
     0
300
1:100
140
1.0
141
100.0
290
     0
  0
SCALE
  5
57
102
{ACAD_REACTORS
330
43
102
}
330
43
100
AcDbScale
 70
     0
300
2:1
140
2.0
141
1.0
290
     0
  0
SCALE
  5
58
102
{ACAD_REACTORS
330
43
102
}
330
43
100
AcDbScale
 70
     0
300
4:1
140
4.0
141
1.0
290
     0
  0
SCALE
  5
59
102
{ACAD_REACTORS
330
43
102
}
330
43
100
AcDbScale
 70
     0
300
8:1
140
8.0
141
1.0
290
     0
  0
SCALE
  5
5A
102
{ACAD_REACTORS
330
43
102
}
330
43
100
AcDbScale
 70
     0
300
10:1
140
10.0
141
1.0
290
     0
  0
SCALE
  5
5B
102
{ACAD_REACTORS
330
43
102
}
330
43
100
AcDbScale
 70
     0
300
100:1
140
100.0
141
1.0
290
     0
  0
TABLESTYLE
  5
47
102
{ACAD_XDICTIONARY
360
48
102
}
102
{ACAD_REACTORS
330
44
102
}
330
44
100
AcDbTableStyle
  3
Standard
 70
     0
 71
     0
 40
1.5
 41
1.5
280
     0
281
     0
  7
Standard
140
4.5
170
     2
 62
     0
 63
     7
283
     0
274
    -2
284
     1
 64
     0
275
    -2
285
     1
 65
     0
276
    -2
286
     1
 66
     0
277
    -2
287
     1
 67
     0
278
    -2
288
     1
 68
     0
279
    -2
289
     1
 69
     0
  7
Standard
140
6.0
170
     5
 62
     0
 63
     7
283
     0
274
    -2
284
     1
 64
     0
275
    -2
285
     1
 65
     0
276
    -2
286
     1
 66
     0
277
    -2
287
     1
 67
     0
278
    -2
288
     1
 68
     0
279
    -2
289
     1
 69
     0
  7
Standard
140
4.5
170
     5
 62
     0
 63
     7
283
     0
274
    -2
284
     1
 64
     0
275
    -2
285
     1
 65
     0
276
    -2
286
     1
 66
     0
277
    -2
287
     1
 67
     0
278
    -2
288
     1
 68
     0
279
    -2
289
     1
 69
     0
  0
VISUALSTYLE
  5
30
102
{ACAD_XDICTIONARY
360
23B
102
}
102
{ACAD_REACTORS
330
31
102
}
330
31
100
AcDbVisualStyle
  2

 70
     4
 71
     0
 72
     2
 73
     1
 90
        0
 40
-0.6
 41
-30.0
 62
     5
 63
     7
421
 16777215
 74
     1
 91
        4
 64
     7
 65
   257
 75
     1
175
     1
 42
1.0
 92
        0
 66
   257
 43
1.0
 76
     1
 77
     6
 78
     2
 67
     7
 79
     5
170
     0
171
     0
290
     0
174
     0
 93
        1
 44
0.0
173
     0
291
     0
 45
0.0
1001
ACAD
1000
AcDbSavedByObjectVersion
1070
     0
  0
VISUALSTYLE
  5
49
102
{ACAD_XDICTIONARY
360
23E
102
}
102
{ACAD_REACTORS
330
31
102
}
330
31
100
AcDbVisualStyle
  2

 70
     8
 71
     2
 72
     3
 73
     0
 90
        2
 40
-0.6
 41
30.0
 62
     5
 63
     7
421
 16777215
 74
     0
 91
        0
 64
     7
 65
   257
 75
     1
175
     1
 42
1.0
 92
        8
 66
   257
 43
1.0
 76
     1
 77
     6
 78
     2
 67
     7
 79
     3
170
     0
171
     0
290
     0
174
     0
 93
       13
 44
0.0
173
     0
291
     0
 45
0.0
1001
ACAD
1000
AcDbSavedByObjectVersion
1070
     0
  0
VISUALSTYLE
  5
4A
102
{ACAD_XDICTIONARY
360
240
102
}
102
{ACAD_REACTORS
330
31
102
}
330
31
100
AcDbVisualStyle
  2

 70
     5
 71
     0
 72
     2
 73
     0
 90
        0
 40
-0.6
 41
-30.0
 62
     5
 63
     7
421
 16777215
 74
     1
 91
        4
 64
     7
 65
   257
 75
     1
175
     1
 42
1.0
 92
        0
 66
   257
 43
1.0
 76
     1
 77
     6
 78
     2
 67
     7
 79
     3
170
     0
171
     0
290
     0
174
     0
 93
        1
 44
0.0
173
     0
291
     0
 45
0.0
1001
ACAD
1000
AcDbSavedByObjectVersion
1070
     0
  0
DICTIONARYVAR
  5
232
102
{ACAD_REACTORS
330
22C
102
}
330
22C
100
DictionaryVariables
280
     0
  1
1:1
  0
DICTIONARYVAR
  5
22E
102
{ACAD_REACTORS
330
22C
102
}
330
22C
100
DictionaryVariables
280
     0
  1
STANDARD
  0
DICTIONARYVAR
  5
22D
102
{ACAD_REACTORS
330
22C
102
}
330
22C
100
DictionaryVariables
280
     0
  1
STANDARD
  0
DICTIONARYVAR
  5
22F
102
{ACAD_REACTORS
330
22C
102
}
330
22C
100
DictionaryVariables
280
     0
  1

  0
DICTIONARYVAR
  5
230
102
{ACAD_REACTORS
330
22C
102
}
330
22C
100
DictionaryVariables
280
     0
  1

  0
DICTIONARYVAR
  5
234
102
{ACAD_REACTORS
330
22C
102
}
330
22C
100
DictionaryVariables
280
     0
  1
0
  0
DICTIONARYVAR
  5
235
102
{ACAD_REACTORS
330
22C
102
}
330
22C
100
DictionaryVariables
280
     0
  1
0
  0
DICTIONARYVAR
  5
233
102
{ACAD_REACTORS
330
22C
102
}
330
22C
100
DictionaryVariables
280
     0
  1
2
  0
DICTIONARYVAR
  5
231
102
{ACAD_REACTORS
330
22C
102
}
330
22C
100
DictionaryVariables
280
     0
  1
1
  0
DICTIONARYVAR
  5
237
102
{ACAD_REACTORS
330
22C
102
}
330
22C
100
DictionaryVariables
280
     0
  1
80.000000
  0
DICTIONARYVAR
  5
236
102
{ACAD_REACTORS
330
22C
102
}
330
22C
100
DictionaryVariables
280
     0
  1
5.000000
  0
DICTIONARYVAR
  5
238
102
{ACAD_REACTORS
330
22C
102
}
330
22C
100
DictionaryVariables
280
     0
  1
2
  0
DICTIONARY
  5
1D
330
1B
100
AcDbDictionary
280
     1
281
     1
  0
DICTIONARY
  5
3F
330
3E
100
AcDbDictionary
280
     1
281
     1
  3
ACAD_XREC_ROUNDTRIP
360
40
  3
FBXASSET
360
41
  0
DICTIONARY
  5
17
330
16
100
AcDbDictionary
280
     1
281
     1
  3
ACAD_XREC_ROUNDTRIP
360
18
  3
FBXASSET
360
19
  0
DICTIONARY
  5
D
330
B
100
AcDbDictionary
280
     1
281
     1
  3
ACAD_XREC_ROUNDTRIP
360
E
  3
BUMPTILE
360
F
  3
DIFFUSETILE
360
10
  3
FBXASSET
360
11
  3
OPACITYTILE
360
12
  3
REFLECTIONTILE
360
13
  0
DICTIONARY
  5
48
330
47
100
AcDbDictionary
280
     1
281
     1
  3
ACAD_ROUNDTRIP_2008_TABLESTYLE_CELLSTYLEMAP
360
239
  3
ACAD_XREC_ROUNDTRIP
360
23D
  0
DICTIONARY
  5
23B
330
30
100
AcDbDictionary
280
     1
281
     1
  3
ACAD_XREC_ROUNDTRIP
360
23C
  0
DICTIONARY
  5
23E
330
49
100
AcDbDictionary
280
     1
281
     1
  3
ACAD_XREC_ROUNDTRIP
360
23F
  0
DICTIONARY
  5
240
330
4A
100
AcDbDictionary
280
     1
281
     1
  3
ACAD_XREC_ROUNDTRIP
360
241
  0
XRECORD
  5
40
102
{ACAD_REACTORS
330
3F
102
}
330
3F
100
AcDbXrecord
280
     1
102
MATERIAL
148
0.0
149
0.0
149
0.0
 93
        0
 94
      127
282
     0
 72
     1
 77
     1
171
     1
175
     1
179
     1
273
     0
  0
XRECORD
  5
41
102
{ACAD_REACTORS
330
3F
102
}
330
3F
100
AcDbXrecord
280
     1
 70
     1
 90
429727718
  1
D62C5603-E3A1-4AEA-B7FB-FE5D8D0755AF
310
504B03040A0000080000CC70623B3DEE336E79000000790000001B0000006175746F6465736B2D64657369676E2D7061636B6167652E786D6C3C3F786D6C2076657273696F6E3D22312E302220656E636F64696E673D227574662D3822203F3E3C666F726D6174733E3C666F726D61743E687474703A2F2F736368656D612E
310
6175746F6465736B2E636F6D2F64657369676E2D7061636B6167652F323030393C2F666F726D61743E3C2F666F726D6174733E504B0304140006080800CC70623BD486FD9CA0000000F4000000130000005B436F6E74656E745F54797065735D2E786D6C7D8EC10E82300C865F65E91D8A1E8C310C0EEA1BF002731658846E
310
D98AC1B77784ABF1D8FE5FBFBF75BBCE937A534CCEB38643598122B6FEE978D0B0485F9C41B54DDD7D022595594E1A469170414C76A4D9A4D207E29CF43ECE46F218070CC6BECC4078ACAA135ACF422C856C0E68EA1BF5669944DDD7BCDE7B1F8E415D77AECB980613C2E4AC91FC167A2B244592486606FC29C8FD7F045B9A
310
EF7053A7E60B504B0304140006080800CC70623B853B8169EB0000007C01000008000000636F72652E786D6C8D90416EC3201045AF62CDB6C206821CC7C244919D9CA01740401C94182C03558F5F9C3852BBEB6A467FFE9B197D7EFC9E1EC5975982F5AE035262288C535E5B377690E21535501C055FBC8FBF6C503839990E
310
5619041F179FE64D52DE45E362569DD7661365082642A11EB9E920A89B99642953CC8E702F67A9EE7234257977194EC9EAE275C4EABCCF5EAD5940D4AC6F0E35A568B8F43562CD7046CD199FD07E60174276A7BE677B5EADB0E0D14EEFFB6A31321A0D82627C4084204C3F096B71DD52F6819B16635EADF63F509AF53FA164
310
5DDCD1EDDD17164090FCC8732078B56691CB33A85CD7DCC40F504B0304140006080800CC70623B55019EA25F0000007C00000007000000636E782E786D6C4DCB3B0E80201045D1AD90E915ED2CF8AC45050C11660C8261F98AB1B07AC9C97D42D718D865D3E909258CFD00CCE24AC6E326A164D74DC0B4128928FF32603847
310
2BA13128B1252AC747C6BAB984FC68F0B87FE8960A5C09FE86CFB69FBA01504B0304140006080800CC70623BDBABAAF470010000D40300000C0000006662782F636F72652E786D6CC553D16E823014FD95A6AF4B694182CC941A83FA05FB810A9511A125A5257EFE2E82712ECEB8A7F100CD39F7F69E734AF9FADC366850B6
310
AF8DCE7018308C942E4C59EB2AC3DE1D498AD15A706B8CFB56869196ADCAF00863C12B6B7C374385D14E6907A836A59A41D9F7CA615434B0C8705F7CAA5606D23BA8E84F41278B93AC54100640439DE0BDB320004D43C63716C7C399D30917DCFBBA9CD9BA8469F5B156168B24CED3F7248AC8769F27244EB73B92EED8862C
310
B7F13E0C179B3C8F979C8ECD82BBBABDAA2BAC924E9558448CBD9330242CFA08E3154B5651FCC6D215639C8EE5774DBE2B5F6CF2B5768B68963BB5F5588420E442FC700B1139D4CB01F450C1E918227C2E09DF070D8140C84E1E9AAB8F1340832A9CB13130A5F1376A908D57309505ECF2A0DF179C4E9D30F5B239B87E3823
310
7A79C6F31DE1A8A5AEC08474B03C7837EAE4938639B44E5932B833D2C6B6B279CDC613877FA26EE21F4A2A4C63EC7F29A2F301D1F9F7A0E37D145F504B0304140006080800CC70623B9C113CC27E0000009D0000000B0000006662782F636E782E786D6C4DCCDF0A83201C86E15B91DFB94BFB330DD428C8FB886521330DA7
310
6397BF1A1DECE883878F57749FCDA1B7892F1BBC047A23808C7F84D9FA55424E0BE6803A256208E9EF06C84F9B91703228B1C690F78B66B34CD9A5439DF5CF0BFBF65E35BCA1B8D6A5C6F540381E886698B5741C695F9503EBA150A2F8958E3DC3EA0B504B0304140006080800CC70623B7DF2F77C2A010000120200003100
310
00006662782F41393633353835312D344632462D344230382D423046372D3739314545314133324237412F636F72652E786D6C8D51DB8EC22014FC15C2939B0D2DB4B45643319AE817EC0F6041255A68B86CFCFC856D4D76DF7CE190393373060EDB3DC707F856CE6B6B7A480A0C81328395DA5C7B18C3057510EC3873D686
310
3F34088C18550F330C39BB3A1BA7051AAC09CA84841A2BD5020AEF55806078A44B0FFD7053A328440C89E1EFC52486BBB8AA8214A99D789CF9E05200300FC927E4FB4D5B375D43103D5527440FB843077C5AA3F5861C8F645F5787F59E95B390B318B55CE45AA638FAA2957BD7248B390B7A7CC51F9C124149C82B8C378810
310
84AB2F42B7B8DD56F413775B8C5999E9FF4471926F8AA236A1AE96B8B3CC434E5839373893369E1FAF30EA395917409EB7F26AF8801C171837A4A6AC9C89E9F9C9B1A58BA30FD6A5EF5DDDCF894B9AD9B6A59C957943A9FCAE2FD5BC4DFE03504B0304140006080800CC70623BAD7543B64E01000033030000300000006662
310
782F41393633353835312D344632462D344230382D423046372D3739314545314133324237412F636E782E786D6CD593CD6EC32010845F0571AD6CE3D48AD20813A9873E410FBD12D82434182C7EAAE6EDBB2424CD25871E7B41D6EC30B3FA84F9E67BB2E40B4234DE8DB46F1925E094D7C6ED479AD3AE5951B2113C789FEE
310
6C943839C1488B4C05DF079FE72A69D8C96C13AAD6B8631503449F83828872B949AC57D26200B826A308D316B4064D6E46FCDA41C05550DC9E483A00797BFD207EFB092A45DE9514C1BBD22178396BD39D891265658C238DEA00936C654E5E433CB65A26D9F6EDB5EBC14EBF49A45CB856E66048291F6939A9A81BB5C89177
310
38143CA680F4AA299D66A042CEB3354A2684DC9D8D178FE0D9B8B41CAAD720F880EE7EF93C0C18769E099ECC04D5A102C8049A8A05632F4DDF376CF1DE0F6BB65C2F8627B65A33C6BB62177CEBBDAD973006829F89F22E814B54F4BC2BE347F8AA8F681390B50FA73F804400B5F542E796F19FF974E7F78DB802FE05E20750
310
4B0304140006080800CC70623BE75B7789680500003C100000340000006662782F41393633353835312D344632462D344230382D423046372D3739314545314133324237412F6F626A656374732E786D6CAD575B8F9B3818FD2B887D06C22499CB8AA1CA655245D5B455A356FB305264C061D8018C6C3393D95FBFC7600890
310
A4CD5EF210B0B1BFEBF98E3F7B1FF6596ABC522E1296DF9BAE3D320D9A872C4AF2F8DE2CE5CEBA358D0FBEC719939D65A691938CDE9B6ADAF4BD98B3B2D05311DD91329583D9D5FC0F438434A7A611A644887B5384CF34233629258BA878B12322891DEFF6B66BD70BFB62634E8AE781D082709A4B588AF91C528CDA28B73F
310
1C998EEF39EABBEFA97FBD6A7C7E9553F9D3D79FE442923C3C523610337627CB87ABE99D359D4CC6D6E4FACAB5E6ABF9D2726FC6A3C5F56271377BB88362213924694B38DD99FE47C48627A1E7D49F5A8BB5E1A74C0A599ED3B0F21F1E56366B89112D681E218F0915D0D6F17AD41FBA2A369DCF6335D62ABBD39779D5DDD1
310
11D4D8DE3CBB96B2E04FB8202E41051754A1AA8E8F76B4C6DFE810B580B1547F4B84911149794252234D024EF8BBE963A95AE27B3D310A9D5C215C7960FAEE415ED75694C6AFB17BCACA5D99A60A9AA65F217B0BFC53292ACB92BF283FAD0D3621576592CB5BED907C2FA8E9DF794E35E97BEA31BED21FEB401ABB94C44839
310
DCACBF0E1C5DA8DA5B2F4DFFD32AD86F543D9E565E7056502E157C00AD2671CD534549AB752FCA9CDA00677A313F04E51B22FF19E57B300579E3C97EB29F682D92935CEC18CF901B7B54FD8C51F362B56FC72FE0B3C1EAE335EDCCBF5AEC39ADB17DC238973F804BA5E6F6BFE7AF1FB32E523BE9F3BD571418E3631DCA4D48
310
5250CF639223210A9446CA30052EDF057BD35F8329C1ECD84552BF0DC8D18BE7BCE23BFE6BD960AB4A7DE79923A103BEBD80F911CBAA2C60DB19B01CF164A5583B772EE6D3FFA56666CBCDA74DC97724A48F9A58967497E489C4D979006FD7A05E227A1EBDD0F737C623387A9C844D3709995625106D157315F8B8392CD4E0
310
A0B9A720C4BE9829CEF37EA1E13111214D53925356365ADA634861B52519DD27A00AEB808EAF0628E6F435519D446F45CF2C9CF5214F0A15B2F6D06B79DA3EE3CBF7F56780D2F4E7EF73A0F5E5B02A38D07DC852C6B7C1FBB6664213E0C39E3EBA7FF4E1AD23EA2829407C85E586727488B751B2DB9502BC7B228A3FD68B6E
310
A65A22397E690AA8D158D7E404EC8CDA235CC3B7D1898680131CEC2CDF2638C65196279577750F15884AEE19F94199155B92B13297978469D4F8D358DF0AEF7631E28DC8F0D9F437D5D39A83B2231A1D52D543813A824EF8D44BCFF2FA6A31BD1E8DAD87F1CCB526B3879935BF59CDADD5C37479BB1CDD4CA7B3556B516589
310
EF352754B706114D9C885EC9131DE6EFEB43D99AFE2391C2F958179413D7CFEF6B1B6DB1E7600F00DE6E5C67454A339A4BA2E0FBA85ED26F045D454F463DBFCE484C2F90F2E5E3666003662ED8F755951A7D1BECD5B30B550B2785C8E7320B7292A4838DDA71BBC863ED7613CAF659337A3354231D4FF4A182A54904C2898C
310
98B28C4AD0CE056CCF332A80986E571EE9DBC305BB5FEB7E509220A58D25CF042D712A806AC0AD0C657FDEF80D2D9CEAA2EE4D1C76F60BFE74219A06527D6F82DF6412526107381E55E353090704D085B52408A8913C4ED159D79BDA71BB4BC506F4831350EB6F975CD22D69BF7AC49B91A2C0A9DDA3D5CA36AD20FC478E37
310
E61844E2352865EBCB61A275A65283CAAA9DD27703B4102F5AF51EF5F573B75CBB5AD38BC845F7A49F82A0966A49C2E3EA5EA0ECD326CD965F1DB402C6FA8B51A4658C5C5E2EC9E214602E55810345408596591009A82E7E7FFACA19EEA299B14A0081A705CB3296EBC14CDF658DCD336EA6D1136881AAEB87B81AB9EE53D5
310
F5EB8BC8362082DA24122F98680A4E7930C01A0079749CEA14382A0783E5EBA5A10F8C098456A03D6A4AEB6BB881E2513747552A5DB22C7EDAF83BD5528081A365F7FF06504B0304140006080000CC70623B000000000000000000000000350000006662782F41393633353835312D344632462D344230382D423046372D37
310
39314545314133324237412F76657274696365732E62696E504B0304140006080800CC70623BF270F1330600000004000000360000006662782F41393633353835312D344632462D344230382D423046372D3739314545314133324237412F747269616E676C65732E62696E636660600000504B0304140006080000CC7062
310
3B000000000000000000000000370000006662782F41393633353835312D344632462D344230382D423046372D3739314545314133324237412F617474726962757465732E62696E504B0304140006080800CC70623B08DA0BD19000000041010000360000006662782F41393633353835312D344632462D344230382D4230
310
46372D3739314545314133324237412F6469726563746F72792E786D6C858F410AC3201045AF22B36F53E9A60B35CBEEBAE80D244E44489C6234F4F835464A48035D0DF398FF9F8AF63D0E6CC63039F212F8F9020C7D47C6792B21C5FE7403D62A1188E2E60C98D7234A5830286103A55745067B9D86B8A3CF9C7F90C11DE6
310
07FB144396D7B6A82D282E9A152AD114D5EF2CB866EEE831B8EEA07A7BB5A8D7D61A2BAAEB7FD5F70921FF497D00504B0304140006080800CC70623BEDD1DC58FD000000A00100003B0000006662782F41393633353835312D344632462D344230382D423046372D3739314545314133324237412F7265736F75726365732F
310
636F72652E786D6C8D504B6E833010BD0A9A6D65B00922041947112427E8052C33A156828DFCA97AFC9A40A576D7CDCCE87D344F8F9FBFE667F689CE6B6B3A6039850C8DB2A336530731DC4903D95970676DF82583CCC8193B5861107C72362E3BA4AC096842428D1D7107A5F7182053CF7474E0D507CE32973124857FE48B
310
540F3961CEF244279DE03EB81420DB9EAC1384436FA353E879B1B182C7A8C75DA3C7F453DF353A1075D537A7BA6464B8F535A99AE14A9A2BBD90E350DD183B5CFABE3AF262350B1EF4FC9351399401471025A527C218A1E53BAB5A5AB765F5469B96525EACF23FA6B88CFF34456DC2A1DCE36E360F82A5202F42F062ED2BAD
310
579969AFDD8A6F504B010214000A0000080000CC70623B3DEE336E79000000790000001B00000000000000000000000000000000006175746F6465736B2D64657369676E2D7061636B6167652E786D6C504B01021400140006080800CC70623BD486FD9CA0000000F40000001300000000000000000000000000B20000005B
310
436F6E74656E745F54797065735D2E786D6C504B01021400140006080800CC70623B853B8169EB0000007C010000080000000000000000000000000083010000636F72652E786D6C504B01021400140006080800CC70623B55019EA25F0000007C000000070000000000000000000000000094020000636E782E786D6C504B
310
01021400140006080800CC70623BDBABAAF470010000D40300000C00000000000000000000000000180300006662782F636F72652E786D6C504B01021400140006080800CC70623B9C113CC27E0000009D0000000B00000000000000000000000000B20400006662782F636E782E786D6C504B01021400140006080800CC70
310
623B7DF2F77C2A010000120200003100000000000000000000000000590500006662782F41393633353835312D344632462D344230382D423046372D3739314545314133324237412F636F72652E786D6C504B01021400140006080800CC70623BAD7543B64E010000330300003000000000000000000000000000D2060000
310
6662782F41393633353835312D344632462D344230382D423046372D3739314545314133324237412F636E782E786D6C504B01021400140006080800CC70623BE75B7789680500003C10000034000000000000000000000000006E0800006662782F41393633353835312D344632462D344230382D423046372D3739314545
310
314133324237412F6F626A656374732E786D6C504B01021400140006080000CC70623B0000000000000000000000003500000000000000000000000000280E00006662782F41393633353835312D344632462D344230382D423046372D3739314545314133324237412F76657274696365732E62696E504B01021400140006
310
080800CC70623BF270F133060000000400000036000000000000000000000000007B0E00006662782F41393633353835312D344632462D344230382D423046372D3739314545314133324237412F747269616E676C65732E62696E504B01021400140006080000CC70623B0000000000000000000000003700000000000000
310
000000000000D50E00006662782F41393633353835312D344632462D344230382D423046372D3739314545314133324237412F617474726962757465732E62696E504B01021400140006080800CC70623B08DA0BD1900000004101000036000000000000000000000000002A0F00006662782F41393633353835312D344632
310
462D344230382D423046372D3739314545314133324237412F6469726563746F72792E786D6C504B01021400140006080800CC70623BEDD1DC58FD000000A00100003B000000000000000000000000000E1000006662782F41393633353835312D344632462D344230382D423046372D3739314545314133324237412F7265
310
736F75726365732F636F72652E786D6C504B0506000000000E000E0080040000641100000000
  0
XRECORD
  5
18
102
{ACAD_REACTORS
330
17
102
}
330
17
100
AcDbXrecord
280
     1
102
MATERIAL
148
0.0
149
0.0
149
0.0
 93
        0
 94
      127
282
     0
 72
     1
 77
     1
171
     1
175
     1
179
     1
273
     0
  0
XRECORD
  5
19
102
{ACAD_REACTORS
330
17
102
}
330
17
100
AcDbXrecord
280
     1
 70
     1
 90
429727718
  1
30362254-06B7-45E0-A893-8CFA70E3D6BC
310
504B03040A0000080000CC70623B3DEE336E79000000790000001B0000006175746F6465736B2D64657369676E2D7061636B6167652E786D6C3C3F786D6C2076657273696F6E3D22312E302220656E636F64696E673D227574662D3822203F3E3C666F726D6174733E3C666F726D61743E687474703A2F2F736368656D612E
310
6175746F6465736B2E636F6D2F64657369676E2D7061636B6167652F323030393C2F666F726D61743E3C2F666F726D6174733E504B0304140006080800CC70623BD486FD9CA0000000F4000000130000005B436F6E74656E745F54797065735D2E786D6C7D8EC10E82300C865F65E91D8A1E8C310C0EEA1BF002731658846E
310
D98AC1B77784ABF1D8FE5FBFBF75BBCE937A534CCEB38643598122B6FEE978D0B0485F9C41B54DDD7D022595594E1A469170414C76A4D9A4D207E29CF43ECE46F218070CC6BECC4078ACAA135ACF422C856C0E68EA1BF5669944DDD7BCDE7B1F8E415D77AECB980613C2E4AC91FC167A2B244592486606FC29C8FD7F045B9A
310
EF7053A7E60B504B0304140006080800CC70623B1EC5D7A3EB0000007C01000008000000636F72652E786D6C8D90416EC3201045AF82665B6103C6756C6122AB4D4ED00B204C5C94182C03558F5F9C3852BBEB6A467FFE9B197D71FC9E6FE8CBACC17AD7032D0820E3B41FAD9B7A48F1820F808E52ACDEC75F36404ECDA687
310
4D0629A6D5A76597B477D1B89855E747B38B2A041301E95B6E7A08FAD3CCAA50296647B8168BD2573599823EBB0CA76447F43862C7BCCF5EAC59410E4DDD9C7973C2755553CCCFA4C603E3040F1565ED3B1FDE4E432BCA0D9622DAF9795FAF464533826484B498524CD807E51D79ED187F21878E10516EF63F505AC67F42C9
310
BA58B1FDDD071640D2FCC87D2045B96591CB3DA85CB7DCE40F504B0304140006080800CC70623B55019EA25F0000007C00000007000000636E782E786D6C4DCB3B0E80201045D1AD90E915ED2CF8AC45050C11660C8261F98AB1B07AC9C97D42D718D865D3E909258CFD00CCE24AC6E326A164D74DC0B4128928FF32603847
310
2BA13128B1252AC747C6BAB984FC68F0B87FE8960A5C09FE86CFB69FBA01504B0304140006080800CC70623B8C9102E971010000D40300000C0000006662782F636F72652E786D6CC5535B6E833010BC8AE5DF0A6C08340F1947A84D4ED00B38C6A128602363A31CBFCB234A53A551FA553EC09AD9F5CE8C31DB9E9B1AF5CA
310
7695D1198E428A91D2D214952E33ECDD315861B4E5CC1AE3BE9561A445A3323CC098B3D21ADFCE9034DA29ED00D5A6503328BA4E398C640D8B0C77F253352214DE4145770A5B214FA2546114020D759C75CE8200340D19DE981F0F6746269C33EFAB6266AB02A655C74A59CCF365BADC27CB5D902ED22848F6340DF238A141
310
BE88E2F57B92BFEDF23523433367AE6A2EEAA455C2A902F398D2751045018D3FA264435F3771F242571B4A1919CA6F9A7C5B3CD9E42BED16F12C776AEB308F40C848FC700B1139D4891EF410CEC810227CC6846F8386402064270EF5C5C709A05E49676C024C61FC95EA45ED154CA5211D1FF4FB8291A913A68E9B83EBBB33
310
E2A7673CDE118E5AE8124C0807CB8377834E366998436B950D7A7746DAD846D4CFD978E0F04FD455FC5D49D2D4C6FE9722321F10997F0F32DC47FE05504B0304140006080800CC70623BFFEA85907E0000009D0000000B0000006662782F636E782E786D6C4DCCD10A83201886E15B91FFDC95D95A811AB6F23E625948A6C3
310
E9D8E5AF46073BFAE0E1E365ED67B3E8ADC3CB78C7815C7240DA3DFC64DCC221C519D7805AC182F7F1EF06C88D9BE6703008B6049F9E274D7A1E938DBB5AE3D6131B2589BA0D3D965551E0B2EA732C9B9A624AAEB41E3A557677029960D9AFB4EF11165F504B0304140006080800CC70623B4FEEA4082C0100001202000031
310
0000006662782F39464131463745442D413632322D343644302D413938332D3331353338454246344243312F636F72652E786D6C8D515B6EC32010BC0AE2AB55850DD871ED0813254D72825EC00192A2C460F1A872FC42ED48ED5F7E00CDCECCCEB26C731F6FE05B39AFADE921293004CA082BB5B9F43086336A21D870E6AC
310
0D7F68109861543DCC30E4ECE26C9C164858139409093556AA051CBC570102714B8F1E7AF1A5C6A11862480C7F2DA6415C878B2A4891CA89C7990F2E050073937C42DE1DB7E4F87ED8A36D4329AA9B3D46DBAEAD504556557BD81DEBDD0761E52CE42C462D17B996298E3E6BE59E35C962CE821E1FF18553435012728A7187
310
0841987E927A8D9B35ADDF70BBC6989599FE4F1427F9A4286A132ABAC49D651EF234CD5CE04CDA78BA3DC2A8FB645D00B9DF8B57E215725C60BCA2A463E54C4CE327C7A65E1C7DB02E7DEFCBF594B864C5CA6CDBD49C957943E9FA5D5FBAF336F90F504B0304140006080800CC70623BAD7543B64E01000033030000300000
310
006662782F39464131463745442D413632322D343644302D413938332D3331353338454246344243312F636E782E786D6CD593CD6EC32010845F0571AD6CE3D48AD20813A9873E410FBD12D82434182C7EAAE6EDBB2424CD25871E7B41D6EC30B3FA84F9E67BB2E40B4234DE8DB46F1925E094D7C6ED479AD3AE5951B2113C
310
789FEE6C943839C1488B4C05DF079FE72A69D8C96C13AAD6B8631503449F83828872B949AC57D26200B826A308D316B4064D6E46FCDA41C05550DC9E483A00797BFD207EFB092A45DE9514C1BBD22178396BD39D891265658C238DEA00936C654E5E433CB65A26D9F6EDB5EBC14EBF49A45CB856E66048291F6939A9A81BB5
310
C8917738143CA680F4AA299D66A042CEB3354A2684DC9D8D178FE0D9B8B41CAAD720F880EE7EF93C0C18769E099ECC04D5A102C8049A8A05632F4DDF376CF1DE0F6BB65C2F8627B65A33C6BB62177CEBBDAD973006829F89F22E814B54F4BC2BE347F8AA8F681390B50FA73F804400B5F542E796F19FF974E7F78DB802FE05
310
E207504B0304140006080800CC70623B16AB87BA640500003C100000340000006662782F39464131463745442D413632322D343644302D413938332D3331353338454246344243312F6F626A656374732E786D6CAD575B6FA33818FD2B887DE6924B3BED8A326A92B68A663B534DD4D13E548A0C38942D60649B369D5FBFC7
310
600890A493BDE42160637FD7F31D7FF63E6FB3D478A55C242CBF3247B66B1A340F5994E4F19559CA8D75611A9F7D8F33263BCB4C232719BD32D5B4E97B316765A1A722BA21652A07B3B7B33F0D11D29C9A46981221AE4C113ED38CD8A4942CA2E2C58E882476BCD9DA23BB5ED8171B73523C0F841684D35CC252CCE79062D4
310
468DFA43D7747CCF51DF7D4FFDEB5593E3AB9CCA9FBEFE241792E4E19EB28198C968BAB8199F5D5A67D3E9C49A9E8F47D6EC76B6B0469F26EEFC7C3EBFBCBEB98462213924694B38DD98FE1D62C393D073EA4FADC5DAF04326852CCF6958F90F0F2B9BB5C48816348F90C7840A68EB78EDF68723159BCEE7891A6B95DDE9D3
310
BCEAEEE8086A6C6F9E5D4B59F0175C10A7A0820BAA5055C7473B5AE3CFDD452D602CD5DF12616444529E90D448938013FE6EFA58AA96F85E4F8C42275708571E98FE6827AF6B2B4AE3D7D83D64E5A64C53054DD3AF90BD06FEA9149565C94FCA0F6B834DC85599E4F2423B24DF0B6AFA979E534DFA9E7A4CC6FA631D486393
310
921829879BF5D781A373557BCB85E97FB90DB62B558F8795179C15944B051F40AB495CF35451D26A4727654E6D8033BD98EF82F21D91FF8AF2DD9982BCF1643BDD4EB516C9492E368C67C88DED563FC36D5EACF66DFF057C3658BDBFA69DF9578B3DA735B64F18C7F20770A9D45CFCF7FCF563D6456A277DBEF78A02637CA2
310
43B90A490AEAB94F72244481D24819A6C0E59B606BFA4B3025981DBB48EAB701D97BF19C577CC77F2D1B6C55A9EF3C732474C0B727303F625995056C3B02963D9EAC146BE78EC5FCEC7FA999EBC5EACBAAE41B12D27B4D2C0BBA49F244E2ECDC81B76B502F113D8F5EE8FB1BE3111CDD4FC2AA9B844CAB1288B68AB90A7CDC
310
1C166AB0D3DC5310625FCC14E779BFD0709F8890A629C9292B1B2DED31A4B0DA928CEE135085754027E3018A397D4D5427D15BD1330B677DC8934285AC3DF45A9EB68FF8F2B8FC0A509AFEECFD0FF2DE25CC6047F7214B195F07EFEB9A094D800F7BFAE8FED187B78EA8A3A400F115961BCAD1215E47C966530AF0EE8128FE
310
58CEBB996A8964FFA529A046635D9353B0336A8F700DDF46271A024E70B0B37C9DE01847591E54DED53D54202AB947E4076556AC49C6CA5C9E1226B7F1A7B1BE15DEED62C41B91E1B3E9AFAAA735036547343A925075041DF0A9979E893B391F8FCFA6967B3EFB644DCF6E5CEBFAE272625DCC6FAF3FB93793C5F90CE1EF57
310
407342756B10D1C489E8953CD1617E5CEECAD6F4EF8914CE5D5D504E5C3F1F9736DA62CFC11E00BCDDB8CC8A9466349744C1F75EBDA4DF09BA8A9E8C7A7E9991989E20E5DBDD6A6003664ED8F7A04A8DBE0DF6EAD9B9AA858342E47399053949D2C146EDB85DE4B176BB0965FBAC19BD19AA918E27FA50C1D22402E144464C
310
59462568E704B6E71915404CB72B8FF4EDE184DDAF753F284990D2C6926782963815403548A70C657FDEF80D2D9CEAA2AE4C1C76F60BFE74219A06527D6582DF6412526107381E55E353090704D085B52408D0933C4ED159D79BDA71BB4BC506F4831350EB6F979CD22D69BF7AC49B91A2C0A9DDA3D5CA36AD20FC478E37E6
310
1844E2352865EBCB6EA275A652E3836BE04EFB400BF1A2556F515F1FBB35B2AB35BD889C744FFA1004B5544B121E57F70215746DD2F5E2C1412B602CBF19455AC6C8E5E9922C4E01E65215385004546899059180EAFCF7A707CE7017CD8CDB0410789AB32C63B91E5CEBBBACB17AC6CD347A022D5075FD106377347AAABA7E
310
7D11590744509B44E205134DC1290F06580320F78E537D3D73540E06CB970B431F185308AD40BBD794D6D77003C5A36E8EAA54BA64597CD8F83BD552A080A365F7FF06504B0304140006080000CC70623B000000000000000000000000350000006662782F39464131463745442D413632322D343644302D413938332D3331
310
353338454246344243312F76657274696365732E62696E504B0304140006080800CC70623BF270F1330600000004000000360000006662782F39464131463745442D413632322D343644302D413938332D3331353338454246344243312F747269616E676C65732E62696E636660600000504B0304140006080000CC70623B
310
000000000000000000000000370000006662782F39464131463745442D413632322D343644302D413938332D3331353338454246344243312F617474726962757465732E62696E504B0304140006080800CC70623B08DA0BD19000000041010000360000006662782F39464131463745442D413632322D343644302D413938
310
332D3331353338454246344243312F6469726563746F72792E786D6C858F410AC3201045AF22B36F53E9A60B35CBEEBAE80D244E44489C6234F4F835464A48035D0DF398FF9F8AF63D0E6CC63039F212F8F9020C7D47C6792B21C5FE7403D62A1188E2E60C98D7234A5830286103A55745067B9D86B8A3CF9C7F90C11DE607
310
FB144396D7B6A82D282E9A152AD114D5EF2CB866EEE831B8EEA07A7BB5A8D7D61A2BAAEB7FD5F70921FF497D00504B0304140006080800CC70623B0D6EF93BFE000000A00100003B0000006662782F39464131463745442D413632322D343644302D413938332D3331353338454246344243312F7265736F75726365732F63
310
6F72652E786D6C8D50596E833010BD0A9ADFCA60B334011947A8694ED00B586642AC041B79A97AFC9A40A5F6AF3F33A3B7689E1E3F7DCD8FEC139DD7D6F4C0720A191A65476DA61E62B892236427C19DB5E1970C322367EC618541F0C9D9B8EC90B226A009093576C41D94DE63804C3DD2D18357379C652E63480A7FCF17A9
310
EE72C29CE5894E3AC17D702940B63D59270887DE46A7D0F36263058F518FBB468FE9A7BE6A7420864373B8D4873369AA8691FA421B3294352543C5CAF65C0F6FEF43CB8BD52C78D0F34F46E550061C419494B6843142CB0F5677F4B52BEB177AEC28E5C52AFF638ACBF84F53D42654E51E77B379102C05791282176B5F693D
310
CB4C7BED567C03504B010214000A0000080000CC70623B3DEE336E79000000790000001B00000000000000000000000000000000006175746F6465736B2D64657369676E2D7061636B6167652E786D6C504B01021400140006080800CC70623BD486FD9CA0000000F40000001300000000000000000000000000B20000005B
310
436F6E74656E745F54797065735D2E786D6C504B01021400140006080800CC70623B1EC5D7A3EB0000007C010000080000000000000000000000000083010000636F72652E786D6C504B01021400140006080800CC70623B55019EA25F0000007C000000070000000000000000000000000094020000636E782E786D6C504B
310
01021400140006080800CC70623B8C9102E971010000D40300000C00000000000000000000000000180300006662782F636F72652E786D6C504B01021400140006080800CC70623BFFEA85907E0000009D0000000B00000000000000000000000000B30400006662782F636E782E786D6C504B01021400140006080800CC70
310
623B4FEEA4082C0100001202000031000000000000000000000000005A0500006662782F39464131463745442D413632322D343644302D413938332D3331353338454246344243312F636F72652E786D6C504B01021400140006080800CC70623BAD7543B64E010000330300003000000000000000000000000000D5060000
310
6662782F39464131463745442D413632322D343644302D413938332D3331353338454246344243312F636E782E786D6C504B01021400140006080800CC70623B16AB87BA640500003C1000003400000000000000000000000000710800006662782F39464131463745442D413632322D343644302D413938332D3331353338
310
454246344243312F6F626A656374732E786D6C504B01021400140006080000CC70623B0000000000000000000000003500000000000000000000000000270E00006662782F39464131463745442D413632322D343644302D413938332D3331353338454246344243312F76657274696365732E62696E504B01021400140006
310
080800CC70623BF270F133060000000400000036000000000000000000000000007A0E00006662782F39464131463745442D413632322D343644302D413938332D3331353338454246344243312F747269616E676C65732E62696E504B01021400140006080000CC70623B0000000000000000000000003700000000000000
310
000000000000D40E00006662782F39464131463745442D413632322D343644302D413938332D3331353338454246344243312F617474726962757465732E62696E504B01021400140006080800CC70623B08DA0BD190000000410100003600000000000000000000000000290F00006662782F39464131463745442D413632
310
322D343644302D413938332D3331353338454246344243312F6469726563746F72792E786D6C504B01021400140006080800CC70623B0D6EF93BFE000000A00100003B000000000000000000000000000D1000006662782F39464131463745442D413632322D343644302D413938332D3331353338454246344243312F7265
310
736F75726365732F636F72652E786D6C504B0506000000000E000E0080040000641100000000
  0
XRECORD
  5
E
102
{ACAD_REACTORS
330
D
102
}
330
D
100
AcDbXrecord
280
     1
102
MATERIAL
148
0.0
149
0.0
149
0.0
 93
        0
 94
      127
282
     0
 72
     1
 77
     1
171
     1
175
     1
179
     1
273
     0
  0
XRECORD
  5
F
102
{ACAD_REACTORS
330
D
102
}
330
D
100
AcDbXrecord
280
     1
270
     1
271
     1
  0
XRECORD
  5
10
102
{ACAD_REACTORS
330
D
102
}
330
D
100
AcDbXrecord
280
     1
270
     1
271
     1
  0
XRECORD
  5
11
102
{ACAD_REACTORS
330
D
102
}
330
D
100
AcDbXrecord
280
     1
 70
     0
 90
1673772943
  1
ECE7A1D2-D628-4531-984C-D00F80459256
310
504B03040A0000080000CC70623B3DEE336E79000000790000001B0000006175746F6465736B2D64657369676E2D7061636B6167652E786D6C3C3F786D6C2076657273696F6E3D22312E302220656E636F64696E673D227574662D3822203F3E3C666F726D6174733E3C666F726D61743E687474703A2F2F736368656D612E
310
6175746F6465736B2E636F6D2F64657369676E2D7061636B6167652F323030393C2F666F726D61743E3C2F666F726D6174733E504B0304140006080800CC70623BD486FD9CA0000000F4000000130000005B436F6E74656E745F54797065735D2E786D6C7D8EC10E82300C865F65E91D8A1E8C310C0EEA1BF002731658846E
310
D98AC1B77784ABF1D8FE5FBFBF75BBCE937A534CCEB38643598122B6FEE978D0B0485F9C41B54DDD7D022595594E1A469170414C76A4D9A4D207E29CF43ECE46F218070CC6BECC4078ACAA135ACF422C856C0E68EA1BF5669944DDD7BCDE7B1F8E415D77AECB980613C2E4AC91FC167A2B244592486606FC29C8FD7F045B9A
310
EF7053A7E60B504B0304140006080800CC70623BD9DDAED0EC0000007C01000008000000636F72652E786D6C8D90416EC3201045AF82665B61836D9CD8C2444DD39CA01740405C94182C03558F5F9C3852BBEB6A467FFE9B197D7EF89E6EE8CB2CC17A37002D0820E394D7D68D03A478C17B4007C117EFE32F1B20272733C0
310
2A83E0E3E2D3BC49CABB685CCCAAF3DA6CA20CC14440EA969B0182FA34932C648AD911AEC52CD5558EA6A0CF2EC329598D1E47ACCEFBECC59A050463A7EA5833865FEBDD0E37353BE3EE8DBDE3F6786A48D375FBF6CC78B9C282473B3DEFABC5C86834888A900E538A49F5419B9EB47DD5BC907D4F082F57FB1F28CDFA9F50
310
B22ED6D5F6EE030B20687EE43E10BC5CB3C8E51E54AE6B6EE207504B0304140006080800CC70623B55019EA25F0000007C00000007000000636E782E786D6C4DCB3B0E80201045D1AD90E915ED2CF8AC45050C11660C8261F98AB1B07AC9C97D42D718D865D3E909258CFD00CCE24AC6E326A164D74DC0B4128928FF326038
310
472BA13128B1252AC747C6BAB984FC68F0B87FE8960A5C09FE86CFB69FBA01504B0304140006080800CC70623BA24EB22D72010000D40300000C0000006662782F636F72652E786D6CC5535B6E833010BC8AE5DF0A6C5E49888CA3A6694ED00B38E05014B091B1518EDFE511A5A9D228FD2A1F60CDEC7A67C6986DCE4D8D7A
310
69BA4AAB0C073EC548AA5C17952A33ECECD15B61B4E1CC686DBF9561A44423333CC098B3D268D7CE50AE9595CA02AA74216750749DB418E5352C32DCE59FB211BE70162ABA93DF8AFC244AE9073ED050C759670D0840D390E18DF9F1706664C23973AE2A66B62A605A75ACA4C13C4976E1364A12EF355A2EBD384AF65EFA96
310
BC7B8BED2EA6719AAE16FB8491A199335B351775B991C2CA02F390D2D40B028F861F41BCA68B7518BFD0D59A524686F29B26D7164F36B94AD9289CE54E6D1DE6010819891F6E21228B3AD1831EC219194284CF98F06DD01008846CC5A1BEF83801D4CBDC6A1303536877A57A513B0953A94FC707FDBE6064EA84A9E3E6E0FA
310
EE8CF0E9198F7784A316AA0413C2C2F2E0ECA0934D1AE6D05A69BCDE9E91D2A611F573361E38FC1375157F5752AE6B6DFE4B11990F88CCBF0719EE23FF02504B0304140006080800CC70623B408A7D3B7C0000009D0000000B0000006662782F636E782E786D6C4DCCD10A83201886E15B91FFDC552A92A0064DBC8F581632
310
D3703A76F9ABD1C18E3E78F878E5F0D9027ABBFCF2292AE86E2D20171F69F6715550CB827B40839639A5F2770314A7CD293819B45C73AAFB45B35BA61ACAA1C1C7E7855C58C15BC331339661262CC762340413D68D77DA5B42298546CBE6573AF60CEB2F504B0304140006080800CC70623B449FB9BD290100001202000031
310
0000006662782F36394639363044362D344446342D343946362D394244322D3234314243333846323333332F636F72652E786D6C8D515B6EC32010BC0AE22B55850D98B871848994463E412FE002495162B07854397EA176A4F62F3F2C9A9D991D587EB84F37F0AD7D30CEF6905418026DA553C65E7A98E219ED203808EE9D
310
8B7F6810D871D23D2C3014FCE25D9A57483A1BB58D19B54EE9151C43D0110279CB971E06F9A5A7B11A53CC8C70ADE6515EC78BAE4895DB992778883E0700CB907242D17643D7E2538BD869608875438BBAE38922CAC8F1BDD90DB4691A5E2F42C153326A951B95E398B3D1FE599322163C9AE9115F7A3D46ADA0A018778810
310
84E907617BDCEE297BC5BB3DC6BC2EF47FA234AB2745C9D8D8D035EE220B50105E2F0DC1954B9FB747187D9F9D8FA0CCDB042D5FA0C015C65B42DF78BD10F3F3B363CB56C7109DCFDFBBB97E662ED92EB62D13BC2E1BCAE5777DB9966D8A1F504B0304140006080800CC70623BAD7543B64E01000033030000300000006662
310
782F36394639363044362D344446342D343946362D394244322D3234314243333846323333332F636E782E786D6CD593CD6EC32010845F0571AD6CE3D48AD20813A9873E410FBD12D82434182C7EAAE6EDBB2424CD25871E7B41D6EC30B3FA84F9E67BB2E40B4234DE8DB46F1925E094D7C6ED479AD3AE5951B2113C789FEE
310
6C943839C1488B4C05DF079FE72A69D8C96C13AAD6B8631503449F83828872B949AC57D26200B826A308D316B4064D6E46FCDA41C05550DC9E483A00797BFD207EFB092A45DE9514C1BBD22178396BD39D891265658C238DEA00936C654E5E433CB65A26D9F6EDB5EBC14EBF49A45CB856E66048291F6939A9A81BB5C89177
310
38143CA680F4AA299D66A042CEB3354A2684DC9D8D178FE0D9B8B41CAAD720F880EE7EF93C0C18769E099ECC04D5A102C8049A8A05632F4DDF376CF1DE0F6BB65C2F8627B65A33C6BB62177CEBBDAD973006829F89F22E814B54F4BC2BE347F8AA8F681390B50FA73F804400B5F542E796F19FF974E7F78DB802FE05E20750
310
4B0304140006080800CC70623B8D05915C650500003B100000340000006662782F36394639363044362D344446342D343946362D394244322D3234314243333846323333332F6F626A656374732E786D6CAD575B6FA33814FE2B887D06429276DA1565D4266D158D3A339A6846FB502932E050B66023DB74D2FDF5FB190C01
310
9276B2973C046C8ECFF53B17071F77456EBD502133CEAE6CDF9DD81665314F32965ED995DA3A17B6F5310C04E7AA47665B8C14F4CAD6DB7618A48257A5D94AE89654B91AEDDEDDFC61C998326A5B714EA4BCB265FC440BE2924AF184CA6737218AB8E976E7FA6E4338649B0A523E8D98964450A6A029F619B8588D52FE7039
310
B1BD30F0F4F730D0FF866AF6369557DB33949F31A9088B0F848DD8CCFCF9F2767A76E99CCDE733677E3EF59D9BBB9BA5E37F984D16E78BC5E5F5ED25044B25C0C96822E8D60EEFE11B91C581D77CEA34368A1F5329E68CD1B8B61F16D63A1B8E092D294B10C78C4A48EB593D192E7DED9BDEE7995E1B91FDEDD3ACEA9FE831
310
6A756F9F7D4D79F4274C90A7A04248AA51D5F8C718DAE06FB2F75AC4796EBE65D22A88A22223B995679120E2D50E41AA49C260C046A35368846B0BECD0DFF3EBEB8AD4F835768F69B9ADF25C43D30E6B646F807FAA64AD59F61715C7A54127C4AACA98BA3006A9D792DAE165E0D59B61A01FB3A9F9D838D2DAE62445C86166
310
F37564E842E7DE6A69879FEEA2DD5AE7E371E1A5E025154AC307D06A03D73EB5978C58FFA4C8E9033066E0F3BD53BEC1F39F91BE7B55103791EDE6BBB991A2046172CB4581D8B893FA674DDA17A77B3B7C413D1B511FD2743BFF8A38F03A658705E3ADF8015C3A3417FF3D7E439FF591DA0B5F18BC20C1B8981957AE6392A3
310
F43C640C01D1A0B4728E2DD4F26DB4B3C3152A252A3B4E913CEC1C72F012782FF88EFF8637AA552DBEF76408E8A8DE9E50F9E1CB3A2DA0DB1B6039A893B56063DC5B3E3FFB5F72E67AB9FEB4AEC496C4F4C1149625DD662C53E89D7BF0F6151A046260D1337DFDC94502430F83B0EE07A130A224BCAD7DAE1D9FB6CD422FF6
310
920702629C4BB9AE79C12F243C6432A6794E18E5552BA56B431AAB5D91317302B2B071E86C3A42B1A02F999E24061403B5D0EB639195DA655DD3EBEAB4FB862DDF579F014AD0E73C22F99E28DA57FB98E75C6CA2D74D53086D600F4786E0FE3144B771A8A7B900F03594DB8A633CBC49B2EDB69228BB479CF863B5E807AAAB
310
23872F6DFEB4129B949CA33823F58830E86D65621E10047D9DB34D862E8EAC3C2ABC2F7B2C40D67CDFE01F5545B92105AF983AC54D93D69E56FB8E797F88913F898A9FEC705D3F9D1B54EC8426FB500D40A03BD0119B06E1B95DDC7EB8F6975367793EBD70E66733DFB9BC982F9CE564727731999F5D4ECFCE3B8D6A4DC2A0
310
6D50FD148437D110834A64C6CDDF57FBACB5C307A2A477DFE4939736CFEF2B175371E0E10CF0DD1D5C15654E0BCA14D1E87DD02FF93782A162C0A3D95F1524A52770F972BF1EE9809D13CE7DD599467F8ECE9ADD85CE85A34CD45355448C64F9E8A031DC2D596ACC6E5DD93D9B82DE2EF5CAF81363A8E47996A0DE24564A79
310
4115AACE09C55E14540231FDA13C319787134EBF34E3A022514E5B4D9E0826E25C02D5805B15ABE1BEF51B26383D445DD9E875EE33FE4C22DA16427D65A3BCA92CA6D28DD01DF5DC53330704308475351050232CCD31583787BA75774AFB06E5070DD0C8EF484E19968C5D83BA5B90B244D31E54D55A372320FE4786B7EA58
310
44E135AA5467CB7EA333A61683CC6A8C3257034C10CF46F40EF9F5BE59BE5BD30C3C72D235E95D10345C1D45445A5F0BB47E46A5EBE5570F9380B5FA629579952296A773720405982B9DE04011506178964401AA8BDF1FBF0A8EAB6861DD6580C0E38217056766716DAEB2D6FA0917D3E4116581EADB879C4E7CFFB11EFACD
310
3D641311495D92C8676CB409A72D18610D803CE8A626049E8EC1887CB5B44CC39883690DDA8399B4B9855B481E7D71D4A9D22F96E5BB73BF5793020C02137BF837504B0304140006080000CC70623B000000000000000000000000350000006662782F36394639363044362D344446342D343946362D394244322D32343142
310
43333846323333332F76657274696365732E62696E504B0304140006080800CC70623BF270F1330600000004000000360000006662782F36394639363044362D344446342D343946362D394244322D3234314243333846323333332F747269616E676C65732E62696E636660600000504B0304140006080000CC70623B0000
310
00000000000000000000370000006662782F36394639363044362D344446342D343946362D394244322D3234314243333846323333332F617474726962757465732E62696E504B0304140006080800CC70623B08DA0BD19000000041010000360000006662782F36394639363044362D344446342D343946362D394244322D
310
3234314243333846323333332F6469726563746F72792E786D6C858F410AC3201045AF22B36F53E9A60B35CBEEBAE80D244E44489C6234F4F835464A48035D0DF398FF9F8AF63D0E6CC63039F212F8F9020C7D47C6792B21C5FE7403D62A1188E2E60C98D7234A5830286103A55745067B9D86B8A3CF9C7F90C11DE607FB14
310
4396D7B6A82D282E9A152AD114D5EF2CB866EEE831B8EEA07A7BB5A8D7D61A2BAAEB7FD5F70921FF497D00504B0304140006080800CC70623BCA768048FE000000A00100003B0000006662782F36394639363044362D344446342D343946362D394244322D3234314243333846323333332F7265736F75726365732F636F72
310
652E786D6C8D50596E833010BD0A9ADFCA60D600328E9AA639412F609909B1126CE4A5EAF16B0295DABFFECC8CDEA2797AECF8353F924FB44E193D409E5248504B332A3D0D10FC95B4901C39B3C6F85F3248B49871801506CE266BC2B243D2688FDA47549B11775038871E12F988C7004EDE7016A9083E2ADC3D5D84BC8B09
310
D33C8D74D471E6BC8D0192EDC93A815B742658898E651BCB59086ADC356A8C3FD555A1055ED7E7E254D615792D0F075295F585746FF53B694EE78A565DD736979A65AB9933AFE69F8CD2A2F038022F28ED489E135A7CE4554F9BBEA85E68DB53CAB255FEC71496F19FA6A0B42F8B3DEE6673C0F318E4497096AD7DC5F52C33
310
EEB55BFE0D504B010214000A0000080000CC70623B3DEE336E79000000790000001B00000000000000000000000000000000006175746F6465736B2D64657369676E2D7061636B6167652E786D6C504B01021400140006080800CC70623BD486FD9CA0000000F40000001300000000000000000000000000B20000005B436F
310
6E74656E745F54797065735D2E786D6C504B01021400140006080800CC70623BD9DDAED0EC0000007C010000080000000000000000000000000083010000636F72652E786D6C504B01021400140006080800CC70623B55019EA25F0000007C000000070000000000000000000000000095020000636E782E786D6C504B0102
310
1400140006080800CC70623BA24EB22D72010000D40300000C00000000000000000000000000190300006662782F636F72652E786D6C504B01021400140006080800CC70623B408A7D3B7C0000009D0000000B00000000000000000000000000B50400006662782F636E782E786D6C504B01021400140006080800CC70623B
310
449FB9BD290100001202000031000000000000000000000000005A0500006662782F36394639363044362D344446342D343946362D394244322D3234314243333846323333332F636F72652E786D6C504B01021400140006080800CC70623BAD7543B64E010000330300003000000000000000000000000000D20600006662
310
782F36394639363044362D344446342D343946362D394244322D3234314243333846323333332F636E782E786D6C504B01021400140006080800CC70623B8D05915C650500003B10000034000000000000000000000000006E0800006662782F36394639363044362D344446342D343946362D394244322D32343142433338
310
46323333332F6F626A656374732E786D6C504B01021400140006080000CC70623B0000000000000000000000003500000000000000000000000000250E00006662782F36394639363044362D344446342D343946362D394244322D3234314243333846323333332F76657274696365732E62696E504B010214001400060808
310
00CC70623BF270F13306000000040000003600000000000000000000000000780E00006662782F36394639363044362D344446342D343946362D394244322D3234314243333846323333332F747269616E676C65732E62696E504B01021400140006080000CC70623B00000000000000000000000037000000000000000000
310
00000000D20E00006662782F36394639363044362D344446342D343946362D394244322D3234314243333846323333332F617474726962757465732E62696E504B01021400140006080800CC70623B08DA0BD190000000410100003600000000000000000000000000270F00006662782F36394639363044362D344446342D
310
343946362D394244322D3234314243333846323333332F6469726563746F72792E786D6C504B01021400140006080800CC70623BCA768048FE000000A00100003B000000000000000000000000000B1000006662782F36394639363044362D344446342D343946362D394244322D3234314243333846323333332F7265736F
310
75726365732F636F72652E786D6C504B0506000000000E000E0080040000621100000000
  0
XRECORD
  5
12
102
{ACAD_REACTORS
330
D
102
}
330
D
100
AcDbXrecord
280
     1
270
     1
271
     1
  0
XRECORD
  5
13
102
{ACAD_REACTORS
330
D
102
}
330
D
100
AcDbXrecord
280
     1
270
     1
271
     1
  0
CELLSTYLEMAP
  5
239
102
{ACAD_REACTORS
330
48
102
}
330
48
100
AcDbCellStyleMap
 90
        3
300
CELLSTYLE
  1
TABLEFORMAT_BEGIN
 90
        5
170
     1
 91
        0
 92
    32768
 62
   257
 93
        1
300
CONTENTFORMAT
  1
CONTENTFORMAT_BEGIN
 90
        0
 91
        0
 92
      512
 93
        0
300

 40
0.0
140
1.0
 94
        5
 62
     0
340
27
144
6.0
309
CONTENTFORMAT_END
171
     1
301
MARGIN
  1
CELLMARGIN_BEGIN
 40
1.5
 40
1.5
 40
1.5
 40
1.5
 40
0.18
 40
0.18
309
CELLMARGIN_END
 94
        6
 95
        1
302
GRIDFORMAT
  1
GRIDFORMAT_BEGIN
 90
        0
 91
        1
 62
     0
 92
       -2
340
2A
 93
        0
 40
1.125
309
GRIDFORMAT_END
 95
        2
302
GRIDFORMAT
  1
GRIDFORMAT_BEGIN
 90
        0
 91
        1
 62
     0
 92
       -2
340
2A
 93
        0
 40
1.125
309
GRIDFORMAT_END
 95
        4
302
GRIDFORMAT
  1
GRIDFORMAT_BEGIN
 90
        0
 91
        1
 62
     0
 92
       -2
340
2A
 93
        0
 40
1.125
309
GRIDFORMAT_END
 95
        8
302
GRIDFORMAT
  1
GRIDFORMAT_BEGIN
 90
        0
 91
        1
 62
     0
 92
       -2
340
2A
 93
        0
 40
1.125
309
GRIDFORMAT_END
 95
       16
302
GRIDFORMAT
  1
GRIDFORMAT_BEGIN
 90
        0
 91
        1
 62
     0
 92
       -2
340
2A
 93
        0
 40
1.125
309
GRIDFORMAT_END
 95
       32
302
GRIDFORMAT
  1
GRIDFORMAT_BEGIN
 90
        0
 91
        1
 62
     0
 92
       -2
340
2A
 93
        0
 40
1.125
309
GRIDFORMAT_END
309
TABLEFORMAT_END
  1
CELLSTYLE_BEGIN
 90
        1
 91
        1
300
_TITLE
309
CELLSTYLE_END
300
CELLSTYLE
  1
TABLEFORMAT_BEGIN
 90
        5
170
     1
 91
        0
 92
        0
 62
   257
 93
        1
300
CONTENTFORMAT
  1
CONTENTFORMAT_BEGIN
 90
        0
 91
        0
 92
      512
 93
        0
300

 40
0.0
140
1.0
 94
        5
 62
     0
340
27
144
4.5
309
CONTENTFORMAT_END
171
     1
301
MARGIN
  1
CELLMARGIN_BEGIN
 40
1.5
 40
1.5
 40
1.5
 40
1.5
 40
0.18
 40
0.18
309
CELLMARGIN_END
 94
        6
 95
        1
302
GRIDFORMAT
  1
GRIDFORMAT_BEGIN
 90
        0
 91
        1
 62
     0
 92
       -2
340
2A
 93
        0
 40
1.125
309
GRIDFORMAT_END
 95
        2
302
GRIDFORMAT
  1
GRIDFORMAT_BEGIN
 90
        0
 91
        1
 62
     0
 92
       -2
340
2A
 93
        0
 40
1.125
309
GRIDFORMAT_END
 95
        4
302
GRIDFORMAT
  1
GRIDFORMAT_BEGIN
 90
        0
 91
        1
 62
     0
 92
       -2
340
2A
 93
        0
 40
1.125
309
GRIDFORMAT_END
 95
        8
302
GRIDFORMAT
  1
GRIDFORMAT_BEGIN
 90
        0
 91
        1
 62
     0
 92
       -2
340
2A
 93
        0
 40
1.125
309
GRIDFORMAT_END
 95
       16
302
GRIDFORMAT
  1
GRIDFORMAT_BEGIN
 90
        0
 91
        1
 62
     0
 92
       -2
340
2A
 93
        0
 40
1.125
309
GRIDFORMAT_END
 95
       32
302
GRIDFORMAT
  1
GRIDFORMAT_BEGIN
 90
        0
 91
        1
 62
     0
 92
       -2
340
2A
 93
        0
 40
1.125
309
GRIDFORMAT_END
309
TABLEFORMAT_END
  1
CELLSTYLE_BEGIN
 90
        2
 91
        1
300
_HEADER
309
CELLSTYLE_END
300
CELLSTYLE
  1
TABLEFORMAT_BEGIN
 90
        5
170
     1
 91
        0
 92
        0
 62
   257
 93
        1
300
CONTENTFORMAT
  1
CONTENTFORMAT_BEGIN
 90
        0
 91
        0
 92
      512
 93
        0
300

 40
0.0
140
1.0
 94
        2
 62
     0
340
27
144
4.5
309
CONTENTFORMAT_END
171
     1
301
MARGIN
  1
CELLMARGIN_BEGIN
 40
1.5
 40
1.5
 40
1.5
 40
1.5
 40
0.18
 40
0.18
309
CELLMARGIN_END
 94
        6
 95
        1
302
GRIDFORMAT
  1
GRIDFORMAT_BEGIN
 90
        0
 91
        1
 62
     0
 92
       -2
340
2A
 93
        0
 40
1.125
309
GRIDFORMAT_END
 95
        2
302
GRIDFORMAT
  1
GRIDFORMAT_BEGIN
 90
        0
 91
        1
 62
     0
 92
       -2
340
2A
 93
        0
 40
1.125
309
GRIDFORMAT_END
 95
        4
302
GRIDFORMAT
  1
GRIDFORMAT_BEGIN
 90
        0
 91
        1
 62
     0
 92
       -2
340
2A
 93
        0
 40
1.125
309
GRIDFORMAT_END
 95
        8
302
GRIDFORMAT
  1
GRIDFORMAT_BEGIN
 90
        0
 91
        1
 62
     0
 92
       -2
340
2A
 93
        0
 40
1.125
309
GRIDFORMAT_END
 95
       16
302
GRIDFORMAT
  1
GRIDFORMAT_BEGIN
 90
        0
 91
        1
 62
     0
 92
       -2
340
2A
 93
        0
 40
1.125
309
GRIDFORMAT_END
 95
       32
302
GRIDFORMAT
  1
GRIDFORMAT_BEGIN
 90
        0
 91
        1
 62
     0
 92
       -2
340
2A
 93
        0
 40
1.125
309
GRIDFORMAT_END
309
TABLEFORMAT_END
  1
CELLSTYLE_BEGIN
 90
        3
 91
        2
300
_DATA
309
CELLSTYLE_END
  0
XRECORD
  5
23D
102
{ACAD_REACTORS
330
48
102
}
330
48
100
AcDbXrecord
280
     1
102
ACAD_ROUNDTRIP_PRE2007_TABLESTYLE
 90
      512
 91
        0
  1

 92
      512
 93
        0
  2

 94
      512
 95
        0
  3

  0
XRECORD
  5
23C
102
{ACAD_REACTORS
330
23B
102
}
330
23B
100
AcDbXrecord
280
     1
102
RTVSPost2010Prop28
280
     1
102
RTVSPost2010PropOp28
 70
     1
102
RTVSPost2010Prop29
280
     1
102
RTVSPost2010PropOp29
 70
     1
102
RTVSPost2010Prop30
280
     0
102
RTVSPost2010PropOp30
 70
     1
102
RTVSPost2010Prop31
280
     0
102
RTVSPost2010PropOp31
 70
     1
102
RTVSPost2010Prop32
280
     0
102
RTVSPost2010PropOp32
 70
     1
102
RTVSPost2010Prop33
280
     0
102
RTVSPost2010PropOp33
 70
     1
102
RTVSPost2010Prop34
280
     0
102
RTVSPost2010PropOp34
 70
     1
102
RTVSPost2010Prop35
280
     0
102
RTVSPost2010PropOp35
 70
     1
102
RTVSPost2010Prop36
280
     0
102
RTVSPost2010PropOp36
 70
     1
102
RTVSPost2010Prop37
 90
       50
102
RTVSPost2010PropOp37
 70
     1
102
RTVSPost2010Prop38
140
0.0
102
RTVSPost2010PropOp38
 70
     1
102
RTVSPost2010Prop39
140
1.0
102
RTVSPost2010PropOp39
 70
     1
102
RTVSPost2010Prop40
 90
        0
102
RTVSPost2010PropOp40
 70
     1
102
RTVSPost2010Prop41ColorIndex
 90
       18
102
RTVSPost2010Prop41ColorRGB
 90
        0
102
RTVSPost2010PropOp41
 70
     1
102
RTVSPost2010Prop42
 90
       50
102
RTVSPost2010PropOp42
 70
     1
102
RTVSPost2010Prop43
 90
        3
102
RTVSPost2010PropOp43
 70
     1
102
RTVSPost2010Prop44ColorIndex
 90
        5
102
RTVSPost2010Prop44ColorRGB
 90
      255
102
RTVSPost2010PropOp44
 70
     1
102
RTVSPost2010Prop45
280
     0
102
RTVSPost2010PropOp45
 70
     1
102
RTVSPost2010Prop46
 90
       50
102
RTVSPost2010PropOp46
 70
     1
102
RTVSPost2010Prop47
 90
       50
102
RTVSPost2010PropOp47
 70
     1
102
RTVSPost2010Prop48
 90
       50
102
RTVSPost2010PropOp48
 70
     1
102
RTVSPost2010Prop49
280
     0
102
RTVSPost2010PropOp49
 70
     1
102
RTVSPost2010Prop50
 90
       50
102
RTVSPost2010PropOp50
 70
     1
102
RTVSPost2010Prop51ColorIndex
 90
      256
102
RTVSPost2010Prop51ColorRGB
 90
-16777216
102
RTVSPost2010PropOp51
 70
     0
102
RTVSPost2010Prop52
140
1.0
102
RTVSPost2010PropOp52
 70
     0
102
RTVSPost2010Prop53
 90
        2
102
RTVSPost2010PropOp53
 70
     1
102
RTVSPost2010Prop54
  1
strokes_ogs.tif
102
RTVSPost2010PropOp54
 70
     1
102
RTVSPost2010Prop55
280
     0
102
RTVSPost2010PropOp55
 70
     1
102
RTVSPost2010Prop56
140
1.0
102
RTVSPost2010PropOp56
 70
     1
102
RTVSPost2010Prop57
140
1.0
102
RTVSPost2010PropOp57
 70
     1
102
RTVSPropertyOp0
 70
     1
102
RTVSPropertyOp1
 70
     1
102
RTVSPropertyOp2
 70
     1
102
RTVSPropertyOp3
 70
     1
102
RTVSPropertyOp4
 70
     1
102
RTVSPropertyOp5
 70
     1
102
RTVSPropertyOp6
 70
     1
102
RTVSPropertyOp7
 70
     1
102
RTVSPropertyOp8
 70
     1
102
RTVSPropertyOp9
 70
     1
102
RTVSPropertyOp10
 70
     1
102
RTVSPropertyOp11
 70
     1
102
RTVSPropertyOp12
 70
     1
102
RTVSPropertyOp13
 70
     1
102
RTVSPropertyOp14
 70
     1
102
RTVSPropertyOp15
 70
     1
102
RTVSPropertyOp16
 70
     1
102
RTVSPropertyOp17
 70
     1
102
RTVSPropertyOp18
 70
     1
102
RTVSPropertyOp19
 70
     1
102
RTVSPropertyOp20
 70
     1
102
RTVSPropertyOp21
 70
     1
102
RTVSPropertyOp22
 70
     1
102
RTVSPropertyOp23
 70
     1
102
RTVSPropertyOp24
 70
     1
102
RTVSPropertyOp25
 70
     1
102
RTVSPropertyOp26
 70
     1
102
RTVSPropertyOp27
 70
     1
102
RTVSPropertyOp28
 70
     1
102
RTVSPropertyOp29
 70
     1
102
RTVSPropertyOp30
 70
     1
102
RTVSPropertyOp31
 70
     1
102
RTVSPropertyOp32
 70
     1
102
RTVSPropertyOp33
 70
     1
102
RTVSPropertyOp34
 70
     1
102
RTVSPropertyOp35
 70
     1
102
RTVSPropertyOp36
 70
     1
102
RTVSPropertyOp37
 70
     1
102
RTVSPropertyOp38
 70
     1
102
RTVSPropertyOp39
 70
     1
102
RTVSPropertyOp40
 70
     1
102
RTVSPropertyOp41
 70
     1
102
RTVSPropertyOp42
 70
     1
102
RTVSPropertyOp43
 70
     1
102
RTVSPropertyOp44
 70
     1
102
RTVSPropertyOp45
 70
     1
102
RTVSPropertyOp46
 70
     1
102
RTVSPropertyOp47
 70
     1
102
RTVSPropertyOp48
 70
     1
102
RTVSPropertyOp49
 70
     1
102
RTVSPropertyOp50
 70
     1
102
RTVSPropertyOp51
 70
     0
102
RTVSPropertyOp52
 70
     0
102
RTVSPropertyOp53
 70
     1
102
RTVSPropertyOp54
 70
     1
102
RTVSPropertyOp55
 70
     1
102
RTVSPropertyOp56
 70
     1
102
RTVSPropertyOp57
 70
     1
102
RTVSPropertyOp58
 70
     1
102
RTVSPropertyOp59
 70
     1
102
RTVSPropertyOp60
 70
     1
102
RTVSPropertyOp61
 70
     1
102
RTVSPropertyOp62
 70
     1
  0
XRECORD
  5
23F
102
{ACAD_REACTORS
330
23E
102
}
330
23E
100
AcDbXrecord
280
     1
102
RTVSPost2010Prop28
280
     0
102
RTVSPost2010PropOp28
 70
     1
102
RTVSPost2010Prop29
280
     1
102
RTVSPost2010PropOp29
 70
     1
102
RTVSPost2010Prop30
280
     1
102
RTVSPost2010PropOp30
 70
     1
102
RTVSPost2010Prop31
280
     0
102
RTVSPost2010PropOp31
 70
     1
102
RTVSPost2010Prop32
280
     0
102
RTVSPost2010PropOp32
 70
     1
102
RTVSPost2010Prop33
280
     0
102
RTVSPost2010PropOp33
 70
     1
102
RTVSPost2010Prop34
280
     0
102
RTVSPost2010PropOp34
 70
     1
102
RTVSPost2010Prop35
280
     0
102
RTVSPost2010PropOp35
 70
     1
102
RTVSPost2010Prop36
280
     0
102
RTVSPost2010PropOp36
 70
     1
102
RTVSPost2010Prop37
 90
       50
102
RTVSPost2010PropOp37
 70
     1
102
RTVSPost2010Prop38
140
0.0
102
RTVSPost2010PropOp38
 70
     1
102
RTVSPost2010Prop39
140
1.0
102
RTVSPost2010PropOp39
 70
     1
102
RTVSPost2010Prop40
 90
        0
102
RTVSPost2010PropOp40
 70
     1
102
RTVSPost2010Prop41ColorIndex
 90
       18
102
RTVSPost2010Prop41ColorRGB
 90
        0
102
RTVSPost2010PropOp41
 70
     1
102
RTVSPost2010Prop42
 90
       50
102
RTVSPost2010PropOp42
 70
     1
102
RTVSPost2010Prop43
 90
        3
102
RTVSPost2010PropOp43
 70
     1
102
RTVSPost2010Prop44ColorIndex
 90
        5
102
RTVSPost2010Prop44ColorRGB
 90
      255
102
RTVSPost2010PropOp44
 70
     1
102
RTVSPost2010Prop45
280
     0
102
RTVSPost2010PropOp45
 70
     1
102
RTVSPost2010Prop46
 90
       50
102
RTVSPost2010PropOp46
 70
     1
102
RTVSPost2010Prop47
 90
       50
102
RTVSPost2010PropOp47
 70
     1
102
RTVSPost2010Prop48
 90
       50
102
RTVSPost2010PropOp48
 70
     1
102
RTVSPost2010Prop49
280
     0
102
RTVSPost2010PropOp49
 70
     1
102
RTVSPost2010Prop50
 90
       50
102
RTVSPost2010PropOp50
 70
     1
102
RTVSPost2010Prop51ColorIndex
 90
      256
102
RTVSPost2010Prop51ColorRGB
 90
-16777216
102
RTVSPost2010PropOp51
 70
     0
102
RTVSPost2010Prop52
140
1.0
102
RTVSPost2010PropOp52
 70
     0
102
RTVSPost2010Prop53
 90
        2
102
RTVSPost2010PropOp53
 70
     1
102
RTVSPost2010Prop54
  1
strokes_ogs.tif
102
RTVSPost2010PropOp54
 70
     1
102
RTVSPost2010Prop55
280
     0
102
RTVSPost2010PropOp55
 70
     1
102
RTVSPost2010Prop56
140
1.0
102
RTVSPost2010PropOp56
 70
     1
102
RTVSPost2010Prop57
140
1.0
102
RTVSPost2010PropOp57
 70
     1
102
RTVSPropertyOp0
 70
     1
102
RTVSPropertyOp1
 70
     1
102
RTVSPropertyOp2
 70
     1
102
RTVSPropertyOp3
 70
     1
102
RTVSPropertyOp4
 70
     1
102
RTVSPropertyOp5
 70
     1
102
RTVSPropertyOp6
 70
     1
102
RTVSPropertyOp7
 70
     1
102
RTVSPropertyOp8
 70
     1
102
RTVSPropertyOp9
 70
     1
102
RTVSPropertyOp10
 70
     1
102
RTVSPropertyOp11
 70
     1
102
RTVSPropertyOp12
 70
     1
102
RTVSPropertyOp13
 70
     1
102
RTVSPropertyOp14
 70
     1
102
RTVSPropertyOp15
 70
     1
102
RTVSPropertyOp16
 70
     1
102
RTVSPropertyOp17
 70
     1
102
RTVSPropertyOp18
 70
     1
102
RTVSPropertyOp19
 70
     1
102
RTVSPropertyOp20
 70
     1
102
RTVSPropertyOp21
 70
     1
102
RTVSPropertyOp22
 70
     1
102
RTVSPropertyOp23
 70
     1
102
RTVSPropertyOp24
 70
     1
102
RTVSPropertyOp25
 70
     1
102
RTVSPropertyOp26
 70
     1
102
RTVSPropertyOp27
 70
     1
102
RTVSPropertyOp28
 70
     1
102
RTVSPropertyOp29
 70
     1
102
RTVSPropertyOp30
 70
     1
102
RTVSPropertyOp31
 70
     1
102
RTVSPropertyOp32
 70
     1
102
RTVSPropertyOp33
 70
     1
102
RTVSPropertyOp34
 70
     1
102
RTVSPropertyOp35
 70
     1
102
RTVSPropertyOp36
 70
     1
102
RTVSPropertyOp37
 70
     1
102
RTVSPropertyOp38
 70
     1
102
RTVSPropertyOp39
 70
     1
102
RTVSPropertyOp40
 70
     1
102
RTVSPropertyOp41
 70
     1
102
RTVSPropertyOp42
 70
     1
102
RTVSPropertyOp43
 70
     1
102
RTVSPropertyOp44
 70
     1
102
RTVSPropertyOp45
 70
     1
102
RTVSPropertyOp46
 70
     1
102
RTVSPropertyOp47
 70
     1
102
RTVSPropertyOp48
 70
     1
102
RTVSPropertyOp49
 70
     1
102
RTVSPropertyOp50
 70
     1
102
RTVSPropertyOp51
 70
     0
102
RTVSPropertyOp52
 70
     0
102
RTVSPropertyOp53
 70
     1
102
RTVSPropertyOp54
 70
     1
102
RTVSPropertyOp55
 70
     1
102
RTVSPropertyOp56
 70
     1
102
RTVSPropertyOp57
 70
     1
102
RTVSPropertyOp58
 70
     1
102
RTVSPropertyOp59
 70
     1
102
RTVSPropertyOp60
 70
     1
102
RTVSPropertyOp61
 70
     1
102
RTVSPropertyOp62
 70
     1
  0
XRECORD
  5
241
102
{ACAD_REACTORS
330
240
102
}
330
240
100
AcDbXrecord
280
     1
102
RTVSPost2010Prop28
280
     0
102
RTVSPost2010PropOp28
 70
     1
102
RTVSPost2010Prop29
280
     1
102
RTVSPost2010PropOp29
 70
     1
102
RTVSPost2010Prop30
280
     1
102
RTVSPost2010PropOp30
 70
     1
102
RTVSPost2010Prop31
280
     0
102
RTVSPost2010PropOp31
 70
     1
102
RTVSPost2010Prop32
280
     0
102
RTVSPost2010PropOp32
 70
     1
102
RTVSPost2010Prop33
280
     0
102
RTVSPost2010PropOp33
 70
     1
102
RTVSPost2010Prop34
280
     0
102
RTVSPost2010PropOp34
 70
     1
102
RTVSPost2010Prop35
280
     0
102
RTVSPost2010PropOp35
 70
     1
102
RTVSPost2010Prop36
280
     0
102
RTVSPost2010PropOp36
 70
     1
102
RTVSPost2010Prop37
 90
       50
102
RTVSPost2010PropOp37
 70
     1
102
RTVSPost2010Prop38
140
0.0
102
RTVSPost2010PropOp38
 70
     1
102
RTVSPost2010Prop39
140
1.0
102
RTVSPost2010PropOp39
 70
     1
102
RTVSPost2010Prop40
 90
        0
102
RTVSPost2010PropOp40
 70
     1
102
RTVSPost2010Prop41ColorIndex
 90
       18
102
RTVSPost2010Prop41ColorRGB
 90
        0
102
RTVSPost2010PropOp41
 70
     1
102
RTVSPost2010Prop42
 90
       50
102
RTVSPost2010PropOp42
 70
     1
102
RTVSPost2010Prop43
 90
        3
102
RTVSPost2010PropOp43
 70
     1
102
RTVSPost2010Prop44ColorIndex
 90
        5
102
RTVSPost2010Prop44ColorRGB
 90
      255
102
RTVSPost2010PropOp44
 70
     1
102
RTVSPost2010Prop45
280
     0
102
RTVSPost2010PropOp45
 70
     1
102
RTVSPost2010Prop46
 90
       50
102
RTVSPost2010PropOp46
 70
     1
102
RTVSPost2010Prop47
 90
       50
102
RTVSPost2010PropOp47
 70
     1
102
RTVSPost2010Prop48
 90
       50
102
RTVSPost2010PropOp48
 70
     1
102
RTVSPost2010Prop49
280
     0
102
RTVSPost2010PropOp49
 70
     1
102
RTVSPost2010Prop50
 90
       50
102
RTVSPost2010PropOp50
 70
     1
102
RTVSPost2010Prop51ColorIndex
 90
      256
102
RTVSPost2010Prop51ColorRGB
 90
-16777216
102
RTVSPost2010PropOp51
 70
     0
102
RTVSPost2010Prop52
140
1.0
102
RTVSPost2010PropOp52
 70
     0
102
RTVSPost2010Prop53
 90
        2
102
RTVSPost2010PropOp53
 70
     1
102
RTVSPost2010Prop54
  1
strokes_ogs.tif
102
RTVSPost2010PropOp54
 70
     1
102
RTVSPost2010Prop55
280
     0
102
RTVSPost2010PropOp55
 70
     1
102
RTVSPost2010Prop56
140
1.0
102
RTVSPost2010PropOp56
 70
     1
102
RTVSPost2010Prop57
140
1.0
102
RTVSPost2010PropOp57
 70
     1
102
RTVSPropertyOp0
 70
     1
102
RTVSPropertyOp1
 70
     1
102
RTVSPropertyOp2
 70
     1
102
RTVSPropertyOp3
 70
     1
102
RTVSPropertyOp4
 70
     1
102
RTVSPropertyOp5
 70
     1
102
RTVSPropertyOp6
 70
     1
102
RTVSPropertyOp7
 70
     1
102
RTVSPropertyOp8
 70
     1
102
RTVSPropertyOp9
 70
     1
102
RTVSPropertyOp10
 70
     1
102
RTVSPropertyOp11
 70
     1
102
RTVSPropertyOp12
 70
     1
102
RTVSPropertyOp13
 70
     1
102
RTVSPropertyOp14
 70
     1
102
RTVSPropertyOp15
 70
     1
102
RTVSPropertyOp16
 70
     1
102
RTVSPropertyOp17
 70
     1
102
RTVSPropertyOp18
 70
     1
102
RTVSPropertyOp19
 70
     1
102
RTVSPropertyOp20
 70
     1
102
RTVSPropertyOp21
 70
     1
102
RTVSPropertyOp22
 70
     1
102
RTVSPropertyOp23
 70
     1
102
RTVSPropertyOp24
 70
     1
102
RTVSPropertyOp25
 70
     1
102
RTVSPropertyOp26
 70
     1
102
RTVSPropertyOp27
 70
     1
102
RTVSPropertyOp28
 70
     1
102
RTVSPropertyOp29
 70
     1
102
RTVSPropertyOp30
 70
     1
102
RTVSPropertyOp31
 70
     1
102
RTVSPropertyOp32
 70
     1
102
RTVSPropertyOp33
 70
     1
102
RTVSPropertyOp34
 70
     1
102
RTVSPropertyOp35
 70
     1
102
RTVSPropertyOp36
 70
     1
102
RTVSPropertyOp37
 70
     1
102
RTVSPropertyOp38
 70
     1
102
RTVSPropertyOp39
 70
     1
102
RTVSPropertyOp40
 70
     1
102
RTVSPropertyOp41
 70
     1
102
RTVSPropertyOp42
 70
     1
102
RTVSPropertyOp43
 70
     1
102
RTVSPropertyOp44
 70
     1
102
RTVSPropertyOp45
 70
     1
102
RTVSPropertyOp46
 70
     1
102
RTVSPropertyOp47
 70
     1
102
RTVSPropertyOp48
 70
     1
102
RTVSPropertyOp49
 70
     1
102
RTVSPropertyOp50
 70
     1
102
RTVSPropertyOp51
 70
     0
102
RTVSPropertyOp52
 70
     0
102
RTVSPropertyOp53
 70
     1
102
RTVSPropertyOp54
 70
     1
102
RTVSPropertyOp55
 70
     1
102
RTVSPropertyOp56
 70
     1
102
RTVSPropertyOp57
 70
     1
102
RTVSPropertyOp58
 70
     1
102
RTVSPropertyOp59
 70
     1
102
RTVSPropertyOp60
 70
     1
102
RTVSPropertyOp61
 70
     1
102
RTVSPropertyOp62
 70
     1
  0
ENDSEC
  0
EOF
