  0
SECTION
  2
HEADER
  9
$ACADVER
  1
AC1018
  9
$ACADMAINTVER
 70
   104
  9
$DWGCODEPAGE
  3
ANSI_932
  9
$INSBASE
 10
0.0
 20
0.0
 30
0.0
  9
$EXTMIN
 10
1.918078651297406
 20
3.913021598245066
 30
-0.0015258207003583
  9
$EXTMAX
 10
51.92307903584978
 20
25.0023476881565
 30
0.0000000349246037
  9
$LIMMIN
 10
-5.686195091388071
 20
-4.109335712766551
  9
$LIMMAX
 10
57.57271246991331
 20
32.64891098467706
  9
$ORTHOMODE
 70
     0
  9
$REGENMODE
 70
     1
  9
$FILLMODE
 70
     1
  9
$QTEXTMODE
 70
     0
  9
$MIRRTEXT
 70
     0
  9
$LTSCALE
 40
1.0
  9
$ATTMODE
 70
     1
  9
$TEXTSIZE
 40
2.5
  9
$TRACEWID
 40
1.0
  9
$TEXTSTYLE
  7
Standard
  9
$CLAYER
  8
0
  9
$CELTYPE
  6
ByLayer
  9
$CECOLOR
 62
   256
  9
$CELTSCALE
 40
1.0
  9
$DISPSILH
 70
     0
  9
$DIMSCALE
 40
1.0
  9
$DIMASZ
 40
2.5
  9
$DIMEXO
 40
0.625
  9
$DIMDLI
 40
3.75
  9
$DIMRND
 40
0.0
  9
$DIMDLE
 40
0.0
  9
$DIMEXE
 40
1.25
  9
$DIMTP
 40
0.0
  9
$DIMTM
 40
0.0
  9
$DIMTXT
 40
2.5
  9
$DIMCEN
 40
2.5
  9
$DIMTSZ
 40
0.0
  9
$DIMTOL
 70
     0
  9
$DIMLIM
 70
     0
  9
$DIMTIH
 70
     0
  9
$DIMTOH
 70
     0
  9
$DIMSE1
 70
     0
  9
$DIMSE2
 70
     0
  9
$DIMTAD
 70
     1
  9
$DIMZIN
 70
     8
  9
$DIMBLK
  1

  9
$DIMASO
 70
     1
  9
$DIMSHO
 70
     1
  9
$DIMPOST
  1

  9
$DIMAPOST
  1

  9
$DIMALT
 70
     0
  9
$DIMALTD
 70
     3
  9
$DIMALTF
 40
0.03937007874016
  9
$DIMLFAC
 40
1.0
  9
$DIMTOFL
 70
     1
  9
$DIMTVP
 40
0.0
  9
$DIMTIX
 70
     0
  9
$DIMSOXD
 70
     0
  9
$DIMSAH
 70
     0
  9
$DIMBLK1
  1

  9
$DIMBLK2
  1

  9
$DIMSTYLE
  2
ISO-25
  9
$DIMCLRD
 70
     0
  9
$DIMCLRE
 70
     0
  9
$DIMCLRT
 70
     0
  9
$DIMTFAC
 40
1.0
  9
$DIMGAP
 40
0.625
  9
$DIMJUST
 70
     0
  9
$DIMSD1
 70
     0
  9
$DIMSD2
 70
     0
  9
$DIMTOLJ
 70
     0
  9
$DIMTZIN
 70
     8
  9
$DIMALTZ
 70
     0
  9
$DIMALTTZ
 70
     0
  9
$DIMUPT
 70
     0
  9
$DIMDEC
 70
     2
  9
$DIMTDEC
 70
     2
  9
$DIMALTU
 70
     2
  9
$DIMALTTD
 70
     3
  9
$DIMTXSTY
  7
Standard
  9
$DIMAUNIT
 70
     0
  9
$DIMADEC
 70
     0
  9
$DIMALTRND
 40
0.0
  9
$DIMAZIN
 70
     0
  9
$DIMDSEP
 70
    44
  9
$DIMATFIT
 70
     3
  9
$DIMFRAC
 70
     0
  9
$DIMLDRBLK
  1

  9
$DIMLUNIT
 70
     2
  9
$DIMLWD
 70
    -2
  9
$DIMLWE
 70
    -2
  9
$DIMTMOVE
 70
     0
  9
$LUNITS
 70
     2
  9
$LUPREC
 70
     4
  9
$SKETCHINC
 40
1.0
  9
$FILLETRAD
 40
0.0
  9
$AUNITS
 70
     0
  9
$AUPREC
 70
     0
  9
$MENU
  1
.
  9
$ELEVATION
 40
0.0
  9
$PELEVATION
 40
0.0
  9
$THICKNESS
 40
0.0
  9
$LIMCHECK
 70
     0
  9
$CHAMFERA
 40
0.0
  9
$CHAMFERB
 40
0.0
  9
$CHAMFERC
 40
0.0
  9
$CHAMFERD
 40
0.0
  9
$SKPOLY
 70
     0
  9
$TDCREATE
 40
2458226.717511574
  9
$TDUCREATE
 40
2458226.384178241
  9
$TDUPDATE
 40
2458226.717685185
  9
$TDUUPDATE
 40
2458226.384351852
  9
$TDINDWG
 40
0.0008564815
  9
$TDUSRTIMER
 40
0.0008564815
  9
$USRTIMER
 70
     1
  9
$ANGBASE
 50
0.0
  9
$ANGDIR
 70
     0
  9
$PDMODE
 70
     0
  9
$PDSIZE
 40
0.0
  9
$PLINEWID
 40
0.0
  9
$SPLFRAME
 70
     0
  9
$SPLINETYPE
 70
     6
  9
$SPLINESEGS
 70
     8
  9
$HANDSEED
  5
247
  9
$SURFTAB1
 70
     6
  9
$SURFTAB2
 70
     6
  9
$SURFTYPE
 70
     6
  9
$SURFU
 70
     6
  9
$SURFV
 70
     6
  9
$UCSBASE
  2

  9
$UCSNAME
  2

  9
$UCSORG
 10
0.0
 20
0.0
 30
0.0
  9
$UCSXDIR
 10
1.0
 20
0.0
 30
0.0
  9
$UCSYDIR
 10
0.0
 20
1.0
 30
0.0
  9
$UCSORTHOREF
  2

  9
$UCSORTHOVIEW
 70
     0
  9
$UCSORGTOP
 10
0.0
 20
0.0
 30
0.0
  9
$UCSORGBOTTOM
 10
0.0
 20
0.0
 30
0.0
  9
$UCSORGLEFT
 10
0.0
 20
0.0
 30
0.0
  9
$UCSORGRIGHT
 10
0.0
 20
0.0
 30
0.0
  9
$UCSORGFRONT
 10
0.0
 20
0.0
 30
0.0
  9
$UCSORGBACK
 10
0.0
 20
0.0
 30
0.0
  9
$PUCSBASE
  2

  9
$PUCSNAME
  2

  9
$PUCSORG
 10
0.0
 20
0.0
 30
0.0
  9
$PUCSXDIR
 10
1.0
 20
0.0
 30
0.0
  9
$PUCSYDIR
 10
0.0
 20
1.0
 30
0.0
  9
$PUCSORTHOREF
  2

  9
$PUCSORTHOVIEW
 70
     0
  9
$PUCSORGTOP
 10
0.0
 20
0.0
 30
0.0
  9
$PUCSORGBOTTOM
 10
0.0
 20
0.0
 30
0.0
  9
$PUCSORGLEFT
 10
0.0
 20
0.0
 30
0.0
  9
$PUCSORGRIGHT
 10
0.0
 20
0.0
 30
0.0
  9
$PUCSORGFRONT
 10
0.0
 20
0.0
 30
0.0
  9
$PUCSORGBACK
 10
0.0
 20
0.0
 30
0.0
  9
$USERI1
 70
     0
  9
$USERI2
 70
     0
  9
$USERI3
 70
     0
  9
$USERI4
 70
     0
  9
$USERI5
 70
     0
  9
$USERR1
 40
0.0
  9
$USERR2
 40
0.0
  9
$USERR3
 40
0.0
  9
$USERR4
 40
0.0
  9
$USERR5
 40
0.0
  9
$WORLDVIEW
 70
     1
  9
$SHADEDGE
 70
     3
  9
$SHADEDIF
 70
    70
  9
$TILEMODE
 70
     1
  9
$MAXACTVP
 70
    64
  9
$PINSBASE
 10
0.0
 20
0.0
 30
0.0
  9
$PLIMCHECK
 70
     0
  9
$PEXTMIN
 10
0.0
 20
0.0
 30
0.0
  9
$PEXTMAX
 10
0.0
 20
0.0
 30
0.0
  9
$PLIMMIN
 10
0.0
 20
0.0
  9
$PLIMMAX
 10
12.0
 20
9.0
  9
$UNITMODE
 70
     0
  9
$VISRETAIN
 70
     1
  9
$PLINEGEN
 70
     0
  9
$PSLTSCALE
 70
     1
  9
$TREEDEPTH
 70
  3020
  9
$CMLSTYLE
  2
Standard
  9
$CMLJUST
 70
     0
  9
$CMLSCALE
 40
20.0
  9
$PROXYGRAPHICS
 70
     1
  9
$MEASUREMENT
 70
     1
  9
$CELWEIGHT
370
    -1
  9
$ENDCAPS
280
     0
  9
$JOINSTYLE
280
     0
  9
$LWDISPLAY
290
     0
  9
$INSUNITS
 70
     4
  9
$HYPERLINKBASE
  1

  9
$STYLESHEET
  1

  9
$XEDIT
290
     1
  9
$CEPSNTYPE
380
     0
  9
$PSTYLEMODE
290
     1
  9
$FINGERPRINTGUID
  2
{11F86618-D608-B641-AC95-A8BC46ED20D9}
  9
$VERSIONGUID
  2
{D7918D21-5B42-2042-A372-2BF422C09130}
  9
$EXTNAMES
290
     1
  9
$PSVPSCALE
 40
0.0
  9
$OLESTARTUP
290
     0
  9
$SORTENTS
280
   127
  9
$INDEXCTL
280
     0
  9
$HIDETEXT
280
     1
  9
$XCLIPFRAME
290
     0
  9
$HALOGAP
280
     0
  9
$OBSCOLOR
 70
   257
  9
$OBSLTYPE
280
     0
  9
$INTERSECTIONDISPLAY
280
     0
  9
$INTERSECTIONCOLOR
 70
   257
  9
$DIMASSOC
280
     2
  9
$PROJECTNAME
  1

  0
ENDSEC
  0
SECTION
  2
CLASSES
  0
CLASS
  1
ACDBDICTIONARYWDFLT
  2
AcDbDictionaryWithDefault
  3
ObjectDBX Classes
 90
        0
 91
        1
280
     0
281
     0
  0
CLASS
  1
DICTIONARYVAR
  2
AcDbDictionaryVar
  3
ObjectDBX Classes
 90
        0
 91
       12
280
     0
281
     0
  0
CLASS
  1
TABLESTYLE
  2
AcDbTableStyle
  3
ObjectDBX Classes
 90
     4095
 91
        1
280
     0
281
     0
  0
CLASS
  1
MATERIAL
  2
AcDbMaterial
  3
ObjectDBX Classes
 90
     1153
 91
        3
280
     0
281
     0
  0
CLASS
  1
VISUALSTYLE
  2
AcDbVisualStyle
  3
ObjectDBX Classes
 90
     4095
 91
        3
280
     0
281
     0
  0
CLASS
  1
SCALE
  2
AcDbScale
  3
ObjectDBX Classes
 90
     1153
 91
       17
280
     0
281
     0
  0
CLASS
  1
MLEADERSTYLE
  2
AcDbMLeaderStyle
  3
ACDB_MLEADERSTYLE_CLASS
 90
     4095
 91
        0
280
     0
281
     0
  0
CLASS
  1
CELLSTYLEMAP
  2
AcDbCellStyleMap
  3
ObjectDBX Classes
 90
     1152
 91
        1
280
     0
281
     0
  0
CLASS
  1
EXACXREFPANELOBJECT
  2
ExAcXREFPanelObject
  3
EXAC_ESW
 90
     1025
 91
        0
280
     1
281
     0
  0
CLASS
  1
NPOCOLLECTION
  2
AcDbImpNonPersistentObjectsCollection
  3
ObjectDBX Classes
 90
     1153
 91
        0
280
     0
281
     0
  0
CLASS
  1
LAYER_INDEX
  2
AcDbLayerIndex
  3
ObjectDBX Classes
 90
        0
 91
        0
280
     0
281
     0
  0
CLASS
  1
SPATIAL_INDEX
  2
AcDbSpatialIndex
  3
ObjectDBX Classes
 90
        0
 91
        0
280
     0
281
     0
  0
CLASS
  1
IDBUFFER
  2
AcDbIdBuffer
  3
ObjectDBX Classes
 90
        0
 91
        0
280
     0
281
     0
  0
CLASS
  1
ACDBSECTIONVIEWSTYLE
  2
AcDbSectionViewStyle
  3
ObjectDBX Classes
 90
     1025
 91
        0
280
     0
281
     0
  0
CLASS
  1
ACDBDETAILVIEWSTYLE
  2
AcDbDetailViewStyle
  3
ObjectDBX Classes
 90
     1025
 91
        0
280
     0
281
     0
  0
CLASS
  1
SORTENTSTABLE
  2
AcDbSortentsTable
  3
ObjectDBX Classes
 90
        0
 91
        2
280
     0
281
     0
  0
ENDSEC
  0
SECTION
  2
TABLES
  0
TABLE
  2
VPORT
  5
2E
330
0
100
AcDbSymbolTable
 70
     1
  0
VPORT
  5
2F
330
2E
100
AcDbSymbolTableRecord
100
AcDbViewportTableRecord
  2
*Active
 70
     0
 10
0.0
 20
0.0
 11
1.0
 21
1.0
 12
25.94325868926262
 22
14.26978763595525
 13
0.0
 23
0.0
 14
10.0
 24
10.0
 15
10.0
 25
10.0
 16
0.0
 26
0.0
 36
1.0
 17
0.0
 27
0.0
 37
0.0
 40
37.08021674150881
 41
2.326023391812865
 42
50.0
 43
0.0
 44
0.0
 50
0.0
 51
0.0
 71
     0
 72
  1000
 73
     1
 74
     3
 75
     0
 76
     1
 77
     0
 78
     0
281
     0
 65
     1
110
0.0
120
0.0
130
0.0
111
1.0
121
0.0
131
0.0
112
0.0
122
1.0
132
0.0
 79
     0
146
0.0
1001
ACAD_NAV_VCDISPLAY
1070
     3
  0
ENDTAB
  0
TABLE
  2
LTYPE
  5
29
330
0
100
AcDbSymbolTable
 70
     1
  0
LTYPE
  5
2A
330
29
100
AcDbSymbolTableRecord
100
AcDbLinetypeTableRecord
  2
ByBlock
 70
     0
  3

 72
    65
 73
     0
 40
0.0
  0
LTYPE
  5
2B
330
29
100
AcDbSymbolTableRecord
100
AcDbLinetypeTableRecord
  2
ByLayer
 70
     0
  3

 72
    65
 73
     0
 40
0.0
  0
LTYPE
  5
15
330
29
100
AcDbSymbolTableRecord
100
AcDbLinetypeTableRecord
  2
Continuous
 70
     0
  3
Solid line
 72
    65
 73
     0
 40
0.0
  0
ENDTAB
  0
TABLE
  2
LAYER
  5
23
102
{ACAD_XDICTIONARY
360
24
102
}
330
0
100
AcDbSymbolTable
 70
     1
  0
LAYER
  5
6
102
{ACAD_XDICTIONARY
360
7
102
}
330
23
100
AcDbSymbolTableRecord
100
AcDbLayerTableRecord
  2
0
 70
     0
 62
     7
  6
Continuous
370
    -3
390
8
  0
ENDTAB
  0
TABLE
  2
STYLE
  5
26
330
0
100
AcDbSymbolTable
 70
     1
  0
STYLE
  5
27
330
26
100
AcDbSymbolTableRecord
100
AcDbTextStyleTableRecord
  2
Standard
 70
     0
 40
0.0
 41
1.0
 50
0.0
 71
     0
 42
2.5
  3
arial.ttf
  4

1001
ACAD
1000
Arial
1071
       34
  0
ENDTAB
  0
TABLE
  2
VIEW
  5
2C
330
0
100
AcDbSymbolTable
 70
     0
  0
ENDTAB
  0
TABLE
  2
UCS
  5
2D
330
0
100
AcDbSymbolTable
 70
     0
  0
ENDTAB
  0
TABLE
  2
APPID
  5
33
330
0
100
AcDbSymbolTable
 70
     6
  0
APPID
  5
14
330
33
100
AcDbSymbolTableRecord
100
AcDbRegAppTableRecord
  2
ACAD
 70
     0
  0
APPID
  5
1E
330
33
100
AcDbSymbolTableRecord
100
AcDbRegAppTableRecord
  2
ACAD_PSEXT
 70
     0
  0
APPID
  5
37
330
33
100
AcDbSymbolTableRecord
100
AcDbRegAppTableRecord
  2
AcadAnnotative
 70
     0
  0
APPID
  5
38
330
33
100
AcDbSymbolTableRecord
100
AcDbRegAppTableRecord
  2
ACAD_DSTYLE_DIMJAG
 70
     0
  0
APPID
  5
39
330
33
100
AcDbSymbolTableRecord
100
AcDbRegAppTableRecord
  2
ACAD_DSTYLE_DIMTALN
 70
     0
  0
APPID
  5
32
330
33
100
AcDbSymbolTableRecord
100
AcDbRegAppTableRecord
  2
ACAD_NAV_VCDISPLAY
 70
     0
  0
ENDTAB
  0
TABLE
  2
DIMSTYLE
  5
34
330
0
100
AcDbSymbolTable
 70
     2
100
AcDbDimStyleTable
 71
     2
340
35
340
36
  0
DIMSTYLE
105
36
330
34
100
AcDbSymbolTableRecord
100
AcDbDimStyleTableRecord
  2
Annotative
 70
     0
 40
0.0
 41
2.5
 42
0.625
 43
3.75
 44
1.25
 73
     0
 74
     0
 77
     1
 78
     8
140
2.5
141
2.5
143
0.03937007874016
147
0.625
171
     3
172
     1
271
     2
272
     2
274
     3
278
    44
283
     0
284
     8
340
27
1001
AcadAnnotative
1000
AnnotativeData
1002
{
1070
     1
1070
     1
1002
}
1001
ACAD_DSTYLE_DIMJAG
1070
   388
1040
1.5
1001
ACAD_DSTYLE_DIMTALN
1070
   392
1070
     0
  0
DIMSTYLE
105
35
330
34
100
AcDbSymbolTableRecord
100
AcDbDimStyleTableRecord
  2
ISO-25
 70
     0
 41
2.5
 42
0.625
 43
3.75
 44
1.25
 73
     0
 74
     0
 77
     1
 78
     8
140
2.5
141
2.5
143
0.03937007874016
147
0.625
171
     3
172
     1
271
     2
272
     2
274
     3
278
    44
283
     0
284
     8
340
27
  0
ENDTAB
  0
TABLE
  2
BLOCK_RECORD
  5
1
330
0
100
AcDbSymbolTable
 70
     0
  0
BLOCK_RECORD
  5
2
102
{ACAD_XDICTIONARY
360
3
102
}
330
1
100
AcDbSymbolTableRecord
100
AcDbBlockTableRecord
  2
*Model_Space
340
1B
  0
BLOCK_RECORD
  5
1F
330
1
100
AcDbSymbolTableRecord
100
AcDbBlockTableRecord
  2
*Paper_Space
340
22
  0
ENDTAB
  0
ENDSEC
  0
SECTION
  2
BLOCKS
  0
BLOCK
  5
5
330
2
100
AcDbEntity
  8
0
100
AcDbBlockBegin
  2
*Model_Space
 70
     0
 10
0.0
 20
0.0
 30
0.0
  3
*Model_Space
  1

  0
ENDBLK
  5
1A
330
2
100
AcDbEntity
  8
0
100
AcDbBlockEnd
  0
BLOCK
  5
20
330
1F
100
AcDbEntity
 67
     1
  8
0
100
AcDbBlockBegin
  2
*Paper_Space
 70
     0
 10
0.0
 20
0.0
 30
0.0
  3
*Paper_Space
  1

  0
ENDBLK
  5
21
330
1F
100
AcDbEntity
 67
     1
  8
0
100
AcDbBlockEnd
  0
ENDSEC
  0
SECTION
  2
ENTITIES
  0
LINE
  5
5C
330
2
100
AcDbEntity
  8
0
100
AcDbLine
 10
51.87851450641028
 20
16.88672139204664
 30
0.0
 11
50.81230095185754
 21
17.81008941616517
 31
0.0
  0
LINE
  5
5D
330
2
100
AcDbEntity
  8
0
100
AcDbLine
 10
51.8423737900864
 20
16.54540669154403
 30
0.0
 11
51.86017356317403
 21
16.55482126748859
 31
0.0
  0
LINE
  5
5E
330
2
100
AcDbEntity
  8
0
100
AcDbLine
 10
27.38960787920587
 20
17.81008941616517
 30
0.0
 11
26.32339432465324
 21
16.88672139204664
 31
0.0
  0
LINE
  5
5F
330
2
100
AcDbEntity
  8
0
100
AcDbLine
 10
26.34233116692417
 20
16.55445508308474
 30
0.0
 11
26.35953504097711
 21
16.54540669154403
 31
0.0
  0
LINE
  5
60
330
2
100
AcDbEntity
  8
0
100
AcDbLine
 10
35.79550470138907
 20
23.20817880100827
 30
0.0
 11
35.79550470138907
 21
18.38992995000262
 31
0.0
  0
SPLINE
  5
61
330
2
100
AcDbEntity
  8
0
100
AcDbSpline
210
0.0
220
0.0
230
1.0
 70
     8
 71
     3
 72
    12
 73
     8
 74
     0
 42
0.000000001
 43
0.0000000001
 40
0.0
 40
0.0
 40
0.0
 40
0.0
 40
0.1814292812455421
 40
0.4157921650615058
 40
0.6513173281689835
 40
0.8893818971947961
 40
1.0
 40
1.0
 40
1.0
 40
1.0
 10
38.10328086676873
 20
24.35247655847536
 30
0.0
 10
38.078879023863
 20
24.37181592984672
 30
0.0
 10
38.01076598404961
 20
24.41890364659201
 30
0.0
 10
37.89163642889525
 20
24.45957420258026
 30
0.0
 10
37.75306880005223
 20
24.47636520666231
 30
0.0
 10
37.63289977817476
 20
24.46552810797169
 30
0.0
 10
37.56118878779489
 20
24.44683858763927
 30
0.0
 10
37.53843877941495
 20
24.4409094163654
 30
0.0
  0
LINE
  5
62
330
2
100
AcDbEntity
  8
0
100
AcDbLine
 10
38.15900086404565
 20
24.30479778517429
 30
0.0
 11
38.11901785574992
 21
24.33942408609744
 31
0.0
  0
SPLINE
  5
63
330
2
100
AcDbEntity
  8
0
100
AcDbSpline
210
0.0
220
0.0
230
1.0
 70
     8
 71
     3
 72
    16
 73
    12
 74
     0
 42
0.000000001
 43
0.0000000001
 40
0.0
 40
0.0
 40
0.0
 40
0.0
 40
0.0698495378242813
 40
0.1990379081207496
 40
0.3285182403160729
 40
0.4581529125746114
 40
0.5879251972799279
 40
0.7178828956211269
 40
0.8480723407691126
 40
0.9707891010511616
 40
1.0
 40
1.0
 40
1.0
 40
1.0
 10
36.52273395290274
 20
24.14770068886344
 30
0.0
 10
36.49587203819125
 20
24.13906311685145
 30
0.0
 10
36.41932837764854
 20
24.11445015135377
 30
0.0
 10
36.29594573733289
 20
24.05140175750245
 30
0.0
 10
36.16014252503828
 20
23.95285621600215
 30
0.0
 10
36.03935086997058
 20
23.83203040684867
 30
0.0
 10
35.9383863577384
 20
23.69416885536674
 30
0.0
 10
35.8612306950738
 20
23.54438844414062
 30
0.0
 10
35.81240255302714
 20
23.39158335782599
 30
0.0
 10
35.79651070581758
 20
23.2787593797836
 30
0.0
 10
35.79566693240896
 20
23.21956081803604
 30
0.0
 10
35.79550470138475
 20
23.20817880100321
 30
0.0
  0
LINE
  5
64
330
2
100
AcDbEntity
  8
0
100
AcDbLine
 10
36.70740755772522
 20
24.20101136660037
 30
0.0
 11
36.52273395290149
 21
24.1477006888727
 31
0.0
  0
SPLINE
  5
65
330
2
100
AcDbEntity
  8
0
100
AcDbSpline
210
0.0
220
0.0
230
1.0
 70
     8
 71
     3
 72
    10
 73
     6
 74
     0
 42
0.000000001
 43
0.0000000001
 40
0.0
 40
0.0
 40
0.0
 40
0.0
 40
0.2785574303014062
 40
0.6383864624489386
 40
1.0
 40
1.0
 40
1.0
 40
1.0
 10
42.67600375560505
 20
22.47149880365423
 30
0.0
 10
42.64564261697024
 20
22.49741797678451
 30
0.0
 10
42.5834311342828
 20
22.5376810006718
 30
0.0
 10
42.46467153661932
 20
22.57992068533048
 30
0.0
 10
42.37171478732693
 20
22.58688538683424
 30
0.0
 10
42.32512144731254
 20
22.59037635126373
 30
0.0
  0
SPLINE
  5
66
330
2
100
AcDbEntity
  8
0
100
AcDbSpline
210
0.0
220
0.0
230
1.0
 70
     8
 71
     3
 72
    12
 73
     8
 74
     0
 42
0.000000001
 43
0.0000000001
 40
0.0
 40
0.0
 40
0.0
 40
0.0
 40
0.1814292812455341
 40
0.415792165061499
 40
0.6513173281689814
 40
0.8893818971947844
 40
1.0
 40
1.0
 40
1.0
 40
1.0
 10
41.79777854794099
 20
23.81848159873801
 30
0.0
 10
41.76743494965784
 20
23.84358588943519
 30
0.0
 10
41.70526366522289
 20
23.88490868685494
 30
0.0
 10
41.58613411006878
 20
23.92557924284313
 30
0.0
 10
41.44756648122563
 20
23.94237024692523
 30
0.0
 10
41.32739745934805
 20
23.93153314823462
 30
0.0
 10
41.25568646896818
 20
23.91284362790219
 30
0.0
 10
41.23293646058822
 20
23.90691445662833
 30
0.0
  0
LINE
  5
67
330
2
100
AcDbEntity
  8
0
100
AcDbLine
 10
41.8534985452179
 20
23.77080282543693
 30
0.0
 11
41.81351553692207
 21
23.80542912636008
 31
0.0
  0
LINE
  5
68
330
2
100
AcDbEntity
  8
0
100
AcDbLine
 10
34.41147824999462
 20
21.20814020376093
 30
0.0
 11
34.41147824999462
 21
17.94724699936546
 31
0.0
  0
LINE
  5
69
330
2
100
AcDbEntity
  8
0
100
AcDbLine
 10
41.23293646058278
 20
23.90691445663737
 30
0.0
 11
40.77142740809143
 21
23.77368826878731
 31
0.0
  0
SPLINE
  5
6A
330
2
100
AcDbEntity
  8
0
100
AcDbSpline
210
0.0
220
0.0
230
1.0
 70
     8
 71
     3
 72
    11
 73
     7
 74
     0
 42
0.000000001
 43
0.0000000001
 40
0.0
 40
0.0
 40
0.0
 40
0.0
 40
0.1104046517395713
 40
0.5209289446612724
 40
0.9078897400403908
 40
1.0
 40
1.0
 40
1.0
 40
1.0
 10
34.50244706341369
 20
21.58355007030707
 30
0.0
 10
34.49534543437312
 20
21.57024857637134
 30
0.0
 10
34.46183738862306
 20
21.5074873331701
 30
0.0
 10
34.42961314094123
 20
21.39115327710488
 30
0.0
 10
34.41242736325194
 20
21.27873878677951
 30
0.0
 10
34.4116313065947
 20
21.21952512420245
 30
0.0
 10
34.41147824999735
 20
21.20814020375622
 30
0.0
  0
LINE
  5
6B
330
2
100
AcDbEntity
  8
0
100
AcDbLine
 10
42.07737022396668
 20
23.09894047588148
 30
0.0
 11
42.03379247072233
 21
23.12540985292071
 31
0.0
  0
LINE
  5
6C
330
2
100
AcDbEntity
  8
0
100
AcDbLine
 10
42.13309022126487
 20
23.05126170260178
 30
0.0
 11
42.09310721296913
 21
23.08588800350356
 31
0.0
  0
LINE
  5
6D
330
2
100
AcDbEntity
  8
0
100
AcDbLine
 10
35.59080805205065
 20
22.34883568064447
 30
0.0
 11
35.59080805205065
 21
18.33739522799732
 31
0.0
  0
SPLINE
  5
6E
330
2
100
AcDbEntity
  8
0
100
AcDbSpline
210
0.0
220
0.0
230
1.0
 70
     8
 71
     3
 72
    13
 73
     9
 74
     0
 42
0.000000001
 43
0.0000000001
 40
0.0
 40
0.0
 40
0.0
 40
0.0
 40
0.2867385838583181
 40
0.6571356937018562
 40
1.0
 40
1.0
 40
1.0
 40
1.049545685410578
 40
1.049545685410578
 40
1.049545685410578
 40
1.049545685410578
 10
39.20976681166166
 20
23.87163924997776
 30
0.0
 10
39.17940114421162
 20
23.89514203526403
 30
0.0
 10
39.11717928257804
 20
23.93777329661373
 30
0.0
 10
39.00190089946614
 20
23.9791075279615
 30
0.0
 10
38.91266478072522
 20
23.98594006304506
 30
0.0
 10
38.86976903555183
 20
23.98922445828737
 30
0.0
 10
38.8635703760333
 20
23.98969907057699
 30
0.0
 10
38.85737171651476
 20
23.99017368286661
 30
0.0
 10
38.85117305699623
 20
23.99064829515623
 30
0.0
  0
LINE
  5
6F
330
2
100
AcDbEntity
  8
0
100
AcDbLine
 10
39.26548680893848
 20
23.82396047669806
 30
0.0
 11
39.22550380064286
 21
23.85858677759984
 31
0.0
  0
SPLINE
  5
70
330
2
100
AcDbEntity
  8
0
100
AcDbSpline
210
0.0
220
0.0
230
1.0
 70
     8
 71
     3
 72
    12
 73
     8
 74
     0
 42
0.000000001
 43
0.0000000001
 40
0.0
 40
0.0
 40
0.0
 40
0.0
 40
0.1535692531581339
 40
0.4205115435837768
 40
0.6879298583172734
 40
0.9399987505909608
 40
1.0
 40
1.0
 40
1.0
 40
1.0
 10
35.79550470138475
 20
22.9118568673091
 30
0.0
 10
35.77554560720773
 20
22.88593890439188
 30
0.0
 10
35.72089254789864
 20
22.81496895195204
 30
0.0
 10
35.65716279805339
 20
22.68462646214857
 30
0.0
 10
35.60754182914048
 20
22.53234954050686
 30
0.0
 10
35.59182160223668
 20
22.4194112326071
 30
0.0
 10
35.59097149992272
 20
22.36021688704381
 30
0.0
 10
35.5908080520494
 20
22.34883568065027
 30
0.0
  0
LINE
  5
71
330
2
100
AcDbEntity
  8
0
100
AcDbLine
 10
30.04970811928547
 20
11.3710693101645
 30
0.0
 11
30.06088762199306
 21
11.26054785547461
 31
0.0
  0
LINE
  5
72
330
2
100
AcDbEntity
  8
0
100
AcDbLine
 10
48.14102120909172
 20
11.26054785547461
 30
0.0
 11
48.15220071179942
 21
11.3710693101645
 31
0.0
  0
LINE
  5
73
330
2
100
AcDbEntity
  8
0
100
AcDbLine
 10
33.12518097429427
 20
16.36349426917462
 30
0.0
 11
33.09826400661677
 21
15.94330883596879
 31
0.0
  0
LINE
  5
74
330
2
100
AcDbEntity
  8
0
100
AcDbLine
 10
33.20082417369486
 20
17.29675337565157
 30
0.0
 11
33.1255060260653
 21
16.36352143209512
 31
0.0
  0
LINE
  5
75
330
2
100
AcDbEntity
  8
0
100
AcDbLine
 10
32.28133127542402
 20
15.15360652672359
 30
0.0
 11
32.2032368844126
 21
15.176150435576
 31
0.0
  0
LINE
  5
76
330
2
100
AcDbEntity
  8
0
100
AcDbLine
 10
45.99867724726755
 20
15.17615196572041
 30
0.0
 11
45.9205775556395
 21
15.15360652672359
 31
0.0
  0
LINE
  5
77
330
2
100
AcDbEntity
  8
0
100
AcDbLine
 10
32.37693168907549
 20
16.39531106639731
 30
0.0
 11
32.19499754358571
 21
16.44783093033288
 31
0.0
  0
LINE
  5
78
330
2
100
AcDbEntity
  8
0
100
AcDbLine
 10
46.00691128749917
 20
16.44783093033288
 30
0.0
 11
45.8249771420094
 21
16.39531106639731
 31
0.0
  0
LWPOLYLINE
  5
79
330
2
100
AcDbEntity
  8
0
100
AcDbPolyline
 90
       17
 70
   128
 43
0.0
 10
50.26472132946082
 20
16.4109214058198
 10
50.33222914829162
 20
16.37754555497167
 10
50.42246958568761
 20
16.37083858438996
 10
50.5217043530763
 20
16.39182156952108
 10
50.61482585667795
 20
16.43730004111251
 10
50.68765719171732
 20
16.50035031410982
 10
50.72911044766668
 20
16.57137355601492
 10
50.73287474208679
 20
16.63955712208201
 10
50.69837699525692
 20
16.69452068244555
 10
50.63086917640475
 20
16.72789653327237
 10
50.54062873900875
 20
16.7346035038754
 10
50.44139397164144
 20
16.71362051872302
 10
50.34827246803978
 20
16.66814204713148
 10
50.27544113297904
 20
16.60509177413416
 10
50.23398787702967
 20
16.53406853222907
 10
50.23022358263097
 20
16.46588496616209
 10
50.26472132946082
 20
16.4109214058198
  0
LWPOLYLINE
  5
7A
330
2
100
AcDbEntity
  8
0
100
AcDbPolyline
 90
       17
 70
   128
 43
0.0
 10
50.41193338431412
 20
17.07441934620578
 10
50.47944120316628
 20
17.04104349535771
 10
50.56968164054092
 20
17.03433652477599
 10
50.6689164079296
 20
17.05531950990706
 10
50.76203791153124
 20
17.10079798149854
 10
50.83486924659201
 20
17.16384825449586
 10
50.87632250254137
 20
17.23487149640095
 10
50.88008679693996
 20
17.30305506246799
 10
50.84558905011022
 20
17.35801862283159
 10
50.77808123127943
 20
17.39139447365834
 10
50.68784079388342
 20
17.39810144426138
 10
50.58860602649474
 20
17.377118459109
 10
50.49548452289309
 20
17.33163998751752
 10
50.42265318785371
 20
17.2685897145202
 10
50.38119993190434
 20
17.19756647261511
 10
50.37743563748428
 20
17.12938290654807
 10
50.41193338431412
 20
17.07441934620578
  0
LWPOLYLINE
  5
7B
330
2
100
AcDbEntity
  8
0
100
AcDbPolyline
 90
       17
 70
   128
 43
0.0
 10
49.37115978639941
 20
16.39378108229545
 10
49.43866760525157
 20
16.36040523144731
 10
49.5289080426262
 20
16.3536982608656
 10
49.62814281001488
 20
16.37468124599672
 10
49.72126431361653
 20
16.42015971758815
 10
49.79409564867729
 20
16.48320999060684
 10
49.83554890462653
 20
16.55423323251193
 10
49.83931319902513
 20
16.62241679855765
 10
49.8048154521955
 20
16.6773803589212
 10
49.73730763336472
 20
16.71075620976933
 10
49.6470671959687
 20
16.71746318035104
 10
49.5478324285799
 20
16.69648019521992
 10
49.45471092497837
 20
16.6510017236285
 10
49.38187958993887
 20
16.58795145060981
 10
49.34042633398963
 20
16.51692820870471
 10
49.33666203956954
 20
16.44874464265905
 10
49.37115978639941
 20
16.39378108229545
  0
LINE
  5
7C
330
2
100
AcDbEntity
  8
0
100
AcDbLine
 10
50.64237581066105
 20
16.13118830993642
 30
0.0
 11
51.55037231437745
 21
16.72499388413223
 31
0.0
  0
ARC
  5
7D
330
2
100
AcDbEntity
  8
0
100
AcDbCircle
 10
48.78803403102882
 20
18.98271517640018
 30
0.0
 40
3.401439240364343
100
AcDbArc
 50
284.3701135290959
 51
303.0358626400005
  0
LINE
  5
7E
330
2
100
AcDbEntity
  8
0
100
AcDbLine
 10
49.63221894861352
 20
15.6876976148676
 30
0.0
 11
49.6015596745999
 21
15.67985355292717
 31
0.0
  0
ARC
  5
7F
330
2
100
AcDbEntity
  8
0
100
AcDbCircle
 10
49.81260590400143
 20
14.85609916253867
 30
0.0
 40
0.8503598100904548
100
AcDbArc
 50
104.3701135290959
 51
123.0358626400922
  0
LINE
  5
80
330
2
100
AcDbEntity
  8
0
100
AcDbLine
 10
49.34902045908256
 20
15.56898087915465
 30
0.0
 11
48.69475712215296
 21
15.14111005048892
 31
0.0
  0
LINE
  5
81
330
2
100
AcDbEntity
  8
0
100
AcDbLine
 10
48.00171831169371
 20
15.74129926615529
 30
0.0
 11
48.65598164862332
 21
16.16917009482097
 31
0.0
  0
ARC
  5
82
330
2
100
AcDbEntity
  8
0
100
AcDbCircle
 10
48.31569508753045
 20
16.70730560166771
 30
0.0
 40
0.6366983331085301
100
AcDbArc
 50
302.3069534489021
 51
324.9765156397061
  0
LINE
  5
83
330
2
100
AcDbEntity
  8
0
100
AcDbLine
 10
48.83709809892355
 20
16.3418966976742
 30
0.0
 11
48.85169645497171
 21
16.36364992259945
 31
0.0
  0
ARC
  5
84
330
2
100
AcDbEntity
  8
0
100
AcDbCircle
 10
50.93730850048007
 20
14.90201430666809
 30
0.0
 40
2.546793332434894
100
AcDbArc
 50
122.3069534489021
 51
144.976515639595
  0
LINE
  5
85
330
2
100
AcDbEntity
  8
0
100
AcDbLine
 10
49.57616225610832
 20
17.05455633403363
 30
0.0
 11
50.6898781378377
 21
17.78289691236603
 31
0.0
  0
ARC
  5
86
330
2
100
AcDbEntity
  8
0
100
AcDbCircle
 10
52.09412767607284
 20
17.96855544968122
 30
0.0
 40
1.300435328067821
100
AcDbArc
 50
190.9690890527997
 51
224.381486108195
  0
ARC
  5
87
330
2
100
AcDbEntity
  8
0
100
AcDbCircle
 10
52.1214022184797
 20
17.98127114149116
 30
0.0
 40
1.300435328067692
100
AcDbArc
 50
190.9690890527997
 51
224.381486108195
  0
LINE
  5
88
330
2
100
AcDbEntity
  8
0
100
AcDbLine
 10
50.83975055537758
 20
17.7604131277651
 30
0.0
 11
50.8447258677554
 21
17.7338251110325
 31
0.0
  0
LINE
  5
89
330
2
100
AcDbEntity
  8
0
100
AcDbLine
 10
51.90596410993021
 20
16.83704510366783
 30
0.0
 11
51.91093942230816
 21
16.81045708693529
 31
0.0
  0
LWPOLYLINE
  5
8A
330
2
100
AcDbEntity
  8
0
100
AcDbPolyline
 90
        9
 70
   128
 43
0.0
 10
51.72508952691236
 20
16.61002047798877
 10
51.7755408183516
 20
16.57327233434387
 10
51.82095190494795
 20
16.55451019658028
 10
51.85957766413935
 20
16.55445508308474
 10
51.88993372966456
 20
16.57310911189034
 10
51.91085353492531
 20
16.60975541909039
 10
51.92153314355731
 20
16.66298570766389
 10
51.92156214416081
 20
16.73075436747359
 10
51.91093942230816
 20
16.81045708693529
  0
LINE
  5
8B
330
2
100
AcDbEntity
  8
0
100
AcDbLine
 10
51.19198274963604
 20
17.07170449002672
 30
0.0
 11
51.72508952691236
 21
16.61002047798877
 31
0.0
  0
LWPOLYLINE
  5
8C
330
2
100
AcDbEntity
  8
0
100
AcDbPolyline
 90
        9
 70
   128
 43
0.0
 10
50.6803733176962
 20
17.80617244708645
 10
50.7057532960473
 20
17.81974099761703
 10
50.73188267973989
 20
17.82788469021716
 10
50.7575227272805
 20
17.83021744880943
 10
50.78145789567975
 20
17.82662868203488
 10
50.80255346682088
 20
17.81728852608091
 10
50.81980934215607
 20
17.80263977894617
 10
50.83240745538978
 20
17.7833769081887
 10
50.83975055537758
 20
17.7604131277651
  0
LWPOLYLINE
  5
8D
330
2
100
AcDbEntity
  8
0
100
AcDbPolyline
 90
        9
 70
   128
 43
0.0
 10
50.6898781378377
 20
17.78289691236603
 10
50.70940119811758
 20
17.79333425891815
 10
50.72950072400703
 20
17.79959863785609
 10
50.74922383750982
 20
17.80139306754904
 10
50.76763550550413
 20
17.79863247771755
 10
50.78386286791374
 20
17.79144774236498
 10
50.79713661817994
 20
17.78017947533175
 10
50.8068274745251
 20
17.7653618824479
 10
50.81247601297059
 20
17.7476974359551
  0
LINE
  5
8E
330
2
100
AcDbEntity
  8
0
100
AcDbLine
 10
50.81247601297059
 20
17.7476974359551
 30
0.0
 11
50.81745132534853
 21
17.7211094192438
 31
0.0
  0
LINE
  5
8F
330
2
100
AcDbEntity
  8
0
100
AcDbLine
 10
49.56665743596682
 20
17.07783186875406
 30
0.0
 11
50.6803733176962
 21
17.80617244708645
 31
0.0
  0
ARC
  5
90
330
2
100
AcDbEntity
  8
0
100
AcDbCircle
 10
51.82242812734238
 20
16.82330771621639
 30
0.0
 40
0.0846579954920047
100
AcDbArc
 50
9.338634848406627
 51
48.50877017649612
  0
LINE
  5
91
330
2
100
AcDbEntity
  8
0
100
AcDbLine
 10
51.16470820722907
 20
17.05898879823809
 30
0.0
 11
51.69781498450539
 21
16.59730478620019
 31
0.0
  0
ARC
  5
92
330
2
100
AcDbEntity
  8
0
100
AcDbCircle
 10
50.92780368033857
 20
14.92528984138852
 30
0.0
 40
2.546793332433766
100
AcDbArc
 50
122.3069534489021
 51
144.976515639595
  0
ARC
  5
93
330
2
100
AcDbEntity
  8
0
100
AcDbCircle
 10
47.868190966753
 20
15.94427471731399
 30
0.0
 40
0.2429579914626197
100
AcDbArc
 50
290.8496560101923
 51
303.3389074181962
  0
LINE
  5
94
330
2
100
AcDbEntity
  8
0
100
AcDbLine
 10
46.89673154986961
 20
15.31802065281209
 30
0.0
 11
47.95466384760607
 21
15.71722620599905
 31
0.0
  0
ARC
  5
95
330
2
100
AcDbEntity
  8
0
100
AcDbCircle
 10
47.83226943369822
 20
12.92716107193968
 30
0.0
 40
2.567380117479212
100
AcDbArc
 50
111.3702925525045
 51
139.2451524089049
  0
ARC
  5
96
330
2
100
AcDbEntity
  8
0
100
AcDbCircle
 10
47.84398026804409
 20
12.91771495762316
 30
0.0
 40
2.606373575562292
100
AcDbArc
 50
111.3690769226036
 51
139.1612078133009
  0
LINE
  5
97
330
2
100
AcDbEntity
  8
0
100
AcDbLine
 10
46.89428489934766
 20
15.34490714656129
 30
0.0
 11
47.9522171970841
 21
15.74411269972694
 31
0.0
  0
ARC
  5
98
330
2
100
AcDbEntity
  8
0
100
AcDbCircle
 10
47.87871524834939
 20
15.93710393434679
 30
0.0
 40
0.2065142927426346
100
AcDbArc
 50
290.8496560101923
 51
303.3389074181962
  0
LINE
  5
99
330
2
100
AcDbEntity
  8
0
100
AcDbLine
 10
47.99221349155232
 20
15.76457480087572
 30
0.0
 11
48.64647682850318
 21
16.19244562954145
 31
0.0
  0
ARC
  5
9A
330
2
100
AcDbEntity
  8
0
100
AcDbCircle
 10
48.30619026741032
 20
16.73058113636682
 30
0.0
 40
0.6366983331082064
100
AcDbArc
 50
302.3069534489021
 51
324.9765156397061
  0
LWPOLYLINE
  5
9B
330
2
100
AcDbEntity
  8
0
100
AcDbPolyline
 90
        5
 70
   128
 43
0.0
 10
51.8423737900864
 20
16.54540669154403
 10
51.83230312173247
 20
16.54173939129612
 10
51.79367736254107
 20
16.54179450477033
 10
51.74826627594473
 20
16.56055664255518
 10
51.69781498450539
 20
16.59730478620019
  0
LINE
  5
9C
330
2
100
AcDbEntity
  8
0
100
AcDbLine
 10
48.82759327878204
 20
16.36517223239468
 30
0.0
 11
48.8421916348302
 21
16.38692545731987
 31
0.0
  0
LINE
  5
9D
330
2
100
AcDbEntity
  8
0
100
AcDbLine
 10
48.64770265806533
 20
15.11703699033268
 30
0.0
 11
47.58977036032888
 21
14.71783143714572
 31
0.0
  0
ARC
  5
9E
330
2
100
AcDbEntity
  8
0
100
AcDbCircle
 10
48.56122977721224
 20
15.34408550164767
 30
0.0
 40
0.2429579914610418
100
AcDbArc
 50
290.8496560101923
 51
303.3389074181962
  0
ARC
  5
9F
330
2
100
AcDbEntity
  8
0
100
AcDbCircle
 10
48.51749445071902
 20
12.34187507983836
 30
0.0
 40
2.550654935445292
100
AcDbArc
 50
111.3288275698999
 51
136.5619213279043
  0
LWPOLYLINE
  5
A0
330
2
100
AcDbEntity
  8
0
100
AcDbPolyline
 90
       17
 70
   128
 43
0.0
 10
28.31036224571744
 20
16.73410021425059
 10
28.3448599925473
 20
16.78906377461419
 10
28.34109569812722
 20
16.85724734065991
 10
28.29964244217786
 20
16.928270582565
 10
28.22681110713848
 20
16.99132085556232
 10
28.13368960353682
 20
17.0367993271538
 10
28.03445483614814
 20
17.05778231230624
 10
27.94421439875214
 20
17.05107534170315
 10
27.87670657992135
 20
17.01769949087639
 10
27.84220883309149
 20
16.96273593051279
 10
27.8459731274902
 20
16.89455236446713
 10
27.88742638343956
 20
16.82352912254066
 10
27.96025771850032
 20
16.76047884954335
 10
28.05337922210197
 20
16.71500037795186
 10
28.15261398949065
 20
16.69401739282079
 10
28.24285442686528
 20
16.70072436340251
 10
28.31036224571744
 20
16.73410021425059
  0
LWPOLYLINE
  5
A1
330
2
100
AcDbEntity
  8
0
100
AcDbPolyline
 90
        9
 70
   128
 43
0.0
 10
27.41680070265602
 20
16.75124053775369
 10
27.45129844948565
 20
16.80620409811723
 10
27.44753415508706
 20
16.87438766418427
 10
27.40608089913781
 20
16.94541090608935
 10
27.33324956407706
 20
17.00846117908668
 10
27.2401280604754
 20
17.05393965067816
 10
27.14089329310799
 20
17.07492263580923
 10
27.05065285571198
 20
17.06821566522751
 10
27.04627447000826
 20
17.06705429838257
  0
LWPOLYLINE
  5
A2
330
2
100
AcDbEntity
  8
0
100
AcDbPolyline
 90
        9
 70
   128
 43
0.0
 10
26.94948620214427
 20
16.98302588077843
 10
26.94864729003007
 20
16.97987625403715
 10
26.95241158445015
 20
16.91169268797011
 10
26.9938648403994
 20
16.84066944606502
 10
27.0666961754389
 20
16.7776191730677
 10
27.15981767904044
 20
16.73214070147622
 10
27.25905244642922
 20
16.71115771632384
 10
27.34929288382523
 20
16.71786468692687
 10
27.41680070265602
 20
16.75124053775369
  0
LWPOLYLINE
  5
A3
330
2
100
AcDbEntity
  8
0
100
AcDbPolyline
 90
       17
 70
   128
 43
0.0
 10
28.45757430057074
 20
16.07060227386461
 10
28.49207204740049
 20
16.12556583422821
 10
28.48830775300189
 20
16.19374940027393
 10
28.44685449705253
 20
16.26477264217897
 10
28.37402316199177
 20
16.32782291517633
 10
28.28090165839012
 20
16.37330138676782
 10
28.18166689102282
 20
16.39428437192021
 10
28.09142645362681
 20
16.38757740133849
 10
28.02391863477465
 20
16.35420155049041
 10
27.98942088794479
 20
16.29923799012681
 10
27.99318518236487
 20
16.23105442408109
 10
28.03463843831423
 20
16.160031182176
 10
28.10746977335361
 20
16.09698090915737
 10
28.20059127695527
 20
16.05150243756589
 10
28.29982604434395
 20
16.03051945243481
 10
28.39006648173995
 20
16.03722642301647
 10
28.45757430057074
 20
16.07060227386461
  0
LINE
  5
A4
330
2
100
AcDbEntity
  8
0
100
AcDbLine
 10
28.62574657497646
 20
17.05455633403363
 30
0.0
 11
27.51203069322583
 21
17.78289691236603
 31
0.0
  0
ARC
  5
A5
330
2
100
AcDbEntity
  8
0
100
AcDbCircle
 10
27.26460033060471
 20
14.90201430666809
 30
0.0
 40
2.546793332434014
100
AcDbArc
 50
35.02348436040501
 51
57.69304655109791
  0
LINE
  5
A6
330
2
100
AcDbEntity
  8
0
100
AcDbLine
 10
29.35021237611307
 20
16.36364992259945
 30
0.0
 11
29.36481073216123
 21
16.3418966976742
 31
0.0
  0
ARC
  5
A7
330
2
100
AcDbEntity
  8
0
100
AcDbCircle
 10
29.88621374353306
 20
16.70730560166771
 30
0.0
 40
0.6366983331084636
100
AcDbArc
 50
215.023484360405
 51
237.6930465510979
  0
LINE
  5
A8
330
2
100
AcDbEntity
  8
0
100
AcDbLine
 10
29.5459271824401
 20
16.16917009482097
 30
0.0
 11
30.20019051939107
 21
15.74129926615529
 31
0.0
  0
LINE
  5
A9
330
2
100
AcDbEntity
  8
0
100
AcDbLine
 10
29.50715170893182
 20
15.14111005048892
 30
0.0
 11
28.85288837198095
 21
15.56898087915465
 31
0.0
  0
ARC
  5
AA
330
2
100
AcDbEntity
  8
0
100
AcDbCircle
 10
28.38930292708346
 20
14.85609916253867
 30
0.0
 40
0.8503598100904648
100
AcDbArc
 50
56.96413735990778
 51
75.62988647090406
  0
LINE
  5
AB
330
2
100
AcDbEntity
  8
0
100
AcDbLine
 10
28.60034915646361
 20
15.67985355292717
 30
0.0
 11
28.56968988245002
 21
15.6876976148676
 31
0.0
  0
ARC
  5
AC
330
2
100
AcDbEntity
  8
0
100
AcDbCircle
 10
29.4138748000347
 20
18.98271517640018
 30
0.0
 40
3.401439240363457
100
AcDbArc
 50
236.9641373599995
 51
255.6298864709041
  0
LINE
  5
AD
330
2
100
AcDbEntity
  8
0
100
AcDbLine
 10
27.55953302042371
 20
16.13118830993642
 30
0.0
 11
26.65153651670744
 21
16.72499388413223
 31
0.0
  0
ARC
  5
AE
330
2
100
AcDbEntity
  8
0
100
AcDbCircle
 10
26.10778115501194
 20
17.96855544968122
 30
0.0
 40
1.300435328067615
100
AcDbArc
 50
315.6185138918049
 51
349.0309109472002
  0
ARC
  5
AF
330
2
100
AcDbEntity
  8
0
100
AcDbCircle
 10
26.08050661260495
 20
17.98127114149116
 30
0.0
 40
1.300435328067682
100
AcDbArc
 50
315.6185138918049
 51
349.0309109472002
  0
LWPOLYLINE
  5
B0
330
2
100
AcDbEntity
  8
0
100
AcDbPolyline
 90
        9
 70
   128
 43
0.0
 10
26.29096940877662
 20
16.81045708693529
 10
26.28034668690271
 20
16.73075436747359
 10
26.28037568752757
 20
16.66298570766389
 10
26.29105529615947
 20
16.60975541909039
 10
26.31197510142033
 20
16.57310911189034
 10
26.34233116692417
 20
16.55445508308474
 10
26.38095692611546
 20
16.55451019658028
 10
26.42636801273318
 20
16.57327233434387
 10
26.47681930417252
 20
16.61002047798877
  0
LINE
  5
B1
330
2
100
AcDbEntity
  8
0
100
AcDbLine
 10
26.29594472113331
 20
16.83704510366783
 30
0.0
 11
26.29096940877662
 21
16.81045708693529
 31
0.0
  0
LINE
  5
B2
330
2
100
AcDbEntity
  8
0
100
AcDbLine
 10
27.36215827568595
 20
17.7604131277651
 30
0.0
 11
27.35718296332937
 21
17.7338251110325
 31
0.0
  0
LINE
  5
B3
330
2
100
AcDbEntity
  8
0
100
AcDbLine
 10
26.47681930417252
 20
16.61002047798877
 30
0.0
 11
27.00992608144884
 21
17.07170449002672
 31
0.0
  0
LWPOLYLINE
  5
B4
330
2
100
AcDbEntity
  8
0
100
AcDbPolyline
 90
        9
 70
   128
 43
0.0
 10
27.51203069322583
 20
17.78289691236603
 10
27.49250763296732
 20
17.79333425891815
 10
27.47240810705648
 20
17.79959863785609
 10
27.45268499357508
 20
17.80139306754904
 10
27.43427332555939
 20
17.79863247771755
 10
27.41804596314967
 20
17.79144774236498
 10
27.40477221288359
 20
17.78017947533175
 10
27.39508135653841
 20
17.7653618824479
 10
27.38943281809293
 20
17.7476974359551
  0
LWPOLYLINE
  5
B5
330
2
100
AcDbEntity
  8
0
100
AcDbPolyline
 90
        9
 70
   128
 43
0.0
 10
27.52153551336733
 20
17.80617244708645
 10
27.49615553501622
 20
17.81974099761703
 10
27.47002615134488
 20
17.82788469021716
 10
27.44438610380429
 20
17.83021744880943
 10
27.42045093540514
 20
17.82662868203488
 10
27.39935536426401
 20
17.81728852608091
 10
27.38209948892882
 20
17.80263977894617
 10
27.36950137567374
 20
17.7833769081887
 10
27.36215827568595
 20
17.7604131277651
  0
LINE
  5
B6
330
2
100
AcDbEntity
  8
0
100
AcDbLine
 10
27.38943281809293
 20
17.7476974359551
 30
0.0
 11
27.38445750573624
 21
17.7211094192438
 31
0.0
  0
LINE
  5
B7
330
2
100
AcDbEntity
  8
0
100
AcDbLine
 10
28.6352513950967
 20
17.07783186875406
 30
0.0
 11
27.52153551336733
 21
17.80617244708645
 31
0.0
  0
ARC
  5
B8
330
2
100
AcDbEntity
  8
0
100
AcDbCircle
 10
26.37948070374239
 20
16.82330771621639
 30
0.0
 40
0.084657995491751
100
AcDbArc
 50
131.4912298233977
 51
170.6613651517007
  0
LINE
  5
B9
330
2
100
AcDbEntity
  8
0
100
AcDbLine
 10
26.50409384655814
 20
16.59730478620019
 30
0.0
 11
27.03720062383445
 21
17.05898879823809
 31
0.0
  0
LINE
  5
BA
330
2
100
AcDbEntity
  8
0
100
AcDbLine
 10
29.35971719625445
 20
16.38692545731987
 30
0.0
 11
29.35021237611307
 21
16.36364992259945
 31
0.0
  0
ARC
  5
BB
330
2
100
AcDbEntity
  8
0
100
AcDbCircle
 10
27.27410515074621
 20
14.92528984138852
 30
0.0
 40
2.546793332434346
100
AcDbArc
 50
35.02348436040501
 51
57.69304655109791
  0
ARC
  5
BC
330
2
100
AcDbEntity
  8
0
100
AcDbCircle
 10
30.32319358271411
 20
15.93710393434679
 30
0.0
 40
0.2065142927431432
100
AcDbArc
 50
236.6610925818039
 51
249.1503439898009
  0
LINE
  5
BD
330
2
100
AcDbEntity
  8
0
100
AcDbLine
 10
30.24969163400078
 20
15.74411269972694
 30
0.0
 11
31.30762393173711
 21
15.34490714656129
 31
0.0
  0
ARC
  5
BE
330
2
100
AcDbEntity
  8
0
100
AcDbCircle
 10
30.35792856304067
 20
12.91771495762316
 30
0.0
 40
2.606373575562209
100
AcDbArc
 50
40.83879218669912
 51
68.63092307739636
  0
ARC
  5
BF
330
2
100
AcDbEntity
  8
0
100
AcDbCircle
 10
30.36963939736529
 20
12.92716107193968
 30
0.0
 40
2.567380117479275
100
AcDbArc
 50
40.75484759109509
 51
68.62970744749548
  0
LINE
  5
C0
330
2
100
AcDbEntity
  8
0
100
AcDbLine
 10
30.24724498347882
 20
15.71722620599905
 30
0.0
 11
31.30517728121515
 21
15.31802065281209
 31
0.0
  0
ARC
  5
C1
330
2
100
AcDbEntity
  8
0
100
AcDbCircle
 10
30.33371786433179
 20
15.94427471731399
 30
0.0
 40
0.2429579914631277
100
AcDbArc
 50
236.6610925818039
 51
249.1503439898009
  0
LINE
  5
C2
330
2
100
AcDbEntity
  8
0
100
AcDbLine
 10
29.5554320025816
 20
16.19244562954145
 30
0.0
 11
29.5459271824401
 21
16.16917009482097
 31
0.0
  0
LINE
  5
C3
330
2
100
AcDbEntity
  8
0
100
AcDbLine
 10
29.5554320025816
 20
16.19244562954145
 30
0.0
 11
30.20969533953258
 21
15.76457480087572
 31
0.0
  0
LINE
  5
C4
330
2
100
AcDbEntity
  8
0
100
AcDbLine
 10
28.31986706585894
 20
16.75737574897107
 30
0.0
 11
28.34433852308576
 21
16.78705970680119
 31
0.0
  0
LINE
  5
C5
330
2
100
AcDbEntity
  8
0
100
AcDbLine
 10
29.36481073216123
 20
16.3418966976742
 30
0.0
 11
29.37431555230273
 21
16.36517223239468
 31
0.0
  0
ARC
  5
C6
330
2
100
AcDbEntity
  8
0
100
AcDbCircle
 10
29.89571856367457
 20
16.73058113636682
 30
0.0
 40
0.6366983331084131
100
AcDbArc
 50
215.0234843602939
 51
237.6930465510979
  0
LWPOLYLINE
  5
C7
330
2
100
AcDbEntity
  8
0
100
AcDbPolyline
 90
        5
 70
   128
 43
0.0
 10
26.50409384655814
 20
16.59730478620019
 10
26.45364255514005
 20
16.56055664255518
 10
26.40823146852245
 20
16.54179450477033
 10
26.36960570933104
 20
16.54173939129612
 10
26.35953504097711
 20
16.54540669154403
  0
LINE
  5
C8
330
2
100
AcDbEntity
  8
0
100
AcDbLine
 10
29.35971719625445
 20
16.38692545731987
 30
0.0
 11
29.37431555230273
 21
16.36517223239468
 31
0.0
  0
LINE
  5
C9
330
2
100
AcDbEntity
  8
0
100
AcDbLine
 10
27.42630552279741
 20
16.77451607247411
 30
0.0
 11
27.45077698004559
 21
16.80420003032554
 31
0.0
  0
LINE
  5
CA
330
2
100
AcDbEntity
  8
0
100
AcDbLine
 10
30.6121384707559
 20
14.71783143714572
 30
0.0
 11
29.55420617301957
 21
15.11703699033268
 31
0.0
  0
ARC
  5
CB
330
2
100
AcDbEntity
  8
0
100
AcDbCircle
 10
29.64067905387253
 20
15.34408550164767
 30
0.0
 40
0.2429579914631712
100
AcDbArc
 50
236.6610925818039
 51
249.1503439898009
  0
LINE
  5
CC
330
2
100
AcDbEntity
  8
0
100
AcDbLine
 10
28.46707912071224
 20
16.09387780858503
 30
0.0
 11
28.49155057796031
 21
16.12356176643652
 31
0.0
  0
ARC
  5
CD
330
2
100
AcDbEntity
  8
0
100
AcDbCircle
 10
29.68441438036575
 20
12.34187507983836
 30
0.0
 40
2.550654935445054
100
AcDbArc
 50
43.43807867209572
 51
68.67117243010006
  0
LWPOLYLINE
  5
CE
330
2
100
AcDbEntity
  8
0
100
AcDbPolyline
 90
       17
 70
   128
 43
0.0
 10
39.47412915963582
 20
6.955645409132784
 10
39.37212359395403
 20
6.952145483408513
 10
39.28564745097799
 20
6.942178538228403
 10
39.22786593953857
 20
6.927261950657339
 10
39.20757577099767
 20
6.909666635894723
 10
39.22786593953857
 20
6.892071321153422
 10
39.28564745097799
 20
6.877154733561042
 10
39.37212359395403
 20
6.867187788380931
 10
39.47412915963582
 20
6.863687862677976
 10
39.57613472529647
 20
6.867187788380931
 10
39.66261086829377
 20
6.877154733561042
 10
39.72039237971194
 20
6.892071321153422
 10
39.74068254827398
 20
6.909666635894723
 10
39.72039237971194
 20
6.927261950657339
 10
39.66261086829377
 20
6.942178538228403
 10
39.57613472529647
 20
6.952145483408513
 10
39.47412915963582
 20
6.955645409132784
  0
LINE
  5
CF
330
2
100
AcDbEntity
  8
0
100
AcDbLine
 10
38.03474086098982
 20
6.994850778048316
 30
0.0
 11
38.03474086098982
 21
6.823226542238727
 31
0.0
  0
LINE
  5
D0
330
2
100
AcDbEntity
  8
0
100
AcDbLine
 10
40.16716797009507
 20
6.994850778048316
 30
0.0
 11
40.16716797009507
 21
6.823226542238727
 31
0.0
  0
ARC
  5
D1
330
2
100
AcDbEntity
  8
0
100
AcDbCircle
 10
39.64955132463821
 20
6.667434663286882
 30
0.0
 40
0.5178788380774506
100
AcDbArc
 50
268.285986020705
 51
358.1767252639068
  0
LINE
  5
D2
330
2
100
AcDbEntity
  8
0
100
AcDbLine
 10
39.63406119281876
 20
6.149787537577934
 30
0.0
 11
38.56784763826614
 21
6.149787537577934
 31
0.0
  0
ARC
  5
D3
330
2
100
AcDbEntity
  8
0
100
AcDbCircle
 10
38.55235750642533
 20
6.667434663286882
 30
0.0
 40
0.5178788380774395
100
AcDbArc
 50
181.8232747360931
 51
271.714013979295
  0
LINE
  5
D4
330
2
100
AcDbEntity
  8
0
100
AcDbLine
 10
38.03474086098982
 20
6.681854191502792
 30
0.0
 11
38.03474086098982
 21
6.650957427866558
 31
0.0
  0
LINE
  5
D5
330
2
100
AcDbEntity
  8
0
100
AcDbLine
 10
40.16716797009507
 20
6.681854191502792
 30
0.0
 11
40.16716797009507
 21
6.650957427866558
 31
0.0
  0
LINE
  5
D6
330
2
100
AcDbEntity
  8
0
100
AcDbLine
 10
38.03474086098982
 20
6.823226542238727
 30
0.0
 11
38.03474086098982
 21
6.681854191502792
 31
0.0
  0
LINE
  5
D7
330
2
100
AcDbEntity
  8
0
100
AcDbLine
 10
40.16716797009507
 20
6.823226542238727
 30
0.0
 11
40.16716797009507
 21
6.681854191502792
 31
0.0
  0
LWPOLYLINE
  5
D8
330
2
100
AcDbEntity
  8
0
100
AcDbPolyline
 90
        9
 70
   128
 43
0.0
 10
27.41680070265602
 20
16.75124053775369
 10
27.45129844948565
 20
16.80620409811723
 10
27.44753415508706
 20
16.87438766418427
 10
27.40608089913781
 20
16.94541090608935
 10
27.33324956407706
 20
17.00846117908668
 10
27.2401280604754
 20
17.05393965067816
 10
27.14089329310799
 20
17.07492263580923
 10
27.05065285571198
 20
17.06821566522751
 10
27.04627447000826
 20
17.06705429838257
  0
LINE
  5
D9
330
2
100
AcDbEntity
  8
0
100
AcDbLine
 10
38.33929478955008
 20
23.87325514528169
 30
0.0
 11
38.33929478955008
 21
18.75638519045122
 31
0.0
  0
LINE
  5
DA
330
2
100
AcDbEntity
  8
0
100
AcDbLine
 10
38.93616926313007
 20
18.77495846880561
 30
0.0
 11
38.93616926313007
 21
23.67621075463757
 31
0.0
  0
ARC
  5
DB
330
2
100
AcDbEntity
  8
0
100
AcDbCircle
 10
38.39967286542333
 20
23.69989591178086
 30
0.0
 40
0.5370189674757322
100
AcDbArc
 50
357.4721565200988
 51
107.1778750461018
  0
LINE
  5
DC
330
2
100
AcDbEntity
  8
0
100
AcDbLine
 10
38.10328086676873
 20
24.35247655847536
 30
0.0
 11
38.11901785574992
 21
24.33942408609744
 31
0.0
  0
ARC
  5
DD
330
2
100
AcDbEntity
  8
0
100
AcDbCircle
 10
37.78480820444293
 20
23.89503030927802
 30
0.0
 40
0.5549139850726005
100
AcDbArc
 50
357.7511011826075
 51
47.59820542869927
  0
LINE
  5
DE
330
2
100
AcDbEntity
  8
0
100
AcDbLine
 10
43.73973415800651
 20
17.96753815432441
 30
0.0
 11
43.73973415800651
 21
21.86187134697604
 31
0.0
  0
ARC
  5
DF
330
2
100
AcDbEntity
  8
0
100
AcDbCircle
 10
43.19852857642445
 20
21.88299398962044
 30
0.0
 40
0.5416176211596491
100
AcDbArc
 50
357.7649448216937
 51
111.3846782332966
  0
LINE
  5
E0
330
2
100
AcDbEntity
  8
0
100
AcDbLine
 10
43.00103973871182
 20
22.38732305533898
 30
0.0
 11
42.79682078995802
 21
22.32837012282201
 31
0.0
  0
LINE
  5
E1
330
2
100
AcDbEntity
  8
0
100
AcDbLine
 10
42.67600375560505
 20
22.47149880365423
 30
0.0
 11
42.69174074458613
 21
22.45844633127632
 31
0.0
  0
LINE
  5
E2
330
2
100
AcDbEntity
  8
0
100
AcDbLine
 10
42.03379247072233
 20
23.33926018554433
 30
0.0
 11
42.03379247072233
 21
18.47567344282055
 31
0.0
  0
LINE
  5
E3
330
2
100
AcDbEntity
  8
0
100
AcDbLine
 10
41.79777854794099
 20
23.81848159873801
 30
0.0
 11
41.81351553692207
 21
23.80542912636008
 31
0.0
  0
ARC
  5
E4
330
2
100
AcDbEntity
  8
0
100
AcDbCircle
 10
41.47930588561506
 20
23.36103534954071
 30
0.0
 40
0.554913985072542
100
AcDbArc
 50
357.7511011826075
 51
47.59820542869927
  0
LINE
  5
E5
330
2
100
AcDbEntity
  8
0
100
AcDbLine
 10
42.31338414674792
 20
22.61971906268781
 30
0.0
 11
42.31338414674792
 21
18.41250500056469
 31
0.0
  0
LINE
  5
E6
330
2
100
AcDbEntity
  8
0
100
AcDbLine
 10
42.07737022396668
 20
23.09894047588148
 30
0.0
 11
42.09310721296913
 21
23.08588800350356
 31
0.0
  0
ARC
  5
E7
330
2
100
AcDbEntity
  8
0
100
AcDbCircle
 10
41.75889756164088
 20
22.64149422668413
 30
0.0
 40
0.5549139850727368
100
AcDbArc
 50
357.7511011826075
 51
47.59820542869927
  0
LINE
  5
E8
330
2
100
AcDbEntity
  8
0
100
AcDbLine
 10
40.87368642970829
 20
18.66907508512952
 30
0.0
 11
40.87368642970829
 21
23.43527149591438
 31
0.0
  0
LINE
  5
E9
330
2
100
AcDbEntity
  8
0
100
AcDbLine
 10
39.44578073442153
 20
23.39241783678415
 30
0.0
 11
39.44578073442153
 21
18.77188312484287
 31
0.0
  0
ARC
  5
EA
330
2
100
AcDbEntity
  8
0
100
AcDbCircle
 10
40.3324808481475
 20
23.45639413858009
 30
0.0
 40
0.5416176211596241
100
AcDbArc
 50
357.7649448216937
 51
111.3846782332966
  0
LINE
  5
EB
330
2
100
AcDbEntity
  8
0
100
AcDbLine
 10
40.13499201043486
 20
23.96072320429869
 30
0.0
 11
39.34681444787975
 21
23.73319594034473
 31
0.0
  0
LINE
  5
EC
330
2
100
AcDbEntity
  8
0
100
AcDbLine
 10
34.50244706341846
 20
21.59605311431096
 30
0.0
 11
34.50244706341846
 21
17.98340148283068
 31
0.0
  0
ARC
  5
ED
330
2
100
AcDbEntity
  8
0
100
AcDbCircle
 10
35.55204739918803
 20
21.54415153752927
 30
0.0
 40
1.050882790110407
100
AcDbArc
 50
107.208642109905
 51
177.1690928843047
  0
LINE
  5
EE
330
2
100
AcDbEntity
  8
0
100
AcDbLine
 10
35.65587979877591
 20
22.66771488373739
 30
0.0
 11
35.24114148269189
 21
22.54799024451632
 31
0.0
  0
LINE
  5
EF
330
2
100
AcDbEntity
  8
0
100
AcDbLine
 10
39.20976681166166
 20
23.87163924997776
 30
0.0
 11
39.22550380064286
 21
23.85858677759984
 31
0.0
  0
ARC
  5
F0
330
2
100
AcDbEntity
  8
0
100
AcDbCircle
 10
38.8912941493145
 20
23.41419300078047
 30
0.0
 40
0.5549139850724837
100
AcDbArc
 50
357.7511011826075
 51
47.5982054287961
  0
LWPOLYLINE
  5
F1
330
2
100
AcDbEntity
  8
0
100
AcDbPolyline
 90
       28
 70
   128
 43
0.0
 10
41.74588226162565
 20
14.80030093177822
 10
41.87440747814981
 20
14.67037319930705
 10
41.99245066445519
 20
14.51130483460821
 10
42.0741316077582
 20
14.34662833665004
 10
42.11842312278236
 20
14.17841460792522
 10
42.12476821805261
 20
14.00877903367586
 10
42.09308710027914
 20
13.83985487969471
 10
42.02377817791965
 20
13.67376646519778
 10
41.91771305091424
 20
13.51260244839614
 10
41.77622554971139
 20
13.35838956028226
 10
41.6010949617887
 20
13.21306711741334
 10
41.3945236558809
 20
13.07846263383305
 10
41.15910938601792
 20
12.95626883900877
 10
40.89781262323096
 20
12.84802239083558
 10
40.61391932591345
 20
12.75508455115505
 10
40.31099961700829
 20
12.67862406727039
 10
39.99286288761073
 20
12.61960247412838
 10
39.6635098916729
 20
12.57876200247688
 10
39.32708243422336
 20
12.55661624495417
 10
38.98781128574603
 20
12.55344369732961
 10
38.64996297776237
 20
12.56928425620572
 10
38.31778614878976
 20
12.60393871738546
 10
37.99545811516532
 20
12.65697128089886
 10
37.68703233895872
 20
12.72771503148959
 10
37.396387453221
 20
12.815280325451
 10
37.12717848606029
 20
12.91856597840484
 10
36.88279089641174
 20
13.03627311334702
 10
36.41083467532258
 20
13.34835531540409
  0
LWPOLYLINE
  5
F2
330
2
100
AcDbEntity
  8
0
100
AcDbPolyline
 90
       10
 70
   128
 43
0.0
 10
36.41083467532258
 20
13.34835531540409
 10
36.24962498798846
 20
13.48907639426244
 10
36.10996207012818
 20
13.64745713547074
 10
36.00536580284347
 20
13.81245955077349
 10
35.93706248169576
 20
13.98214913771687
 10
35.90585290070521
 20
14.15453644105127
 10
35.91210296365762
 20
14.32760037726153
 10
35.95573939430165
 20
14.49931192992648
 10
36.03625059537512
 20
14.66765793809475
 10
36.07145457641036
 20
14.72316231372508
  0
LWPOLYLINE
  5
F3
330
2
100
AcDbEntity
  8
0
100
AcDbPolyline
 90
       89
 70
   128
 43
0.0
 10
36.9296123101209
 20
14.88513947230194
 10
37.43812257713854
 20
14.95360840716421
 10
37.95510625406472
 20
15.00376453744712
 10
38.47792891055201
 20
15.03535227907361
 10
39.00392636222091
 20
15.04821066808642
 10
39.53041824660625
 20
15.04227418114186
 10
40.05472168173855
 20
15.01757306917079
 10
40.57416493749497
 20
14.97423320339595
 10
41.08610105014577
 20
14.91247543385543
 10
41.58792131057247
 20
14.83261446394994
 10
42.07706855777735
 20
14.735057246922
 10
42.55105020948349
 20
14.62030091194248
 10
43.00745096385208
 20
14.48893023102158
 10
43.44394510727534
 20
14.34161463902751
 10
43.85830836563946
 20
14.17910482242126
 10
44.24842923875007
 20
14.00222889402391
 10
44.61231976004751
 20
13.81188817300699
 10
44.94812562689367
 20
13.60905259202854
 10
45.25413564952781
 20
13.3947557547574
 10
45.52879047102942
 20
13.17008966873567
 10
45.77069051340275
 20
12.93619918081026
 10
45.97860310943679
 20
12.69427614334529
 10
46.15146878423888
 20
12.44555334066445
 10
46.2884066539209
 20
12.19129820715562
 10
46.38871891452923
 20
11.93280636870321
 10
46.45189439773957
 20
11.6713950404382
 10
46.47761117580785
 20
11.40839631462518
 10
46.46573820189746
 20
11.14515037242177
 10
46.41633597795521
 20
10.88299865486635
 10
46.32965624642702
 20
10.6232770269774
 10
46.20614070732449
 20
10.36730897066269
 10
46.04641876753486
 20
10.11639884044933
 10
45.85130433345784
 20
9.871825216836212
 10
45.62179166352007
 20
9.634834390983144
 10
45.35905030165689
 20
9.40663401378822
 10
45.06441911764727
 20
9.188386942087275
 10
44.73939948447764
 20
8.981205312915847
 10
44.38564762768282
 20
8.786144876349906
 10
44.00496618562772
 20
8.604199615690504
 10
43.59929502369209
 20
8.436296682288741
 10
43.17070134912841
 20
8.283291670960977
 10
42.72136917706371
 20
8.145964260199548
 10
42.25358820125552
 20
8.025014239034247
 10
41.76974212632558
 20
7.921057941017123
 10
41.27229652094252
 20
7.834625103605446
 10
40.76378625392499
 20
7.766156168764496
 10
40.24680257702015
 20
7.716000038460264
 10
39.7239799205114
 20
7.684412296855157
 10
39.19798246886399
 20
7.671553907821021
 10
38.67149058447854
 20
7.6774903947869
 10
38.14718714934635
 20
7.702191506736596
 10
37.62774389356855
 20
7.745531372511436
 10
37.11580778091775
 20
7.807289142073329
 10
36.61398752049104
 20
7.887150111957452
 10
36.12484027330743
 20
7.98470732900671
 10
35.6508586216014
 20
8.099463663964911
 10
35.19445786721144
 20
8.230834344907178
 10
34.75796372378818
 20
8.378149936901253
 10
34.34360046544532
 20
8.540659753486124
 10
33.95347959233482
 20
8.717535681883473
 10
33.58958907101602
 20
8.907876402921715
 10
33.25378320416985
 20
9.1107119838789
 10
32.9477731815357
 20
9.325008821150046
 10
32.6731183600341
 20
9.549674907193091
 10
32.43121831768212
 20
9.783565395097127
 10
32.22330572164799
 20
10.02548843256215
 10
32.05044004684602
 20
10.27421123524294
 10
31.91350217714262
 20
10.52846636877314
 10
31.81318991653427
 20
10.78695820722555
 10
31.75001443332394
 20
11.04836953546919
 10
31.72429765527704
 20
11.31136826130353
 10
31.73617062918743
 20
11.57461420348562
 10
31.78557285310831
 20
11.83676592106241
 10
31.87225258465787
 20
12.09648754895136
 10
31.99576812373904
 20
12.35245560526601
 10
32.15549006352865
 20
12.60336573547937
 10
32.35060449762705
 20
12.84793935907117
 10
32.58011716756482
 20
13.08493018492425
 10
32.84285852940661
 20
13.31313056211917
 10
33.13748971341624
 20
13.53137763382017
 10
33.46250934660725
 20
13.73855926301291
 10
33.81626120340206
 20
13.93361969955754
 10
34.19694264545706
 20
14.11556496021688
 10
34.60261380737144
 20
14.28346789364002
 10
35.0312074819351
 20
14.43647290496778
 10
35.48053965399982
 20
14.5738003157079
 10
35.94832062980799
 20
14.69475033689451
 10
36.43216670475931
 20
14.79870663491158
 10
36.9296123101209
 20
14.88513947230194
  0
LWPOLYLINE
  5
F4
330
2
100
AcDbEntity
  8
0
100
AcDbPolyline
 90
       98
 70
   128
 43
0.0
 10
31.2620203187887
 20
9.226248455886493
 10
30.98550502039848
 20
9.484700551783078
 10
30.74302873706677
 20
9.75156002124646
 10
30.53560849862061
 20
10.02570756292562
 10
30.3641142976403
 20
10.30599330676443
 10
30.22926544036558
 20
10.59124163693343
 10
30.13162752977951
 20
10.88025612281143
 10
30.07161009319884
 20
11.17182453718374
 10
30.0494648646461
 20
11.46472394082275
 10
30.06528472889284
 20
11.75772581182787
 10
30.11900333190852
 20
12.04960119852922
 10
30.21039535920568
 20
12.33912587411828
 10
30.3390774808895
 20
12.62508547151117
 10
30.50450995940014
 20
12.90628057673581
 10
30.70599891344818
 20
13.18153175981837
 10
30.94269922830733
 20
13.44968452162993
 10
31.21361810063354
 20
13.70961413633006
 10
31.51761920249851
 20
13.96023036876477
 10
31.85342744764057
 20
14.20048204734968
 10
32.21963433957205
 20
14.42936147305522
 10
32.61470387933901
 20
14.64590864604753
 10
33.03697900798943
 20
14.84921529220128
 10
33.48468855687884
 20
15.03842867278763
 10
33.95595467655449
 20
15.21275516117248
 10
34.44880071317448
 20
15.37146357142887
 10
34.96115949914975
 20
15.51388822536427
 10
35.49088202367727
 20
15.6394317444857
 10
36.03574644640344
 20
15.74756755562333
 10
36.59346741659989
 20
15.83784209961294
 10
37.16170565867822
 20
15.90987673363423
 10
37.73807778397872
 20
15.96336931942113
 10
38.32016628750285
 20
15.99809549045682
 10
38.90552968777445
 20
16.01390959314142
 10
39.49171276726703
 20
16.01074529760467
 10
40.07625687044856
 20
15.98861587600891
 10
40.65671021619869
 20
15.94761414682887
 10
41.23063818143896
 20
15.88791208559814
 10
41.7956335128565
 20
15.80976010346683
 10
42.34932642366993
 20
15.7134859970447
 10
42.88939453338297
 20
15.59949357337007
 10
43.41357260869119
 20
15.46826095629308
 10
43.91966206453115
 20
15.32033858101351
 10
44.40554018589068
 20
15.15634688536613
 10
44.86916903103224
 20
14.976973707534
 10
45.30860397949777
 20
14.7829714009606
 10
45.72200188838678
 20
14.57515367874094
 10
46.10762882319385
 20
14.35439220060846
 10
46.46386733053554
 20
14.12161291690978
 10
46.78922322231904
 20
13.87779218490067
 10
47.08233184285983
 20
13.62395267344089
 10
47.34196379276339
 20
13.36115907366019
 10
47.56703008536942
 20
13.09051363322874
 10
47.75658671445238
 20
12.81315153321316
 10
47.90983861362747
 20
12.53023612660103
 10
48.02614299116783
 20
12.24295405898783
 10
48.10501202611771
 20
11.95251029115093
 10
48.14611491429184
 20
11.66012304521865
 10
48.14927925593167
 20
11.36701869490582
 10
48.11449177868279
 20
11.07442662169433
 10
48.04189839329456
 20
10.78357405847515
 10
47.93180358167682
 20
10.4956809419333
 10
47.78466911970464
 20
10.21195479585299
 10
47.60111214048379
 20
9.933585666304566
 10
47.38190254573328
 20
9.661741130165919
 10
47.12795977669384
 20
9.397561397875563
 10
46.84034895759123
 20
9.142154531038443
 10
46.52027642813663
 20
8.896591794843628
 10
46.16908468376823
 20
8.66190316472057
 10
45.78824674472139
 20
8.439073006340263
 10
45.37935997764089
 20
8.229035946831343
 10
44.94413939572949
 20
8.0326729546112
 10
44.4844104653464
 20
7.850807644337749
 10
44.00210144942092
 20
7.684202822292205
 10
43.49923531958324
 20
7.533557286991822
 10
42.97792127108732
 20
7.399502898212006
 10
42.44034587628812
 20
7.282601926592064
 10
41.88876391317864
 20
7.183344695469827
 10
41.32548890818315
 20
7.102147524155384
 10
40.75288343246177
 20
7.039350981793347
 10
40.17334919235099
 20
6.995218458913883
 10
39.58931695586398
 20
6.969935062664602
 10
39.00323635717177
 20
6.963606840373073
 10
38.41756562197327
 20
6.976260334828566
 10
37.83476125686843
 20
7.007842472863101
 10
37.25726774589737
 20
7.058220788019411
 10
36.68750729755311
 20
7.127183976133323
 10
36.12786968515286
 20
7.214442781634716
 10
35.58070222332162
 20
7.319631210749206
 10
35.04829992257646
 20
7.442308066653481
 10
34.53289586316589
 20
7.581958800017275
 10
34.03665182883287
 20
7.737997667083162
 10
33.56164923952042
 20
7.909770186628178
 10
33.1098804211515
 20
8.096555885036821
 10
32.68324024915911
 20
8.297571318163932
 10
32.2835182007168
 20
8.511973357404372
 10
31.91239084895801
 20
8.738862726132026
 10
31.57141483102032
 20
8.977287771451017
 10
31.2620203187887
 20
9.226248455886493
  0
LWPOLYLINE
  5
F5
330
2
100
AcDbEntity
  8
0
100
AcDbPolyline
 90
       52
 70
   128
 43
0.0
 10
30.04970811928547
 20
11.3710693101645
 10
30.03827123586689
 20
11.57549789224032
 10
30.05411066391685
 20
11.86886210739226
 10
30.10789569866893
 20
12.1610984451471
 10
30.19940074696979
 20
12.45098116475839
 10
30.32824200488631
 20
12.73729439735911
 10
30.49387906736638
 20
13.01883724574628
 10
30.69561719505293
 20
13.29442882138716
 10
30.93261022807474
 20
13.56291319740757
 10
31.20386413534277
 20
13.82316425704891
 10
31.50824118365915
 20
14.07409041693012
 10
31.8444647099393
 20
14.31463920551795
 10
32.21112447586484
 20
14.54380167761371
 10
32.60668258291571
 20
14.76061664615474
 10
33.02947992296322
 20
14.96417471380249
 10
33.47774313701825
 20
15.15362208732142
 10
33.94959205337296
 20
15.32816415854268
 10
34.44304757372015
 20
15.48706883741158
 10
34.95603997407443
 20
15.6296696224266
 10
35.48641758607391
 20
15.75536839637959
 10
36.03195582166927
 20
15.8636379349
 10
36.5903665039191
 20
15.95402411795271
 10
37.15930746436379
 20
16.0261478344363
 10
37.73639236688109
 20
16.07970657244101
 10
38.31920071687375
 20
16.11447568799974
 10
38.90528801354083
 20
16.13030934736525
 10
39.49219600309947
 20
16.12714113867548
 10
40.07746298947495
 20
16.10498435046986
 10
40.65863415951321
 20
16.06393191603286
 10
41.23327187940414
 20
16.00415602356509
 10
41.79896591879628
 20
15.92590739388765
 10
42.35334356031353
 20
15.82951422898486
 10
42.89407955148556
 20
15.71538083526673
 10
43.41890585763827
 20
15.58398592786273
 10
43.92562117484271
 20
15.43588062266485
 10
44.41210016296213
 20
15.27168612481893
 10
44.87630236007111
 20
15.09209112306933
 10
45.31628074082435
 20
14.89784890132273
 10
45.73018988299178
 20
14.68977417890267
 10
46.11629370778405
 20
14.46873969354817
 10
46.47297276157996
 20
14.23567254067689
 10
46.79873100847475
 20
13.9915502849459
 10
47.09220210518082
 20
13.73739685993632
 10
47.35215513190484
 20
13.47427827342352
 10
47.57749975533704
 20
13.20329813618923
 10
47.76729080181211
 20
12.92559303311941
 10
47.92073222170472
 20
12.64232775592887
 10
48.0371804284042
 20
12.35469041762144
 10
48.11614699764867
 20
12.06388746917866
 10
48.15730071618919
 20
11.77113863918197
 10
48.16046897104615
 20
11.47767181799219
 10
48.15220071179942
 20
11.3710693101645
  0
LINE
  5
F6
330
2
100
AcDbEntity
  8
0
100
AcDbLine
 10
32.9493741490394
 20
15.75607901444999
 30
0.0
 11
32.89495855736027
 21
14.89940867427063
 31
0.0
  0
SPLINE
  5
F7
330
2
100
AcDbEntity
  8
0
100
AcDbSpline
210
0.0
220
0.0
230
1.0
 70
     8
 71
     3
 72
    12
 73
     8
 74
     0
 42
0.000000001
 43
0.0000000001
 40
0.0
 40
0.0
 40
0.0
 40
0.0
 40
0.2499999999999977
 40
0.2499999999999977
 40
0.4999999999999953
 40
0.4999999999999953
 40
1.0
 40
1.0
 40
1.0
 40
1.0
 10
33.01752476878267
 20
15.88949217148524
 30
0.0
 10
33.00917774352183
 20
15.88382405614794
 30
0.0
 10
33.00090124853625
 20
15.87593641095248
 30
0.0
 10
32.98518784708267
 20
15.85651468835692
 30
0.0
 10
32.97787477969041
 20
15.84508651088714
 30
0.0
 10
32.95910093110047
 20
15.80822994526977
 30
0.0
 10
32.95090191140457
 20
15.78012404551128
 30
0.0
 10
32.94937414904996
 20
15.75607901444471
 30
0.0
  0
ARC
  5
F8
330
2
100
AcDbEntity
  8
0
100
AcDbCircle
 10
36.20505763178937
 20
11.19482282646208
 30
0.0
 40
5.674529585075219
100
AcDbArc
 50
123.1955343829651
 51
124.1752714888962
  0
SPLINE
  5
F9
330
2
100
AcDbEntity
  8
0
100
AcDbSpline
210
0.0
220
0.0
230
1.0
 70
     8
 71
     3
 72
     8
 73
     4
 74
     0
 42
0.000000001
 43
0.0000000001
 40
0.0
 40
0.0
 40
0.0
 40
0.0
 40
1.0
 40
1.0
 40
1.0
 40
1.0
 10
33.21908346467377
 20
17.34125750725025
 30
0.0
 10
33.21582497793952
 20
17.33917164992994
 30
0.0
 10
33.21261667608394
 20
17.3364927392858
 30
0.0
 10
33.20082417369486
 20
17.29675337565157
 30
0.0
  0
LWPOLYLINE
  5
FA
330
2
100
AcDbEntity
  8
0
100
AcDbPolyline
 90
       26
 70
   128
 43
0.0
 10
33.21908346467478
 20
17.34125750724206
 10
33.56790604640162
 20
17.54857331879225
 10
33.94589154601056
 20
17.74268896631878
 10
34.3510477235368
 20
17.92258132869539
 10
34.78123913113882
 20
18.08730225118768
 10
35.23419836828362
 20
18.2359835427535
 10
35.70753803255048
 20
18.36784155218891
 10
36.19876330287003
 20
18.48218129831952
 10
36.70528508885877
 20
18.57840013312653
 10
37.22443367715846
 20
18.65599091808229
 10
37.75347280255483
 20
18.7145446971474
 10
38.28961407005181
 20
18.75375285218558
 10
38.83003165147272
 20
18.77340872960047
 10
39.37187717961207
 20
18.77340872960047
 10
39.91229476103308
 20
18.75375285218558
 10
40.44843602850868
 20
18.7145446971474
 10
40.97747515390506
 20
18.65599091808229
 10
41.49662374220475
 20
18.57840013312653
 10
42.00314552819349
 20
18.48218129831952
 10
42.49437079851303
 20
18.36784155218891
 10
42.96771046280127
 20
18.2359835427535
 10
43.42066969994607
 20
18.08730225118768
 10
43.85086110752673
 20
17.92258132869539
 10
44.25601728507421
 20
17.74268896631878
 10
44.63400278468315
 20
17.54857331879225
 10
44.98282536640998
 20
17.34125750724206
  0
SPLINE
  5
FB
330
2
100
AcDbEntity
  8
0
100
AcDbSpline
210
0.0
220
0.0
230
1.0
 70
     8
 71
     3
 72
     8
 73
     4
 74
     0
 42
0.000000001
 43
0.0000000001
 40
0.0
 40
0.0
 40
0.0
 40
0.0
 40
1.0
 40
1.0
 40
1.0
 40
1.0
 10
44.99245202066345
 20
17.33323560092322
 30
0.0
 10
44.98932726001998
 20
17.33645655358947
 30
0.0
 10
44.98606367327329
 20
17.33918456767827
 30
0.0
 10
44.98282536640032
 20
17.34125750725025
 30
0.0
  0
LWPOLYLINE
  5
FC
330
2
100
AcDbEntity
  8
0
100
AcDbPolyline
 90
        4
 70
   128
 43
0.0
 10
45.07019831540357
 20
16.37256373570568
 10
45.06573736726136
 20
16.42776947854554
 10
45.04788555834443
 20
16.64858969346585
 10
44.99245202066322
 20
17.33323560092333
  0
LWPOLYLINE
  5
FD
330
2
100
AcDbEntity
  8
0
100
AcDbPolyline
 90
        4
 70
   128
 43
0.0
 10
45.09746423819888
 20
15.94734687108052
 10
45.09396234100313
 20
16.00196647252943
 10
45.07995347698602
 20
16.22044446062517
 10
45.07019831540357
 20
16.37256373570568
  0
ARC
  5
FE
330
2
100
AcDbEntity
  8
0
100
AcDbCircle
 10
41.99685119927403
 20
11.19482282646208
 30
0.0
 40
5.674529585071078
100
AcDbArc
 50
55.82472851110376
 51
56.87900957710738
  0
SPLINE
  5
FF
330
2
100
AcDbEntity
  8
0
100
AcDbSpline
210
0.0
220
0.0
230
1.0
 70
     8
 71
     3
 72
    12
 73
     8
 74
     0
 42
0.000000001
 43
0.0000000001
 40
0.0
 40
0.0
 40
0.0
 40
0.0
 40
0.2499999999999977
 40
0.2499999999999977
 40
0.4999999999999953
 40
0.4999999999999953
 40
1.0
 40
1.0
 40
1.0
 40
1.0
 10
45.25253468202413
 20
15.75607901444471
 30
0.0
 10
45.25177084751317
 20
15.7681007955091
 30
0.0
 10
45.24941360415005
 20
15.78098599549713
 30
0.0
 10
45.24180743586475
 20
15.80724362564166
 30
0.0
 10
45.23657672724721
 20
15.82045273848814
 30
0.0
 10
45.21782121834165
 20
15.85730370232283
 30
0.0
 10
45.20107653232526
 20
15.87815701405384
 30
0.0
 10
45.18438406229143
 20
15.88949217148524
 30
0.0
  0
LINE
  5
100
330
2
100
AcDbEntity
  8
0
100
AcDbLine
 10
45.30678300689783
 20
14.90204197311931
 30
0.0
 11
45.25253468202413
 21
15.75607901444999
 31
0.0
  0
ELLIPSE
  5
101
330
2
100
AcDbEntity
  8
0
100
AcDbEllipse
 10
45.84043339009531
 20
16.34428538829422
 30
0.0
 11
-0.0156030593788142
 21
0.0509820250160196
 31
0.0
210
0.0
220
0.0
230
1.0
 40
0.4241965134000001
 41
6.276413276825082
 42
7.226106511357236
  0
LINE
  5
102
330
2
100
AcDbEntity
  8
0
100
AcDbLine
 10
45.81223637488256
 20
15.46867799064864
 30
0.0
 11
45.8137659823551
 21
16.36887716268813
 31
0.0
  0
LINE
  5
103
330
2
100
AcDbEntity
  8
0
100
AcDbLine
 10
45.81223637488256
 20
15.46867799064864
 30
0.0
 11
45.82266306747181
 21
14.63683566488609
 31
0.0
  0
LINE
  5
104
330
2
100
AcDbEntity
  8
0
100
AcDbLine
 10
45.01067961475621
 20
17.10811109649046
 30
0.0
 11
45.8315569304375
 21
16.39721048771696
 31
0.0
  0
ELLIPSE
  5
105
330
2
100
AcDbEntity
  8
0
100
AcDbEllipse
 10
32.36147544096822
 20
16.34428538829422
 30
0.0
 11
0.0156030593788263
 21
0.0509820250160196
 31
0.0
210
0.0
220
0.0
230
1.0
 40
0.4241965134
 41
5.340264103002398
 42
6.289957337534119
  0
LINE
  5
106
330
2
100
AcDbEntity
  8
0
100
AcDbLine
 10
32.38967245620234
 20
15.46867799064864
 30
0.0
 11
32.37923462360072
 21
14.63594691681644
 31
0.0
  0
LINE
  5
107
330
2
100
AcDbEntity
  8
0
100
AcDbLine
 10
32.38814284870841
 20
16.36887716268813
 30
0.0
 11
32.38967245620234
 21
15.46867799064864
 31
0.0
  0
LINE
  5
108
330
2
100
AcDbEntity
  8
0
100
AcDbLine
 10
32.37035190062602
 20
16.39721048771696
 30
0.0
 11
33.18517640644496
 21
17.10286920935698
 31
0.0
  0
LINE
  5
109
330
2
100
AcDbEntity
  8
0
100
AcDbLine
 10
32.32978696288796
 20
14.62210859358236
 30
0.0
 11
32.32787991788564
 21
14.99895468313798
 31
0.0
  0
LINE
  5
10A
330
2
100
AcDbEntity
  8
0
100
AcDbLine
 10
32.19893653839745
 20
14.75933128848254
 30
0.0
 11
32.21850623426121
 21
15.12312883344168
 31
0.0
  0
LINE
  5
10B
330
2
100
AcDbEntity
  8
0
100
AcDbLine
 10
32.32787991788564
 20
14.99895468313798
 30
0.0
 11
32.31510904321226
 21
15.09524200455206
 31
0.0
  0
LINE
  5
10C
330
2
100
AcDbEntity
  8
0
100
AcDbLine
 10
45.87212186817555
 20
14.62210859358236
 30
0.0
 11
45.87402891319925
 21
14.99895468313798
 31
0.0
  0
LINE
  5
10D
330
2
100
AcDbEntity
  8
0
100
AcDbLine
 10
45.87402891319925
 20
14.99895468313798
 30
0.0
 11
45.88679978785124
 21
15.09524200455206
 31
0.0
  0
LINE
  5
10E
330
2
100
AcDbEntity
  8
0
100
AcDbLine
 10
45.9834025968023
 20
15.12312883344168
 30
0.0
 11
46.00337133731204
 21
14.75191311198426
 31
0.0
  0
SPLINE
  5
10F
330
2
100
AcDbEntity
  8
0
100
AcDbSpline
210
0.0
220
0.0
230
1.0
 70
     8
 71
     3
 72
     8
 73
     4
 74
     0
 42
0.000000001
 43
0.0000000001
 40
0.0
 40
0.0
 40
0.0
 40
0.0
 40
1.0
 40
1.0
 40
1.0
 40
1.0
 10
32.18696472065313
 20
16.4477314760246
 30
0.0
 10
32.18516572971476
 20
16.44668833473906
 30
0.0
 10
32.18323256838085
 20
16.44491583297304
 30
0.0
 10
32.18126128515769
 20
16.44247713517842
 30
0.0
  0
LWPOLYLINE
  5
110
330
2
100
AcDbEntity
  8
0
100
AcDbPolyline
 90
        4
 70
   128
 43
0.0
 10
32.14618530140786
 20
15.5190738640818
 10
32.14852207962531
 20
15.57244002180528
 10
32.15787712126394
 20
15.78590182040943
 10
32.18696472064767
 20
16.44773147602228
  0
LWPOLYLINE
  5
111
330
2
100
AcDbEntity
  8
0
100
AcDbPolyline
 90
        4
 70
   128
 43
0.0
 10
32.12329219123922
 20
15.09764396628952
 10
32.12623241103688
 20
15.15177714083541
 10
32.13799452422018
 20
15.36830938562246
 10
32.14618530140786
 20
15.5190738640818
  0
ARC
  5
112
330
2
100
AcDbEntity
  8
0
100
AcDbCircle
 10
34.69030031456714
 20
12.96670507369208
 30
0.0
 40
3.336230098371845
100
AcDbArc
 50
138.8008210538011
 51
140.3030696583986
  0
SPLINE
  5
113
330
2
100
AcDbEntity
  8
0
100
AcDbSpline
210
0.0
220
0.0
230
1.0
 70
     8
 71
     3
 72
    12
 73
     8
 74
     0
 42
0.000000001
 43
0.0000000001
 40
0.0
 40
0.0
 40
0.0
 40
0.0
 40
0.2499999999999977
 40
0.2499999999999977
 40
0.4999999999999953
 40
0.4999999999999953
 40
1.0
 40
1.0
 40
1.0
 40
1.0
 10
32.21850623427054
 20
15.12312883343475
 30
0.0
 10
32.21914741787941
 20
15.13504439570221
 30
0.0
 10
32.21862600419036
 20
15.14543660555421
 30
0.0
 10
32.2153900891692
 20
15.16230471612544
 30
0.0
 10
32.2126744134805
 20
15.1686320582944
 30
0.0
 10
32.20196821583523
 20
15.17996843581744
 30
0.0
 10
32.19132639192868
 20
15.17710433423394
 30
0.0
 10
32.18003955836252
 20
15.16420870396763
 30
0.0
  0
ARC
  5
114
330
2
100
AcDbEntity
  8
0
100
AcDbCircle
 10
33.92306907276725
 20
14.95248886024291
 30
0.0
 40
2.292151702757087
100
AcDbArc
 50
139.4554486086946
 51
174.1405686757052
  0
SPLINE
  5
115
330
2
100
AcDbEntity
  8
0
100
AcDbSpline
210
0.0
220
0.0
230
1.0
 70
     8
 71
     3
 72
    12
 73
     8
 74
     0
 42
0.000000001
 43
0.0000000001
 40
0.0
 40
0.0
 40
0.0
 40
0.0
 40
0.2499999999999977
 40
0.2499999999999977
 40
0.4999999999999953
 40
0.4999999999999953
 40
1.0
 40
1.0
 40
1.0
 40
1.0
 10
46.02186927271167
 20
15.16420870396757
 30
0.0
 10
46.01622532159466
 20
15.17065712959726
 30
0.0
 10
46.0107957442235
 20
15.17463929124881
 30
0.0
 10
46.00083896237561
 20
15.17744859951199
 30
0.0
 10
45.99639508154019
 20
15.17620223787844
 30
0.0
 10
45.98567561849746
 20
15.16488762937672
 30
0.0
 10
45.98212015123976
 20
15.14696141392852
 30
0.0
 10
45.98340259680344
 20
15.12312883343475
 30
0.0
  0
ARC
  5
116
330
2
100
AcDbEntity
  8
0
100
AcDbCircle
 10
43.51160851641111
 20
12.96670507360682
 30
0.0
 40
3.336230098490116
100
AcDbArc
 50
39.69693034170566
 51
41.19917894619887
  0
LWPOLYLINE
  5
117
330
2
100
AcDbEntity
  8
0
100
AcDbPolyline
 90
        4
 70
   128
 43
0.0
 10
46.05572352965565
 20
15.5190738640818
 10
46.05866458913896
 20
15.46494099807677
 10
46.07042758593616
 20
15.24840907799443
 10
46.07861663982429
 20
15.09764396628952
  0
LWPOLYLINE
  5
118
330
2
100
AcDbEntity
  8
0
100
AcDbPolyline
 90
        4
 70
   128
 43
0.0
 10
46.01494411041584
 20
16.44773147602228
 10
46.01729403387343
 20
16.39437001535339
 10
46.02668562725328
 20
16.18092127739612
 10
46.05572352965565
 20
15.5190738640818
  0
SPLINE
  5
119
330
2
100
AcDbEntity
  8
0
100
AcDbSpline
210
0.0
220
0.0
230
1.0
 70
     8
 71
     3
 72
     8
 73
     4
 74
     0
 42
0.000000001
 43
0.0000000001
 40
0.0
 40
0.0
 40
0.0
 40
0.0
 40
1.0
 40
1.0
 40
1.0
 40
1.0
 10
46.0206475459164
 20
16.44247713517836
 30
0.0
 10
46.01866397842741
 20
16.44493102998342
 30
0.0
 10
46.01676331206919
 20
16.44667661559953
 30
0.0
 10
46.01494411042096
 20
16.4477314760246
 30
0.0
  0
ARC
  5
11A
330
2
100
AcDbEntity
  8
0
100
AcDbCircle
 10
44.30546182178659
 20
14.96390018647992
 30
0.0
 40
2.264520227660194
100
AcDbArc
 50
5.640979907194886
 51
40.76300280839984
  0
ELLIPSE
  5
11B
330
2
100
AcDbEntity
  8
0
100
AcDbEllipse
 10
32.261906816889
 20
15.04823885968972
 30
0.0
 11
0.0160829243653947
 21
0.1061006913803126
 31
0.0
210
0.0
220
0.0
230
1.0
 40
0.4926395442000002
 41
5.24450207558701
 42
6.218569152574259
  0
ELLIPSE
  5
11C
330
2
100
AcDbEntity
  8
0
100
AcDbEllipse
 10
45.94000201419588
 20
15.04823885968972
 30
0.0
 11
-0.0160829243653826
 21
0.1061006913803125
 31
0.0
210
0.0
220
0.0
230
1.0
 40
0.4926395442000002
 41
0.0646161546055805
 42
1.03868323159278
  0
SPLINE
  5
11D
330
2
100
AcDbEntity
  8
0
100
AcDbSpline
210
0.0
220
0.0
230
1.0
 70
     8
 71
     2
 72
     6
 73
     3
 74
     0
 42
0.000000001
 43
0.0000000001
 40
0.0
 40
0.0
 40
0.0
 40
1.0
 40
1.0
 40
1.0
 10
32.18696472065313
 20
16.4477314760246
 30
0.0
 10
32.18912950497702
 20
16.44898672187077
 30
0.0
 10
32.19499754358571
 20
16.44783093033288
 30
0.0
  0
SPLINE
  5
11E
330
2
100
AcDbEntity
  8
0
100
AcDbSpline
210
0.0
220
0.0
230
1.0
 70
     8
 71
     2
 72
     6
 73
     3
 74
     0
 42
0.000000001
 43
0.0000000001
 40
0.0
 40
0.0
 40
0.0
 40
1.0
 40
1.0
 40
1.0
 10
46.01494411042096
 20
16.4477314760246
 30
0.0
 10
46.01277932609696
 20
16.44898672187071
 30
0.0
 10
46.00691128749917
 20
16.44783093033288
 30
0.0
  0
LINE
  5
11F
330
2
100
AcDbEntity
  8
0
100
AcDbLine
 10
42.87203467006929
 20
22.02690369136235
 30
0.0
 11
42.87203467006929
 21
18.26447431690269
 31
0.0
  0
ARC
  5
120
330
2
100
AcDbEntity
  8
0
100
AcDbCircle
 10
42.31754808498339
 20
22.04867885535873
 30
0.0
 40
0.5549139850723975
100
AcDbArc
 50
357.7511011826075
 51
47.5982054287961
  0
ELLIPSE
  5
121
330
2
100
AcDbEntity
  8
0
100
AcDbEllipse
 10
27.25262657053133
 20
16.36053905662379
 30
0.0
 11
-0.0078266386231758
 21
0.4275634345886039
 31
0.0
210
0.0
220
0.0
230
1.0
 40
0.584460762865635
 41
1.255334287596886
 42
6.733877229837813
  0
ELLIPSE
  5
122
330
2
100
AcDbEntity
  8
0
100
AcDbEllipse
 10
27.23761112562931
 20
15.78791966281466
 30
0.0
 11
0.0171485171186244
 21
0.194197912260099
 31
0.0
210
0.0
220
0.0
230
1.0
 40
0.6457159237112302
 41
0.0
 42
6.283185307179584
  0
SPLINE
  5
123
330
2
100
AcDbEntity
  8
0
100
AcDbSpline
210
0.0
220
0.0
230
1.0
 70
     8
 71
     3
 72
    10
 73
     6
 74
     0
 42
0.000000001
 43
0.0000000001
 40
0.0
 40
0.0
 40
0.0
 40
0.0
 40
0.3852248288516202
 40
0.9303658622867883
 40
1.0
 40
1.0
 40
1.0
 40
1.0
 10
18.18641746996241
 20
13.04618542453545
 30
0.0
 10
18.16749198291302
 20
13.03104927289854
 30
0.0
 10
18.12178457840741
 20
12.99449358459748
 30
0.0
 10
18.08036413416653
 20
12.9422627912802
 30
0.0
 10
18.06945159759687
 20
12.90521851943407
 30
0.0
 10
18.06821556024533
 20
12.90102260188843
 30
0.0
  0
SPLINE
  5
124
330
2
100
AcDbEntity
  8
0
100
AcDbSpline
210
0.0
220
0.0
230
1.0
 70
     8
 71
     3
 72
    10
 73
     6
 74
     0
 42
0.000000001
 43
0.0000000001
 40
0.0
 40
0.0
 40
0.0
 40
0.0
 40
0.178406816138169
 40
0.5961940725780118
 40
1.0
 40
1.0
 40
1.0
 40
1.0
 10
18.46570046545412
 20
13.06036666758769
 30
0.0
 10
18.45650975095384
 20
13.067519381137
 30
0.0
 10
18.42579652134532
 20
13.09142208571563
 30
0.0
 10
18.35772062040291
 20
13.10329530760089
 30
0.0
 10
18.30355540061919
 20
13.09321989075818
 30
0.0
 10
18.27693366465723
 20
13.08826791072442
 30
0.0
  0
SPLINE
  5
125
330
2
100
AcDbEntity
  8
0
100
AcDbSpline
210
0.0
220
0.0
230
1.0
 70
     8
 71
     3
 72
    12
 73
     8
 74
     0
 42
0.000000001
 43
0.0000000001
 40
0.0
 40
0.0
 40
0.0
 40
0.0
 40
0.0291081485275992
 40
0.324446051290663
 40
0.5915218762100177
 40
0.8482103367107132
 40
1.0
 40
1.0
 40
1.0
 40
1.0
 10
18.08766828295984
 20
12.93948524869967
 30
0.0
 10
18.08559423123177
 20
12.93686478165273
 30
0.0
 10
18.06247637841716
 20
12.90765645927871
 30
0.0
 10
18.0434865843348
 20
12.84065572167998
 30
0.0
 10
18.03894191408403
 20
12.75207530153039
 30
0.0
 10
18.05859416557041
 20
12.67958108930071
 30
0.0
 10
18.08783329600646
 20
12.64757138840298
 30
0.0
 10
18.09869849907432
 20
12.6356766468287
 30
0.0
  0
LINE
  5
126
330
2
100
AcDbEntity
  8
0
100
AcDbLine
 10
18.53151703094431
 20
13.02043319863566
 30
0.0
 11
18.46570046545412
 21
13.06036666758769
 31
0.0
  0
LINE
  5
127
330
2
100
AcDbEntity
  8
0
100
AcDbLine
 10
18.09869849907432
 20
12.6356766468287
 30
0.0
 11
18.14761588285751
 21
12.57714315627976
 31
0.0
  0
SPLINE
  5
128
330
2
100
AcDbEntity
  8
0
100
AcDbSpline
210
0.0
220
0.0
230
1.0
 70
     8
 71
     3
 72
     9
 73
     5
 74
     0
 42
0.000000001
 43
0.0000000001
 40
0.0
 40
0.0
 40
0.0
 40
0.0
 40
0.0304439907759075
 40
1.0
 40
1.0
 40
1.0
 40
1.0
 10
9.079530198333939
 20
10.42740715911685
 30
0.0
 10
9.078632203706547
 20
10.4270908501785
 30
0.0
 10
9.049135590272953
 20
10.41670098570233
 30
0.0
 10
9.02544447036314
 20
10.39443546239801
 30
0.0
 10
9.002474602689288
 20
10.37284779047974
 30
0.0
  0
SPLINE
  5
129
330
2
100
AcDbEntity
  8
0
100
AcDbSpline
210
0.0
220
0.0
230
1.0
 70
     8
 71
     3
 72
     9
 73
     5
 74
     0
 42
0.000000001
 43
0.0000000001
 40
0.0
 40
0.0
 40
0.0
 40
0.0
 40
0.558387413646741
 40
1.0
 40
1.0
 40
1.0
 40
1.0
 10
9.002474602689288
 20
10.37284779047974
 30
0.0
 10
8.985300267058732
 20
10.35533484130826
 30
0.0
 10
8.954543242077875
 20
10.32397140305119
 30
0.0
 10
8.938410564564833
 20
10.28355433043288
 30
0.0
 10
8.931286171123474
 20
10.26570564246111
 30
0.0
  0
SPLINE
  5
12A
330
2
100
AcDbEntity
  8
0
100
AcDbSpline
210
0.0
220
0.0
230
1.0
 70
     8
 71
     3
 72
    10
 73
     6
 74
     0
 42
0.000000001
 43
0.0000000001
 40
0.0
 40
0.0
 40
0.0
 40
0.0
 40
0.3341848966245098
 40
0.6760545672849795
 40
1.0
 40
1.0
 40
1.0
 40
1.0
 10
9.318653613310743
 20
10.42925232999857
 30
0.0
 10
9.294348912354619
 20
10.44025357655374
 30
0.0
 10
9.24518060985531
 20
10.46250904966047
 30
0.0
 10
9.161749273880332
 20
10.46110924160507
 30
0.0
 10
9.110218942973231
 20
10.43985012587279
 30
0.0
 10
9.085147394942962
 20
10.42950672361274
 30
0.0
  0
SPLINE
  5
12B
330
2
100
AcDbEntity
  8
0
100
AcDbSpline
210
0.0
220
0.0
230
1.0
 70
     8
 71
     3
 72
    11
 73
     7
 74
     0
 42
0.000000001
 43
0.0000000001
 40
0.0
 40
0.0
 40
0.0
 40
0.0
 40
0.1174437488512791
 40
0.4532904660140817
 40
0.7450588621110571
 40
1.0
 40
1.0
 40
1.0
 40
1.0
 10
8.934272405840488
 20
10.27395767626609
 30
0.0
 10
8.928197844182818
 20
10.2635947596849
 30
0.0
 10
8.90475222948214
 20
10.22359764334374
 30
0.0
 10
8.896159109906307
 20
10.14852761259845
 30
0.0
 10
8.907530911394019
 20
10.06295352358125
 30
0.0
 10
8.937420187362477
 20
10.02024435101811
 30
0.0
 10
8.951358129820732
 20
10.0003282449789
 30
0.0
  0
LINE
  5
12C
330
2
100
AcDbEntity
  8
0
100
AcDbLine
 10
9.35993573078622
 20
10.40315663775595
 30
0.0
 11
9.328138345547586
 21
10.42406030342511
 31
0.0
  0
LINE
  5
12D
330
2
100
AcDbEntity
  8
0
100
AcDbLine
 10
8.955339541664102
 20
9.993589168414246
 30
0.0
 11
8.980572385560094
 21
9.965104814035381
 31
0.0
  0
LINE
  5
12E
330
2
100
AcDbEntity
  8
0
100
AcDbLine
 10
18.14761588285751
 20
12.57714315627976
 30
0.0
 11
18.18493339561837
 21
12.54482524222317
 31
0.0
  0
LINE
  5
12F
330
2
100
AcDbEntity
  8
0
100
AcDbLine
 10
18.56883454368369
 20
12.98811528457906
 30
0.0
 11
18.53151703094431
 21
13.02043319863566
 31
0.0
  0
LINE
  5
130
330
2
100
AcDbEntity
  8
0
100
AcDbLine
 10
21.7780588057991
 20
13.64382744864707
 30
0.0
 11
21.73189030801257
 21
13.63049975132549
 31
0.0
  0
LINE
  5
131
330
2
100
AcDbEntity
  8
0
100
AcDbLine
 10
24.73971776164888
 20
14.11262158001654
 30
0.0
 11
23.08930208135996
 21
15.54192348595177
 31
0.0
  0
LINE
  5
132
330
2
100
AcDbEntity
  8
0
100
AcDbLine
 10
22.95256555323101
 20
15.66034079293678
 30
0.0
 11
22.83979285584383
 21
15.75800481372749
 31
0.0
  0
LINE
  5
133
330
2
100
AcDbEntity
  8
0
100
AcDbLine
 10
22.77885571293939
 20
15.81077792751688
 30
0.0
 11
21.74305069023239
 21
16.70781139054929
 31
0.0
  0
LINE
  5
134
330
2
100
AcDbEntity
  8
0
100
AcDbLine
 10
21.64719682307441
 20
16.70540401904929
 30
0.0
 11
5.211243944665056
 21
11.96075310969115
 31
0.0
  0
LINE
  5
135
330
2
100
AcDbEntity
  8
0
100
AcDbLine
 10
21.69990606373972
 20
12.17196256866765
 30
0.0
 11
24.63199351469041
 21
9.632700350009145
 31
0.0
  0
LINE
  5
136
330
2
100
AcDbEntity
  8
0
100
AcDbLine
 10
25.55123551811539
 20
9.912897316314342
 30
0.0
 11
25.55123551811539
 21
9.959065814100879
 31
0.0
  0
LINE
  5
137
330
2
100
AcDbEntity
  8
0
100
AcDbLine
 10
5.784016117314081
 20
5.089862917332594
 30
0.0
 11
23.8542123232022
 21
10.30627923923236
 31
0.0
  0
LINE
  5
138
330
2
100
AcDbEntity
  8
0
100
AcDbLine
 10
1.92141851411486
 20
6.461850400486753
 30
0.0
 11
1.92141851411486
 21
6.415681902700214
 31
0.0
  0
LINE
  5
139
330
2
100
AcDbEntity
  8
0
100
AcDbLine
 10
18.18704961447929
 20
13.04658175072029
 30
0.0
 11
18.27371229260143
 21
13.08738407421418
 31
0.0
  0
LINE
  5
13A
330
2
100
AcDbEntity
  8
0
100
AcDbLine
 10
9.078820718341829
 20
10.42745574952732
 30
0.0
 11
9.084239113624107
 21
10.43017671501081
 31
0.0
  0
LINE
  5
13B
330
2
100
AcDbEntity
  8
0
100
AcDbLine
 10
9.320933998751225
 20
10.42853343364845
 30
0.0
 11
9.328138345547586
 21
10.42406030342511
 31
0.0
  0
LINE
  5
13C
330
2
100
AcDbEntity
  8
0
100
AcDbLine
 10
8.955339541664102
 20
9.993589168414246
 30
0.0
 11
8.951431912765656
 21
9.998167784823692
 31
0.0
  0
LWPOLYLINE
  5
13D
330
2
100
AcDbEntity
  8
0
100
AcDbPolyline
 90
        6
 70
   128
 43
0.0
 10
9.326089335312984
 20
10.00010863143899
 10
9.392567183916412
 20
10.0838644452541
 10
9.431233446996088
 20
10.17924718800975
 10
9.436863734835585
 20
10.2733732428324
 10
9.408699912356039
 20
10.35353172587434
 10
9.35993573078622
 20
10.40315663775595
  0
ARC
  5
13E
330
2
100
AcDbEntity
  8
0
100
AcDbCircle
 10
9.136587732160592
 20
10.14787540025679
 30
0.0
 40
0.2403037152505904
100
AcDbArc
 50
229.5154980495007
 51
322.0541318141942
  0
LWPOLYLINE
  5
13F
330
2
100
AcDbEntity
  8
0
100
AcDbPolyline
 90
       11
 70
   128
 43
0.0
 10
18.18493339561837
 20
12.54482524222317
 10
18.19011100389001
 20
12.54052277017388
 10
18.26486779723405
 20
12.50625024696569
 10
18.35475289326211
 20
12.50712159388632
 10
18.44762787577099
 20
12.54301959303069
 10
18.53094705452894
 20
12.60909563386917
 10
18.59345948534883
 20
12.69642615519558
 10
18.62672248834724
 20
12.79321663879932
 10
18.62624366622378
 20
12.88639472543428
 10
18.59208631153023
 20
12.96337623890696
 10
18.56883454368369
 20
12.98811528457906
  0
LWPOLYLINE
  5
140
330
2
100
AcDbEntity
  8
0
100
AcDbPolyline
 90
       14
 70
   128
 43
0.0
 10
18.07613207349607
 20
12.56135838392686
 10
18.13083750208306
 20
12.48590597029584
 10
18.21220561825737
 20
12.4408569688801
 10
18.31141811439328
 20
12.43109300031062
 10
18.41772625919225
 20
12.45767266028628
 10
18.51960805111878
 20
12.51771528942908
 10
18.60602306261489
 20
12.60471437014718
 10
18.66760811954702
 20
12.70924215015685
 10
18.69768723054164
 20
12.81997111264451
 10
18.69300357957286
 20
12.92490278117753
 10
18.6540635072688
 20
13.01266613795945
 10
18.58508560174835
 20
13.07374986005124
 10
18.4935466430619
 20
13.10153527815487
 10
18.39843853318064
 20
13.09515188934318
  0
LWPOLYLINE
  5
141
330
2
100
AcDbEntity
  8
0
100
AcDbPolyline
 90
        3
 70
   128
 43
0.0
 10
18.0544887627691
 20
12.6959062199387
 10
18.05401819618839
 20
12.65903797948937
 10
18.07613207349607
 20
12.56135838392686
  0
LWPOLYLINE
  5
142
330
2
100
AcDbEntity
  8
0
100
AcDbPolyline
 90
       14
 70
   128
 43
0.0
 10
8.966279585102142
 20
9.871134331722087
 10
9.038902317715724
 20
9.814354092919186
 10
9.132834011134717
 20
9.791518231742713
 10
9.237894191355394
 20
9.805100790073312
 10
9.342699825334989
 20
9.853630615286988
 10
9.435892646679576
 20
9.931847869284068
 10
9.507374736920835
 20
10.03127741851523
 10
9.549399634565588
 20
10.141144057448
 10
9.557411649718801
 20
10.24954182786376
 10
9.530543949232535
 20
10.34472429364933
 10
9.471709367698279
 20
10.41637734435744
 10
9.387281192854628
 20
10.45673579659433
 10
9.286409330372066
 20
10.46142653157164
 10
9.254917143708212
 20
10.45578255813399
  0
ARC
  5
143
330
2
100
AcDbEntity
  8
0
100
AcDbCircle
 10
9.186906326805569
 20
10.03491017270073
 30
0.0
 40
0.2747702408283685
100
AcDbArc
 50
173.769377047998
 51
216.5872708829972
  0
LWPOLYLINE
  5
144
330
2
100
AcDbEntity
  8
0
100
AcDbPolyline
 90
        4
 70
   128
 43
0.0
 10
21.80763021139092
 20
13.63372591835832
 10
21.79722984511454
 20
13.64095864362446
 10
21.78722915684113
 20
13.64436483359878
 10
21.77801243322585
 20
13.64381394737592
  0
LINE
  5
145
330
2
100
AcDbEntity
  8
0
100
AcDbLine
 10
21.80763021139092
 20
13.63372591835832
 30
0.0
 11
21.91425159130734
 21
13.54138909478683
 31
0.0
  0
LWPOLYLINE
  5
146
330
2
100
AcDbEntity
  8
0
100
AcDbPolyline
 90
        3
 70
   128
 43
0.0
 10
21.91425159130734
 20
13.54138909478683
 10
21.98934835661066
 20
13.49505462596534
 10
22.04307783920808
 20
13.49102350470076
  0
LINE
  5
147
330
2
100
AcDbEntity
  8
0
100
AcDbLine
 10
24.73971776164888
 20
14.11262158001654
 30
0.0
 11
24.73971776164888
 21
10.67614574897408
 31
0.0
  0
ARC
  5
148
330
2
100
AcDbEntity
  8
0
100
AcDbCircle
 10
21.91027810610365
 20
13.06466384895913
 30
0.0
 40
0.2021343439616214
100
AcDbArc
 50
179.5143398835028
 51
222.5891566898016
  0
LINE
  5
149
330
2
100
AcDbEntity
  8
0
100
AcDbLine
 10
21.70815102364622
 20
13.5742296372706
 30
0.0
 11
21.70815102364622
 21
13.06637719354325
 31
0.0
  0
LINE
  5
14A
330
2
100
AcDbEntity
  8
0
100
AcDbLine
 10
21.76146171360449
 20
12.92787213014497
 30
0.0
 11
22.08132585333215
 21
12.650861659388
 31
0.0
  0
LINE
  5
14B
330
2
100
AcDbEntity
  8
0
100
AcDbLine
 10
5.199374352135463
 20
8.562324894717221
 30
0.0
 11
5.199374352135463
 21
11.93261800966337
 31
0.0
  0
LINE
  5
14C
330
2
100
AcDbEntity
  8
0
100
AcDbLine
 10
18.77288655932636
 20
14.00421768924849
 30
0.0
 11
18.0341919706268
 21
13.79097492941582
 31
0.0
  0
LINE
  5
14D
330
2
100
AcDbEntity
  8
0
100
AcDbLine
 10
18.77288655932636
 20
14.28122798800382
 30
0.0
 11
18.77288655932636
 21
14.00421768924849
 31
0.0
  0
LINE
  5
14E
330
2
100
AcDbEntity
  8
0
100
AcDbLine
 10
18.77288655932636
 20
14.28122798800382
 30
0.0
 11
18.0341919706268
 21
14.06798522819247
 31
0.0
  0
LINE
  5
14F
330
2
100
AcDbEntity
  8
0
100
AcDbLine
 10
18.0341919706268
 20
14.06798522819247
 30
0.0
 11
18.0341919706268
 21
13.79097492941582
 31
0.0
  0
LINE
  5
150
330
2
100
AcDbEntity
  8
0
100
AcDbLine
 10
9.631541884247099
 20
11.36533878478923
 30
0.0
 11
8.892847295569024
 21
11.15209602497782
 31
0.0
  0
LINE
  5
151
330
2
100
AcDbEntity
  8
0
100
AcDbLine
 10
9.631541884247099
 20
11.64234908354456
 30
0.0
 11
9.631541884247099
 21
11.36533878478923
 31
0.0
  0
LINE
  5
152
330
2
100
AcDbEntity
  8
0
100
AcDbLine
 10
9.631541884247099
 20
11.64234908354456
 30
0.0
 11
8.892847295569024
 21
11.42910632373321
 31
0.0
  0
LINE
  5
153
330
2
100
AcDbEntity
  8
0
100
AcDbLine
 10
8.892847295569024
 20
11.42910632373321
 30
0.0
 11
8.892847295569024
 21
11.15209602497782
 31
0.0
  0
LWPOLYLINE
  5
154
330
2
100
AcDbEntity
  8
0
100
AcDbPolyline
 90
        7
 70
   128
 43
0.0
 10
21.73189030801257
 20
13.63049975132549
 10
21.73184393543932
 20
13.63048625005416
 10
21.72376537561206
 20
13.62599935646312
 10
21.71713558647377
 20
13.61774844621033
 10
21.71220907106283
 20
13.60605110015052
 10
21.70917539092341
 20
13.59135647201094
 10
21.70815102364622
 20
13.5742296372706
  0
ARC
  5
155
330
2
100
AcDbEntity
  8
0
100
AcDbCircle
 10
21.6306312776461
 20
12.21597598378667
 30
0.0
 40
0.626299570005232
100
AcDbArc
 50
13.13109163540028
 51
43.9772953353001
  0
ARC
  5
156
330
2
100
AcDbEntity
  8
0
100
AcDbCircle
 10
20.69975044324451
 20
13.0504820710442
 30
0.0
 40
0.1313615257228627
100
AcDbArc
 50
287.2089174333017
 51
357.1688175609007
  0
LINE
  5
157
330
2
100
AcDbEntity
  8
0
100
AcDbLine
 10
20.73861463397782
 20
12.92500129513683
 30
0.0
 11
5.318368018950764
 21
8.47355952807038
 31
0.0
  0
LINE
  5
158
330
2
100
AcDbEntity
  8
0
100
AcDbLine
 10
20.8309516295509
 20
14.24437221997226
 30
0.0
 11
20.8309516295509
 21
13.04399368535314
 31
0.0
  0
LWPOLYLINE
  5
159
330
2
100
AcDbEntity
  8
0
100
AcDbPolyline
 90
        8
 70
   128
 43
0.0
 10
22.04307783920808
 20
13.49102350470076
 10
22.06953073494992
 20
13.51294788595771
 10
22.11054862054584
 20
13.58797341477799
 10
22.13192339993384
 20
13.69554835713433
 10
22.13192339993384
 20
13.82695751386711
 10
22.11054862054584
 20
13.97155431615607
 10
22.06953073494992
 20
14.11762559479797
 10
22.044220437131
 20
14.17753140838357
  0
LWPOLYLINE
  5
15A
330
2
100
AcDbEntity
  8
0
100
AcDbPolyline
 90
        2
 70
   128
 43
0.0
 10
21.9596105721472
 20
14.34046624959012
 10
21.89755890796584
 20
14.41856237522523
  0
LWPOLYLINE
  5
15B
330
2
100
AcDbEntity
  8
0
100
AcDbPolyline
 90
        2
 70
   128
 43
0.0
 10
21.89755890796584
 20
14.41856237522523
 10
21.87980041043238
 20
14.43836413924612
  0
ARC
  5
15C
330
2
100
AcDbEntity
  8
0
100
AcDbCircle
 10
21.91027594508057
 20
14.68055733967509
 30
0.0
 40
0.2021321871967286
100
AcDbArc
 50
179.5141952210023
 51
222.5893967577973
  0
ARC
  5
15D
330
2
100
AcDbEntity
  8
0
100
AcDbCircle
 10
21.53078379485135
 20
14.67543068485679
 30
0.0
 40
0.1313590151395757
100
AcDbArc
 50
287.2081354590032
 51
357.1692786496003
  0
LINE
  5
15E
330
2
100
AcDbEntity
  8
0
100
AcDbLine
 10
21.56964553028672
 20
14.54995177676375
 30
0.0
 11
20.92328793718161
 21
14.36336441157431
 31
0.0
  0
LINE
  5
15F
330
2
100
AcDbEntity
  8
0
100
AcDbLine
 10
21.70815102364622
 20
16.7136809512296
 30
0.0
 11
21.70815102364622
 21
14.6822711763167
 31
0.0
  0
LINE
  5
160
330
2
100
AcDbEntity
  8
0
100
AcDbLine
 10
21.6619825258598
 20
14.66894347901643
 30
0.0
 11
21.6619825258598
 21
16.65418475613967
 31
0.0
  0
LINE
  5
161
330
2
100
AcDbEntity
  8
0
100
AcDbLine
 10
21.87980041043238
 20
14.43836413924612
 30
0.0
 11
21.85558700820229
 21
14.45993061565889
 31
0.0
  0
LINE
  5
162
330
2
100
AcDbEntity
  8
0
100
AcDbLine
 10
21.78944328703517
 20
14.51884373281831
 30
0.0
 11
21.76146171360449
 21
14.54376645692162
 31
0.0
  0
ARC
  5
163
330
2
100
AcDbEntity
  8
0
100
AcDbCircle
 10
20.96215093917215
 20
14.23788530584795
 30
0.0
 40
0.1313595786377937
100
AcDbArc
 50
107.2086376752048
 51
177.1694182046991
  0
LWPOLYLINE
  5
164
330
2
100
AcDbEntity
  8
0
100
AcDbPolyline
 90
        7
 70
   128
 43
0.0
 10
5.199374352135463
 20
11.93261800966337
 10
5.199886535763424
 20
11.94118194300631
 10
5.201403326168815
 20
11.94852912807488
 10
5.203866633538495
 20
11.95437758612411
 10
5.207181528097065
 20
11.9585033852324
 10
5.211220808021379
 20
11.96074631605518
 10
5.211243944665056
 20
11.96075310969115
  0
LWPOLYLINE
  5
165
330
2
100
AcDbEntity
  8
0
100
AcDbPolyline
 90
        4
 70
   128
 43
0.0
 10
21.6619825258598
 20
16.70035325392615
 10
21.65678234273219
 20
16.70396996053046
 10
21.65178204823849
 20
16.70567301252794
 10
21.64717368643073
 20
16.70539722541326
  0
LINE
  5
166
330
2
100
AcDbEntity
  8
0
100
AcDbLine
 10
21.6619825258598
 20
16.65418475613967
 30
0.0
 11
21.6619825258598
 21
16.70035325392615
 31
0.0
  0
LINE
  5
167
330
2
100
AcDbEntity
  8
0
100
AcDbLine
 10
21.6619825258598
 20
16.70035325392615
 30
0.0
 11
21.70815102364622
 21
16.71368095122653
 31
0.0
  0
ARC
  5
168
330
2
100
AcDbEntity
  8
0
100
AcDbCircle
 10
5.351934636812869
 20
10.17675683544905
 30
0.0
 40
0.2182507987423323
100
AcDbArc
 50
180.5536595746947
 51
216.0803568636967
  0
LINE
  5
169
330
2
100
AcDbEntity
  8
0
100
AcDbLine
 10
5.133694027804608
 20
11.88287884932413
 30
0.0
 11
5.133694027804608
 21
10.17464787097754
 31
0.0
  0
LINE
  5
16A
330
2
100
AcDbEntity
  8
0
100
AcDbLine
 10
5.179861837627527
 20
11.94237484583936
 30
0.0
 11
5.201425344674362
 21
11.94859969414415
 31
0.0
  0
ARC
  5
16B
330
2
100
AcDbEntity
  8
0
100
AcDbCircle
 10
5.199293067591269
 20
11.87963587714392
 30
0.0
 40
0.0656791510947229
100
AcDbArc
 50
107.2085625796092
 51
177.1698141882998
  0
ARC
  5
16C
330
2
100
AcDbEntity
  8
0
100
AcDbCircle
 10
22.61795838578939
 20
12.24170648751925
 30
0.0
 40
0.1723544617009448
100
AcDbArc
 50
57.13638854680236
 51
107.6021872118065
  0
LINE
  5
16D
330
2
100
AcDbEntity
  8
0
100
AcDbLine
 10
22.71148500010827
 20
12.38647814526013
 30
0.0
 11
25.53695107116403
 21
9.93955275019425
 31
0.0
  0
LWPOLYLINE
  5
16E
330
2
100
AcDbEntity
  8
0
100
AcDbPolyline
 90
        9
 70
   128
 43
0.0
 10
25.49792476552784
 20
9.866728943786538
 10
25.51491470504937
 20
9.872816354297695
 10
25.52920255313677
 20
9.880443892839306
 10
25.54024031456322
 20
9.889318755463307
 10
25.54760290219645
 20
9.899099687192972
 10
25.55100722932514
 20
9.909410634504183
 10
25.55032330874951
 20
9.919855759341034
 10
25.54557718128751
 20
9.930033585168644
 10
25.53695107116403
 20
9.93955275019425
  0
LINE
  5
16F
330
2
100
AcDbEntity
  8
0
100
AcDbLine
 10
24.66689386921905
 20
9.626830987924847
 30
0.0
 11
25.49792476552784
 21
9.866728943786538
 31
0.0
  0
LINE
  5
170
330
2
100
AcDbEntity
  8
0
100
AcDbLine
 10
22.56583731457715
 20
12.40599116242379
 30
0.0
 11
21.73480641826813
 21
12.16609320658335
 31
0.0
  0
LWPOLYLINE
  5
171
330
2
100
AcDbEntity
  8
0
100
AcDbPolyline
 90
        9
 70
   128
 43
0.0
 10
23.50974456838493
 20
11.10874798731612
 10
23.44718896834536
 20
11.08131811068421
 10
23.41038895818986
 20
11.04400672059114
 10
23.40494754712984
 20
11.00249429976179
 10
23.43169194472318
 20
10.96310038522682
 10
23.48655200740234
 20
10.93182276409641
 10
23.56117433498059
 20
10.91342275377286
 10
23.64419956337632
 20
10.91070193056481
 10
23.72298730337491
 20
10.92407436164683
  0
LINE
  5
172
330
2
100
AcDbEntity
  8
0
100
AcDbLine
 10
23.72298730337491
 20
10.92407436164683
 30
0.0
 11
23.90766060657859
 21
10.97738495229782
 31
0.0
  0
LWPOLYLINE
  5
173
330
2
100
AcDbEntity
  8
0
100
AcDbPolyline
 90
        9
 70
   128
 43
0.0
 10
23.90766060657859
 20
10.97738495229782
 10
23.97021620661803
 20
11.00481482892979
 10
24.00701621677354
 20
11.04212621900149
 10
24.01245762783356
 20
11.08363863985215
 10
23.98571323024032
 20
11.12303255438712
 10
23.93085316756117
 20
11.15431017551759
 10
23.85623083998291
 20
11.17271018581982
 10
23.77320561158717
 20
11.17543100904913
 10
23.6944178715886
 20
11.16205857796717
  0
LINE
  5
174
330
2
100
AcDbEntity
  8
0
100
AcDbLine
 10
23.6944178715886
 20
11.16205857796717
 30
0.0
 11
23.50974456838493
 21
11.10874798731612
 31
0.0
  0
ARC
  5
175
330
2
100
AcDbEntity
  8
0
100
AcDbCircle
 10
22.61795838578939
 20
12.28787498530585
 30
0.0
 40
0.1723544617009058
100
AcDbArc
 50
57.13638854680236
 51
107.6021872118065
  0
LINE
  5
176
330
2
100
AcDbEntity
  8
0
100
AcDbLine
 10
21.70815129830294
 20
13.081766772089
 30
0.0
 11
21.68863792048183
 21
13.0761337451255
 31
0.0
  0
LINE
  5
177
330
2
100
AcDbEntity
  8
0
100
AcDbLine
 10
21.73480641826813
 20
12.96332689673687
 30
0.0
 11
21.73480641826813
 21
12.21226170436995
 31
0.0
  0
ARC
  5
178
330
2
100
AcDbEntity
  8
0
100
AcDbCircle
 10
21.72246326267122
 20
12.19761373028404
 30
0.0
 40
0.0338510990174674
100
AcDbArc
 50
177.7647556206018
 51
291.3848674345053
  0
LINE
  5
179
330
2
100
AcDbEntity
  8
0
100
AcDbLine
 10
21.68863792048183
 20
12.19893400704825
 30
0.0
 11
21.68863792048183
 21
13.0761337451255
 31
0.0
  0
LINE
  5
17A
330
2
100
AcDbEntity
  8
0
100
AcDbLine
 10
22.56583731457715
 20
12.45215966021033
 30
0.0
 11
21.73480641826813
 21
12.21226170436995
 31
0.0
  0
LINE
  5
17B
330
2
100
AcDbEntity
  8
0
100
AcDbLine
 10
25.53695107116403
 20
9.985721247980848
 30
0.0
 11
22.71148500010827
 21
12.43264664304661
 31
0.0
  0
ARC
  5
17C
330
2
100
AcDbEntity
  8
0
100
AcDbCircle
 10
24.65468849013041
 20
9.660952246574479
 30
0.0
 40
0.0362385370791251
100
AcDbArc
 50
231.2248071589955
 51
289.6824349112952
  0
LWPOLYLINE
  5
17D
330
2
100
AcDbEntity
  8
0
100
AcDbPolyline
 90
       10
 70
   128
 43
0.0
 10
22.1961488243827
 20
12.34543978552648
 10
22.17556674795583
 20
12.40929769968005
 10
22.13232863866732
 20
12.49678335334022
 10
22.08132585333215
 20
12.55852466381492
 10
22.03032306797559
 20
12.58512276888103
 10
21.98708495870846
 20
12.57252771730861
 10
21.95819424694582
 20
12.52265720552822
 10
21.94804917810097
 20
12.44310384932066
 10
21.95819424694582
 20
12.34597837444659
 10
21.97559985142687
 20
12.27869483537677
  0
LINE
  5
17E
330
2
100
AcDbEntity
  8
0
100
AcDbLine
 10
21.70815102364634
 20
14.67884350300375
 30
0.0
 11
21.70815102364634
 21
14.47872747479169
 31
0.0
  0
LINE
  5
17F
330
2
100
AcDbEntity
  8
0
100
AcDbLine
 10
21.70815102364634
 20
14.37567401216631
 30
0.0
 11
21.70815102364634
 21
14.14313285485337
 31
0.0
  0
LINE
  5
180
330
2
100
AcDbEntity
  8
0
100
AcDbLine
 10
21.70815102364634
 20
13.91762389951799
 30
0.0
 11
21.70815102364622
 21
13.15871418911621
 31
0.0
  0
LINE
  5
181
330
2
100
AcDbEntity
  8
0
100
AcDbLine
 10
2.805760850953673
 20
7.625116665546386
 30
0.0
 11
2.851928660776478
 21
7.638444164253768
 31
0.0
  0
ARC
  5
182
330
2
100
AcDbEntity
  8
0
100
AcDbCircle
 10
2.880169665927041
 20
7.693512838196397
 30
0.0
 40
0.1010678394953756
100
AcDbArc
 50
179.5143988047048
 51
222.5890500659958
  0
LINE
  5
183
330
2
100
AcDbEntity
  8
0
100
AcDbLine
 10
21.68863792048183
 20
13.0761337451255
 30
0.0
 11
21.61641656313361
 21
13.05528523507234
 31
0.0
  0
LINE
  5
184
330
2
100
AcDbEntity
  8
0
100
AcDbLine
 10
21.53745390410643
 20
13.03249067884974
 30
0.0
 11
2.851928660776478
 21
7.638444164253768
 31
0.0
  0
LINE
  5
185
330
2
100
AcDbEntity
  8
0
100
AcDbLine
 10
21.47730922267738
 20
14.29245409180208
 30
0.0
 11
21.47730922267738
 21
14.52329658073466
 31
0.0
  0
LINE
  5
186
330
2
100
AcDbEntity
  8
0
100
AcDbLine
 10
2.779105456331648
 20
9.264094897202539
 30
0.0
 11
2.779105456331648
 21
7.694369412215507
 31
0.0
  0
ARC
  5
187
330
2
100
AcDbEntity
  8
0
100
AcDbCircle
 10
2.910306358555999
 20
9.257606762519456
 30
0.0
 40
0.1313612295844776
100
AcDbArc
 50
107.2094559851007
 51
177.1689207830023
  0
LINE
  5
188
330
2
100
AcDbEntity
  8
0
100
AcDbLine
 10
2.871441075977258
 20
9.383086890211643
 30
0.0
 11
5.199375215427379
 21
10.05510359125264
 31
0.0
  0
LINE
  5
189
330
2
100
AcDbEntity
  8
0
100
AcDbLine
 10
21.15413042611407
 20
14.43000289814
 30
0.0
 11
21.15413042611407
 21
14.19916040920742
 31
0.0
  0
LINE
  5
18A
330
2
100
AcDbEntity
  8
0
100
AcDbLine
 10
21.15413042611407
 20
14.19916040920742
 30
0.0
 11
21.47730922267738
 21
14.29245409180208
 31
0.0
  0
LINE
  5
18B
330
2
100
AcDbEntity
  8
0
100
AcDbLine
 10
21.47730922267738
 20
13.6460964986756
 30
0.0
 11
21.47730922267738
 21
13.83077014586121
 31
0.0
  0
LINE
  5
18C
330
2
100
AcDbEntity
  8
0
100
AcDbLine
 10
21.47730922267738
 20
13.83077014586121
 30
0.0
 11
21.15413042611407
 21
13.73747646326649
 31
0.0
  0
LINE
  5
18D
330
2
100
AcDbEntity
  8
0
100
AcDbLine
 10
21.15413042611407
 20
13.73747646326649
 30
0.0
 11
21.15413042611407
 21
13.552802816081
 31
0.0
  0
LINE
  5
18E
330
2
100
AcDbEntity
  8
0
100
AcDbLine
 10
21.15413042611407
 20
13.552802816081
 30
0.0
 11
21.47730922267738
 21
13.6460964986756
 31
0.0
  0
LINE
  5
18F
330
2
100
AcDbEntity
  8
0
100
AcDbLine
 10
2.851928660776478
 20
7.638444164253768
 30
0.0
 11
5.784016111727281
 21
5.09918194561652
 31
0.0
  0
ARC
  5
190
330
2
100
AcDbEntity
  8
0
100
AcDbCircle
 10
25.51581470066083
 20
9.957239244773518
 30
0.0
 40
0.0354678821482397
100
AcDbArc
 50
2.951995516900581
 51
53.42105096630671
  0
LINE
  5
191
330
2
100
AcDbEntity
  8
0
100
AcDbLine
 10
1.97472926670241
 20
6.508018773035813
 30
0.0
 11
2.805760850953673
 21
6.747916927469191
 31
0.0
  0
LINE
  5
192
330
2
100
AcDbEntity
  8
0
100
AcDbLine
 10
2.805760850953673
 20
6.747916927469191
 30
0.0
 11
2.805760850953673
 21
7.625116665546386
 31
0.0
  0
LINE
  5
193
330
2
100
AcDbEntity
  8
0
100
AcDbLine
 10
2.851928660776478
 20
6.761244426176574
 30
0.0
 11
2.851928660776478
 21
7.638444164253768
 31
0.0
  0
ARC
  5
194
330
2
100
AcDbEntity
  8
0
100
AcDbCircle
 10
2.786328209664246
 20
6.764488493528745
 30
0.0
 40
0.0656806147922965
100
AcDbArc
 50
287.2094559851007
 51
357.1689207829028
  0
LINE
  5
195
330
2
100
AcDbEntity
  8
0
100
AcDbLine
 10
1.97472926670241
 20
6.461850275228016
 30
0.0
 11
2.805760850953673
 21
6.701748429682651
 31
0.0
  0
LINE
  5
196
330
2
100
AcDbEntity
  8
0
100
AcDbLine
 10
2.851928660776478
 20
6.761244426176574
 30
0.0
 11
5.784016111727281
 21
4.221982207539325
 31
0.0
  0
ARC
  5
197
330
2
100
AcDbEntity
  8
0
100
AcDbCircle
 10
5.71841566061505
 20
4.225226274891497
 30
0.0
 40
0.0656806147922627
100
AcDbArc
 50
287.2094559851007
 51
357.1689207829028
  0
ARC
  5
198
330
2
100
AcDbEntity
  8
0
100
AcDbCircle
 10
4.854695917323056
 20
4.086865211810446
 30
0.0
 40
0.1723472121932562
100
AcDbArc
 50
237.13526893439
 51
287.6028573528975
  0
LINE
  5
199
330
2
100
AcDbEntity
  8
0
100
AcDbLine
 10
4.761170408049338
 20
3.942101470961688
 30
0.0
 11
1.93570433699358
 21
6.38902686600619
 31
0.0
  0
LWPOLYLINE
  5
19A
330
2
100
AcDbEntity
  8
0
100
AcDbPolyline
 90
        9
 70
   128
 43
0.0
 10
1.97472926670241
 20
6.461850275228016
 10
1.957740015123363
 20
6.455763063331119
 10
1.943450791129747
 20
6.448135127560931
 10
1.932413717645658
 20
6.439260463551192
 10
1.925050442070073
 20
6.429479333228641
 10
1.921648178832583
 20
6.419168981717517
 10
1.92233141144436
 20
6.408723658266409
 10
1.927076162979004
 20
6.398545435252969
 10
1.93570433699358
 20
6.38902686600619
  0
LINE
  5
19B
330
2
100
AcDbEntity
  8
0
100
AcDbLine
 10
5.737848301904363
 20
4.162486211045461
 30
0.0
 11
4.906816717653213
 21
3.922588056590768
 31
0.0
  0
LINE
  5
19C
330
2
100
AcDbEntity
  8
0
100
AcDbLine
 10
3.962910151787696
 20
5.219831430291377
 30
0.0
 11
3.778236160641653
 21
5.166520641047383
 31
0.0
  0
LWPOLYLINE
  5
19D
330
2
100
AcDbEntity
  8
0
100
AcDbPolyline
 90
        9
 70
   128
 43
0.0
 10
3.749667416797705
 20
5.404505055982098
 10
3.828453780890185
 20
5.417877089856744
 10
3.911479697249773
 20
5.41515646524175
 10
3.986101336864179
 20
5.396756256325204
 10
4.040962775449428
 20
5.365479032380733
 10
4.067705797136681
 20
5.326084720659763
 10
4.062265074040396
 20
5.284572498423358
 10
4.02546437592116
 20
5.247260909737462
 10
3.962910151787696
 20
5.219831430291377
  0
LINE
  5
19E
330
2
100
AcDbEntity
  8
0
100
AcDbLine
 10
3.564993425651663
 20
5.35119426671673
 30
0.0
 11
3.749667416797705
 21
5.404505055982098
 31
0.0
  0
LWPOLYLINE
  5
19F
330
2
100
AcDbEntity
  8
0
100
AcDbPolyline
 90
        9
 70
   128
 43
0.0
 10
3.778236160641653
 20
5.166520641047383
 10
3.699449796570433
 20
5.153148607172681
 10
3.616423880211073
 20
5.155869231787675
 10
3.541802240596439
 20
5.174269440704278
 10
3.486940801989931
 20
5.205546664627377
 10
3.460197780323936
 20
5.244940976348289
 10
3.465638503420336
 20
5.286453198606068
 10
3.502439201539572
 20
5.323764787270646
 10
3.564993425651663
 20
5.35119426671673
  0
LINE
  5
1A0
330
2
100
AcDbEntity
  8
0
100
AcDbLine
 10
5.784016111727281
 20
4.221982207539325
 30
0.0
 11
5.784016111727281
 21
5.09918194561652
 31
0.0
  0
LWPOLYLINE
  5
1A1
330
2
100
AcDbEntity
  8
0
100
AcDbPolyline
 90
        7
 70
   128
 43
0.0
 10
1.92141851411486
 20
6.461850400486753
 10
1.921648178832583
 20
6.465337479504113
 10
1.925050442070073
 20
6.475647831015237
 10
1.932413717645658
 20
6.48542896133773
 10
1.943450791129747
 20
6.494303625368785
 10
1.957740015123363
 20
6.501931561117601
 10
1.97472926670241
 20
6.508018773035813
  0
LWPOLYLINE
  5
1A2
330
2
100
AcDbEntity
  8
0
100
AcDbPolyline
 90
       10
 70
   128
 43
0.0
 10
18.46570046545412
 20
13.06036666758769
 10
18.52043354805994
 20
13.00923220632211
 10
18.54580424141466
 20
12.92909331574452
 10
18.53786790218089
 20
12.83608063308941
 10
18.4976950004783
 20
12.74275510659612
 10
18.43071081124697
 20
12.6617208979074
 10
18.34596204571267
 20
12.60392251742741
 10
18.25489502953439
 20
12.57716591955682
 10
18.16980778629659
 20
12.58506453048034
 10
18.11067201568551
 20
12.62134939407718
  0
LWPOLYLINE
  5
1A3
330
2
100
AcDbEntity
  8
0
100
AcDbPolyline
 90
       16
 70
   128
 43
0.0
 10
9.084239113624107
 20
10.43017671501081
 10
9.085327470820743
 20
10.43070657302735
 10
9.174209517062877
 20
10.456093896308
 10
9.256222942357792
 20
10.44550480000578
 10
9.318879845379457
 20
10.40055115964895
 10
9.352643685317843
 20
10.32807743857796
 10
9.352372627948057
 20
10.23911680085524
 10
9.318109326997273
 20
10.14721275652857
 10
9.255067164805835
 20
10.06635611689069
 10
9.172847350641973
 20
10.00885780502659
 10
9.083965304421099
 20
9.983470825727918
 10
9.001951879126407
 20
9.994059578048279
 10
8.939293600177164
 20
10.03901282121916
 10
8.905529760239005
 20
10.11148654229015
 10
8.905800817587303
 20
10.20044718001287
 10
8.92711665802949
 20
10.26683855881924
  0
ARC
  5
1A4
330
2
100
AcDbEntity
  8
0
100
AcDbCircle
 10
5.295903869351603
 20
8.567586064676218
 30
0.0
 40
0.0966727862602447
100
AcDbArc
 50
183.1197180373444
 51
283.4368231249525
  0
ARC
  5
1A5
330
2
100
AcDbEntity
  8
0
100
AcDbCircle
 10
21.71296036917727
 20
16.63558742687985
 30
0.0
 40
0.0782414746110899
100
AcDbArc
 50
67.38216101075375
 51
93.52407748584914
  0
LINE
  5
1A6
330
2
100
AcDbEntity
  8
0
100
AcDbLine
 10
21.87482775354943
 20
11.95002214523424
 30
0.0
 11
22.02009845215207
 21
11.8242140298114
 31
0.0
  0
LINE
  5
1A7
330
2
100
AcDbEntity
  8
0
100
AcDbLine
 10
21.91204226939317
 20
11.93716865992911
 30
0.0
 11
21.95627759163017
 21
11.94993829752127
 31
0.0
  0
ARC
  5
1A8
330
2
100
AcDbEntity
  8
0
100
AcDbCircle
 10
21.94263396056181
 20
12.05789646788906
 30
0.0
 40
0.124543386740375
100
AcDbArc
 50
174.8069247138021
 51
197.7982758284837
  0
ARC
  5
1A9
330
2
100
AcDbEntity
  8
0
100
AcDbCircle
 10
21.94263396056181
 20
12.05789646788906
 30
0.0
 40
0.124543386740375
100
AcDbArc
 50
238.8205845890726
 51
255.7808851649026
  0
LWPOLYLINE
  5
1AA
330
2
100
AcDbEntity
  8
0
100
AcDbPolyline
 90
        3
 70
   128
 43
0.0
 10
22.02009845215207
 20
11.8242140298114
 10
22.04039679555001
 20
11.81023624852344
 10
22.07197428960353
 20
11.79866346754028
  0
LINE
  5
1AB
330
2
100
AcDbEntity
  8
0
100
AcDbLine
 10
22.07197428960353
 20
11.79866346754028
 30
0.0
 11
22.11620961184042
 21
11.81143310515387
 31
0.0
  0
ELLIPSE
  5
1AC
330
2
100
AcDbEntity
  8
0
100
AcDbEllipse
 10
22.03859151104132
 20
12.10690264196933
 30
0.0
 11
0.0184930588891826
 21
0.2826886121579176
 31
0.0
210
0.0
220
0.0
230
1.0
 40
0.6128168285279187
 41
1.901834973623699
 42
6.870853096261242
  0
ELLIPSE
  5
1AD
330
2
100
AcDbEntity
  8
0
100
AcDbEllipse
 10
22.0970858391496
 20
11.77020500499213
 30
0.0
 11
-0.0455233000266227
 21
0.0704651339788705
 31
0.0
210
0.0
220
0.0
230
0.9999999999999998
 40
0.6994241437507363
 41
0.0
 42
6.283185307179584
  0
ARC
  5
1AE
330
2
100
AcDbEntity
  8
0
100
AcDbCircle
 10
21.56187187159128
 20
17.71629469695489
 30
0.0
 40
6.041907002565187
100
AcDbArc
 50
275.5546823295032
 51
339.4343720710991
  0
POLYLINE
  5
1AF
330
2
100
AcDbEntity
  8
0
100
AcDb2dPolyline
 66
     1
 10
0.0
 20
0.0
 30
0.0
 70
     2
  0
VERTEX
  5
1B0
330
1AF
100
AcDbEntity
  8
0
100
AcDbVertex
100
AcDb2dVertex
 10
21.70815102364634
 20
14.14313285485337
 30
0.0
 42
0.0067045199463909
  0
VERTEX
  5
1B1
330
1AF
100
AcDbEntity
  8
0
100
AcDbVertex
100
AcDb2dVertex
 10
21.96246607141984
 20
14.34276963883474
 30
0.0
 42
0.0501186739966826
 70
     1
  0
VERTEX
  5
1B2
330
1AF
100
AcDbEntity
  8
0
100
AcDbVertex
100
AcDb2dVertex
 10
21.9933170305028
 20
14.37323371816723
 30
0.0
 42
0.0172839214496608
  0
VERTEX
  5
1B3
330
1AF
100
AcDbEntity
  8
0
100
AcDbVertex
100
AcDb2dVertex
 10
22.55266037303375
 20
15.09843602121054
 30
0.0
 42
0.0066833728106379
 70
     1
  0
VERTEX
  5
1B4
330
1AF
100
AcDbEntity
  8
0
100
AcDbVertex
100
AcDb2dVertex
 10
23.9073192800895
 20
17.04054656539728
 30
0.0
 42
0.0058690167807455
  0
VERTEX
  5
1B5
330
1AF
100
AcDbEntity
  8
0
100
AcDbVertex
100
AcDb2dVertex
 10
24.34503146234419
 20
17.70290882276009
 30
0.0
 42
-0.0055899550345994
 70
     1
  0
VERTEX
  5
1B6
330
1AF
100
AcDbEntity
  8
0
100
AcDbVertex
100
AcDb2dVertex
 10
24.80420545021059
 20
18.39859168101924
 30
0.0
 42
-0.0583248844971142
  0
VERTEX
  5
1B7
330
1AF
100
AcDbEntity
  8
0
100
AcDbVertex
100
AcDb2dVertex
 10
25.31354890440776
 20
18.98986661741662
 30
0.0
 42
-0.0473375732486717
 70
     1
  0
VERTEX
  5
1B8
330
1AF
100
AcDbEntity
  8
0
100
AcDbVertex
100
AcDb2dVertex
 10
26.07895824514083
 20
19.57002118095323
 30
0.0
 42
-0.174617249837134
  0
VERTEX
  5
1B9
330
1AF
100
AcDbEntity
  8
0
100
AcDbVertex
100
AcDb2dVertex
 10
27.05706812568997
 20
19.77668570920229
 30
0.0
 42
-0.1834518074477105
 70
     1
  0
VERTEX
  5
1BA
330
1AF
100
AcDbEntity
  8
0
100
AcDbVertex
100
AcDb2dVertex
 10
27.89452666713169
 20
19.31875559477754
 30
0.0
 42
-0.0396751802337727
  0
VERTEX
  5
1BB
330
1AF
100
AcDbEntity
  8
0
100
AcDbVertex
100
AcDb2dVertex
 10
28.21767063612049
 20
18.87390190020693
 30
0.0
 42
-0.059738168795049
 70
     1
  0
VERTEX
  5
1BC
330
1AF
100
AcDbEntity
  8
0
100
AcDbVertex
100
AcDb2dVertex
 10
28.37006562346289
 20
18.54124829078716
 30
0.0
 42
-0.0348577842408616
  0
VERTEX
  5
1BD
330
1AF
100
AcDbEntity
  8
0
100
AcDbVertex
100
AcDb2dVertex
 10
28.48996143522595
 20
18.05250384950949
 30
0.0
 42
-0.0505908605494362
 70
     1
  0
VERTEX
  5
1BE
330
1AF
100
AcDbEntity
  8
0
100
AcDbVertex
100
AcDb2dVertex
 10
28.51416968992101
 20
17.70614709811724
 30
0.0
 42
-0.0772983630562495
  0
VERTEX
  5
1BF
330
1AF
100
AcDbEntity
  8
0
100
AcDbVertex
100
AcDb2dVertex
 10
28.48155826321784
 20
17.53246592244676
 30
0.0
 42
-0.0454054468664174
 70
     1
  0
VERTEX
  5
1C0
330
1AF
100
AcDbEntity
  8
0
100
AcDbVertex
100
AcDb2dVertex
 10
28.35645850041045
 20
17.2601547351091
 30
0.0
  0
SEQEND
  5
1C1
330
1AF
100
AcDbEntity
  8
0
  0
POLYLINE
  5
1C2
330
2
100
AcDbEntity
  8
0
100
AcDb2dPolyline
 66
     1
 10
0.0
 20
0.0
 30
0.0
  0
VERTEX
  5
1C3
330
1C2
100
AcDbEntity
  8
0
100
AcDbVertex
100
AcDb2dVertex
 10
21.70815102364634
 20
13.91762389951799
 30
0.0
 42
0.0095008428507942
  0
VERTEX
  5
1C4
330
1C2
100
AcDbEntity
  8
0
100
AcDbVertex
100
AcDb2dVertex
 10
22.07549969045453
 20
14.20268608888
 30
0.0
 42
0.0501186739966924
  0
VERTEX
  5
1C5
330
1C2
100
AcDbEntity
  8
0
100
AcDbVertex
100
AcDb2dVertex
 10
22.13196306618966
 20
14.25844139791746
 30
0.0
 42
0.0172839214496618
  0
VERTEX
  5
1C6
330
1C2
100
AcDbEntity
  8
0
100
AcDbVertex
100
AcDb2dVertex
 10
22.6989043972344
 20
14.99349467861572
 30
0.0
 42
0.0066833728106379
  0
VERTEX
  5
1C7
330
1C2
100
AcDbEntity
  8
0
100
AcDbVertex
100
AcDb2dVertex
 10
24.05631612270577
 20
16.93955180865021
 30
0.0
 42
0.0058690167807453
  0
VERTEX
  5
1C8
330
1C2
100
AcDbEntity
  8
0
100
AcDbVertex
100
AcDb2dVertex
 10
24.49635796448899
 20
17.60543939294433
 30
0.0
 42
-0.0055899550345992
  0
VERTEX
  5
1C9
330
1C2
100
AcDbEntity
  8
0
100
AcDbVertex
100
AcDb2dVertex
 10
24.95331493137201
 20
18.29776329896458
 30
0.0
 42
-0.0583248844971176
  0
VERTEX
  5
1CA
330
1C2
100
AcDbEntity
  8
0
100
AcDbVertex
100
AcDb2dVertex
 10
25.43534343169108
 20
18.85732947875794
 30
0.0
 42
-0.0473375732486709
  0
VERTEX
  5
1CB
330
1C2
100
AcDbEntity
  8
0
100
AcDbVertex
100
AcDb2dVertex
 10
26.17365127708672
 20
19.41694201940311
 30
0.0
 42
-0.1746172498371493
  0
VERTEX
  5
1CC
330
1C2
100
AcDbEntity
  8
0
100
AcDbVertex
100
AcDb2dVertex
 10
27.03239221643173
 20
19.59838512170392
 30
0.0
 42
-0.1834518074477271
  0
VERTEX
  5
1CD
330
1C2
100
AcDbEntity
  8
0
100
AcDbVertex
100
AcDb2dVertex
 10
27.75773299567061
 20
19.20176204175772
 30
0.0
 42
-0.0396751802337699
  0
VERTEX
  5
1CE
330
1C2
100
AcDbEntity
  8
0
100
AcDbVertex
100
AcDb2dVertex
 10
28.06411468045224
 20
18.77998401863573
 30
0.0
 42
-0.0597381687950483
  0
VERTEX
  5
1CF
330
1C2
100
AcDbEntity
  8
0
100
AcDbVertex
100
AcDb2dVertex
 10
28.19865935466408
 20
18.48629475571931
 30
0.0
 42
-0.0348577842408601
  0
VERTEX
  5
1D0
330
1C2
100
AcDbEntity
  8
0
100
AcDbVertex
100
AcDb2dVertex
 10
28.31258292304369
 20
18.02189562486308
 30
0.0
 42
-0.0505908605494308
  0
VERTEX
  5
1D1
330
1C2
100
AcDbEntity
  8
0
100
AcDbVertex
100
AcDb2dVertex
 10
28.33425793947879
 20
17.71178288136354
 30
0.0
 42
-0.0772983630562457
  0
VERTEX
  5
1D2
330
1C2
100
AcDbEntity
  8
0
100
AcDbVertex
100
AcDb2dVertex
 10
28.31185611312321
 20
17.59247575708467
 30
0.0
 42
-0.0436351082091407
  0
VERTEX
  5
1D3
330
1C2
100
AcDbEntity
  8
0
100
AcDbVertex
100
AcDb2dVertex
 10
28.20553027696452
 20
17.35885805580639
 30
0.0
 42
-0.0454054468664149
  0
SEQEND
  5
1D4
330
1C2
100
AcDbEntity
  8
0
  0
POLYLINE
  5
1D5
330
2
100
AcDbEntity
  8
0
100
AcDb2dPolyline
 66
     1
 10
0.0
 20
0.0
 30
0.0
 70
     2
  0
VERTEX
  5
1D6
330
1D5
100
AcDbEntity
  8
0
100
AcDbVertex
100
AcDb2dVertex
 10
21.86146346289957
 20
12.03204975682496
 30
0.0
 42
-0.0522236093001447
  0
VERTEX
  5
1D7
330
1D5
100
AcDbEntity
  8
0
100
AcDbVertex
100
AcDb2dVertex
 10
21.84054164015163
 20
12.02270389187907
 30
0.0
 42
-0.0716608154131766
 70
     1
  0
VERTEX
  5
1D8
330
1D5
100
AcDbEntity
  8
0
100
AcDbVertex
100
AcDb2dVertex
 10
21.82405139573791
 20
12.01982770772338
 30
0.0
 42
-0.0981337861266901
  0
VERTEX
  5
1D9
330
1D5
100
AcDbEntity
  8
0
100
AcDbVertex
100
AcDb2dVertex
 10
21.78495191640343
 20
12.02638002946111
 30
0.0
 42
-0.081569919082386
 70
     1
  0
VERTEX
  5
1DA
330
1D5
100
AcDbEntity
  8
0
100
AcDbVertex
100
AcDb2dVertex
 10
21.74378899300632
 20
12.05019266662668
 30
0.0
 42
-0.085903982657382
  0
VERTEX
  5
1DB
330
1D5
100
AcDbEntity
  8
0
100
AcDbVertex
100
AcDb2dVertex
 10
21.69538049557741
 20
12.10626574792445
 30
0.0
 42
-0.0972633807585109
 70
     1
  0
VERTEX
  5
1DC
330
1D5
100
AcDbEntity
  8
0
100
AcDbVertex
100
AcDb2dVertex
 10
21.6730925901494
 20
12.16792274402547
 30
0.0
 42
-0.0090938820223754
  0
VERTEX
  5
1DD
330
1D5
100
AcDbEntity
  8
0
100
AcDbVertex
100
AcDb2dVertex
 10
21.66557750193806
 20
12.22334995785047
 30
0.0
 42
-0.0067669099887715
 70
     1
  0
VERTEX
  5
1DE
330
1D5
100
AcDbEntity
  8
0
100
AcDbVertex
100
AcDb2dVertex
 10
21.65784593250442
 20
12.29811728680687
 30
0.0
 42
-0.0088501182275486
  0
VERTEX
  5
1DF
330
1D5
100
AcDbEntity
  8
0
100
AcDbVertex
100
AcDb2dVertex
 10
21.65038674234131
 20
12.40181444739181
 30
0.0
 42
-0.0012355515575566
 70
     1
  0
VERTEX
  5
1E0
330
1D5
100
AcDbEntity
  8
0
100
AcDbVertex
100
AcDb2dVertex
 10
21.61195254460927
 20
13.14545509721461
 30
0.0
 42
-0.0195778265971305
  0
VERTEX
  5
1E1
330
1D5
100
AcDbEntity
  8
0
100
AcDbVertex
100
AcDb2dVertex
 10
21.60286381579999
 20
14.05283383987074
 30
0.0
 42
-0.0790087975948558
 70
     1
  0
VERTEX
  5
1E2
330
1D5
100
AcDbEntity
  8
0
100
AcDbVertex
100
AcDb2dVertex
 10
21.64487260562783
 20
14.27506855828989
 30
0.0
 42
-0.2230685931993146
  0
VERTEX
  5
1E3
330
1D5
100
AcDbEntity
  8
0
100
AcDbVertex
100
AcDb2dVertex
 10
21.81048802958662
 20
14.44132546570392
 30
0.0
 42
0.1514243915724875
 70
     1
  0
VERTEX
  5
1E4
330
1D5
100
AcDbEntity
  8
0
100
AcDbVertex
100
AcDb2dVertex
 10
22.07887515892355
 20
14.64490845734923
 30
0.0
 42
0.0084154427520946
  0
VERTEX
  5
1E5
330
1D5
100
AcDbEntity
  8
0
100
AcDbVertex
100
AcDb2dVertex
 10
22.60639050482109
 20
15.40865259395047
 30
0.0
 42
-0.0035690854634239
 70
     1
  0
VERTEX
  5
1E6
330
1D5
100
AcDbEntity
  8
0
100
AcDbVertex
100
AcDb2dVertex
 10
23.83262014146215
 20
17.22132808217367
 30
0.0
 42
-0.0022600936830834
  0
VERTEX
  5
1E7
330
1D5
100
AcDbEntity
  8
0
100
AcDbVertex
100
AcDb2dVertex
 10
24.53217939935792
 20
18.22991369356561
 30
0.0
 42
-0.0024018306525935
 70
     1
  0
VERTEX
  5
1E8
330
1D5
100
AcDbEntity
  8
0
100
AcDbVertex
100
AcDb2dVertex
 10
25.19927686542462
 20
19.17280238934518
 30
0.0
 42
-0.2068838122284174
  0
VERTEX
  5
1E9
330
1D5
100
AcDbEntity
  8
0
100
AcDbVertex
100
AcDb2dVertex
 10
26.52414979295418
 20
19.97100403556595
 30
0.0
 42
-0.2177678617245061
 70
     1
  0
VERTEX
  5
1EA
330
1D5
100
AcDbEntity
  8
0
100
AcDbVertex
100
AcDb2dVertex
 10
27.93650657886974
 20
19.54243003033503
 30
0.0
 42
-0.0490479462761191
  0
VERTEX
  5
1EB
330
1D5
100
AcDbEntity
  8
0
100
AcDbVertex
100
AcDb2dVertex
 10
28.4024321430137
 20
19.04161426351504
 30
0.0
 42
-0.077969508977539
 70
     1
  0
VERTEX
  5
1EC
330
1D5
100
AcDbEntity
  8
0
100
AcDbVertex
100
AcDb2dVertex
 10
28.60784765376138
 20
18.66171373912476
 30
0.0
 42
-0.0451372916589528
  0
VERTEX
  5
1ED
330
1D5
100
AcDbEntity
  8
0
100
AcDbVertex
100
AcDb2dVertex
 10
28.7565802051389
 20
18.07885121063651
 30
0.0
 42
-0.0672992237023312
 70
     1
  0
VERTEX
  5
1EE
330
1D5
100
AcDbEntity
  8
0
100
AcDbVertex
100
AcDb2dVertex
 10
28.7667855521546
 20
17.67452664177597
 30
0.0
 42
-0.082833913616645
  0
VERTEX
  5
1EF
330
1D5
100
AcDbEntity
  8
0
100
AcDbVertex
100
AcDb2dVertex
 10
28.70415888857611
 20
17.45209618483312
 30
0.0
 42
-0.0543039207141835
 70
     1
  0
VERTEX
  5
1F0
330
1D5
100
AcDbEntity
  8
0
100
AcDbVertex
100
AcDb2dVertex
 10
28.52116316217018
 20
17.15244224058875
 30
0.0
  0
SEQEND
  5
1F1
330
1D5
100
AcDbEntity
  8
0
  0
POLYLINE
  5
1F2
330
2
100
AcDbEntity
  8
0
100
AcDb2dPolyline
 66
     1
 10
0.0
 20
0.0
 30
0.0
  0
VERTEX
  5
1F3
330
1F2
100
AcDbEntity
  8
0
100
AcDbVertex
100
AcDb2dVertex
 10
21.92390553712869
 20
11.97797333427707
 30
0.0
 42
-0.0880119848073951
  0
VERTEX
  5
1F4
330
1F2
100
AcDbEntity
  8
0
100
AcDbVertex
100
AcDb2dVertex
 10
21.86538455319317
 20
11.94665897310329
 30
0.0
 42
-0.0716608154131926
  0
VERTEX
  5
1F5
330
1F2
100
AcDbEntity
  8
0
100
AcDbVertex
100
AcDb2dVertex
 10
21.82641930489217
 20
11.93986275911311
 30
0.0
 42
-0.098133786126553
  0
VERTEX
  5
1F6
330
1F2
100
AcDbEntity
  8
0
100
AcDbVertex
100
AcDb2dVertex
 10
21.75664429900155
 20
11.95155570990505
 30
0.0
 42
-0.0815699190824735
  0
VERTEX
  5
1F7
330
1F2
100
AcDbEntity
  8
0
100
AcDbVertex
100
AcDb2dVertex
 10
21.6930366257559
 20
11.98835257268689
 30
0.0
 42
-0.0859039826574027
  0
VERTEX
  5
1F8
330
1F2
100
AcDbEntity
  8
0
100
AcDbVertex
100
AcDb2dVertex
 10
21.62679606427253
 20
12.06508109322652
 30
0.0
 42
-0.0972633807585175
  0
VERTEX
  5
1F9
330
1F2
100
AcDbEntity
  8
0
100
AcDbVertex
100
AcDb2dVertex
 10
21.59402651896244
 20
12.15573437304868
 30
0.0
 42
-0.0090938820223737
  0
VERTEX
  5
1FA
330
1F2
100
AcDbEntity
  8
0
100
AcDbVertex
100
AcDb2dVertex
 10
21.58612048293412
 20
12.21404500588875
 30
0.0
 42
-0.0067669099887718
  0
VERTEX
  5
1FB
330
1F2
100
AcDbEntity
  8
0
100
AcDbVertex
100
AcDb2dVertex
 10
21.57816618971788
 20
12.29096616175724
 30
0.0
 42
-0.0088501182275505
  0
VERTEX
  5
1FC
330
1F2
100
AcDbEntity
  8
0
100
AcDbVertex
100
AcDb2dVertex
 10
21.57050382506986
 20
12.39748784038397
 30
0.0
 42
-0.0012355515575567
  0
VERTEX
  5
1FD
330
1F2
100
AcDbEntity
  8
0
100
AcDbVertex
100
AcDb2dVertex
 10
21.53204922003476
 20
13.14152333908953
 30
0.0
 42
-0.0195778265971307
  0
VERTEX
  5
1FE
330
1F2
100
AcDbEntity
  8
0
100
AcDbVertex
100
AcDb2dVertex
 10
21.52289776620888
 20
14.05516427175979
 30
0.0
 42
-0.0790087975948656
  0
VERTEX
  5
1FF
330
1F2
100
AcDbEntity
  8
0
100
AcDbVertex
100
AcDb2dVertex
 10
21.56957344428963
 20
14.30208774224803
 30
0.0
 42
-0.2230685931993589
  0
VERTEX
  5
200
330
1F2
100
AcDbEntity
  8
0
100
AcDbVertex
100
AcDb2dVertex
 10
21.78317795374528
 20
14.51651961280015
 30
0.0
 42
0.1514243915725038
  0
VERTEX
  5
201
330
1F2
100
AcDbEntity
  8
0
100
AcDbVertex
100
AcDb2dVertex
 10
22.01382467187977
 20
14.69147490595083
 30
0.0
 42
0.0084154427520943
  0
VERTEX
  5
202
330
1F2
100
AcDbEntity
  8
0
100
AcDbVertex
100
AcDb2dVertex
 10
22.5398096912561
 20
15.45300341429265
 30
0.0
 42
-0.0035690854634239
  0
VERTEX
  5
203
330
1F2
100
AcDbEntity
  8
0
100
AcDbVertex
100
AcDb2dVertex
 10
23.76667925604977
 20
17.2666248771049
 30
0.0
 42
-0.0022600936830835
  0
VERTEX
  5
204
330
1F2
100
AcDbEntity
  8
0
100
AcDbVertex
100
AcDb2dVertex
 10
24.46665070226402
 20
18.27580475867825
 30
0.0
 42
-0.0024018306525934
  0
VERTEX
  5
205
330
1F2
100
AcDbEntity
  8
0
100
AcDbVertex
100
AcDb2dVertex
 10
25.13419207510356
 20
19.21932088103256
 30
0.0
 42
-0.2068838122284107
  0
VERTEX
  5
206
330
1F2
100
AcDbEntity
  8
0
100
AcDbVertex
100
AcDb2dVertex
 10
26.51344399197149
 20
20.05028446080018
 30
0.0
 42
-0.2177678617245121
  0
VERTEX
  5
207
330
1F2
100
AcDbEntity
  8
0
100
AcDbVertex
100
AcDb2dVertex
 10
27.9894648777738
 20
19.60239183965723
 30
0.0
 42
-0.0490479462761149
  0
VERTEX
  5
208
330
1F2
100
AcDbEntity
  8
0
100
AcDbVertex
100
AcDb2dVertex
 10
28.46605556503096
 20
19.09011230647354
 30
0.0
 42
-0.0779695089775292
  0
VERTEX
  5
209
330
1F2
100
AcDbEntity
  8
0
100
AcDbVertex
100
AcDb2dVertex
 10
28.68326648975449
 20
18.68839705183973
 30
0.0
 42
-0.0451372916589505
  0
VERTEX
  5
20A
330
1F2
100
AcDbEntity
  8
0
100
AcDbVertex
100
AcDb2dVertex
 10
28.83556308658979
 20
18.09156751661396
 30
0.0
 42
-0.067299223702331
  0
VERTEX
  5
20B
330
1F2
100
AcDbEntity
  8
0
100
AcDbVertex
100
AcDb2dVertex
 10
28.84630938322779
 20
17.66581112162811
 30
0.0
 42
-0.0828339136166399
  0
VERTEX
  5
20C
330
1F2
100
AcDbEntity
  8
0
100
AcDbVertex
100
AcDb2dVertex
 10
28.77654782387413
 20
17.41803973101861
 30
0.0
 42
-0.0533874513855136
  0
VERTEX
  5
20D
330
1F2
100
AcDbEntity
  8
0
100
AcDbVertex
100
AcDb2dVertex
 10
28.58830943757335
 20
17.10853066101467
 30
0.0
 42
-0.0543039207141832
  0
SEQEND
  5
20E
330
1F2
100
AcDbEntity
  8
0
  0
POLYLINE
  5
20F
330
2
100
AcDbEntity
  8
0
100
AcDb2dPolyline
 66
     1
 10
0.0
 20
0.0
 30
0.0
  0
VERTEX
  5
210
330
20F
100
AcDbEntity
  8
0
100
AcDbVertex
100
AcDb2dVertex
 10
28.82081460102791
 20
16.94861504767209
 30
0.0
 42
-0.0126313408439932
  0
VERTEX
  5
211
330
20F
100
AcDbEntity
  8
0
100
AcDbVertex
100
AcDb2dVertex
 10
29.6962084580349
 20
18.84855054574916
 30
0.0
 42
-0.0199910048208844
  0
VERTEX
  5
212
330
20F
100
AcDbEntity
  8
0
100
AcDbVertex
100
AcDb2dVertex
 10
30.32656297629308
 20
20.01069353384435
 30
0.0
 42
-0.0063314807418255
  0
VERTEX
  5
213
330
20F
100
AcDbEntity
  8
0
100
AcDbVertex
100
AcDb2dVertex
 10
31.60706196832086
 20
22.10095473107128
 30
0.0
 42
-0.0124454299934577
  0
VERTEX
  5
214
330
20F
100
AcDbEntity
  8
0
100
AcDbVertex
100
AcDb2dVertex
 10
32.29804605330662
 20
23.13926508503471
 30
0.0
 42
-0.0618612185897802
  0
VERTEX
  5
215
330
20F
100
AcDbEntity
  8
0
100
AcDbVertex
100
AcDb2dVertex
 10
33.43894600388467
 20
24.39974886158223
 30
0.0
 42
-0.0937738624238892
  0
VERTEX
  5
216
330
20F
100
AcDbEntity
  8
0
100
AcDbVertex
100
AcDb2dVertex
 10
34.41448939000963
 20
24.96426796837738
 30
0.0
 42
-0.0949537826242413
  0
VERTEX
  5
217
330
20F
100
AcDbEntity
  8
0
100
AcDbVertex
100
AcDb2dVertex
 10
34.66552835146194
 20
25.00175913593864
 30
0.0
 42
-0.1621662346149622
  0
VERTEX
  5
218
330
20F
100
AcDbEntity
  8
0
100
AcDbVertex
100
AcDb2dVertex
 10
36.74640498359236
 20
24.21226895376097
 30
0.0
  0
SEQEND
  5
219
330
20F
100
AcDbEntity
  8
0
  0
POLYLINE
  5
21A
330
2
100
AcDbEntity
  8
0
100
AcDb2dPolyline
 66
     1
 10
0.0
 20
0.0
 30
0.0
  0
VERTEX
  5
21B
330
21A
100
AcDbEntity
  8
0
100
AcDbVertex
100
AcDb2dVertex
 10
28.96547664124705
 20
16.82934278627505
 30
0.0
 42
-0.0129488501704755
  0
VERTEX
  5
21C
330
21A
100
AcDbEntity
  8
0
100
AcDbVertex
100
AcDb2dVertex
 10
29.85773545981727
 20
18.76912115764122
 30
0.0
 42
-0.0199910048208844
  0
VERTEX
  5
21D
330
21A
100
AcDbEntity
  8
0
100
AcDbVertex
100
AcDb2dVertex
 10
30.48123008577784
 20
19.91861701542831
 30
0.0
 42
-0.0063314807418256
  0
VERTEX
  5
21E
330
21A
100
AcDbEntity
  8
0
100
AcDbVertex
100
AcDb2dVertex
 10
31.75934783746936
 20
22.00499112308524
 30
0.0
 42
-0.0124454299934575
  0
VERTEX
  5
21F
330
21A
100
AcDbEntity
  8
0
100
AcDbVertex
100
AcDb2dVertex
 10
32.44536826776549
 20
23.03584281892665
 30
0.0
 42
-0.0618612185897826
  0
VERTEX
  5
220
330
21A
100
AcDbEntity
  8
0
100
AcDbVertex
100
AcDb2dVertex
 10
33.55649297284993
 20
24.26343044724621
 30
0.0
 42
-0.0937738624238907
  0
VERTEX
  5
221
330
21A
100
AcDbEntity
  8
0
100
AcDbVertex
100
AcDb2dVertex
 10
34.47410762403206
 20
24.79442784893541
 30
0.0
 42
-0.094953782624239
  0
VERTEX
  5
222
330
21A
100
AcDbEntity
  8
0
100
AcDbVertex
100
AcDb2dVertex
 10
34.65813395499754
 20
24.8219110809007
 30
0.0
 42
-0.1524812699082887
  0
VERTEX
  5
223
330
21A
100
AcDbEntity
  8
0
100
AcDbVertex
100
AcDb2dVertex
 10
36.5332685272358
 20
24.15074175853656
 30
0.0
 42
-0.0412505636532654
  0
SEQEND
  5
224
330
21A
100
AcDbEntity
  8
0
  0
ARC
  5
225
330
2
100
AcDbEntity
  8
0
100
AcDbCircle
 10
31.94938206065775
 20
13.38217222112834
 30
0.0
 40
4.469733548998561
100
AcDbArc
 50
68.77031941282466
 51
130.7492126854624
  0
ARC
  5
226
330
2
100
AcDbEntity
  8
0
100
AcDbCircle
 10
31.94938206065775
 20
13.38217222112834
 30
0.0
 40
4.549733548998561
100
AcDbArc
 50
67.88232383255795
 51
130.7492126854624
  0
ELLIPSE
  5
227
330
2
100
AcDbEntity
  8
0
100
AcDbEllipse
 10
28.50877152274313
 20
18.37796537003794
 30
0.0
 11
-0.2975199166743347
 21
-0.0738179717522064
 31
0.0
210
0.0
220
0.0
230
1.0
 40
0.5660109677204617
 41
2.583794123332249
 42
6.794339374965185
  0
ELLIPSE
  5
228
330
2
100
AcDbEntity
  8
0
100
AcDbEllipse
 10
28.50877152274313
 20
18.37796537003794
 30
0.0
 11
-0.2975199166743347
 21
-0.0738179717522064
 31
0.0
210
0.0
220
0.0
230
1.0
 40
0.5660109677204617
 41
7.559267606818733
 42
8.479226141818768
  0
ELLIPSE
  5
229
330
2
100
AcDbEntity
  8
0
100
AcDbEllipse
 10
26.49726037059941
 20
19.80468727747205
 30
0.0
 11
-0.0487725195990834
 21
0.2654057707878508
 31
0.0
210
0.0
220
0.0
230
1.0
 40
0.5611334380277662
 41
5.79298932616165
 42
9.944559693964292
  0
ELLIPSE
  5
22A
330
2
100
AcDbEntity
  8
0
100
AcDbEllipse
 10
26.49726037059941
 20
19.80468727747205
 30
0.0
 11
-0.0487725195990834
 21
0.2654057707878508
 31
0.0
210
0.0
220
0.0
230
1.0
 40
0.5611334380277662
 41
10.78786918776028
 42
11.60379770470409
  0
ELLIPSE
  5
22B
330
2
100
AcDbEntity
  8
0
100
AcDbEllipse
 10
24.45626109017792
 20
17.91614725555962
 30
0.0
 11
-0.2130452760820845
 21
0.1304372846925615
 31
0.0
210
0.0
220
0.0
230
0.9999999999999998
 40
0.6931773132916838
 41
5.583791809800896
 42
10.02719966741963
  0
ELLIPSE
  5
22C
330
2
100
AcDbEntity
  8
0
100
AcDbEllipse
 10
24.45626109017792
 20
17.91614725555962
 30
0.0
 11
-0.2130452760820845
 21
0.1304372846925615
 31
0.0
210
0.0
220
0.0
230
0.9999999999999998
 40
0.6931773132916838
 41
10.88255966674286
 42
11.44409926742288
  0
ELLIPSE
  5
22D
330
2
100
AcDbEntity
  8
0
100
AcDbEllipse
 10
22.82740719220726
 20
15.52464800999576
 30
0.0
 11
-0.1868381040658278
 21
0.1677219512093872
 31
0.0
210
0.0
220
0.0
230
0.9999999999999998
 40
0.8279377963067846
 41
5.75258166754291
 42
10.14123187143013
  0
ELLIPSE
  5
22E
330
2
100
AcDbEntity
  8
0
100
AcDbEllipse
 10
22.82740719220726
 20
15.52464800999576
 30
0.0
 11
-0.1868381040658278
 21
0.1677219512093872
 31
0.0
210
0.0
220
0.0
230
0.9999999999999998
 40
0.8279377963067846
 41
10.99655524060161
 42
11.6109456381251
  0
LINE
  5
22F
330
2
100
AcDbEntity
  8
0
100
AcDbLine
 10
36.70740755772522
 20
24.20101136660037
 30
0.0
 11
37.53843877941495
 21
24.4409094163654
 31
0.0
  0
ENDSEC
  0
SECTION
  2
OBJECTS
  0
DICTIONARY
  5
A
330
0
100
AcDbDictionary
281
     1
  3
ACAD_COLOR
350
42
  3
ACAD_GROUP
350
3B
  3
ACAD_LAYOUT
350
1C
  3
ACAD_MATERIAL
350
C
  3
ACAD_MLEADERSTYLE
350
45
  3
ACAD_MLINESTYLE
350
3C
  3
ACAD_PLOTSETTINGS
350
3D
  3
ACAD_PLOTSTYLENAME
350
9
  3
ACAD_SCALELIST
350
43
  3
ACAD_TABLESTYLE
350
44
  3
ACAD_VISUALSTYLE
350
31
  3
ACDB_RECOMPOSE_DATA
350
23F
  3
AcDbVariableDictionary
350
231
  0
DICTIONARY
  5
24
330
23
100
AcDbDictionary
280
     1
281
     1
  3
ACAD_LAYERSTATES
360
25
  0
DICTIONARY
  5
7
330
6
100
AcDbDictionary
280
     1
281
     1
  0
DICTIONARY
  5
3
330
2
100
AcDbDictionary
280
     1
281
     1
  3
ACAD_SORTENTS
360
230
  0
DICTIONARY
  5
42
102
{ACAD_REACTORS
330
A
102
}
330
A
100
AcDbDictionary
281
     1
  0
DICTIONARY
  5
3B
102
{ACAD_REACTORS
330
A
102
}
330
A
100
AcDbDictionary
281
     1
  0
DICTIONARY
  5
1C
102
{ACAD_REACTORS
330
A
102
}
330
A
100
AcDbDictionary
281
     1
  3
Model
350
1B
  3
レイアウト1
350
22
  0
DICTIONARY
  5
C
102
{ACAD_REACTORS
330
A
102
}
330
A
100
AcDbDictionary
281
     1
  3
ByBlock
350
3E
  3
ByLayer
350
16
  3
Global
350
B
  0
DICTIONARY
  5
45
102
{ACAD_REACTORS
330
A
102
}
330
A
100
AcDbDictionary
281
     1
  0
DICTIONARY
  5
3C
102
{ACAD_REACTORS
330
A
102
}
330
A
100
AcDbDictionary
281
     1
  3
Standard
350
46
  0
DICTIONARY
  5
3D
102
{ACAD_REACTORS
330
A
102
}
330
A
100
AcDbDictionary
281
     1
  0
ACDBDICTIONARYWDFLT
  5
9
102
{ACAD_REACTORS
330
A
102
}
330
A
100
AcDbDictionary
281
     1
  3
Normal
350
8
100
AcDbDictionaryWithDefault
340
8
  0
DICTIONARY
  5
43
102
{ACAD_REACTORS
330
A
102
}
330
A
100
AcDbDictionary
281
     1
  3
A0
350
4B
  3
A1
350
4C
  3
A2
350
4D
  3
A3
350
4E
  3
A4
350
4F
  3
A5
350
50
  3
A6
350
51
  3
A7
350
52
  3
A8
350
53
  3
A9
350
54
  3
B0
350
55
  3
B1
350
56
  3
B2
350
57
  3
B3
350
58
  3
B4
350
59
  3
B5
350
5A
  3
B6
350
5B
  0
DICTIONARY
  5
44
102
{ACAD_REACTORS
330
A
102
}
330
A
100
AcDbDictionary
281
     1
  3
Standard
350
47
  0
DICTIONARY
  5
31
102
{ACAD_REACTORS
330
A
102
}
330
A
100
AcDbDictionary
281
     1
  3
2dWireframe
350
30
  3
Realistic
350
49
  3
Wireframe
350
4A
  0
XRECORD
  5
23F
102
{ACAD_REACTORS
330
A
102
}
330
A
100
AcDbXrecord
280
     1
 90
        1
330
47
  0
DICTIONARY
  5
231
102
{ACAD_REACTORS
330
A
102
}
330
A
100
AcDbDictionary
281
     1
  3
CANNOSCALE
350
237
  3
CMLEADERSTYLE
350
233
  3
CTABLESTYLE
350
232
  3
CVIEWDETAILSTYLE
350
234
  3
CVIEWSECTIONSTYLE
350
235
  3
LAYEREVAL
350
239
  3
LAYERNOTIFY
350
23A
  3
LIGHTINGUNITS
350
238
  3
MSLTSCALE
350
236
  3
PSOLHEIGHT
350
23C
  3
PSOLWIDTH
350
23B
  3
XCLIPFRAME
350
23D
  0
DICTIONARY
  5
25
102
{ACAD_REACTORS
330
24
102
}
330
24
100
AcDbDictionary
281
     1
  0
SORTENTSTABLE
  5
230
102
{ACAD_REACTORS
330
3
102
}
330
3
100
AcDbSortentsTable
330
2
  0
LAYOUT
  5
1B
102
{ACAD_XDICTIONARY
360
1D
102
}
102
{ACAD_REACTORS
330
1C
102
}
330
1C
100
AcDbPlotSettings
  1

  2
none_device
  4
ISO_A4_(210.00_x_297.00_MM)
  6

 40
7.5
 41
20.0
 42
7.5
 43
20.0
 44
210.0
 45
297.0
 46
11.54999923706054
 47
-13.65000009536743
 48
0.0
 49
0.0
140
0.0
141
0.0
142
1.0
143
8.704084754739808
 70
 11952
 72
     1
 73
     0
 74
     0
  7

 75
     0
147
0.1148885871608098
 76
     0
 77
     2
 78
   300
148
0.0
149
0.0
100
AcDbLayout
  1
Model
 70
     1
 71
     0
 10
0.0
 20
0.0
 11
12.0
 21
9.0
 12
0.0
 22
0.0
 32
0.0
 14
0.0
 24
0.0
 34
0.0
 15
0.0
 25
0.0
 35
0.0
146
0.0
 13
0.0
 23
0.0
 33
0.0
 16
1.0
 26
0.0
 36
0.0
 17
0.0
 27
1.0
 37
0.0
 76
     0
330
2
331
2F
1001
ACAD_PSEXT
1000
None
1000
None
1000
Not applicable
1000
The layout will not be plotted unless a new plotter configuration name is selected.
1070
     0
  0
LAYOUT
  5
22
102
{ACAD_REACTORS
330
1C
102
}
330
1C
100
AcDbPlotSettings
  1

  2
C:\Documents and Settings\basas\Application Data\Autodesk\AutoCAD 2005\R16.1\enu\plotters\Default Windows System Printer.pc3
  4

  6

 40
0.0
 41
0.0
 42
0.0
 43
0.0
 44
0.0
 45
0.0
 46
0.0
 47
0.0
 48
0.0
 49
0.0
140
0.0
141
0.0
142
1.0
143
1.0
 70
   688
 72
     0
 73
     0
 74
     5
  7

 75
    16
147
1.0
 76
     0
 77
     2
 78
   300
148
0.0
149
0.0
100
AcDbLayout
  1
レイアウト1
 70
     1
 71
     1
 10
0.0
 20
0.0
 11
12.0
 21
9.0
 12
0.0
 22
0.0
 32
0.0
 14
0.0
 24
0.0
 34
0.0
 15
0.0
 25
0.0
 35
0.0
146
0.0
 13
0.0
 23
0.0
 33
0.0
 16
1.0
 26
0.0
 36
0.0
 17
0.0
 27
1.0
 37
0.0
 76
     0
330
1F
  0
MATERIAL
  5
3E
102
{ACAD_XDICTIONARY
360
3F
102
}
102
{ACAD_REACTORS
330
C
102
}
330
C
100
AcDbMaterial
  1
ByBlock
  0
MATERIAL
  5
16
102
{ACAD_XDICTIONARY
360
17
102
}
102
{ACAD_REACTORS
330
C
102
}
330
C
100
AcDbMaterial
  1
ByLayer
  0
MATERIAL
  5
B
102
{ACAD_XDICTIONARY
360
D
102
}
102
{ACAD_REACTORS
330
C
102
}
330
C
100
AcDbMaterial
  1
Global
 43
0.0007999999797903
 43
0.0
 43
0.0
 43
0.0
 43
0.0
 43
0.0007999999797903
 43
0.0
 43
0.0
 43
0.0
 43
0.0
 43
1.0
 43
0.0
 43
0.0
 43
0.0
 43
0.0
 43
1.0
 49
0.0007999999797903
 49
0.0
 49
0.0
 49
0.0
 49
0.0
 49
0.0007999999797903
 49
0.0
 49
0.0
 49
0.0
 49
0.0
 49
1.0
 49
0.0
 49
0.0
 49
0.0
 49
0.0
 49
1.0
142
0.0007999999797903
142
0.0
142
0.0
142
0.0
142
0.0
142
0.0007999999797903
142
0.0
142
0.0
142
0.0
142
0.0
142
1.0
142
0.0
142
0.0
142
0.0
142
0.0
142
1.0
144
0.0007999999797903
144
0.0
144
0.0
144
0.0
144
0.0
144
0.0007999999797903
144
0.0
144
0.0
144
0.0
144
0.0
144
1.0
144
0.0
144
0.0
144
0.0
144
0.0
144
1.0
1001
ACAD
1070
    -1
1070
     3
1070
     0
1000

1071
        0
1070
     0
  0
MLINESTYLE
  5
46
102
{ACAD_REACTORS
330
3C
102
}
330
3C
100
AcDbMlineStyle
  2
STANDARD
 70
     0
  3

 62
   256
 51
90.0
 52
90.0
 71
     2
 49
0.5
 62
   256
  6
BYLAYER
 49
-0.5
 62
   256
  6
BYLAYER
  0
ACDBPLACEHOLDER
  5
8
102
{ACAD_REACTORS
330
9
102
}
330
9
  0
SCALE
  5
4B
102
{ACAD_REACTORS
330
43
102
}
330
43
100
AcDbScale
 70
     0
300
1:1
140
1.0
141
1.0
290
     1
  0
SCALE
  5
4C
102
{ACAD_REACTORS
330
43
102
}
330
43
100
AcDbScale
 70
     0
300
1:2
140
1.0
141
2.0
290
     0
  0
SCALE
  5
4D
102
{ACAD_REACTORS
330
43
102
}
330
43
100
AcDbScale
 70
     0
300
1:4
140
1.0
141
4.0
290
     0
  0
SCALE
  5
4E
102
{ACAD_REACTORS
330
43
102
}
330
43
100
AcDbScale
 70
     0
300
1:5
140
1.0
141
5.0
290
     0
  0
SCALE
  5
4F
102
{ACAD_REACTORS
330
43
102
}
330
43
100
AcDbScale
 70
     0
300
1:8
140
1.0
141
8.0
290
     0
  0
SCALE
  5
50
102
{ACAD_REACTORS
330
43
102
}
330
43
100
AcDbScale
 70
     0
300
1:10
140
1.0
141
10.0
290
     0
  0
SCALE
  5
51
102
{ACAD_REACTORS
330
43
102
}
330
43
100
AcDbScale
 70
     0
300
1:16
140
1.0
141
16.0
290
     0
  0
SCALE
  5
52
102
{ACAD_REACTORS
330
43
102
}
330
43
100
AcDbScale
 70
     0
300
1:20
140
1.0
141
20.0
290
     0
  0
SCALE
  5
53
102
{ACAD_REACTORS
330
43
102
}
330
43
100
AcDbScale
 70
     0
300
1:30
140
1.0
141
30.0
290
     0
  0
SCALE
  5
54
102
{ACAD_REACTORS
330
43
102
}
330
43
100
AcDbScale
 70
     0
300
1:40
140
1.0
141
40.0
290
     0
  0
SCALE
  5
55
102
{ACAD_REACTORS
330
43
102
}
330
43
100
AcDbScale
 70
     0
300
1:50
140
1.0
141
50.0
290
     0
  0
SCALE
  5
56
102
{ACAD_REACTORS
330
43
102
}
330
43
100
AcDbScale
 70
     0
300
1:100
140
1.0
141
100.0
290
     0
  0
SCALE
  5
57
102
{ACAD_REACTORS
330
43
102
}
330
43
100
AcDbScale
 70
     0
300
2:1
140
2.0
141
1.0
290
     0
  0
SCALE
  5
58
102
{ACAD_REACTORS
330
43
102
}
330
43
100
AcDbScale
 70
     0
300
4:1
140
4.0
141
1.0
290
     0
  0
SCALE
  5
59
102
{ACAD_REACTORS
330
43
102
}
330
43
100
AcDbScale
 70
     0
300
8:1
140
8.0
141
1.0
290
     0
  0
SCALE
  5
5A
102
{ACAD_REACTORS
330
43
102
}
330
43
100
AcDbScale
 70
     0
300
10:1
140
10.0
141
1.0
290
     0
  0
SCALE
  5
5B
102
{ACAD_REACTORS
330
43
102
}
330
43
100
AcDbScale
 70
     0
300
100:1
140
100.0
141
1.0
290
     0
  0
TABLESTYLE
  5
47
102
{ACAD_XDICTIONARY
360
48
102
}
102
{ACAD_REACTORS
330
44
102
}
330
44
100
AcDbTableStyle
  3
Standard
 70
     0
 71
     0
 40
1.5
 41
1.5
280
     0
281
     0
  7
Standard
140
4.5
170
     2
 62
     0
 63
     7
283
     0
274
    -2
284
     1
 64
     0
275
    -2
285
     1
 65
     0
276
    -2
286
     1
 66
     0
277
    -2
287
     1
 67
     0
278
    -2
288
     1
 68
     0
279
    -2
289
     1
 69
     0
  7
Standard
140
6.0
170
     5
 62
     0
 63
     7
283
     0
274
    -2
284
     1
 64
     0
275
    -2
285
     1
 65
     0
276
    -2
286
     1
 66
     0
277
    -2
287
     1
 67
     0
278
    -2
288
     1
 68
     0
279
    -2
289
     1
 69
     0
  7
Standard
140
4.5
170
     5
 62
     0
 63
     7
283
     0
274
    -2
284
     1
 64
     0
275
    -2
285
     1
 65
     0
276
    -2
286
     1
 66
     0
277
    -2
287
     1
 67
     0
278
    -2
288
     1
 68
     0
279
    -2
289
     1
 69
     0
  0
VISUALSTYLE
  5
30
102
{ACAD_XDICTIONARY
360
240
102
}
102
{ACAD_REACTORS
330
31
102
}
330
31
100
AcDbVisualStyle
  2

 70
     4
 71
     0
 72
     2
 73
     1
 90
        0
 40
-0.6
 41
-30.0
 62
     5
 63
     7
421
 16777215
 74
     1
 91
        4
 64
     7
 65
   257
 75
     1
175
     1
 42
1.0
 92
        0
 66
   257
 43
1.0
 76
     1
 77
     6
 78
     2
 67
     7
 79
     5
170
     0
171
     0
290
     0
174
     0
 93
        1
 44
0.0
173
     0
291
     0
 45
0.0
1001
ACAD
1000
AcDbSavedByObjectVersion
1070
     0
  0
VISUALSTYLE
  5
49
102
{ACAD_XDICTIONARY
360
243
102
}
102
{ACAD_REACTORS
330
31
102
}
330
31
100
AcDbVisualStyle
  2

 70
     8
 71
     2
 72
     3
 73
     0
 90
        2
 40
-0.6
 41
30.0
 62
     5
 63
     7
421
 16777215
 74
     0
 91
        0
 64
     7
 65
   257
 75
     1
175
     1
 42
1.0
 92
        8
 66
   257
 43
1.0
 76
     1
 77
     6
 78
     2
 67
     7
 79
     3
170
     0
171
     0
290
     0
174
     0
 93
       13
 44
0.0
173
     0
291
     0
 45
0.0
1001
ACAD
1000
AcDbSavedByObjectVersion
1070
     0
  0
VISUALSTYLE
  5
4A
102
{ACAD_XDICTIONARY
360
245
102
}
102
{ACAD_REACTORS
330
31
102
}
330
31
100
AcDbVisualStyle
  2

 70
     5
 71
     0
 72
     2
 73
     0
 90
        0
 40
-0.6
 41
-30.0
 62
     5
 63
     7
421
 16777215
 74
     1
 91
        4
 64
     7
 65
   257
 75
     1
175
     1
 42
1.0
 92
        0
 66
   257
 43
1.0
 76
     1
 77
     6
 78
     2
 67
     7
 79
     3
170
     0
171
     0
290
     0
174
     0
 93
        1
 44
0.0
173
     0
291
     0
 45
0.0
1001
ACAD
1000
AcDbSavedByObjectVersion
1070
     0
  0
DICTIONARYVAR
  5
237
102
{ACAD_REACTORS
330
231
102
}
330
231
100
DictionaryVariables
280
     0
  1
1:1
  0
DICTIONARYVAR
  5
233
102
{ACAD_REACTORS
330
231
102
}
330
231
100
DictionaryVariables
280
     0
  1
STANDARD
  0
DICTIONARYVAR
  5
232
102
{ACAD_REACTORS
330
231
102
}
330
231
100
DictionaryVariables
280
     0
  1
STANDARD
  0
DICTIONARYVAR
  5
234
102
{ACAD_REACTORS
330
231
102
}
330
231
100
DictionaryVariables
280
     0
  1

  0
DICTIONARYVAR
  5
235
102
{ACAD_REACTORS
330
231
102
}
330
231
100
DictionaryVariables
280
     0
  1

  0
DICTIONARYVAR
  5
239
102
{ACAD_REACTORS
330
231
102
}
330
231
100
DictionaryVariables
280
     0
  1
0
  0
DICTIONARYVAR
  5
23A
102
{ACAD_REACTORS
330
231
102
}
330
231
100
DictionaryVariables
280
     0
  1
0
  0
DICTIONARYVAR
  5
238
102
{ACAD_REACTORS
330
231
102
}
330
231
100
DictionaryVariables
280
     0
  1
2
  0
DICTIONARYVAR
  5
236
102
{ACAD_REACTORS
330
231
102
}
330
231
100
DictionaryVariables
280
     0
  1
1
  0
DICTIONARYVAR
  5
23C
102
{ACAD_REACTORS
330
231
102
}
330
231
100
DictionaryVariables
280
     0
  1
80.000000
  0
DICTIONARYVAR
  5
23B
102
{ACAD_REACTORS
330
231
102
}
330
231
100
DictionaryVariables
280
     0
  1
5.000000
  0
DICTIONARYVAR
  5
23D
102
{ACAD_REACTORS
330
231
102
}
330
231
100
DictionaryVariables
280
     0
  1
2
  0
DICTIONARY
  5
1D
330
1B
100
AcDbDictionary
280
     1
281
     1
  0
DICTIONARY
  5
3F
330
3E
100
AcDbDictionary
280
     1
281
     1
  3
ACAD_XREC_ROUNDTRIP
360
40
  3
FBXASSET
360
41
  0
DICTIONARY
  5
17
330
16
100
AcDbDictionary
280
     1
281
     1
  3
ACAD_XREC_ROUNDTRIP
360
18
  3
FBXASSET
360
19
  0
DICTIONARY
  5
D
330
B
100
AcDbDictionary
280
     1
281
     1
  3
ACAD_XREC_ROUNDTRIP
360
E
  3
BUMPTILE
360
F
  3
DIFFUSETILE
360
10
  3
FBXASSET
360
11
  3
OPACITYTILE
360
12
  3
REFLECTIONTILE
360
13
  0
DICTIONARY
  5
48
330
47
100
AcDbDictionary
280
     1
281
     1
  3
ACAD_ROUNDTRIP_2008_TABLESTYLE_CELLSTYLEMAP
360
23E
  3
ACAD_XREC_ROUNDTRIP
360
242
  0
DICTIONARY
  5
240
330
30
100
AcDbDictionary
280
     1
281
     1
  3
ACAD_XREC_ROUNDTRIP
360
241
  0
DICTIONARY
  5
243
330
49
100
AcDbDictionary
280
     1
281
     1
  3
ACAD_XREC_ROUNDTRIP
360
244
  0
DICTIONARY
  5
245
330
4A
100
AcDbDictionary
280
     1
281
     1
  3
ACAD_XREC_ROUNDTRIP
360
246
  0
XRECORD
  5
40
102
{ACAD_REACTORS
330
3F
102
}
330
3F
100
AcDbXrecord
280
     1
102
MATERIAL
148
0.0
149
0.0
149
0.0
 93
        0
 94
      127
282
     0
 72
     1
 77
     1
171
     1
175
     1
179
     1
273
     0
  0
XRECORD
  5
41
102
{ACAD_REACTORS
330
3F
102
}
330
3F
100
AcDbXrecord
280
     1
 70
     1
 90
429727718
  1
D62C5603-E3A1-4AEA-B7FB-FE5D8D0755AF
310
504B03040A0000080000CC70623B3DEE336E79000000790000001B0000006175746F6465736B2D64657369676E2D7061636B6167652E786D6C3C3F786D6C2076657273696F6E3D22312E302220656E636F64696E673D227574662D3822203F3E3C666F726D6174733E3C666F726D61743E687474703A2F2F736368656D612E
310
6175746F6465736B2E636F6D2F64657369676E2D7061636B6167652F323030393C2F666F726D61743E3C2F666F726D6174733E504B0304140006080800CC70623BD486FD9CA0000000F4000000130000005B436F6E74656E745F54797065735D2E786D6C7D8EC10E82300C865F65E91D8A1E8C310C0EEA1BF002731658846E
310
D98AC1B77784ABF1D8FE5FBFBF75BBCE937A534CCEB38643598122B6FEE978D0B0485F9C41B54DDD7D022595594E1A469170414C76A4D9A4D207E29CF43ECE46F218070CC6BECC4078ACAA135ACF422C856C0E68EA1BF5669944DDD7BCDE7B1F8E415D77AECB980613C2E4AC91FC167A2B244592486606FC29C8FD7F045B9A
310
EF7053A7E60B504B0304140006080800CC70623B853B8169EB0000007C01000008000000636F72652E786D6C8D90416EC3201045AF62CDB6C206821CC7C244919D9CA01740401C94182C03558F5F9C3852BBEB6A467FFE9B197D7EFC9E1EC5975982F5AE035262288C535E5B377690E21535501C055FBC8FBF6C503839990E
310
5619041F179FE64D52DE45E362569DD7661365082642A11EB9E920A89B99642953CC8E702F67A9EE7234257977194EC9EAE275C4EABCCF5EAD5940D4AC6F0E35A568B8F43562CD7046CD199FD07E60174276A7BE677B5EADB0E0D14EEFFB6A31321A0D82627C4084204C3F096B71DD52F6819B16635EADF63F509AF53FA164
310
5DDCD1EDDD17164090FCC8732078B56691CB33A85CD7DCC40F504B0304140006080800CC70623B55019EA25F0000007C00000007000000636E782E786D6C4DCB3B0E80201045D1AD90E915ED2CF8AC45050C11660C8261F98AB1B07AC9C97D42D718D865D3E909258CFD00CCE24AC6E326A164D74DC0B4128928FF32603847
310
2BA13128B1252AC747C6BAB984FC68F0B87FE8960A5C09FE86CFB69FBA01504B0304140006080800CC70623BDBABAAF470010000D40300000C0000006662782F636F72652E786D6CC553D16E823014FD95A6AF4B694182CC941A83FA05FB810A9511A125A5257EFE2E82712ECEB8A7F100CD39F7F69E734AF9FADC366850B6
310
AF8DCE7018308C942E4C59EB2AC3DE1D498AD15A706B8CFB56869196ADCAF00863C12B6B7C374385D14E6907A836A59A41D9F7CA615434B0C8705F7CAA5606D23BA8E84F41278B93AC54100640439DE0BDB320004D43C63716C7C399D30917DCFBBA9CD9BA8469F5B156168B24CED3F7248AC8769F27244EB73B92EED8862C
310
B7F13E0C179B3C8F979C8ECD82BBBABDAA2BAC924E9558448CBD9330242CFA08E3154B5651FCC6D215639C8EE5774DBE2B5F6CF2B5768B68963BB5F5588420E442FC700B1139D4CB01F450C1E918227C2E09DF070D8140C84E1E9AAB8F1340832A9CB13130A5F1376A908D57309505ECF2A0DF179C4E9D30F5B239B87E3823
310
7A79C6F31DE1A8A5AEC08474B03C7837EAE4938639B44E5932B833D2C6B6B279CDC613877FA26EE21F4A2A4C63EC7F29A2F301D1F9F7A0E37D145F504B0304140006080800CC70623B9C113CC27E0000009D0000000B0000006662782F636E782E786D6C4DCCDF0A83201C86E15B91DFB94BFB330DD428C8FB886521330DA7
310
6397BF1A1DECE883878F57749FCDA1B7892F1BBC047A23808C7F84D9FA55424E0BE6803A256208E9EF06C84F9B91703228B1C690F78B66B34CD9A5439DF5CF0BFBF65E35BCA1B8D6A5C6F540381E886698B5741C695F9503EBA150A2F8958E3DC3EA0B504B0304140006080800CC70623B7DF2F77C2A010000120200003100
310
00006662782F41393633353835312D344632462D344230382D423046372D3739314545314133324237412F636F72652E786D6C8D51DB8EC22014FC15C2939B0D2DB4B45643319AE817EC0F6041255A68B86CFCFC856D4D76DF7CE190393373060EDB3DC707F856CE6B6B7A480A0C81328395DA5C7B18C3057510EC3873D686
310
3F34088C18550F330C39BB3A1BA7051AAC09CA84841A2BD5020AEF55806078A44B0FFD7053A328440C89E1EFC52486BBB8AA8214A99D789CF9E05200300FC927E4FB4D5B375D43103D5527440FB843077C5AA3F5861C8F645F5787F59E95B390B318B55CE45AA638FAA2957BD7248B390B7A7CC51F9C124149C82B8C378810
310
84AB2F42B7B8DD56F413775B8C5999E9FF4471926F8AA236A1AE96B8B3CC434E5839373893369E1FAF30EA395917409EB7F26AF8801C171837A4A6AC9C89E9F9C9B1A58BA30FD6A5EF5DDDCF894B9AD9B6A59C957943A9FCAE2FD5BC4DFE03504B0304140006080800CC70623BAD7543B64E01000033030000300000006662
310
782F41393633353835312D344632462D344230382D423046372D3739314545314133324237412F636E782E786D6CD593CD6EC32010845F0571AD6CE3D48AD20813A9873E410FBD12D82434182C7EAAE6EDBB2424CD25871E7B41D6EC30B3FA84F9E67BB2E40B4234DE8DB46F1925E094D7C6ED479AD3AE5951B2113C789FEE
310
6C943839C1488B4C05DF079FE72A69D8C96C13AAD6B8631503449F83828872B949AC57D26200B826A308D316B4064D6E46FCDA41C05550DC9E483A00797BFD207EFB092A45DE9514C1BBD22178396BD39D891265658C238DEA00936C654E5E433CB65A26D9F6EDB5EBC14EBF49A45CB856E66048291F6939A9A81BB5C89177
310
38143CA680F4AA299D66A042CEB3354A2684DC9D8D178FE0D9B8B41CAAD720F880EE7EF93C0C18769E099ECC04D5A102C8049A8A05632F4DDF376CF1DE0F6BB65C2F8627B65A33C6BB62177CEBBDAD973006829F89F22E814B54F4BC2BE347F8AA8F681390B50FA73F804400B5F542E796F19FF974E7F78DB802FE05E20750
310
4B0304140006080800CC70623BE75B7789680500003C100000340000006662782F41393633353835312D344632462D344230382D423046372D3739314545314133324237412F6F626A656374732E786D6CAD575B8F9B3818FD2B887D06C22499CB8AA1CA655245D5B455A356FB305264C061D8018C6C3393D95FBFC7600890
310
A4CD5EF210B0B1BFEBF98E3F7B1FF6596ABC522E1296DF9BAE3D320D9A872C4AF2F8DE2CE5CEBA358D0FBEC719939D65A691938CDE9B6ADAF4BD98B3B2D05311DD91329583D9D5FC0F438434A7A611A644887B5384CF34233629258BA878B12322891DEFF6B66BD70BFB62634E8AE781D082709A4B588AF91C528CDA28B73F
310
1C998EEF39EABBEFA97FBD6A7C7E9553F9D3D79FE442923C3C523610337627CB87ABE99D359D4CC6D6E4FACAB5E6ABF9D2726FC6A3C5F56271377BB88362213924694B38DD99FE47C48627A1E7D49F5A8BB5E1A74C0A599ED3B0F21F1E56366B89112D681E218F0915D0D6F17AD41FBA2A369DCF6335D62ABBD39779D5DDD1
310
11D4D8DE3CBB96B2E04FB8202E41051754A1AA8E8F76B4C6DFE810B580B1547F4B84911149794252234D024EF8BBE963A95AE27B3D310A9D5C215C7960FAEE415ED75694C6AFB17BCACA5D99A60A9AA65F217B0BFC53292ACB92BF283FAD0D3621576592CB5BED907C2FA8E9DF794E35E97BEA31BED21FEB401ABB94C44839
310
DCACBF0E1C5DA8DA5B2F4DFFD32AD86F543D9E565E7056502E157C00AD2671CD534549AB752FCA9CDA00677A313F04E51B22FF19E57B300579E3C97EB29F682D92935CEC18CF901B7B54FD8C51F362B56FC72FE0B3C1EAE335EDCCBF5AEC39ADB17DC238973F804BA5E6F6BFE7AF1FB32E523BE9F3BD571418E3631DCA4D48
310
5250CF639223210A9446CA30052EDF057BD35F8329C1ECD84552BF0DC8D18BE7BCE23BFE6BD960AB4A7DE79923A103BEBD80F911CBAA2C60DB19B01CF164A5583B772EE6D3FFA56666CBCDA74DC97724A48F9A58967497E489C4D979006FD7A05E227A1EBDD0F737C623387A9C844D3709995625106D157315F8B8392CD4E0
310
A0B9A720C4BE9829CEF37EA1E13111214D53925356365ADA634861B52519DD27A00AEB808EAF0628E6F435519D446F45CF2C9CF5214F0A15B2F6D06B79DA3EE3CBF7F56780D2F4E7EF73A0F5E5B02A38D07DC852C6B7C1FBB6664213E0C39E3EBA7FF4E1AD23EA2829407C85E586727488B751B2DB9502BC7B228A3FD68B6E
310
A65A22397E690AA8D158D7E404EC8CDA235CC3B7D1898680131CEC2CDF2638C65196279577750F15884AEE19F94199155B92B13297978469D4F8D358DF0AEF7631E28DC8F0D9F437D5D39A83B2231A1D52D543813A824EF8D44BCFF2FA6A31BD1E8DAD87F1CCB526B3879935BF59CDADD5C37479BB1CDD4CA7B3556B516589
310
EF352754B706114D9C885EC9131DE6EFEB43D99AFE2391C2F958179413D7CFEF6B1B6DB1E7600F00DE6E5C67454A339A4BA2E0FBA85ED26F045D454F463DBFCE484C2F90F2E5E3666003662ED8F755951A7D1BECD5B30B550B2785C8E7320B7292A4838DDA71BBC863ED7613CAF659337A3354231D4FF4A182A54904C2898C
310
98B28C4AD0CE056CCF332A80986E571EE9DBC305BB5FEB7E509220A58D25CF042D712A806AC0AD0C657FDEF80D2D9CEAA2EE4D1C76F60BFE74219A06527D6F82DF6412526107381E55E353090704D085B52408A8913C4ED159D79BDA71BB4BC506F4831350EB6F975CD22D69BF7AC49B91A2C0A9DDA3D5CA36AD20FC478E37
310
E61844E2352865EBCB61A275A65283CAAA9DD27703B4102F5AF51EF5F573B75CBB5AD38BC845F7A49F82A0966A49C2E3EA5EA0ECD326CD965F1DB402C6FA8B51A4658C5C5E2EC9E214602E55810345408596591009A82E7E7FFACA19EEA299B14A0081A705CB3296EBC14CDF658DCD336EA6D1136881AAEB87B81AB9EE53D5
310
F5EB8BC8362082DA24122F98680A4E7930C01A0079749CEA14382A0783E5EBA5A10F8C098456A03D6A4AEB6BB881E2513747552A5DB22C7EDAF83BD5528081A365F7FF06504B0304140006080000CC70623B000000000000000000000000350000006662782F41393633353835312D344632462D344230382D423046372D37
310
39314545314133324237412F76657274696365732E62696E504B0304140006080800CC70623BF270F1330600000004000000360000006662782F41393633353835312D344632462D344230382D423046372D3739314545314133324237412F747269616E676C65732E62696E636660600000504B0304140006080000CC7062
310
3B000000000000000000000000370000006662782F41393633353835312D344632462D344230382D423046372D3739314545314133324237412F617474726962757465732E62696E504B0304140006080800CC70623B08DA0BD19000000041010000360000006662782F41393633353835312D344632462D344230382D4230
310
46372D3739314545314133324237412F6469726563746F72792E786D6C858F410AC3201045AF22B36F53E9A60B35CBEEBAE80D244E44489C6234F4F835464A48035D0DF398FF9F8AF63D0E6CC63039F212F8F9020C7D47C6792B21C5FE7403D62A1188E2E60C98D7234A5830286103A55745067B9D86B8A3CF9C7F90C11DE6
310
07FB144396D7B6A82D282E9A152AD114D5EF2CB866EEE831B8EEA07A7BB5A8D7D61A2BAAEB7FD5F70921FF497D00504B0304140006080800CC70623BEDD1DC58FD000000A00100003B0000006662782F41393633353835312D344632462D344230382D423046372D3739314545314133324237412F7265736F75726365732F
310
636F72652E786D6C8D504B6E833010BD0A9A6D65B00922041947112427E8052C33A156828DFCA97AFC9A40A576D7CDCCE87D344F8F9FBFE667F689CE6B6B3A6039850C8DB2A336530731DC4903D95970676DF82583CCC8193B5861107C72362E3BA4AC096842428D1D7107A5F7182053CF7474E0D507CE32973124857FE48B
310
540F3961CEF244279DE03EB81420DB9EAC1384436FA353E879B1B182C7A8C75DA3C7F453DF353A1075D537A7BA6464B8F535A99AE14A9A2BBD90E350DD183B5CFABE3AF262350B1EF4FC9351399401471025A527C218A1E53BAB5A5AB765F5469B96525EACF23FA6B88CFF34456DC2A1DCE36E360F82A5202F42F062ED2BAD
310
579969AFDD8A6F504B010214000A0000080000CC70623B3DEE336E79000000790000001B00000000000000000000000000000000006175746F6465736B2D64657369676E2D7061636B6167652E786D6C504B01021400140006080800CC70623BD486FD9CA0000000F40000001300000000000000000000000000B20000005B
310
436F6E74656E745F54797065735D2E786D6C504B01021400140006080800CC70623B853B8169EB0000007C010000080000000000000000000000000083010000636F72652E786D6C504B01021400140006080800CC70623B55019EA25F0000007C000000070000000000000000000000000094020000636E782E786D6C504B
310
01021400140006080800CC70623BDBABAAF470010000D40300000C00000000000000000000000000180300006662782F636F72652E786D6C504B01021400140006080800CC70623B9C113CC27E0000009D0000000B00000000000000000000000000B20400006662782F636E782E786D6C504B01021400140006080800CC70
310
623B7DF2F77C2A010000120200003100000000000000000000000000590500006662782F41393633353835312D344632462D344230382D423046372D3739314545314133324237412F636F72652E786D6C504B01021400140006080800CC70623BAD7543B64E010000330300003000000000000000000000000000D2060000
310
6662782F41393633353835312D344632462D344230382D423046372D3739314545314133324237412F636E782E786D6C504B01021400140006080800CC70623BE75B7789680500003C10000034000000000000000000000000006E0800006662782F41393633353835312D344632462D344230382D423046372D3739314545
310
314133324237412F6F626A656374732E786D6C504B01021400140006080000CC70623B0000000000000000000000003500000000000000000000000000280E00006662782F41393633353835312D344632462D344230382D423046372D3739314545314133324237412F76657274696365732E62696E504B01021400140006
310
080800CC70623BF270F133060000000400000036000000000000000000000000007B0E00006662782F41393633353835312D344632462D344230382D423046372D3739314545314133324237412F747269616E676C65732E62696E504B01021400140006080000CC70623B0000000000000000000000003700000000000000
310
000000000000D50E00006662782F41393633353835312D344632462D344230382D423046372D3739314545314133324237412F617474726962757465732E62696E504B01021400140006080800CC70623B08DA0BD1900000004101000036000000000000000000000000002A0F00006662782F41393633353835312D344632
310
462D344230382D423046372D3739314545314133324237412F6469726563746F72792E786D6C504B01021400140006080800CC70623BEDD1DC58FD000000A00100003B000000000000000000000000000E1000006662782F41393633353835312D344632462D344230382D423046372D3739314545314133324237412F7265
310
736F75726365732F636F72652E786D6C504B0506000000000E000E0080040000641100000000
  0
XRECORD
  5
18
102
{ACAD_REACTORS
330
17
102
}
330
17
100
AcDbXrecord
280
     1
102
MATERIAL
148
0.0
149
0.0
149
0.0
 93
        0
 94
      127
282
     0
 72
     1
 77
     1
171
     1
175
     1
179
     1
273
     0
  0
XRECORD
  5
19
102
{ACAD_REACTORS
330
17
102
}
330
17
100
AcDbXrecord
280
     1
 70
     1
 90
429727718
  1
30362254-06B7-45E0-A893-8CFA70E3D6BC
310
504B03040A0000080000CC70623B3DEE336E79000000790000001B0000006175746F6465736B2D64657369676E2D7061636B6167652E786D6C3C3F786D6C2076657273696F6E3D22312E302220656E636F64696E673D227574662D3822203F3E3C666F726D6174733E3C666F726D61743E687474703A2F2F736368656D612E
310
6175746F6465736B2E636F6D2F64657369676E2D7061636B6167652F323030393C2F666F726D61743E3C2F666F726D6174733E504B0304140006080800CC70623BD486FD9CA0000000F4000000130000005B436F6E74656E745F54797065735D2E786D6C7D8EC10E82300C865F65E91D8A1E8C310C0EEA1BF002731658846E
310
D98AC1B77784ABF1D8FE5FBFBF75BBCE937A534CCEB38643598122B6FEE978D0B0485F9C41B54DDD7D022595594E1A469170414C76A4D9A4D207E29CF43ECE46F218070CC6BECC4078ACAA135ACF422C856C0E68EA1BF5669944DDD7BCDE7B1F8E415D77AECB980613C2E4AC91FC167A2B244592486606FC29C8FD7F045B9A
310
EF7053A7E60B504B0304140006080800CC70623B1EC5D7A3EB0000007C01000008000000636F72652E786D6C8D90416EC3201045AF82665B6103C6756C6122AB4D4ED00B204C5C94182C03558F5F9C3852BBEB6A467FFE9B197D71FC9E6FE8CBACC17AD7032D0820E3B41FAD9B7A48F1820F808E52ACDEC75F36404ECDA687
310
4D0629A6D5A76597B477D1B89855E747B38B2A041301E95B6E7A08FAD3CCAA50296647B8168BD2573599823EBB0CA76447F43862C7BCCF5EAC59410E4DDD9C7973C2755553CCCFA4C603E3040F1565ED3B1FDE4E432BCA0D9622DAF9795FAF464533826484B498524CD807E51D79ED187F21878E10516EF63F505AC67F42C9
310
BA58B1FDDD071640D2FCC87D2045B96591CB3DA85CB7DCE40F504B0304140006080800CC70623B55019EA25F0000007C00000007000000636E782E786D6C4DCB3B0E80201045D1AD90E915ED2CF8AC45050C11660C8261F98AB1B07AC9C97D42D718D865D3E909258CFD00CCE24AC6E326A164D74DC0B4128928FF32603847
310
2BA13128B1252AC747C6BAB984FC68F0B87FE8960A5C09FE86CFB69FBA01504B0304140006080800CC70623B8C9102E971010000D40300000C0000006662782F636F72652E786D6CC5535B6E833010BC8AE5DF0A6C08340F1947A84D4ED00B38C6A128602363A31CBFCB234A53A551FA553EC09AD9F5CE8C31DB9E9B1AF5CA
310
7695D1198E428A91D2D214952E33ECDD315861B4E5CC1AE3BE9561A445A3323CC098B3D21ADFCE9034DA29ED00D5A6503328BA4E398C640D8B0C77F253352214DE4145770A5B214FA2546114020D759C75CE8200340D19DE981F0F6746269C33EFAB6266AB02A655C74A59CCF365BADC27CB5D902ED22848F6340DF238A141
310
BE88E2F57B92BFEDF23523433367AE6A2EEAA455C2A902F398D2751045018D3FA264435F3771F242571B4A1919CA6F9A7C5B3CD9E42BED16F12C776AEB308F40C848FC700B1139D4891EF410CEC810227CC6846F8386402064270EF5C5C709A05E49676C024C61FC95EA45ED154CA5211D1FF4FB8291A913A68E9B83EBBB33
310
E2A7673CDE118E5AE8124C0807CB8377834E366998436B950D7A7746DAD846D4CFD978E0F04FD455FC5D49D2D4C6FE9722321F10997F0F32DC47FE05504B0304140006080800CC70623BFFEA85907E0000009D0000000B0000006662782F636E782E786D6C4DCCD10A83201886E15B91FFDC95D95A811AB6F23E625948A6C3
310
E9D8E5AF46073BFAE0E1E365ED67B3E8ADC3CB78C7815C7240DA3DFC64DCC221C519D7805AC182F7F1EF06C88D9BE6703008B6049F9E274D7A1E938DBB5AE3D6131B2589BA0D3D965551E0B2EA732C9B9A624AAEB41E3A557677029960D9AFB4EF11165F504B0304140006080800CC70623B4FEEA4082C0100001202000031
310
0000006662782F39464131463745442D413632322D343644302D413938332D3331353338454246344243312F636F72652E786D6C8D515B6EC32010BC0AE2AB55850DD871ED0813254D72825EC00192A2C460F1A872FC42ED48ED5F7E00CDCECCCEB26C731F6FE05B39AFADE921293004CA082BB5B9F43086336A21D870E6AC
310
0D7F68109861543DCC30E4ECE26C9C164858139409093556AA051CBC570102714B8F1E7AF1A5C6A11862480C7F2DA6415C878B2A4891CA89C7990F2E050073937C42DE1DB7E4F87ED8A36D4329AA9B3D46DBAEAD504556557BD81DEBDD0761E52CE42C462D17B996298E3E6BE59E35C962CE821E1FF18553435012728A7187
310
0841987E927A8D9B35ADDF70BBC6989599FE4F1427F9A4286A132ABAC49D651EF234CD5CE04CDA78BA3DC2A8FB645D00B9DF8B57E215725C60BCA2A463E54C4CE327C7A65E1C7DB02E7DEFCBF594B864C5CA6CDBD49C957943E9FA5D5FBAF336F90F504B0304140006080800CC70623BAD7543B64E01000033030000300000
310
006662782F39464131463745442D413632322D343644302D413938332D3331353338454246344243312F636E782E786D6CD593CD6EC32010845F0571AD6CE3D48AD20813A9873E410FBD12D82434182C7EAAE6EDBB2424CD25871E7B41D6EC30B3FA84F9E67BB2E40B4234DE8DB46F1925E094D7C6ED479AD3AE5951B2113C
310
789FEE6C943839C1488B4C05DF079FE72A69D8C96C13AAD6B8631503449F83828872B949AC57D26200B826A308D316B4064D6E46FCDA41C05550DC9E483A00797BFD207EFB092A45DE9514C1BBD22178396BD39D891265658C238DEA00936C654E5E433CB65A26D9F6EDB5EBC14EBF49A45CB856E66048291F6939A9A81BB5
310
C8917738143CA680F4AA299D66A042CEB3354A2684DC9D8D178FE0D9B8B41CAAD720F880EE7EF93C0C18769E099ECC04D5A102C8049A8A05632F4DDF376CF1DE0F6BB65C2F8627B65A33C6BB62177CEBBDAD973006829F89F22E814B54F4BC2BE347F8AA8F681390B50FA73F804400B5F542E796F19FF974E7F78DB802FE05
310
E207504B0304140006080800CC70623B16AB87BA640500003C100000340000006662782F39464131463745442D413632322D343644302D413938332D3331353338454246344243312F6F626A656374732E786D6CAD575B6FA33818FD2B887DE6924B3BED8A326A92B68A663B534DD4D13E548A0C38942D60649B369D5FBFC7
310
600890A493BDE42160637FD7F31D7FF63E6FB3D478A55C242CBF3247B66B1A340F5994E4F19559CA8D75611A9F7D8F33263BCB4C232719BD32D5B4E97B316765A1A722BA21652A07B3B7B33F0D11D29C9A46981221AE4C113ED38CD8A4942CA2E2C58E882476BCD9DA23BB5ED8171B73523C0F841684D35CC252CCE79062D4
310
468DFA43D7747CCF51DF7D4FFDEB5593E3AB9CCA9FBEFE241792E4E19EB28198C968BAB8199F5D5A67D3E9C49A9E8F47D6EC76B6B0469F26EEFC7C3EBFBCBEB98462213924694B38DD98FE1D62C393D073EA4FADC5DAF04326852CCF6958F90F0F2B9BB5C48816348F90C7840A68EB78EDF68723159BCEE7891A6B95DDE9D3
310
BCEAEEE8086A6C6F9E5D4B59F0175C10A7A0820BAA5055C7473B5AE3CFDD452D602CD5DF12616444529E90D448938013FE6EFA58AA96F85E4F8C42275708571E98FE6827AF6B2B4AE3D7D83D64E5A64C53054DD3AF90BD06FEA9149565C94FCA0F6B834DC85599E4F2423B24DF0B6AFA979E534DFA9E7A4CC6FA631D486393
310
921829879BF5D781A373557BCB85E97FB90DB62B558F8795179C15944B051F40AB495CF35451D26A4727654E6D8033BD98EF82F21D91FF8AF2DD9982BCF1643BDD4EB516C9492E368C67C88DED563FC36D5EACF66DFF057C3658BDBFA69DF9578B3DA735B64F18C7F20770A9D45CFCF7FCF563D6456A277DBEF78A02637CA2
310
43B90A490AEAB94F72244481D24819A6C0E59B606BFA4B3025981DBB48EAB701D97BF19C577CC77F2D1B6C55A9EF3C732474C0B727303F625995056C3B02963D9EAC146BE78EC5FCEC7FA999EBC5EACBAAE41B12D27B4D2C0BBA49F244E2ECDC81B76B502F113D8F5EE8FB1BE3111CDD4FC2AA9B844CAB1288B68AB90A7CDC
310
1C166AB0D3DC5310625FCC14E779BFD0709F8890A629C9292B1B2DED31A4B0DA928CEE135085754027E3018A397D4D5427D15BD1330B677DC8934285AC3DF45A9EB68FF8F2B8FC0A509AFEECFD0FF2DE25CC6047F7214B195F07EFEB9A094D800F7BFAE8FED187B78EA8A3A400F115961BCAD1215E47C966530AF0EE8128FE
310
58CEBB996A8964FFA529A046635D9353B0336A8F700DDF46271A024E70B0B37C9DE01847591E54DED53D54202AB947E4076556AC49C6CA5C9E1226B7F1A7B1BE15DEED62C41B91E1B3E9AFAAA735036547343A925075041DF0A9979E893B391F8FCFA6967B3EFB644DCF6E5CEBFAE272625DCC6FAF3FB93793C5F90CE1EF57
310
407342756B10D1C489E8953CD1617E5CEECAD6F4EF8914CE5D5D504E5C3F1F9736DA62CFC11E00BCDDB8CC8A9466349744C1F75EBDA4DF09BA8A9E8C7A7E9991989E20E5DBDD6A6003664ED8F7A04A8DBE0DF6EAD9B9AA858342E47399053949D2C146EDB85DE4B176BB0965FBAC19BD19AA918E27FA50C1D22402E144464C
310
59462568E704B6E71915404CB72B8FF4EDE184DDAF753F284990D2C6926782963815403548A70C657FDEF80D2D9CEAA2AE4C1C76F60BFE74219A06527D6582DF6412526107381E55E353090704D085B52408D0933C4ED159D79BDA71BB4BC506F4831350EB6F979CD22D69BF7AC49B91A2C0A9DDA3D5CA36AD20FC478E37E6
310
1844E2352865EBCB6EA275A652E3836BE04EFB400BF1A2556F515F1FBB35B2AB35BD889C744FFA1004B5544B121E57F70215746DD2F5E2C1412B602CBF19455AC6C8E5E9922C4E01E65215385004546899059180EAFCF7A707CE7017CD8CDB0410789AB32C63B91E5CEBBBACB17AC6CD347A022D5075FD106377347AAABA7E
310
7D11590744509B44E205134DC1290F06580320F78E537D3D73540E06CB970B431F185308AD40BBD794D6D77003C5A36E8EAA54BA64597CD8F83BD552A080A365F7FF06504B0304140006080000CC70623B000000000000000000000000350000006662782F39464131463745442D413632322D343644302D413938332D3331
310
353338454246344243312F76657274696365732E62696E504B0304140006080800CC70623BF270F1330600000004000000360000006662782F39464131463745442D413632322D343644302D413938332D3331353338454246344243312F747269616E676C65732E62696E636660600000504B0304140006080000CC70623B
310
000000000000000000000000370000006662782F39464131463745442D413632322D343644302D413938332D3331353338454246344243312F617474726962757465732E62696E504B0304140006080800CC70623B08DA0BD19000000041010000360000006662782F39464131463745442D413632322D343644302D413938
310
332D3331353338454246344243312F6469726563746F72792E786D6C858F410AC3201045AF22B36F53E9A60B35CBEEBAE80D244E44489C6234F4F835464A48035D0DF398FF9F8AF63D0E6CC63039F212F8F9020C7D47C6792B21C5FE7403D62A1188E2E60C98D7234A5830286103A55745067B9D86B8A3CF9C7F90C11DE607
310
FB144396D7B6A82D282E9A152AD114D5EF2CB866EEE831B8EEA07A7BB5A8D7D61A2BAAEB7FD5F70921FF497D00504B0304140006080800CC70623B0D6EF93BFE000000A00100003B0000006662782F39464131463745442D413632322D343644302D413938332D3331353338454246344243312F7265736F75726365732F63
310
6F72652E786D6C8D50596E833010BD0A9ADFCA60B334011947A8694ED00B586642AC041B79A97AFC9A40A5F6AF3F33A3B7689E1E3F7DCD8FEC139DD7D6F4C0720A191A65476DA61E62B892236427C19DB5E1970C322367EC618541F0C9D9B8EC90B226A009093576C41D94DE63804C3DD2D18357379C652E63480A7FCF17A9
310
EE72C29CE5894E3AC17D702940B63D59270887DE46A7D0F36263058F518FBB468FE9A7BE6A7420864373B8D4873369AA8691FA421B3294352543C5CAF65C0F6FEF43CB8BD52C78D0F34F46E550061C419494B6843142CB0F5677F4B52BEB177AEC28E5C52AFF638ACBF84F53D42654E51E77B379102C05791282176B5F693D
310
CB4C7BED567C03504B010214000A0000080000CC70623B3DEE336E79000000790000001B00000000000000000000000000000000006175746F6465736B2D64657369676E2D7061636B6167652E786D6C504B01021400140006080800CC70623BD486FD9CA0000000F40000001300000000000000000000000000B20000005B
310
436F6E74656E745F54797065735D2E786D6C504B01021400140006080800CC70623B1EC5D7A3EB0000007C010000080000000000000000000000000083010000636F72652E786D6C504B01021400140006080800CC70623B55019EA25F0000007C000000070000000000000000000000000094020000636E782E786D6C504B
310
01021400140006080800CC70623B8C9102E971010000D40300000C00000000000000000000000000180300006662782F636F72652E786D6C504B01021400140006080800CC70623BFFEA85907E0000009D0000000B00000000000000000000000000B30400006662782F636E782E786D6C504B01021400140006080800CC70
310
623B4FEEA4082C0100001202000031000000000000000000000000005A0500006662782F39464131463745442D413632322D343644302D413938332D3331353338454246344243312F636F72652E786D6C504B01021400140006080800CC70623BAD7543B64E010000330300003000000000000000000000000000D5060000
310
6662782F39464131463745442D413632322D343644302D413938332D3331353338454246344243312F636E782E786D6C504B01021400140006080800CC70623B16AB87BA640500003C1000003400000000000000000000000000710800006662782F39464131463745442D413632322D343644302D413938332D3331353338
310
454246344243312F6F626A656374732E786D6C504B01021400140006080000CC70623B0000000000000000000000003500000000000000000000000000270E00006662782F39464131463745442D413632322D343644302D413938332D3331353338454246344243312F76657274696365732E62696E504B01021400140006
310
080800CC70623BF270F133060000000400000036000000000000000000000000007A0E00006662782F39464131463745442D413632322D343644302D413938332D3331353338454246344243312F747269616E676C65732E62696E504B01021400140006080000CC70623B0000000000000000000000003700000000000000
310
000000000000D40E00006662782F39464131463745442D413632322D343644302D413938332D3331353338454246344243312F617474726962757465732E62696E504B01021400140006080800CC70623B08DA0BD190000000410100003600000000000000000000000000290F00006662782F39464131463745442D413632
310
322D343644302D413938332D3331353338454246344243312F6469726563746F72792E786D6C504B01021400140006080800CC70623B0D6EF93BFE000000A00100003B000000000000000000000000000D1000006662782F39464131463745442D413632322D343644302D413938332D3331353338454246344243312F7265
310
736F75726365732F636F72652E786D6C504B0506000000000E000E0080040000641100000000
  0
XRECORD
  5
E
102
{ACAD_REACTORS
330
D
102
}
330
D
100
AcDbXrecord
280
     1
102
MATERIAL
148
0.0
149
0.0
149
0.0
 93
        0
 94
      127
282
     0
 72
     1
 77
     1
171
     1
175
     1
179
     1
273
     0
  0
XRECORD
  5
F
102
{ACAD_REACTORS
330
D
102
}
330
D
100
AcDbXrecord
280
     1
270
     1
271
     1
  0
XRECORD
  5
10
102
{ACAD_REACTORS
330
D
102
}
330
D
100
AcDbXrecord
280
     1
270
     1
271
     1
  0
XRECORD
  5
11
102
{ACAD_REACTORS
330
D
102
}
330
D
100
AcDbXrecord
280
     1
 70
     0
 90
1673772943
  1
ECE7A1D2-D628-4531-984C-D00F80459256
310
504B03040A0000080000CC70623B3DEE336E79000000790000001B0000006175746F6465736B2D64657369676E2D7061636B6167652E786D6C3C3F786D6C2076657273696F6E3D22312E302220656E636F64696E673D227574662D3822203F3E3C666F726D6174733E3C666F726D61743E687474703A2F2F736368656D612E
310
6175746F6465736B2E636F6D2F64657369676E2D7061636B6167652F323030393C2F666F726D61743E3C2F666F726D6174733E504B0304140006080800CC70623BD486FD9CA0000000F4000000130000005B436F6E74656E745F54797065735D2E786D6C7D8EC10E82300C865F65E91D8A1E8C310C0EEA1BF002731658846E
310
D98AC1B77784ABF1D8FE5FBFBF75BBCE937A534CCEB38643598122B6FEE978D0B0485F9C41B54DDD7D022595594E1A469170414C76A4D9A4D207E29CF43ECE46F218070CC6BECC4078ACAA135ACF422C856C0E68EA1BF5669944DDD7BCDE7B1F8E415D77AECB980613C2E4AC91FC167A2B244592486606FC29C8FD7F045B9A
310
EF7053A7E60B504B0304140006080800CC70623BD9DDAED0EC0000007C01000008000000636F72652E786D6C8D90416EC3201045AF82665B61836D9CD8C2444DD39CA01740405C94182C03558F5F9C3852BBEB6A467FFE9B197D7EF89E6EE8CB2CC17A37002D0820E394D7D68D03A478C17B4007C117EFE32F1B20272733C0
310
2A83E0E3E2D3BC49CABB685CCCAAF3DA6CA20CC14440EA969B0182FA34932C648AD911AEC52CD5558EA6A0CF2EC329598D1E47ACCEFBECC59A050463A7EA5833865FEBDD0E37353BE3EE8DBDE3F6786A48D375FBF6CC78B9C282473B3DEFABC5C86834888A900E538A49F5419B9EB47DD5BC907D4F082F57FB1F28CDFA9F50
310
B22ED6D5F6EE030B20687EE43E10BC5CB3C8E51E54AE6B6EE207504B0304140006080800CC70623B55019EA25F0000007C00000007000000636E782E786D6C4DCB3B0E80201045D1AD90E915ED2CF8AC45050C11660C8261F98AB1B07AC9C97D42D718D865D3E909258CFD00CCE24AC6E326A164D74DC0B4128928FF326038
310
472BA13128B1252AC747C6BAB984FC68F0B87FE8960A5C09FE86CFB69FBA01504B0304140006080800CC70623BA24EB22D72010000D40300000C0000006662782F636F72652E786D6CC5535B6E833010BC8AE5DF0A6C5E49888CA3A6694ED00B38E05014B091B1518EDFE511A5A9D228FD2A1F60CDEC7A67C6986DCE4D8D7A
310
69BA4AAB0C073EC548AA5C17952A33ECECD15B61B4E1CC686DBF9561A44423333CC098B3D268D7CE50AE9595CA02AA74216750749DB418E5352C32DCE59FB211BE70162ABA93DF8AFC244AE9073ED050C759670D0840D390E18DF9F1706664C23973AE2A66B62A605A75ACA4C13C4976E1364A12EF355A2EBD384AF65EFA96
310
BC7B8BED2EA6719AAE16FB8491A199335B351775B991C2CA02F390D2D40B028F861F41BCA68B7518BFD0D59A524686F29B26D7164F36B94AD9289CE54E6D1DE6010819891F6E21228B3AD1831EC219194284CF98F06DD01008846CC5A1BEF83801D4CBDC6A1303536877A57A513B0953A94FC707FDBE6064EA84A9E3E6E0FA
310
EE8CF0E9198F7784A316AA0413C2C2F2E0ECA0934D1AE6D05A69BCDE9E91D2A611F573361E38FC1375157F5752AE6B6DFE4B11990F88CCBF0719EE23FF02504B0304140006080800CC70623B408A7D3B7C0000009D0000000B0000006662782F636E782E786D6C4DCCD10A83201886E15B91FFDC552A92A0064DBC8F581632
310
D3703A76F9ABD1C18E3E78F878E5F0D9027ABBFCF2292AE86E2D20171F69F6715550CB827B40839639A5F2770314A7CD293819B45C73AAFB45B35BA61ACAA1C1C7E7855C58C15BC331339661262CC762340413D68D77DA5B42298546CBE6573AF60CEB2F504B0304140006080800CC70623B449FB9BD290100001202000031
310
0000006662782F36394639363044362D344446342D343946362D394244322D3234314243333846323333332F636F72652E786D6C8D515B6EC32010BC0AE22B55850D98B871848994463E412FE002495162B07854397EA176A4F62F3F2C9A9D991D587EB84F37F0AD7D30CEF6905418026DA553C65E7A98E219ED203808EE9D
310
8B7F6810D871D23D2C3014FCE25D9A57483A1BB58D19B54EE9151C43D0110279CB971E06F9A5A7B11A53CC8C70ADE6515EC78BAE4895DB992778883E0700CB907242D17643D7E2538BD869608875438BBAE38922CAC8F1BDD90DB4691A5E2F42C153326A951B95E398B3D1FE599322163C9AE9115F7A3D46ADA0A018778810
310
84E907617BDCEE297BC5BB3DC6BC2EF47FA234AB2745C9D8D8D035EE220B50105E2F0DC1954B9FB747187D9F9D8FA0CCDB042D5FA0C015C65B42DF78BD10F3F3B363CB56C7109DCFDFBBB97E662ED92EB62D13BC2E1BCAE5777DB9966D8A1F504B0304140006080800CC70623BAD7543B64E01000033030000300000006662
310
782F36394639363044362D344446342D343946362D394244322D3234314243333846323333332F636E782E786D6CD593CD6EC32010845F0571AD6CE3D48AD20813A9873E410FBD12D82434182C7EAAE6EDBB2424CD25871E7B41D6EC30B3FA84F9E67BB2E40B4234DE8DB46F1925E094D7C6ED479AD3AE5951B2113C789FEE
310
6C943839C1488B4C05DF079FE72A69D8C96C13AAD6B8631503449F83828872B949AC57D26200B826A308D316B4064D6E46FCDA41C05550DC9E483A00797BFD207EFB092A45DE9514C1BBD22178396BD39D891265658C238DEA00936C654E5E433CB65A26D9F6EDB5EBC14EBF49A45CB856E66048291F6939A9A81BB5C89177
310
38143CA680F4AA299D66A042CEB3354A2684DC9D8D178FE0D9B8B41CAAD720F880EE7EF93C0C18769E099ECC04D5A102C8049A8A05632F4DDF376CF1DE0F6BB65C2F8627B65A33C6BB62177CEBBDAD973006829F89F22E814B54F4BC2BE347F8AA8F681390B50FA73F804400B5F542E796F19FF974E7F78DB802FE05E20750
310
4B0304140006080800CC70623B8D05915C650500003B100000340000006662782F36394639363044362D344446342D343946362D394244322D3234314243333846323333332F6F626A656374732E786D6CAD575B6FA33814FE2B887D06429276DA1565D4266D158D3A339A6846FB502932E050B66023DB74D2FDF5FB190C01
310
9276B2973C046C8ECFF53B17071F77456EBD502133CEAE6CDF9DD81665314F32965ED995DA3A17B6F5310C04E7AA47665B8C14F4CAD6DB7618A48257A5D94AE89654B91AEDDEDDFC61C998326A5B714EA4BCB265FC440BE2924AF184CA6737218AB8E976E7FA6E4338649B0A523E8D98964450A6A029F619B8588D52FE7039
310
B1BD30F0F4F730D0FF866AF6369557DB33949F31A9088B0F848DD8CCFCF9F2767A76E99CCDE733677E3EF59D9BBB9BA5E37F984D16E78BC5E5F5ED25044B25C0C96822E8D60EEFE11B91C581D77CEA34368A1F5329E68CD1B8B61F16D63A1B8E092D294B10C78C4A48EB593D192E7DED9BDEE7995E1B91FDEDD3ACEA9FE831
310
6A756F9F7D4D79F4274C90A7A04248AA51D5F8C718DAE06FB2F75AC4796EBE65D22A88A22223B995679120E2D50E41AA49C260C046A35368846B0BECD0DFF3EBEB8AD4F835768F69B9ADF25C43D30E6B646F807FAA64AD59F61715C7A54127C4AACA98BA3006A9D792DAE165E0D59B61A01FB3A9F9D838D2DAE62445C86166
310
F37564E842E7DE6A69879FEEA2DD5AE7E371E1A5E025154AC307D06A03D73EB5978C58FFA4C8E9033066E0F3BD53BEC1F39F91BE7B55103791EDE6BBB991A2046172CB4581D8B893FA674DDA17A77B3B7C413D1B511FD2743BFF8A38F03A658705E3ADF8015C3A3417FF3D7E439FF591DA0B5F18BC20C1B8981957AE6392A3
310
F43C640C01D1A0B4728E2DD4F26DB4B3C3152A252A3B4E913CEC1C72F012782FF88EFF8637AA552DBEF76408E8A8DE9E50F9E1CB3A2DA0DB1B6039A893B56063DC5B3E3FFB5F72E67AB9FEB4AEC496C4F4C1149625DD662C53E89D7BF0F6151A046260D1337DFDC94502430F83B0EE07A130A224BCAD7DAE1D9FB6CD422FF6
310
920702629C4BB9AE79C12F243C6432A6794E18E5552BA56B431AAB5D91317302B2B071E86C3A42B1A02F999E24061403B5D0EB639195DA655DD3EBEAB4FB862DDF579F014AD0E73C22F99E28DA57FB98E75C6CA2D74D53086D600F4786E0FE3144B771A8A7B900F03594DB8A633CBC49B2EDB69228BB479CF863B5E807AAAB
310
23872F6DFEB4129B949CA33823F58830E86D65621E10047D9DB34D862E8EAC3C2ABC2F7B2C40D67CDFE01F5545B92105AF983AC54D93D69E56FB8E797F88913F898A9FEC705D3F9D1B54EC8426FB500D40A03BD0119B06E1B95DDC7EB8F6975367793EBD70E66733DFB9BC982F9CE564727731999F5D4ECFCE3B8D6A4DC2A0
310
6D50FD148437D110834A64C6CDDF57FBACB5C307A2A477DFE4939736CFEF2B175371E0E10CF0DD1D5C15654E0BCA14D1E87DD02FF93782A162C0A3D95F1524A52770F972BF1EE9809D13CE7DD599467F8ECE9ADD85CE85A34CD45355448C64F9E8A031DC2D596ACC6E5DD93D9B82DE2EF5CAF81363A8E47996A0DE24564A79
310
4115AACE09C55E14540231FDA13C319787134EBF34E3A022514E5B4D9E0826E25C02D5805B15ABE1BEF51B26383D445DD9E875EE33FE4C22DA16427D65A3BCA92CA6D28DD01DF5DC53330704308475351050232CCD31583787BA75774AFB06E5070DD0C8EF484E19968C5D83BA5B90B244D31E54D55A372320FE4786B7EA58
310
44E135AA5467CB7EA333A61683CC6A8C3257034C10CF46F40EF9F5BE59BE5BD30C3C72D235E95D10345C1D45445A5F0BB47E46A5EBE5570F9380B5FA629579952296A773720405982B9DE04011506178964401AA8BDF1FBF0A8EAB6861DD6580C0E38217056766716DAEB2D6FA0917D3E4116581EADB879C4E7CFFB11EFACD
310
3D641311495D92C8676CB409A72D18610D803CE8A626049E8EC1887CB5B44CC39883690DDA8399B4B9855B481E7D71D4A9D22F96E5BB73BF5793020C02137BF837504B0304140006080000CC70623B000000000000000000000000350000006662782F36394639363044362D344446342D343946362D394244322D32343142
310
43333846323333332F76657274696365732E62696E504B0304140006080800CC70623BF270F1330600000004000000360000006662782F36394639363044362D344446342D343946362D394244322D3234314243333846323333332F747269616E676C65732E62696E636660600000504B0304140006080000CC70623B0000
310
00000000000000000000370000006662782F36394639363044362D344446342D343946362D394244322D3234314243333846323333332F617474726962757465732E62696E504B0304140006080800CC70623B08DA0BD19000000041010000360000006662782F36394639363044362D344446342D343946362D394244322D
310
3234314243333846323333332F6469726563746F72792E786D6C858F410AC3201045AF22B36F53E9A60B35CBEEBAE80D244E44489C6234F4F835464A48035D0DF398FF9F8AF63D0E6CC63039F212F8F9020C7D47C6792B21C5FE7403D62A1188E2E60C98D7234A5830286103A55745067B9D86B8A3CF9C7F90C11DE607FB14
310
4396D7B6A82D282E9A152AD114D5EF2CB866EEE831B8EEA07A7BB5A8D7D61A2BAAEB7FD5F70921FF497D00504B0304140006080800CC70623BCA768048FE000000A00100003B0000006662782F36394639363044362D344446342D343946362D394244322D3234314243333846323333332F7265736F75726365732F636F72
310
652E786D6C8D50596E833010BD0A9ADFCA60D600328E9AA639412F609909B1126CE4A5EAF16B0295DABFFECC8CDEA2797AECF8353F924FB44E193D409E5248504B332A3D0D10FC95B4901C39B3C6F85F3248B49871801506CE266BC2B243D2688FDA47549B11775038871E12F988C7004EDE7016A9083E2ADC3D5D84BC8B09
310
D33C8D74D471E6BC8D0192EDC93A815B742658898E651BCB59086ADC356A8C3FD555A1055ED7E7E254D615792D0F075295F585746FF53B694EE78A565DD736979A65AB9933AFE69F8CD2A2F038022F28ED489E135A7CE4554F9BBEA85E68DB53CAB255FEC71496F19FA6A0B42F8B3DEE6673C0F318E4497096AD7DC5F52C33
310
EEB55BFE0D504B010214000A0000080000CC70623B3DEE336E79000000790000001B00000000000000000000000000000000006175746F6465736B2D64657369676E2D7061636B6167652E786D6C504B01021400140006080800CC70623BD486FD9CA0000000F40000001300000000000000000000000000B20000005B436F
310
6E74656E745F54797065735D2E786D6C504B01021400140006080800CC70623BD9DDAED0EC0000007C010000080000000000000000000000000083010000636F72652E786D6C504B01021400140006080800CC70623B55019EA25F0000007C000000070000000000000000000000000095020000636E782E786D6C504B0102
310
1400140006080800CC70623BA24EB22D72010000D40300000C00000000000000000000000000190300006662782F636F72652E786D6C504B01021400140006080800CC70623B408A7D3B7C0000009D0000000B00000000000000000000000000B50400006662782F636E782E786D6C504B01021400140006080800CC70623B
310
449FB9BD290100001202000031000000000000000000000000005A0500006662782F36394639363044362D344446342D343946362D394244322D3234314243333846323333332F636F72652E786D6C504B01021400140006080800CC70623BAD7543B64E010000330300003000000000000000000000000000D20600006662
310
782F36394639363044362D344446342D343946362D394244322D3234314243333846323333332F636E782E786D6C504B01021400140006080800CC70623B8D05915C650500003B10000034000000000000000000000000006E0800006662782F36394639363044362D344446342D343946362D394244322D32343142433338
310
46323333332F6F626A656374732E786D6C504B01021400140006080000CC70623B0000000000000000000000003500000000000000000000000000250E00006662782F36394639363044362D344446342D343946362D394244322D3234314243333846323333332F76657274696365732E62696E504B010214001400060808
310
00CC70623BF270F13306000000040000003600000000000000000000000000780E00006662782F36394639363044362D344446342D343946362D394244322D3234314243333846323333332F747269616E676C65732E62696E504B01021400140006080000CC70623B00000000000000000000000037000000000000000000
310
00000000D20E00006662782F36394639363044362D344446342D343946362D394244322D3234314243333846323333332F617474726962757465732E62696E504B01021400140006080800CC70623B08DA0BD190000000410100003600000000000000000000000000270F00006662782F36394639363044362D344446342D
310
343946362D394244322D3234314243333846323333332F6469726563746F72792E786D6C504B01021400140006080800CC70623BCA768048FE000000A00100003B000000000000000000000000000B1000006662782F36394639363044362D344446342D343946362D394244322D3234314243333846323333332F7265736F
310
75726365732F636F72652E786D6C504B0506000000000E000E0080040000621100000000
  0
XRECORD
  5
12
102
{ACAD_REACTORS
330
D
102
}
330
D
100
AcDbXrecord
280
     1
270
     1
271
     1
  0
XRECORD
  5
13
102
{ACAD_REACTORS
330
D
102
}
330
D
100
AcDbXrecord
280
     1
270
     1
271
     1
  0
CELLSTYLEMAP
  5
23E
102
{ACAD_REACTORS
330
48
102
}
330
48
100
AcDbCellStyleMap
 90
        3
300
CELLSTYLE
  1
TABLEFORMAT_BEGIN
 90
        5
170
     1
 91
        0
 92
    32768
 62
   257
 93
        1
300
CONTENTFORMAT
  1
CONTENTFORMAT_BEGIN
 90
        0
 91
        0
 92
      512
 93
        0
300

 40
0.0
140
1.0
 94
        5
 62
     0
340
27
144
6.0
309
CONTENTFORMAT_END
171
     1
301
MARGIN
  1
CELLMARGIN_BEGIN
 40
1.5
 40
1.5
 40
1.5
 40
1.5
 40
0.18
 40
0.18
309
CELLMARGIN_END
 94
        6
 95
        1
302
GRIDFORMAT
  1
GRIDFORMAT_BEGIN
 90
        0
 91
        1
 62
     0
 92
       -2
340
2A
 93
        0
 40
1.125
309
GRIDFORMAT_END
 95
        2
302
GRIDFORMAT
  1
GRIDFORMAT_BEGIN
 90
        0
 91
        1
 62
     0
 92
       -2
340
2A
 93
        0
 40
1.125
309
GRIDFORMAT_END
 95
        4
302
GRIDFORMAT
  1
GRIDFORMAT_BEGIN
 90
        0
 91
        1
 62
     0
 92
       -2
340
2A
 93
        0
 40
1.125
309
GRIDFORMAT_END
 95
        8
302
GRIDFORMAT
  1
GRIDFORMAT_BEGIN
 90
        0
 91
        1
 62
     0
 92
       -2
340
2A
 93
        0
 40
1.125
309
GRIDFORMAT_END
 95
       16
302
GRIDFORMAT
  1
GRIDFORMAT_BEGIN
 90
        0
 91
        1
 62
     0
 92
       -2
340
2A
 93
        0
 40
1.125
309
GRIDFORMAT_END
 95
       32
302
GRIDFORMAT
  1
GRIDFORMAT_BEGIN
 90
        0
 91
        1
 62
     0
 92
       -2
340
2A
 93
        0
 40
1.125
309
GRIDFORMAT_END
309
TABLEFORMAT_END
  1
CELLSTYLE_BEGIN
 90
        1
 91
        1
300
_TITLE
309
CELLSTYLE_END
300
CELLSTYLE
  1
TABLEFORMAT_BEGIN
 90
        5
170
     1
 91
        0
 92
        0
 62
   257
 93
        1
300
CONTENTFORMAT
  1
CONTENTFORMAT_BEGIN
 90
        0
 91
        0
 92
      512
 93
        0
300

 40
0.0
140
1.0
 94
        5
 62
     0
340
27
144
4.5
309
CONTENTFORMAT_END
171
     1
301
MARGIN
  1
CELLMARGIN_BEGIN
 40
1.5
 40
1.5
 40
1.5
 40
1.5
 40
0.18
 40
0.18
309
CELLMARGIN_END
 94
        6
 95
        1
302
GRIDFORMAT
  1
GRIDFORMAT_BEGIN
 90
        0
 91
        1
 62
     0
 92
       -2
340
2A
 93
        0
 40
1.125
309
GRIDFORMAT_END
 95
        2
302
GRIDFORMAT
  1
GRIDFORMAT_BEGIN
 90
        0
 91
        1
 62
     0
 92
       -2
340
2A
 93
        0
 40
1.125
309
GRIDFORMAT_END
 95
        4
302
GRIDFORMAT
  1
GRIDFORMAT_BEGIN
 90
        0
 91
        1
 62
     0
 92
       -2
340
2A
 93
        0
 40
1.125
309
GRIDFORMAT_END
 95
        8
302
GRIDFORMAT
  1
GRIDFORMAT_BEGIN
 90
        0
 91
        1
 62
     0
 92
       -2
340
2A
 93
        0
 40
1.125
309
GRIDFORMAT_END
 95
       16
302
GRIDFORMAT
  1
GRIDFORMAT_BEGIN
 90
        0
 91
        1
 62
     0
 92
       -2
340
2A
 93
        0
 40
1.125
309
GRIDFORMAT_END
 95
       32
302
GRIDFORMAT
  1
GRIDFORMAT_BEGIN
 90
        0
 91
        1
 62
     0
 92
       -2
340
2A
 93
        0
 40
1.125
309
GRIDFORMAT_END
309
TABLEFORMAT_END
  1
CELLSTYLE_BEGIN
 90
        2
 91
        1
300
_HEADER
309
CELLSTYLE_END
300
CELLSTYLE
  1
TABLEFORMAT_BEGIN
 90
        5
170
     1
 91
        0
 92
        0
 62
   257
 93
        1
300
CONTENTFORMAT
  1
CONTENTFORMAT_BEGIN
 90
        0
 91
        0
 92
      512
 93
        0
300

 40
0.0
140
1.0
 94
        2
 62
     0
340
27
144
4.5
309
CONTENTFORMAT_END
171
     1
301
MARGIN
  1
CELLMARGIN_BEGIN
 40
1.5
 40
1.5
 40
1.5
 40
1.5
 40
0.18
 40
0.18
309
CELLMARGIN_END
 94
        6
 95
        1
302
GRIDFORMAT
  1
GRIDFORMAT_BEGIN
 90
        0
 91
        1
 62
     0
 92
       -2
340
2A
 93
        0
 40
1.125
309
GRIDFORMAT_END
 95
        2
302
GRIDFORMAT
  1
GRIDFORMAT_BEGIN
 90
        0
 91
        1
 62
     0
 92
       -2
340
2A
 93
        0
 40
1.125
309
GRIDFORMAT_END
 95
        4
302
GRIDFORMAT
  1
GRIDFORMAT_BEGIN
 90
        0
 91
        1
 62
     0
 92
       -2
340
2A
 93
        0
 40
1.125
309
GRIDFORMAT_END
 95
        8
302
GRIDFORMAT
  1
GRIDFORMAT_BEGIN
 90
        0
 91
        1
 62
     0
 92
       -2
340
2A
 93
        0
 40
1.125
309
GRIDFORMAT_END
 95
       16
302
GRIDFORMAT
  1
GRIDFORMAT_BEGIN
 90
        0
 91
        1
 62
     0
 92
       -2
340
2A
 93
        0
 40
1.125
309
GRIDFORMAT_END
 95
       32
302
GRIDFORMAT
  1
GRIDFORMAT_BEGIN
 90
        0
 91
        1
 62
     0
 92
       -2
340
2A
 93
        0
 40
1.125
309
GRIDFORMAT_END
309
TABLEFORMAT_END
  1
CELLSTYLE_BEGIN
 90
        3
 91
        2
300
_DATA
309
CELLSTYLE_END
  0
XRECORD
  5
242
102
{ACAD_REACTORS
330
48
102
}
330
48
100
AcDbXrecord
280
     1
102
ACAD_ROUNDTRIP_PRE2007_TABLESTYLE
 90
      512
 91
        0
  1

 92
      512
 93
        0
  2

 94
      512
 95
        0
  3

  0
XRECORD
  5
241
102
{ACAD_REACTORS
330
240
102
}
330
240
100
AcDbXrecord
280
     1
102
RTVSPost2010Prop28
280
     1
102
RTVSPost2010PropOp28
 70
     1
102
RTVSPost2010Prop29
280
     1
102
RTVSPost2010PropOp29
 70
     1
102
RTVSPost2010Prop30
280
     0
102
RTVSPost2010PropOp30
 70
     1
102
RTVSPost2010Prop31
280
     0
102
RTVSPost2010PropOp31
 70
     1
102
RTVSPost2010Prop32
280
     0
102
RTVSPost2010PropOp32
 70
     1
102
RTVSPost2010Prop33
280
     0
102
RTVSPost2010PropOp33
 70
     1
102
RTVSPost2010Prop34
280
     0
102
RTVSPost2010PropOp34
 70
     1
102
RTVSPost2010Prop35
280
     0
102
RTVSPost2010PropOp35
 70
     1
102
RTVSPost2010Prop36
280
     0
102
RTVSPost2010PropOp36
 70
     1
102
RTVSPost2010Prop37
 90
       50
102
RTVSPost2010PropOp37
 70
     1
102
RTVSPost2010Prop38
140
0.0
102
RTVSPost2010PropOp38
 70
     1
102
RTVSPost2010Prop39
140
1.0
102
RTVSPost2010PropOp39
 70
     1
102
RTVSPost2010Prop40
 90
        0
102
RTVSPost2010PropOp40
 70
     1
102
RTVSPost2010Prop41ColorIndex
 90
       18
102
RTVSPost2010Prop41ColorRGB
 90
        0
102
RTVSPost2010PropOp41
 70
     1
102
RTVSPost2010Prop42
 90
       50
102
RTVSPost2010PropOp42
 70
     1
102
RTVSPost2010Prop43
 90
        3
102
RTVSPost2010PropOp43
 70
     1
102
RTVSPost2010Prop44ColorIndex
 90
        5
102
RTVSPost2010Prop44ColorRGB
 90
      255
102
RTVSPost2010PropOp44
 70
     1
102
RTVSPost2010Prop45
280
     0
102
RTVSPost2010PropOp45
 70
     1
102
RTVSPost2010Prop46
 90
       50
102
RTVSPost2010PropOp46
 70
     1
102
RTVSPost2010Prop47
 90
       50
102
RTVSPost2010PropOp47
 70
     1
102
RTVSPost2010Prop48
 90
       50
102
RTVSPost2010PropOp48
 70
     1
102
RTVSPost2010Prop49
280
     0
102
RTVSPost2010PropOp49
 70
     1
102
RTVSPost2010Prop50
 90
       50
102
RTVSPost2010PropOp50
 70
     1
102
RTVSPost2010Prop51ColorIndex
 90
      256
102
RTVSPost2010Prop51ColorRGB
 90
-16777216
102
RTVSPost2010PropOp51
 70
     0
102
RTVSPost2010Prop52
140
1.0
102
RTVSPost2010PropOp52
 70
     0
102
RTVSPost2010Prop53
 90
        2
102
RTVSPost2010PropOp53
 70
     1
102
RTVSPost2010Prop54
  1
strokes_ogs.tif
102
RTVSPost2010PropOp54
 70
     1
102
RTVSPost2010Prop55
280
     0
102
RTVSPost2010PropOp55
 70
     1
102
RTVSPost2010Prop56
140
1.0
102
RTVSPost2010PropOp56
 70
     1
102
RTVSPost2010Prop57
140
1.0
102
RTVSPost2010PropOp57
 70
     1
102
RTVSPropertyOp0
 70
     1
102
RTVSPropertyOp1
 70
     1
102
RTVSPropertyOp2
 70
     1
102
RTVSPropertyOp3
 70
     1
102
RTVSPropertyOp4
 70
     1
102
RTVSPropertyOp5
 70
     1
102
RTVSPropertyOp6
 70
     1
102
RTVSPropertyOp7
 70
     1
102
RTVSPropertyOp8
 70
     1
102
RTVSPropertyOp9
 70
     1
102
RTVSPropertyOp10
 70
     1
102
RTVSPropertyOp11
 70
     1
102
RTVSPropertyOp12
 70
     1
102
RTVSPropertyOp13
 70
     1
102
RTVSPropertyOp14
 70
     1
102
RTVSPropertyOp15
 70
     1
102
RTVSPropertyOp16
 70
     1
102
RTVSPropertyOp17
 70
     1
102
RTVSPropertyOp18
 70
     1
102
RTVSPropertyOp19
 70
     1
102
RTVSPropertyOp20
 70
     1
102
RTVSPropertyOp21
 70
     1
102
RTVSPropertyOp22
 70
     1
102
RTVSPropertyOp23
 70
     1
102
RTVSPropertyOp24
 70
     1
102
RTVSPropertyOp25
 70
     1
102
RTVSPropertyOp26
 70
     1
102
RTVSPropertyOp27
 70
     1
102
RTVSPropertyOp28
 70
     1
102
RTVSPropertyOp29
 70
     1
102
RTVSPropertyOp30
 70
     1
102
RTVSPropertyOp31
 70
     1
102
RTVSPropertyOp32
 70
     1
102
RTVSPropertyOp33
 70
     1
102
RTVSPropertyOp34
 70
     1
102
RTVSPropertyOp35
 70
     1
102
RTVSPropertyOp36
 70
     1
102
RTVSPropertyOp37
 70
     1
102
RTVSPropertyOp38
 70
     1
102
RTVSPropertyOp39
 70
     1
102
RTVSPropertyOp40
 70
     1
102
RTVSPropertyOp41
 70
     1
102
RTVSPropertyOp42
 70
     1
102
RTVSPropertyOp43
 70
     1
102
RTVSPropertyOp44
 70
     1
102
RTVSPropertyOp45
 70
     1
102
RTVSPropertyOp46
 70
     1
102
RTVSPropertyOp47
 70
     1
102
RTVSPropertyOp48
 70
     1
102
RTVSPropertyOp49
 70
     1
102
RTVSPropertyOp50
 70
     1
102
RTVSPropertyOp51
 70
     0
102
RTVSPropertyOp52
 70
     0
102
RTVSPropertyOp53
 70
     1
102
RTVSPropertyOp54
 70
     1
102
RTVSPropertyOp55
 70
     1
102
RTVSPropertyOp56
 70
     1
102
RTVSPropertyOp57
 70
     1
102
RTVSPropertyOp58
 70
     1
102
RTVSPropertyOp59
 70
     1
102
RTVSPropertyOp60
 70
     1
102
RTVSPropertyOp61
 70
     1
102
RTVSPropertyOp62
 70
     1
  0
XRECORD
  5
244
102
{ACAD_REACTORS
330
243
102
}
330
243
100
AcDbXrecord
280
     1
102
RTVSPost2010Prop28
280
     0
102
RTVSPost2010PropOp28
 70
     1
102
RTVSPost2010Prop29
280
     1
102
RTVSPost2010PropOp29
 70
     1
102
RTVSPost2010Prop30
280
     1
102
RTVSPost2010PropOp30
 70
     1
102
RTVSPost2010Prop31
280
     0
102
RTVSPost2010PropOp31
 70
     1
102
RTVSPost2010Prop32
280
     0
102
RTVSPost2010PropOp32
 70
     1
102
RTVSPost2010Prop33
280
     0
102
RTVSPost2010PropOp33
 70
     1
102
RTVSPost2010Prop34
280
     0
102
RTVSPost2010PropOp34
 70
     1
102
RTVSPost2010Prop35
280
     0
102
RTVSPost2010PropOp35
 70
     1
102
RTVSPost2010Prop36
280
     0
102
RTVSPost2010PropOp36
 70
     1
102
RTVSPost2010Prop37
 90
       50
102
RTVSPost2010PropOp37
 70
     1
102
RTVSPost2010Prop38
140
0.0
102
RTVSPost2010PropOp38
 70
     1
102
RTVSPost2010Prop39
140
1.0
102
RTVSPost2010PropOp39
 70
     1
102
RTVSPost2010Prop40
 90
        0
102
RTVSPost2010PropOp40
 70
     1
102
RTVSPost2010Prop41ColorIndex
 90
       18
102
RTVSPost2010Prop41ColorRGB
 90
        0
102
RTVSPost2010PropOp41
 70
     1
102
RTVSPost2010Prop42
 90
       50
102
RTVSPost2010PropOp42
 70
     1
102
RTVSPost2010Prop43
 90
        3
102
RTVSPost2010PropOp43
 70
     1
102
RTVSPost2010Prop44ColorIndex
 90
        5
102
RTVSPost2010Prop44ColorRGB
 90
      255
102
RTVSPost2010PropOp44
 70
     1
102
RTVSPost2010Prop45
280
     0
102
RTVSPost2010PropOp45
 70
     1
102
RTVSPost2010Prop46
 90
       50
102
RTVSPost2010PropOp46
 70
     1
102
RTVSPost2010Prop47
 90
       50
102
RTVSPost2010PropOp47
 70
     1
102
RTVSPost2010Prop48
 90
       50
102
RTVSPost2010PropOp48
 70
     1
102
RTVSPost2010Prop49
280
     0
102
RTVSPost2010PropOp49
 70
     1
102
RTVSPost2010Prop50
 90
       50
102
RTVSPost2010PropOp50
 70
     1
102
RTVSPost2010Prop51ColorIndex
 90
      256
102
RTVSPost2010Prop51ColorRGB
 90
-16777216
102
RTVSPost2010PropOp51
 70
     0
102
RTVSPost2010Prop52
140
1.0
102
RTVSPost2010PropOp52
 70
     0
102
RTVSPost2010Prop53
 90
        2
102
RTVSPost2010PropOp53
 70
     1
102
RTVSPost2010Prop54
  1
strokes_ogs.tif
102
RTVSPost2010PropOp54
 70
     1
102
RTVSPost2010Prop55
280
     0
102
RTVSPost2010PropOp55
 70
     1
102
RTVSPost2010Prop56
140
1.0
102
RTVSPost2010PropOp56
 70
     1
102
RTVSPost2010Prop57
140
1.0
102
RTVSPost2010PropOp57
 70
     1
102
RTVSPropertyOp0
 70
     1
102
RTVSPropertyOp1
 70
     1
102
RTVSPropertyOp2
 70
     1
102
RTVSPropertyOp3
 70
     1
102
RTVSPropertyOp4
 70
     1
102
RTVSPropertyOp5
 70
     1
102
RTVSPropertyOp6
 70
     1
102
RTVSPropertyOp7
 70
     1
102
RTVSPropertyOp8
 70
     1
102
RTVSPropertyOp9
 70
     1
102
RTVSPropertyOp10
 70
     1
102
RTVSPropertyOp11
 70
     1
102
RTVSPropertyOp12
 70
     1
102
RTVSPropertyOp13
 70
     1
102
RTVSPropertyOp14
 70
     1
102
RTVSPropertyOp15
 70
     1
102
RTVSPropertyOp16
 70
     1
102
RTVSPropertyOp17
 70
     1
102
RTVSPropertyOp18
 70
     1
102
RTVSPropertyOp19
 70
     1
102
RTVSPropertyOp20
 70
     1
102
RTVSPropertyOp21
 70
     1
102
RTVSPropertyOp22
 70
     1
102
RTVSPropertyOp23
 70
     1
102
RTVSPropertyOp24
 70
     1
102
RTVSPropertyOp25
 70
     1
102
RTVSPropertyOp26
 70
     1
102
RTVSPropertyOp27
 70
     1
102
RTVSPropertyOp28
 70
     1
102
RTVSPropertyOp29
 70
     1
102
RTVSPropertyOp30
 70
     1
102
RTVSPropertyOp31
 70
     1
102
RTVSPropertyOp32
 70
     1
102
RTVSPropertyOp33
 70
     1
102
RTVSPropertyOp34
 70
     1
102
RTVSPropertyOp35
 70
     1
102
RTVSPropertyOp36
 70
     1
102
RTVSPropertyOp37
 70
     1
102
RTVSPropertyOp38
 70
     1
102
RTVSPropertyOp39
 70
     1
102
RTVSPropertyOp40
 70
     1
102
RTVSPropertyOp41
 70
     1
102
RTVSPropertyOp42
 70
     1
102
RTVSPropertyOp43
 70
     1
102
RTVSPropertyOp44
 70
     1
102
RTVSPropertyOp45
 70
     1
102
RTVSPropertyOp46
 70
     1
102
RTVSPropertyOp47
 70
     1
102
RTVSPropertyOp48
 70
     1
102
RTVSPropertyOp49
 70
     1
102
RTVSPropertyOp50
 70
     1
102
RTVSPropertyOp51
 70
     0
102
RTVSPropertyOp52
 70
     0
102
RTVSPropertyOp53
 70
     1
102
RTVSPropertyOp54
 70
     1
102
RTVSPropertyOp55
 70
     1
102
RTVSPropertyOp56
 70
     1
102
RTVSPropertyOp57
 70
     1
102
RTVSPropertyOp58
 70
     1
102
RTVSPropertyOp59
 70
     1
102
RTVSPropertyOp60
 70
     1
102
RTVSPropertyOp61
 70
     1
102
RTVSPropertyOp62
 70
     1
  0
XRECORD
  5
246
102
{ACAD_REACTORS
330
245
102
}
330
245
100
AcDbXrecord
280
     1
102
RTVSPost2010Prop28
280
     0
102
RTVSPost2010PropOp28
 70
     1
102
RTVSPost2010Prop29
280
     1
102
RTVSPost2010PropOp29
 70
     1
102
RTVSPost2010Prop30
280
     1
102
RTVSPost2010PropOp30
 70
     1
102
RTVSPost2010Prop31
280
     0
102
RTVSPost2010PropOp31
 70
     1
102
RTVSPost2010Prop32
280
     0
102
RTVSPost2010PropOp32
 70
     1
102
RTVSPost2010Prop33
280
     0
102
RTVSPost2010PropOp33
 70
     1
102
RTVSPost2010Prop34
280
     0
102
RTVSPost2010PropOp34
 70
     1
102
RTVSPost2010Prop35
280
     0
102
RTVSPost2010PropOp35
 70
     1
102
RTVSPost2010Prop36
280
     0
102
RTVSPost2010PropOp36
 70
     1
102
RTVSPost2010Prop37
 90
       50
102
RTVSPost2010PropOp37
 70
     1
102
RTVSPost2010Prop38
140
0.0
102
RTVSPost2010PropOp38
 70
     1
102
RTVSPost2010Prop39
140
1.0
102
RTVSPost2010PropOp39
 70
     1
102
RTVSPost2010Prop40
 90
        0
102
RTVSPost2010PropOp40
 70
     1
102
RTVSPost2010Prop41ColorIndex
 90
       18
102
RTVSPost2010Prop41ColorRGB
 90
        0
102
RTVSPost2010PropOp41
 70
     1
102
RTVSPost2010Prop42
 90
       50
102
RTVSPost2010PropOp42
 70
     1
102
RTVSPost2010Prop43
 90
        3
102
RTVSPost2010PropOp43
 70
     1
102
RTVSPost2010Prop44ColorIndex
 90
        5
102
RTVSPost2010Prop44ColorRGB
 90
      255
102
RTVSPost2010PropOp44
 70
     1
102
RTVSPost2010Prop45
280
     0
102
RTVSPost2010PropOp45
 70
     1
102
RTVSPost2010Prop46
 90
       50
102
RTVSPost2010PropOp46
 70
     1
102
RTVSPost2010Prop47
 90
       50
102
RTVSPost2010PropOp47
 70
     1
102
RTVSPost2010Prop48
 90
       50
102
RTVSPost2010PropOp48
 70
     1
102
RTVSPost2010Prop49
280
     0
102
RTVSPost2010PropOp49
 70
     1
102
RTVSPost2010Prop50
 90
       50
102
RTVSPost2010PropOp50
 70
     1
102
RTVSPost2010Prop51ColorIndex
 90
      256
102
RTVSPost2010Prop51ColorRGB
 90
-16777216
102
RTVSPost2010PropOp51
 70
     0
102
RTVSPost2010Prop52
140
1.0
102
RTVSPost2010PropOp52
 70
     0
102
RTVSPost2010Prop53
 90
        2
102
RTVSPost2010PropOp53
 70
     1
102
RTVSPost2010Prop54
  1
strokes_ogs.tif
102
RTVSPost2010PropOp54
 70
     1
102
RTVSPost2010Prop55
280
     0
102
RTVSPost2010PropOp55
 70
     1
102
RTVSPost2010Prop56
140
1.0
102
RTVSPost2010PropOp56
 70
     1
102
RTVSPost2010Prop57
140
1.0
102
RTVSPost2010PropOp57
 70
     1
102
RTVSPropertyOp0
 70
     1
102
RTVSPropertyOp1
 70
     1
102
RTVSPropertyOp2
 70
     1
102
RTVSPropertyOp3
 70
     1
102
RTVSPropertyOp4
 70
     1
102
RTVSPropertyOp5
 70
     1
102
RTVSPropertyOp6
 70
     1
102
RTVSPropertyOp7
 70
     1
102
RTVSPropertyOp8
 70
     1
102
RTVSPropertyOp9
 70
     1
102
RTVSPropertyOp10
 70
     1
102
RTVSPropertyOp11
 70
     1
102
RTVSPropertyOp12
 70
     1
102
RTVSPropertyOp13
 70
     1
102
RTVSPropertyOp14
 70
     1
102
RTVSPropertyOp15
 70
     1
102
RTVSPropertyOp16
 70
     1
102
RTVSPropertyOp17
 70
     1
102
RTVSPropertyOp18
 70
     1
102
RTVSPropertyOp19
 70
     1
102
RTVSPropertyOp20
 70
     1
102
RTVSPropertyOp21
 70
     1
102
RTVSPropertyOp22
 70
     1
102
RTVSPropertyOp23
 70
     1
102
RTVSPropertyOp24
 70
     1
102
RTVSPropertyOp25
 70
     1
102
RTVSPropertyOp26
 70
     1
102
RTVSPropertyOp27
 70
     1
102
RTVSPropertyOp28
 70
     1
102
RTVSPropertyOp29
 70
     1
102
RTVSPropertyOp30
 70
     1
102
RTVSPropertyOp31
 70
     1
102
RTVSPropertyOp32
 70
     1
102
RTVSPropertyOp33
 70
     1
102
RTVSPropertyOp34
 70
     1
102
RTVSPropertyOp35
 70
     1
102
RTVSPropertyOp36
 70
     1
102
RTVSPropertyOp37
 70
     1
102
RTVSPropertyOp38
 70
     1
102
RTVSPropertyOp39
 70
     1
102
RTVSPropertyOp40
 70
     1
102
RTVSPropertyOp41
 70
     1
102
RTVSPropertyOp42
 70
     1
102
RTVSPropertyOp43
 70
     1
102
RTVSPropertyOp44
 70
     1
102
RTVSPropertyOp45
 70
     1
102
RTVSPropertyOp46
 70
     1
102
RTVSPropertyOp47
 70
     1
102
RTVSPropertyOp48
 70
     1
102
RTVSPropertyOp49
 70
     1
102
RTVSPropertyOp50
 70
     1
102
RTVSPropertyOp51
 70
     0
102
RTVSPropertyOp52
 70
     0
102
RTVSPropertyOp53
 70
     1
102
RTVSPropertyOp54
 70
     1
102
RTVSPropertyOp55
 70
     1
102
RTVSPropertyOp56
 70
     1
102
RTVSPropertyOp57
 70
     1
102
RTVSPropertyOp58
 70
     1
102
RTVSPropertyOp59
 70
     1
102
RTVSPropertyOp60
 70
     1
102
RTVSPropertyOp61
 70
     1
102
RTVSPropertyOp62
 70
     1
  0
ENDSEC
  0
EOF
