  0
SECTION
  2
HEADER
  9
$ACADVER
  1
AC1018
  9
$ACADMAINTVER
 70
   104
  9
$DWGCODEPAGE
  3
ANSI_932
  9
$INSBASE
 10
0.0
 20
0.0
 30
0.0
  9
$EXTMIN
 10
2.495975056417591
 20
4.431116299511546
 30
0.0
  9
$EXTMAX
 10
52.49611897934801
 20
27.36984444841403
 30
0.0
  9
$LIMMIN
 10
-3.993685380475653
 20
-3.37515903626263
  9
$LIMMAX
 10
57.84973037365489
 20
33.61593780440307
  9
$ORTHOMODE
 70
     0
  9
$REGENMODE
 70
     1
  9
$FILLMODE
 70
     1
  9
$QTEXTMODE
 70
     0
  9
$MIRRTEXT
 70
     0
  9
$LTSCALE
 40
1.0
  9
$ATTMODE
 70
     1
  9
$TEXTSIZE
 40
2.5
  9
$TRACEWID
 40
1.0
  9
$TEXTSTYLE
  7
Standard
  9
$CLAYER
  8
0
  9
$CELTYPE
  6
ByLayer
  9
$CECOLOR
 62
   256
  9
$CELTSCALE
 40
1.0
  9
$DISPSILH
 70
     0
  9
$DIMSCALE
 40
1.0
  9
$DIMASZ
 40
2.5
  9
$DIMEXO
 40
0.625
  9
$DIMDLI
 40
3.75
  9
$DIMRND
 40
0.0
  9
$DIMDLE
 40
0.0
  9
$DIMEXE
 40
1.25
  9
$DIMTP
 40
0.0
  9
$DIMTM
 40
0.0
  9
$DIMTXT
 40
2.5
  9
$DIMCEN
 40
2.5
  9
$DIMTSZ
 40
0.0
  9
$DIMTOL
 70
     0
  9
$DIMLIM
 70
     0
  9
$DIMTIH
 70
     0
  9
$DIMTOH
 70
     0
  9
$DIMSE1
 70
     0
  9
$DIMSE2
 70
     0
  9
$DIMTAD
 70
     1
  9
$DIMZIN
 70
     8
  9
$DIMBLK
  1

  9
$DIMASO
 70
     1
  9
$DIMSHO
 70
     1
  9
$DIMPOST
  1

  9
$DIMAPOST
  1

  9
$DIMALT
 70
     0
  9
$DIMALTD
 70
     3
  9
$DIMALTF
 40
0.03937007874016
  9
$DIMLFAC
 40
1.0
  9
$DIMTOFL
 70
     1
  9
$DIMTVP
 40
0.0
  9
$DIMTIX
 70
     0
  9
$DIMSOXD
 70
     0
  9
$DIMSAH
 70
     0
  9
$DIMBLK1
  1

  9
$DIMBLK2
  1

  9
$DIMSTYLE
  2
ISO-25
  9
$DIMCLRD
 70
     0
  9
$DIMCLRE
 70
     0
  9
$DIMCLRT
 70
     0
  9
$DIMTFAC
 40
1.0
  9
$DIMGAP
 40
0.625
  9
$DIMJUST
 70
     0
  9
$DIMSD1
 70
     0
  9
$DIMSD2
 70
     0
  9
$DIMTOLJ
 70
     0
  9
$DIMTZIN
 70
     8
  9
$DIMALTZ
 70
     0
  9
$DIMALTTZ
 70
     0
  9
$DIMUPT
 70
     0
  9
$DIMDEC
 70
     2
  9
$DIMTDEC
 70
     2
  9
$DIMALTU
 70
     2
  9
$DIMALTTD
 70
     3
  9
$DIMTXSTY
  7
Standard
  9
$DIMAUNIT
 70
     0
  9
$DIMADEC
 70
     0
  9
$DIMALTRND
 40
0.0
  9
$DIMAZIN
 70
     0
  9
$DIMDSEP
 70
    44
  9
$DIMATFIT
 70
     3
  9
$DIMFRAC
 70
     0
  9
$DIMLDRBLK
  1

  9
$DIMLUNIT
 70
     2
  9
$DIMLWD
 70
    -2
  9
$DIMLWE
 70
    -2
  9
$DIMTMOVE
 70
     0
  9
$LUNITS
 70
     2
  9
$LUPREC
 70
     4
  9
$SKETCHINC
 40
1.0
  9
$FILLETRAD
 40
0.0
  9
$AUNITS
 70
     0
  9
$AUPREC
 70
     0
  9
$MENU
  1
.
  9
$ELEVATION
 40
0.0
  9
$PELEVATION
 40
0.0
  9
$THICKNESS
 40
0.0
  9
$LIMCHECK
 70
     0
  9
$CHAMFERA
 40
0.0
  9
$CHAMFERB
 40
0.0
  9
$CHAMFERC
 40
0.0
  9
$CHAMFERD
 40
0.0
  9
$SKPOLY
 70
     0
  9
$TDCREATE
 40
2458205.563657407
  9
$TDUCREATE
 40
2458205.230324074
  9
$TDUPDATE
 40
2458205.563854167
  9
$TDUUPDATE
 40
2458205.230520833
  9
$TDINDWG
 40
0.0003125000
  9
$TDUSRTIMER
 40
0.0003125000
  9
$USRTIMER
 70
     1
  9
$ANGBASE
 50
0.0
  9
$ANGDIR
 70
     0
  9
$PDMODE
 70
     0
  9
$PDSIZE
 40
0.0
  9
$PLINEWID
 40
0.0
  9
$SPLFRAME
 70
     0
  9
$SPLINETYPE
 70
     6
  9
$SPLINESEGS
 70
     8
  9
$HANDSEED
  5
23B
  9
$SURFTAB1
 70
     6
  9
$SURFTAB2
 70
     6
  9
$SURFTYPE
 70
     6
  9
$SURFU
 70
     6
  9
$SURFV
 70
     6
  9
$UCSBASE
  2

  9
$UCSNAME
  2

  9
$UCSORG
 10
0.0
 20
0.0
 30
0.0
  9
$UCSXDIR
 10
1.0
 20
0.0
 30
0.0
  9
$UCSYDIR
 10
0.0
 20
1.0
 30
0.0
  9
$UCSORTHOREF
  2

  9
$UCSORTHOVIEW
 70
     0
  9
$UCSORGTOP
 10
0.0
 20
0.0
 30
0.0
  9
$UCSORGBOTTOM
 10
0.0
 20
0.0
 30
0.0
  9
$UCSORGLEFT
 10
0.0
 20
0.0
 30
0.0
  9
$UCSORGRIGHT
 10
0.0
 20
0.0
 30
0.0
  9
$UCSORGFRONT
 10
0.0
 20
0.0
 30
0.0
  9
$UCSORGBACK
 10
0.0
 20
0.0
 30
0.0
  9
$PUCSBASE
  2

  9
$PUCSNAME
  2

  9
$PUCSORG
 10
0.0
 20
0.0
 30
0.0
  9
$PUCSXDIR
 10
1.0
 20
0.0
 30
0.0
  9
$PUCSYDIR
 10
0.0
 20
1.0
 30
0.0
  9
$PUCSORTHOREF
  2

  9
$PUCSORTHOVIEW
 70
     0
  9
$PUCSORGTOP
 10
0.0
 20
0.0
 30
0.0
  9
$PUCSORGBOTTOM
 10
0.0
 20
0.0
 30
0.0
  9
$PUCSORGLEFT
 10
0.0
 20
0.0
 30
0.0
  9
$PUCSORGRIGHT
 10
0.0
 20
0.0
 30
0.0
  9
$PUCSORGFRONT
 10
0.0
 20
0.0
 30
0.0
  9
$PUCSORGBACK
 10
0.0
 20
0.0
 30
0.0
  9
$USERI1
 70
     0
  9
$USERI2
 70
     0
  9
$USERI3
 70
     0
  9
$USERI4
 70
     0
  9
$USERI5
 70
     0
  9
$USERR1
 40
0.0
  9
$USERR2
 40
0.0
  9
$USERR3
 40
0.0
  9
$USERR4
 40
0.0
  9
$USERR5
 40
0.0
  9
$WORLDVIEW
 70
     1
  9
$SHADEDGE
 70
     3
  9
$SHADEDIF
 70
    70
  9
$TILEMODE
 70
     1
  9
$MAXACTVP
 70
    64
  9
$PINSBASE
 10
0.0
 20
0.0
 30
0.0
  9
$PLIMCHECK
 70
     0
  9
$PEXTMIN
 10
0.0
 20
0.0
 30
0.0
  9
$PEXTMAX
 10
0.0
 20
0.0
 30
0.0
  9
$PLIMMIN
 10
0.0
 20
0.0
  9
$PLIMMAX
 10
12.0
 20
9.0
  9
$UNITMODE
 70
     0
  9
$VISRETAIN
 70
     1
  9
$PLINEGEN
 70
     0
  9
$PSLTSCALE
 70
     1
  9
$TREEDEPTH
 70
  3020
  9
$CMLSTYLE
  2
Standard
  9
$CMLJUST
 70
     0
  9
$CMLSCALE
 40
20.0
  9
$PROXYGRAPHICS
 70
     1
  9
$MEASUREMENT
 70
     1
  9
$CELWEIGHT
370
    -1
  9
$ENDCAPS
280
     0
  9
$JOINSTYLE
280
     0
  9
$LWDISPLAY
290
     0
  9
$INSUNITS
 70
     4
  9
$HYPERLINKBASE
  1

  9
$STYLESHEET
  1

  9
$XEDIT
290
     1
  9
$CEPSNTYPE
380
     0
  9
$PSTYLEMODE
290
     1
  9
$FINGERPRINTGUID
  2
{EC15F332-32FA-6840-894F-57E92CD90952}
  9
$VERSIONGUID
  2
{C3239097-01BB-C442-86F7-7D6F3EAD44B9}
  9
$EXTNAMES
290
     1
  9
$PSVPSCALE
 40
0.0
  9
$OLESTARTUP
290
     0
  9
$SORTENTS
280
   127
  9
$INDEXCTL
280
     0
  9
$HIDETEXT
280
     1
  9
$XCLIPFRAME
290
     0
  9
$HALOGAP
280
     0
  9
$OBSCOLOR
 70
   257
  9
$OBSLTYPE
280
     0
  9
$INTERSECTIONDISPLAY
280
     0
  9
$INTERSECTIONCOLOR
 70
   257
  9
$DIMASSOC
280
     2
  9
$PROJECTNAME
  1

  0
ENDSEC
  0
SECTION
  2
CLASSES
  0
CLASS
  1
ACDBDICTIONARYWDFLT
  2
AcDbDictionaryWithDefault
  3
ObjectDBX Classes
 90
        0
 91
        1
280
     0
281
     0
  0
CLASS
  1
DICTIONARYVAR
  2
AcDbDictionaryVar
  3
ObjectDBX Classes
 90
        0
 91
       12
280
     0
281
     0
  0
CLASS
  1
TABLESTYLE
  2
AcDbTableStyle
  3
ObjectDBX Classes
 90
     4095
 91
        1
280
     0
281
     0
  0
CLASS
  1
MATERIAL
  2
AcDbMaterial
  3
ObjectDBX Classes
 90
     1153
 91
        3
280
     0
281
     0
  0
CLASS
  1
VISUALSTYLE
  2
AcDbVisualStyle
  3
ObjectDBX Classes
 90
     4095
 91
        3
280
     0
281
     0
  0
CLASS
  1
SCALE
  2
AcDbScale
  3
ObjectDBX Classes
 90
     1153
 91
       17
280
     0
281
     0
  0
CLASS
  1
MLEADERSTYLE
  2
AcDbMLeaderStyle
  3
ACDB_MLEADERSTYLE_CLASS
 90
     4095
 91
        0
280
     0
281
     0
  0
CLASS
  1
CELLSTYLEMAP
  2
AcDbCellStyleMap
  3
ObjectDBX Classes
 90
     1152
 91
        1
280
     0
281
     0
  0
CLASS
  1
EXACXREFPANELOBJECT
  2
ExAcXREFPanelObject
  3
EXAC_ESW
 90
     1025
 91
        0
280
     1
281
     0
  0
CLASS
  1
NPOCOLLECTION
  2
AcDbImpNonPersistentObjectsCollection
  3
ObjectDBX Classes
 90
     1153
 91
        0
280
     0
281
     0
  0
CLASS
  1
LAYER_INDEX
  2
AcDbLayerIndex
  3
ObjectDBX Classes
 90
        0
 91
        0
280
     0
281
     0
  0
CLASS
  1
SPATIAL_INDEX
  2
AcDbSpatialIndex
  3
ObjectDBX Classes
 90
        0
 91
        0
280
     0
281
     0
  0
CLASS
  1
IDBUFFER
  2
AcDbIdBuffer
  3
ObjectDBX Classes
 90
        0
 91
        0
280
     0
281
     0
  0
CLASS
  1
ACDBSECTIONVIEWSTYLE
  2
AcDbSectionViewStyle
  3
ObjectDBX Classes
 90
     1025
 91
        0
280
     0
281
     0
  0
CLASS
  1
ACDBDETAILVIEWSTYLE
  2
AcDbDetailViewStyle
  3
ObjectDBX Classes
 90
     1025
 91
        0
280
     0
281
     0
  0
CLASS
  1
SORTENTSTABLE
  2
AcDbSortentsTable
  3
ObjectDBX Classes
 90
        0
 91
        0
280
     0
281
     0
  0
ENDSEC
  0
SECTION
  2
TABLES
  0
TABLE
  2
VPORT
  5
28
330
0
100
AcDbSymbolTable
 70
     1
  0
VPORT
  5
29
330
28
100
AcDbSymbolTableRecord
100
AcDbViewportTableRecord
  2
*Active
 70
     0
 10
0.0
 20
0.0
 11
1.0
 21
1.0
 12
26.92802249658962
 22
15.91142599736909
 13
0.0
 23
0.0
 14
10.0
 24
10.0
 15
10.0
 25
10.0
 16
0.0
 26
0.0
 36
1.0
 17
0.0
 27
0.0
 37
0.0
 40
37.31732223686198
 41
2.326023391812865
 42
50.0
 43
0.0
 44
0.0
 50
0.0
 51
0.0
 71
     0
 72
  1000
 73
     1
 74
     3
 75
     0
 76
     1
 77
     0
 78
     0
281
     0
 65
     1
110
0.0
120
0.0
130
0.0
111
1.0
121
0.0
131
0.0
112
0.0
122
1.0
132
0.0
 79
     0
146
0.0
1001
ACAD_NAV_VCDISPLAY
1070
     3
  0
ENDTAB
  0
TABLE
  2
LTYPE
  5
23
330
0
100
AcDbSymbolTable
 70
     1
  0
LTYPE
  5
24
330
23
100
AcDbSymbolTableRecord
100
AcDbLinetypeTableRecord
  2
ByBlock
 70
     0
  3

 72
    65
 73
     0
 40
0.0
  0
LTYPE
  5
25
330
23
100
AcDbSymbolTableRecord
100
AcDbLinetypeTableRecord
  2
ByLayer
 70
     0
  3

 72
    65
 73
     0
 40
0.0
  0
LTYPE
  5
13
330
23
100
AcDbSymbolTableRecord
100
AcDbLinetypeTableRecord
  2
Continuous
 70
     0
  3
Solid line
 72
    65
 73
     0
 40
0.0
  0
ENDTAB
  0
TABLE
  2
LAYER
  5
1D
102
{ACAD_XDICTIONARY
360
1E
102
}
330
0
100
AcDbSymbolTable
 70
     1
  0
LAYER
  5
5
102
{ACAD_XDICTIONARY
360
6
102
}
330
1D
100
AcDbSymbolTableRecord
100
AcDbLayerTableRecord
  2
0
 70
     0
 62
     7
  6
Continuous
370
    -3
390
7
  0
ENDTAB
  0
TABLE
  2
STYLE
  5
20
330
0
100
AcDbSymbolTable
 70
     1
  0
STYLE
  5
21
330
20
100
AcDbSymbolTableRecord
100
AcDbTextStyleTableRecord
  2
Standard
 70
     0
 40
0.0
 41
1.0
 50
0.0
 71
     0
 42
2.5
  3
arial.ttf
  4

1001
ACAD
1000
Arial
1071
       34
  0
ENDTAB
  0
TABLE
  2
VIEW
  5
26
330
0
100
AcDbSymbolTable
 70
     0
  0
ENDTAB
  0
TABLE
  2
UCS
  5
27
330
0
100
AcDbSymbolTable
 70
     0
  0
ENDTAB
  0
TABLE
  2
APPID
  5
2D
330
0
100
AcDbSymbolTable
 70
     6
  0
APPID
  5
12
330
2D
100
AcDbSymbolTableRecord
100
AcDbRegAppTableRecord
  2
ACAD
 70
     0
  0
APPID
  5
18
330
2D
100
AcDbSymbolTableRecord
100
AcDbRegAppTableRecord
  2
ACAD_PSEXT
 70
     0
  0
APPID
  5
31
330
2D
100
AcDbSymbolTableRecord
100
AcDbRegAppTableRecord
  2
AcadAnnotative
 70
     0
  0
APPID
  5
32
330
2D
100
AcDbSymbolTableRecord
100
AcDbRegAppTableRecord
  2
ACAD_DSTYLE_DIMJAG
 70
     0
  0
APPID
  5
33
330
2D
100
AcDbSymbolTableRecord
100
AcDbRegAppTableRecord
  2
ACAD_DSTYLE_DIMTALN
 70
     0
  0
APPID
  5
2C
330
2D
100
AcDbSymbolTableRecord
100
AcDbRegAppTableRecord
  2
ACAD_NAV_VCDISPLAY
 70
     0
  0
ENDTAB
  0
TABLE
  2
DIMSTYLE
  5
2E
330
0
100
AcDbSymbolTable
 70
     2
100
AcDbDimStyleTable
 71
     2
340
2F
340
30
  0
DIMSTYLE
105
30
330
2E
100
AcDbSymbolTableRecord
100
AcDbDimStyleTableRecord
  2
Annotative
 70
     0
 40
0.0
 41
2.5
 42
0.625
 43
3.75
 44
1.25
 73
     0
 74
     0
 77
     1
 78
     8
140
2.5
141
2.5
143
0.03937007874016
147
0.625
171
     3
172
     1
271
     2
272
     2
274
     3
278
    44
283
     0
284
     8
340
21
1001
AcadAnnotative
1000
AnnotativeData
1002
{
1070
     1
1070
     1
1002
}
1001
ACAD_DSTYLE_DIMJAG
1070
   388
1040
1.5
1001
ACAD_DSTYLE_DIMTALN
1070
   392
1070
     0
  0
DIMSTYLE
105
2F
330
2E
100
AcDbSymbolTableRecord
100
AcDbDimStyleTableRecord
  2
ISO-25
 70
     0
 41
2.5
 42
0.625
 43
3.75
 44
1.25
 73
     0
 74
     0
 77
     1
 78
     8
140
2.5
141
2.5
143
0.03937007874016
147
0.625
171
     3
172
     1
271
     2
272
     2
274
     3
278
    44
283
     0
284
     8
340
21
  0
ENDTAB
  0
TABLE
  2
BLOCK_RECORD
  5
1
330
0
100
AcDbSymbolTable
 70
     0
  0
BLOCK_RECORD
  5
2
102
{ACAD_XDICTIONARY
360
3
102
}
330
1
100
AcDbSymbolTableRecord
100
AcDbBlockTableRecord
  2
*Model_Space
340
15
  0
BLOCK_RECORD
  5
19
330
1
100
AcDbSymbolTableRecord
100
AcDbBlockTableRecord
  2
*Paper_Space
340
1C
  0
ENDTAB
  0
ENDSEC
  0
SECTION
  2
BLOCKS
  0
BLOCK
  5
4
330
2
100
AcDbEntity
  8
0
100
AcDbBlockBegin
  2
*Model_Space
 70
     0
 10
0.0
 20
0.0
 30
0.0
  3
*Model_Space
  1

  0
ENDBLK
  5
14
330
2
100
AcDbEntity
  8
0
100
AcDbBlockEnd
  0
BLOCK
  5
1A
330
19
100
AcDbEntity
 67
     1
  8
0
100
AcDbBlockBegin
  2
*Paper_Space
 70
     0
 10
0.0
 20
0.0
 30
0.0
  3
*Paper_Space
  1

  0
ENDBLK
  5
1B
330
19
100
AcDbEntity
 67
     1
  8
0
100
AcDbBlockEnd
  0
ENDSEC
  0
SECTION
  2
ENTITIES
  0
ELLIPSE
  5
58
330
2
100
AcDbEntity
  8
0
100
AcDbEllipse
 10
27.82718311283407
 20
16.87713735651812
 30
0.0
 11
-0.0078266386231758
 21
0.4275634345886039
 31
0.0
210
0.0
220
0.0
230
1.0
 40
0.584460762865635
 41
1.255334287596886
 42
6.733877229837814
  0
ELLIPSE
  5
59
330
2
100
AcDbEntity
  8
0
100
AcDbEllipse
 10
27.81216766793205
 20
16.30451796270898
 30
0.0
 11
0.0171485171186244
 21
0.194197912260099
 31
0.0
210
0.0
220
0.0
230
1.0
 40
0.6457159237112302
 41
0.0
 42
6.283185307179584
  0
SPLINE
  5
5A
330
2
100
AcDbEntity
  8
0
100
AcDbSpline
210
0.0
220
0.0
230
1.0
 70
     8
 71
     3
 72
    10
 73
     6
 74
     0
 42
0.000000001
 43
0.0000000001
 40
0.0
 40
0.0
 40
0.0
 40
0.0
 40
0.3852248288516202
 40
0.9303658622867883
 40
1.0
 40
1.0
 40
1.0
 40
1.0
 10
18.76097401226514
 20
13.5627837244298
 30
0.0
 10
18.74204852521575
 20
13.54764757279287
 30
0.0
 10
18.69634112071014
 20
13.51109188449183
 30
0.0
 10
18.65492067646926
 20
13.45886109117455
 30
0.0
 10
18.64400813989959
 20
13.4218168193284
 30
0.0
 10
18.64277210254806
 20
13.41762090178278
 30
0.0
  0
SPLINE
  5
5B
330
2
100
AcDbEntity
  8
0
100
AcDbSpline
210
0.0
220
0.0
230
1.0
 70
     8
 71
     3
 72
    10
 73
     6
 74
     0
 42
0.000000001
 43
0.0000000001
 40
0.0
 40
0.0
 40
0.0
 40
0.0
 40
0.178406816138169
 40
0.5961940725780118
 40
1.0
 40
1.0
 40
1.0
 40
1.0
 10
19.04025700775685
 20
13.57696496748201
 30
0.0
 10
19.03106629325657
 20
13.58411768103133
 30
0.0
 10
19.00035306364805
 20
13.60802038560996
 30
0.0
 10
18.93227716270564
 20
13.61989360749521
 30
0.0
 10
18.87811194292192
 20
13.6098181906525
 30
0.0
 10
18.85149020695996
 20
13.60486621061875
 30
0.0
  0
SPLINE
  5
5C
330
2
100
AcDbEntity
  8
0
100
AcDbSpline
210
0.0
220
0.0
230
1.0
 70
     8
 71
     3
 72
    12
 73
     8
 74
     0
 42
0.000000001
 43
0.0000000001
 40
0.0
 40
0.0
 40
0.0
 40
0.0
 40
0.0291081485275992
 40
0.324446051290663
 40
0.5915218762100177
 40
0.8482103367107132
 40
1.0
 40
1.0
 40
1.0
 40
1.0
 10
18.66222482526257
 20
13.45608354859399
 30
0.0
 10
18.6601507735345
 20
13.45346308154705
 30
0.0
 10
18.63703292071989
 20
13.42425475917307
 30
0.0
 10
18.61804312663753
 20
13.3572540215743
 30
0.0
 10
18.61349845638676
 20
13.26867360142475
 30
0.0
 10
18.63315070787314
 20
13.19617938919504
 30
0.0
 10
18.66238983830919
 20
13.16416968829733
 30
0.0
 10
18.67325504137705
 20
13.15227494672302
 30
0.0
  0
LINE
  5
5D
330
2
100
AcDbEntity
  8
0
100
AcDbLine
 10
19.10607357324704
 20
13.53703149852998
 30
0.0
 11
19.04025700775685
 21
13.57696496748201
 31
0.0
  0
LINE
  5
5E
330
2
100
AcDbEntity
  8
0
100
AcDbLine
 10
18.67325504137705
 20
13.15227494672302
 30
0.0
 11
18.72217242516024
 21
13.09374145617409
 31
0.0
  0
SPLINE
  5
5F
330
2
100
AcDbEntity
  8
0
100
AcDbSpline
210
0.0
220
0.0
230
1.0
 70
     8
 71
     3
 72
     9
 73
     5
 74
     0
 42
0.000000001
 43
0.0000000001
 40
0.0
 40
0.0
 40
0.0
 40
0.0
 40
0.0304439907759075
 40
1.0
 40
1.0
 40
1.0
 40
1.0
 10
9.654086740636671
 20
10.94400545901118
 30
0.0
 10
9.653188746009277
 20
10.94368915007285
 30
0.0
 10
9.623692132575683
 20
10.93329928559669
 30
0.0
 10
9.60000101266587
 20
10.91103376229233
 30
0.0
 10
9.57703114499202
 20
10.88944609037406
 30
0.0
  0
SPLINE
  5
60
330
2
100
AcDbEntity
  8
0
100
AcDbSpline
210
0.0
220
0.0
230
1.0
 70
     8
 71
     3
 72
     9
 73
     5
 74
     0
 42
0.000000001
 43
0.0000000001
 40
0.0
 40
0.0
 40
0.0
 40
0.0
 40
0.558387413646741
 40
1.0
 40
1.0
 40
1.0
 40
1.0
 10
9.57703114499202
 20
10.88944609037406
 30
0.0
 10
9.559856809361463
 20
10.87193314120259
 30
0.0
 10
9.529099784380605
 20
10.84056970294551
 30
0.0
 10
9.512967106867563
 20
10.80015263032723
 30
0.0
 10
9.505842713426204
 20
10.78230394235544
 30
0.0
  0
SPLINE
  5
61
330
2
100
AcDbEntity
  8
0
100
AcDbSpline
210
0.0
220
0.0
230
1.0
 70
     8
 71
     3
 72
    10
 73
     6
 74
     0
 42
0.000000001
 43
0.0000000001
 40
0.0
 40
0.0
 40
0.0
 40
0.0
 40
0.3341848966245098
 40
0.6760545672849795
 40
1.0
 40
1.0
 40
1.0
 40
1.0
 10
9.893210155613473
 20
10.9458506298929
 30
0.0
 10
9.868905454657351
 20
10.9568518764481
 30
0.0
 10
9.81973715215804
 20
10.97910734955479
 30
0.0
 10
9.736305816183062
 20
10.9777075414994
 30
0.0
 10
9.684775485275963
 20
10.95644842576712
 30
0.0
 10
9.659703937245694
 20
10.94610502350707
 30
0.0
  0
SPLINE
  5
62
330
2
100
AcDbEntity
  8
0
100
AcDbSpline
210
0.0
220
0.0
230
1.0
 70
     8
 71
     3
 72
    11
 73
     7
 74
     0
 42
0.000000001
 43
0.0000000001
 40
0.0
 40
0.0
 40
0.0
 40
0.0
 40
0.1174437488512791
 40
0.4532904660140817
 40
0.7450588621110571
 40
1.0
 40
1.0
 40
1.0
 40
1.0
 10
9.508828948143218
 20
10.79055597616044
 30
0.0
 10
9.502754386485548
 20
10.78019305957923
 30
0.0
 10
9.479308771784872
 20
10.74019594323809
 30
0.0
 10
9.470715652209037
 20
10.66512591249278
 30
0.0
 10
9.482087453696749
 20
10.57955182347561
 30
0.0
 10
9.511976729665207
 20
10.53684265091246
 30
0.0
 10
9.525914672123462
 20
10.51692654487323
 30
0.0
  0
LINE
  5
63
330
2
100
AcDbEntity
  8
0
100
AcDbLine
 10
9.934492273088949
 20
10.91975493765028
 30
0.0
 11
9.902694887850316
 21
10.94065860331943
 31
0.0
  0
LINE
  5
64
330
2
100
AcDbEntity
  8
0
100
AcDbLine
 10
9.529896083966832
 20
10.5101874683086
 30
0.0
 11
9.555128927862824
 21
10.48170311392971
 31
0.0
  0
LINE
  5
65
330
2
100
AcDbEntity
  8
0
100
AcDbLine
 10
18.72217242516024
 20
13.09374145617409
 30
0.0
 11
18.7594899379211
 21
13.06142354211752
 31
0.0
  0
LINE
  5
66
330
2
100
AcDbEntity
  8
0
100
AcDbLine
 10
19.14339108598642
 20
13.50471358447339
 30
0.0
 11
19.10607357324704
 21
13.53703149852998
 31
0.0
  0
LINE
  5
67
330
2
100
AcDbEntity
  8
0
100
AcDbLine
 10
22.35261534810184
 20
14.16042574854143
 30
0.0
 11
22.3064468503153
 21
14.14709805121981
 31
0.0
  0
LINE
  5
68
330
2
100
AcDbEntity
  8
0
100
AcDbLine
 10
25.31427430395161
 20
14.62921987991086
 30
0.0
 11
23.66385862366269
 21
16.05852178584612
 31
0.0
  0
LINE
  5
69
330
2
100
AcDbEntity
  8
0
100
AcDbLine
 10
23.52712209553374
 20
16.1769390928311
 30
0.0
 11
23.41434939814655
 21
16.27460311362182
 31
0.0
  0
LINE
  5
6A
330
2
100
AcDbEntity
  8
0
100
AcDbLine
 10
23.35341225524212
 20
16.3273762274112
 30
0.0
 11
22.31760723253513
 21
17.22440969044365
 31
0.0
  0
LINE
  5
6B
330
2
100
AcDbEntity
  8
0
100
AcDbLine
 10
22.22175336537714
 20
17.22200231894362
 30
0.0
 11
5.785800486967787
 21
12.47735140958551
 31
0.0
  0
LINE
  5
6C
330
2
100
AcDbEntity
  8
0
100
AcDbLine
 10
22.27446260604245
 20
12.68856086856201
 30
0.0
 11
25.20655005699314
 21
10.14929864990347
 31
0.0
  0
LINE
  5
6D
330
2
100
AcDbEntity
  8
0
100
AcDbLine
 10
26.12579206041812
 20
10.42949561620867
 30
0.0
 11
26.12579206041812
 21
10.47566411399521
 31
0.0
  0
LINE
  5
6E
330
2
100
AcDbEntity
  8
0
100
AcDbLine
 10
6.358572659616811
 20
5.606461217226922
 30
0.0
 11
24.42876886550493
 21
10.82287753912669
 31
0.0
  0
LINE
  5
6F
330
2
100
AcDbEntity
  8
0
100
AcDbLine
 10
2.495975056417591
 20
6.978448700381107
 30
0.0
 11
2.495975056417591
 21
6.932280202594569
 31
0.0
  0
LINE
  5
70
330
2
100
AcDbEntity
  8
0
100
AcDbLine
 10
18.76160615678202
 20
13.56318005061462
 30
0.0
 11
18.84826883490416
 21
13.60398237410851
 31
0.0
  0
LINE
  5
71
330
2
100
AcDbEntity
  8
0
100
AcDbLine
 10
9.65337726064456
 20
10.94405404942165
 30
0.0
 11
9.658795655926837
 21
10.94677501490514
 31
0.0
  0
LINE
  5
72
330
2
100
AcDbEntity
  8
0
100
AcDbLine
 10
9.895490541053959
 20
10.94513173354278
 30
0.0
 11
9.902694887850316
 21
10.94065860331943
 31
0.0
  0
LINE
  5
73
330
2
100
AcDbEntity
  8
0
100
AcDbLine
 10
9.529896083966832
 20
10.5101874683086
 30
0.0
 11
9.525988455068386
 21
10.51476608471802
 31
0.0
  0
LWPOLYLINE
  5
74
330
2
100
AcDbEntity
  8
0
100
AcDbPolyline
 90
        6
 70
   128
 43
0.0
 10
9.900645877615716
 20
10.51670693133334
 10
9.967123726219142
 20
10.60046274514846
 10
10.00578998929882
 20
10.69584548790411
 10
10.01142027713831
 20
10.78997154272676
 10
9.983256454658771
 20
10.8701300257687
 10
9.934492273088949
 20
10.91975493765028
  0
ARC
  5
75
330
2
100
AcDbEntity
  8
0
100
AcDbCircle
 10
9.711144274463322
 20
10.66447370015112
 30
0.0
 40
0.2403037152505904
100
AcDbArc
 50
229.5154980494999
 51
322.0541318141956
  0
LWPOLYLINE
  5
76
330
2
100
AcDbEntity
  8
0
100
AcDbPolyline
 90
       11
 70
   128
 43
0.0
 10
18.7594899379211
 20
13.06142354211752
 10
18.76466754619275
 20
13.0571210700682
 10
18.83942433953677
 20
13.02284854686002
 10
18.92930943556484
 20
13.02371989378068
 10
19.02218441807372
 20
13.05961789292505
 10
19.10550359683168
 20
13.1256939337635
 10
19.16801602765156
 20
13.21302445508993
 10
19.20127903064997
 20
13.30981493869368
 10
19.20080020852651
 20
13.40299302532861
 10
19.16664285383297
 20
13.47997453880131
 10
19.14339108598642
 20
13.50471358447339
  0
LWPOLYLINE
  5
77
330
2
100
AcDbEntity
  8
0
100
AcDbPolyline
 90
       14
 70
   128
 43
0.0
 10
18.6506886157988
 20
13.07795668382118
 10
18.7053940443858
 20
13.00250427019017
 10
18.7867621605601
 20
12.95745526877442
 10
18.88597465669602
 20
12.94769130020498
 10
18.99228280149498
 20
12.9742709601806
 10
19.09416459342151
 20
13.0343135893234
 10
19.18057960491762
 20
13.1213126700415
 10
19.24216466184975
 20
13.22584045005118
 10
19.27224377284438
 20
13.33656941253886
 10
19.26756012187559
 20
13.44150108107186
 10
19.22862004957153
 20
13.52926443785378
 10
19.15964214405107
 20
13.59034815994556
 10
19.06810318536463
 20
13.61813357804922
 10
18.97299507548337
 20
13.61175018923751
  0
LWPOLYLINE
  5
78
330
2
100
AcDbEntity
  8
0
100
AcDbPolyline
 90
        3
 70
   128
 43
0.0
 10
18.62904530507183
 20
13.21250451983303
 10
18.62857473849112
 20
13.17563627938372
 10
18.6506886157988
 20
13.07795668382118
  0
LWPOLYLINE
  5
79
330
2
100
AcDbEntity
  8
0
100
AcDbPolyline
 90
       14
 70
   128
 43
0.0
 10
9.540836127404872
 20
10.38773263161641
 10
9.613458860018454
 20
10.33095239281351
 10
9.707390553437448
 20
10.30811653163707
 10
9.812450733658124
 20
10.32169908996763
 10
9.917256367637719
 20
10.37022891518134
 10
10.0104491889823
 20
10.44844616917839
 10
10.08193127922357
 20
10.54787571840958
 10
10.12395617686832
 20
10.65774235734235
 10
10.13196819202153
 20
10.76614012775812
 10
10.10510049153527
 20
10.86132259354366
 10
10.04626591000101
 20
10.9329756442518
 10
9.961837735157359
 20
10.97333409648865
 10
9.860965872674796
 20
10.97802483146597
 10
9.829473686010942
 20
10.97238085802831
  0
ARC
  5
7A
330
2
100
AcDbEntity
  8
0
100
AcDbCircle
 10
9.761462869108299
 20
10.55150847259509
 30
0.0
 40
0.2747702408283685
100
AcDbArc
 50
173.769377047998
 51
216.5872708829976
  0
LWPOLYLINE
  5
7B
330
2
100
AcDbEntity
  8
0
100
AcDbPolyline
 90
        4
 70
   128
 43
0.0
 10
22.38218675369365
 20
14.15032421825265
 10
22.37178638741728
 20
14.15755694351878
 10
22.36178569914387
 20
14.16096313349311
 10
22.35256897552858
 20
14.16041224727024
  0
LINE
  5
7C
330
2
100
AcDbEntity
  8
0
100
AcDbLine
 10
22.38218675369365
 20
14.15032421825265
 30
0.0
 11
22.48880813361006
 21
14.05798739468116
 31
0.0
  0
LWPOLYLINE
  5
7D
330
2
100
AcDbEntity
  8
0
100
AcDbPolyline
 90
        3
 70
   128
 43
0.0
 10
22.48880813361006
 20
14.05798739468116
 10
22.56390489891339
 20
14.01165292585969
 10
22.61763438151081
 20
14.00762180459509
  0
LINE
  5
7E
330
2
100
AcDbEntity
  8
0
100
AcDbLine
 10
25.31427430395161
 20
14.62921987991086
 30
0.0
 11
25.31427430395161
 21
11.19274404886843
 31
0.0
  0
ARC
  5
7F
330
2
100
AcDbEntity
  8
0
100
AcDbCircle
 10
22.48483464840638
 20
13.58126214885345
 30
0.0
 40
0.2021343439616214
100
AcDbArc
 50
179.5143398835028
 51
222.5891566898005
  0
LINE
  5
80
330
2
100
AcDbEntity
  8
0
100
AcDbLine
 10
22.28270756594895
 20
14.09082793716496
 30
0.0
 11
22.28270756594895
 21
13.58297549343757
 31
0.0
  0
LINE
  5
81
330
2
100
AcDbEntity
  8
0
100
AcDbLine
 10
22.33601825590722
 20
13.4444704300393
 30
0.0
 11
22.65588239563488
 21
13.16745995928232
 31
0.0
  0
LINE
  5
82
330
2
100
AcDbEntity
  8
0
100
AcDbLine
 10
5.773930894438194
 20
9.078923194611547
 30
0.0
 11
5.773930894438194
 21
12.4492163095577
 31
0.0
  0
LINE
  5
83
330
2
100
AcDbEntity
  8
0
100
AcDbLine
 10
19.34744310162909
 20
14.52081598914282
 30
0.0
 11
18.60874851292954
 21
14.30757322931015
 31
0.0
  0
LINE
  5
84
330
2
100
AcDbEntity
  8
0
100
AcDbLine
 10
19.34744310162909
 20
14.79782628789817
 30
0.0
 11
19.34744310162909
 21
14.52081598914282
 31
0.0
  0
LINE
  5
85
330
2
100
AcDbEntity
  8
0
100
AcDbLine
 10
19.34744310162909
 20
14.79782628789817
 30
0.0
 11
18.60874851292954
 21
14.58458352808682
 31
0.0
  0
LINE
  5
86
330
2
100
AcDbEntity
  8
0
100
AcDbLine
 10
18.60874851292954
 20
14.58458352808682
 30
0.0
 11
18.60874851292954
 21
14.30757322931015
 31
0.0
  0
LINE
  5
87
330
2
100
AcDbEntity
  8
0
100
AcDbLine
 10
10.20609842654983
 20
11.88193708468356
 30
0.0
 11
9.467403837871756
 21
11.66869432487215
 31
0.0
  0
LINE
  5
88
330
2
100
AcDbEntity
  8
0
100
AcDbLine
 10
10.20609842654983
 20
12.15894738343891
 30
0.0
 11
10.20609842654983
 21
11.88193708468356
 31
0.0
  0
LINE
  5
89
330
2
100
AcDbEntity
  8
0
100
AcDbLine
 10
10.20609842654983
 20
12.15894738343891
 30
0.0
 11
9.467403837871756
 21
11.94570462362753
 31
0.0
  0
LINE
  5
8A
330
2
100
AcDbEntity
  8
0
100
AcDbLine
 10
9.467403837871756
 20
11.94570462362753
 30
0.0
 11
9.467403837871756
 21
11.66869432487215
 31
0.0
  0
LWPOLYLINE
  5
8B
330
2
100
AcDbEntity
  8
0
100
AcDbPolyline
 90
        7
 70
   128
 43
0.0
 10
22.3064468503153
 20
14.14709805121981
 10
22.30640047774205
 20
14.14708454994851
 10
22.29832191791479
 20
14.14259765635748
 10
22.2916921287765
 20
14.13434674610465
 10
22.28676561336556
 20
14.12264940004485
 10
22.28373193322614
 20
14.10795477190527
 10
22.28270756594895
 20
14.09082793716496
  0
ARC
  5
8C
330
2
100
AcDbEntity
  8
0
100
AcDbCircle
 10
22.20518781994883
 20
12.73257428368103
 30
0.0
 40
0.6262995700052319
100
AcDbArc
 50
13.13109163539979
 51
43.97729533530008
  0
ARC
  5
8D
330
2
100
AcDbEntity
  8
0
100
AcDbCircle
 10
21.27430698554724
 20
13.56708037093852
 30
0.0
 40
0.1313615257228627
100
AcDbArc
 50
287.2089174333018
 51
357.1688175609007
  0
LINE
  5
8E
330
2
100
AcDbEntity
  8
0
100
AcDbLine
 10
21.31317117628055
 20
13.44159959503116
 30
0.0
 11
5.892924561253494
 21
8.990157827964708
 31
0.0
  0
LINE
  5
8F
330
2
100
AcDbEntity
  8
0
100
AcDbLine
 10
21.40550817185363
 20
14.76097051986659
 30
0.0
 11
21.40550817185363
 21
13.5605919852475
 31
0.0
  0
LWPOLYLINE
  5
90
330
2
100
AcDbEntity
  8
0
100
AcDbPolyline
 90
        8
 70
   128
 43
0.0
 10
22.61763438151081
 20
14.00762180459509
 10
22.64408727725265
 20
14.02954618585204
 10
22.68510516284857
 20
14.10457171467232
 10
22.70647994223657
 20
14.21214665702865
 10
22.70647994223657
 20
14.34355581376144
 10
22.68510516284857
 20
14.48815261605043
 10
22.64408727725265
 20
14.63422389469232
 10
22.61877697943373
 20
14.6941297082779
  0
LWPOLYLINE
  5
91
330
2
100
AcDbEntity
  8
0
100
AcDbPolyline
 90
        2
 70
   128
 43
0.0
 10
22.53416711444993
 20
14.85706454948448
 10
22.47211545026857
 20
14.93516067511956
  0
LWPOLYLINE
  5
92
330
2
100
AcDbEntity
  8
0
100
AcDbPolyline
 90
        2
 70
   128
 43
0.0
 10
22.47211545026857
 20
14.93516067511956
 10
22.45435695273511
 20
14.95496243914047
  0
ARC
  5
93
330
2
100
AcDbEntity
  8
0
100
AcDbCircle
 10
22.4848324873833
 20
15.19715563956942
 30
0.0
 40
0.2021321871967286
100
AcDbArc
 50
179.5141952210023
 51
222.5893967577972
  0
ARC
  5
94
330
2
100
AcDbEntity
  8
0
100
AcDbCircle
 10
22.10534033715408
 20
15.19202898475112
 30
0.0
 40
0.1313590151395757
100
AcDbArc
 50
287.2081354590033
 51
357.1692786496004
  0
LINE
  5
95
330
2
100
AcDbEntity
  8
0
100
AcDbLine
 10
22.14420207258945
 20
15.06655007665807
 30
0.0
 11
21.49784447948434
 21
14.87996271146866
 31
0.0
  0
LINE
  5
96
330
2
100
AcDbEntity
  8
0
100
AcDbLine
 10
22.28270756594895
 20
17.23027925112393
 30
0.0
 11
22.28270756594895
 21
15.19886947621106
 31
0.0
  0
LINE
  5
97
330
2
100
AcDbEntity
  8
0
100
AcDbLine
 10
22.23653906816253
 20
15.18554177891076
 30
0.0
 11
22.23653906816253
 21
17.17078305603402
 31
0.0
  0
LINE
  5
98
330
2
100
AcDbEntity
  8
0
100
AcDbLine
 10
22.45435695273511
 20
14.95496243914047
 30
0.0
 11
22.43014355050502
 21
14.97652891555321
 31
0.0
  0
LINE
  5
99
330
2
100
AcDbEntity
  8
0
100
AcDbLine
 10
22.3639998293379
 20
15.03544203271264
 30
0.0
 11
22.33601825590722
 21
15.06036475681597
 31
0.0
  0
ARC
  5
9A
330
2
100
AcDbEntity
  8
0
100
AcDbCircle
 10
21.53670748147488
 20
14.75448360574228
 30
0.0
 40
0.1313595786377937
100
AcDbArc
 50
107.2086376752041
 51
177.1694182046991
  0
LWPOLYLINE
  5
9B
330
2
100
AcDbEntity
  8
0
100
AcDbPolyline
 90
        7
 70
   128
 43
0.0
 10
5.773930894438194
 20
12.4492163095577
 10
5.774443078066155
 20
12.45778024290064
 10
5.775959868471545
 20
12.46512742796921
 10
5.778423175841226
 20
12.47097588601844
 10
5.781738070399796
 20
12.47510168512673
 10
5.78577735032411
 20
12.47734461594953
 10
5.785800486967787
 20
12.47735140958551
  0
LWPOLYLINE
  5
9C
330
2
100
AcDbEntity
  8
0
100
AcDbPolyline
 90
        4
 70
   128
 43
0.0
 10
22.23653906816253
 20
17.2169515538205
 10
22.23133888503491
 20
17.22056826042478
 10
22.22633859054122
 20
17.22227131242226
 10
22.22173022873346
 20
17.22199552530759
  0
LINE
  5
9D
330
2
100
AcDbEntity
  8
0
100
AcDbLine
 10
22.23653906816253
 20
17.17078305603402
 30
0.0
 11
22.23653906816253
 21
17.2169515538205
 31
0.0
  0
LINE
  5
9E
330
2
100
AcDbEntity
  8
0
100
AcDbLine
 10
22.23653906816253
 20
17.2169515538205
 30
0.0
 11
22.28270756594895
 21
17.23027925112086
 31
0.0
  0
ARC
  5
9F
330
2
100
AcDbEntity
  8
0
100
AcDbCircle
 10
5.9264911791156
 20
10.69335513534338
 30
0.0
 40
0.2182507987423323
100
AcDbArc
 50
180.5536595746947
 51
216.0803568636967
  0
LINE
  5
A0
330
2
100
AcDbEntity
  8
0
100
AcDbLine
 10
5.708250570107338
 20
12.39947714921848
 30
0.0
 11
5.708250570107338
 21
10.69124617087189
 31
0.0
  0
LINE
  5
A1
330
2
100
AcDbEntity
  8
0
100
AcDbLine
 10
5.754418379930257
 20
12.45897314573372
 30
0.0
 11
5.775981886977092
 21
12.46519799403847
 31
0.0
  0
ARC
  5
A2
330
2
100
AcDbEntity
  8
0
100
AcDbCircle
 10
5.773849609894
 20
12.39623417703828
 30
0.0
 40
0.0656791510947229
100
AcDbArc
 50
107.2085625796091
 51
177.1698141882998
  0
ARC
  5
A3
330
2
100
AcDbEntity
  8
0
100
AcDbCircle
 10
23.19251492809212
 20
12.75830478741361
 30
0.0
 40
0.1723544617009448
100
AcDbArc
 50
57.13638854680326
 51
107.6021872118065
  0
LINE
  5
A4
330
2
100
AcDbEntity
  8
0
100
AcDbLine
 10
23.286041542411
 20
12.90307644515445
 30
0.0
 11
26.11150761346676
 21
10.4561510500886
 31
0.0
  0
LWPOLYLINE
  5
A5
330
2
100
AcDbEntity
  8
0
100
AcDbPolyline
 90
        9
 70
   128
 43
0.0
 10
26.07248130783057
 20
10.38332724368086
 10
26.08947124735209
 20
10.38941465419205
 10
26.1037590954395
 20
10.39704219273366
 10
26.11479685686595
 20
10.40591705535763
 10
26.12215944449918
 20
10.4156979870873
 10
26.12556377162787
 20
10.42600893439854
 10
26.12487985105224
 20
10.43645405923538
 10
26.12013372359025
 20
10.446631885063
 10
26.11150761346676
 20
10.4561510500886
  0
LINE
  5
A6
330
2
100
AcDbEntity
  8
0
100
AcDbLine
 10
25.24145041152178
 20
10.14342928781917
 30
0.0
 11
26.07248130783057
 21
10.38332724368086
 31
0.0
  0
LINE
  5
A7
330
2
100
AcDbEntity
  8
0
100
AcDbLine
 10
23.14039385687988
 20
12.92258946231814
 30
0.0
 11
22.30936296057087
 21
12.68269150647771
 31
0.0
  0
LWPOLYLINE
  5
A8
330
2
100
AcDbEntity
  8
0
100
AcDbPolyline
 90
        9
 70
   128
 43
0.0
 10
24.08430111068765
 20
11.62534628721047
 10
24.02174551064809
 20
11.59791641057853
 10
23.98494550049258
 20
11.56060502048547
 10
23.97950408943257
 20
11.51909259965615
 10
24.00624848702591
 20
11.47969868512118
 10
24.06110854970507
 20
11.44842106399073
 10
24.13573087728333
 20
11.43002105366719
 10
24.21875610567906
 20
11.42730023045914
 10
24.29754384567764
 20
11.44067266154116
  0
LINE
  5
A9
330
2
100
AcDbEntity
  8
0
100
AcDbLine
 10
24.29754384567764
 20
11.44067266154116
 30
0.0
 11
24.48221714888132
 21
11.49398325219215
 31
0.0
  0
LWPOLYLINE
  5
AA
330
2
100
AcDbEntity
  8
0
100
AcDbPolyline
 90
        9
 70
   128
 43
0.0
 10
24.48221714888132
 20
11.49398325219215
 10
24.54477274892076
 20
11.52141312882412
 10
24.58157275907627
 20
11.55872451889581
 10
24.58701417013628
 20
11.60023693974648
 10
24.56026977254305
 20
11.63963085428145
 10
24.5054097098639
 20
11.67090847541192
 10
24.43078738228564
 20
11.68930848571415
 10
24.3477621538899
 20
11.69202930894349
 10
24.26897441389133
 20
11.67865687786153
  0
LINE
  5
AB
330
2
100
AcDbEntity
  8
0
100
AcDbLine
 10
24.26897441389133
 20
11.67865687786153
 30
0.0
 11
24.08430111068765
 21
11.62534628721047
 31
0.0
  0
ARC
  5
AC
330
2
100
AcDbEntity
  8
0
100
AcDbCircle
 10
23.19251492809212
 20
12.80447328520017
 30
0.0
 40
0.1723544617009058
100
AcDbArc
 50
57.13638854680326
 51
107.6021872118065
  0
LINE
  5
AD
330
2
100
AcDbEntity
  8
0
100
AcDbLine
 10
22.28270784060567
 20
13.59836507198332
 30
0.0
 11
22.26319446278456
 21
13.59273204501983
 31
0.0
  0
LINE
  5
AE
330
2
100
AcDbEntity
  8
0
100
AcDbLine
 10
22.30936296057087
 20
13.47992519663123
 30
0.0
 11
22.30936296057087
 21
12.72886000426427
 31
0.0
  0
ARC
  5
AF
330
2
100
AcDbEntity
  8
0
100
AcDbCircle
 10
22.29701980497396
 20
12.71421203017837
 30
0.0
 40
0.0338510990174674
100
AcDbArc
 50
177.7647556206018
 51
291.3848674345047
  0
LINE
  5
B0
330
2
100
AcDbEntity
  8
0
100
AcDbLine
 10
22.26319446278456
 20
12.7155323069426
 30
0.0
 11
22.26319446278456
 21
13.59273204501983
 31
0.0
  0
LINE
  5
B1
330
2
100
AcDbEntity
  8
0
100
AcDbLine
 10
23.14039385687988
 20
12.96875796010465
 30
0.0
 11
22.30936296057087
 21
12.72886000426427
 31
0.0
  0
LINE
  5
B2
330
2
100
AcDbEntity
  8
0
100
AcDbLine
 10
26.11150761346676
 20
10.50231954787517
 30
0.0
 11
23.286041542411
 21
12.94924494294093
 31
0.0
  0
ARC
  5
B3
330
2
100
AcDbEntity
  8
0
100
AcDbCircle
 10
25.22924503243314
 20
10.1775505464688
 30
0.0
 40
0.0362385370791251
100
AcDbArc
 50
231.2248071589955
 51
289.6824349112947
  0
LWPOLYLINE
  5
B4
330
2
100
AcDbEntity
  8
0
100
AcDbPolyline
 90
       10
 70
   128
 43
0.0
 10
22.77070536668543
 20
12.86203808542083
 10
22.75012329025856
 20
12.92589599957438
 10
22.70688518097006
 20
13.01338165323455
 10
22.65588239563488
 20
13.07512296370928
 10
22.60487961027832
 20
13.10172106877536
 10
22.5616415010112
 20
13.08912601720294
 10
22.53275078924855
 20
13.03925550542254
 10
22.5226057204037
 20
12.95970214921499
 10
22.53275078924855
 20
12.86257667434091
 10
22.5501563937296
 20
12.79529313527109
  0
LINE
  5
B5
330
2
100
AcDbEntity
  8
0
100
AcDbLine
 10
22.28270756594907
 20
15.19544180289807
 30
0.0
 11
22.28270756594907
 21
14.99532577468605
 31
0.0
  0
LINE
  5
B6
330
2
100
AcDbEntity
  8
0
100
AcDbLine
 10
22.28270756594907
 20
14.89227231206067
 30
0.0
 11
22.28270756594907
 21
14.65973115474773
 31
0.0
  0
LINE
  5
B7
330
2
100
AcDbEntity
  8
0
100
AcDbLine
 10
22.28270756594907
 20
14.43422219941232
 30
0.0
 11
22.28270756594895
 21
13.67531248901056
 31
0.0
  0
LINE
  5
B8
330
2
100
AcDbEntity
  8
0
100
AcDbLine
 10
3.380317393256405
 20
8.141714965440712
 30
0.0
 11
3.426485203079209
 21
8.155042464148095
 31
0.0
  0
ARC
  5
B9
330
2
100
AcDbEntity
  8
0
100
AcDbCircle
 10
3.454726208229772
 20
8.210111138090724
 30
0.0
 40
0.1010678394953756
100
AcDbArc
 50
179.5143988047048
 51
222.5890500659958
  0
LINE
  5
BA
330
2
100
AcDbEntity
  8
0
100
AcDbLine
 10
22.26319446278456
 20
13.59273204501983
 30
0.0
 11
22.19097310543634
 21
13.5718835349667
 31
0.0
  0
LINE
  5
BB
330
2
100
AcDbEntity
  8
0
100
AcDbLine
 10
22.11201044640916
 20
13.54908897874407
 30
0.0
 11
3.426485203079209
 21
8.155042464148095
 31
0.0
  0
LINE
  5
BC
330
2
100
AcDbEntity
  8
0
100
AcDbLine
 10
22.05186576498011
 20
14.80905239169641
 30
0.0
 11
22.05186576498011
 21
15.03989488062902
 31
0.0
  0
LINE
  5
BD
330
2
100
AcDbEntity
  8
0
100
AcDbLine
 10
3.353661998634379
 20
9.780693197096866
 30
0.0
 11
3.353661998634379
 21
8.210967712109834
 31
0.0
  0
ARC
  5
BE
330
2
100
AcDbEntity
  8
0
100
AcDbCircle
 10
3.484862900858729
 20
9.774205062413813
 30
0.0
 40
0.1313612295844776
100
AcDbArc
 50
107.2094559851006
 51
177.1689207830023
  0
LINE
  5
BF
330
2
100
AcDbEntity
  8
0
100
AcDbLine
 10
3.445997618279989
 20
9.899685190105969
 30
0.0
 11
5.77393175773011
 21
10.57170189114697
 31
0.0
  0
LINE
  5
C0
330
2
100
AcDbEntity
  8
0
100
AcDbLine
 10
21.72868696841681
 20
14.94660119803433
 30
0.0
 11
21.72868696841681
 21
14.71575870910178
 31
0.0
  0
LINE
  5
C1
330
2
100
AcDbEntity
  8
0
100
AcDbLine
 10
21.72868696841681
 20
14.71575870910178
 30
0.0
 11
22.05186576498011
 21
14.80905239169641
 31
0.0
  0
LINE
  5
C2
330
2
100
AcDbEntity
  8
0
100
AcDbLine
 10
22.05186576498011
 20
14.16269479856996
 30
0.0
 11
22.05186576498011
 21
14.34736844575556
 31
0.0
  0
LINE
  5
C3
330
2
100
AcDbEntity
  8
0
100
AcDbLine
 10
22.05186576498011
 20
14.34736844575556
 30
0.0
 11
21.72868696841681
 21
14.25407476316081
 31
0.0
  0
LINE
  5
C4
330
2
100
AcDbEntity
  8
0
100
AcDbLine
 10
21.72868696841681
 20
14.25407476316081
 30
0.0
 11
21.72868696841681
 21
14.06940111597532
 31
0.0
  0
LINE
  5
C5
330
2
100
AcDbEntity
  8
0
100
AcDbLine
 10
21.72868696841681
 20
14.06940111597532
 30
0.0
 11
22.05186576498011
 21
14.16269479856996
 31
0.0
  0
LINE
  5
C6
330
2
100
AcDbEntity
  8
0
100
AcDbLine
 10
3.426485203079209
 20
8.155042464148095
 30
0.0
 11
6.358572654030012
 21
5.615780245510876
 31
0.0
  0
ARC
  5
C7
330
2
100
AcDbEntity
  8
0
100
AcDbCircle
 10
26.09037124296356
 20
10.47383754466784
 30
0.0
 40
0.0354678821482397
100
AcDbArc
 50
2.951995516900622
 51
53.42105096630753
  0
LINE
  5
C8
330
2
100
AcDbEntity
  8
0
100
AcDbLine
 10
2.549285809005141
 20
7.024617072930141
 30
0.0
 11
3.380317393256405
 21
7.264515227363546
 31
0.0
  0
LINE
  5
C9
330
2
100
AcDbEntity
  8
0
100
AcDbLine
 10
3.380317393256405
 20
7.264515227363546
 30
0.0
 11
3.380317393256405
 21
8.141714965440712
 31
0.0
  0
LINE
  5
CA
330
2
100
AcDbEntity
  8
0
100
AcDbLine
 10
3.426485203079209
 20
7.2778427260709
 30
0.0
 11
3.426485203079209
 21
8.155042464148095
 31
0.0
  0
ARC
  5
CB
330
2
100
AcDbEntity
  8
0
100
AcDbCircle
 10
3.360884751966978
 20
7.281086793423071
 30
0.0
 40
0.0656806147922965
100
AcDbArc
 50
287.2094559851007
 51
357.1689207829028
  0
LINE
  5
CC
330
2
100
AcDbEntity
  8
0
100
AcDbLine
 10
2.549285809005141
 20
6.978448575122342
 30
0.0
 11
3.380317393256405
 21
7.218346729576978
 31
0.0
  0
LINE
  5
CD
330
2
100
AcDbEntity
  8
0
100
AcDbLine
 10
3.426485203079209
 20
7.2778427260709
 30
0.0
 11
6.358572654030012
 21
4.738580507433681
 31
0.0
  0
ARC
  5
CE
330
2
100
AcDbEntity
  8
0
100
AcDbCircle
 10
6.292972202917781
 20
4.741824574785852
 30
0.0
 40
0.0656806147922627
100
AcDbArc
 50
287.2094559851007
 51
357.1689207829028
  0
ARC
  5
CF
330
2
100
AcDbEntity
  8
0
100
AcDbCircle
 10
5.429252459625786
 20
4.603463511704802
 30
0.0
 40
0.1723472121932562
100
AcDbArc
 50
237.1352689343909
 51
287.6028573528977
  0
LINE
  5
D0
330
2
100
AcDbEntity
  8
0
100
AcDbLine
 10
5.335726950352068
 20
4.458699770856014
 30
0.0
 11
2.510260879296311
 21
6.905625165900545
 31
0.0
  0
LWPOLYLINE
  5
D1
330
2
100
AcDbEntity
  8
0
100
AcDbPolyline
 90
        9
 70
   128
 43
0.0
 10
2.549285809005141
 20
6.978448575122342
 10
2.532296557426093
 20
6.972361363225473
 10
2.518007333432478
 20
6.964733427455257
 10
2.506970259948388
 20
6.955858763445519
 10
2.499606984372803
 20
6.946077633122996
 10
2.496204721135313
 20
6.935767281611873
 10
2.496887953747091
 20
6.925321958160765
 10
2.501632705281735
 20
6.915143735147296
 10
2.510260879296311
 20
6.905625165900545
  0
LINE
  5
D2
330
2
100
AcDbEntity
  8
0
100
AcDbLine
 10
6.312404844207094
 20
4.679084510939787
 30
0.0
 11
5.481373259955944
 21
4.439186356485095
 31
0.0
  0
LINE
  5
D3
330
2
100
AcDbEntity
  8
0
100
AcDbLine
 10
4.537466694090426
 20
5.736429730185705
 30
0.0
 11
4.352792702944384
 21
5.68311894094171
 31
0.0
  0
LWPOLYLINE
  5
D4
330
2
100
AcDbEntity
  8
0
100
AcDbPolyline
 90
        9
 70
   128
 43
0.0
 10
4.324223959100436
 20
5.921103355876425
 10
4.403010323192916
 20
5.934475389751071
 10
4.486036239552504
 20
5.931754765136076
 10
4.56065787916691
 20
5.913354556219559
 10
4.615519317752159
 20
5.882077332275059
 10
4.642262339439412
 20
5.842683020554119
 10
4.636821616343127
 20
5.801170798317713
 10
4.60002091822389
 20
5.763859209631789
 10
4.537466694090426
 20
5.736429730185705
  0
LINE
  5
D5
330
2
100
AcDbEntity
  8
0
100
AcDbLine
 10
4.139549967954394
 20
5.867792566611086
 30
0.0
 11
4.324223959100436
 21
5.921103355876425
 31
0.0
  0
LWPOLYLINE
  5
D6
330
2
100
AcDbEntity
  8
0
100
AcDbPolyline
 90
        9
 70
   128
 43
0.0
 10
4.352792702944384
 20
5.68311894094171
 10
4.274006338873164
 20
5.669746907067036
 10
4.190980422513803
 20
5.67246753168203
 10
4.116358782899169
 20
5.690867740598605
 10
4.061497344292661
 20
5.722144964521731
 10
4.034754322626667
 20
5.761539276242615
 10
4.040195045723066
 20
5.803051498500394
 10
4.076995743842303
 20
5.840363087164973
 10
4.139549967954394
 20
5.867792566611086
  0
LINE
  5
D7
330
2
100
AcDbEntity
  8
0
100
AcDbLine
 10
6.358572654030012
 20
4.738580507433681
 30
0.0
 11
6.358572654030012
 21
5.615780245510876
 31
0.0
  0
LWPOLYLINE
  5
D8
330
2
100
AcDbEntity
  8
0
100
AcDbPolyline
 90
        7
 70
   128
 43
0.0
 10
2.495975056417591
 20
6.978448700381107
 10
2.496204721135313
 20
6.98193577939844
 10
2.499606984372803
 20
6.992246130909563
 10
2.506970259948388
 20
7.002027261232058
 10
2.518007333432478
 20
7.010901925263141
 10
2.532296557426093
 20
7.018529861011927
 10
2.549285809005141
 20
7.024617072930141
  0
LWPOLYLINE
  5
D9
330
2
100
AcDbEntity
  8
0
100
AcDbPolyline
 90
       10
 70
   128
 43
0.0
 10
19.04025700775685
 20
13.57696496748201
 10
19.09499009036267
 20
13.52583050621644
 10
19.12036078371739
 20
13.44569161563885
 10
19.11242444448362
 20
13.35267893298373
 10
19.07225154278103
 20
13.25935340649045
 10
19.0052673535497
 20
13.17831919780175
 10
18.9205185880154
 20
13.12052081732176
 10
18.82945157183712
 20
13.09376421945114
 10
18.74436432859932
 20
13.10166283037466
 10
18.68522855798824
 20
13.13794769397151
  0
LWPOLYLINE
  5
DA
330
2
100
AcDbEntity
  8
0
100
AcDbPolyline
 90
       16
 70
   128
 43
0.0
 10
9.658795655926837
 20
10.94677501490514
 10
9.659884013123473
 20
10.9473048729217
 10
9.748766059365607
 20
10.97269219620233
 10
9.830779484660524
 20
10.9621030999001
 10
9.893436387682186
 20
10.91714945954328
 10
9.927200227620573
 20
10.84467573847229
 10
9.926929170250787
 20
10.75571510074957
 10
9.892665869300003
 20
10.6638110564229
 10
9.829623707108567
 20
10.58295441678501
 10
9.747403892944703
 20
10.52545610492095
 10
9.658521846723829
 20
10.50006912562224
 10
9.576508421429139
 20
10.5106578779426
 10
9.513850142479896
 20
10.55561112111348
 10
9.480086302541735
 20
10.62808484218447
 10
9.480357359890035
 20
10.71704547990723
 10
9.50167320033222
 20
10.78343685871357
  0
ARC
  5
DB
330
2
100
AcDbEntity
  8
0
100
AcDbCircle
 10
5.870460411654335
 20
9.084184364570546
 30
0.0
 40
0.0966727862602447
100
AcDbArc
 50
183.1197180373444
 51
283.4368231249526
  0
ARC
  5
DC
330
2
100
AcDbEntity
  8
0
100
AcDbCircle
 10
22.28751691148
 20
17.15218572677418
 30
0.0
 40
0.0782414746110899
100
AcDbArc
 50
67.38216101075359
 51
93.52407748584916
  0
LINE
  5
DD
330
2
100
AcDbEntity
  8
0
  6
Continuous
 62
     7
370
    15
100
AcDbLine
 10
22.44938429585216
 20
12.46662044512857
 30
0.0
 11
22.5946549944548
 21
12.34081232970573
 31
0.0
  0
LINE
  5
DE
330
2
100
AcDbEntity
  8
0
  6
Continuous
 62
     7
370
    15
100
AcDbLine
 10
22.4865988116959
 20
12.45376695982344
 30
0.0
 11
22.5308341339329
 21
12.4665365974156
 31
0.0
  0
ARC
  5
DF
330
2
100
AcDbEntity
  8
0
  6
Continuous
 62
     7
370
    15
100
AcDbCircle
 10
22.51719050286454
 20
12.57449476778342
 30
0.0
 40
0.124543386740375
100
AcDbArc
 50
174.8069247138021
 51
197.7982758284832
  0
ARC
  5
E0
330
2
100
AcDbEntity
  8
0
  6
Continuous
 62
     7
370
    15
100
AcDbCircle
 10
22.51719050286454
 20
12.57449476778342
 30
0.0
 40
0.124543386740375
100
AcDbArc
 50
238.8205845890726
 51
255.7808851649031
  0
LWPOLYLINE
  5
E1
330
2
100
AcDbEntity
  8
0
  6
Continuous
 62
     7
370
    15
100
AcDbPolyline
 90
        3
 70
   128
 43
0.0
 10
22.5946549944548
 20
12.34081232970573
 10
22.61495333785274
 20
12.32683454841776
 10
22.64653083190626
 20
12.31526176743463
  0
LINE
  5
E2
330
2
100
AcDbEntity
  8
0
  6
Continuous
 62
     7
370
    15
100
AcDbLine
 10
22.64653083190626
 20
12.31526176743463
 30
0.0
 11
22.69076615414315
 21
12.32803140504819
 31
0.0
  0
ELLIPSE
  5
E3
330
2
100
AcDbEntity
  8
0
100
AcDbEllipse
 10
22.61314805334405
 20
12.62350094186365
 30
0.0
 11
0.0184930588891826
 21
0.2826886121579176
 31
0.0
210
0.0
220
0.0
230
1.0
 40
0.6128168285279186
 41
1.9018349736237
 42
6.870853096261243
  0
ELLIPSE
  5
E4
330
2
100
AcDbEntity
  8
0
100
AcDbEllipse
 10
22.67164238145233
 20
12.28680330488649
 30
0.0
 11
-0.0455233000266227
 21
0.0704651339788705
 31
0.0
210
0.0
220
0.0
230
1.0
 40
0.6994241437507363
 41
0.0
 42
6.283185307179585
  0
ARC
  5
E5
330
2
100
AcDbEntity
  8
0
100
AcDbCircle
 10
22.13642841389401
 20
18.23289299684921
 30
0.0
 40
6.041907002565188
100
AcDbArc
 50
275.5546823295031
 51
339.4343720710991
  0
LINE
  5
E6
330
2
100
AcDbEntity
  8
0
  6
Continuous
 62
     7
370
    15
100
AcDbLine
 10
52.45307231207084
 20
17.40331959974781
 30
0.0
 11
51.39470439120987
 21
18.31872247725729
 31
0.0
  0
LINE
  5
E7
330
2
100
AcDbEntity
  8
0
  6
Continuous
 62
     7
370
    15
100
AcDbLine
 10
27.96416434843627
 20
18.32668743454803
 30
0.0
 11
26.89795081530588
 21
17.40331952562465
 31
0.0
  0
LINE
  5
E8
330
2
100
AcDbEntity
  8
0
  6
Continuous
 62
     7
370
    15
100
AcDbLine
 10
36.37006147779312
 20
26.10706719727014
 30
0.0
 11
36.37006147779312
 21
21.288817837983
 31
0.0
  0
SPLINE
  5
E9
330
2
100
AcDbEntity
  8
0
  6
Continuous
 62
     7
370
    15
100
AcDbSpline
210
0.0
220
0.0
230
1.0
 70
     8
 71
     3
 72
    12
 73
     8
 74
     0
 42
0.000000001
 43
0.0000000001
 40
0.0
 40
0.0
 40
0.0
 40
0.0
 40
0.1814293206672964
 40
0.4157920948687743
 40
0.6513175303815771
 40
0.8893818724176899
 40
1.0
 40
1.0
 40
1.0
 40
1.0
 10
38.67462221317192
 20
27.25015724906456
 30
0.0
 10
38.64749409894398
 20
27.27070375166966
 30
0.0
 10
38.58532302646677
 20
27.31779136313716
 30
0.0
 10
38.46619280456207
 20
27.35846148863255
 30
0.0
 10
38.32762587639945
 20
27.37525400234543
 30
0.0
 10
38.20745661003627
 20
27.36441516378454
 30
0.0
 10
38.13574556956678
 20
27.34572598588761
 30
0.0
 10
38.112995527007
 20
27.33979691848347
 30
0.0
  0
LINE
  5
EA
330
2
100
AcDbEntity
  8
0
  6
Continuous
 62
     7
370
    15
100
AcDbLine
 10
38.73355771469789
 20
27.20368548409854
 30
0.0
 11
38.69357462410778
 21
27.23831185627159
 31
0.0
  0
LINE
  5
EB
330
2
100
AcDbEntity
  8
0
  6
Continuous
 62
     7
370
    15
100
AcDbLine
 10
38.11299552700973
 20
27.33979691848651
 30
0.0
 11
37.28196423961913
 21
27.09989884975192
 31
0.0
  0
SPLINE
  5
EC
330
2
100
AcDbEntity
  8
0
  6
Continuous
 62
     7
370
    15
100
AcDbSpline
210
0.0
220
0.0
230
1.0
 70
     8
 71
     3
 72
    16
 73
    12
 74
     0
 42
0.000000001
 43
0.0000000001
 40
0.0
 40
0.0
 40
0.0
 40
0.0
 40
0.0698495045731026
 40
0.1990379565243668
 40
0.3285184003296174
 40
0.4581529484577071
 40
0.5879256203043852
 40
0.7178827686534003
 40
0.8480731599673083
 40
0.9707890880769459
 40
1.0
 40
1.0
 40
1.0
 40
1.0
 10
37.09729063093721
 20
27.04658817090191
 30
0.0
 10
37.07042869814291
 20
27.03795096177169
 30
0.0
 10
36.99388493102015
 20
27.01333901261242
 30
0.0
 10
36.87050239403584
 20
26.95028981666718
 30
0.0
 10
36.73469934617401
 20
26.85174418970468
 30
0.0
 10
36.61390736812746
 20
26.73091851915646
 30
0.0
 10
36.51294337069464
 20
26.59305695090444
 30
0.0
 10
36.43578685583577
 20
26.44327640470641
 30
0.0
 10
36.38695965454258
 20
26.29047149994807
 30
0.0
 10
36.37106720746022
 20
26.17764758288632
 30
0.0
 10
36.37022366529709
 20
26.11844923886875
 30
0.0
 10
36.37006147778743
 20
26.10706719727088
 30
0.0
  0
LINE
  5
ED
330
2
100
AcDbEntity
  8
0
  6
Continuous
 62
     7
370
    15
100
AcDbLine
 10
37.28196423961913
 20
27.09989884975192
 30
0.0
 11
37.09729063092755
 21
27.0465881708958
 31
0.0
  0
SPLINE
  5
EE
330
2
100
AcDbEntity
  8
0
  6
Continuous
 62
     7
370
    15
100
AcDbSpline
210
0.0
220
0.0
230
1.0
 70
     8
 71
     3
 72
    11
 73
     7
 74
     0
 42
0.000000001
 43
0.0000000001
 40
0.0
 40
0.0
 40
0.0
 40
0.0
 40
0.2705902910426745
 40
0.6201275221903997
 40
0.9713990458616963
 40
1.0
 40
1.0
 40
1.0
 40
1.0
 10
43.25056086035431
 20
25.37038649087208
 30
0.0
 10
43.22023441068381
 20
25.38984379954405
 30
0.0
 10
43.15810260032662
 20
25.43720171451963
 30
0.0
 10
43.03861000466577
 20
25.47538582320661
 30
0.0
 10
42.94389112723206
 20
25.49387831158103
 30
0.0
 10
42.89185862323722
 20
25.48854642197785
 30
0.0
 10
42.88794104734688
 20
25.48814497902288
 30
0.0
  0
LINE
  5
EF
330
2
100
AcDbEntity
  8
0
  6
Continuous
 62
     7
370
    15
100
AcDbLine
 10
43.30628065693747
 20
25.32270769226801
 30
0.0
 11
43.26629766565452
 21
25.35733397844027
 31
0.0
  0
SPLINE
  5
F0
330
2
100
AcDbEntity
  8
0
  6
Continuous
 62
     7
370
    15
100
AcDbSpline
210
0.0
220
0.0
230
1.0
 70
     8
 71
     3
 72
    12
 73
     8
 74
     0
 42
0.000000001
 43
0.0000000001
 40
0.0
 40
0.0
 40
0.0
 40
0.0
 40
0.181429235325317
 40
0.4157921903830652
 40
0.6513177201601948
 40
0.8893816163946471
 40
1.0
 40
1.0
 40
1.0
 40
1.0
 10
42.37233559359856
 20
26.7173693524671
 30
0.0
 10
42.34618541962368
 20
26.73706975903028
 30
0.0
 10
42.27982077167633
 20
26.78379662561878
 30
0.0
 10
42.16069061537803
 20
26.82446641146083
 30
0.0
 10
42.02212371724954
 20
26.84125889770593
 30
0.0
 10
41.90195424556168
 20
26.83042033238806
 30
0.0
 10
41.83024336019855
 20
26.81173102702113
 30
0.0
 10
41.8074933018089
 20
26.80580190222779
 30
0.0
  0
LINE
  5
F1
330
2
100
AcDbEntity
  8
0
  6
Continuous
 62
     7
370
    15
100
AcDbLine
 10
42.42805539020309
 20
26.66969055384175
 30
0.0
 11
42.38807239892003
 21
26.70431684001397
 31
0.0
  0
LINE
  5
F2
330
2
100
AcDbEntity
  8
0
  6
Continuous
 62
     7
370
    15
100
AcDbLine
 10
34.98603498722855
 20
24.10702850517657
 30
0.0
 11
34.98603498722855
 21
20.84613500641333
 31
0.0
  0
LINE
  5
F3
330
2
100
AcDbEntity
  8
0
  6
Continuous
 62
     7
370
    15
100
AcDbLine
 10
41.80749330180072
 20
26.80580190222892
 30
0.0
 11
41.34598468830404
 21
26.6725758410999
 31
0.0
  0
SPLINE
  5
F4
330
2
100
AcDbEntity
  8
0
  6
Continuous
 62
     7
370
    15
100
AcDbSpline
210
0.0
220
0.0
230
1.0
 70
     8
 71
     3
 72
    11
 73
     7
 74
     0
 42
0.000000001
 43
0.0000000001
 40
0.0
 40
0.0
 40
0.0
 40
0.0
 40
0.110402185598135
 40
0.5209304728112577
 40
0.9078894799753879
 40
1.0
 40
1.0
 40
1.0
 40
1.0
 10
35.07700355881309
 20
24.4824374488901
 30
0.0
 10
35.06990200231906
 20
24.46913631159257
 30
0.0
 10
35.03639345208489
 20
24.4063751651191
 30
0.0
 10
35.00417020123655
 20
24.29004130185319
 30
0.0
 10
34.98698402407763
 20
24.17762694215668
 30
0.0
 10
34.98618803227657
 20
24.11841345948531
 30
0.0
 10
34.98603498722867
 20
24.10702850516913
 30
0.0
  0
LINE
  5
F5
330
2
100
AcDbEntity
  8
0
  6
Continuous
 62
     7
370
    15
100
AcDbLine
 10
36.16536484016115
 20
25.24772403851947
 30
0.0
 11
36.16536484016115
 21
21.23628306482564
 31
0.0
  0
SPLINE
  5
F6
330
2
100
AcDbEntity
  8
0
  6
Continuous
 62
     7
370
    15
100
AcDbSpline
210
0.0
220
0.0
230
1.0
 70
     8
 71
     3
 72
    13
 73
     9
 74
     0
 42
0.000000001
 43
0.0000000001
 40
0.0
 40
0.0
 40
0.0
 40
0.0
 40
0.2867383585533649
 40
0.6571349721787217
 40
1.0
 40
1.0
 40
1.0
 40
1.049547057929055
 40
1.049547057929055
 40
1.049547057929055
 40
1.049547057929055
 10
39.78432365334766
 20
26.77052698659827
 30
0.0
 10
39.75395798667387
 20
26.78977738211936
 30
0.0
 10
39.6917361881799
 20
26.83666119957533
 30
0.0
 10
39.57645746546814
 20
26.87799463410627
 30
0.0
 10
39.48722157123848
 20
26.88482821861504
 30
0.0
 10
39.44432585726793
 20
26.88811312419046
 30
0.0
 10
39.43812704358743
 20
26.88858782237673
 30
0.0
 10
39.43192822990705
 20
26.88906252056296
 30
0.0
 10
39.42572941622655
 20
26.88953721874924
 30
0.0
  0
LINE
  5
F7
330
2
100
AcDbEntity
  8
0
  6
Continuous
 62
     7
370
    15
100
AcDbLine
 10
39.8400437212182
 20
26.72284815163636
 30
0.0
 11
39.80006063062808
 21
26.75747452380941
 31
0.0
  0
SPLINE
  5
F8
330
2
100
AcDbEntity
  8
0
  6
Continuous
 62
     7
370
    15
100
AcDbSpline
210
0.0
220
0.0
230
1.0
 70
     8
 71
     3
 72
    12
 73
     8
 74
     0
 42
0.000000001
 43
0.0000000001
 40
0.0
 40
0.0
 40
0.0
 40
0.0
 40
0.1535694657323977
 40
0.4205107540155466
 40
0.6879312862856331
 40
0.9399986955138134
 40
1.0
 40
1.0
 40
1.0
 40
1.0
 10
36.37006148583623
 20
25.8107445328586
 30
0.0
 10
36.35010238397797
 20
25.78482657048542
 30
0.0
 10
36.29544948190608
 20
25.71385685102911
 30
0.0
 10
36.2317190342709
 20
25.58351440178419
 30
0.0
 10
36.18209908214135
 20
25.43123759338693
 30
0.0
 10
36.16637814075534
 20
25.31829916717177
 30
0.0
 10
36.16552824854352
 20
25.25910522909792
 30
0.0
 10
36.16536484016854
 20
25.24772403852665
 30
0.0
  0
LINE
  5
F9
330
2
100
AcDbEntity
  8
0
  6
Continuous
 62
     7
370
    15
100
AcDbLine
 10
42.70764718775365
 20
25.95014939564681
 30
0.0
 11
42.66766418405995
 21
25.98477569256647
 31
0.0
  0
LINE
  5
FA
330
2
100
AcDbEntity
  8
0
  6
Continuous
 62
     7
370
    15
100
AcDbLine
 10
30.62426432492521
 20
11.88766729293215
 30
0.0
 11
30.63544432420167
 21
11.77714582042341
 31
0.0
  0
LINE
  5
FB
330
2
100
AcDbEntity
  8
0
  6
Continuous
 62
     7
370
    15
100
AcDbLine
 10
48.71557843313508
 20
11.77714584236611
 30
0.0
 11
48.72675814636773
 21
11.88766731148428
 31
0.0
  0
SPLINE
  5
FC
330
2
100
AcDbEntity
  8
0
  6
Continuous
 62
     7
370
    15
100
AcDbSpline
210
0.0
220
0.0
230
1.0
 70
     8
 71
     3
 72
     9
 73
     5
 74
     0
 42
0.000000001
 43
0.0000000001
 40
0.0
 40
0.0
 40
0.0
 40
0.0
 40
0.2500021964610007
 40
1.0
 40
1.0
 40
1.0
 40
1.0
 10
45.72021845933557
 20
16.61620648588277
 30
0.0
 10
45.69304083615861
 20
16.92587679299623
 30
0.0
 10
45.58433129855575
 20
18.16454713868563
 30
0.0
 10
45.47187317506472
 20
19.40195690653425
 30
0.0
 10
45.3875298294563
 20
20.33001151449835
 30
0.0
  0
SPLINE
  5
FD
330
2
100
AcDbEntity
  8
0
  6
Continuous
 62
     7
370
    15
100
AcDbSpline
210
0.0
220
0.0
230
1.0
 70
     8
 71
     3
 72
    12
 73
     8
 74
     0
 42
0.000000001
 43
0.0000000001
 40
0.0
 40
0.0
 40
0.0
 40
0.0
 40
0.2424905281287908
 40
1.0
 40
1.0
 40
1.0
 40
1.039688784117757
 40
1.039688784117757
 40
1.039688784117757
 40
1.039688784117757
 10
33.96345931776762
 20
20.3300210093058
 30
0.0
 10
33.936033224673
 20
20.03001433907278
 30
0.0
 10
33.82293151589158
 20
18.79282510719622
 30
0.0
 10
33.71362684256872
 20
17.55435492357676
 30
0.0
 10
33.63082751720686
 20
16.61620202885498
 30
0.0
 10
33.62648934762433
 20
16.56704865310104
 30
0.0
 10
33.62215117804181
 20
16.51789527734709
 30
0.0
 10
33.61781300845917
 20
16.46874190159315
 30
0.0
  0
LINE
  5
FE
330
2
100
AcDbEntity
  8
0
  6
Continuous
 62
     7
370
    15
100
AcDbLine
 10
45.72506468225969
 20
16.46793147834953
 30
0.0
 11
45.7191371407664
 21
16.61550139467775
 31
0.0
  0
LINE
  5
FF
330
2
100
AcDbEntity
  8
0
  6
Continuous
 62
     7
370
    15
100
AcDbLine
 10
32.21340290245746
 20
18.01493984999942
 30
0.0
 11
32.12617380441372
 21
15.75268611530072
 31
0.0
  0
LINE
  5
100
330
2
100
AcDbEntity
  8
0
  6
Continuous
 62
     7
370
    15
100
AcDbLine
 10
32.08329888407945
 20
14.64072745437067
 30
0.0
 11
32.08132578674383
 21
14.58955866418506
 31
0.0
  0
LINE
  5
101
330
2
100
AcDbEntity
  8
0
  6
Continuous
 62
     7
370
    15
100
AcDbLine
 10
47.26969681187632
 20
14.58955862486311
 30
0.0
 11
47.26772365954537
 21
14.64072749729644
 31
0.0
  0
LINE
  5
102
330
2
100
AcDbEntity
  8
0
  6
Continuous
 62
     7
370
    15
100
AcDbLine
 10
47.22484866022614
 20
15.75268610781592
 30
0.0
 11
47.13761966084973
 21
18.01493975732416
 31
0.0
  0
LINE
  5
103
330
2
100
AcDbEntity
  8
0
  6
Continuous
 62
     7
370
    15
100
AcDbLine
 10
32.85588782262835
 20
15.67020462714956
 30
0.0
 11
32.73074848094234
 21
15.70632940653377
 31
0.0
  0
LINE
  5
104
330
2
100
AcDbEntity
  8
0
  6
Continuous
 62
     7
370
    15
100
AcDbLine
 10
46.62026627785201
 20
15.70632705467986
 30
0.0
 11
46.49513478620611
 21
15.67020470447136
 31
0.0
  0
LINE
  5
105
330
2
100
AcDbEntity
  8
0
  6
Continuous
 62
     7
370
    15
100
AcDbLine
 10
33.22874023901898
 20
19.04622567027283
 30
0.0
 11
32.66504527313293
 21
19.20894952217631
 31
0.0
  0
LINE
  5
106
330
2
100
AcDbEntity
  8
0
  6
Continuous
 62
     7
370
    15
100
AcDbLine
 10
46.68601245690138
 20
19.20895992769934
 30
0.0
 11
46.12228232727363
 21
19.04622572215479
 31
0.0
  0
LWPOLYLINE
  5
107
330
2
100
AcDbEntity
  8
0
  6
Continuous
 62
     7
370
    15
100
AcDbPolyline
 90
       17
 70
   128
 43
0.0
 10
50.83927863583449
 20
16.92751961227642
 10
50.90678633522668
 20
16.89414377084492
 10
50.99702670055922
 20
16.88743674324365
 10
51.09626165830775
 20
16.90841984629929
 10
51.18938332211541
 20
16.95389833585273
 10
51.26221411127096
 20
17.01694844389268
 10
51.30366754818578
 20
17.08797163988964
 10
51.30743179715477
 20
17.15615529784162
 10
51.2729339293295
 20
17.2111186969802
 10
51.2054262175053
 20
17.2444947211394
 10
51.11518584598866
 20
17.25120158213417
 10
51.01595088821887
 20
17.23021865105875
 10
50.92282992480682
 20
17.18474034937213
 10
50.84999843527703
 20
17.12169005348667
 10
50.8085449983621
 20
17.05066668548815
 10
50.80478075557721
 20
16.98248319416402
 10
50.83927863583449
 20
16.92751961227642
  0
LWPOLYLINE
  5
108
330
2
100
AcDbEntity
  8
0
  6
Continuous
 62
     7
370
    15
100
AcDbPolyline
 90
       17
 70
   128
 43
0.0
 10
50.98649063340928
 20
17.59101749609397
 10
51.05399834521222
 20
17.55764164391502
 10
51.14423940469237
 20
17.55093480953297
 10
51.24347298653493
 20
17.57191751540273
 10
51.33659463791059
 20
17.61739618766253
 10
51.4094261274405
 20
17.68044631156775
 10
51.45087956435543
 20
17.75146950756471
 10
51.45464449510382
 20
17.81965354148491
 10
51.42014592688292
 20
17.87461658077643
 10
51.35263891545446
 20
17.90799296478269
 10
51.26239786215819
 20
17.9146994498092
 10
51.16316290440977
 20
17.89371651873384
 10
51.07004124062337
 20
17.84823820120329
 10
50.99720976348283
 20
17.78518772256879
 10
50.95575770251662
 20
17.7141647517775
 10
50.95199276556275
 20
17.64598106721283
 10
50.98649063340928
 20
17.59101749609397
  0
LWPOLYLINE
  5
109
330
2
100
AcDbEntity
  8
0
  6
Continuous
 62
     7
370
    15
100
AcDbPolyline
 90
       17
 70
   128
 43
0.0
 10
49.94571710348191
 20
16.91037938568425
 10
50.0132248153061
 20
16.87700336152505
 10
50.10346518682275
 20
16.87029650053029
 10
50.20270014459254
 20
16.89127943160568
 10
50.29582179596821
 20
16.93675793190658
 10
50.36865259753449
 20
16.99980802917778
 10
50.41010603444942
 20
17.07083139717628
 10
50.4138702772342
 20
17.13901488852173
 10
50.37937239697692
 20
17.193978470388
 10
50.31186469758472
 20
17.22735431181951
 10
50.22162433225219
 20
17.2340613394208
 10
50.12238937450376
 20
17.21307823636516
 10
50.02926839865961
 20
17.16759994542599
 10
49.95643692154044
 20
17.10454963879306
 10
49.91498348462562
 20
17.03352644279613
 10
49.91121923565675
 20
16.96534278482284
 10
49.94571710348191
 20
16.91037938568425
  0
LINE
  5
10A
330
2
100
AcDbEntity
  8
0
  6
Continuous
 62
     7
370
    15
100
AcDbLine
 10
51.21693316723349
 20
16.64778652212692
 30
0.0
 11
52.14883427765403
 21
17.25722544421376
 31
0.0
  0
ARC
  5
10B
330
2
100
AcDbEntity
  8
0
  6
Continuous
 62
     7
370
    15
100
AcDbCircle
 10
49.362591834726
 20
19.49931237929868
 30
0.0
 40
3.401438150490522
100
AcDbArc
 50
284.3701114045986
 51
303.0358655944923
  0
LINE
  5
10C
330
2
100
AcDbEntity
  8
0
  6
Continuous
 62
     7
370
    15
100
AcDbLine
 10
50.20677635963943
 20
16.20429584225095
 30
0.0
 11
50.17611674967497
 21
16.19645172212486
 31
0.0
  0
ARC
  5
10D
330
2
100
AcDbEntity
  8
0
  6
Continuous
 62
     7
370
    15
100
AcDbCircle
 10
50.38716501177908
 20
15.37269267139214
 30
0.0
 40
0.8503648291313639
100
AcDbArc
 50
104.3701682715016
 51
123.0358183286005
  0
LINE
  5
10E
330
2
100
AcDbEntity
  8
0
  6
Continuous
 62
     7
370
    15
100
AcDbLine
 10
49.92357738199086
 20
16.08557895413884
 30
0.0
 11
49.26931443012302
 21
15.657708304375
 31
0.0
  0
ARC
  5
10F
330
2
100
AcDbEntity
  8
0
  6
Continuous
 62
     7
370
    15
100
AcDbCircle
 10
52.69597297094946
 20
18.4978767715603
 30
0.0
 40
1.300450726166803
100
AcDbArc
 50
190.9693047306031
 51
224.3812889595007
  0
LINE
  5
110
330
2
100
AcDbEntity
  8
0
  6
Continuous
 62
     7
370
    15
100
AcDbLine
 10
51.41430708789892
 20
18.27701125540196
 30
0.0
 11
51.41928243493658
 21
18.25042300533153
 31
0.0
  0
LINE
  5
111
330
2
100
AcDbEntity
  8
0
  6
Continuous
 62
     7
370
    15
100
AcDbLine
 10
52.48052065226921
 20
17.35364322279781
 30
0.0
 11
52.48549599930687
 21
17.32705497272738
 31
0.0
  0
LWPOLYLINE
  5
112
330
2
100
AcDbEntity
  8
0
  6
Continuous
 62
     7
370
    15
100
AcDbPolyline
 90
        9
 70
   128
 43
0.0
 10
52.29964614956362
 20
17.12661853195004
 10
52.35009748477501
 20
17.08987038443683
 10
52.39550958481209
 20
17.07110850408338
 10
52.43413425885785
 20
17.0710531208127
 10
52.46449085655013
 20
17.08970727171291
 10
52.48541097141742
 20
17.12635368210641
 10
52.49608988877639
 20
17.17958374915918
 10
52.49611897934801
 20
17.24735241324063
 10
52.48549599930687
 20
17.32705497272738
  0
LINE
  5
113
330
2
100
AcDbEntity
  8
0
  6
Continuous
 62
     7
370
    15
100
AcDbLine
 10
51.76653936735715
 20
17.58830254826279
 30
0.0
 11
52.29964614956362
 21
17.12661853195004
 31
0.0
  0
LWPOLYLINE
  5
114
330
2
100
AcDbEntity
  8
0
  6
Continuous
 62
     7
370
    15
100
AcDbPolyline
 90
        9
 70
   128
 43
0.0
 10
51.2549308714382
 20
18.32277066391728
 10
51.28030981951929
 20
18.33633916572376
 10
51.30644002297413
 20
18.34448289726316
 10
51.33208039690316
 20
18.34681572565944
 10
51.35601462305601
 20
18.34322662914101
 10
51.37711031468416
 20
18.33388645687765
 10
51.39436717380499
 20
18.31923809616677
 10
51.40696514878595
 20
18.29997528817694
 10
51.41430708789892
 20
18.27701125540196
  0
LINE
  5
115
330
2
100
AcDbEntity
  8
0
  6
Continuous
 62
     7
370
    15
100
AcDbLine
 10
50.14121470866098
 20
17.59442999757496
 30
0.0
 11
51.2549308714382
 21
18.32277066391728
 31
0.0
  0
ARC
  5
116
330
2
100
AcDbEntity
  8
0
  6
Continuous
 62
     7
370
    15
100
AcDbCircle
 10
52.39699469230959
 20
17.33991291269441
 30
0.0
 40
0.0846469574302007
100
AcDbArc
 50
9.335008694796483
 51
48.51007732250181
  0
ARC
  5
117
330
2
100
AcDbEntity
  8
0
  6
Continuous
 62
     7
370
    15
100
AcDbCircle
 10
51.50235479426339
 20
15.4418945818943
 30
0.0
 40
2.54678445268321
100
AcDbArc
 50
122.3069158395024
 51
144.9765569612025
  0
ARC
  5
118
330
2
100
AcDbEntity
  8
0
  6
Continuous
 62
     7
370
    15
100
AcDbCircle
 10
48.41853230430297
 20
13.43432079952831
 30
0.0
 40
2.606364568089697
100
AcDbArc
 50
111.3690372793024
 51
139.1612609935998
  0
LINE
  5
119
330
2
100
AcDbEntity
  8
0
  6
Continuous
 62
     7
370
    15
100
AcDbLine
 10
47.4688418970843
 20
15.86150525733373
 30
0.0
 11
48.52677459539996
 21
16.26071094639843
 31
0.0
  0
ARC
  5
11A
330
2
100
AcDbEntity
  8
0
  6
Continuous
 62
     7
370
    15
100
AcDbCircle
 10
48.45326788161163
 20
16.45371083231157
 30
0.0
 40
0.2065240734909074
100
AcDbArc
 50
290.8500371726931
 51
303.3386381360022
  0
LINE
  5
11B
330
2
100
AcDbEntity
  8
0
  6
Continuous
 62
     7
370
    15
100
AcDbLine
 10
48.5667706892965
 20
16.28117299420009
 30
0.0
 11
49.22103364118561
 21
16.70904364398524
 31
0.0
  0
ARC
  5
11C
330
2
100
AcDbEntity
  8
0
  6
Continuous
 62
     7
370
    15
100
AcDbCircle
 10
48.88074617106565
 20
17.24718041885086
 30
0.0
 40
0.636699890660737
100
AcDbArc
 50
302.3069616017017
 51
324.9764838071058
  0
LINE
  5
11D
330
2
100
AcDbEntity
  8
0
  6
Continuous
 62
     7
370
    15
100
AcDbLine
 10
49.40215025493888
 20
16.88177033127618
 30
0.0
 11
49.41674896641178
 21
16.90352359748951
 31
0.0
  0
LINE
  5
11E
330
2
100
AcDbEntity
  8
0
  6
Continuous
 62
     7
370
    15
100
AcDbLine
 10
49.22225983779845
 20
15.63363510065019
 30
0.0
 11
48.16432713946142
 21
15.2344294115642
 31
0.0
  0
ARC
  5
11F
330
2
100
AcDbEntity
  8
0
  6
Continuous
 62
     7
370
    15
100
AcDbCircle
 10
49.13578409998331
 20
15.86068869723073
 30
0.0
 40
0.2429637605790948
100
AcDbArc
 50
290.8498587994961
 51
303.3388550685996
  0
ARC
  5
120
330
2
100
AcDbEntity
  8
0
  6
Continuous
 62
     7
370
    15
100
AcDbCircle
 10
49.09204855178689
 20
12.85847777412195
 30
0.0
 40
2.550649564797741
100
AcDbArc
 50
111.3288100949919
 51
136.5619481810059
  0
LWPOLYLINE
  5
121
330
2
100
AcDbEntity
  8
0
  6
Continuous
 62
     7
370
    15
100
AcDbPolyline
 90
       17
 70
   128
 43
0.0
 10
40.04868614989561
 20
7.47224315706714
 10
39.94668046609843
 20
7.468743399267651
 10
39.86020427213578
 20
7.458776200333971
 10
39.80242282039285
 20
7.443859896629845
 10
39.78213282086733
 20
7.426264771481612
 10
39.80242311989218
 20
7.408669194770595
 10
39.86020444091741
 20
7.393752584103623
 10
39.9466805120735
 20
7.383785910514689
 10
40.04868599849328
 20
7.380285475072497
 10
40.15069128508321
 20
7.383785920814318
 10
40.23716787625312
 20
7.393752431805665
 10
40.2949489307889
 20
7.408669251471849
 10
40.31523927429623
 20
7.42626481990905
 10
40.29494937247853
 20
7.44385970865639
 10
40.23716765424615
 20
7.458776491303638
 10
40.15069158311132
 20
7.468743508895727
 10
40.04868614989561
 20
7.47224315706714
  0
LINE
  5
122
330
2
100
AcDbEntity
  8
0
  6
Continuous
 62
     7
370
    15
100
AcDbLine
 10
38.60929771629162
 20
7.511448795287776
 30
0.0
 11
38.60929795853542
 21
7.339824560223064
 31
0.0
  0
LINE
  5
123
330
2
100
AcDbEntity
  8
0
  6
Continuous
 62
     7
370
    15
100
AcDbLine
 10
40.7417250124065
 20
7.511448499626737
 30
0.0
 11
40.74172485744305
 21
7.339824608522519
 31
0.0
  0
ARC
  5
124
330
2
100
AcDbEntity
  8
0
  6
Continuous
 62
     7
370
    15
100
AcDbCircle
 10
40.22410788352272
 20
7.184033123181933
 30
0.0
 40
0.5178794771814603
100
AcDbArc
 50
268.2860224911939
 51
358.1766313322024
  0
LINE
  5
125
330
2
100
AcDbEntity
  8
0
  6
Continuous
 62
     7
370
    15
100
AcDbLine
 10
40.20861806207949
 20
6.666385348803345
 30
0.0
 11
39.14240407002956
 21
6.666385397337393
 31
0.0
  0
ARC
  5
126
330
2
100
AcDbEntity
  8
0
  6
Continuous
 62
     7
370
    15
100
AcDbCircle
 10
39.12691369871868
 20
7.184031697419811
 30
0.0
 40
0.5178780200017173
100
AcDbArc
 50
181.823183252999
 51
271.714043195501
  0
LINE
  5
127
330
2
100
AcDbEntity
  8
0
  6
Continuous
 62
     7
370
    15
100
AcDbLine
 10
38.60929788264229
 20
7.198452308596245
 30
0.0
 11
38.6092978446211
 21
7.167555314514174
 31
0.0
  0
LINE
  5
128
330
2
100
AcDbEntity
  8
0
  6
Continuous
 62
     7
370
    15
100
AcDbLine
 10
40.74172478155003
 20
7.198452356917044
 30
0.0
 11
40.74172514073597
 21
7.167555018853136
 31
0.0
  0
LWPOLYLINE
  5
129
330
2
100
AcDbEntity
  8
0
  6
Continuous
 62
     7
370
    15
100
AcDbPolyline
 90
        9
 70
   128
 43
0.0
 10
38.60929795853542
 20
7.339824560223064
 10
38.60929793115497
 20
7.333354262084242
 10
38.60929801131306
 20
7.32221203954424
 10
38.60929763464105
 20
7.306925397169777
 10
38.60929780470213
 20
7.288220196090918
 10
38.60929748407034
 20
7.266982003630687
 10
38.60929784387486
 20
7.24421810607663
 10
38.60929790987348
 20
7.221008209139569
 10
38.60929788264229
 20
7.198452308596245
  0
LWPOLYLINE
  5
12A
330
2
100
AcDbEntity
  8
0
  6
Continuous
 62
     7
370
    15
100
AcDbPolyline
 90
        9
 70
   128
 43
0.0
 10
40.74172485744305
 20
7.339824608522519
 10
40.74172483008396
 20
7.333354310383725
 10
40.74172491022068
 20
7.32221208786504
 10
40.74172487753048
 20
7.306925544776362
 10
40.74172470360974
 20
7.288220244411718
 10
40.74172472698115
 20
7.2669821512373
 10
40.74172474280385
 20
7.244218154376085
 10
40.74172480880235
 20
7.221008257439052
 10
40.74172478155003
 20
7.198452356917044
  0
LWPOLYLINE
  5
12B
330
2
100
AcDbEntity
  8
0
  6
Continuous
 62
     7
370
    15
100
AcDbPolyline
 90
       17
 70
   128
 43
0.0
 10
28.88491892149591
 20
17.25069828185269
 10
28.9194166080008
 20
17.30566205725807
 10
28.91565224164185
 20
17.37384555101312
 10
28.87419902993258
 20
17.44486873862965
 10
28.80136763518908
 20
17.50791908635443
 10
28.70824593350949
 20
17.55339749628305
 10
28.60901156919408
 20
17.57438029595826
 10
28.5187707561372
 20
17.56767352476004
 10
28.45126309148225
 20
17.53429743400511
 10
28.41676535175191
 20
17.47933427386897
 10
28.42052937415042
 20
17.41115050882652
 10
28.46198298304557
 20
17.34012714922974
 10
28.53481398060319
 20
17.27707714546548
 10
28.62793568228278
 20
17.23159873555818
 10
28.72717044378408
 20
17.21061541992088
 10
28.81741085965507
 20
17.21732270708119
 10
28.88491892149591
 20
17.25069828185269
  0
LWPOLYLINE
  5
12C
330
2
100
AcDbEntity
  8
0
  6
Continuous
 62
     7
370
    15
100
AcDbPolyline
 90
        9
 70
   128
 43
0.0
 10
27.99135728000567
 20
17.26783880928772
 10
28.02585501973601
 20
17.32280214140411
 10
28.0220909973375
 20
17.39098573446631
 10
27.98063738844235
 20
17.46200926606465
 10
27.90780639088485
 20
17.52505944178787
 10
27.81468468920514
 20
17.57053767973625
 10
27.71544958372215
 20
17.59152072406482
 10
27.62520916785104
 20
17.58481378088635
 10
27.56069451099961
 20
17.56770199612549
  0
LWPOLYLINE
  5
12D
330
2
100
AcDbEntity
  8
0
  6
Continuous
 62
     7
370
    15
100
AcDbPolyline
 90
        9
 70
   128
 43
0.0
 10
27.52404262001415
 20
17.49962436184751
 10
27.52320410744756
 20
17.49647462930244
 10
27.52696812984607
 20
17.42829069227972
 10
27.56842134155534
 20
17.35726767664346
 10
27.64125273629884
 20
17.29421750092024
 10
27.73437443797843
 20
17.24873891901137
 10
27.83360845831203
 20
17.22775584804876
 10
27.92384927136891
 20
17.23446279122726
 10
27.99135728000567
 20
17.26783880928772
  0
LWPOLYLINE
  5
12E
330
2
100
AcDbEntity
  8
0
  6
Continuous
 62
     7
370
    15
100
AcDbPolyline
 90
       17
 70
   128
 43
0.0
 10
29.0321309387316
 20
16.5872005873307
 10
29.0666282812548
 20
16.64216409144868
 10
29.06286391487447
 20
16.71034775720534
 10
29.02141104714701
 20
16.78137087212741
 10
28.94857965240351
 20
16.84442121985219
 10
28.8554579507238
 20
16.88989962978081
 10
28.7562232424267
 20
16.91088250212914
 10
28.66598277335163
 20
16.90417565825777
 10
28.59847510869668
 20
16.87079973950446
 10
28.5639777661736
 20
16.81583606338492
 10
28.56774178857199
 20
16.74765247032269
 10
28.60919500026
 20
16.67662928272753
 10
28.68202639502476
 20
16.6135789349814
 10
28.77514775270129
 20
16.568100425767
 10
28.87438246099851
 20
16.54711772539889
 10
28.96462293009495
 20
16.55382439728998
 10
29.0321309387316
 20
16.5872005873307
  0
LINE
  5
12F
330
2
100
AcDbEntity
  8
0
  6
Continuous
 62
     7
370
    15
100
AcDbLine
 10
30.08170852011313
 20
15.65770812488858
 30
0.0
 11
29.42744488638027
 21
16.08557896797828
 31
0.0
  0
ARC
  5
130
330
2
100
AcDbEntity
  8
0
  6
Continuous
 62
     7
370
    15
100
AcDbCircle
 10
28.96385674116312
 20
15.37269187851305
 30
0.0
 40
0.8503657864222383
100
AcDbArc
 50
56.9641821878974
 51
75.62978944179786
  0
LINE
  5
131
330
2
100
AcDbEntity
  8
0
  6
Continuous
 62
     7
370
    15
100
AcDbLine
 10
29.17490584879601
 20
16.19645170084323
 30
0.0
 11
29.14424646565772
 21
16.20429577812888
 31
0.0
  0
ARC
  5
132
330
2
100
AcDbEntity
  8
0
  6
Continuous
 62
     7
370
    15
100
AcDbCircle
 10
29.98843196895007
 20
19.49931543726322
 30
0.0
 40
3.401441417699579
100
AcDbArc
 50
236.9641499190994
 51
255.6298856825035
  0
LINE
  5
133
330
2
100
AcDbEntity
  8
0
  6
Continuous
 62
     7
370
    15
100
AcDbLine
 10
28.13408962735662
 20
16.64778633899411
 30
0.0
 11
27.20218763360469
 21
17.25722560048447
 31
0.0
  0
ARC
  5
134
330
2
100
AcDbEntity
  8
0
  6
Continuous
 62
     7
370
    15
100
AcDbCircle
 10
26.65506449169039
 20
18.49786940848119
 30
0.0
 40
1.300434064277178
100
AcDbArc
 50
315.6184583576049
 51
349.0308845141017
  0
LWPOLYLINE
  5
135
330
2
100
AcDbEntity
  8
0
  6
Continuous
 62
     7
370
    15
100
AcDbPolyline
 90
        9
 70
   128
 43
0.0
 10
26.86552595444596
 20
17.32705512058987
 10
26.85490294214128
 20
17.2473524452057
 10
26.85493247813417
 20
17.17958385006562
 10
26.865611685418
 20
17.12635370515795
 10
26.88653156347914
 20
17.08970735592245
 10
26.9168880790304
 20
17.07105325993225
 10
26.95551347021137
 20
17.07110855903602
 10
27.00092413966718
 20
17.08987065254692
 10
27.05137595173187
 20
17.1266187129718
  0
LINE
  5
136
330
2
100
AcDbEntity
  8
0
  6
Continuous
 62
     7
370
    15
100
AcDbLine
 10
26.87050126346242
 20
17.35364340358501
 30
0.0
 11
26.86552595444596
 21
17.32705512058987
 31
0.0
  0
LINE
  5
137
330
2
100
AcDbEntity
  8
0
  6
Continuous
 62
     7
370
    15
100
AcDbLine
 10
27.9367147965927
 20
18.27701131250836
 30
0.0
 11
27.93173948755498
 21
18.25042302951323
 31
0.0
  0
LINE
  5
138
330
2
100
AcDbEntity
  8
0
  6
Continuous
 62
     7
370
    15
100
AcDbLine
 10
27.05137595173187
 20
17.1266187129718
 30
0.0
 11
27.58448217571152
 21
17.58830274011726
 31
0.0
  0
LWPOLYLINE
  5
139
330
2
100
AcDbEntity
  8
0
  6
Continuous
 62
     7
370
    15
100
AcDbPolyline
 90
        9
 70
   128
 43
0.0
 10
28.09609213428359
 20
18.32277054439476
 10
28.07071197283017
 20
18.33633930262556
 10
28.04458266023948
 20
18.34448265983872
 10
28.01894253765954
 20
18.34681566776405
 10
27.99500757976432
 20
18.34322680773181
 10
27.97391180991883
 20
18.33388670323694
 10
27.9566558433894
 20
18.31923796670711
 10
27.94405773223161
 20
18.29997527666182
 10
27.9367147965927
 20
18.27701131250836
  0
LINE
  5
13A
330
2
100
AcDbEntity
  8
0
  6
Continuous
 62
     7
370
    15
100
AcDbLine
 10
29.20980765470972
 20
17.59443003715282
 30
0.0
 11
28.09609213428359
 21
18.32277054439476
 31
0.0
  0
ARC
  5
13B
330
2
100
AcDbEntity
  8
0
  6
Continuous
 62
     7
370
    15
100
AcDbCircle
 10
26.95403666088373
 20
17.33990618548375
 30
0.0
 40
0.0846573905963552
100
AcDbArc
 50
131.4911098731079
 51
170.6614139642025
  0
ARC
  5
13C
330
2
100
AcDbEntity
  8
0
  6
Continuous
 62
     7
370
    15
100
AcDbCircle
 10
27.84866064505241
 20
15.44188635944701
 30
0.0
 40
2.546795136310862
100
AcDbArc
 50
35.02349907010105
 51
57.69305184269741
  0
ARC
  5
13D
330
2
100
AcDbEntity
  8
0
  6
Continuous
 62
     7
370
    15
100
AcDbCircle
 10
30.89774165064637
 20
16.45368371609038
 30
0.0
 40
0.2064941637817816
100
AcDbArc
 50
236.6602502328963
 51
249.1507928048059
  0
LINE
  5
13E
330
2
100
AcDbEntity
  8
0
  6
Continuous
 62
     7
370
    15
100
AcDbLine
 10
30.82424837778103
 20
16.2607107166294
 30
0.0
 11
31.88218030262272
 21
15.86150530021683
 31
0.0
  0
ARC
  5
13F
330
2
100
AcDbEntity
  8
0
  6
Continuous
 62
     7
370
    15
100
AcDbCircle
 10
30.93248351974523
 20
13.43431036925122
 30
0.0
 40
2.606376644361874
100
AcDbArc
 50
40.83880631450313
 51
68.63091609059788
  0
LINE
  5
140
330
2
100
AcDbEntity
  8
0
  6
Continuous
 62
     7
370
    15
100
AcDbLine
 10
30.12998869738499
 20
16.70904356662077
 30
0.0
 11
30.78425193391058
 21
16.28117306751295
 31
0.0
  0
ARC
  5
141
330
2
100
AcDbEntity
  8
0
  6
Continuous
 62
     7
370
    15
100
AcDbCircle
 10
30.47027834774122
 20
17.24718212165791
 30
0.0
 40
0.6367025605235991
100
AcDbArc
 50
215.0235430753019
 51
237.6929581913989
  0
LINE
  5
142
330
2
100
AcDbEntity
  8
0
  6
Continuous
 62
     7
370
    15
100
AcDbLine
 10
29.93427379254558
 20
16.90352354609803
 30
0.0
 11
29.94887224891613
 21
16.88177025719565
 31
0.0
  0
LINE
  5
143
330
2
100
AcDbEntity
  8
0
  6
Continuous
 62
     7
370
    15
100
AcDbLine
 10
31.18669522015637
 20
15.23442934637592
 30
0.0
 11
30.12876289812869
 21
15.63363510677027
 31
0.0
  0
ARC
  5
144
330
2
100
AcDbEntity
  8
0
  6
Continuous
 62
     7
370
    15
100
AcDbCircle
 10
30.21522786882861
 20
15.86066803358491
 30
0.0
 40
0.2429406121108309
100
AcDbArc
 50
236.6606535200965
 51
249.1507792128971
  0
ARC
  5
145
330
2
100
AcDbEntity
  8
0
  6
Continuous
 62
     7
370
    15
100
AcDbCircle
 10
30.25896725803807
 20
12.85846663095316
 30
0.0
 40
2.550662266309998
100
AcDbArc
 50
43.43812524440357
 51
68.67114336299434
  0
LWPOLYLINE
  5
146
330
2
100
AcDbEntity
  8
0
  6
Continuous
 62
     7
370
    15
100
AcDbPolyline
 90
       17
 70
   128
 43
0.0
 10
40.04868614989561
 20
7.47224315706714
 10
39.94668046609843
 20
7.468743399267651
 10
39.86020427213578
 20
7.458776200333971
 10
39.80242282039285
 20
7.443859896629845
 10
39.78213282086733
 20
7.426264771481612
 10
39.80242311989218
 20
7.408669194770595
 10
39.86020444091741
 20
7.393752584103623
 10
39.9466805120735
 20
7.383785910514689
 10
40.04868599849328
 20
7.380285475072497
 10
40.15069128508321
 20
7.383785920814318
 10
40.23716787625312
 20
7.393752431805665
 10
40.2949489307889
 20
7.408669251471849
 10
40.31523927429623
 20
7.42626481990905
 10
40.29494937247853
 20
7.44385970865639
 10
40.23716765424615
 20
7.458776491303638
 10
40.15069158311132
 20
7.468743508895727
 10
40.04868614989561
 20
7.47224315706714
  0
LWPOLYLINE
  5
147
330
2
100
AcDbEntity
  8
0
  6
Continuous
 62
     7
370
    15
100
AcDbPolyline
 90
        9
 70
   128
 43
0.0
 10
27.53661434127355
 20
17.5468479350896
 10
27.52320410744756
 20
17.49647462930244
 10
27.52696812984607
 20
17.42829069227972
 10
27.56842134155534
 20
17.35726767664346
 10
27.64125273629884
 20
17.29421750092024
 10
27.73437443797843
 20
17.24873891901137
 10
27.83360845831203
 20
17.22775584804876
 10
27.92384927136891
 20
17.23446279122726
 10
27.99135728000567
 20
17.26783880928772
  0
LWPOLYLINE
  5
148
330
2
100
AcDbEntity
  8
0
  6
Continuous
 62
     7
370
    15
100
AcDbPolyline
 90
        9
 70
   128
 43
0.0
 10
52.29964614956362
 20
17.12661853195004
 10
52.35009748477501
 20
17.08987038443683
 10
52.39550958481209
 20
17.07110850408338
 10
52.43413425885785
 20
17.0710531208127
 10
52.46449085655013
 20
17.08970727171291
 10
52.48541097141742
 20
17.12635368210641
 10
52.49608988877639
 20
17.17958374915918
 10
52.49611897934801
 20
17.24735241324063
 10
52.48549599930687
 20
17.32705497272738
  0
LWPOLYLINE
  5
149
330
2
100
AcDbEntity
  8
0
  6
Continuous
 62
     7
370
    15
100
AcDbPolyline
 90
        9
 70
   128
 43
0.0
 10
51.2549308714382
 20
18.32277066391728
 10
51.28030981951929
 20
18.33633916572376
 10
51.30644002297413
 20
18.34448289726316
 10
51.33208039690316
 20
18.34681572565944
 10
51.35601462305601
 20
18.34322662914101
 10
51.37711031468416
 20
18.33388645687765
 10
51.39436717380499
 20
18.31923809616677
 10
51.40696514878595
 20
18.29997528817694
 10
51.41430708789892
 20
18.27701125540196
  0
LINE
  5
14A
330
2
100
AcDbEntity
  8
0
  6
Continuous
 62
     7
370
    15
100
AcDbLine
 10
38.91385169837281
 20
26.77214355189784
 30
0.0
 11
38.91385169837281
 21
21.65527292746623
 31
0.0
  0
LINE
  5
14B
330
2
100
AcDbEntity
  8
0
  6
Continuous
 62
     7
370
    15
100
AcDbLine
 10
39.51072611665052
 20
21.67384631279376
 30
0.0
 11
39.51072611665052
 21
26.57509907308429
 31
0.0
  0
ARC
  5
14C
330
2
100
AcDbEntity
  8
0
  6
Continuous
 62
     7
370
    15
100
AcDbCircle
 10
38.97422973674498
 20
26.59878408486131
 30
0.0
 40
0.5370189432763734
100
AcDbArc
 50
357.4721719326027
 51
107.1778698391925
  0
LINE
  5
14D
330
2
100
AcDbEntity
  8
0
  6
Continuous
 62
     7
370
    15
100
AcDbLine
 10
38.67462221317192
 20
27.25015724906456
 30
0.0
 11
38.69357462410778
 21
27.23831185627159
 31
0.0
  0
ARC
  5
14E
330
2
100
AcDbEntity
  8
0
  6
Continuous
 62
     7
370
    15
100
AcDbCircle
 10
38.359364629933
 20
26.79391779151337
 30
0.0
 40
0.5549144317658486
100
AcDbArc
 50
357.7511985122971
 51
47.59818810019091
  0
LINE
  5
14F
330
2
100
AcDbEntity
  8
0
  6
Continuous
 62
     7
370
    15
100
AcDbLine
 10
43.48657472661329
 20
24.89116578488876
 30
0.0
 11
43.48657472661329
 21
21.15157331561917
 31
0.0
  0
LINE
  5
150
330
2
100
AcDbEntity
  8
0
  6
Continuous
 62
     7
370
    15
100
AcDbLine
 10
44.31429128202717
 20
20.86642581082344
 30
0.0
 11
44.31429128202717
 21
24.76075969109917
 31
0.0
  0
ARC
  5
151
330
2
100
AcDbEntity
  8
0
  6
Continuous
 62
     7
370
    15
100
AcDbCircle
 10
43.77308500554693
 20
24.7818815096515
 30
0.0
 40
0.5416182834225759
100
AcDbArc
 50
357.7650348000988
 51
111.3845882548947
  0
LINE
  5
152
330
2
100
AcDbEntity
  8
0
  6
Continuous
 62
     7
370
    15
100
AcDbLine
 10
43.57559671835531
 20
25.2862115021783
 30
0.0
 11
43.3876083006212
 21
25.23194392038201
 31
0.0
  0
LINE
  5
153
330
2
100
AcDbEntity
  8
0
  6
Continuous
 62
     7
370
    15
100
AcDbLine
 10
43.25056086035431
 20
25.37038649087208
 30
0.0
 11
43.26629766565452
 21
25.35733397844027
 31
0.0
  0
ARC
  5
154
330
2
100
AcDbEntity
  8
0
  6
Continuous
 62
     7
370
    15
100
AcDbCircle
 10
42.93208630619324
 20
24.91293936151135
 30
0.0
 40
0.5549157566686414
100
AcDbArc
 50
357.7512723899011
 51
47.59813600900565
  0
LINE
  5
155
330
2
100
AcDbEntity
  8
0
  6
Continuous
 62
     7
370
    15
100
AcDbLine
 10
42.60834945985755
 20
26.23814864646249
 30
0.0
 11
42.60834945985755
 21
21.37456116206053
 31
0.0
  0
LINE
  5
156
330
2
100
AcDbEntity
  8
0
  6
Continuous
 62
     7
370
    15
100
AcDbLine
 10
42.37233559359856
 20
26.7173693524671
 30
0.0
 11
42.38807239892003
 21
26.70431684001397
 31
0.0
  0
ARC
  5
157
330
2
100
AcDbEntity
  8
0
  6
Continuous
 62
     7
370
    15
100
AcDbCircle
 10
42.05386103945886
 20
26.2599222231064
 30
0.0
 40
0.5549157566685454
100
AcDbArc
 50
357.7512723899011
 51
47.59813600900565
  0
LINE
  5
158
330
2
100
AcDbEntity
  8
0
  6
Continuous
 62
     7
370
    15
100
AcDbLine
 10
41.44824332202301
 20
21.56796318132518
 30
0.0
 11
41.44824332202301
 21
26.33415989847083
 31
0.0
  0
LINE
  5
159
330
2
100
AcDbEntity
  8
0
  6
Continuous
 62
     7
370
    15
100
AcDbLine
 10
40.02033761889243
 20
26.29130619461421
 30
0.0
 11
40.02033761889243
 21
21.6707711552786
 31
0.0
  0
ARC
  5
15A
330
2
100
AcDbEntity
  8
0
  6
Continuous
 62
     7
370
    15
100
AcDbCircle
 10
40.90703736792306
 20
26.3552821532538
 30
0.0
 40
0.5416179782988518
100
AcDbArc
 50
357.764987358702
 51
111.3846179799967
  0
LINE
  5
15B
330
2
100
AcDbEntity
  8
0
  6
Continuous
 62
     7
370
    15
100
AcDbLine
 10
40.70954893033149
 20
26.85961175919283
 30
0.0
 11
39.92137126561602
 21
26.63208446575112
 31
0.0
  0
LINE
  5
15C
330
2
100
AcDbEntity
  8
0
  6
Continuous
 62
     7
370
    15
100
AcDbLine
 10
35.07700391419689
 20
24.49494150488883
 30
0.0
 11
35.07700391419689
 21
20.88228918147678
 31
0.0
  0
ARC
  5
15D
330
2
100
AcDbEntity
  8
0
  6
Continuous
 62
     7
370
    15
100
AcDbCircle
 10
36.12660494937723
 20
24.4430395420774
 30
0.0
 40
1.050883507714337
100
AcDbArc
 50
107.2086813027024
 51
177.1690737468965
  0
LINE
  5
15E
330
2
100
AcDbEntity
  8
0
  6
Continuous
 62
     7
370
    15
100
AcDbLine
 10
36.23043651400712
 20
25.56660337956038
 30
0.0
 11
35.8156981339082
 21
25.44687872186745
 31
0.0
  0
LINE
  5
15F
330
2
100
AcDbEntity
  8
0
  6
Continuous
 62
     7
370
    15
100
AcDbLine
 10
39.78432365334766
 20
26.77052698659827
 30
0.0
 11
39.80006063062808
 21
26.75747452380941
 31
0.0
  0
ARC
  5
160
330
2
100
AcDbEntity
  8
0
  6
Continuous
 62
     7
370
    15
100
AcDbCircle
 10
39.46585112580272
 20
26.31308077273121
 30
0.0
 40
0.5549138701462702
100
AcDbArc
 50
357.751161256096
 51
47.5982035698961
  0
LINE
  5
161
330
2
100
AcDbEntity
  8
0
  6
Continuous
 62
     7
370
    15
100
AcDbLine
 10
42.88794091344755
 20
25.51860738896039
 30
0.0
 11
42.88794091344755
 21
21.31139283837797
 31
0.0
  0
LINE
  5
162
330
2
100
AcDbEntity
  8
0
  6
Continuous
 62
     7
370
    15
100
AcDbLine
 10
42.60834945985755
 20
26.03397140597397
 30
0.0
 11
42.66766418405995
 21
25.98477569256647
 31
0.0
  0
ARC
  5
163
330
2
100
AcDbEntity
  8
0
  6
Continuous
 62
     7
370
    15
100
AcDbCircle
 10
42.33345452429239
 20
25.54038220678356
 30
0.0
 40
0.5549137756845271
100
AcDbArc
 50
357.7511361039011
 51
47.59818514919989
  0
LWPOLYLINE
  5
164
330
2
100
AcDbEntity
  8
0
  6
Continuous
 62
     7
370
    15
100
AcDbPolyline
 90
       89
 70
   128
 43
0.0
 10
41.84291895988121
 20
8.357610828824903
 10
41.33533016527485
 20
8.289265869453942
 10
40.81928317049857
 20
8.239200677866108
 10
40.29740780488714
 20
8.207670372957409
 10
39.77236335454882
 20
8.194835153340875
 10
39.24682575963482
 20
8.200760958612022
 10
38.72347221290534
 20
8.225417316514381
 10
38.20497033499623
 20
8.268678575184026
 10
37.69396173905614
 20
8.330324433121546
 10
37.19305054459869
 20
8.410040751199034
 10
36.70479001155479
 20
8.507421197870314
 10
36.23166695086605
 20
8.621969628533207
 10
35.77609328071196
 20
8.753102234589562
 10
35.34039023149478
 20
8.900150895172998
 10
34.92677792319592
 20
9.062366245541085
 10
34.53736385050388
 20
9.2389216912415
 10
34.17413264825166
 20
9.428917505293611
 10
33.83893516155422
 20
9.63138552722637
 10
33.53347926445156
 20
9.845293936857672
 10
33.25932232644869
 20
10.06955298412631
 10
33.01786106388931
 20
10.30301980603161
 10
32.81032475035102
 20
10.54450430665201
 10
32.63777230662731
 20
10.79277644362776
 10
32.50108238790677
 20
11.04657084092028
 10
32.40095200473104
 20
11.30459433830847
 10
32.33789139491376
 20
11.56553202110351
 10
32.31222095570206
 20
11.82805424628333
 10
32.32407256622287
 20
12.09082304374033
 10
32.37338528200633
 20
12.35249981709441
 10
32.45990779934562
 20
12.61175075607033
 10
32.58319951526335
 20
12.86725505404035
 10
32.74263215139695
 20
13.11771065124776
 10
32.93739304471819
 20
13.36184091776968
 10
33.16648990606529
 20
13.5984024481354
 10
33.42875511815669
 20
13.82618928321241
 10
33.72285243932356
 20
14.04404080779969
 10
34.04728314005979
 20
14.25084696195981
 10
34.40039403148194
 20
14.44555399829514
 10
34.78038565960742
 20
14.62716959943191
 10
35.18532170343031
 20
14.79476834277
 10
35.61313852271428
 20
14.94749629134264
 10
36.06165661725152
 20
15.08457476034408
 10
36.52859026106205
 20
15.20530539162371
 10
37.01155926232434
 20
15.30907354838226
 10
37.50810353623308
 20
15.39534977023342
 10
38.01569233083944
 20
15.46369472960438
 10
38.53173932559446
 20
15.51375992119222
 10
39.0536146912059
 20
15.54529022610086
 10
39.57865914154422
 20
15.55812544571739
 10
40.10419673647959
 20
15.5521996404463
 10
40.6275502831877
 20
15.52754328254392
 10
41.14605216111818
 20
15.4842820238743
 10
41.65706075705827
 20
15.42263616593675
 10
42.15797195149434
 20
15.34291984785926
 10
42.64623248453824
 20
15.2455394012093
 10
43.11935554524836
 20
15.13099097052509
 10
43.57492921540244
 20
14.99985836446876
 10
44.01063226459825
 20
14.85280970390664
 10
44.42424457291849
 20
14.69059435353853
 10
44.81365864558916
 20
14.51403890781679
 10
45.17688984786275
 20
14.32404309376471
 10
45.51208733456019
 20
14.12157507183195
 10
45.81754323166285
 20
13.90766666220062
 10
46.09170016966572
 20
13.68340761493198
 10
46.3331614322251
 20
13.44994079302671
 10
46.54069774576339
 20
13.20845629240625
 10
46.71325018946572
 20
12.96018415545185
 10
46.84994010818627
 20
12.70638975813801
 10
46.95007049138325
 20
12.44836626074982
 10
47.01313110120065
 20
12.18742857795479
 10
47.03880154041235
 20
11.92490635277497
 10
47.02694992989143
 20
11.66213755531797
 10
46.97763721408683
 20
11.40046078196388
 10
46.8911146967688
 20
11.14120984298796
 10
46.76782298085107
 20
10.88570554503928
 10
46.60839034469609
 20
10.63524994781053
 10
46.41362945139621
 20
10.39111968128861
 10
46.18453259002774
 20
10.15455815092292
 10
45.92226737793635
 20
9.926771315867199
 10
45.62817005679085
 20
9.708919791258608
 10
45.30373935605462
 20
9.502113637098489
 10
44.95062846461121
 20
9.307406600763158
 10
44.57063683650699
 20
9.125790999626389
 10
44.16570079266285
 20
8.958192256288327
 10
43.73788397337875
 20
8.805464307715652
 10
43.28936587886289
 20
8.668385838714186
 10
42.82243223503098
 20
8.547655207434559
 10
42.33946323379007
 20
8.443887050676039
 10
41.84291895988121
 20
8.357610828824903
  0
LWPOLYLINE
  5
165
330
2
100
AcDbEntity
  8
0
  6
Continuous
 62
     7
370
    15
100
AcDbPolyline
 90
       98
 70
   128
 43
0.0
 10
31.8365767968179
 20
9.742846364591912
 10
31.56006145372464
 20
10.00129844423102
 10
31.3175851572795
 20
10.2681579416303
 10
31.11016520357498
 20
10.54230553520938
 10
30.93867077039738
 20
10.8225912994327
 10
30.80382191351441
 20
11.10783954590977
 10
30.70618422221571
 20
11.39685424637071
 10
30.64616657077499
 20
11.68842256857167
 10
30.62402135220646
 20
11.98132182350801
 10
30.63984118718395
 20
12.27432390427472
 10
30.69355997353546
 20
12.56619914360584
 10
30.78495232552246
 20
12.8557239488594
 10
30.91363414121338
 20
13.14168348838518
 10
31.07906638238296
 20
13.42287874495406
 10
31.28055538998217
 20
13.69812981743774
 10
31.51725563226217
 20
13.96628267635932
 10
31.78817465149257
 20
14.22621242650683
 10
32.09217562775825
 20
14.47682863343783
 10
32.42798428326739
 20
14.71708006844977
 10
32.79419115522058
 20
14.94595949248832
 10
33.18926048621961
 20
15.1625066811448
 10
33.6115358712973
 20
15.36581326545755
 10
34.05924509850525
 20
15.55502688095433
 10
34.53051117663381
 20
15.72935343395318
 10
35.02335733750181
 20
15.88806175594737
 10
35.53571628039128
 20
16.03048627235915
 10
36.06543871843155
 20
16.15602992825128
 10
36.61030325570346
 20
16.26416566366816
 10
37.16802426807135
 20
16.35444006460687
 10
37.73626233943208
 20
16.42647499974049
 10
38.3126346955305
 20
16.47996742191034
 10
38.89472333270897
 20
16.5146935493039
 10
39.48008681545332
 20
16.5305076846447
 10
40.06626937951205
 20
16.52734346709755
 10
40.65081374095917
 20
16.50521390084307
 10
41.23126722233791
 20
16.46421220625746
 10
41.8051951184583
 20
16.40451017453139
 10
42.3701903032163
 20
16.32635818914394
 10
42.92388348545933
 20
16.23008428789285
 10
43.46395150715648
 20
16.11609174282441
 10
43.98812961001522
 20
15.98485916128914
 10
44.4942193508159
 20
15.83693680865642
 10
44.98009733583399
 20
15.67294500199975
 10
45.44372607969251
 20
15.49357185558813
 10
45.88316103401211
 20
15.29956957700926
 10
46.29655908453673
 20
15.09175187490589
 10
46.68218562944798
 20
14.87099021202397
 10
47.03842426084088
 20
14.63821098162316
 10
47.36378011256988
 20
14.39439022494301
 10
47.65688875447563
 20
14.14055069499989
 10
47.91652076712284
 20
13.8777571002083
 10
48.14158690543036
 20
13.60711163272367
 10
48.33114404944353
 20
13.32974960914279
 10
48.48439584293283
 20
13.04683415129224
 10
48.60070016904273
 20
12.75955209510275
 10
48.67956920021299
 20
12.46910838684661
 10
48.72067234888118
 20
12.17672114443621
 10
48.72383650878885
 20
11.88361668206636
 10
48.68904895619085
 20
11.59102461469459
 10
48.61645582510573
 20
11.30017202888083
 10
48.50636052239053
 20
11.01227889740795
 10
48.35922613942876
 20
10.72855281318888
 10
48.17566914362316
 20
10.45018372835554
 10
47.95645942115061
 20
10.17833915075329
 10
47.70251677349051
 20
9.91415923430469
 10
47.4149060770286
 20
9.658752629668725
 10
47.09483344980594
 20
9.413189874078938
 10
46.74364171420404
 20
9.178501164257937
 10
46.36280394313314
 20
8.955670824133591
 10
45.95391673987944
 20
8.745633989106693
 10
45.51869638463881
 20
8.549270907096655
 10
45.05896752815352
 20
8.367405509367472
 10
44.5766583185823
 20
8.200800793161988
 10
44.07379234845428
 20
8.050155121151476
 10
43.55247839074126
 20
7.916100634419649
 10
43.01490290478477
 20
7.799199713123812
 10
42.46332069564551
 20
7.699942738747097
 10
41.90004566956338
 20
7.618745425451322
 10
41.32744027106411
 20
7.555948981352344
 10
40.74790604385611
 20
7.511816466270431
 10
40.16387402407509
 20
7.486532770533983
 10
39.57779353233218
 20
7.4802045899022
 10
38.99212248906167
 20
7.492858088467556
 10
38.4093179920925
 20
7.524440306484166
 10
37.83182464589606
 20
7.574818543136814
 10
37.2620640540722
 20
7.643781909694212
 10
36.70242669488767
 20
7.731040818750074
 10
36.15525884614851
 20
7.836229172114713
 10
35.62285670897848
 20
7.958905874966347
 10
35.10745230087366
 20
8.098556725863829
 10
34.61120851909186
 20
8.254595514243135
 10
34.13620619688345
 20
8.426368080771624
 10
33.68443689720891
 20
8.613153791516651
 10
33.25779686995316
 20
8.814169182625931
 10
32.85807490229263
 20
9.028571332590473
 10
32.48694731828255
 20
9.255460603970277
 10
32.14597125855414
 20
9.493885668928044
 10
31.8365767968179
 20
9.742846364591912
  0
LWPOLYLINE
  5
166
330
2
100
AcDbEntity
  8
0
  6
Continuous
 62
     7
370
    15
100
AcDbPolyline
 90
       52
 70
   128
 43
0.0
 10
30.62426432492521
 20
11.88766729293215
 10
30.61282757476363
 20
12.09209592873725
 10
30.62866694710283
 20
12.38546001417981
 10
30.68245218058894
 20
12.67769635267291
 10
30.77395761301386
 20
12.96757920784549
 10
30.90279841550216
 20
13.25389239158915
 10
31.06843556411536
 20
13.53543528558447
 10
31.27017373309957
 20
13.8110270488998
 10
31.50716696878385
 20
14.07951123706314
 10
31.77842074958949
 20
14.33976235908372
 10
32.08279772729247
 20
14.59068845205925
 10
32.41902126938976
 20
14.83123714891226
 10
32.78568121283536
 20
15.06039963250708
 10
33.18123904829122
 20
15.27721488408448
 10
33.60403663864088
 20
15.48077265861607
 10
34.05229996594062
 20
15.67022007040043
 10
34.52414890021874
 20
15.84476211958065
 10
35.01760427614727
 20
16.00366694569874
 10
35.53059653508785
 20
16.14626786371548
 10
36.06097450798279
 20
16.27196635806632
 10
36.60651261946225
 20
16.38023599690209
 10
37.16492310579884
 20
16.47062228985589
 10
37.73386428217828
 20
16.54274599211135
 10
38.31094920570649
 20
16.59630468766551
 10
38.89375746489554
 20
16.63107389959867
 10
39.47984464712874
 20
16.64690752988727
 10
40.06675304306077
 20
16.64373911482781
 10
40.6520199429965
 20
16.62158238556671
 10
41.23319094952762
 20
16.58053006590177
 10
41.80782884318318
 20
16.52075413857969
 10
42.3735226998358
 20
16.44250549583398
 10
42.92790036998485
 20
16.34611226771116
 10
43.46863641893492
 20
16.23197890350661
 10
43.99346254212412
 20
16.10058390422674
 10
44.50017801954061
 20
15.95247871251126
 10
44.9866570886104
 20
15.78828410821308
 10
45.45085929920048
 20
15.60868918434255
 10
45.8908381241456
 20
15.41444706779816
 10
46.30474679642714
 20
15.20637224737106
 10
46.69085070004621
 20
14.98533778694016
 10
47.04752997297077
 20
14.75227068791201
 10
47.3732881479226
 20
14.50814837817961
 10
47.66675925555637
 20
14.25399494369688
 10
47.92671241180028
 20
13.99087636133134
 10
48.15205683243005
 20
13.71989615613336
 10
48.3418477963155
 20
13.44219103139576
 10
48.49528962092449
 20
13.15892590864968
 10
48.61173742328151
 20
12.8712884306297
 10
48.69070385093062
 20
12.58048551525024
 10
48.73185771336579
 20
12.2877365969843
 10
48.73502569153356
 20
11.99426976316113
 10
48.72675814636773
 20
11.88766731148428
  0
SPLINE
  5
167
330
2
100
AcDbEntity
  8
0
  6
Continuous
 62
     7
370
    15
100
AcDbSpline
210
0.0
220
0.0
230
1.0
 70
     8
 71
     3
 72
     8
 73
     4
 74
     0
 42
0.000000001
 43
0.0000000001
 40
0.0
 40
0.0
 40
0.0
 40
0.0
 40
1.0
 40
1.0
 40
1.0
 40
1.0
 10
33.97953528400388
 20
20.35441967517065
 30
0.0
 10
33.97692474748919
 20
20.35287809312618
 30
0.0
 10
33.97435380807008
 20
20.35098838968094
 30
0.0
 10
33.97182074931038
 20
20.34876425646337
 30
0.0
  0
LWPOLYLINE
  5
168
330
2
100
AcDbEntity
  8
0
  6
Continuous
 62
     7
370
    15
100
AcDbPolyline
 90
       25
 70
   128
 43
0.0
 10
33.97953517579003
 20
20.35441954304895
 10
34.3430708119397
 20
20.5539870225667
 10
34.73450852398855
 20
20.73989244491887
 10
35.15179935282197
 20
20.91116365376442
 10
35.59276039451561
 20
21.0669040280882
 10
36.05508414584779
 20
21.20629884915942
 10
36.53635166109666
 20
21.32861863980588
 10
37.03404450642847
 20
21.43322353277643
 10
37.54555878627707
 20
21.51956594380235
 10
38.06821788146249
 20
21.58719424879754
 10
38.59928737688483
 20
21.63575434125522
 10
39.13598749807352
 20
21.66499276371729
 10
39.67551120065332
 20
21.67475573811714
 10
40.21503460857423
 20
21.6649926376482
 10
40.7517353553319
 20
21.63575440183746
 10
41.28280442669972
 20
21.58719420331286
 10
41.80546378732969
 20
21.51956588597093
 10
42.31697801254552
 20
21.43322342421456
 10
42.81467110826691
 20
21.32861866959587
 10
43.29593855416942
 20
21.20629886493938
 10
43.75826220517069
 20
21.06690406649321
 10
44.19922342684128
 20
20.91116371212894
 10
44.61651382300511
 20
20.73989249454044
 10
45.00795157350171
 20
20.5539869366512
 10
45.37148739916005
 20
20.35441943133111
  0
SPLINE
  5
169
330
2
100
AcDbEntity
  8
0
  6
Continuous
 62
     7
370
    15
100
AcDbSpline
210
0.0
220
0.0
230
1.0
 70
     8
 71
     3
 72
     8
 73
     4
 74
     0
 42
0.000000001
 43
0.0000000001
 40
0.0
 40
0.0
 40
0.0
 40
0.0
 40
1.0
 40
1.0
 40
1.0
 40
1.0
 10
45.37920174679323
 20
20.34876425646334
 30
0.0
 10
45.37667892644094
 20
20.35097939992426
 30
0.0
 10
45.37407797673449
 20
20.3528897688775
 30
0.0
 10
45.37148721209973
 20
20.35441967517062
 30
0.0
  0
SPLINE
  5
16A
330
2
100
AcDbEntity
  8
0
  6
Continuous
 62
     7
370
    15
100
AcDbSpline
210
0.0
220
0.0
230
1.0
 70
     8
 71
     3
 72
     8
 73
     4
 74
     0
 42
0.000000001
 43
0.0000000001
 40
0.0
 40
0.0
 40
0.0
 40
0.0
 40
1.0
 40
1.0
 40
1.0
 40
1.0
 10
45.71370252327949
 20
16.62463164317461
 30
0.0
 10
45.6046782161784
 20
17.86683762003278
 30
0.0
 10
45.49324273117145
 20
19.10823930380238
 30
0.0
 10
45.37920174679323
 20
20.34876425646334
 30
0.0
  0
LWPOLYLINE
  5
16B
330
2
100
AcDbEntity
  8
0
  6
Continuous
 62
     7
370
    15
100
AcDbPolyline
 90
        3
 70
   128
 43
0.0
 10
45.7195971422633
 20
16.47766794516553
 10
45.71738875252925
 20
16.53272097011174
 10
45.71370245976686
 20
16.62463167769977
  0
ARC
  5
16C
330
2
100
AcDbEntity
  8
0
  6
Continuous
 62
     7
370
    15
100
AcDbCircle
 10
42.59940067622085
 20
11.70442380552524
 30
0.0
 40
5.702585869875399
100
AcDbArc
 50
55.77975900479622
 51
56.82797070979556
  0
SPLINE
  5
16D
330
2
100
AcDbEntity
  8
0
  6
Continuous
 62
     7
370
    15
100
AcDbSpline
210
0.0
220
0.0
230
1.0
 70
     8
 71
     3
 72
    12
 73
     8
 74
     0
 42
0.000000001
 43
0.0000000001
 40
0.0
 40
0.0
 40
0.0
 40
0.0
 40
0.2499999999999991
 40
0.2499999999999991
 40
0.4999999999999983
 40
0.4999999999999983
 40
1.0
 40
1.0
 40
1.0
 40
1.0
 10
45.87234120376741
 20
16.28573956810771
 30
0.0
 10
45.87186151244316
 20
16.29784016618478
 30
0.0
 10
45.86978360099783
 20
16.31081015938977
 30
0.0
 10
45.86269886795787
 20
16.33722715471006
 30
0.0
 10
45.8577049011468
 20
16.35051520927788
 30
0.0
 10
45.83954778715088
 20
16.38755052065588
 30
0.0
 10
45.82304750547495
 20
16.40846274981189
 30
0.0
 10
45.80639562632825
 20
16.41978927086177
 30
0.0
  0
LINE
  5
16E
330
2
100
AcDbEntity
  8
0
  6
Continuous
 62
     7
370
    15
100
AcDbLine
 10
45.90754912686088
 20
15.39730953994183
 30
0.0
 11
45.87234125250154
 21
16.2857395052838
 31
0.0
  0
LINE
  5
16F
330
2
100
AcDbEntity
  8
0
  6
Continuous
 62
     7
370
    15
100
AcDbLine
 10
33.4786811808342
 20
16.28573966658058
 30
0.0
 11
33.44334997292174
 21
15.394203079334
 31
0.0
  0
SPLINE
  5
170
330
2
100
AcDbEntity
  8
0
  6
Continuous
 62
     7
370
    15
100
AcDbSpline
210
0.0
220
0.0
230
1.0
 70
     8
 71
     3
 72
    12
 73
     8
 74
     0
 42
0.000000001
 43
0.0000000001
 40
0.0
 40
0.0
 40
0.0
 40
0.0
 40
0.2500000000000007
 40
0.2500000000000007
 40
0.5000000000000015
 40
0.5000000000000015
 40
1.0
 40
1.0
 40
1.0
 40
1.0
 10
33.54462686977547
 20
16.4197892708618
 30
0.0
 10
33.53630010438508
 20
16.41412544862049
 30
0.0
 10
33.52809333017024
 20
16.40622818187071
 30
0.0
 10
33.51261260734543
 20
16.38674995633127
 30
0.0
 10
33.50546151576566
 20
16.37527434923913
 30
0.0
 10
33.48728437955879
 20
16.3382310495935
 30
0.0
 10
33.47964075498158
 20
16.30994278224398
 30
0.0
 10
33.47868129233621
 20
16.28573956810771
 30
0.0
  0
ARC
  5
171
330
2
100
AcDbEntity
  8
0
  6
Continuous
 62
     7
370
    15
100
AcDbCircle
 10
36.75339183452479
 20
11.70175721344432
 30
0.0
 40
5.705786325434578
100
AcDbArc
 50
123.3357132802583
 51
124.2198803784011
  0
LINE
  5
172
330
2
100
AcDbEntity
  8
0
  6
Continuous
 62
     7
370
    15
100
AcDbLine
 10
46.39028831122186
 20
15.70644068986885
 30
0.0
 11
46.39721978330908
 21
15.15343386325139
 31
0.0
  0
LINE
  5
173
330
2
100
AcDbEntity
  8
0
  6
Continuous
 62
     7
370
    15
100
AcDbLine
 10
45.4689504239459
 20
19.42635986038854
 30
0.0
 11
46.47504787637944
 21
18.55505390789932
 31
0.0
  0
LINE
  5
174
330
2
100
AcDbEntity
  8
0
  6
Continuous
 62
     7
370
    15
100
AcDbLine
 10
46.39028831122186
 20
15.70644068986885
 30
0.0
 11
46.47504787637944
 21
18.55505390789932
 31
0.0
  0
LINE
  5
175
330
2
100
AcDbEntity
  8
0
  6
Continuous
 62
     7
370
    15
100
AcDbLine
 10
32.96073402779666
 20
15.7064408021838
 30
0.0
 11
32.9537911308139
 21
15.15254492933113
 31
0.0
  0
LINE
  5
176
330
2
100
AcDbEntity
  8
0
  6
Continuous
 62
     7
370
    15
100
AcDbLine
 10
32.87597491072598
 20
18.55505367444118
 30
0.0
 11
32.96073402779666
 21
15.7064408021838
 31
0.0
  0
SPLINE
  5
177
330
2
100
AcDbEntity
  8
0
  6
Continuous
 62
     7
370
    15
100
AcDbSpline
210
0.0
220
0.0
230
1.0
 70
     8
 71
     3
 72
    10
 73
     6
 74
     0
 42
0.000000001
 43
0.0000000001
 40
0.0
 40
0.0
 40
0.0
 40
0.0
 40
0.4286956173771366
 40
0.9287543942394059
 40
1.0
 40
1.0
 40
1.0
 40
1.0
 10
45.71991767469739
 20
16.61616718360099
 30
0.0
 10
45.71971887682582
 20
16.61750974831307
 30
0.0
 10
45.71928818803576
 20
16.62041836884788
 30
0.0
 10
45.7161742873476
 20
16.6231326568126
 30
0.0
 10
45.71397653471069
 20
16.62446546704788
 30
0.0
 10
45.71370245976436
 20
16.62463167769752
 30
0.0
  0
SPLINE
  5
178
330
2
100
AcDbEntity
  8
0
  6
Continuous
 62
     7
370
    15
100
AcDbSpline
210
0.0
220
0.0
230
1.0
 70
     8
 71
     3
 72
    10
 73
     6
 74
     0
 42
0.000000001
 43
0.0000000001
 40
0.0
 40
0.0
 40
0.0
 40
0.0
 40
0.4606780971495177
 40
0.9188600221323104
 40
1.0
 40
1.0
 40
1.0
 40
1.0
 10
45.37920158886777
 20
20.34876445081636
 30
0.0
 10
45.38121722888241
 20
20.34638101610676
 30
0.0
 10
45.38523758721942
 20
20.34162706126588
 30
0.0
 10
45.38753970000016
 20
20.33471508526998
 30
0.0
 10
45.38735713166488
 20
20.33062318392308
 30
0.0
 10
45.38732966459815
 20
20.33000756497091
 30
0.0
  0
SPLINE
  5
179
330
2
100
AcDbEntity
  8
0
  6
Continuous
 62
     7
370
    15
100
AcDbSpline
210
0.0
220
0.0
230
1.0
 70
     8
 71
     3
 72
    10
 73
     6
 74
     0
 42
0.000000001
 43
0.0000000001
 40
0.0
 40
0.0
 40
0.0
 40
0.0
 40
0.0931744732952883
 40
0.5453994837890536
 40
1.0
 40
1.0
 40
1.0
 40
1.0
 10
33.96372487257327
 20
20.33001396623311
 30
0.0
 10
33.96369579350858
 20
20.33072005212421
 30
0.0
 10
33.96352557835985
 20
20.3348531463815
 30
0.0
 10
33.96585020097189
 20
20.34173870485785
 30
0.0
 10
33.96982697189299
 20
20.34641857364653
 30
0.0
 10
33.97182056609654
 20
20.34876463769581
 30
0.0
  0
LINE
  5
17A
330
2
100
AcDbEntity
  8
0
  6
Continuous
 62
     7
370
    15
100
AcDbLine
 10
32.90434347157509
 20
15.13870668398982
 30
0.0
 11
32.90243639004791
 21
15.51555289033578
 31
0.0
  0
LINE
  5
17B
330
2
100
AcDbEntity
  8
0
  6
Continuous
 62
     7
370
    15
100
AcDbLine
 10
32.73747676108053
 20
15.30542629871954
 30
0.0
 11
32.74781342025256
 21
15.652789282757
 31
0.0
  0
LINE
  5
17C
330
2
100
AcDbEntity
  8
0
  6
Continuous
 62
     7
370
    15
100
AcDbLine
 10
32.90243639004791
 20
15.51555289033578
 30
0.0
 11
32.88966584400487
 21
15.61184001753995
 31
0.0
  0
LINE
  5
17D
330
2
100
AcDbEntity
  8
0
  6
Continuous
 62
     7
370
    15
100
AcDbLine
 10
46.44667896141948
 20
15.13870675026567
 30
0.0
 11
46.44858599637439
 21
15.51555291272626
 31
0.0
  0
LINE
  5
17E
330
2
100
AcDbEntity
  8
0
  6
Continuous
 62
     7
370
    15
100
AcDbLine
 10
46.44858599637439
 20
15.51555291272626
 30
0.0
 11
46.46135677071504
 21
15.61184002860725
 31
0.0
  0
LINE
  5
17F
330
2
100
AcDbEntity
  8
0
  6
Continuous
 62
     7
370
    15
100
AcDbLine
 10
46.60320919845503
 20
15.65278929727884
 30
0.0
 11
46.61372495444948
 21
15.29939885555058
 31
0.0
  0
SPLINE
  5
180
330
2
100
AcDbEntity
  8
0
  6
Continuous
 62
     7
370
    15
100
AcDbSpline
210
0.0
220
0.0
230
1.0
 70
     8
 71
     3
 72
     8
 73
     4
 74
     0
 42
0.000000001
 43
0.0000000001
 40
0.0
 40
0.0
 40
0.0
 40
0.0
 40
1.0
 40
1.0
 40
1.0
 40
1.0
 10
32.65482424767924
 20
19.20821182935552
 30
0.0
 10
32.65353536651969
 20
19.20712594247556
 30
0.0
 10
32.65219092755035
 20
19.20561950460779
 30
0.0
 10
32.65083643443722
 20
19.20373271746678
 30
0.0
  0
SPLINE
  5
181
330
2
100
AcDbEntity
  8
0
  6
Continuous
 62
     7
370
    15
100
AcDbSpline
210
0.0
220
0.0
230
1.0
 70
     8
 71
     3
 72
     8
 73
     4
 74
     0
 42
0.000000001
 43
0.0000000001
 40
0.0
 40
0.0
 40
0.0
 40
0.0
 40
1.0
 40
1.0
 40
1.0
 40
1.0
 10
32.65468779120658
 20
15.77364721131772
 30
0.0
 10
32.65225620091781
 20
16.9193295496346
 30
0.0
 10
32.6522366002273
 20
18.06420829780927
 30
0.0
 10
32.65482424767924
 20
19.20821182935552
 30
0.0
  0
LWPOLYLINE
  5
182
330
2
100
AcDbEntity
  8
0
  6
Continuous
 62
     7
370
    15
100
AcDbPolyline
 90
        3
 70
   128
 43
0.0
 10
32.65029231414269
 20
15.62798143688684
 10
32.65193877773447
 20
15.68254832189677
 10
32.65468766655613
 20
15.77364718136348
  0
ARC
  5
183
330
2
100
AcDbEntity
  8
0
  6
Continuous
 62
     7
370
    15
100
AcDbCircle
 10
35.2377955235877
 20
13.47434753768277
 30
0.0
 40
3.366498452505881
100
AcDbArc
 50
138.7393267518023
 51
140.2286685182935
  0
SPLINE
  5
184
330
2
100
AcDbEntity
  8
0
  6
Continuous
 62
     7
370
    15
100
AcDbSpline
210
0.0
220
0.0
230
1.0
 70
     8
 71
     3
 72
    12
 73
     8
 74
     0
 42
0.000000001
 43
0.0000000001
 40
0.0
 40
0.0
 40
0.0
 40
0.0
 40
0.2499999999999984
 40
0.2499999999999984
 40
0.4999999999999968
 40
0.4999999999999968
 40
1.0
 40
1.0
 40
1.0
 40
1.0
 10
32.74781335448484
 20
15.65278936711687
 30
0.0
 10
32.7481704270474
 20
15.66478377423135
 30
0.0
 10
32.7473698681099
 20
15.67526093896066
 30
0.0
 10
32.74360798884345
 20
15.69228449247873
 30
0.0
 10
32.74064828730343
 20
15.69868446820118
 30
0.0
 10
32.72932774559149
 20
15.71019138089224
 30
0.0
 10
32.7184338032755
 20
15.70737951615433
 30
0.0
 10
32.70714163291746
 20
15.69450578044842
 30
0.0
  0
ARC
  5
185
330
2
100
AcDbEntity
  8
0
  6
Continuous
 62
     7
370
    15
100
AcDbCircle
 10
34.39142733200242
 20
17.88838036774743
 30
0.0
 40
2.181698356368996
100
AcDbArc
 50
142.9219213280031
 51
176.6744269368975
  0
SPLINE
  5
186
330
2
100
AcDbEntity
  8
0
  6
Continuous
 62
     7
370
    15
100
AcDbSpline
210
0.0
220
0.0
230
1.0
 70
     8
 71
     3
 72
    12
 73
     8
 74
     0
 42
0.000000001
 43
0.0000000001
 40
0.0
 40
0.0
 40
0.0
 40
0.0
 40
0.25
 40
0.25
 40
0.5
 40
0.5
 40
1.0
 40
1.0
 40
1.0
 40
1.0
 10
46.64388086318604
 20
15.69450578044842
 30
0.0
 10
46.63823421799429
 20
15.70094328674875
 30
0.0
 10
46.63274340974931
 20
15.70490847437963
 30
0.0
 10
46.62255751871827
 20
15.70765818846846
 30
0.0
 10
46.61794620549983
 20
15.70636912274113
 30
0.0
 10
46.60661155808816
 20
15.69488377742016
 30
0.0
 10
46.60249493694561
 20
15.67678018161874
 30
0.0
 10
46.60320914161888
 20
15.65278936711684
 30
0.0
  0
ARC
  5
187
330
2
100
AcDbEntity
  8
0
  6
Continuous
 62
     7
370
    15
100
AcDbCircle
 10
44.11414449746951
 20
13.47510314024387
 30
0.0
 40
3.36531017454797
100
AcDbArc
 50
39.77143416109701
 51
41.2613083364022
  0
LWPOLYLINE
  5
188
330
2
100
AcDbEntity
  8
0
  6
Continuous
 62
     7
370
    15
100
AcDbPolyline
 90
        3
 70
   128
 43
0.0
 10
46.69633466870936
 20
15.77364722217814
 10
46.69798162256756
 20
15.71908024295757
 10
46.70073053392889
 20
15.62798150348254
  0
SPLINE
  5
189
330
2
100
AcDbEntity
  8
0
  6
Continuous
 62
     7
370
    15
100
AcDbSpline
210
0.0
220
0.0
230
1.0
 70
     8
 71
     3
 72
     8
 73
     4
 74
     0
 42
0.000000001
 43
0.0000000001
 40
0.0
 40
0.0
 40
0.0
 40
0.0
 40
1.0
 40
1.0
 40
1.0
 40
1.0
 10
46.69619824842425
 20
19.20821182935552
 30
0.0
 10
46.69878589579377
 20
18.06420833431932
 30
0.0
 10
46.69876629511486
 20
16.91932951622382
 30
0.0
 10
46.69633470489702
 20
15.77364721131769
 30
0.0
  0
SPLINE
  5
18A
330
2
100
AcDbEntity
  8
0
  6
Continuous
 62
     7
370
    15
100
AcDbSpline
210
0.0
220
0.0
230
1.0
 70
     8
 71
     3
 72
     8
 73
     4
 74
     0
 42
0.000000001
 43
0.0000000001
 40
0.0
 40
0.0
 40
0.0
 40
0.0
 40
1.0
 40
1.0
 40
1.0
 40
1.0
 10
46.70018606166638
 20
19.20373271746678
 30
0.0
 10
46.69882123149875
 20
19.20563390395861
 30
0.0
 10
46.69749236027359
 20
19.20712153560123
 30
0.0
 10
46.69619824842425
 20
19.20821182935552
 30
0.0
  0
ARC
  5
18B
330
2
100
AcDbEntity
  8
0
  6
Continuous
 62
     7
370
    15
100
AcDbCircle
 10
44.98208074575802
 20
17.89665446142658
 30
0.0
 40
2.158781931002898
100
AcDbArc
 50
3.140958273299875
 51
37.26268144350054
  0
ELLIPSE
  5
18C
330
2
100
AcDbEntity
  8
0
  6
Continuous
 62
     7
370
    15
100
AcDbEllipse
 10
32.83646343350915
 20
15.564836986942
 30
0.0
 11
0.0160829248730995
 21
0.1061006947297052
 31
0.0
210
0.0
220
0.0
230
1.0
 40
0.4926395442000001
 41
5.244502075586932
 42
6.218569152574255
  0
ELLIPSE
  5
18D
330
2
100
AcDbEntity
  8
0
  6
Continuous
 62
     7
370
    15
100
AcDbEllipse
 10
46.51455906260525
 20
15.564836986942
 30
0.0
 11
-0.0160829248730874
 21
0.1061006947297052
 31
0.0
210
0.0
220
0.0
230
1.0
 40
0.4926395442000001
 41
0.0646161546055782
 42
1.038683231592829
  0
LINE
  5
18E
330
2
100
AcDbEntity
  8
0
  6
Continuous
 62
     7
370
    15
100
AcDbLine
 10
33.24550398574241
 20
18.88560668079802
 30
0.0
 11
33.2402227476133
 21
19.02176228129263
 31
0.0
  0
LINE
  5
18F
330
2
100
AcDbEntity
  8
0
  6
Continuous
 62
     7
370
    15
100
AcDbLine
 10
32.87597491072598
 20
18.55505367444118
 30
0.0
 11
33.24550398574241
 21
18.88560668079802
 31
0.0
  0
SPLINE
  5
190
330
2
100
AcDbEntity
  8
0
  6
Continuous
 62
     7
370
    15
100
AcDbSpline
210
0.0
220
0.0
230
1.0
 70
     8
 71
     3
 72
    10
 73
     6
 74
     0
 42
0.000000001
 43
0.0000000001
 40
0.0
 40
0.0
 40
0.0
 40
0.0
 40
0.2500000000000069
 40
0.2500000000000069
 40
0.2633806998945987
 40
0.2633806998945987
 40
0.2633806998945987
 40
0.2633806998945987
 10
46.69619824842425
 20
19.20821182935552
 30
0.0
 10
46.69412486415455
 20
19.20995866284673
 30
0.0
 10
46.69061385552845
 20
19.21019064231819
 30
0.0
 10
46.68643982571984
 20
19.20908274138327
 30
0.0
 10
46.68622666281385
 20
19.20902302053639
 30
0.0
 10
46.68601245689365
 20
19.20895992769706
 30
0.0
  0
SPLINE
  5
191
330
2
100
AcDbEntity
  8
0
  6
Continuous
 62
     7
370
    15
100
AcDbSpline
210
0.0
220
0.0
230
1.0
 70
     8
 71
     3
 72
    10
 73
     6
 74
     0
 42
0.000000001
 43
0.0000000001
 40
-0.0000000000005456
 40
0.0
 40
0.0
 40
0.0
 40
0.2500000000000052
 40
0.2500000000000052
 40
0.2641141513026623
 40
0.2641141513026623
 40
0.2641141513026623
 40
0.2641141513026623
 10
32.65482424767924
 20
19.20821182935552
 30
0.0
 10
32.65689763194905
 20
19.20995866284673
 30
0.0
 10
32.66040864057516
 20
19.21019064231819
 30
0.0
 10
32.66459429404495
 20
19.20907965614771
 30
0.0
 10
32.66481920529372
 20
19.20901646312191
 30
0.0
 10
32.66504527313362
 20
19.20894952217608
 30
0.0
  0
LINE
  5
192
330
2
100
AcDbEntity
  8
0
  6
Continuous
 62
     7
370
    15
100
AcDbLine
 10
46.47504787637944
 20
18.55505390789932
 30
0.0
 11
46.10551818300177
 21
18.88560655434509
 31
0.0
  0
LINE
  5
193
330
2
100
AcDbEntity
  8
0
  6
Continuous
 62
     7
370
    15
100
AcDbLine
 10
46.10551818300177
 20
18.88560655434509
 30
0.0
 11
46.11079983569607
 21
19.02176223295049
 31
0.0
  0
LINE
  5
194
330
2
100
AcDbEntity
  8
0
  6
Continuous
 62
     7
370
    15
100
AcDbLine
 10
33.24550398574241
 20
18.88560668079802
 30
0.0
 11
33.88203610255755
 21
19.43685961155734
 31
0.0
  0
LINE
  5
195
330
2
100
AcDbEntity
  8
0
  6
Continuous
 62
     7
370
    15
100
AcDbLine
 10
45.46792069258287
 20
19.43778217845366
 30
0.0
 11
46.10551818300177
 21
18.88560655434509
 31
0.0
  0
ELLIPSE
  5
196
330
2
100
AcDbEntity
  8
0
  6
Continuous
 62
     7
370
    15
100
AcDbEllipse
 10
46.13740333061628
 20
18.9951029341596
 30
0.0
 11
-0.0151963272886557
 21
0.051100384831355
 31
0.0
210
0.0
220
0.0
230
1.0
 40
0.428626773
 41
6.279748432448139
 42
7.183246669445608
  0
LINE
  5
197
330
2
100
AcDbEntity
  8
0
  6
Continuous
 62
     7
370
    15
100
AcDbLine
 10
45.45005531581182
 20
19.63606688173229
 30
0.0
 11
46.12893004320426
 21
19.04814412181639
 31
0.0
  0
ELLIPSE
  5
198
330
2
100
AcDbEntity
  8
0
  6
Continuous
 62
     7
370
    15
100
AcDbEllipse
 10
33.21361916549802
 20
18.9951029341596
 30
0.0
 11
0.0151963272886557
 21
0.051100384831355
 31
0.0
210
0.0
220
0.0
230
1.0
 40
0.428626773
 41
5.383123944913828
 42
6.286622181912587
  0
LINE
  5
199
330
2
100
AcDbEntity
  8
0
  6
Continuous
 62
     7
370
    15
100
AcDbLine
 10
33.22209274100101
 20
19.04814415945375
 30
0.0
 11
33.90013038645111
 21
19.63534205418966
 31
0.0
  0
POLYLINE
  5
19A
330
2
100
AcDbEntity
  8
0
100
AcDb2dPolyline
 66
     1
 10
0.0
 20
0.0
 30
0.0
 70
     2
  0
VERTEX
  5
19B
330
19A
100
AcDbEntity
  8
0
100
AcDbVertex
100
AcDb2dVertex
 10
22.28270756594907
 20
14.65973115474773
 30
0.0
 42
0.0067045199463909
  0
VERTEX
  5
19C
330
19A
100
AcDbEntity
  8
0
100
AcDbVertex
100
AcDb2dVertex
 10
22.53702261372257
 20
14.85936793872909
 30
0.0
 42
0.0501186739966826
 70
     1
  0
VERTEX
  5
19D
330
19A
100
AcDbEntity
  8
0
100
AcDbVertex
100
AcDb2dVertex
 10
22.56787357280552
 20
14.88983201806155
 30
0.0
 42
0.0172839214496608
  0
VERTEX
  5
19E
330
19A
100
AcDbEntity
  8
0
100
AcDbVertex
100
AcDb2dVertex
 10
23.12721691533647
 20
15.61503432110487
 30
0.0
 42
0.0066833728106379
 70
     1
  0
VERTEX
  5
19F
330
19A
100
AcDbEntity
  8
0
100
AcDbVertex
100
AcDb2dVertex
 10
24.48187582239223
 20
17.5571448652916
 30
0.0
 42
0.0058690167807455
  0
VERTEX
  5
1A0
330
19A
100
AcDbEntity
  8
0
100
AcDbVertex
100
AcDb2dVertex
 10
24.91958800464693
 20
18.21950712265442
 30
0.0
 42
-0.0055899550345994
 70
     1
  0
VERTEX
  5
1A1
330
19A
100
AcDbEntity
  8
0
100
AcDbVertex
100
AcDb2dVertex
 10
25.37876199251332
 20
18.91518998091356
 30
0.0
 42
-0.0583248844971142
  0
VERTEX
  5
1A2
330
19A
100
AcDbEntity
  8
0
100
AcDbVertex
100
AcDb2dVertex
 10
25.88810544671048
 20
19.50646491731098
 30
0.0
 42
-0.0473375732486717
 70
     1
  0
VERTEX
  5
1A3
330
19A
100
AcDbEntity
  8
0
100
AcDbVertex
100
AcDb2dVertex
 10
26.65351478744355
 20
20.08661948084759
 30
0.0
 42
-0.174617249837134
  0
VERTEX
  5
1A4
330
19A
100
AcDbEntity
  8
0
100
AcDbVertex
100
AcDb2dVertex
 10
27.6316246679927
 20
20.29328400909662
 30
0.0
 42
-0.1834518074477105
 70
     1
  0
VERTEX
  5
1A5
330
19A
100
AcDbEntity
  8
0
100
AcDbVertex
100
AcDb2dVertex
 10
28.46908320943441
 20
19.83535389467187
 30
0.0
 42
-0.0396751802337727
  0
VERTEX
  5
1A6
330
19A
100
AcDbEntity
  8
0
100
AcDbVertex
100
AcDb2dVertex
 10
28.79222717842322
 20
19.39050020010128
 30
0.0
 42
-0.059738168795049
 70
     1
  0
VERTEX
  5
1A7
330
19A
100
AcDbEntity
  8
0
100
AcDbVertex
100
AcDb2dVertex
 10
28.94462216576562
 20
19.05784659068152
 30
0.0
 42
-0.0348577842408616
  0
VERTEX
  5
1A8
330
19A
100
AcDbEntity
  8
0
100
AcDbVertex
100
AcDb2dVertex
 10
29.06451797752868
 20
18.56910214940384
 30
0.0
 42
-0.0505908605494362
 70
     1
  0
VERTEX
  5
1A9
330
19A
100
AcDbEntity
  8
0
100
AcDbVertex
100
AcDb2dVertex
 10
29.08872623222374
 20
18.22274539801157
 30
0.0
 42
-0.0772983630562495
  0
VERTEX
  5
1AA
330
19A
100
AcDbEntity
  8
0
100
AcDbVertex
100
AcDb2dVertex
 10
29.05611480552057
 20
18.04906422234109
 30
0.0
 42
-0.0454054468664174
 70
     1
  0
VERTEX
  5
1AB
330
19A
100
AcDbEntity
  8
0
100
AcDbVertex
100
AcDb2dVertex
 10
28.93101504271317
 20
17.77675303500345
 30
0.0
  0
SEQEND
  5
1AC
330
19A
100
AcDbEntity
  8
0
  0
POLYLINE
  5
1AD
330
2
100
AcDbEntity
  8
0
100
AcDb2dPolyline
 66
     1
 10
0.0
 20
0.0
 30
0.0
  0
VERTEX
  5
1AE
330
1AD
100
AcDbEntity
  8
0
100
AcDbVertex
100
AcDb2dVertex
 10
22.28270756594907
 20
14.43422219941232
 30
0.0
 42
0.0095008428507942
  0
VERTEX
  5
1AF
330
1AD
100
AcDbEntity
  8
0
100
AcDbVertex
100
AcDb2dVertex
 10
22.65005623275726
 20
14.71928438877433
 30
0.0
 42
0.0501186739966924
  0
VERTEX
  5
1B0
330
1AD
100
AcDbEntity
  8
0
100
AcDbVertex
100
AcDb2dVertex
 10
22.70651960849239
 20
14.77503969781182
 30
0.0
 42
0.0172839214496618
  0
VERTEX
  5
1B1
330
1AD
100
AcDbEntity
  8
0
100
AcDbVertex
100
AcDb2dVertex
 10
23.27346093953713
 20
15.51009297851004
 30
0.0
 42
0.0066833728106379
  0
VERTEX
  5
1B2
330
1AD
100
AcDbEntity
  8
0
100
AcDbVertex
100
AcDb2dVertex
 10
24.6308726650085
 20
17.45615010854453
 30
0.0
 42
0.0058690167807453
  0
VERTEX
  5
1B3
330
1AD
100
AcDbEntity
  8
0
100
AcDbVertex
100
AcDb2dVertex
 10
25.07091450679173
 20
18.12203769283866
 30
0.0
 42
-0.0055899550345992
  0
VERTEX
  5
1B4
330
1AD
100
AcDbEntity
  8
0
100
AcDbVertex
100
AcDb2dVertex
 10
25.52787147367474
 20
18.81436159885891
 30
0.0
 42
-0.0583248844971176
  0
VERTEX
  5
1B5
330
1AD
100
AcDbEntity
  8
0
100
AcDbVertex
100
AcDb2dVertex
 10
26.00989997399381
 20
19.3739277786523
 30
0.0
 42
-0.0473375732486709
  0
VERTEX
  5
1B6
330
1AD
100
AcDbEntity
  8
0
100
AcDbVertex
100
AcDb2dVertex
 10
26.74820781938945
 20
19.93354031929746
 30
0.0
 42
-0.1746172498371493
  0
VERTEX
  5
1B7
330
1AD
100
AcDbEntity
  8
0
100
AcDbVertex
100
AcDb2dVertex
 10
27.60694875873446
 20
20.11498342159828
 30
0.0
 42
-0.1834518074477271
  0
VERTEX
  5
1B8
330
1AD
100
AcDbEntity
  8
0
100
AcDbVertex
100
AcDb2dVertex
 10
28.33228953797334
 20
19.71836034165207
 30
0.0
 42
-0.0396751802337699
  0
VERTEX
  5
1B9
330
1AD
100
AcDbEntity
  8
0
100
AcDbVertex
100
AcDb2dVertex
 10
28.63867122275497
 20
19.29658231853008
 30
0.0
 42
-0.0597381687950483
  0
VERTEX
  5
1BA
330
1AD
100
AcDbEntity
  8
0
100
AcDbVertex
100
AcDb2dVertex
 10
28.77321589696681
 20
19.00289305561364
 30
0.0
 42
-0.0348577842408601
  0
VERTEX
  5
1BB
330
1AD
100
AcDbEntity
  8
0
100
AcDbVertex
100
AcDb2dVertex
 10
28.88713946534642
 20
18.5384939247574
 30
0.0
 42
-0.0505908605494308
  0
VERTEX
  5
1BC
330
1AD
100
AcDbEntity
  8
0
100
AcDbVertex
100
AcDb2dVertex
 10
28.90881448178152
 20
18.2283811812579
 30
0.0
 42
-0.0772983630562457
  0
VERTEX
  5
1BD
330
1AD
100
AcDbEntity
  8
0
100
AcDbVertex
100
AcDb2dVertex
 10
28.88641265542594
 20
18.10907405697904
 30
0.0
 42
-0.0454054468664149
  0
VERTEX
  5
1BE
330
1AD
100
AcDbEntity
  8
0
100
AcDbVertex
100
AcDb2dVertex
 10
28.77493223897466
 20
17.86640881215763
 30
0.0
 42
-0.0454054468664149
  0
SEQEND
  5
1BF
330
1AD
100
AcDbEntity
  8
0
  0
POLYLINE
  5
1C0
330
2
100
AcDbEntity
  8
0
100
AcDb2dPolyline
 66
     1
 10
0.0
 20
0.0
 30
0.0
 70
     2
  0
VERTEX
  5
1C1
330
1C0
100
AcDbEntity
  8
0
100
AcDbVertex
100
AcDb2dVertex
 10
22.4360200052023
 20
12.54864805671928
 30
0.0
 42
-0.0522236093001447
  0
VERTEX
  5
1C2
330
1C0
100
AcDbEntity
  8
0
100
AcDbVertex
100
AcDb2dVertex
 10
22.41509818245436
 20
12.5393021917734
 30
0.0
 42
-0.0716608154131766
 70
     1
  0
VERTEX
  5
1C3
330
1C0
100
AcDbEntity
  8
0
100
AcDbVertex
100
AcDb2dVertex
 10
22.39860793804064
 20
12.5364260076177
 30
0.0
 42
-0.0981337861266901
  0
VERTEX
  5
1C4
330
1C0
100
AcDbEntity
  8
0
100
AcDbVertex
100
AcDb2dVertex
 10
22.35950845870616
 20
12.54297832935546
 30
0.0
 42
-0.081569919082386
 70
     1
  0
VERTEX
  5
1C5
330
1C0
100
AcDbEntity
  8
0
100
AcDbVertex
100
AcDb2dVertex
 10
22.31834553530905
 20
12.56679096652101
 30
0.0
 42
-0.085903982657382
  0
VERTEX
  5
1C6
330
1C0
100
AcDbEntity
  8
0
100
AcDbVertex
100
AcDb2dVertex
 10
22.26993703788014
 20
12.62286404781878
 30
0.0
 42
-0.0972633807585109
 70
     1
  0
VERTEX
  5
1C7
330
1C0
100
AcDbEntity
  8
0
100
AcDbVertex
100
AcDb2dVertex
 10
22.24764913245213
 20
12.6845210439198
 30
0.0
 42
-0.0090938820223754
  0
VERTEX
  5
1C8
330
1C0
100
AcDbEntity
  8
0
100
AcDbVertex
100
AcDb2dVertex
 10
22.24013404424079
 20
12.7399482577448
 30
0.0
 42
-0.0067669099887715
 70
     1
  0
VERTEX
  5
1C9
330
1C0
100
AcDbEntity
  8
0
100
AcDbVertex
100
AcDb2dVertex
 10
22.23240247480715
 20
12.81471558670122
 30
0.0
 42
-0.0088501182275486
  0
VERTEX
  5
1CA
330
1C0
100
AcDbEntity
  8
0
100
AcDbVertex
100
AcDb2dVertex
 10
22.22494328464404
 20
12.91841274728614
 30
0.0
 42
-0.0012355515575566
 70
     1
  0
VERTEX
  5
1CB
330
1C0
100
AcDbEntity
  8
0
100
AcDbVertex
100
AcDb2dVertex
 10
22.186509086912
 20
13.66205339710896
 30
0.0
 42
-0.0195778265971305
  0
VERTEX
  5
1CC
330
1C0
100
AcDbEntity
  8
0
100
AcDbVertex
100
AcDb2dVertex
 10
22.17742035810272
 20
14.5694321397651
 30
0.0
 42
-0.0790087975948558
 70
     1
  0
VERTEX
  5
1CD
330
1C0
100
AcDbEntity
  8
0
100
AcDbVertex
100
AcDb2dVertex
 10
22.21942914793055
 20
14.79166685818424
 30
0.0
 42
-0.2230685931993146
  0
VERTEX
  5
1CE
330
1C0
100
AcDbEntity
  8
0
100
AcDbVertex
100
AcDb2dVertex
 10
22.38504457188935
 20
14.95792376559825
 30
0.0
 42
0.1514243915724875
 70
     1
  0
VERTEX
  5
1CF
330
1C0
100
AcDbEntity
  8
0
100
AcDbVertex
100
AcDb2dVertex
 10
22.65343170122628
 20
15.16150675724356
 30
0.0
 42
0.0084154427520946
  0
VERTEX
  5
1D0
330
1C0
100
AcDbEntity
  8
0
100
AcDbVertex
100
AcDb2dVertex
 10
23.18094704712382
 20
15.92525089384483
 30
0.0
 42
-0.0035690854634239
 70
     1
  0
VERTEX
  5
1D1
330
1C0
100
AcDbEntity
  8
0
100
AcDbVertex
100
AcDb2dVertex
 10
24.40717668376488
 20
17.73792638206802
 30
0.0
 42
-0.0022600936830834
  0
VERTEX
  5
1D2
330
1C0
100
AcDbEntity
  8
0
100
AcDbVertex
100
AcDb2dVertex
 10
25.10673594166064
 20
18.74651199345993
 30
0.0
 42
-0.0024018306525935
 70
     1
  0
VERTEX
  5
1D3
330
1C0
100
AcDbEntity
  8
0
100
AcDbVertex
100
AcDb2dVertex
 10
25.77383340772736
 20
19.6894006892395
 30
0.0
 42
-0.2068838122284174
  0
VERTEX
  5
1D4
330
1C0
100
AcDbEntity
  8
0
100
AcDbVertex
100
AcDb2dVertex
 10
27.09870633525691
 20
20.48760233546028
 30
0.0
 42
-0.2177678617245061
 70
     1
  0
VERTEX
  5
1D5
330
1C0
100
AcDbEntity
  8
0
100
AcDbVertex
100
AcDb2dVertex
 10
28.51106312117247
 20
20.05902833022938
 30
0.0
 42
-0.0490479462761191
  0
VERTEX
  5
1D6
330
1C0
100
AcDbEntity
  8
0
100
AcDbVertex
100
AcDb2dVertex
 10
28.97698868531643
 20
19.55821256340937
 30
0.0
 42
-0.077969508977539
 70
     1
  0
VERTEX
  5
1D7
330
1C0
100
AcDbEntity
  8
0
100
AcDbVertex
100
AcDb2dVertex
 10
29.18240419606411
 20
19.17831203901909
 30
0.0
 42
-0.0451372916589528
  0
VERTEX
  5
1D8
330
1C0
100
AcDbEntity
  8
0
100
AcDbVertex
100
AcDb2dVertex
 10
29.33113674744163
 20
18.59544951053087
 30
0.0
 42
-0.0672992237023312
 70
     1
  0
VERTEX
  5
1D9
330
1C0
100
AcDbEntity
  8
0
100
AcDbVertex
100
AcDb2dVertex
 10
29.34134209445733
 20
18.19112494167032
 30
0.0
 42
-0.082833913616645
  0
VERTEX
  5
1DA
330
1C0
100
AcDbEntity
  8
0
100
AcDbVertex
100
AcDb2dVertex
 10
29.27871543087884
 20
17.96869448472745
 30
0.0
 42
-0.0543039207141835
 70
     1
  0
VERTEX
  5
1DB
330
1C0
100
AcDbEntity
  8
0
100
AcDbVertex
100
AcDb2dVertex
 10
29.09571970447291
 20
17.66904054048308
 30
0.0
  0
SEQEND
  5
1DC
330
1C0
100
AcDbEntity
  8
0
  0
POLYLINE
  5
1DD
330
2
100
AcDbEntity
  8
0
100
AcDb2dPolyline
 66
     1
 10
0.0
 20
0.0
 30
0.0
  0
VERTEX
  5
1DE
330
1DD
100
AcDbEntity
  8
0
100
AcDbVertex
100
AcDb2dVertex
 10
22.49846207943142
 20
12.49457163417142
 30
0.0
 42
-0.0880119848073951
  0
VERTEX
  5
1DF
330
1DD
100
AcDbEntity
  8
0
100
AcDbVertex
100
AcDb2dVertex
 10
22.4399410954959
 20
12.46325727299765
 30
0.0
 42
-0.0716608154131926
  0
VERTEX
  5
1E0
330
1DD
100
AcDbEntity
  8
0
100
AcDbVertex
100
AcDb2dVertex
 10
22.4009758471949
 20
12.45646105900746
 30
0.0
 42
-0.098133786126553
  0
VERTEX
  5
1E1
330
1DD
100
AcDbEntity
  8
0
100
AcDbVertex
100
AcDb2dVertex
 10
22.33120084130428
 20
12.46815400979938
 30
0.0
 42
-0.0815699190824735
  0
VERTEX
  5
1E2
330
1DD
100
AcDbEntity
  8
0
100
AcDbVertex
100
AcDb2dVertex
 10
22.26759316805862
 20
12.50495087258122
 30
0.0
 42
-0.0859039826574027
  0
VERTEX
  5
1E3
330
1DD
100
AcDbEntity
  8
0
100
AcDbVertex
100
AcDb2dVertex
 10
22.20135260657526
 20
12.58167939312088
 30
0.0
 42
-0.0972633807585175
  0
VERTEX
  5
1E4
330
1DD
100
AcDbEntity
  8
0
100
AcDbVertex
100
AcDb2dVertex
 10
22.16858306126517
 20
12.67233267294304
 30
0.0
 42
-0.0090938820223737
  0
VERTEX
  5
1E5
330
1DD
100
AcDbEntity
  8
0
100
AcDbVertex
100
AcDb2dVertex
 10
22.16067702523685
 20
12.7306433057831
 30
0.0
 42
-0.0067669099887718
  0
VERTEX
  5
1E6
330
1DD
100
AcDbEntity
  8
0
100
AcDbVertex
100
AcDb2dVertex
 10
22.15272273202061
 20
12.80756446165159
 30
0.0
 42
-0.0088501182275505
  0
VERTEX
  5
1E7
330
1DD
100
AcDbEntity
  8
0
100
AcDbVertex
100
AcDb2dVertex
 10
22.14506036737259
 20
12.9140861402783
 30
0.0
 42
-0.0012355515575567
  0
VERTEX
  5
1E8
330
1DD
100
AcDbEntity
  8
0
100
AcDbVertex
100
AcDb2dVertex
 10
22.10660576233749
 20
13.65812163898388
 30
0.0
 42
-0.0195778265971307
  0
VERTEX
  5
1E9
330
1DD
100
AcDbEntity
  8
0
100
AcDbVertex
100
AcDb2dVertex
 10
22.0974543085116
 20
14.57176257165412
 30
0.0
 42
-0.0790087975948656
  0
VERTEX
  5
1EA
330
1DD
100
AcDbEntity
  8
0
100
AcDbVertex
100
AcDb2dVertex
 10
22.14412998659236
 20
14.81868604214239
 30
0.0
 42
-0.2230685931993589
  0
VERTEX
  5
1EB
330
1DD
100
AcDbEntity
  8
0
100
AcDbVertex
100
AcDb2dVertex
 10
22.35773449604801
 20
15.03311791269451
 30
0.0
 42
0.1514243915725038
  0
VERTEX
  5
1EC
330
1DD
100
AcDbEntity
  8
0
100
AcDbVertex
100
AcDb2dVertex
 10
22.5883812141825
 20
15.20807320584515
 30
0.0
 42
0.0084154427520943
  0
VERTEX
  5
1ED
330
1DD
100
AcDbEntity
  8
0
100
AcDbVertex
100
AcDb2dVertex
 10
23.11436623355882
 20
15.969601714187
 30
0.0
 42
-0.0035690854634239
  0
VERTEX
  5
1EE
330
1DD
100
AcDbEntity
  8
0
100
AcDbVertex
100
AcDb2dVertex
 10
24.3412357983525
 20
17.78322317699923
 30
0.0
 42
-0.0022600936830835
  0
VERTEX
  5
1EF
330
1DD
100
AcDbEntity
  8
0
100
AcDbVertex
100
AcDb2dVertex
 10
25.04120724456675
 20
18.79240305857257
 30
0.0
 42
-0.0024018306525934
  0
VERTEX
  5
1F0
330
1DD
100
AcDbEntity
  8
0
100
AcDbVertex
100
AcDb2dVertex
 10
25.70874861740629
 20
19.73591918092691
 30
0.0
 42
-0.2068838122284107
  0
VERTEX
  5
1F1
330
1DD
100
AcDbEntity
  8
0
100
AcDbVertex
100
AcDb2dVertex
 10
27.08800053427422
 20
20.56688276069454
 30
0.0
 42
-0.2177678617245121
  0
VERTEX
  5
1F2
330
1DD
100
AcDbEntity
  8
0
100
AcDbVertex
100
AcDb2dVertex
 10
28.56402142007653
 20
20.11899013955158
 30
0.0
 42
-0.0490479462761149
  0
VERTEX
  5
1F3
330
1DD
100
AcDbEntity
  8
0
100
AcDbVertex
100
AcDb2dVertex
 10
29.04061210733369
 20
19.6067106063679
 30
0.0
 42
-0.0779695089775292
  0
VERTEX
  5
1F4
330
1DD
100
AcDbEntity
  8
0
100
AcDbVertex
100
AcDb2dVertex
 10
29.25782303205722
 20
19.20499535173405
 30
0.0
 42
-0.0451372916589505
  0
VERTEX
  5
1F5
330
1DD
100
AcDbEntity
  8
0
100
AcDbVertex
100
AcDb2dVertex
 10
29.41011962889252
 20
18.60816581650829
 30
0.0
 42
-0.067299223702331
  0
VERTEX
  5
1F6
330
1DD
100
AcDbEntity
  8
0
100
AcDbVertex
100
AcDb2dVertex
 10
29.42086592553051
 20
18.18240942152243
 30
0.0
 42
-0.0828339136166399
  0
VERTEX
  5
1F7
330
1DD
100
AcDbEntity
  8
0
100
AcDbVertex
100
AcDb2dVertex
 10
29.35110436617686
 20
17.93463803091293
 30
0.0
 42
-0.0543039207141832
  0
VERTEX
  5
1F8
330
1DD
100
AcDbEntity
  8
0
100
AcDbVertex
100
AcDb2dVertex
 10
29.15907844488049
 20
17.62019721940464
 30
0.0
 42
-0.0543039207141832
  0
SEQEND
  5
1F9
330
1DD
100
AcDbEntity
  8
0
  0
POLYLINE
  5
1FA
330
2
100
AcDbEntity
  8
0
100
AcDb2dPolyline
 66
     1
 10
0.0
 20
0.0
 30
0.0
 70
     2
  0
VERTEX
  5
1FB
330
1FA
100
AcDbEntity
  8
0
100
AcDbVertex
100
AcDb2dVertex
 10
29.39537114333063
 20
17.46521334756645
 30
0.0
 42
-0.0126313408439932
  0
VERTEX
  5
1FC
330
1FA
100
AcDbEntity
  8
0
100
AcDbVertex
100
AcDb2dVertex
 10
30.27076500033763
 20
19.36514884564349
 30
0.0
 42
-0.0199910048208844
 70
     1
  0
VERTEX
  5
1FD
330
1FA
100
AcDbEntity
  8
0
100
AcDbVertex
100
AcDb2dVertex
 10
30.90111951859581
 20
20.52729183373867
 30
0.0
 42
-0.0063314807418255
  0
VERTEX
  5
1FE
330
1FA
100
AcDbEntity
  8
0
100
AcDbVertex
100
AcDb2dVertex
 10
32.18161851062359
 20
22.61755303096561
 30
0.0
 42
-0.0124454299934577
 70
     1
  0
VERTEX
  5
1FF
330
1FA
100
AcDbEntity
  8
0
100
AcDbVertex
100
AcDb2dVertex
 10
32.87260259560935
 20
23.65586338492903
 30
0.0
 42
-0.0618612185897802
  0
VERTEX
  5
200
330
1FA
100
AcDbEntity
  8
0
100
AcDbVertex
100
AcDb2dVertex
 10
34.0135025461874
 20
24.91634716147658
 30
0.0
 42
-0.0937738624238892
 70
     1
  0
VERTEX
  5
201
330
1FA
100
AcDbEntity
  8
0
100
AcDbVertex
100
AcDb2dVertex
 10
34.98904593231237
 20
25.48086626827171
 30
0.0
 42
-0.0949537826242413
  0
VERTEX
  5
202
330
1FA
100
AcDbEntity
  8
0
100
AcDbVertex
100
AcDb2dVertex
 10
35.24008489376468
 20
25.518357435833
 30
0.0
 42
-0.0412505636532652
 70
     1
  0
VERTEX
  5
203
330
1FA
100
AcDbEntity
  8
0
100
AcDbVertex
100
AcDb2dVertex
 10
35.81569813390161
 20
25.44687872186509
 30
0.0
  0
SEQEND
  5
204
330
1FA
100
AcDbEntity
  8
0
  0
POLYLINE
  5
205
330
2
100
AcDbEntity
  8
0
100
AcDb2dPolyline
 66
     1
 10
0.0
 20
0.0
 30
0.0
  0
VERTEX
  5
206
330
205
100
AcDbEntity
  8
0
100
AcDbVertex
100
AcDb2dVertex
 10
29.54003318354978
 20
17.34594108616937
 30
0.0
 42
-0.0129488501704755
  0
VERTEX
  5
207
330
205
100
AcDbEntity
  8
0
100
AcDbVertex
100
AcDb2dVertex
 10
30.43229200212
 20
19.28571945753555
 30
0.0
 42
-0.0199910048208844
  0
VERTEX
  5
208
330
205
100
AcDbEntity
  8
0
100
AcDbVertex
100
AcDb2dVertex
 10
31.05578662808057
 20
20.43521531532264
 30
0.0
 42
-0.0063314807418256
  0
VERTEX
  5
209
330
205
100
AcDbEntity
  8
0
100
AcDbVertex
100
AcDb2dVertex
 10
32.3339043797721
 20
22.52158942297956
 30
0.0
 42
-0.0124454299934575
  0
VERTEX
  5
20A
330
205
100
AcDbEntity
  8
0
100
AcDbVertex
100
AcDb2dVertex
 10
33.01992481006823
 20
23.55244111882101
 30
0.0
 42
-0.0618612185897826
  0
VERTEX
  5
20B
330
205
100
AcDbEntity
  8
0
100
AcDbVertex
100
AcDb2dVertex
 10
34.13104951515265
 20
24.78002874714054
 30
0.0
 42
-0.0937738624238907
  0
VERTEX
  5
20C
330
205
100
AcDbEntity
  8
0
100
AcDbVertex
100
AcDb2dVertex
 10
35.04866416633479
 20
25.31102614882977
 30
0.0
 42
-0.094953782624239
  0
VERTEX
  5
20D
330
205
100
AcDbEntity
  8
0
100
AcDbVertex
100
AcDb2dVertex
 10
35.23269049730027
 20
25.33850938079505
 30
0.0
 42
-0.0227818638966348
  0
VERTEX
  5
20E
330
205
100
AcDbEntity
  8
0
100
AcDbVertex
100
AcDb2dVertex
 10
35.53587440240051
 20
25.3121733451564
 30
0.0
 42
-0.0412505636532654
  0
SEQEND
  5
20F
330
205
100
AcDbEntity
  8
0
  0
ARC
  5
210
330
2
100
AcDbEntity
  8
0
100
AcDbCircle
 10
34.5269940419214
 20
15.66035113826743
 30
0.0
 40
5.181914856704577
100
AcDbArc
 50
85.3936117513002
 51
161.7292178272465
  0
ARC
  5
211
330
2
100
AcDbEntity
  8
0
100
AcDbCircle
 10
34.5269940419214
 20
15.66035113826743
 30
0.0
 40
5.101914856704577
100
AcDbArc
 50
87.2205178662125
 51
161.7292178272465
  0
ELLIPSE
  5
212
330
2
100
AcDbEntity
  8
0
100
AcDbEllipse
 10
29.08332806504586
 20
18.89456366993227
 30
0.0
 11
-0.2975199166743347
 21
-0.0738179717522064
 31
0.0
210
0.0
220
0.0
230
1.0
 40
0.5660109677204617
 41
2.583794123332249
 42
6.794339374965185
  0
ELLIPSE
  5
213
330
2
100
AcDbEntity
  8
0
100
AcDbEllipse
 10
29.08332806504586
 20
18.89456366993227
 30
0.0
 11
-0.2975199166743347
 21
-0.0738179717522064
 31
0.0
210
0.0
220
0.0
230
1.0
 40
0.5660109677204617
 41
7.559267606818734
 42
8.47922614181877
  0
ELLIPSE
  5
214
330
2
100
AcDbEntity
  8
0
100
AcDbEllipse
 10
27.07181691290214
 20
20.32128557736641
 30
0.0
 11
-0.0487725195990834
 21
0.2654057707878508
 31
0.0
210
0.0
220
0.0
230
1.0
 40
0.5611334380277662
 41
5.79298932616165
 42
9.944559693964292
  0
ELLIPSE
  5
215
330
2
100
AcDbEntity
  8
0
100
AcDbEllipse
 10
27.07181691290214
 20
20.32128557736641
 30
0.0
 11
-0.0487725195990834
 21
0.2654057707878508
 31
0.0
210
0.0
220
0.0
230
1.0
 40
0.5611334380277662
 41
10.78786918776028
 42
11.6037977047041
  0
ELLIPSE
  5
216
330
2
100
AcDbEntity
  8
0
100
AcDbEllipse
 10
25.03081763248065
 20
18.43274555545395
 30
0.0
 11
-0.2130452760820845
 21
0.1304372846925616
 31
0.0
210
0.0
220
0.0
230
1.0
 40
0.6931773132916838
 41
5.583791809800897
 42
10.02719966741963
  0
ELLIPSE
  5
217
330
2
100
AcDbEntity
  8
0
100
AcDbEllipse
 10
25.03081763248065
 20
18.43274555545395
 30
0.0
 11
-0.2130452760820845
 21
0.1304372846925616
 31
0.0
210
0.0
220
0.0
230
1.0
 40
0.6931773132916838
 41
10.88255966674286
 42
11.44409926742288
  0
ELLIPSE
  5
218
330
2
100
AcDbEntity
  8
0
100
AcDbEllipse
 10
23.40196373450999
 20
16.04124630989008
 30
0.0
 11
-0.1868381040658278
 21
0.1677219512093872
 31
0.0
210
0.0
220
0.0
230
0.9999999999999998
 40
0.8279377963067844
 41
5.752581667542911
 42
10.14123187143013
  0
ELLIPSE
  5
219
330
2
100
AcDbEntity
  8
0
100
AcDbEllipse
 10
23.40196373450999
 20
16.04124630989008
 30
0.0
 11
-0.1868381040658278
 21
0.1677219512093872
 31
0.0
210
0.0
220
0.0
230
0.9999999999999998
 40
0.8279377963067844
 41
10.99655524060162
 42
11.6109456381251
  0
ENDSEC
  0
SECTION
  2
OBJECTS
  0
DICTIONARY
  5
9
330
0
100
AcDbDictionary
281
     1
  3
ACAD_COLOR
350
3E
  3
ACAD_GROUP
350
35
  3
ACAD_LAYOUT
350
16
  3
ACAD_MATERIAL
350
B
  3
ACAD_MLEADERSTYLE
350
41
  3
ACAD_MLINESTYLE
350
36
  3
ACAD_PLOTSETTINGS
350
37
  3
ACAD_PLOTSTYLENAME
350
8
  3
ACAD_SCALELIST
350
3F
  3
ACAD_TABLESTYLE
350
40
  3
ACAD_VISUALSTYLE
350
2B
  3
ACDB_RECOMPOSE_DATA
350
228
  3
AcDbVariableDictionary
350
21A
  3
AcDsDecomposeData
350
22E
  0
DICTIONARY
  5
1E
330
1D
100
AcDbDictionary
280
     1
281
     1
  3
ACAD_LAYERSTATES
360
1F
  0
DICTIONARY
  5
6
330
5
100
AcDbDictionary
280
     1
281
     1
  0
DICTIONARY
  5
3
330
2
100
AcDbDictionary
280
     1
281
     1
  0
DICTIONARY
  5
3E
102
{ACAD_REACTORS
330
9
102
}
330
9
100
AcDbDictionary
281
     1
  0
DICTIONARY
  5
35
102
{ACAD_REACTORS
330
9
102
}
330
9
100
AcDbDictionary
281
     1
  0
DICTIONARY
  5
16
102
{ACAD_REACTORS
330
9
102
}
330
9
100
AcDbDictionary
281
     1
  3
Model
350
15
  3
レイアウト1
350
1C
  0
DICTIONARY
  5
B
102
{ACAD_REACTORS
330
9
102
}
330
9
100
AcDbDictionary
281
     1
  3
ByBlock
350
3B
  3
ByLayer
350
38
  3
Global
350
A
  0
DICTIONARY
  5
41
102
{ACAD_REACTORS
330
9
102
}
330
9
100
AcDbDictionary
281
     1
  0
DICTIONARY
  5
36
102
{ACAD_REACTORS
330
9
102
}
330
9
100
AcDbDictionary
281
     1
  3
Standard
350
42
  0
DICTIONARY
  5
37
102
{ACAD_REACTORS
330
9
102
}
330
9
100
AcDbDictionary
281
     1
  0
ACDBDICTIONARYWDFLT
  5
8
102
{ACAD_REACTORS
330
9
102
}
330
9
100
AcDbDictionary
281
     1
  3
Normal
350
7
100
AcDbDictionaryWithDefault
340
7
  0
DICTIONARY
  5
3F
102
{ACAD_REACTORS
330
9
102
}
330
9
100
AcDbDictionary
281
     1
  3
A0
350
47
  3
A1
350
48
  3
A2
350
49
  3
A3
350
4A
  3
A4
350
4B
  3
A5
350
4C
  3
A6
350
4D
  3
A7
350
4E
  3
A8
350
4F
  3
A9
350
50
  3
B0
350
51
  3
B1
350
52
  3
B2
350
53
  3
B3
350
54
  3
B4
350
55
  3
B5
350
56
  3
B6
350
57
  0
DICTIONARY
  5
40
102
{ACAD_REACTORS
330
9
102
}
330
9
100
AcDbDictionary
281
     1
  3
Standard
350
43
  0
DICTIONARY
  5
2B
102
{ACAD_REACTORS
330
9
102
}
330
9
100
AcDbDictionary
281
     1
  3
2dWireframe
350
2A
  3
Realistic
350
45
  3
Wireframe
350
46
  0
XRECORD
  5
228
102
{ACAD_REACTORS
330
9
102
}
330
9
100
AcDbXrecord
280
     1
 90
        1
330
43
  0
DICTIONARY
  5
21A
102
{ACAD_REACTORS
330
9
102
}
330
9
100
AcDbDictionary
281
     1
  3
CANNOSCALE
350
220
  3
CMLEADERSTYLE
350
21C
  3
CTABLESTYLE
350
21B
  3
CVIEWDETAILSTYLE
350
21D
  3
CVIEWSECTIONSTYLE
350
21E
  3
LAYEREVAL
350
222
  3
LAYERNOTIFY
350
223
  3
LIGHTINGUNITS
350
221
  3
MSLTSCALE
350
21F
  3
PSOLHEIGHT
350
225
  3
PSOLWIDTH
350
224
  3
XCLIPFRAME
350
226
  0
DICTIONARY
  5
22E
102
{ACAD_REACTORS
330
9
102
}
330
9
100
AcDbDictionary
281
     1
  3
AcDsRecords
350
230
  3
AcDsSchemas
350
22F
1001
ACAD
1070
     2
  0
DICTIONARY
  5
1F
102
{ACAD_REACTORS
330
1E
102
}
330
1E
100
AcDbDictionary
281
     1
  0
LAYOUT
  5
15
102
{ACAD_XDICTIONARY
360
17
102
}
102
{ACAD_REACTORS
330
16
102
}
330
16
100
AcDbPlotSettings
  1

  2
none_device
  4
ISO_A4_(210.00_x_297.00_MM)
  6

 40
7.5
 41
20.0
 42
7.5
 43
20.0
 44
210.0
 45
297.0
 46
11.54999923706054
 47
-13.65000009536743
 48
0.0
 49
0.0
140
0.0
141
0.0
142
1.0
143
8.704084754739808
 70
 11952
 72
     1
 73
     0
 74
     0
  7

 75
     0
147
0.1148885871608098
 76
     0
 77
     2
 78
   300
148
0.0
149
0.0
100
AcDbLayout
  1
Model
 70
     1
 71
     0
 10
0.0
 20
0.0
 11
12.0
 21
9.0
 12
0.0
 22
0.0
 32
0.0
 14
0.0
 24
0.0
 34
0.0
 15
0.0
 25
0.0
 35
0.0
146
0.0
 13
0.0
 23
0.0
 33
0.0
 16
1.0
 26
0.0
 36
0.0
 17
0.0
 27
1.0
 37
0.0
 76
     0
330
2
331
29
1001
ACAD_PSEXT
1000
None
1000
None
1000
Not applicable
1000
The layout will not be plotted unless a new plotter configuration name is selected.
1070
     0
  0
LAYOUT
  5
1C
102
{ACAD_REACTORS
330
16
102
}
330
16
100
AcDbPlotSettings
  1

  2
C:\Documents and Settings\basas\Application Data\Autodesk\AutoCAD 2005\R16.1\enu\plotters\Default Windows System Printer.pc3
  4

  6

 40
0.0
 41
0.0
 42
0.0
 43
0.0
 44
0.0
 45
0.0
 46
0.0
 47
0.0
 48
0.0
 49
0.0
140
0.0
141
0.0
142
1.0
143
1.0
 70
   688
 72
     0
 73
     0
 74
     5
  7

 75
    16
147
1.0
 76
     0
 77
     2
 78
   300
148
0.0
149
0.0
100
AcDbLayout
  1
レイアウト1
 70
     1
 71
     1
 10
0.0
 20
0.0
 11
12.0
 21
9.0
 12
0.0
 22
0.0
 32
0.0
 14
0.0
 24
0.0
 34
0.0
 15
0.0
 25
0.0
 35
0.0
146
0.0
 13
0.0
 23
0.0
 33
0.0
 16
1.0
 26
0.0
 36
0.0
 17
0.0
 27
1.0
 37
0.0
 76
     0
330
19
  0
MATERIAL
  5
3B
102
{ACAD_XDICTIONARY
360
3C
102
}
102
{ACAD_REACTORS
330
B
102
}
330
B
100
AcDbMaterial
  1
ByBlock
  0
MATERIAL
  5
38
102
{ACAD_XDICTIONARY
360
39
102
}
102
{ACAD_REACTORS
330
B
102
}
330
B
100
AcDbMaterial
  1
ByLayer
  0
MATERIAL
  5
A
102
{ACAD_XDICTIONARY
360
C
102
}
102
{ACAD_REACTORS
330
B
102
}
330
B
100
AcDbMaterial
  1
Global
 43
0.0007999999797903
 43
0.0
 43
0.0
 43
0.0
 43
0.0
 43
0.0007999999797903
 43
0.0
 43
0.0
 43
0.0
 43
0.0
 43
1.0
 43
0.0
 43
0.0
 43
0.0
 43
0.0
 43
1.0
 49
0.0007999999797903
 49
0.0
 49
0.0
 49
0.0
 49
0.0
 49
0.0007999999797903
 49
0.0
 49
0.0
 49
0.0
 49
0.0
 49
1.0
 49
0.0
 49
0.0
 49
0.0
 49
0.0
 49
1.0
142
0.0007999999797903
142
0.0
142
0.0
142
0.0
142
0.0
142
0.0007999999797903
142
0.0
142
0.0
142
0.0
142
0.0
142
1.0
142
0.0
142
0.0
142
0.0
142
0.0
142
1.0
144
0.0007999999797903
144
0.0
144
0.0
144
0.0
144
0.0
144
0.0007999999797903
144
0.0
144
0.0
144
0.0
144
0.0
144
1.0
144
0.0
144
0.0
144
0.0
144
0.0
144
1.0
1001
ACAD
1070
    -1
1070
     3
1070
     0
1000

1071
        0
1070
     0
  0
MLINESTYLE
  5
42
102
{ACAD_REACTORS
330
36
102
}
330
36
100
AcDbMlineStyle
  2
STANDARD
 70
     0
  3

 62
   256
 51
90.0
 52
90.0
 71
     2
 49
0.5
 62
   256
  6
BYLAYER
 49
-0.5
 62
   256
  6
BYLAYER
  0
ACDBPLACEHOLDER
  5
7
102
{ACAD_REACTORS
330
8
102
}
330
8
  0
SCALE
  5
47
102
{ACAD_REACTORS
330
3F
102
}
330
3F
100
AcDbScale
 70
     0
300
1:1
140
1.0
141
1.0
290
     1
  0
SCALE
  5
48
102
{ACAD_REACTORS
330
3F
102
}
330
3F
100
AcDbScale
 70
     0
300
1:2
140
1.0
141
2.0
290
     0
  0
SCALE
  5
49
102
{ACAD_REACTORS
330
3F
102
}
330
3F
100
AcDbScale
 70
     0
300
1:4
140
1.0
141
4.0
290
     0
  0
SCALE
  5
4A
102
{ACAD_REACTORS
330
3F
102
}
330
3F
100
AcDbScale
 70
     0
300
1:5
140
1.0
141
5.0
290
     0
  0
SCALE
  5
4B
102
{ACAD_REACTORS
330
3F
102
}
330
3F
100
AcDbScale
 70
     0
300
1:8
140
1.0
141
8.0
290
     0
  0
SCALE
  5
4C
102
{ACAD_REACTORS
330
3F
102
}
330
3F
100
AcDbScale
 70
     0
300
1:10
140
1.0
141
10.0
290
     0
  0
SCALE
  5
4D
102
{ACAD_REACTORS
330
3F
102
}
330
3F
100
AcDbScale
 70
     0
300
1:16
140
1.0
141
16.0
290
     0
  0
SCALE
  5
4E
102
{ACAD_REACTORS
330
3F
102
}
330
3F
100
AcDbScale
 70
     0
300
1:20
140
1.0
141
20.0
290
     0
  0
SCALE
  5
4F
102
{ACAD_REACTORS
330
3F
102
}
330
3F
100
AcDbScale
 70
     0
300
1:30
140
1.0
141
30.0
290
     0
  0
SCALE
  5
50
102
{ACAD_REACTORS
330
3F
102
}
330
3F
100
AcDbScale
 70
     0
300
1:40
140
1.0
141
40.0
290
     0
  0
SCALE
  5
51
102
{ACAD_REACTORS
330
3F
102
}
330
3F
100
AcDbScale
 70
     0
300
1:50
140
1.0
141
50.0
290
     0
  0
SCALE
  5
52
102
{ACAD_REACTORS
330
3F
102
}
330
3F
100
AcDbScale
 70
     0
300
1:100
140
1.0
141
100.0
290
     0
  0
SCALE
  5
53
102
{ACAD_REACTORS
330
3F
102
}
330
3F
100
AcDbScale
 70
     0
300
2:1
140
2.0
141
1.0
290
     0
  0
SCALE
  5
54
102
{ACAD_REACTORS
330
3F
102
}
330
3F
100
AcDbScale
 70
     0
300
4:1
140
4.0
141
1.0
290
     0
  0
SCALE
  5
55
102
{ACAD_REACTORS
330
3F
102
}
330
3F
100
AcDbScale
 70
     0
300
8:1
140
8.0
141
1.0
290
     0
  0
SCALE
  5
56
102
{ACAD_REACTORS
330
3F
102
}
330
3F
100
AcDbScale
 70
     0
300
10:1
140
10.0
141
1.0
290
     0
  0
SCALE
  5
57
102
{ACAD_REACTORS
330
3F
102
}
330
3F
100
AcDbScale
 70
     0
300
100:1
140
100.0
141
1.0
290
     0
  0
TABLESTYLE
  5
43
102
{ACAD_XDICTIONARY
360
44
102
}
102
{ACAD_REACTORS
330
40
102
}
330
40
100
AcDbTableStyle
  3
Standard
 70
     0
 71
     0
 40
1.5
 41
1.5
280
     0
281
     0
  7
Standard
140
4.5
170
     2
 62
     0
 63
     7
283
     0
274
    -2
284
     1
 64
     0
275
    -2
285
     1
 65
     0
276
    -2
286
     1
 66
     0
277
    -2
287
     1
 67
     0
278
    -2
288
     1
 68
     0
279
    -2
289
     1
 69
     0
  7
Standard
140
6.0
170
     5
 62
     0
 63
     7
283
     0
274
    -2
284
     1
 64
     0
275
    -2
285
     1
 65
     0
276
    -2
286
     1
 66
     0
277
    -2
287
     1
 67
     0
278
    -2
288
     1
 68
     0
279
    -2
289
     1
 69
     0
  7
Standard
140
4.5
170
     5
 62
     0
 63
     7
283
     0
274
    -2
284
     1
 64
     0
275
    -2
285
     1
 65
     0
276
    -2
286
     1
 66
     0
277
    -2
287
     1
 67
     0
278
    -2
288
     1
 68
     0
279
    -2
289
     1
 69
     0
  0
VISUALSTYLE
  5
2A
102
{ACAD_XDICTIONARY
360
232
102
}
102
{ACAD_REACTORS
330
2B
102
}
330
2B
100
AcDbVisualStyle
  2
2dWireframe
 70
     4
 71
     0
 72
     2
 73
     1
 90
        0
 40
-0.6
 41
-30.0
 62
     5
 63
     7
421
 16777215
 74
     1
 91
        4
 64
     7
 65
   257
 75
     1
175
     1
 42
1.0
 92
        0
 66
   257
 43
1.0
 76
     1
 77
     6
 78
     2
 67
     7
 79
     5
170
     0
171
     0
290
     0
174
     0
 93
        1
 44
0.0
173
     0
291
     0
 45
0.0
1001
ACAD
1000
AcDbSavedByObjectVersion
1070
     0
  0
VISUALSTYLE
  5
45
102
{ACAD_XDICTIONARY
360
237
102
}
102
{ACAD_REACTORS
330
2B
102
}
330
2B
100
AcDbVisualStyle
  2
Realistic
 70
     8
 71
     2
 72
     3
 73
     0
 90
        2
 40
-0.6
 41
30.0
 62
     5
 63
     7
421
 16777215
 74
     0
 91
        0
 64
     7
 65
   257
 75
     1
175
     1
 42
1.0
 92
        8
 66
   257
 43
1.0
 76
     1
 77
     6
 78
     2
 67
     7
 79
     3
170
     0
171
     0
290
     0
174
     0
 93
       13
 44
0.0
173
     0
291
     0
 45
0.0
1001
ACAD
1000
AcDbSavedByObjectVersion
1070
     0
  0
VISUALSTYLE
  5
46
102
{ACAD_XDICTIONARY
360
239
102
}
102
{ACAD_REACTORS
330
2B
102
}
330
2B
100
AcDbVisualStyle
  2
Wireframe
 70
     5
 71
     0
 72
     2
 73
     0
 90
        0
 40
-0.6
 41
-30.0
 62
     5
 63
     7
421
 16777215
 74
     1
 91
        4
 64
     7
 65
   257
 75
     1
175
     1
 42
1.0
 92
        0
 66
   257
 43
1.0
 76
     1
 77
     6
 78
     2
 67
     7
 79
     3
170
     0
171
     0
290
     0
174
     0
 93
        1
 44
0.0
173
     0
291
     0
 45
0.0
1001
ACAD
1000
AcDbSavedByObjectVersion
1070
     0
  0
DICTIONARYVAR
  5
220
102
{ACAD_REACTORS
330
21A
102
}
330
21A
100
DictionaryVariables
280
     0
  1
1:1
  0
DICTIONARYVAR
  5
21C
102
{ACAD_REACTORS
330
21A
102
}
330
21A
100
DictionaryVariables
280
     0
  1
STANDARD
  0
DICTIONARYVAR
  5
21B
102
{ACAD_REACTORS
330
21A
102
}
330
21A
100
DictionaryVariables
280
     0
  1
STANDARD
  0
DICTIONARYVAR
  5
21D
102
{ACAD_REACTORS
330
21A
102
}
330
21A
100
DictionaryVariables
280
     0
  1

  0
DICTIONARYVAR
  5
21E
102
{ACAD_REACTORS
330
21A
102
}
330
21A
100
DictionaryVariables
280
     0
  1

  0
DICTIONARYVAR
  5
222
102
{ACAD_REACTORS
330
21A
102
}
330
21A
100
DictionaryVariables
280
     0
  1
0
  0
DICTIONARYVAR
  5
223
102
{ACAD_REACTORS
330
21A
102
}
330
21A
100
DictionaryVariables
280
     0
  1
0
  0
DICTIONARYVAR
  5
221
102
{ACAD_REACTORS
330
21A
102
}
330
21A
100
DictionaryVariables
280
     0
  1
2
  0
DICTIONARYVAR
  5
21F
102
{ACAD_REACTORS
330
21A
102
}
330
21A
100
DictionaryVariables
280
     0
  1
1
  0
DICTIONARYVAR
  5
225
102
{ACAD_REACTORS
330
21A
102
}
330
21A
100
DictionaryVariables
280
     0
  1
80.000000
  0
DICTIONARYVAR
  5
224
102
{ACAD_REACTORS
330
21A
102
}
330
21A
100
DictionaryVariables
280
     0
  1
5.000000
  0
DICTIONARYVAR
  5
226
102
{ACAD_REACTORS
330
21A
102
}
330
21A
100
DictionaryVariables
280
     0
  1
2
  0
DICTIONARY
  5
230
102
{ACAD_REACTORS
330
22E
102
}
330
22E
100
AcDbDictionary
281
     1
  0
DICTIONARY
  5
22F
102
{ACAD_REACTORS
330
22E
102
}
330
22E
100
AcDbDictionary
281
     1
  3
1051710608
350
229
  3
1051710624
350
22A
  3
1051710640
350
22B
  3
1051710656
350
22C
  3
1051710672
350
22D
  0
DICTIONARY
  5
17
330
15
100
AcDbDictionary
280
     1
281
     1
  0
DICTIONARY
  5
3C
330
3B
100
AcDbDictionary
280
     1
281
     1
  3
ACAD_XREC_ROUNDTRIP
360
235
  3
FBXASSET
360
3D
  0
DICTIONARY
  5
39
330
38
100
AcDbDictionary
280
     1
281
     1
  3
ACAD_XREC_ROUNDTRIP
360
234
  3
FBXASSET
360
3A
  0
DICTIONARY
  5
C
330
A
100
AcDbDictionary
280
     1
281
     1
  3
ACAD_XREC_ROUNDTRIP
360
231
  3
BUMPTILE
360
D
  3
DIFFUSETILE
360
E
  3
FBXASSET
360
F
  3
OPACITYTILE
360
10
  3
REFLECTIONTILE
360
11
  0
DICTIONARY
  5
44
330
43
100
AcDbDictionary
280
     1
281
     1
  3
ACAD_ROUNDTRIP_2008_TABLESTYLE_CELLSTYLEMAP
360
227
  3
ACAD_XREC_ROUNDTRIP
360
236
  0
DICTIONARY
  5
232
330
2A
100
AcDbDictionary
280
     1
281
     1
  3
ACAD_XREC_ROUNDTRIP
360
233
  0
DICTIONARY
  5
237
330
45
100
AcDbDictionary
280
     1
281
     1
  3
ACAD_XREC_ROUNDTRIP
360
238
  0
DICTIONARY
  5
239
330
46
100
AcDbDictionary
280
     1
281
     1
  3
ACAD_XREC_ROUNDTRIP
360
23A
  0
XRECORD
  5
229
102
{ACAD_REACTORS
330
22F
102
}
330
22F
100
AcDbXrecord
280
     1
  1
AcDb_Thumbnail_Schema
102
{ATTRRECORD
341
22A
  2
AcDbDs::TreatedAsObjectData
280
     1
291
     1
102
ATTRRECORD}
102
{ATTRRECORD
341
22B
  2
AcDbDs::Legacy
280
     1
291
     1
102
ATTRRECORD}
  2
AcDbDs::ID
280
    10
 91
        8
102
{ATTRRECORD
341
22C
  2
AcDs:Indexable
280
     1
291
     1
102
ATTRRECORD}
102
{ATTRRECORD
341
22D
  2
AcDbDs::HandleAttribute
280
     7
282
     1
102
ATTRRECORD}
  2
Thumbnail_Data
280
    15
 91
        0
  0
XRECORD
  5
22A
102
{ACAD_REACTORS
330
22F
102
}
330
22F
100
AcDbXrecord
280
     1
  1
AcDbDs::TreatedAsObjectDataSchema
  2
AcDbDs::TreatedAsObjectData
280
     1
 91
        0
  0
XRECORD
  5
22B
102
{ACAD_REACTORS
330
22F
102
}
330
22F
100
AcDbXrecord
280
     1
  1
AcDbDs::LegacySchema
  2
AcDbDs::Legacy
280
     1
 91
        0
  0
XRECORD
  5
22C
102
{ACAD_REACTORS
330
22F
102
}
330
22F
100
AcDbXrecord
280
     1
  1
AcDbDs::IndexedPropertySchema
  2
AcDs:Indexable
280
     1
 91
        0
  0
XRECORD
  5
22D
102
{ACAD_REACTORS
330
22F
102
}
330
22F
100
AcDbXrecord
280
     1
  1
AcDbDs::HandleAttributeSchema
  2
AcDbDs::HandleAttribute
280
     7
 91
        1
284
     1
  0
XRECORD
  5
235
102
{ACAD_REACTORS
330
3C
102
}
330
3C
100
AcDbXrecord
280
     1
102
MATERIAL
148
0.0
149
0.0
149
0.0
 93
        0
 94
       63
282
     0
 72
     1
 77
     1
171
     1
175
     1
179
     1
273
     0
  0
XRECORD
  5
3D
102
{ACAD_REACTORS
330
3C
102
}
330
3C
100
AcDbXrecord
280
     1
 70
     1
 90
429727718
  1
D62C5603-E3A1-4AEA-B7FB-FE5D8D0755AF
310
504B03040A0000080000CC70623B3DEE336E79000000790000001B0000006175746F6465736B2D64657369676E2D7061636B6167652E786D6C3C3F786D6C2076657273696F6E3D22312E302220656E636F64696E673D227574662D3822203F3E3C666F726D6174733E3C666F726D61743E687474703A2F2F736368656D612E
310
6175746F6465736B2E636F6D2F64657369676E2D7061636B6167652F323030393C2F666F726D61743E3C2F666F726D6174733E504B0304140006080800CC70623BD486FD9CA0000000F4000000130000005B436F6E74656E745F54797065735D2E786D6C7D8EC10E82300C865F65E91D8A1E8C310C0EEA1BF002731658846E
310
D98AC1B77784ABF1D8FE5FBFBF75BBCE937A534CCEB38643598122B6FEE978D0B0485F9C41B54DDD7D022595594E1A469170414C76A4D9A4D207E29CF43ECE46F218070CC6BECC4078ACAA135ACF422C856C0E68EA1BF5669944DDD7BCDE7B1F8E415D77AECB980613C2E4AC91FC167A2B244592486606FC29C8FD7F045B9A
310
EF7053A7E60B504B0304140006080800CC70623B853B8169EB0000007C01000008000000636F72652E786D6C8D90416EC3201045AF62CDB6C206821CC7C244919D9CA01740401C94182C03558F5F9C3852BBEB6A467FFE9B197D7EFC9E1EC5975982F5AE035262288C535E5B377690E21535501C055FBC8FBF6C503839990E
310
5619041F179FE64D52DE45E362569DD7661365082642A11EB9E920A89B99642953CC8E702F67A9EE7234257977194EC9EAE275C4EABCCF5EAD5940D4AC6F0E35A568B8F43562CD7046CD199FD07E60174276A7BE677B5EADB0E0D14EEFFB6A31321A0D82627C4084204C3F096B71DD52F6819B16635EADF63F509AF53FA164
310
5DDCD1EDDD17164090FCC8732078B56691CB33A85CD7DCC40F504B0304140006080800CC70623B55019EA25F0000007C00000007000000636E782E786D6C4DCB3B0E80201045D1AD90E915ED2CF8AC45050C11660C8261F98AB1B07AC9C97D42D718D865D3E909258CFD00CCE24AC6E326A164D74DC0B4128928FF32603847
310
2BA13128B1252AC747C6BAB984FC68F0B87FE8960A5C09FE86CFB69FBA01504B0304140006080800CC70623BDBABAAF470010000D40300000C0000006662782F636F72652E786D6CC553D16E823014FD95A6AF4B694182CC941A83FA05FB810A9511A125A5257EFE2E82712ECEB8A7F100CD39F7F69E734AF9FADC366850B6
310
AF8DCE7018308C942E4C59EB2AC3DE1D498AD15A706B8CFB56869196ADCAF00863C12B6B7C374385D14E6907A836A59A41D9F7CA615434B0C8705F7CAA5606D23BA8E84F41278B93AC54100640439DE0BDB320004D43C63716C7C399D30917DCFBBA9CD9BA8469F5B156168B24CED3F7248AC8769F27244EB73B92EED8862C
310
B7F13E0C179B3C8F979C8ECD82BBBABDAA2BAC924E9558448CBD9330242CFA08E3154B5651FCC6D215639C8EE5774DBE2B5F6CF2B5768B68963BB5F5588420E442FC700B1139D4CB01F450C1E918227C2E09DF070D8140C84E1E9AAB8F1340832A9CB13130A5F1376A908D57309505ECF2A0DF179C4E9D30F5B239B87E3823
310
7A79C6F31DE1A8A5AEC08474B03C7837EAE4938639B44E5932B833D2C6B6B279CDC613877FA26EE21F4A2A4C63EC7F29A2F301D1F9F7A0E37D145F504B0304140006080800CC70623B9C113CC27E0000009D0000000B0000006662782F636E782E786D6C4DCCDF0A83201C86E15B91DFB94BFB330DD428C8FB886521330DA7
310
6397BF1A1DECE883878F57749FCDA1B7892F1BBC047A23808C7F84D9FA55424E0BE6803A256208E9EF06C84F9B91703228B1C690F78B66B34CD9A5439DF5CF0BFBF65E35BCA1B8D6A5C6F540381E886698B5741C695F9503EBA150A2F8958E3DC3EA0B504B0304140006080800CC70623B7DF2F77C2A010000120200003100
310
00006662782F41393633353835312D344632462D344230382D423046372D3739314545314133324237412F636F72652E786D6C8D51DB8EC22014FC15C2939B0D2DB4B45643319AE817EC0F6041255A68B86CFCFC856D4D76DF7CE190393373060EDB3DC707F856CE6B6B7A480A0C81328395DA5C7B18C3057510EC3873D686
310
3F34088C18550F330C39BB3A1BA7051AAC09CA84841A2BD5020AEF55806078A44B0FFD7053A328440C89E1EFC52486BBB8AA8214A99D789CF9E05200300FC927E4FB4D5B375D43103D5527440FB843077C5AA3F5861C8F645F5787F59E95B390B318B55CE45AA638FAA2957BD7248B390B7A7CC51F9C124149C82B8C378810
310
84AB2F42B7B8DD56F413775B8C5999E9FF4471926F8AA236A1AE96B8B3CC434E5839373893369E1FAF30EA395917409EB7F26AF8801C171837A4A6AC9C89E9F9C9B1A58BA30FD6A5EF5DDDCF894B9AD9B6A59C957943A9FCAE2FD5BC4DFE03504B0304140006080800CC70623BAD7543B64E01000033030000300000006662
310
782F41393633353835312D344632462D344230382D423046372D3739314545314133324237412F636E782E786D6CD593CD6EC32010845F0571AD6CE3D48AD20813A9873E410FBD12D82434182C7EAAE6EDBB2424CD25871E7B41D6EC30B3FA84F9E67BB2E40B4234DE8DB46F1925E094D7C6ED479AD3AE5951B2113C789FEE
310
6C943839C1488B4C05DF079FE72A69D8C96C13AAD6B8631503449F83828872B949AC57D26200B826A308D316B4064D6E46FCDA41C05550DC9E483A00797BFD207EFB092A45DE9514C1BBD22178396BD39D891265658C238DEA00936C654E5E433CB65A26D9F6EDB5EBC14EBF49A45CB856E66048291F6939A9A81BB5C89177
310
38143CA680F4AA299D66A042CEB3354A2684DC9D8D178FE0D9B8B41CAAD720F880EE7EF93C0C18769E099ECC04D5A102C8049A8A05632F4DDF376CF1DE0F6BB65C2F8627B65A33C6BB62177CEBBDAD973006829F89F22E814B54F4BC2BE347F8AA8F681390B50FA73F804400B5F542E796F19FF974E7F78DB802FE05E20750
310
4B0304140006080800CC70623BE75B7789680500003C100000340000006662782F41393633353835312D344632462D344230382D423046372D3739314545314133324237412F6F626A656374732E786D6CAD575B8F9B3818FD2B887D06C22499CB8AA1CA655245D5B455A356FB305264C061D8018C6C3393D95FBFC7600890
310
A4CD5EF210B0B1BFEBF98E3F7B1FF6596ABC522E1296DF9BAE3D320D9A872C4AF2F8DE2CE5CEBA358D0FBEC719939D65A691938CDE9B6ADAF4BD98B3B2D05311DD91329583D9D5FC0F438434A7A611A644887B5384CF34233629258BA878B12322891DEFF6B66BD70BFB62634E8AE781D082709A4B588AF91C528CDA28B73F
310
1C998EEF39EABBEFA97FBD6A7C7E9553F9D3D79FE442923C3C523610337627CB87ABE99D359D4CC6D6E4FACAB5E6ABF9D2726FC6A3C5F56271377BB88362213924694B38DD99FE47C48627A1E7D49F5A8BB5E1A74C0A599ED3B0F21F1E56366B89112D681E218F0915D0D6F17AD41FBA2A369DCF6335D62ABBD39779D5DDD1
310
11D4D8DE3CBB96B2E04FB8202E41051754A1AA8E8F76B4C6DFE810B580B1547F4B84911149794252234D024EF8BBE963A95AE27B3D310A9D5C215C7960FAEE415ED75694C6AFB17BCACA5D99A60A9AA65F217B0BFC53292ACB92BF283FAD0D3621576592CB5BED907C2FA8E9DF794E35E97BEA31BED21FEB401ABB94C44839
310
DCACBF0E1C5DA8DA5B2F4DFFD32AD86F543D9E565E7056502E157C00AD2671CD534549AB752FCA9CDA00677A313F04E51B22FF19E57B300579E3C97EB29F682D92935CEC18CF901B7B54FD8C51F362B56FC72FE0B3C1EAE335EDCCBF5AEC39ADB17DC238973F804BA5E6F6BFE7AF1FB32E523BE9F3BD571418E3631DCA4D48
310
5250CF639223210A9446CA30052EDF057BD35F8329C1ECD84552BF0DC8D18BE7BCE23BFE6BD960AB4A7DE79923A103BEBD80F911CBAA2C60DB19B01CF164A5583B772EE6D3FFA56666CBCDA74DC97724A48F9A58967497E489C4D979006FD7A05E227A1EBDD0F737C623387A9C844D3709995625106D157315F8B8392CD4E0
310
A0B9A720C4BE9829CEF37EA1E13111214D53925356365ADA634861B52519DD27A00AEB808EAF0628E6F435519D446F45CF2C9CF5214F0A15B2F6D06B79DA3EE3CBF7F56780D2F4E7EF73A0F5E5B02A38D07DC852C6B7C1FBB6664213E0C39E3EBA7FF4E1AD23EA2829407C85E586727488B751B2DB9502BC7B228A3FD68B6E
310
A65A22397E690AA8D158D7E404EC8CDA235CC3B7D1898680131CEC2CDF2638C65196279577750F15884AEE19F94199155B92B13297978469D4F8D358DF0AEF7631E28DC8F0D9F437D5D39A83B2231A1D52D543813A824EF8D44BCFF2FA6A31BD1E8DAD87F1CCB526B3879935BF59CDADD5C37479BB1CDD4CA7B3556B516589
310
EF352754B706114D9C885EC9131DE6EFEB43D99AFE2391C2F958179413D7CFEF6B1B6DB1E7600F00DE6E5C67454A339A4BA2E0FBA85ED26F045D454F463DBFCE484C2F90F2E5E3666003662ED8F755951A7D1BECD5B30B550B2785C8E7320B7292A4838DDA71BBC863ED7613CAF659337A3354231D4FF4A182A54904C2898C
310
98B28C4AD0CE056CCF332A80986E571EE9DBC305BB5FEB7E509220A58D25CF042D712A806AC0AD0C657FDEF80D2D9CEAA2EE4D1C76F60BFE74219A06527D6F82DF6412526107381E55E353090704D085B52408A8913C4ED159D79BDA71BB4BC506F4831350EB6F975CD22D69BF7AC49B91A2C0A9DDA3D5CA36AD20FC478E37
310
E61844E2352865EBCB61A275A65283CAAA9DD27703B4102F5AF51EF5F573B75CBB5AD38BC845F7A49F82A0966A49C2E3EA5EA0ECD326CD965F1DB402C6FA8B51A4658C5C5E2EC9E214602E55810345408596591009A82E7E7FFACA19EEA299B14A0081A705CB3296EBC14CDF658DCD336EA6D1136881AAEB87B81AB9EE53D5
310
F5EB8BC8362082DA24122F98680A4E7930C01A0079749CEA14382A0783E5EBA5A10F8C098456A03D6A4AEB6BB881E2513747552A5DB22C7EDAF83BD5528081A365F7FF06504B0304140006080000CC70623B000000000000000000000000350000006662782F41393633353835312D344632462D344230382D423046372D37
310
39314545314133324237412F76657274696365732E62696E504B0304140006080800CC70623BF270F1330600000004000000360000006662782F41393633353835312D344632462D344230382D423046372D3739314545314133324237412F747269616E676C65732E62696E636660600000504B0304140006080000CC7062
310
3B000000000000000000000000370000006662782F41393633353835312D344632462D344230382D423046372D3739314545314133324237412F617474726962757465732E62696E504B0304140006080800CC70623B08DA0BD19000000041010000360000006662782F41393633353835312D344632462D344230382D4230
310
46372D3739314545314133324237412F6469726563746F72792E786D6C858F410AC3201045AF22B36F53E9A60B35CBEEBAE80D244E44489C6234F4F835464A48035D0DF398FF9F8AF63D0E6CC63039F212F8F9020C7D47C6792B21C5FE7403D62A1188E2E60C98D7234A5830286103A55745067B9D86B8A3CF9C7F90C11DE6
310
07FB144396D7B6A82D282E9A152AD114D5EF2CB866EEE831B8EEA07A7BB5A8D7D61A2BAAEB7FD5F70921FF497D00504B0304140006080800CC70623BEDD1DC58FD000000A00100003B0000006662782F41393633353835312D344632462D344230382D423046372D3739314545314133324237412F7265736F75726365732F
310
636F72652E786D6C8D504B6E833010BD0A9A6D65B00922041947112427E8052C33A156828DFCA97AFC9A40A576D7CDCCE87D344F8F9FBFE667F689CE6B6B3A6039850C8DB2A336530731DC4903D95970676DF82583CCC8193B5861107C72362E3BA4AC096842428D1D7107A5F7182053CF7474E0D507CE32973124857FE48B
310
540F3961CEF244279DE03EB81420DB9EAC1384436FA353E879B1B182C7A8C75DA3C7F453DF353A1075D537A7BA6464B8F535A99AE14A9A2BBD90E350DD183B5CFABE3AF262350B1EF4FC9351399401471025A527C218A1E53BAB5A5AB765F5469B96525EACF23FA6B88CFF34456DC2A1DCE36E360F82A5202F42F062ED2BAD
310
579969AFDD8A6F504B010214000A0000080000CC70623B3DEE336E79000000790000001B00000000000000000000000000000000006175746F6465736B2D64657369676E2D7061636B6167652E786D6C504B01021400140006080800CC70623BD486FD9CA0000000F40000001300000000000000000000000000B20000005B
310
436F6E74656E745F54797065735D2E786D6C504B01021400140006080800CC70623B853B8169EB0000007C010000080000000000000000000000000083010000636F72652E786D6C504B01021400140006080800CC70623B55019EA25F0000007C000000070000000000000000000000000094020000636E782E786D6C504B
310
01021400140006080800CC70623BDBABAAF470010000D40300000C00000000000000000000000000180300006662782F636F72652E786D6C504B01021400140006080800CC70623B9C113CC27E0000009D0000000B00000000000000000000000000B20400006662782F636E782E786D6C504B01021400140006080800CC70
310
623B7DF2F77C2A010000120200003100000000000000000000000000590500006662782F41393633353835312D344632462D344230382D423046372D3739314545314133324237412F636F72652E786D6C504B01021400140006080800CC70623BAD7543B64E010000330300003000000000000000000000000000D2060000
310
6662782F41393633353835312D344632462D344230382D423046372D3739314545314133324237412F636E782E786D6C504B01021400140006080800CC70623BE75B7789680500003C10000034000000000000000000000000006E0800006662782F41393633353835312D344632462D344230382D423046372D3739314545
310
314133324237412F6F626A656374732E786D6C504B01021400140006080000CC70623B0000000000000000000000003500000000000000000000000000280E00006662782F41393633353835312D344632462D344230382D423046372D3739314545314133324237412F76657274696365732E62696E504B01021400140006
310
080800CC70623BF270F133060000000400000036000000000000000000000000007B0E00006662782F41393633353835312D344632462D344230382D423046372D3739314545314133324237412F747269616E676C65732E62696E504B01021400140006080000CC70623B0000000000000000000000003700000000000000
310
000000000000D50E00006662782F41393633353835312D344632462D344230382D423046372D3739314545314133324237412F617474726962757465732E62696E504B01021400140006080800CC70623B08DA0BD1900000004101000036000000000000000000000000002A0F00006662782F41393633353835312D344632
310
462D344230382D423046372D3739314545314133324237412F6469726563746F72792E786D6C504B01021400140006080800CC70623BEDD1DC58FD000000A00100003B000000000000000000000000000E1000006662782F41393633353835312D344632462D344230382D423046372D3739314545314133324237412F7265
310
736F75726365732F636F72652E786D6C504B0506000000000E000E0080040000641100000000
  0
XRECORD
  5
234
102
{ACAD_REACTORS
330
39
102
}
330
39
100
AcDbXrecord
280
     1
102
MATERIAL
148
0.0
149
0.0
149
0.0
 93
        0
 94
       63
282
     0
 72
     1
 77
     1
171
     1
175
     1
179
     1
273
     0
  0
XRECORD
  5
3A
102
{ACAD_REACTORS
330
39
102
}
330
39
100
AcDbXrecord
280
     1
 70
     1
 90
429727718
  1
30362254-06B7-45E0-A893-8CFA70E3D6BC
310
504B03040A0000080000CC70623B3DEE336E79000000790000001B0000006175746F6465736B2D64657369676E2D7061636B6167652E786D6C3C3F786D6C2076657273696F6E3D22312E302220656E636F64696E673D227574662D3822203F3E3C666F726D6174733E3C666F726D61743E687474703A2F2F736368656D612E
310
6175746F6465736B2E636F6D2F64657369676E2D7061636B6167652F323030393C2F666F726D61743E3C2F666F726D6174733E504B0304140006080800CC70623BD486FD9CA0000000F4000000130000005B436F6E74656E745F54797065735D2E786D6C7D8EC10E82300C865F65E91D8A1E8C310C0EEA1BF002731658846E
310
D98AC1B77784ABF1D8FE5FBFBF75BBCE937A534CCEB38643598122B6FEE978D0B0485F9C41B54DDD7D022595594E1A469170414C76A4D9A4D207E29CF43ECE46F218070CC6BECC4078ACAA135ACF422C856C0E68EA1BF5669944DDD7BCDE7B1F8E415D77AECB980613C2E4AC91FC167A2B244592486606FC29C8FD7F045B9A
310
EF7053A7E60B504B0304140006080800CC70623B1EC5D7A3EB0000007C01000008000000636F72652E786D6C8D90416EC3201045AF82665B6103C6756C6122AB4D4ED00B204C5C94182C03558F5F9C3852BBEB6A467FFE9B197D71FC9E6FE8CBACC17AD7032D0820E3B41FAD9B7A48F1820F808E52ACDEC75F36404ECDA687
310
4D0629A6D5A76597B477D1B89855E747B38B2A041301E95B6E7A08FAD3CCAA50296647B8168BD2573599823EBB0CA76447F43862C7BCCF5EAC59410E4DDD9C7973C2755553CCCFA4C603E3040F1565ED3B1FDE4E432BCA0D9622DAF9795FAF464533826484B498524CD807E51D79ED187F21878E10516EF63F505AC67F42C9
310
BA58B1FDDD071640D2FCC87D2045B96591CB3DA85CB7DCE40F504B0304140006080800CC70623B55019EA25F0000007C00000007000000636E782E786D6C4DCB3B0E80201045D1AD90E915ED2CF8AC45050C11660C8261F98AB1B07AC9C97D42D718D865D3E909258CFD00CCE24AC6E326A164D74DC0B4128928FF32603847
310
2BA13128B1252AC747C6BAB984FC68F0B87FE8960A5C09FE86CFB69FBA01504B0304140006080800CC70623B8C9102E971010000D40300000C0000006662782F636F72652E786D6CC5535B6E833010BC8AE5DF0A6C08340F1947A84D4ED00B38C6A128602363A31CBFCB234A53A551FA553EC09AD9F5CE8C31DB9E9B1AF5CA
310
7695D1198E428A91D2D214952E33ECDD315861B4E5CC1AE3BE9561A445A3323CC098B3D21ADFCE9034DA29ED00D5A6503328BA4E398C640D8B0C77F253352214DE4145770A5B214FA2546114020D759C75CE8200340D19DE981F0F6746269C33EFAB6266AB02A655C74A59CCF365BADC27CB5D902ED22848F6340DF238A141
310
BE88E2F57B92BFEDF23523433367AE6A2EEAA455C2A902F398D2751045018D3FA264435F3771F242571B4A1919CA6F9A7C5B3CD9E42BED16F12C776AEB308F40C848FC700B1139D4891EF410CEC810227CC6846F8386402064270EF5C5C709A05E49676C024C61FC95EA45ED154CA5211D1FF4FB8291A913A68E9B83EBBB33
310
E2A7673CDE118E5AE8124C0807CB8377834E366998436B950D7A7746DAD846D4CFD978E0F04FD455FC5D49D2D4C6FE9722321F10997F0F32DC47FE05504B0304140006080800CC70623BFFEA85907E0000009D0000000B0000006662782F636E782E786D6C4DCCD10A83201886E15B91FFDC95D95A811AB6F23E625948A6C3
310
E9D8E5AF46073BFAE0E1E365ED67B3E8ADC3CB78C7815C7240DA3DFC64DCC221C519D7805AC182F7F1EF06C88D9BE6703008B6049F9E274D7A1E938DBB5AE3D6131B2589BA0D3D965551E0B2EA732C9B9A624AAEB41E3A557677029960D9AFB4EF11165F504B0304140006080800CC70623B4FEEA4082C0100001202000031
310
0000006662782F39464131463745442D413632322D343644302D413938332D3331353338454246344243312F636F72652E786D6C8D515B6EC32010BC0AE2AB55850DD871ED0813254D72825EC00192A2C460F1A872FC42ED48ED5F7E00CDCECCCEB26C731F6FE05B39AFADE921293004CA082BB5B9F43086336A21D870E6AC
310
0D7F68109861543DCC30E4ECE26C9C164858139409093556AA051CBC570102714B8F1E7AF1A5C6A11862480C7F2DA6415C878B2A4891CA89C7990F2E050073937C42DE1DB7E4F87ED8A36D4329AA9B3D46DBAEAD504556557BD81DEBDD0761E52CE42C462D17B996298E3E6BE59E35C962CE821E1FF18553435012728A7187
310
0841987E927A8D9B35ADDF70BBC6989599FE4F1427F9A4286A132ABAC49D651EF234CD5CE04CDA78BA3DC2A8FB645D00B9DF8B57E215725C60BCA2A463E54C4CE327C7A65E1C7DB02E7DEFCBF594B864C5CA6CDBD49C957943E9FA5D5FBAF336F90F504B0304140006080800CC70623BAD7543B64E01000033030000300000
310
006662782F39464131463745442D413632322D343644302D413938332D3331353338454246344243312F636E782E786D6CD593CD6EC32010845F0571AD6CE3D48AD20813A9873E410FBD12D82434182C7EAAE6EDBB2424CD25871E7B41D6EC30B3FA84F9E67BB2E40B4234DE8DB46F1925E094D7C6ED479AD3AE5951B2113C
310
789FEE6C943839C1488B4C05DF079FE72A69D8C96C13AAD6B8631503449F83828872B949AC57D26200B826A308D316B4064D6E46FCDA41C05550DC9E483A00797BFD207EFB092A45DE9514C1BBD22178396BD39D891265658C238DEA00936C654E5E433CB65A26D9F6EDB5EBC14EBF49A45CB856E66048291F6939A9A81BB5
310
C8917738143CA680F4AA299D66A042CEB3354A2684DC9D8D178FE0D9B8B41CAAD720F880EE7EF93C0C18769E099ECC04D5A102C8049A8A05632F4DDF376CF1DE0F6BB65C2F8627B65A33C6BB62177CEBBDAD973006829F89F22E814B54F4BC2BE347F8AA8F681390B50FA73F804400B5F542E796F19FF974E7F78DB802FE05
310
E207504B0304140006080800CC70623B16AB87BA640500003C100000340000006662782F39464131463745442D413632322D343644302D413938332D3331353338454246344243312F6F626A656374732E786D6CAD575B6FA33818FD2B887DE6924B3BED8A326A92B68A663B534DD4D13E548A0C38942D60649B369D5FBFC7
310
600890A493BDE42160637FD7F31D7FF63E6FB3D478A55C242CBF3247B66B1A340F5994E4F19559CA8D75611A9F7D8F33263BCB4C232719BD32D5B4E97B316765A1A722BA21652A07B3B7B33F0D11D29C9A46981221AE4C113ED38CD8A4942CA2E2C58E882476BCD9DA23BB5ED8171B73523C0F841684D35CC252CCE79062D4
310
468DFA43D7747CCF51DF7D4FFDEB5593E3AB9CCA9FBEFE241792E4E19EB28198C968BAB8199F5D5A67D3E9C49A9E8F47D6EC76B6B0469F26EEFC7C3EBFBCBEB98462213924694B38DD98FE1D62C393D073EA4FADC5DAF04326852CCF6958F90F0F2B9BB5C48816348F90C7840A68EB78EDF68723159BCEE7891A6B95DDE9D3
310
BCEAEEE8086A6C6F9E5D4B59F0175C10A7A0820BAA5055C7473B5AE3CFDD452D602CD5DF12616444529E90D448938013FE6EFA58AA96F85E4F8C42275708571E98FE6827AF6B2B4AE3D7D83D64E5A64C53054DD3AF90BD06FEA9149565C94FCA0F6B834DC85599E4F2423B24DF0B6AFA979E534DFA9E7A4CC6FA631D486393
310
921829879BF5D781A373557BCB85E97FB90DB62B558F8795179C15944B051F40AB495CF35451D26A4727654E6D8033BD98EF82F21D91FF8AF2DD9982BCF1643BDD4EB516C9492E368C67C88DED563FC36D5EACF66DFF057C3658BDBFA69DF9578B3DA735B64F18C7F20770A9D45CFCF7FCF563D6456A277DBEF78A02637CA2
310
43B90A490AEAB94F72244481D24819A6C0E59B606BFA4B3025981DBB48EAB701D97BF19C577CC77F2D1B6C55A9EF3C732474C0B727303F625995056C3B02963D9EAC146BE78EC5FCEC7FA999EBC5EACBAAE41B12D27B4D2C0BBA49F244E2ECDC81B76B502F113D8F5EE8FB1BE3111CDD4FC2AA9B844CAB1288B68AB90A7CDC
310
1C166AB0D3DC5310625FCC14E779BFD0709F8890A629C9292B1B2DED31A4B0DA928CEE135085754027E3018A397D4D5427D15BD1330B677DC8934285AC3DF45A9EB68FF8F2B8FC0A509AFEECFD0FF2DE25CC6047F7214B195F07EFEB9A094D800F7BFAE8FED187B78EA8A3A400F115961BCAD1215E47C966530AF0EE8128FE
310
58CEBB996A8964FFA529A046635D9353B0336A8F700DDF46271A024E70B0B37C9DE01847591E54DED53D54202AB947E4076556AC49C6CA5C9E1226B7F1A7B1BE15DEED62C41B91E1B3E9AFAAA735036547343A925075041DF0A9979E893B391F8FCFA6967B3EFB644DCF6E5CEBFAE272625DCC6FAF3FB93793C5F90CE1EF57
310
407342756B10D1C489E8953CD1617E5CEECAD6F4EF8914CE5D5D504E5C3F1F9736DA62CFC11E00BCDDB8CC8A9466349744C1F75EBDA4DF09BA8A9E8C7A7E9991989E20E5DBDD6A6003664ED8F7A04A8DBE0DF6EAD9B9AA858342E47399053949D2C146EDB85DE4B176BB0965FBAC19BD19AA918E27FA50C1D22402E144464C
310
59462568E704B6E71915404CB72B8FF4EDE184DDAF753F284990D2C6926782963815403548A70C657FDEF80D2D9CEAA2AE4C1C76F60BFE74219A06527D6582DF6412526107381E55E353090704D085B52408D0933C4ED159D79BDA71BB4BC506F4831350EB6F979CD22D69BF7AC49B91A2C0A9DDA3D5CA36AD20FC478E37E6
310
1844E2352865EBCB6EA275A652E3836BE04EFB400BF1A2556F515F1FBB35B2AB35BD889C744FFA1004B5544B121E57F70215746DD2F5E2C1412B602CBF19455AC6C8E5E9922C4E01E65215385004546899059180EAFCF7A707CE7017CD8CDB0410789AB32C63B91E5CEBBBACB17AC6CD347A022D5075FD106377347AAABA7E
310
7D11590744509B44E205134DC1290F06580320F78E537D3D73540E06CB970B431F185308AD40BBD794D6D77003C5A36E8EAA54BA64597CD8F83BD552A080A365F7FF06504B0304140006080000CC70623B000000000000000000000000350000006662782F39464131463745442D413632322D343644302D413938332D3331
310
353338454246344243312F76657274696365732E62696E504B0304140006080800CC70623BF270F1330600000004000000360000006662782F39464131463745442D413632322D343644302D413938332D3331353338454246344243312F747269616E676C65732E62696E636660600000504B0304140006080000CC70623B
310
000000000000000000000000370000006662782F39464131463745442D413632322D343644302D413938332D3331353338454246344243312F617474726962757465732E62696E504B0304140006080800CC70623B08DA0BD19000000041010000360000006662782F39464131463745442D413632322D343644302D413938
310
332D3331353338454246344243312F6469726563746F72792E786D6C858F410AC3201045AF22B36F53E9A60B35CBEEBAE80D244E44489C6234F4F835464A48035D0DF398FF9F8AF63D0E6CC63039F212F8F9020C7D47C6792B21C5FE7403D62A1188E2E60C98D7234A5830286103A55745067B9D86B8A3CF9C7F90C11DE607
310
FB144396D7B6A82D282E9A152AD114D5EF2CB866EEE831B8EEA07A7BB5A8D7D61A2BAAEB7FD5F70921FF497D00504B0304140006080800CC70623B0D6EF93BFE000000A00100003B0000006662782F39464131463745442D413632322D343644302D413938332D3331353338454246344243312F7265736F75726365732F63
310
6F72652E786D6C8D50596E833010BD0A9ADFCA60B334011947A8694ED00B586642AC041B79A97AFC9A40A5F6AF3F33A3B7689E1E3F7DCD8FEC139DD7D6F4C0720A191A65476DA61E62B892236427C19DB5E1970C322367EC618541F0C9D9B8EC90B226A009093576C41D94DE63804C3DD2D18357379C652E63480A7FCF17A9
310
EE72C29CE5894E3AC17D702940B63D59270887DE46A7D0F36263058F518FBB468FE9A7BE6A7420864373B8D4873369AA8691FA421B3294352543C5CAF65C0F6FEF43CB8BD52C78D0F34F46E550061C419494B6843142CB0F5677F4B52BEB177AEC28E5C52AFF638ACBF84F53D42654E51E77B379102C05791282176B5F693D
310
CB4C7BED567C03504B010214000A0000080000CC70623B3DEE336E79000000790000001B00000000000000000000000000000000006175746F6465736B2D64657369676E2D7061636B6167652E786D6C504B01021400140006080800CC70623BD486FD9CA0000000F40000001300000000000000000000000000B20000005B
310
436F6E74656E745F54797065735D2E786D6C504B01021400140006080800CC70623B1EC5D7A3EB0000007C010000080000000000000000000000000083010000636F72652E786D6C504B01021400140006080800CC70623B55019EA25F0000007C000000070000000000000000000000000094020000636E782E786D6C504B
310
01021400140006080800CC70623B8C9102E971010000D40300000C00000000000000000000000000180300006662782F636F72652E786D6C504B01021400140006080800CC70623BFFEA85907E0000009D0000000B00000000000000000000000000B30400006662782F636E782E786D6C504B01021400140006080800CC70
310
623B4FEEA4082C0100001202000031000000000000000000000000005A0500006662782F39464131463745442D413632322D343644302D413938332D3331353338454246344243312F636F72652E786D6C504B01021400140006080800CC70623BAD7543B64E010000330300003000000000000000000000000000D5060000
310
6662782F39464131463745442D413632322D343644302D413938332D3331353338454246344243312F636E782E786D6C504B01021400140006080800CC70623B16AB87BA640500003C1000003400000000000000000000000000710800006662782F39464131463745442D413632322D343644302D413938332D3331353338
310
454246344243312F6F626A656374732E786D6C504B01021400140006080000CC70623B0000000000000000000000003500000000000000000000000000270E00006662782F39464131463745442D413632322D343644302D413938332D3331353338454246344243312F76657274696365732E62696E504B01021400140006
310
080800CC70623BF270F133060000000400000036000000000000000000000000007A0E00006662782F39464131463745442D413632322D343644302D413938332D3331353338454246344243312F747269616E676C65732E62696E504B01021400140006080000CC70623B0000000000000000000000003700000000000000
310
000000000000D40E00006662782F39464131463745442D413632322D343644302D413938332D3331353338454246344243312F617474726962757465732E62696E504B01021400140006080800CC70623B08DA0BD190000000410100003600000000000000000000000000290F00006662782F39464131463745442D413632
310
322D343644302D413938332D3331353338454246344243312F6469726563746F72792E786D6C504B01021400140006080800CC70623B0D6EF93BFE000000A00100003B000000000000000000000000000D1000006662782F39464131463745442D413632322D343644302D413938332D3331353338454246344243312F7265
310
736F75726365732F636F72652E786D6C504B0506000000000E000E0080040000641100000000
  0
XRECORD
  5
231
102
{ACAD_REACTORS
330
C
102
}
330
C
100
AcDbXrecord
280
     1
102
MATERIAL
148
0.0
149
0.0
149
0.0
 93
        0
 94
       63
282
     0
 72
     1
 77
     1
171
     1
175
     1
179
     1
273
     0
  0
XRECORD
  5
D
102
{ACAD_REACTORS
330
C
102
}
330
C
100
AcDbXrecord
280
     1
270
     1
271
     1
  0
XRECORD
  5
E
102
{ACAD_REACTORS
330
C
102
}
330
C
100
AcDbXrecord
280
     1
270
     1
271
     1
  0
XRECORD
  5
F
102
{ACAD_REACTORS
330
C
102
}
330
C
100
AcDbXrecord
280
     1
 70
     0
 90
1673772943
  1
ECE7A1D2-D628-4531-984C-D00F80459256
310
504B03040A0000080000CC70623B3DEE336E79000000790000001B0000006175746F6465736B2D64657369676E2D7061636B6167652E786D6C3C3F786D6C2076657273696F6E3D22312E302220656E636F64696E673D227574662D3822203F3E3C666F726D6174733E3C666F726D61743E687474703A2F2F736368656D612E
310
6175746F6465736B2E636F6D2F64657369676E2D7061636B6167652F323030393C2F666F726D61743E3C2F666F726D6174733E504B0304140006080800CC70623BD486FD9CA0000000F4000000130000005B436F6E74656E745F54797065735D2E786D6C7D8EC10E82300C865F65E91D8A1E8C310C0EEA1BF002731658846E
310
D98AC1B77784ABF1D8FE5FBFBF75BBCE937A534CCEB38643598122B6FEE978D0B0485F9C41B54DDD7D022595594E1A469170414C76A4D9A4D207E29CF43ECE46F218070CC6BECC4078ACAA135ACF422C856C0E68EA1BF5669944DDD7BCDE7B1F8E415D77AECB980613C2E4AC91FC167A2B244592486606FC29C8FD7F045B9A
310
EF7053A7E60B504B0304140006080800CC70623BD9DDAED0EC0000007C01000008000000636F72652E786D6C8D90416EC3201045AF82665B61836D9CD8C2444DD39CA01740405C94182C03558F5F9C3852BBEB6A467FFE9B197D7EF89E6EE8CB2CC17A37002D0820E394D7D68D03A478C17B4007C117EFE32F1B20272733C0
310
2A83E0E3E2D3BC49CABB685CCCAAF3DA6CA20CC14440EA969B0182FA34932C648AD911AEC52CD5558EA6A0CF2EC329598D1E47ACCEFBECC59A050463A7EA5833865FEBDD0E37353BE3EE8DBDE3F6786A48D375FBF6CC78B9C282473B3DEFABC5C86834888A900E538A49F5419B9EB47DD5BC907D4F082F57FB1F28CDFA9F50
310
B22ED6D5F6EE030B20687EE43E10BC5CB3C8E51E54AE6B6EE207504B0304140006080800CC70623B55019EA25F0000007C00000007000000636E782E786D6C4DCB3B0E80201045D1AD90E915ED2CF8AC45050C11660C8261F98AB1B07AC9C97D42D718D865D3E909258CFD00CCE24AC6E326A164D74DC0B4128928FF326038
310
472BA13128B1252AC747C6BAB984FC68F0B87FE8960A5C09FE86CFB69FBA01504B0304140006080800CC70623BA24EB22D72010000D40300000C0000006662782F636F72652E786D6CC5535B6E833010BC8AE5DF0A6C5E49888CA3A6694ED00B38E05014B091B1518EDFE511A5A9D228FD2A1F60CDEC7A67C6986DCE4D8D7A
310
69BA4AAB0C073EC548AA5C17952A33ECECD15B61B4E1CC686DBF9561A44423333CC098B3D268D7CE50AE9595CA02AA74216750749DB418E5352C32DCE59FB211BE70162ABA93DF8AFC244AE9073ED050C759670D0840D390E18DF9F1706664C23973AE2A66B62A605A75ACA4C13C4976E1364A12EF355A2EBD384AF65EFA96
310
BC7B8BED2EA6719AAE16FB8491A199335B351775B991C2CA02F390D2D40B028F861F41BCA68B7518BFD0D59A524686F29B26D7164F36B94AD9289CE54E6D1DE6010819891F6E21228B3AD1831EC219194284CF98F06DD01008846CC5A1BEF83801D4CBDC6A1303536877A57A513B0953A94FC707FDBE6064EA84A9E3E6E0FA
310
EE8CF0E9198F7784A316AA0413C2C2F2E0ECA0934D1AE6D05A69BCDE9E91D2A611F573361E38FC1375157F5752AE6B6DFE4B11990F88CCBF0719EE23FF02504B0304140006080800CC70623B408A7D3B7C0000009D0000000B0000006662782F636E782E786D6C4DCCD10A83201886E15B91FFDC552A92A0064DBC8F581632
310
D3703A76F9ABD1C18E3E78F878E5F0D9027ABBFCF2292AE86E2D20171F69F6715550CB827B40839639A5F2770314A7CD293819B45C73AAFB45B35BA61ACAA1C1C7E7855C58C15BC331339661262CC762340413D68D77DA5B42298546CBE6573AF60CEB2F504B0304140006080800CC70623B449FB9BD290100001202000031
310
0000006662782F36394639363044362D344446342D343946362D394244322D3234314243333846323333332F636F72652E786D6C8D515B6EC32010BC0AE22B55850D98B871848994463E412FE002495162B07854397EA176A4F62F3F2C9A9D991D587EB84F37F0AD7D30CEF6905418026DA553C65E7A98E219ED203808EE9D
310
8B7F6810D871D23D2C3014FCE25D9A57483A1BB58D19B54EE9151C43D0110279CB971E06F9A5A7B11A53CC8C70ADE6515EC78BAE4895DB992778883E0700CB907242D17643D7E2538BD869608875438BBAE38922CAC8F1BDD90DB4691A5E2F42C153326A951B95E398B3D1FE599322163C9AE9115F7A3D46ADA0A018778810
310
84E907617BDCEE297BC5BB3DC6BC2EF47FA234AB2745C9D8D8D035EE220B50105E2F0DC1954B9FB747187D9F9D8FA0CCDB042D5FA0C015C65B42DF78BD10F3F3B363CB56C7109DCFDFBBB97E662ED92EB62D13BC2E1BCAE5777DB9966D8A1F504B0304140006080800CC70623BAD7543B64E01000033030000300000006662
310
782F36394639363044362D344446342D343946362D394244322D3234314243333846323333332F636E782E786D6CD593CD6EC32010845F0571AD6CE3D48AD20813A9873E410FBD12D82434182C7EAAE6EDBB2424CD25871E7B41D6EC30B3FA84F9E67BB2E40B4234DE8DB46F1925E094D7C6ED479AD3AE5951B2113C789FEE
310
6C943839C1488B4C05DF079FE72A69D8C96C13AAD6B8631503449F83828872B949AC57D26200B826A308D316B4064D6E46FCDA41C05550DC9E483A00797BFD207EFB092A45DE9514C1BBD22178396BD39D891265658C238DEA00936C654E5E433CB65A26D9F6EDB5EBC14EBF49A45CB856E66048291F6939A9A81BB5C89177
310
38143CA680F4AA299D66A042CEB3354A2684DC9D8D178FE0D9B8B41CAAD720F880EE7EF93C0C18769E099ECC04D5A102C8049A8A05632F4DDF376CF1DE0F6BB65C2F8627B65A33C6BB62177CEBBDAD973006829F89F22E814B54F4BC2BE347F8AA8F681390B50FA73F804400B5F542E796F19FF974E7F78DB802FE05E20750
310
4B0304140006080800CC70623B8D05915C650500003B100000340000006662782F36394639363044362D344446342D343946362D394244322D3234314243333846323333332F6F626A656374732E786D6CAD575B6FA33814FE2B887D06429276DA1565D4266D158D3A339A6846FB502932E050B66023DB74D2FDF5FB190C01
310
9276B2973C046C8ECFF53B17071F77456EBD502133CEAE6CDF9DD81665314F32965ED995DA3A17B6F5310C04E7AA47665B8C14F4CAD6DB7618A48257A5D94AE89654B91AEDDEDDFC61C998326A5B714EA4BCB265FC440BE2924AF184CA6737218AB8E976E7FA6E4338649B0A523E8D98964450A6A029F619B8588D52FE7039
310
B1BD30F0F4F730D0FF866AF6369557DB33949F31A9088B0F848DD8CCFCF9F2767A76E99CCDE733677E3EF59D9BBB9BA5E37F984D16E78BC5E5F5ED25044B25C0C96822E8D60EEFE11B91C581D77CEA34368A1F5329E68CD1B8B61F16D63A1B8E092D294B10C78C4A48EB593D192E7DED9BDEE7995E1B91FDEDD3ACEA9FE831
310
6A756F9F7D4D79F4274C90A7A04248AA51D5F8C718DAE06FB2F75AC4796EBE65D22A88A22223B995679120E2D50E41AA49C260C046A35368846B0BECD0DFF3EBEB8AD4F835768F69B9ADF25C43D30E6B646F807FAA64AD59F61715C7A54127C4AACA98BA3006A9D792DAE165E0D59B61A01FB3A9F9D838D2DAE62445C86166
310
F37564E842E7DE6A69879FEEA2DD5AE7E371E1A5E025154AC307D06A03D73EB5978C58FFA4C8E9033066E0F3BD53BEC1F39F91BE7B55103791EDE6BBB991A2046172CB4581D8B893FA674DDA17A77B3B7C413D1B511FD2743BFF8A38F03A658705E3ADF8015C3A3417FF3D7E439FF591DA0B5F18BC20C1B8981957AE6392A3
310
F43C640C01D1A0B4728E2DD4F26DB4B3C3152A252A3B4E913CEC1C72F012782FF88EFF8637AA552DBEF76408E8A8DE9E50F9E1CB3A2DA0DB1B6039A893B56063DC5B3E3FFB5F72E67AB9FEB4AEC496C4F4C1149625DD662C53E89D7BF0F6151A046260D1337DFDC94502430F83B0EE07A130A224BCAD7DAE1D9FB6CD422FF6
310
920702629C4BB9AE79C12F243C6432A6794E18E5552BA56B431AAB5D91317302B2B071E86C3A42B1A02F999E24061403B5D0EB639195DA655DD3EBEAB4FB862DDF579F014AD0E73C22F99E28DA57FB98E75C6CA2D74D53086D600F4786E0FE3144B771A8A7B900F03594DB8A633CBC49B2EDB69228BB479CF863B5E807AAAB
310
23872F6DFEB4129B949CA33823F58830E86D65621E10047D9DB34D862E8EAC3C2ABC2F7B2C40D67CDFE01F5545B92105AF983AC54D93D69E56FB8E797F88913F898A9FEC705D3F9D1B54EC8426FB500D40A03BD0119B06E1B95DDC7EB8F6975367793EBD70E66733DFB9BC982F9CE564727731999F5D4ECFCE3B8D6A4DC2A0
310
6D50FD148437D110834A64C6CDDF57FBACB5C307A2A477DFE4939736CFEF2B175371E0E10CF0DD1D5C15654E0BCA14D1E87DD02FF93782A162C0A3D95F1524A52770F972BF1EE9809D13CE7DD599467F8ECE9ADD85CE85A34CD45355448C64F9E8A031DC2D596ACC6E5DD93D9B82DE2EF5CAF81363A8E47996A0DE24564A79
310
4115AACE09C55E14540231FDA13C319787134EBF34E3A022514E5B4D9E0826E25C02D5805B15ABE1BEF51B26383D445DD9E875EE33FE4C22DA16427D65A3BCA92CA6D28DD01DF5DC53330704308475351050232CCD31583787BA75774AFB06E5070DD0C8EF484E19968C5D83BA5B90B244D31E54D55A372320FE4786B7EA58
310
44E135AA5467CB7EA333A61683CC6A8C3257034C10CF46F40EF9F5BE59BE5BD30C3C72D235E95D10345C1D45445A5F0BB47E46A5EBE5570F9380B5FA629579952296A773720405982B9DE04011506178964401AA8BDF1FBF0A8EAB6861DD6580C0E38217056766716DAEB2D6FA0917D3E4116581EADB879C4E7CFFB11EFACD
310
3D641311495D92C8676CB409A72D18610D803CE8A626049E8EC1887CB5B44CC39883690DDA8399B4B9855B481E7D71D4A9D22F96E5BB73BF5793020C02137BF837504B0304140006080000CC70623B000000000000000000000000350000006662782F36394639363044362D344446342D343946362D394244322D32343142
310
43333846323333332F76657274696365732E62696E504B0304140006080800CC70623BF270F1330600000004000000360000006662782F36394639363044362D344446342D343946362D394244322D3234314243333846323333332F747269616E676C65732E62696E636660600000504B0304140006080000CC70623B0000
310
00000000000000000000370000006662782F36394639363044362D344446342D343946362D394244322D3234314243333846323333332F617474726962757465732E62696E504B0304140006080800CC70623B08DA0BD19000000041010000360000006662782F36394639363044362D344446342D343946362D394244322D
310
3234314243333846323333332F6469726563746F72792E786D6C858F410AC3201045AF22B36F53E9A60B35CBEEBAE80D244E44489C6234F4F835464A48035D0DF398FF9F8AF63D0E6CC63039F212F8F9020C7D47C6792B21C5FE7403D62A1188E2E60C98D7234A5830286103A55745067B9D86B8A3CF9C7F90C11DE607FB14
310
4396D7B6A82D282E9A152AD114D5EF2CB866EEE831B8EEA07A7BB5A8D7D61A2BAAEB7FD5F70921FF497D00504B0304140006080800CC70623BCA768048FE000000A00100003B0000006662782F36394639363044362D344446342D343946362D394244322D3234314243333846323333332F7265736F75726365732F636F72
310
652E786D6C8D50596E833010BD0A9ADFCA60D600328E9AA639412F609909B1126CE4A5EAF16B0295DABFFECC8CDEA2797AECF8353F924FB44E193D409E5248504B332A3D0D10FC95B4901C39B3C6F85F3248B49871801506CE266BC2B243D2688FDA47549B11775038871E12F988C7004EDE7016A9083E2ADC3D5D84BC8B09
310
D33C8D74D471E6BC8D0192EDC93A815B742658898E651BCB59086ADC356A8C3FD555A1055ED7E7E254D615792D0F075295F585746FF53B694EE78A565DD736979A65AB9933AFE69F8CD2A2F038022F28ED489E135A7CE4554F9BBEA85E68DB53CAB255FEC71496F19FA6A0B42F8B3DEE6673C0F318E4497096AD7DC5F52C33
310
EEB55BFE0D504B010214000A0000080000CC70623B3DEE336E79000000790000001B00000000000000000000000000000000006175746F6465736B2D64657369676E2D7061636B6167652E786D6C504B01021400140006080800CC70623BD486FD9CA0000000F40000001300000000000000000000000000B20000005B436F
310
6E74656E745F54797065735D2E786D6C504B01021400140006080800CC70623BD9DDAED0EC0000007C010000080000000000000000000000000083010000636F72652E786D6C504B01021400140006080800CC70623B55019EA25F0000007C000000070000000000000000000000000095020000636E782E786D6C504B0102
310
1400140006080800CC70623BA24EB22D72010000D40300000C00000000000000000000000000190300006662782F636F72652E786D6C504B01021400140006080800CC70623B408A7D3B7C0000009D0000000B00000000000000000000000000B50400006662782F636E782E786D6C504B01021400140006080800CC70623B
310
449FB9BD290100001202000031000000000000000000000000005A0500006662782F36394639363044362D344446342D343946362D394244322D3234314243333846323333332F636F72652E786D6C504B01021400140006080800CC70623BAD7543B64E010000330300003000000000000000000000000000D20600006662
310
782F36394639363044362D344446342D343946362D394244322D3234314243333846323333332F636E782E786D6C504B01021400140006080800CC70623B8D05915C650500003B10000034000000000000000000000000006E0800006662782F36394639363044362D344446342D343946362D394244322D32343142433338
310
46323333332F6F626A656374732E786D6C504B01021400140006080000CC70623B0000000000000000000000003500000000000000000000000000250E00006662782F36394639363044362D344446342D343946362D394244322D3234314243333846323333332F76657274696365732E62696E504B010214001400060808
310
00CC70623BF270F13306000000040000003600000000000000000000000000780E00006662782F36394639363044362D344446342D343946362D394244322D3234314243333846323333332F747269616E676C65732E62696E504B01021400140006080000CC70623B00000000000000000000000037000000000000000000
310
00000000D20E00006662782F36394639363044362D344446342D343946362D394244322D3234314243333846323333332F617474726962757465732E62696E504B01021400140006080800CC70623B08DA0BD190000000410100003600000000000000000000000000270F00006662782F36394639363044362D344446342D
310
343946362D394244322D3234314243333846323333332F6469726563746F72792E786D6C504B01021400140006080800CC70623BCA768048FE000000A00100003B000000000000000000000000000B1000006662782F36394639363044362D344446342D343946362D394244322D3234314243333846323333332F7265736F
310
75726365732F636F72652E786D6C504B0506000000000E000E0080040000621100000000
  0
XRECORD
  5
10
102
{ACAD_REACTORS
330
C
102
}
330
C
100
AcDbXrecord
280
     1
270
     1
271
     1
  0
XRECORD
  5
11
102
{ACAD_REACTORS
330
C
102
}
330
C
100
AcDbXrecord
280
     1
270
     1
271
     1
  0
CELLSTYLEMAP
  5
227
102
{ACAD_REACTORS
330
44
102
}
330
44
100
AcDbCellStyleMap
 90
        3
300
CELLSTYLE
  1
TABLEFORMAT_BEGIN
 90
        5
170
     1
 91
        0
 92
    32768
 62
   257
 93
        1
300
CONTENTFORMAT
  1
CONTENTFORMAT_BEGIN
 90
        0
 91
        0
 92
      512
 93
        0
300

 40
0.0
140
1.0
 94
        5
 62
     0
340
21
144
6.0
309
CONTENTFORMAT_END
171
     1
301
MARGIN
  1
CELLMARGIN_BEGIN
 40
1.5
 40
1.5
 40
1.5
 40
1.5
 40
4.5
 40
4.5
309
CELLMARGIN_END
 94
        6
 95
        1
302
GRIDFORMAT
  1
GRIDFORMAT_BEGIN
 90
        0
 91
        1
 62
     0
 92
       -2
340
24
 93
        0
 40
1.125
309
GRIDFORMAT_END
 95
        2
302
GRIDFORMAT
  1
GRIDFORMAT_BEGIN
 90
        0
 91
        1
 62
     0
 92
       -2
340
24
 93
        0
 40
1.125
309
GRIDFORMAT_END
 95
        4
302
GRIDFORMAT
  1
GRIDFORMAT_BEGIN
 90
        0
 91
        1
 62
     0
 92
       -2
340
24
 93
        0
 40
1.125
309
GRIDFORMAT_END
 95
        8
302
GRIDFORMAT
  1
GRIDFORMAT_BEGIN
 90
        0
 91
        1
 62
     0
 92
       -2
340
24
 93
        0
 40
1.125
309
GRIDFORMAT_END
 95
       16
302
GRIDFORMAT
  1
GRIDFORMAT_BEGIN
 90
        0
 91
        1
 62
     0
 92
       -2
340
24
 93
        0
 40
1.125
309
GRIDFORMAT_END
 95
       32
302
GRIDFORMAT
  1
GRIDFORMAT_BEGIN
 90
        0
 91
        1
 62
     0
 92
       -2
340
24
 93
        0
 40
1.125
309
GRIDFORMAT_END
309
TABLEFORMAT_END
  1
CELLSTYLE_BEGIN
 90
        1
 91
        1
300
_TITLE
309
CELLSTYLE_END
300
CELLSTYLE
  1
TABLEFORMAT_BEGIN
 90
        5
170
     1
 91
        0
 92
        0
 62
   257
 93
        1
300
CONTENTFORMAT
  1
CONTENTFORMAT_BEGIN
 90
        0
 91
        0
 92
      512
 93
        0
300

 40
0.0
140
1.0
 94
        5
 62
     0
340
21
144
4.5
309
CONTENTFORMAT_END
171
     1
301
MARGIN
  1
CELLMARGIN_BEGIN
 40
1.5
 40
1.5
 40
1.5
 40
1.5
 40
4.5
 40
4.5
309
CELLMARGIN_END
 94
        6
 95
        1
302
GRIDFORMAT
  1
GRIDFORMAT_BEGIN
 90
        0
 91
        1
 62
     0
 92
       -2
340
24
 93
        0
 40
1.125
309
GRIDFORMAT_END
 95
        2
302
GRIDFORMAT
  1
GRIDFORMAT_BEGIN
 90
        0
 91
        1
 62
     0
 92
       -2
340
24
 93
        0
 40
1.125
309
GRIDFORMAT_END
 95
        4
302
GRIDFORMAT
  1
GRIDFORMAT_BEGIN
 90
        0
 91
        1
 62
     0
 92
       -2
340
24
 93
        0
 40
1.125
309
GRIDFORMAT_END
 95
        8
302
GRIDFORMAT
  1
GRIDFORMAT_BEGIN
 90
        0
 91
        1
 62
     0
 92
       -2
340
24
 93
        0
 40
1.125
309
GRIDFORMAT_END
 95
       16
302
GRIDFORMAT
  1
GRIDFORMAT_BEGIN
 90
        0
 91
        1
 62
     0
 92
       -2
340
24
 93
        0
 40
1.125
309
GRIDFORMAT_END
 95
       32
302
GRIDFORMAT
  1
GRIDFORMAT_BEGIN
 90
        0
 91
        1
 62
     0
 92
       -2
340
24
 93
        0
 40
1.125
309
GRIDFORMAT_END
309
TABLEFORMAT_END
  1
CELLSTYLE_BEGIN
 90
        2
 91
        1
300
_HEADER
309
CELLSTYLE_END
300
CELLSTYLE
  1
TABLEFORMAT_BEGIN
 90
        5
170
     1
 91
        0
 92
        0
 62
   257
 93
        1
300
CONTENTFORMAT
  1
CONTENTFORMAT_BEGIN
 90
        0
 91
        0
 92
      512
 93
        0
300

 40
0.0
140
1.0
 94
        2
 62
     0
340
21
144
4.5
309
CONTENTFORMAT_END
171
     1
301
MARGIN
  1
CELLMARGIN_BEGIN
 40
1.5
 40
1.5
 40
1.5
 40
1.5
 40
4.5
 40
4.5
309
CELLMARGIN_END
 94
        6
 95
        1
302
GRIDFORMAT
  1
GRIDFORMAT_BEGIN
 90
        0
 91
        1
 62
     0
 92
       -2
340
24
 93
        0
 40
1.125
309
GRIDFORMAT_END
 95
        2
302
GRIDFORMAT
  1
GRIDFORMAT_BEGIN
 90
        0
 91
        1
 62
     0
 92
       -2
340
24
 93
        0
 40
1.125
309
GRIDFORMAT_END
 95
        4
302
GRIDFORMAT
  1
GRIDFORMAT_BEGIN
 90
        0
 91
        1
 62
     0
 92
       -2
340
24
 93
        0
 40
1.125
309
GRIDFORMAT_END
 95
        8
302
GRIDFORMAT
  1
GRIDFORMAT_BEGIN
 90
        0
 91
        1
 62
     0
 92
       -2
340
24
 93
        0
 40
1.125
309
GRIDFORMAT_END
 95
       16
302
GRIDFORMAT
  1
GRIDFORMAT_BEGIN
 90
        0
 91
        1
 62
     0
 92
       -2
340
24
 93
        0
 40
1.125
309
GRIDFORMAT_END
 95
       32
302
GRIDFORMAT
  1
GRIDFORMAT_BEGIN
 90
        0
 91
        1
 62
     0
 92
       -2
340
24
 93
        0
 40
1.125
309
GRIDFORMAT_END
309
TABLEFORMAT_END
  1
CELLSTYLE_BEGIN
 90
        3
 91
        2
300
_DATA
309
CELLSTYLE_END
  0
XRECORD
  5
236
102
{ACAD_REACTORS
330
44
102
}
330
44
100
AcDbXrecord
280
     1
102
ACAD_ROUNDTRIP_PRE2007_TABLESTYLE
 90
      512
 91
        0
  1

 92
      512
 93
        0
  2

 94
      512
 95
        0
  3

  0
XRECORD
  5
233
102
{ACAD_REACTORS
330
232
102
}
330
232
100
AcDbXrecord
280
     1
102
RTVSPost2010Prop28
280
     1
102
RTVSPost2010PropOp28
 70
     1
102
RTVSPost2010Prop29
280
     1
102
RTVSPost2010PropOp29
 70
     1
102
RTVSPost2010Prop30
280
     0
102
RTVSPost2010PropOp30
 70
     1
102
RTVSPost2010Prop31
280
     0
102
RTVSPost2010PropOp31
 70
     1
102
RTVSPost2010Prop32
280
     0
102
RTVSPost2010PropOp32
 70
     1
102
RTVSPost2010Prop33
280
     0
102
RTVSPost2010PropOp33
 70
     1
102
RTVSPost2010Prop34
280
     0
102
RTVSPost2010PropOp34
 70
     1
102
RTVSPost2010Prop35
280
     0
102
RTVSPost2010PropOp35
 70
     1
102
RTVSPost2010Prop36
280
     0
102
RTVSPost2010PropOp36
 70
     1
102
RTVSPost2010Prop37
 90
       50
102
RTVSPost2010PropOp37
 70
     1
102
RTVSPost2010Prop38
140
0.0
102
RTVSPost2010PropOp38
 70
     1
102
RTVSPost2010Prop39
140
1.0
102
RTVSPost2010PropOp39
 70
     1
102
RTVSPost2010Prop40
 90
        0
102
RTVSPost2010PropOp40
 70
     1
102
RTVSPost2010Prop41ColorIndex
 90
       18
102
RTVSPost2010Prop41ColorRGB
 90
        0
102
RTVSPost2010PropOp41
 70
     1
102
RTVSPost2010Prop42
 90
       50
102
RTVSPost2010PropOp42
 70
     1
102
RTVSPost2010Prop43
 90
        3
102
RTVSPost2010PropOp43
 70
     1
102
RTVSPost2010Prop44ColorIndex
 90
        5
102
RTVSPost2010Prop44ColorRGB
 90
      255
102
RTVSPost2010PropOp44
 70
     1
102
RTVSPost2010Prop45
280
     0
102
RTVSPost2010PropOp45
 70
     1
102
RTVSPost2010Prop46
 90
       50
102
RTVSPost2010PropOp46
 70
     1
102
RTVSPost2010Prop47
 90
       50
102
RTVSPost2010PropOp47
 70
     1
102
RTVSPost2010Prop48
 90
       50
102
RTVSPost2010PropOp48
 70
     1
102
RTVSPost2010Prop49
280
     0
102
RTVSPost2010PropOp49
 70
     1
102
RTVSPost2010Prop50
 90
       50
102
RTVSPost2010PropOp50
 70
     1
102
RTVSPost2010Prop51ColorIndex
 90
      256
102
RTVSPost2010Prop51ColorRGB
 90
-16777216
102
RTVSPost2010PropOp51
 70
     0
102
RTVSPost2010Prop52
140
1.0
102
RTVSPost2010PropOp52
 70
     0
102
RTVSPost2010Prop53
 90
        2
102
RTVSPost2010PropOp53
 70
     1
102
RTVSPost2010Prop54
  1
strokes_ogs.tif
102
RTVSPost2010PropOp54
 70
     1
102
RTVSPost2010Prop55
280
     0
102
RTVSPost2010PropOp55
 70
     1
102
RTVSPost2010Prop56
140
1.0
102
RTVSPost2010PropOp56
 70
     1
102
RTVSPost2010Prop57
140
1.0
102
RTVSPost2010PropOp57
 70
     1
102
RTVSPropertyOp0
 70
     1
102
RTVSPropertyOp1
 70
     1
102
RTVSPropertyOp2
 70
     1
102
RTVSPropertyOp3
 70
     1
102
RTVSPropertyOp4
 70
     1
102
RTVSPropertyOp5
 70
     1
102
RTVSPropertyOp6
 70
     1
102
RTVSPropertyOp7
 70
     1
102
RTVSPropertyOp8
 70
     1
102
RTVSPropertyOp9
 70
     1
102
RTVSPropertyOp10
 70
     1
102
RTVSPropertyOp11
 70
     1
102
RTVSPropertyOp12
 70
     1
102
RTVSPropertyOp13
 70
     1
102
RTVSPropertyOp14
 70
     1
102
RTVSPropertyOp15
 70
     1
102
RTVSPropertyOp16
 70
     1
102
RTVSPropertyOp17
 70
     1
102
RTVSPropertyOp18
 70
     1
102
RTVSPropertyOp19
 70
     1
102
RTVSPropertyOp20
 70
     1
102
RTVSPropertyOp21
 70
     1
102
RTVSPropertyOp22
 70
     1
102
RTVSPropertyOp23
 70
     1
102
RTVSPropertyOp24
 70
     1
102
RTVSPropertyOp25
 70
     1
102
RTVSPropertyOp26
 70
     1
102
RTVSPropertyOp27
 70
     1
102
RTVSPropertyOp28
 70
     1
102
RTVSPropertyOp29
 70
     1
102
RTVSPropertyOp30
 70
     1
102
RTVSPropertyOp31
 70
     1
102
RTVSPropertyOp32
 70
     1
102
RTVSPropertyOp33
 70
     1
102
RTVSPropertyOp34
 70
     1
102
RTVSPropertyOp35
 70
     1
102
RTVSPropertyOp36
 70
     1
102
RTVSPropertyOp37
 70
     1
102
RTVSPropertyOp38
 70
     1
102
RTVSPropertyOp39
 70
     1
102
RTVSPropertyOp40
 70
     1
102
RTVSPropertyOp41
 70
     1
102
RTVSPropertyOp42
 70
     1
102
RTVSPropertyOp43
 70
     1
102
RTVSPropertyOp44
 70
     1
102
RTVSPropertyOp45
 70
     1
102
RTVSPropertyOp46
 70
     1
102
RTVSPropertyOp47
 70
     1
102
RTVSPropertyOp48
 70
     1
102
RTVSPropertyOp49
 70
     1
102
RTVSPropertyOp50
 70
     1
102
RTVSPropertyOp51
 70
     0
102
RTVSPropertyOp52
 70
     0
102
RTVSPropertyOp53
 70
     1
102
RTVSPropertyOp54
 70
     1
102
RTVSPropertyOp55
 70
     1
102
RTVSPropertyOp56
 70
     1
102
RTVSPropertyOp57
 70
     1
102
RTVSPropertyOp58
 70
     1
102
RTVSPropertyOp59
 70
     1
102
RTVSPropertyOp60
 70
     1
102
RTVSPropertyOp61
 70
     1
102
RTVSPropertyOp62
 70
     1
  0
XRECORD
  5
238
102
{ACAD_REACTORS
330
237
102
}
330
237
100
AcDbXrecord
280
     1
102
RTVSPost2010Prop28
280
     0
102
RTVSPost2010PropOp28
 70
     1
102
RTVSPost2010Prop29
280
     1
102
RTVSPost2010PropOp29
 70
     1
102
RTVSPost2010Prop30
280
     1
102
RTVSPost2010PropOp30
 70
     1
102
RTVSPost2010Prop31
280
     0
102
RTVSPost2010PropOp31
 70
     1
102
RTVSPost2010Prop32
280
     0
102
RTVSPost2010PropOp32
 70
     1
102
RTVSPost2010Prop33
280
     0
102
RTVSPost2010PropOp33
 70
     1
102
RTVSPost2010Prop34
280
     0
102
RTVSPost2010PropOp34
 70
     1
102
RTVSPost2010Prop35
280
     0
102
RTVSPost2010PropOp35
 70
     1
102
RTVSPost2010Prop36
280
     0
102
RTVSPost2010PropOp36
 70
     1
102
RTVSPost2010Prop37
 90
       50
102
RTVSPost2010PropOp37
 70
     1
102
RTVSPost2010Prop38
140
0.0
102
RTVSPost2010PropOp38
 70
     1
102
RTVSPost2010Prop39
140
1.0
102
RTVSPost2010PropOp39
 70
     1
102
RTVSPost2010Prop40
 90
        0
102
RTVSPost2010PropOp40
 70
     1
102
RTVSPost2010Prop41ColorIndex
 90
       18
102
RTVSPost2010Prop41ColorRGB
 90
        0
102
RTVSPost2010PropOp41
 70
     1
102
RTVSPost2010Prop42
 90
       50
102
RTVSPost2010PropOp42
 70
     1
102
RTVSPost2010Prop43
 90
        3
102
RTVSPost2010PropOp43
 70
     1
102
RTVSPost2010Prop44ColorIndex
 90
        5
102
RTVSPost2010Prop44ColorRGB
 90
      255
102
RTVSPost2010PropOp44
 70
     1
102
RTVSPost2010Prop45
280
     0
102
RTVSPost2010PropOp45
 70
     1
102
RTVSPost2010Prop46
 90
       50
102
RTVSPost2010PropOp46
 70
     1
102
RTVSPost2010Prop47
 90
       50
102
RTVSPost2010PropOp47
 70
     1
102
RTVSPost2010Prop48
 90
       50
102
RTVSPost2010PropOp48
 70
     1
102
RTVSPost2010Prop49
280
     0
102
RTVSPost2010PropOp49
 70
     1
102
RTVSPost2010Prop50
 90
       50
102
RTVSPost2010PropOp50
 70
     1
102
RTVSPost2010Prop51ColorIndex
 90
      256
102
RTVSPost2010Prop51ColorRGB
 90
-16777216
102
RTVSPost2010PropOp51
 70
     0
102
RTVSPost2010Prop52
140
1.0
102
RTVSPost2010PropOp52
 70
     0
102
RTVSPost2010Prop53
 90
        2
102
RTVSPost2010PropOp53
 70
     1
102
RTVSPost2010Prop54
  1
strokes_ogs.tif
102
RTVSPost2010PropOp54
 70
     1
102
RTVSPost2010Prop55
280
     0
102
RTVSPost2010PropOp55
 70
     1
102
RTVSPost2010Prop56
140
1.0
102
RTVSPost2010PropOp56
 70
     1
102
RTVSPost2010Prop57
140
1.0
102
RTVSPost2010PropOp57
 70
     1
102
RTVSPropertyOp0
 70
     1
102
RTVSPropertyOp1
 70
     1
102
RTVSPropertyOp2
 70
     1
102
RTVSPropertyOp3
 70
     1
102
RTVSPropertyOp4
 70
     1
102
RTVSPropertyOp5
 70
     1
102
RTVSPropertyOp6
 70
     1
102
RTVSPropertyOp7
 70
     1
102
RTVSPropertyOp8
 70
     1
102
RTVSPropertyOp9
 70
     1
102
RTVSPropertyOp10
 70
     1
102
RTVSPropertyOp11
 70
     1
102
RTVSPropertyOp12
 70
     1
102
RTVSPropertyOp13
 70
     1
102
RTVSPropertyOp14
 70
     1
102
RTVSPropertyOp15
 70
     1
102
RTVSPropertyOp16
 70
     1
102
RTVSPropertyOp17
 70
     1
102
RTVSPropertyOp18
 70
     1
102
RTVSPropertyOp19
 70
     1
102
RTVSPropertyOp20
 70
     1
102
RTVSPropertyOp21
 70
     1
102
RTVSPropertyOp22
 70
     1
102
RTVSPropertyOp23
 70
     1
102
RTVSPropertyOp24
 70
     1
102
RTVSPropertyOp25
 70
     1
102
RTVSPropertyOp26
 70
     1
102
RTVSPropertyOp27
 70
     1
102
RTVSPropertyOp28
 70
     1
102
RTVSPropertyOp29
 70
     1
102
RTVSPropertyOp30
 70
     1
102
RTVSPropertyOp31
 70
     1
102
RTVSPropertyOp32
 70
     1
102
RTVSPropertyOp33
 70
     1
102
RTVSPropertyOp34
 70
     1
102
RTVSPropertyOp35
 70
     1
102
RTVSPropertyOp36
 70
     1
102
RTVSPropertyOp37
 70
     1
102
RTVSPropertyOp38
 70
     1
102
RTVSPropertyOp39
 70
     1
102
RTVSPropertyOp40
 70
     1
102
RTVSPropertyOp41
 70
     1
102
RTVSPropertyOp42
 70
     1
102
RTVSPropertyOp43
 70
     1
102
RTVSPropertyOp44
 70
     1
102
RTVSPropertyOp45
 70
     1
102
RTVSPropertyOp46
 70
     1
102
RTVSPropertyOp47
 70
     1
102
RTVSPropertyOp48
 70
     1
102
RTVSPropertyOp49
 70
     1
102
RTVSPropertyOp50
 70
     1
102
RTVSPropertyOp51
 70
     0
102
RTVSPropertyOp52
 70
     0
102
RTVSPropertyOp53
 70
     1
102
RTVSPropertyOp54
 70
     1
102
RTVSPropertyOp55
 70
     1
102
RTVSPropertyOp56
 70
     1
102
RTVSPropertyOp57
 70
     1
102
RTVSPropertyOp58
 70
     1
102
RTVSPropertyOp59
 70
     1
102
RTVSPropertyOp60
 70
     1
102
RTVSPropertyOp61
 70
     1
102
RTVSPropertyOp62
 70
     1
  0
XRECORD
  5
23A
102
{ACAD_REACTORS
330
239
102
}
330
239
100
AcDbXrecord
280
     1
102
RTVSPost2010Prop28
280
     0
102
RTVSPost2010PropOp28
 70
     1
102
RTVSPost2010Prop29
280
     1
102
RTVSPost2010PropOp29
 70
     1
102
RTVSPost2010Prop30
280
     1
102
RTVSPost2010PropOp30
 70
     1
102
RTVSPost2010Prop31
280
     0
102
RTVSPost2010PropOp31
 70
     1
102
RTVSPost2010Prop32
280
     0
102
RTVSPost2010PropOp32
 70
     1
102
RTVSPost2010Prop33
280
     0
102
RTVSPost2010PropOp33
 70
     1
102
RTVSPost2010Prop34
280
     0
102
RTVSPost2010PropOp34
 70
     1
102
RTVSPost2010Prop35
280
     0
102
RTVSPost2010PropOp35
 70
     1
102
RTVSPost2010Prop36
280
     0
102
RTVSPost2010PropOp36
 70
     1
102
RTVSPost2010Prop37
 90
       50
102
RTVSPost2010PropOp37
 70
     1
102
RTVSPost2010Prop38
140
0.0
102
RTVSPost2010PropOp38
 70
     1
102
RTVSPost2010Prop39
140
1.0
102
RTVSPost2010PropOp39
 70
     1
102
RTVSPost2010Prop40
 90
        0
102
RTVSPost2010PropOp40
 70
     1
102
RTVSPost2010Prop41ColorIndex
 90
       18
102
RTVSPost2010Prop41ColorRGB
 90
        0
102
RTVSPost2010PropOp41
 70
     1
102
RTVSPost2010Prop42
 90
       50
102
RTVSPost2010PropOp42
 70
     1
102
RTVSPost2010Prop43
 90
        3
102
RTVSPost2010PropOp43
 70
     1
102
RTVSPost2010Prop44ColorIndex
 90
        5
102
RTVSPost2010Prop44ColorRGB
 90
      255
102
RTVSPost2010PropOp44
 70
     1
102
RTVSPost2010Prop45
280
     0
102
RTVSPost2010PropOp45
 70
     1
102
RTVSPost2010Prop46
 90
       50
102
RTVSPost2010PropOp46
 70
     1
102
RTVSPost2010Prop47
 90
       50
102
RTVSPost2010PropOp47
 70
     1
102
RTVSPost2010Prop48
 90
       50
102
RTVSPost2010PropOp48
 70
     1
102
RTVSPost2010Prop49
280
     0
102
RTVSPost2010PropOp49
 70
     1
102
RTVSPost2010Prop50
 90
       50
102
RTVSPost2010PropOp50
 70
     1
102
RTVSPost2010Prop51ColorIndex
 90
      256
102
RTVSPost2010Prop51ColorRGB
 90
-16777216
102
RTVSPost2010PropOp51
 70
     0
102
RTVSPost2010Prop52
140
1.0
102
RTVSPost2010PropOp52
 70
     0
102
RTVSPost2010Prop53
 90
        2
102
RTVSPost2010PropOp53
 70
     1
102
RTVSPost2010Prop54
  1
strokes_ogs.tif
102
RTVSPost2010PropOp54
 70
     1
102
RTVSPost2010Prop55
280
     0
102
RTVSPost2010PropOp55
 70
     1
102
RTVSPost2010Prop56
140
1.0
102
RTVSPost2010PropOp56
 70
     1
102
RTVSPost2010Prop57
140
1.0
102
RTVSPost2010PropOp57
 70
     1
102
RTVSPropertyOp0
 70
     1
102
RTVSPropertyOp1
 70
     1
102
RTVSPropertyOp2
 70
     1
102
RTVSPropertyOp3
 70
     1
102
RTVSPropertyOp4
 70
     1
102
RTVSPropertyOp5
 70
     1
102
RTVSPropertyOp6
 70
     1
102
RTVSPropertyOp7
 70
     1
102
RTVSPropertyOp8
 70
     1
102
RTVSPropertyOp9
 70
     1
102
RTVSPropertyOp10
 70
     1
102
RTVSPropertyOp11
 70
     1
102
RTVSPropertyOp12
 70
     1
102
RTVSPropertyOp13
 70
     1
102
RTVSPropertyOp14
 70
     1
102
RTVSPropertyOp15
 70
     1
102
RTVSPropertyOp16
 70
     1
102
RTVSPropertyOp17
 70
     1
102
RTVSPropertyOp18
 70
     1
102
RTVSPropertyOp19
 70
     1
102
RTVSPropertyOp20
 70
     1
102
RTVSPropertyOp21
 70
     1
102
RTVSPropertyOp22
 70
     1
102
RTVSPropertyOp23
 70
     1
102
RTVSPropertyOp24
 70
     1
102
RTVSPropertyOp25
 70
     1
102
RTVSPropertyOp26
 70
     1
102
RTVSPropertyOp27
 70
     1
102
RTVSPropertyOp28
 70
     1
102
RTVSPropertyOp29
 70
     1
102
RTVSPropertyOp30
 70
     1
102
RTVSPropertyOp31
 70
     1
102
RTVSPropertyOp32
 70
     1
102
RTVSPropertyOp33
 70
     1
102
RTVSPropertyOp34
 70
     1
102
RTVSPropertyOp35
 70
     1
102
RTVSPropertyOp36
 70
     1
102
RTVSPropertyOp37
 70
     1
102
RTVSPropertyOp38
 70
     1
102
RTVSPropertyOp39
 70
     1
102
RTVSPropertyOp40
 70
     1
102
RTVSPropertyOp41
 70
     1
102
RTVSPropertyOp42
 70
     1
102
RTVSPropertyOp43
 70
     1
102
RTVSPropertyOp44
 70
     1
102
RTVSPropertyOp45
 70
     1
102
RTVSPropertyOp46
 70
     1
102
RTVSPropertyOp47
 70
     1
102
RTVSPropertyOp48
 70
     1
102
RTVSPropertyOp49
 70
     1
102
RTVSPropertyOp50
 70
     1
102
RTVSPropertyOp51
 70
     0
102
RTVSPropertyOp52
 70
     0
102
RTVSPropertyOp53
 70
     1
102
RTVSPropertyOp54
 70
     1
102
RTVSPropertyOp55
 70
     1
102
RTVSPropertyOp56
 70
     1
102
RTVSPropertyOp57
 70
     1
102
RTVSPropertyOp58
 70
     1
102
RTVSPropertyOp59
 70
     1
102
RTVSPropertyOp60
 70
     1
102
RTVSPropertyOp61
 70
     1
102
RTVSPropertyOp62
 70
     1
  0
ENDSEC
  0
EOF
