  0
SECTION
  2
HEADER
  9
$ACADVER
  1
AC1018
  9
$ACADMAINTVER
 70
   104
  9
$DWGCODEPAGE
  3
ANSI_932
  9
$INSBASE
 10
0.0
 20
0.0
 30
0.0
  9
$EXTMIN
 10
1.810476043646175
 20
1.132236985773459
 30
-0.0000000349181948
  9
$EXTMAX
 10
51.81334762103957
 20
30.5245956528113
 30
0.0000000814935747
  9
$LIMMIN
 10
-3.713617128249096
 20
-6.83954753508442
  9
$LIMMAX
 10
54.32212523089219
 20
36.50558339802774
  9
$ORTHOMODE
 70
     0
  9
$REGENMODE
 70
     1
  9
$FILLMODE
 70
     1
  9
$QTEXTMODE
 70
     0
  9
$MIRRTEXT
 70
     0
  9
$LTSCALE
 40
1.0
  9
$ATTMODE
 70
     1
  9
$TEXTSIZE
 40
2.5
  9
$TRACEWID
 40
1.0
  9
$TEXTSTYLE
  7
Standard
  9
$CLAYER
  8
0
  9
$CELTYPE
  6
ByLayer
  9
$CECOLOR
 62
   256
  9
$CELTSCALE
 40
1.0
  9
$DISPSILH
 70
     0
  9
$DIMSCALE
 40
1.0
  9
$DIMASZ
 40
2.5
  9
$DIMEXO
 40
0.625
  9
$DIMDLI
 40
3.75
  9
$DIMRND
 40
0.0
  9
$DIMDLE
 40
0.0
  9
$DIMEXE
 40
1.25
  9
$DIMTP
 40
0.0
  9
$DIMTM
 40
0.0
  9
$DIMTXT
 40
2.5
  9
$DIMCEN
 40
2.5
  9
$DIMTSZ
 40
0.0
  9
$DIMTOL
 70
     0
  9
$DIMLIM
 70
     0
  9
$DIMTIH
 70
     0
  9
$DIMTOH
 70
     0
  9
$DIMSE1
 70
     0
  9
$DIMSE2
 70
     0
  9
$DIMTAD
 70
     1
  9
$DIMZIN
 70
     8
  9
$DIMBLK
  1

  9
$DIMASO
 70
     1
  9
$DIMSHO
 70
     1
  9
$DIMPOST
  1

  9
$DIMAPOST
  1

  9
$DIMALT
 70
     0
  9
$DIMALTD
 70
     3
  9
$DIMALTF
 40
0.03937007874016
  9
$DIMLFAC
 40
1.0
  9
$DIMTOFL
 70
     1
  9
$DIMTVP
 40
0.0
  9
$DIMTIX
 70
     0
  9
$DIMSOXD
 70
     0
  9
$DIMSAH
 70
     0
  9
$DIMBLK1
  1

  9
$DIMBLK2
  1

  9
$DIMSTYLE
  2
ISO-25
  9
$DIMCLRD
 70
     0
  9
$DIMCLRE
 70
     0
  9
$DIMCLRT
 70
     0
  9
$DIMTFAC
 40
1.0
  9
$DIMGAP
 40
0.625
  9
$DIMJUST
 70
     0
  9
$DIMSD1
 70
     0
  9
$DIMSD2
 70
     0
  9
$DIMTOLJ
 70
     0
  9
$DIMTZIN
 70
     8
  9
$DIMALTZ
 70
     0
  9
$DIMALTTZ
 70
     0
  9
$DIMUPT
 70
     0
  9
$DIMDEC
 70
     2
  9
$DIMTDEC
 70
     2
  9
$DIMALTU
 70
     2
  9
$DIMALTTD
 70
     3
  9
$DIMTXSTY
  7
Standard
  9
$DIMAUNIT
 70
     0
  9
$DIMADEC
 70
     0
  9
$DIMALTRND
 40
0.0
  9
$DIMAZIN
 70
     0
  9
$DIMDSEP
 70
    44
  9
$DIMATFIT
 70
     3
  9
$DIMFRAC
 70
     0
  9
$DIMLDRBLK
  1

  9
$DIMLUNIT
 70
     2
  9
$DIMLWD
 70
    -2
  9
$DIMLWE
 70
    -2
  9
$DIMTMOVE
 70
     0
  9
$LUNITS
 70
     2
  9
$LUPREC
 70
     4
  9
$SKETCHINC
 40
1.0
  9
$FILLETRAD
 40
0.0
  9
$AUNITS
 70
     0
  9
$AUPREC
 70
     0
  9
$MENU
  1
.
  9
$ELEVATION
 40
0.0
  9
$PELEVATION
 40
0.0
  9
$THICKNESS
 40
0.0
  9
$LIMCHECK
 70
     0
  9
$CHAMFERA
 40
0.0
  9
$CHAMFERB
 40
0.0
  9
$CHAMFERC
 40
0.0
  9
$CHAMFERD
 40
0.0
  9
$SKPOLY
 70
     0
  9
$TDCREATE
 40
2458227.430127315
  9
$TDUCREATE
 40
2458227.096793982
  9
$TDUPDATE
 40
2458227.438738426
  9
$TDUUPDATE
 40
2458227.105405093
  9
$TDINDWG
 40
0.0036226852
  9
$TDUSRTIMER
 40
0.0036226852
  9
$USRTIMER
 70
     1
  9
$ANGBASE
 50
0.0
  9
$ANGDIR
 70
     0
  9
$PDMODE
 70
     0
  9
$PDSIZE
 40
0.0
  9
$PLINEWID
 40
0.0
  9
$SPLFRAME
 70
     0
  9
$SPLINETYPE
 70
     6
  9
$SPLINESEGS
 70
     8
  9
$HANDSEED
  5
22F
  9
$SURFTAB1
 70
     6
  9
$SURFTAB2
 70
     6
  9
$SURFTYPE
 70
     6
  9
$SURFU
 70
     6
  9
$SURFV
 70
     6
  9
$UCSBASE
  2

  9
$UCSNAME
  2

  9
$UCSORG
 10
0.0
 20
0.0
 30
0.0
  9
$UCSXDIR
 10
1.0
 20
0.0
 30
0.0
  9
$UCSYDIR
 10
0.0
 20
1.0
 30
0.0
  9
$UCSORTHOREF
  2

  9
$UCSORTHOVIEW
 70
     0
  9
$UCSORGTOP
 10
0.0
 20
0.0
 30
0.0
  9
$UCSORGBOTTOM
 10
0.0
 20
0.0
 30
0.0
  9
$UCSORGLEFT
 10
0.0
 20
0.0
 30
0.0
  9
$UCSORGRIGHT
 10
0.0
 20
0.0
 30
0.0
  9
$UCSORGFRONT
 10
0.0
 20
0.0
 30
0.0
  9
$UCSORGBACK
 10
0.0
 20
0.0
 30
0.0
  9
$PUCSBASE
  2

  9
$PUCSNAME
  2

  9
$PUCSORG
 10
0.0
 20
0.0
 30
0.0
  9
$PUCSXDIR
 10
1.0
 20
0.0
 30
0.0
  9
$PUCSYDIR
 10
0.0
 20
1.0
 30
0.0
  9
$PUCSORTHOREF
  2

  9
$PUCSORTHOVIEW
 70
     0
  9
$PUCSORGTOP
 10
0.0
 20
0.0
 30
0.0
  9
$PUCSORGBOTTOM
 10
0.0
 20
0.0
 30
0.0
  9
$PUCSORGLEFT
 10
0.0
 20
0.0
 30
0.0
  9
$PUCSORGRIGHT
 10
0.0
 20
0.0
 30
0.0
  9
$PUCSORGFRONT
 10
0.0
 20
0.0
 30
0.0
  9
$PUCSORGBACK
 10
0.0
 20
0.0
 30
0.0
  9
$USERI1
 70
     0
  9
$USERI2
 70
     0
  9
$USERI3
 70
     0
  9
$USERI4
 70
     0
  9
$USERI5
 70
     0
  9
$USERR1
 40
0.0
  9
$USERR2
 40
0.0
  9
$USERR3
 40
0.0
  9
$USERR4
 40
0.0
  9
$USERR5
 40
0.0
  9
$WORLDVIEW
 70
     1
  9
$SHADEDGE
 70
     3
  9
$SHADEDIF
 70
    70
  9
$TILEMODE
 70
     1
  9
$MAXACTVP
 70
    64
  9
$PINSBASE
 10
0.0
 20
0.0
 30
0.0
  9
$PLIMCHECK
 70
     0
  9
$PEXTMIN
 10
0.0
 20
0.0
 30
0.0
  9
$PEXTMAX
 10
0.0
 20
0.0
 30
0.0
  9
$PLIMMIN
 10
0.0
 20
0.0
  9
$PLIMMAX
 10
12.0
 20
9.0
  9
$UNITMODE
 70
     0
  9
$VISRETAIN
 70
     1
  9
$PLINEGEN
 70
     0
  9
$PSLTSCALE
 70
     1
  9
$TREEDEPTH
 70
  3020
  9
$CMLSTYLE
  2
Standard
  9
$CMLJUST
 70
     0
  9
$CMLSCALE
 40
20.0
  9
$PROXYGRAPHICS
 70
     1
  9
$MEASUREMENT
 70
     1
  9
$CELWEIGHT
370
    -1
  9
$ENDCAPS
280
     0
  9
$JOINSTYLE
280
     0
  9
$LWDISPLAY
290
     0
  9
$INSUNITS
 70
     4
  9
$HYPERLINKBASE
  1

  9
$STYLESHEET
  1

  9
$XEDIT
290
     1
  9
$CEPSNTYPE
380
     0
  9
$PSTYLEMODE
290
     1
  9
$FINGERPRINTGUID
  2
{5F2B8E5E-B15A-BD4B-B499-01CF8104B3DD}
  9
$VERSIONGUID
  2
{934D7CAD-4A9C-444B-AAB9-8B87AA1C6E27}
  9
$EXTNAMES
290
     1
  9
$PSVPSCALE
 40
0.0
  9
$OLESTARTUP
290
     0
  9
$SORTENTS
280
   127
  9
$INDEXCTL
280
     0
  9
$HIDETEXT
280
     1
  9
$XCLIPFRAME
290
     0
  9
$HALOGAP
280
     0
  9
$OBSCOLOR
 70
   257
  9
$OBSLTYPE
280
     0
  9
$INTERSECTIONDISPLAY
280
     0
  9
$INTERSECTIONCOLOR
 70
   257
  9
$DIMASSOC
280
     2
  9
$PROJECTNAME
  1

  0
ENDSEC
  0
SECTION
  2
CLASSES
  0
CLASS
  1
ACDBDICTIONARYWDFLT
  2
AcDbDictionaryWithDefault
  3
ObjectDBX Classes
 90
        0
 91
        1
280
     0
281
     0
  0
CLASS
  1
DICTIONARYVAR
  2
AcDbDictionaryVar
  3
ObjectDBX Classes
 90
        0
 91
       12
280
     0
281
     0
  0
CLASS
  1
TABLESTYLE
  2
AcDbTableStyle
  3
ObjectDBX Classes
 90
     4095
 91
        1
280
     0
281
     0
  0
CLASS
  1
MATERIAL
  2
AcDbMaterial
  3
ObjectDBX Classes
 90
     1153
 91
        3
280
     0
281
     0
  0
CLASS
  1
VISUALSTYLE
  2
AcDbVisualStyle
  3
ObjectDBX Classes
 90
     4095
 91
        3
280
     0
281
     0
  0
CLASS
  1
SCALE
  2
AcDbScale
  3
ObjectDBX Classes
 90
     1153
 91
       17
280
     0
281
     0
  0
CLASS
  1
MLEADERSTYLE
  2
AcDbMLeaderStyle
  3
ACDB_MLEADERSTYLE_CLASS
 90
     4095
 91
        0
280
     0
281
     0
  0
CLASS
  1
CELLSTYLEMAP
  2
AcDbCellStyleMap
  3
ObjectDBX Classes
 90
     1152
 91
        1
280
     0
281
     0
  0
CLASS
  1
EXACXREFPANELOBJECT
  2
ExAcXREFPanelObject
  3
EXAC_ESW
 90
     1025
 91
        0
280
     1
281
     0
  0
CLASS
  1
NPOCOLLECTION
  2
AcDbImpNonPersistentObjectsCollection
  3
ObjectDBX Classes
 90
     1153
 91
        0
280
     0
281
     0
  0
CLASS
  1
LAYER_INDEX
  2
AcDbLayerIndex
  3
ObjectDBX Classes
 90
        0
 91
        0
280
     0
281
     0
  0
CLASS
  1
SPATIAL_INDEX
  2
AcDbSpatialIndex
  3
ObjectDBX Classes
 90
        0
 91
        0
280
     0
281
     0
  0
CLASS
  1
IDBUFFER
  2
AcDbIdBuffer
  3
ObjectDBX Classes
 90
        0
 91
        0
280
     0
281
     0
  0
CLASS
  1
ACDBSECTIONVIEWSTYLE
  2
AcDbSectionViewStyle
  3
ObjectDBX Classes
 90
     1025
 91
        0
280
     0
281
     0
  0
CLASS
  1
ACDBDETAILVIEWSTYLE
  2
AcDbDetailViewStyle
  3
ObjectDBX Classes
 90
     1025
 91
        0
280
     0
281
     0
  0
CLASS
  1
SORTENTSTABLE
  2
AcDbSortentsTable
  3
ObjectDBX Classes
 90
        0
 91
        2
280
     0
281
     0
  0
ENDSEC
  0
SECTION
  2
TABLES
  0
TABLE
  2
VPORT
  5
2E
330
0
100
AcDbSymbolTable
 70
     1
  0
VPORT
  5
2F
330
2E
100
AcDbSymbolTableRecord
100
AcDbViewportTableRecord
  2
*Active
 70
     0
 10
0.0
 20
0.0
 11
1.0
 21
1.0
 12
25.30425405132155
 22
14.83301793147166
 13
0.0
 23
0.0
 14
10.0
 24
10.0
 15
10.0
 25
10.0
 16
0.0
 26
0.0
 36
1.0
 17
0.0
 27
0.0
 37
0.0
 40
43.72479631354819
 41
2.326023391812865
 42
50.0
 43
0.0
 44
0.0
 50
0.0
 51
0.0
 71
     0
 72
  1000
 73
     1
 74
     3
 75
     0
 76
     1
 77
     0
 78
     2
281
     0
 65
     1
110
0.0
120
0.0
130
0.0
111
1.0
121
0.0
131
0.0
112
0.0
122
1.0
132
0.0
 79
     0
146
0.0
1001
ACAD_NAV_VCDISPLAY
1070
     3
  0
ENDTAB
  0
TABLE
  2
LTYPE
  5
29
330
0
100
AcDbSymbolTable
 70
     1
  0
LTYPE
  5
2A
330
29
100
AcDbSymbolTableRecord
100
AcDbLinetypeTableRecord
  2
ByBlock
 70
     0
  3

 72
    65
 73
     0
 40
0.0
  0
LTYPE
  5
2B
330
29
100
AcDbSymbolTableRecord
100
AcDbLinetypeTableRecord
  2
ByLayer
 70
     0
  3

 72
    65
 73
     0
 40
0.0
  0
LTYPE
  5
15
330
29
100
AcDbSymbolTableRecord
100
AcDbLinetypeTableRecord
  2
Continuous
 70
     0
  3
Solid line
 72
    65
 73
     0
 40
0.0
  0
ENDTAB
  0
TABLE
  2
LAYER
  5
23
102
{ACAD_XDICTIONARY
360
24
102
}
330
0
100
AcDbSymbolTable
 70
     1
  0
LAYER
  5
6
102
{ACAD_XDICTIONARY
360
7
102
}
330
23
100
AcDbSymbolTableRecord
100
AcDbLayerTableRecord
  2
0
 70
     0
 62
     7
  6
Continuous
370
    -3
390
8
  0
ENDTAB
  0
TABLE
  2
STYLE
  5
26
330
0
100
AcDbSymbolTable
 70
     1
  0
STYLE
  5
27
330
26
100
AcDbSymbolTableRecord
100
AcDbTextStyleTableRecord
  2
Standard
 70
     0
 40
0.0
 41
1.0
 50
0.0
 71
     0
 42
2.5
  3
arial.ttf
  4

1001
ACAD
1000
Arial
1071
       34
  0
ENDTAB
  0
TABLE
  2
VIEW
  5
2C
330
0
100
AcDbSymbolTable
 70
     0
  0
ENDTAB
  0
TABLE
  2
UCS
  5
2D
330
0
100
AcDbSymbolTable
 70
     0
  0
ENDTAB
  0
TABLE
  2
APPID
  5
33
330
0
100
AcDbSymbolTable
 70
     6
  0
APPID
  5
14
330
33
100
AcDbSymbolTableRecord
100
AcDbRegAppTableRecord
  2
ACAD
 70
     0
  0
APPID
  5
1E
330
33
100
AcDbSymbolTableRecord
100
AcDbRegAppTableRecord
  2
ACAD_PSEXT
 70
     0
  0
APPID
  5
37
330
33
100
AcDbSymbolTableRecord
100
AcDbRegAppTableRecord
  2
AcadAnnotative
 70
     0
  0
APPID
  5
38
330
33
100
AcDbSymbolTableRecord
100
AcDbRegAppTableRecord
  2
ACAD_DSTYLE_DIMJAG
 70
     0
  0
APPID
  5
39
330
33
100
AcDbSymbolTableRecord
100
AcDbRegAppTableRecord
  2
ACAD_DSTYLE_DIMTALN
 70
     0
  0
APPID
  5
32
330
33
100
AcDbSymbolTableRecord
100
AcDbRegAppTableRecord
  2
ACAD_NAV_VCDISPLAY
 70
     0
  0
ENDTAB
  0
TABLE
  2
DIMSTYLE
  5
34
330
0
100
AcDbSymbolTable
 70
     2
100
AcDbDimStyleTable
 71
     2
340
35
340
36
  0
DIMSTYLE
105
36
330
34
100
AcDbSymbolTableRecord
100
AcDbDimStyleTableRecord
  2
Annotative
 70
     0
 40
0.0
 41
2.5
 42
0.625
 43
3.75
 44
1.25
 73
     0
 74
     0
 77
     1
 78
     8
140
2.5
141
2.5
143
0.03937007874016
147
0.625
171
     3
172
     1
271
     2
272
     2
274
     3
278
    44
283
     0
284
     8
340
27
1001
AcadAnnotative
1000
AnnotativeData
1002
{
1070
     1
1070
     1
1002
}
1001
ACAD_DSTYLE_DIMJAG
1070
   388
1040
1.5
1001
ACAD_DSTYLE_DIMTALN
1070
   392
1070
     0
  0
DIMSTYLE
105
35
330
34
100
AcDbSymbolTableRecord
100
AcDbDimStyleTableRecord
  2
ISO-25
 70
     0
 41
2.5
 42
0.625
 43
3.75
 44
1.25
 73
     0
 74
     0
 77
     1
 78
     8
140
2.5
141
2.5
143
0.03937007874016
147
0.625
171
     3
172
     1
271
     2
272
     2
274
     3
278
    44
283
     0
284
     8
340
27
  0
ENDTAB
  0
TABLE
  2
BLOCK_RECORD
  5
1
330
0
100
AcDbSymbolTable
 70
     0
  0
BLOCK_RECORD
  5
2
102
{ACAD_XDICTIONARY
360
3
102
}
330
1
100
AcDbSymbolTableRecord
100
AcDbBlockTableRecord
  2
*Model_Space
340
1B
  0
BLOCK_RECORD
  5
1F
330
1
100
AcDbSymbolTableRecord
100
AcDbBlockTableRecord
  2
*Paper_Space
340
22
  0
ENDTAB
  0
ENDSEC
  0
SECTION
  2
BLOCKS
  0
BLOCK
  5
5
330
2
100
AcDbEntity
  8
0
100
AcDbBlockBegin
  2
*Model_Space
 70
     0
 10
0.0
 20
0.0
 30
0.0
  3
*Model_Space
  1

  0
ENDBLK
  5
1A
330
2
100
AcDbEntity
  8
0
100
AcDbBlockEnd
  0
BLOCK
  5
20
330
1F
100
AcDbEntity
 67
     1
  8
0
100
AcDbBlockBegin
  2
*Paper_Space
 70
     0
 10
0.0
 20
0.0
 30
0.0
  3
*Paper_Space
  1

  0
ENDBLK
  5
21
330
1F
100
AcDbEntity
 67
     1
  8
0
100
AcDbBlockEnd
  0
ENDSEC
  0
SECTION
  2
ENTITIES
  0
LINE
  5
5C
330
2
100
AcDbEntity
  8
0
100
AcDbLine
 10
27.73684238012612
 20
22.10506916517457
 30
0.0
 11
26.69053946549095
 21
21.19894426103053
 31
0.0
  0
LINE
  5
5D
330
2
100
AcDbEntity
  8
0
100
AcDbLine
 10
26.70912267818537
 20
20.87288274551811
 30
0.0
 11
26.72600528442548
 21
20.86400332502494
 31
0.0
  0
LINE
  5
5E
330
2
100
AcDbEntity
  8
0
100
AcDbLine
 10
51.76843930633683
 20
21.19894426103053
 30
0.0
 11
50.72213639170165
 21
22.10506916517457
 31
0.0
  0
LINE
  5
5F
330
2
100
AcDbEntity
  8
0
100
AcDbLine
 10
51.7329734874546
 20
20.86400332502494
 30
0.0
 11
51.74985609364238
 21
20.87288274551811
 31
0.0
  0
LINE
  5
60
330
2
100
AcDbEntity
  8
0
100
AcDbLine
 10
34.85311003040288
 20
28.43457147366789
 30
0.0
 11
34.85311003040288
 21
22.32716380846804
 31
0.0
  0
SPLINE
  5
61
330
2
100
AcDbEntity
  8
0
100
AcDbSpline
210
0.0
220
0.0
230
1.0
 70
     8
 71
     3
 72
    12
 73
     8
 74
     0
 42
0.000000001
 43
0.0000000001
 40
0.0
 40
0.0
 40
0.0
 40
0.0
 40
0.1814292812455239
 40
0.4157921650614694
 40
0.6513173281689464
 40
0.8893818971947673
 40
1.0
 40
1.0
 40
1.0
 40
1.0
 10
40.06269635847835
 20
30.4076215526603
 30
0.0
 10
40.03609052139199
 20
30.42659977755362
 30
0.0
 10
39.97190911324289
 20
30.47280817085689
 30
0.0
 10
39.85500420217249
 20
30.51271923847429
 30
0.0
 10
39.71902420706412
 20
30.52919668470037
 30
0.0
 10
39.60109924043567
 20
30.51856195969836
 30
0.0
 10
39.53072739238947
 20
30.50022145041343
 30
0.0
 10
39.50840222125061
 20
30.49440300141816
 30
0.0
  0
LINE
  5
62
330
2
100
AcDbEntity
  8
0
100
AcDbLine
 10
40.11737583176738
 20
30.36083314026357
 30
0.0
 11
40.07813947246854
 21
30.39481282417682
 31
0.0
  0
LINE
  5
63
330
2
100
AcDbEntity
  8
0
100
AcDbLine
 10
39.5084022212493
 20
30.49440300141629
 30
0.0
 11
36.98031373874179
 21
29.76460671845823
 31
0.0
  0
LINE
  5
64
330
2
100
AcDbEntity
  8
0
100
AcDbLine
 10
36.98031373874179
 20
29.76460671845823
 30
0.0
 11
35.56675888830636
 21
29.3565485817505
 31
0.0
  0
SPLINE
  5
65
330
2
100
AcDbEntity
  8
0
100
AcDbSpline
210
0.0
220
0.0
230
1.0
 70
     8
 71
     3
 72
    16
 73
    12
 74
     0
 42
0.000000001
 43
0.0000000001
 40
0.0
 40
0.0
 40
0.0
 40
0.0
 40
0.0698495378242815
 40
0.1990379081207495
 40
0.328518240316073
 40
0.4581529125746127
 40
0.5879251972799282
 40
0.7178828956211313
 40
0.8480723407691172
 40
0.9707891010511659
 40
1.0
 40
1.0
 40
1.0
 40
1.0
 10
35.5667588882948
 20
29.3565485817524
 30
0.0
 10
35.54039859721116
 20
29.34807230912119
 30
0.0
 10
35.46528432504619
 20
29.32391897001937
 30
0.0
 10
35.34420575159682
 20
29.26204795180922
 30
0.0
 10
35.21093854988666
 20
29.16534266527838
 30
0.0
 10
35.0924025772185
 20
29.04677317632314
 30
0.0
 10
34.99332349219637
 20
28.91148607317598
 30
0.0
 10
34.91760864653355
 20
28.76450268494945
 30
0.0
 10
34.86969232890505
 20
28.61455110489372
 30
0.0
 10
34.85409724855438
 20
28.50383401959457
 30
0.0
 10
34.85326923190335
 20
28.44574094111684
 30
0.0
 10
34.85311003040675
 20
28.43457147366351
 30
0.0
  0
SPLINE
  5
66
330
2
100
AcDbEntity
  8
0
100
AcDbSpline
210
0.0
220
0.0
230
1.0
 70
     8
 71
     3
 72
    13
 73
     9
 74
     0
 42
0.000000001
 43
0.0000000001
 40
0.0
 40
0.0
 40
0.0
 40
0.0
 40
0.3055623022646952
 40
0.7002751173768175
 40
1.0
 40
1.0
 40
1.0
 40
1.050022039267848
 40
1.050022039267848
 40
1.050022039267848
 40
1.050022039267848
 10
43.82512757627457
 20
28.35250888987476
 30
0.0
 10
43.80199668091607
 20
28.37136507659679
 30
0.0
 10
43.73423369917371
 20
28.41729378781316
 30
0.0
 10
43.62828342287751
 20
28.45602412996253
 30
0.0
 10
43.54837308485485
 20
28.46246030354745
 30
0.0
 10
43.51388314175074
 20
28.46523820771151
 30
0.0
 10
43.50812700541264
 20
28.46570182097565
 30
0.0
 10
43.50237086907456
 20
28.4661654342398
 30
0.0
 10
43.49661473273646
 20
28.46662904750394
 30
0.0
  0
LINE
  5
67
330
2
100
AcDbEntity
  8
0
100
AcDbLine
 10
43.87980704956357
 20
28.30572047753032
 30
0.0
 11
43.84057069026478
 21
28.33970016139126
 31
0.0
  0
SPLINE
  5
68
330
2
100
AcDbEntity
  8
0
100
AcDbSpline
210
0.0
220
0.0
230
1.0
 70
     8
 71
     3
 72
    12
 73
     8
 74
     0
 42
0.000000001
 43
0.0000000001
 40
0.0
 40
0.0
 40
0.0
 40
0.0
 40
0.1814292812455502
 40
0.4157921650615168
 40
0.6513173281689923
 40
0.8893818971948034
 40
0.991269063127738
 40
0.991269063127738
 40
0.991269063127738
 40
0.991269063127738
 10
42.46493378724882
 20
29.53047126522019
 30
0.0
 10
42.43515683008882
 20
29.54944949014507
 30
0.0
 10
42.37414654201563
 20
29.59565788344836
 30
0.0
 10
42.25724163094514
 20
29.63556895106578
 30
0.0
 10
42.12126163583675
 20
29.65204639729191
 30
0.0
 10
42.00509904789914
 20
29.641570607359
 30
0.0
 10
41.93648901923
 20
29.62398212795902
 30
0.0
 10
41.91592593704782
 20
29.61862984736644
 30
0.0
  0
LINE
  5
69
330
2
100
AcDbEntity
  8
0
100
AcDbLine
 10
42.51961326053785
 20
29.48368285287575
 30
0.0
 11
42.48037690123901
 21
29.51766253678901
 31
0.0
  0
LINE
  5
6A
330
2
100
AcDbEntity
  8
0
100
AcDbLine
 10
33.67565087146231
 20
27.30936004224461
 30
0.0
 11
33.67565087146231
 21
21.77809511882471
 31
0.0
  0
SPLINE
  5
6B
330
2
100
AcDbEntity
  8
0
100
AcDbSpline
210
0.0
220
0.0
230
1.0
 70
     8
 71
     3
 72
    12
 73
     8
 74
     0
 42
0.000000001
 43
0.0000000001
 40
0.0
 40
0.0
 40
0.0
 40
0.0
 40
0.1814292812455576
 40
0.4157921650615154
 40
0.6513173281689944
 40
0.8893818971948077
 40
1.0
 40
1.0
 40
1.0
 40
1.0
 10
41.4676931762646
 20
30.02790094786232
 30
0.0
 10
41.4419096600865
 20
30.04687917279759
 30
0.0
 10
41.37690593105801
 20
30.09308756610085
 30
0.0
 10
41.26000101998752
 20
30.13299863371822
 30
0.0
 10
41.12402102487915
 20
30.14947607994441
 30
0.0
 10
41.00609605825079
 20
30.13884135494232
 30
0.0
 10
40.93572421020453
 20
30.12050084565738
 30
0.0
 10
40.9133990390657
 20
30.11468239666213
 30
0.0
  0
LINE
  5
6C
330
2
100
AcDbEntity
  8
0
100
AcDbLine
 10
41.52237264955364
 20
29.98111253551787
 30
0.0
 11
41.48313629025484
 21
30.01509221943111
 31
0.0
  0
LINE
  5
6D
330
2
100
AcDbEntity
  8
0
100
AcDbLine
 10
40.91339903908789
 20
30.11468239667062
 30
0.0
 11
40.51083991209899
 21
29.99847358647965
 31
0.0
  0
LINE
  5
6E
330
2
100
AcDbEntity
  8
0
100
AcDbLine
 10
34.85311003040288
 20
28.36522765142668
 30
0.0
 11
34.38929972936575
 21
28.23133715032725
 31
0.0
  0
SPLINE
  5
6F
330
2
100
AcDbEntity
  8
0
100
AcDbSpline
210
0.0
220
0.0
230
1.0
 70
     8
 71
     3
 72
    16
 73
    12
 74
     0
 42
0.000000001
 43
0.0000000001
 40
0.0
 40
0.0
 40
0.0
 40
0.0
 40
0.069849537824281
 40
0.1990379081207497
 40
0.3285182403160725
 40
0.4581529125746114
 40
0.5879251972799257
 40
0.7178828956211265
 40
0.8480723407691126
 40
0.9707891010511616
 40
1.0
 40
1.0
 40
1.0
 40
1.0
 10
34.3892997293457
 20
28.23133715031878
 30
0.0
 10
34.36293943826213
 20
28.22286087768758
 30
0.0
 10
34.28782516609711
 20
28.19870753858577
 30
0.0
 10
34.16674659264773
 20
28.13683652037557
 30
0.0
 10
34.03347939093762
 20
28.04013123384473
 30
0.0
 10
33.91494341826947
 20
27.92156174488952
 30
0.0
 10
33.81586433324731
 20
27.78627464174235
 30
0.0
 10
33.74014948758446
 20
27.63929125351588
 30
0.0
 10
33.69223316995594
 20
27.48933967346018
 30
0.0
 10
33.67663808960529
 20
27.37862258816105
 30
0.0
 10
33.67581007295424
 20
27.32052950968321
 30
0.0
 10
33.67565087145769
 20
27.30936004222995
 30
0.0
  0
LINE
  5
70
330
2
100
AcDbEntity
  8
0
100
AcDbLine
 10
43.08191391750571
 20
28.86069682047742
 30
0.0
 11
42.99842028224563
 21
28.93300442968497
 31
0.0
  0
LINE
  5
71
330
2
100
AcDbEntity
  8
0
100
AcDbLine
 10
30.34726748916854
 20
15.78629233521923
 30
0.0
 11
30.35823822409163
 21
15.67783477556779
 31
0.0
  0
LINE
  5
72
330
2
100
AcDbEntity
  8
0
100
AcDbLine
 10
48.10074054773615
 20
15.67783477556779
 30
0.0
 11
48.11171128265922
 21
15.78629233521923
 31
0.0
  0
LINE
  5
73
330
2
100
AcDbEntity
  8
0
100
AcDbLine
 10
32.53721696289119
 20
19.49819385582559
 30
0.0
 11
32.46058091883219
 21
19.52031677615106
 31
0.0
  0
LINE
  5
74
330
2
100
AcDbEntity
  8
0
100
AcDbLine
 10
45.99840305463821
 20
19.52031827770035
 30
0.0
 11
45.92176180898888
 21
19.49819385582559
 31
0.0
  0
LINE
  5
75
330
2
100
AcDbEntity
  8
0
100
AcDbLine
 10
32.63103211932325
 20
20.71671060925323
 30
0.0
 11
32.45249544073324
 21
20.76824970897425
 31
0.0
  0
LINE
  5
76
330
2
100
AcDbEntity
  8
0
100
AcDbLine
 10
46.00648333109453
 20
20.76824970897425
 30
0.0
 11
45.82794665250452
 21
20.71671060925323
 31
0.0
  0
LWPOLYLINE
  5
77
330
2
100
AcDbEntity
  8
0
100
AcDbPolyline
 90
       17
 70
   128
 43
0.0
 10
39.59569540603621
 20
11.45332275584977
 10
39.49559470836049
 20
11.44988818826903
 10
39.41073343450425
 20
11.44010736740415
 10
39.3540309441557
 20
11.42546933453975
 10
39.3341196773774
 20
11.40820259748881
 10
39.3540309441557
 20
11.39093586038555
 10
39.41073343450425
 20
11.37629782752118
 10
39.49559470836049
 20
11.36651700665631
 10
39.59569540603621
 20
11.36308243907555
 10
39.6957961037119
 20
11.36651700665631
 10
39.78065737756816
 20
11.37629782752118
 10
39.83735986796897
 20
11.39093586038555
 10
39.857271134695
 20
11.40820259748881
 10
39.83735986796897
 20
11.42546933453975
 10
39.78065737756816
 20
11.44010736740415
 10
39.6957961037119
 20
11.44988818826903
 10
39.59569540603621
 20
11.45332275584977
  0
LINE
  5
78
330
2
100
AcDbEntity
  8
0
100
AcDbLine
 10
38.1831864712787
 20
11.49179599751829
 30
0.0
 11
38.1831864712787
 21
11.32337669970954
 31
0.0
  0
LINE
  5
79
330
2
100
AcDbEntity
  8
0
100
AcDbLine
 10
40.27579230054906
 20
11.49179599751829
 30
0.0
 11
40.27579230054906
 21
11.32337669970954
 31
0.0
  0
ARC
  5
7A
330
2
100
AcDbEntity
  8
0
100
AcDbCircle
 10
39.76784170989911
 20
11.17049410287374
 30
0.0
 40
0.5082078870547166
100
AcDbArc
 50
268.2859860206984
 51
358.1767252639003
  0
LINE
  5
7B
330
2
100
AcDbEntity
  8
0
100
AcDbLine
 10
39.75264084323148
 20
10.66251360114383
 30
0.0
 11
38.70633792859628
 21
10.66251360114383
 31
0.0
  0
ARC
  5
7C
330
2
100
AcDbEntity
  8
0
100
AcDbCircle
 10
38.69113706192864
 20
11.17049410287374
 30
0.0
 40
0.508207887054661
100
AcDbArc
 50
181.8232747360997
 51
271.7140139793016
  0
LINE
  5
7D
330
2
100
AcDbEntity
  8
0
100
AcDbLine
 10
38.1831864712787
 20
11.1846443585791
 30
0.0
 11
38.1831864712787
 21
11.15432456593346
 31
0.0
  0
LINE
  5
7E
330
2
100
AcDbEntity
  8
0
100
AcDbLine
 10
40.27579230054906
 20
11.1846443585791
 30
0.0
 11
40.27579230054906
 21
11.15432456593346
 31
0.0
  0
LINE
  5
7F
330
2
100
AcDbEntity
  8
0
100
AcDbLine
 10
38.1831864712787
 20
11.32337669970954
 30
0.0
 11
38.1831864712787
 21
11.1846443585791
 31
0.0
  0
LINE
  5
80
330
2
100
AcDbEntity
  8
0
100
AcDbLine
 10
40.27579230054906
 20
11.32337669970954
 30
0.0
 11
40.27579230054906
 21
11.1846443585791
 31
0.0
  0
LWPOLYLINE
  5
81
330
2
100
AcDbEntity
  8
0
100
AcDbPolyline
 90
       17
 70
   128
 43
0.0
 10
28.64040243453798
 20
21.04917315514622
 10
28.67425596497641
 20
21.10311031732314
 10
28.670561965594
 20
21.17002061272353
 10
28.62988281426748
 20
21.23971755544976
 10
28.55841154305439
 20
21.301590417725
 10
28.46702900511532
 20
21.34621961717205
 10
28.36964736338793
 20
21.36681076274304
 10
28.28109209014926
 20
21.36022903914494
 10
28.21484492296431
 20
21.32747645421539
 10
28.18099139247355
 20
21.27353929203845
 10
28.184685391856
 20
21.2066289966381
 10
28.22536454318248
 20
21.13693205396419
 10
28.2968358143956
 20
21.07505919168895
 10
28.38821835238699
 20
21.03042999224189
 10
28.48559999406204
 20
21.00983884667089
 10
28.57415526735305
 20
21.0164205702167
 10
28.64040243453798
 20
21.04917315514622
  0
LWPOLYLINE
  5
82
330
2
100
AcDbEntity
  8
0
100
AcDbPolyline
 90
        9
 70
   128
 43
0.0
 10
27.76352740051675
 20
21.06599339759973
 10
27.79738093100752
 20
21.11993055977665
 10
27.79368693162506
 20
21.1868408551247
 10
27.75300778029855
 20
21.25653779785095
 10
27.6815365090855
 20
21.31841066012615
 10
27.59015397109405
 20
21.36303985957325
 10
27.49277232941903
 20
21.38363100514424
 10
27.40421705612801
 20
21.37704928154611
 10
27.39992043314112
 20
21.37590960226952
  0
LWPOLYLINE
  5
83
330
2
100
AcDbEntity
  8
0
100
AcDbPolyline
 90
        9
 70
   128
 43
0.0
 10
27.30493960459999
 20
21.29345034458623
 10
27.30411635850462
 20
21.29035953443967
 10
27.30781035788707
 20
21.22344923903928
 10
27.34848950916124
 20
21.15375229636534
 10
27.41996078042669
 20
21.09187943409017
 10
27.51134331836578
 20
21.04725023464308
 10
27.6087249600931
 20
21.02665908907209
 10
27.69728023333184
 20
21.03324081261789
 10
27.76352740051675
 20
21.06599339759973
  0
LWPOLYLINE
  5
84
330
2
100
AcDbEntity
  8
0
100
AcDbPolyline
 90
       17
 70
   128
 43
0.0
 10
28.7848654282623
 20
20.39806547985467
 10
28.81871895875303
 20
20.45200264203159
 10
28.81502495937061
 20
20.51891293743195
 10
28.7743458080441
 20
20.5886098801582
 10
28.70287453683099
 20
20.65048274238109
 10
28.61149199883961
 20
20.69511194182816
 10
28.51411035716455
 20
20.71570308739915
 10
28.42555508392582
 20
20.70912136385334
 10
28.35930791668859
 20
20.67636877892383
 10
28.32545438625018
 20
20.6224316167469
 10
28.32914838563256
 20
20.55552132134653
 10
28.3698275369591
 20
20.48582437862029
 10
28.44129880817219
 20
20.42395151639739
 10
28.5326813461636
 20
20.37932231695029
 10
28.63006298783865
 20
20.35873117137933
 10
28.71861826107736
 20
20.36531289492514
 10
28.7848654282623
 20
20.39806547985467
  0
LINE
  5
85
330
2
100
AcDbEntity
  8
0
100
AcDbLine
 10
28.949897227107
 20
21.36364502689702
 30
0.0
 11
27.85697905122729
 21
22.07838445851785
 31
0.0
  0
ARC
  5
86
330
2
100
AcDbEntity
  8
0
100
AcDbCircle
 10
27.614169242195
 20
19.25129990851951
 30
0.0
 40
2.49923411245288
100
AcDbArc
 50
35.0234843602984
 51
57.69304655110094
  0
LINE
  5
87
330
2
100
AcDbEntity
  8
0
100
AcDbLine
 10
29.66083423976334
 20
20.68564071064336
 30
0.0
 11
29.67515998380001
 21
20.66429370888892
 31
0.0
  0
ARC
  5
88
330
2
100
AcDbEntity
  8
0
100
AcDbCircle
 10
30.18682623319208
 20
21.02287890938064
 30
0.0
 40
0.6248085281138771
100
AcDbArc
 50
215.0234843603989
 51
237.6930465511009
  0
LINE
  5
89
330
2
100
AcDbEntity
  8
0
100
AcDbLine
 10
29.85289423693791
 20
20.49479262981244
 30
0.0
 11
30.49493975723415
 21
20.07491192839849
 31
0.0
  0
LINE
  5
8A
330
2
100
AcDbEntity
  8
0
100
AcDbLine
 10
29.81484286272126
 20
19.48593074072576
 30
0.0
 11
29.17279734242507
 21
19.90581144213971
 31
0.0
  0
ARC
  5
8B
330
2
100
AcDbEntity
  8
0
100
AcDbCircle
 10
28.71786896516088
 20
19.20624219100537
 30
0.0
 40
0.8344800570080781
100
AcDbArc
 50
56.96413735989811
 51
75.62988647090083
  0
LINE
  5
8C
330
2
100
AcDbEntity
  8
0
100
AcDbLine
 10
28.92497408404157
 20
20.01461366213235
 30
0.0
 11
28.89488734611037
 21
20.02231124283462
 31
0.0
  0
ARC
  5
8D
330
2
100
AcDbEntity
  8
0
100
AcDbCircle
 10
29.72330782152862
 20
23.25579712723798
 30
0.0
 40
3.337920228035626
100
AcDbArc
 50
236.9641373599995
 51
255.6298864709008
  0
LINE
  5
8E
330
2
100
AcDbEntity
  8
0
100
AcDbLine
 10
27.90359431247181
 20
20.45752012275297
 30
0.0
 11
27.01255387855681
 21
21.0402368780818
 31
0.0
  0
ARC
  5
8F
330
2
100
AcDbEntity
  8
0
100
AcDbCircle
 10
26.47895269013208
 20
22.26057597902224
 30
0.0
 40
1.276150793846267
100
AcDbArc
 50
315.6185138917994
 51
349.0309109471987
  0
ARC
  5
90
330
2
100
AcDbEntity
  8
0
100
AcDbCircle
 10
26.45218747684853
 20
22.27305421598929
 30
0.0
 40
1.276150793845977
100
AcDbArc
 50
315.6185138917994
 51
349.0309109471987
  0
LWPOLYLINE
  5
91
330
2
100
AcDbEntity
  8
0
100
AcDbPolyline
 90
        9
 70
   128
 43
0.0
 10
26.65872005762343
 20
21.1241041276009
 10
26.64829570611062
 20
21.04588978927051
 10
26.6483241651837
 20
20.97938665208172
 10
26.65880434108988
 20
20.92715039429386
 10
26.67933348662146
 20
20.89118842599827
 10
26.70912267818537
 20
20.87288274551811
 10
26.74702713389494
 20
20.87293682980513
 10
26.79159020668394
 20
20.89134860043086
 10
26.84109936276791
 20
20.92741050347203
  0
LINE
  5
92
330
2
100
AcDbEntity
  8
0
100
AcDbLine
 10
26.66360246020266
 20
21.15019563548825
 30
0.0
 11
26.65872005762343
 21
21.1241041276009
 31
0.0
  0
LINE
  5
93
330
2
100
AcDbEntity
  8
0
100
AcDbLine
 10
27.70990537483784
 20
22.05632053963233
 30
0.0
 11
27.70502297225862
 21
22.03022903169266
 31
0.0
  0
LINE
  5
94
330
2
100
AcDbEntity
  8
0
100
AcDbLine
 10
26.84109936276791
 20
20.92741050347203
 30
0.0
 11
27.3642508200855
 21
21.38047295549176
 31
0.0
  0
LWPOLYLINE
  5
95
330
2
100
AcDbEntity
  8
0
100
AcDbPolyline
 90
        9
 70
   128
 43
0.0
 10
27.85697905122729
 20
22.07838445851785
 10
27.83782056769307
 20
22.08862689640543
 10
27.81809638348561
 20
22.09477429333356
 10
27.79874158250177
 20
22.09653521355321
 10
27.78067373692789
 20
22.09382617543213
 10
27.76474940683029
 20
22.08677560893872
 10
27.7517235326682
 20
22.07571776731001
 10
27.7422136448805
 20
22.06117688048002
 10
27.73667058817372
 20
22.04384230266524
  0
LWPOLYLINE
  5
96
330
2
100
AcDbEntity
  8
0
100
AcDbPolyline
 90
        9
 70
   128
 43
0.0
 10
27.86630637689117
 20
22.10122534222501
 10
27.84140034825484
 20
22.11454051150503
 10
27.81575890876948
 20
22.12253212749589
 10
27.79059766754796
 20
22.12482132380757
 10
27.7671094682444
 20
22.12129957418739
 10
27.74640783910191
 20
22.11213383781924
 10
27.72947420273299
 20
22.09775864367575
 10
27.7171113485985
 20
22.07885549080197
 10
27.70990537483784
 20
22.05632053963233
  0
LINE
  5
97
330
2
100
AcDbEntity
  8
0
100
AcDbLine
 10
27.73667058817372
 20
22.04384230266524
 30
0.0
 11
27.7317881855422
 21
22.0177507947256
 31
0.0
  0
LINE
  5
98
330
2
100
AcDbEntity
  8
0
100
AcDbLine
 10
28.95922455271861
 20
21.3864859106042
 30
0.0
 11
27.86630637689117
 21
22.10122534222501
 31
0.0
  0
ARC
  5
99
330
2
100
AcDbEntity
  8
0
100
AcDbCircle
 10
26.74557847869962
 20
21.13671478220603
 30
0.0
 40
0.0830770787447817
100
AcDbArc
 50
131.4912298235004
 51
170.6613651516
  0
LINE
  5
9A
330
2
100
AcDbEntity
  8
0
100
AcDbLine
 10
26.86786457605148
 20
20.91493226650498
 30
0.0
 11
27.39101603336907
 21
21.36799471857699
 31
0.0
  0
ARC
  5
9B
330
2
100
AcDbEntity
  8
0
100
AcDbCircle
 10
27.62349656780657
 20
19.27414079222667
 30
0.0
 40
2.49923411245471
100
AcDbArc
 50
35.02348436039881
 51
57.69304655110094
  0
ARC
  5
9C
330
2
100
AcDbEntity
  8
0
100
AcDbCircle
 10
30.61564584197134
 20
20.26706010939526
 30
0.0
 40
0.2026578122995492
100
AcDbArc
 50
236.6610925817995
 51
249.1503439898009
  0
LINE
  5
9D
330
2
100
AcDbEntity
  8
0
100
AcDbLine
 10
30.54351648022981
 20
20.07767282348925
 30
0.0
 11
31.58169278356419
 21
19.68592209772493
 31
0.0
  0
ARC
  5
9E
330
2
100
AcDbEntity
  8
0
100
AcDbCircle
 10
30.64973217580229
 20
17.30405567814688
 30
0.0
 40
2.557701744735018
100
AcDbArc
 50
40.83879218670165
 51
68.63092307739987
  0
ARC
  5
9F
330
2
100
AcDbEntity
  8
0
100
AcDbCircle
 10
30.66122432019295
 20
17.31332539426765
 30
0.0
 40
2.519436456632199
100
AcDbArc
 50
40.75484759110021
 51
68.62970744749929
  0
LINE
  5
A0
330
2
100
AcDbEntity
  8
0
100
AcDbLine
 10
30.54111551883476
 20
20.05128841236073
 30
0.0
 11
31.57929182216916
 21
19.65953768659641
 31
0.0
  0
ARC
  5
A1
330
2
100
AcDbEntity
  8
0
100
AcDbCircle
 10
30.62597359147495
 20
20.27409698402104
 30
0.0
 40
0.2384209556493675
100
AcDbArc
 50
236.6610925819004
 51
249.1503439898009
  0
LINE
  5
A2
330
2
100
AcDbEntity
  8
0
100
AcDbLine
 10
29.86222156254955
 20
20.5176335135196
 30
0.0
 11
30.50426708284572
 21
20.09775281210565
 31
0.0
  0
ARC
  5
A3
330
2
100
AcDbEntity
  8
0
100
AcDbCircle
 10
30.19615355880369
 20
21.0457197930878
 30
0.0
 40
0.6248085281125455
100
AcDbArc
 50
215.0234843602984
 51
237.6930465511009
  0
LWPOLYLINE
  5
A4
330
2
100
AcDbEntity
  8
0
100
AcDbPolyline
 90
        5
 70
   128
 43
0.0
 10
26.86786457605148
 20
20.91493226650498
 10
26.81835542001982
 20
20.87887036346382
 10
26.77379234717848
 20
20.8604585928381
 10
26.73588789152122
 20
20.86040450855106
 10
26.72600528442548
 20
20.86400332502494
  0
LINE
  5
A5
330
2
100
AcDbEntity
  8
0
100
AcDbLine
 10
29.67016156537491
 20
20.7084815943505
 30
0.0
 11
29.68448730941162
 21
20.68713459259607
 31
0.0
  0
LINE
  5
A6
330
2
100
AcDbEntity
  8
0
100
AcDbLine
 10
30.89919492765628
 20
19.0705564989237
 30
0.0
 11
29.86101862432188
 21
19.462307224688
 31
0.0
  0
ARC
  5
A7
330
2
100
AcDbEntity
  8
0
100
AcDbCircle
 10
29.9458766969621
 20
19.68511579634831
 30
0.0
 40
0.2384209556497684
100
AcDbArc
 50
236.6610925819004
 51
249.1503439898009
  0
ARC
  5
A8
330
2
100
AcDbEntity
  8
0
100
AcDbCircle
 10
29.98879530309814
 20
16.73896912499396
 30
0.0
 40
2.503023603283966
100
AcDbArc
 50
43.43807867209881
 51
68.67117243009943
  0
LWPOLYLINE
  5
A9
330
2
100
AcDbEntity
  8
0
100
AcDbPolyline
 90
       17
 70
   128
 43
0.0
 10
50.18478235746441
 20
20.73202943872718
 10
50.25102952464933
 20
20.69927685379764
 10
50.33958479788805
 20
20.69269513019954
 10
50.43696643961538
 20
20.71328627577053
 10
50.52834897755452
 20
20.7579154752176
 10
50.5998202487676
 20
20.81978833749284
 10
50.64049940009407
 20
20.88948528021905
 10
50.64419339947653
 20
20.95639557561944
 10
50.61033986903812
 20
21.01033273774402
 10
50.54409270180086
 20
21.04308532272589
 10
50.45553742856215
 20
21.0496670462717
 10
50.35815578688711
 20
21.02907590070071
 10
50.26677324889572
 20
20.98444670125363
 10
50.1953019776826
 20
20.92257383897841
 10
50.1546228263561
 20
20.85287689630449
 10
50.15092882697366
 20
20.78596660090413
 10
50.18478235746441
 20
20.73202943872718
  0
LWPOLYLINE
  5
AA
330
2
100
AcDbEntity
  8
0
100
AcDbPolyline
 90
       17
 70
   128
 43
0.0
 10
50.32924535118872
 20
21.38313711401877
 10
50.39549251842593
 20
21.35038452908924
 10
50.48404779166467
 20
21.34380280554343
 10
50.58142943333965
 20
21.36439395106211
 10
50.67281197133111
 20
21.40902315050919
 10
50.74428324254422
 20
21.47089601278439
 10
50.78496239387071
 20
21.54059295551065
 10
50.78865639325314
 20
21.60750325091099
 10
50.75480286276239
 20
21.66144041308793
 10
50.68855569557745
 20
21.69419299801746
 10
50.60000042233874
 20
21.70077472156325
 10
50.50261878061139
 20
21.68018357599229
 10
50.41123624267231
 20
21.6355543765452
 10
50.33976497145921
 20
21.57368151426998
 10
50.29908582013267
 20
21.50398457159605
 10
50.2953918207503
 20
21.43707427619569
 10
50.32924535118872
 20
21.38313711401877
  0
LWPOLYLINE
  5
AB
330
2
100
AcDbEntity
  8
0
100
AcDbPolyline
 90
       17
 70
   128
 43
0.0
 10
49.30790732344315
 20
20.71520919632602
 10
49.37415449062811
 20
20.68245661134415
 10
49.46270976391911
 20
20.67587488779834
 10
49.56009140559416
 20
20.69646603336935
 10
49.6514739435856
 20
20.74109523281641
 10
49.72294521479867
 20
20.80296809509162
 10
49.76362436612518
 20
20.87266503776559
 10
49.76731836550761
 20
20.9395753331659
 10
49.73346483501686
 20
20.99351249534287
 10
49.66721766783195
 20
21.02626508032471
 10
49.57866239459321
 20
21.0328468038705
 10
49.48128075286589
 20
21.01225565829951
 10
49.38989821492679
 20
20.96762645885242
 10
49.31842694366133
 20
20.90575359657721
 10
49.27774779238715
 20
20.8360566539033
 10
49.27405379300473
 20
20.76914635850295
 10
49.30790732344315
 20
20.71520919632602
  0
LINE
  5
AC
330
2
100
AcDbEntity
  8
0
100
AcDbLine
 10
50.55538445935592
 20
20.45752012275297
 30
0.0
 11
51.44642489332326
 21
21.0402368780818
 31
0.0
  0
ARC
  5
AD
330
2
100
AcDbEntity
  8
0
100
AcDbCircle
 10
48.73567095029915
 20
23.25579712723798
 30
0.0
 40
3.337920228033998
100
AcDbArc
 50
284.3701135290991
 51
303.0358626401019
  0
LINE
  5
AE
330
2
100
AcDbEntity
  8
0
100
AcDbLine
 10
49.56409142571738
 20
20.02231124283462
 30
0.0
 11
49.53400468783851
 21
20.01461366213235
 31
0.0
  0
ARC
  5
AF
330
2
100
AcDbEntity
  8
0
100
AcDbCircle
 10
49.7411098066669
 20
19.20624219100537
 30
0.0
 40
0.8344800570097806
100
AcDbArc
 50
104.3701135292004
 51
123.0358626400005
  0
LINE
  5
B0
330
2
100
AcDbEntity
  8
0
100
AcDbLine
 10
49.28618142940272
 20
19.90581144213971
 30
0.0
 11
48.6441359091065
 21
19.48593074072576
 31
0.0
  0
LINE
  5
B1
330
2
100
AcDbEntity
  8
0
100
AcDbLine
 10
47.96403901459362
 20
20.07491192839849
 30
0.0
 11
48.60608453488983
 21
20.49479262981244
 31
0.0
  0
ARC
  5
B2
330
2
100
AcDbEntity
  8
0
100
AcDbCircle
 10
48.272152538688
 20
21.02287890938064
 30
0.0
 40
0.6248085281127032
100
AcDbArc
 50
302.3069534488991
 51
324.9765156397007
  0
LINE
  5
B3
330
2
100
AcDbEntity
  8
0
100
AcDbLine
 10
48.78381878808006
 20
20.66429370888892
 30
0.0
 11
48.79814453211677
 21
20.68564071064336
 31
0.0
  0
ARC
  5
B4
330
2
100
AcDbEntity
  8
0
100
AcDbCircle
 10
50.84480952968505
 20
19.25129990851951
 30
0.0
 40
2.499234112454734
100
AcDbArc
 50
122.3069534488991
 51
144.9765156396012
  0
LINE
  5
B5
330
2
100
AcDbEntity
  8
0
100
AcDbLine
 10
49.50908154472074
 20
21.36364502689702
 30
0.0
 11
50.60199972060051
 21
22.07838445851785
 31
0.0
  0
ARC
  5
B6
330
2
100
AcDbEntity
  8
0
100
AcDbCircle
 10
51.9800260816957
 20
22.26057597902224
 30
0.0
 40
1.276150793845745
100
AcDbArc
 50
190.9690890528014
 51
224.3814861082006
  0
ARC
  5
B7
330
2
100
AcDbEntity
  8
0
100
AcDbCircle
 10
52.00679129497924
 20
22.27305421598929
 30
0.0
 40
1.27615079384625
100
AcDbArc
 50
190.9690890528014
 51
224.3814861082006
  0
LINE
  5
B8
330
2
100
AcDbEntity
  8
0
100
AcDbLine
 10
50.74907339698992
 20
22.05632053963233
 30
0.0
 11
50.75395579962147
 21
22.03022903169266
 31
0.0
  0
LINE
  5
B9
330
2
100
AcDbEntity
  8
0
100
AcDbLine
 10
51.79537631162512
 20
21.15019563548825
 30
0.0
 11
51.80025871425666
 21
21.1241041276009
 31
0.0
  0
LWPOLYLINE
  5
BA
330
2
100
AcDbEntity
  8
0
100
AcDbPolyline
 90
        9
 70
   128
 43
0.0
 10
51.61787940911215
 20
20.92741050347203
 10
51.66738856514382
 20
20.89134860043086
 10
51.7119516379851
 20
20.87293682980513
 10
51.74985609364238
 20
20.87288274551811
 10
51.77964528520631
 20
20.89118842599827
 10
51.8001744307379
 20
20.92715039429386
 10
51.8106546066964
 20
20.97938665208172
 10
51.81068306571717
 20
21.04588978927051
 10
51.80025871425666
 20
21.1241041276009
  0
LINE
  5
BB
330
2
100
AcDbEntity
  8
0
100
AcDbLine
 10
51.09472795179454
 20
21.38047295549176
 30
0.0
 11
51.61787940911215
 21
20.92741050347203
 31
0.0
  0
LWPOLYLINE
  5
BC
330
2
100
AcDbEntity
  8
0
100
AcDbPolyline
 90
        9
 70
   128
 43
0.0
 10
50.59267239498889
 20
22.10122534222501
 10
50.61757842362524
 20
22.11454051150503
 10
50.64321986305829
 20
22.12253212749589
 10
50.66838110433209
 20
22.12482132380757
 10
50.69186930363564
 20
22.12129957418739
 10
50.71257093272592
 20
22.11213383781924
 10
50.72950456914713
 20
22.09775864367575
 10
50.74186742322924
 20
22.07885549080197
 10
50.74907339698992
 20
22.05632053963233
  0
LWPOLYLINE
  5
BD
330
2
100
AcDbEntity
  8
0
100
AcDbPolyline
 90
        9
 70
   128
 43
0.0
 10
50.60199972060051
 20
22.07838445851785
 10
50.62115820418704
 20
22.08862689640543
 10
50.64088238834214
 20
22.09477429333356
 10
50.66023718932607
 20
22.09653521355321
 10
50.67830503495223
 20
22.09382617543213
 10
50.69422936504977
 20
22.08677560893872
 10
50.70725523921193
 20
22.07571776731001
 10
50.71676512694728
 20
22.06117688048002
 10
50.72230818370639
 20
22.04384230266524
  0
LINE
  5
BE
330
2
100
AcDbEntity
  8
0
100
AcDbLine
 10
49.49975421910917
 20
21.3864859106042
 30
0.0
 11
49.50908154472074
 21
21.36364502689702
 31
0.0
  0
LINE
  5
BF
330
2
100
AcDbEntity
  8
0
100
AcDbLine
 10
50.72230818370639
 20
22.04384230266524
 30
0.0
 11
50.7271905862856
 21
22.0177507947256
 31
0.0
  0
LINE
  5
C0
330
2
100
AcDbEntity
  8
0
100
AcDbLine
 10
49.49975421910917
 20
21.3864859106042
 30
0.0
 11
50.59267239498889
 21
22.10122534222501
 31
0.0
  0
ARC
  5
C1
330
2
100
AcDbEntity
  8
0
100
AcDbCircle
 10
51.71340029318049
 20
21.13671478220603
 30
0.0
 40
0.0830770787441744
100
AcDbArc
 50
9.338634848198699
 51
48.50877017670004
  0
LINE
  5
C2
330
2
100
AcDbEntity
  8
0
100
AcDbLine
 10
51.0679627384587
 20
21.36799471857699
 30
0.0
 11
51.5911141957763
 21
20.91493226650498
 31
0.0
  0
ARC
  5
C3
330
2
100
AcDbEntity
  8
0
100
AcDbCircle
 10
50.83548220402117
 20
19.27414079222667
 30
0.0
 40
2.499234112455155
100
AcDbArc
 50
122.3069534488991
 51
144.9765156396012
  0
ARC
  5
C4
330
2
100
AcDbEntity
  8
0
100
AcDbCircle
 10
47.83300518035279
 20
20.27409698402104
 30
0.0
 40
0.2384209556483857
100
AcDbArc
 50
290.8496560101991
 51
303.3389074180996
  0
LINE
  5
C5
330
2
100
AcDbEntity
  8
0
100
AcDbLine
 10
46.87968694971095
 20
19.65953768659641
 30
0.0
 11
47.91786325299297
 21
20.05128841236073
 31
0.0
  0
ARC
  5
C6
330
2
100
AcDbEntity
  8
0
100
AcDbCircle
 10
47.79775445168715
 20
17.31332539426765
 30
0.0
 40
2.519436456631531
100
AcDbArc
 50
111.3702925525007
 51
139.3134715170318
  0
ARC
  5
C7
330
2
100
AcDbEntity
  8
0
100
AcDbCircle
 10
47.8092465960255
 20
17.30405567814688
 30
0.0
 40
2.557701744735031
100
AcDbArc
 50
111.3690769226001
 51
139.4251938797643
  0
LINE
  5
C8
330
2
100
AcDbEntity
  8
0
100
AcDbLine
 10
46.87728598831589
 20
19.68592209772493
 30
0.0
 11
47.91546229159795
 21
20.07767282348925
 31
0.0
  0
ARC
  5
C9
330
2
100
AcDbEntity
  8
0
100
AcDbCircle
 10
47.8433329298564
 20
20.26706010939526
 30
0.0
 40
0.2026578123043497
100
AcDbArc
 50
290.8496560103
 51
303.3389074180996
  0
LINE
  5
CA
330
2
100
AcDbEntity
  8
0
100
AcDbLine
 10
47.95471168898202
 20
20.09775281210565
 30
0.0
 11
48.59675720927826
 21
20.5176335135196
 31
0.0
  0
ARC
  5
CB
330
2
100
AcDbEntity
  8
0
100
AcDbCircle
 10
48.26282521307643
 20
21.0457197930878
 30
0.0
 40
0.6248085281147581
100
AcDbArc
 50
302.3069534488991
 51
324.9765156396013
  0
LWPOLYLINE
  5
CC
330
2
100
AcDbEntity
  8
0
100
AcDbPolyline
 90
        5
 70
   128
 43
0.0
 10
51.7329734874546
 20
20.86400332502494
 10
51.72309088035883
 20
20.86040450855106
 10
51.68518642464928
 20
20.8604585928381
 10
51.64062335186028
 20
20.87887036346382
 10
51.5911141957763
 20
20.91493226650498
  0
LINE
  5
CD
330
2
100
AcDbEntity
  8
0
100
AcDbLine
 10
48.77449146246849
 20
20.68713459259607
 30
0.0
 11
48.7888172065052
 21
20.7084815943505
 31
0.0
  0
LINE
  5
CE
330
2
100
AcDbEntity
  8
0
100
AcDbLine
 10
48.59796014750585
 20
19.462307224688
 30
0.0
 11
47.55978384422382
 21
19.0705564989237
 31
0.0
  0
ARC
  5
CF
330
2
100
AcDbEntity
  8
0
100
AcDbCircle
 10
48.51310207486568
 20
19.68511579634831
 30
0.0
 40
0.2384209556471684
100
AcDbArc
 50
290.8496560101991
 51
303.3389074182005
  0
ARC
  5
D0
330
2
100
AcDbEntity
  8
0
100
AcDbCircle
 10
48.47018346872964
 20
16.73896912499396
 30
0.0
 40
2.503023603282423
100
AcDbArc
 50
111.3288275699006
 51
136.5619213279012
  0
LINE
  5
D1
330
2
100
AcDbEntity
  8
0
100
AcDbLine
 10
40.29430292006721
 20
29.93734919562511
 30
0.0
 11
40.29430292006721
 21
23.01390424874691
 31
0.0
  0
LINE
  5
D2
330
2
100
AcDbEntity
  8
0
100
AcDbLine
 10
40.60819379445777
 20
22.98734520615687
 30
0.0
 11
40.60819379445777
 21
29.66551172437139
 31
0.0
  0
ARC
  5
D3
330
2
100
AcDbEntity
  8
0
100
AcDbCircle
 10
40.0928185225521
 20
29.6955359030143
 30
0.0
 40
0.5162490892796359
100
AcDbArc
 50
356.6658924962008
 51
73.03118074249997
  0
LINE
  5
D4
330
2
100
AcDbEntity
  8
0
100
AcDbLine
 10
40.06269635847835
 20
30.4076215526603
 30
0.0
 11
40.07813947246854
 21
30.39481282417682
 31
0.0
  0
ARC
  5
D5
330
2
100
AcDbEntity
  8
0
100
AcDbCircle
 10
39.75017090478765
 20
29.95871772678837
 30
0.0
 40
0.5445514338793498
100
AcDbArc
 50
357.7511011825993
 51
47.59820542879922
  0
LINE
  5
D6
330
2
100
AcDbEntity
  8
0
100
AcDbLine
 10
44.05673413786341
 20
27.88223653283954
 30
0.0
 11
44.05673413786341
 21
22.14486078257271
 31
0.0
  0
LINE
  5
D7
330
2
100
AcDbEntity
  8
0
100
AcDbLine
 10
44.37062501225399
 20
21.99898303010079
 30
0.0
 11
44.37062501225399
 21
27.61039906163818
 31
0.0
  0
ARC
  5
D8
330
2
100
AcDbEntity
  8
0
100
AcDbCircle
 10
43.85524974034838
 20
27.64042324022874
 30
0.0
 40
0.5162490892794552
100
AcDbArc
 50
356.6658924962008
 51
73.03118074249997
  0
LINE
  5
D9
330
2
100
AcDbEntity
  8
0
100
AcDbLine
 10
43.82512757627457
 20
28.35250888987476
 30
0.0
 11
43.84057069026478
 21
28.33970016139126
 31
0.0
  0
ARC
  5
DA
330
2
100
AcDbEntity
  8
0
100
AcDbCircle
 10
43.51260212258384
 20
27.90360506400282
 30
0.0
 40
0.5445514338793267
100
AcDbArc
 50
357.7511011825993
 51
47.59820542870022
  0
LINE
  5
DB
330
2
100
AcDbEntity
  8
0
100
AcDbLine
 10
42.69654034883767
 20
29.06019890823726
 30
0.0
 11
42.69654034883767
 21
22.61651983426181
 31
0.0
  0
LINE
  5
DC
330
2
100
AcDbEntity
  8
0
100
AcDbLine
 10
43.01043122322822
 20
22.52712065112524
 30
0.0
 11
43.01043122322822
 21
28.78836143698356
 31
0.0
  0
ARC
  5
DD
330
2
100
AcDbEntity
  8
0
100
AcDbCircle
 10
42.49505595132261
 20
28.81838561562648
 30
0.0
 40
0.5162490892793197
100
AcDbArc
 50
356.6658924962008
 51
73.03118074370148
  0
LINE
  5
DE
330
2
100
AcDbEntity
  8
0
100
AcDbLine
 10
42.46493378724882
 20
29.53047126522019
 30
0.0
 11
42.48037690123901
 21
29.51766253678901
 31
0.0
  0
ARC
  5
DF
330
2
100
AcDbEntity
  8
0
100
AcDbCircle
 10
42.15240833355809
 20
29.08156743934828
 30
0.0
 40
0.544551433879443
100
AcDbArc
 50
357.7511011825993
 51
47.59820542870022
  0
LINE
  5
E0
330
2
100
AcDbEntity
  8
0
100
AcDbLine
 10
41.69929973785349
 20
29.55762859087939
 30
0.0
 11
41.69929973785349
 21
22.8383160940933
 31
0.0
  0
LINE
  5
E1
330
2
100
AcDbEntity
  8
0
100
AcDbLine
 10
42.01319061224402
 20
22.77799878406786
 30
0.0
 11
42.01319061224402
 21
29.28579111962572
 31
0.0
  0
ARC
  5
E2
330
2
100
AcDbEntity
  8
0
100
AcDbCircle
 10
41.4978153403907
 20
29.31581529826859
 30
0.0
 40
0.5162490892798837
100
AcDbArc
 50
356.6658924962008
 51
73.03118074139987
  0
LINE
  5
E3
330
2
100
AcDbEntity
  8
0
100
AcDbLine
 10
41.4676931762646
 20
30.02790094786232
 30
0.0
 11
41.48313629025484
 21
30.01509221943111
 31
0.0
  0
ARC
  5
E4
330
2
100
AcDbEntity
  8
0
100
AcDbCircle
 10
41.1551677226262
 20
29.57899712204272
 30
0.0
 40
0.544551433879576
100
AcDbArc
 50
357.7511011825993
 51
47.59820542870022
  0
LINE
  5
E5
330
2
100
AcDbEntity
  8
0
100
AcDbLine
 10
44.73357819029554
 20
21.80672786295692
 30
0.0
 11
44.73357819029554
 21
26.92986636888256
 31
0.0
  0
ARC
  5
E6
330
2
100
AcDbEntity
  8
0
100
AcDbCircle
 10
44.21545197515693
 20
26.95930833174543
 30
0.0
 40
0.5189620448824353
100
AcDbArc
 50
356.7477266561998
 51
72.60205757269545
  0
LINE
  5
E7
330
2
100
AcDbEntity
  8
0
100
AcDbLine
 10
43.25884100580554
 20
28.4372128757866
 30
0.0
 11
43.25884100580554
 21
22.44881836601265
 31
0.0
  0
LINE
  5
E8
330
2
100
AcDbEntity
  8
0
100
AcDbLine
 10
43.57273188019611
 20
22.33943807150691
 30
0.0
 11
43.57273188019611
 21
28.16537540458524
 31
0.0
  0
ARC
  5
E9
330
2
100
AcDbEntity
  8
0
100
AcDbCircle
 10
43.05735660829049
 20
28.19539958322814
 30
0.0
 40
0.5162490892806836
100
AcDbArc
 50
356.6658924962008
 51
73.03118073830076
  0
ARC
  5
EA
330
2
100
AcDbEntity
  8
0
100
AcDbCircle
 10
42.71470899057828
 20
28.45858140694988
 30
0.0
 40
0.5445514338794727
100
AcDbArc
 50
357.7511011825993
 51
47.59820542870022
  0
LWPOLYLINE
  5
EB
330
2
100
AcDbEntity
  8
0
100
AcDbPolyline
 90
       11
 70
   128
 43
0.0
 10
36.65789352033399
 20
17.68790440768858
 10
36.50782822284342
 20
17.83653587698545
 10
36.39198939356742
 20
17.99263377397798
 10
36.31183377305937
 20
18.15423507703438
 10
36.26836936478659
 20
18.31930755608411
 10
36.2621427588042
 20
18.48577532893282
 10
36.29323225838206
 20
18.65154496662478
 10
36.36124689501509
 20
18.81453181988891
 10
36.46533134515787
 20
18.97268623446761
 10
36.60417668642761
 20
19.12401932678915
 10
36.63814605818855
 20
19.155245273893
  0
LWPOLYLINE
  5
EC
330
2
100
AcDbEntity
  8
0
100
AcDbPolyline
 90
       29
 70
   128
 43
0.0
 10
41.8250254326781
 20
19.15148594518764
 10
41.95115054903663
 20
19.02398450366488
 10
42.06698937831265
 20
18.86788660667233
 10
42.1471449987684
 20
18.70628530361597
 10
42.19060940709346
 20
18.54121282456626
 10
42.19683601302357
 20
18.37474505176983
 10
42.16574651344571
 20
18.20897541402556
 10
42.09773187686499
 20
18.0459885607614
 10
41.99364742672225
 20
17.88783414618268
 10
41.85480208540016
 20
17.73650105386119
 10
41.68294191368143
 20
17.59389238517789
 10
41.48022815287849
 20
17.4618015269227
 10
41.2492100461739
 20
17.34188959828711
 10
40.99279278031739
 20
17.23566456132222
 10
40.71420095118706
 20
17.14446225753522
 10
40.41693801264563
 20
17.06942960876378
 10
40.10474221866057
 20
17.01151019415191
 10
39.78153961244317
 20
16.97143238392405
 10
39.45139465434375
 20
16.94970017973537
 10
39.1184591087509
 20
16.94658687679648
 10
38.78691983331464
 20
16.96213162655924
 10
38.46094612678638
 20
16.9961389448496
 10
38.14463729768124
 20
17.04818116994715
 10
37.84197111298591
 20
17.11760384058201
 10
37.55675377567172
 20
17.20353392646754
 10
37.29257205916127
 20
17.30489080684285
 10
37.05274820189011
 20
17.42039986022132
 10
36.8402981279603
 20
17.54860849312341
 10
36.65789352033399
 20
17.68790440768858
  0
LWPOLYLINE
  5
ED
330
2
100
AcDbEntity
  8
0
100
AcDbPolyline
 90
       11
 70
   128
 43
0.0
 10
42.20489294939147
 20
19.07210072327034
 10
42.26727048912892
 20
18.96674009128938
 10
42.3342983032847
 20
18.8002193144091
 10
42.36492507163183
 20
18.63105119873965
 10
42.35879172330829
 20
18.46121908574328
 10
42.31597016626666
 20
18.29271410168977
 10
42.23696244405849
 20
18.12751181338282
 10
42.12269485001431
 20
17.96754906672811
 10
41.97450706714247
 20
17.81470127855923
 10
41.79413646176224
 20
17.67076044947168
 10
41.70777771059483
 20
17.6124031264857
  0
LWPOLYLINE
  5
EE
330
2
100
AcDbEntity
  8
0
100
AcDbPolyline
 90
       11
 70
   128
 43
0.0
 10
36.75120106128528
 20
17.6124031264857
 10
36.60126593172455
 20
17.7176445208448
 10
36.4314061333961
 20
17.8647474213117
 10
36.29435130283873
 20
18.02017053558224
 10
36.19170828275118
 20
18.18209166979315
 10
36.12468046859542
 20
18.34861244667347
 10
36.09405370024828
 20
18.51778056234289
 10
36.10018704851945
 20
18.68761267533924
 10
36.14300860561345
 20
18.85611765939276
 10
36.22201632782161
 20
19.02131994769971
 10
36.25656290414711
 20
19.07578782584247
  0
LWPOLYLINE
  5
EF
330
2
100
AcDbEntity
  8
0
100
AcDbPolyline
 90
       89
 70
   128
 43
0.0
 10
37.09869526511076
 20
19.23474019747971
 10
37.59770953129875
 20
19.30193053261163
 10
38.1050389735512
 20
19.35115003945653
 10
38.61809835738231
 20
19.38214790659779
 10
39.13427324975886
 20
19.39476617603857
 10
39.65093334172721
 20
19.38894054796572
 10
40.16544585191994
 20
19.36470070845168
 10
40.67518894246108
 20
19.32217017815924
 10
41.17756507946952
 20
19.26156568293803
 10
41.67001426931427
 20
19.18319604939941
 10
42.15002710370963
 20
19.08746063117222
 10
42.61515754742043
 20
18.97484727410526
 10
43.06303540218828
 20
18.84592982998998
 10
43.49137838520035
 20
18.70136523256232
 10
43.89800375874612
 20
18.54189014985665
 10
44.28083945320215
 20
18.36831723043689
 10
44.63793462558868
 20
18.18153096202511
 10
44.96746960075514
 20
17.98248316465645
 10
45.26776514403059
 20
17.77218814028008
 10
45.53729101809802
 20
17.55171750412772
 10
45.77467378098553
 20
17.32219472405859
 10
45.97870378442032
 20
17.08478939550379
 10
46.14834133838372
 20
16.84071128162023
 10
46.28272200869989
 20
16.5912041485262
 10
46.38116102233733
 20
16.33753942742616
 10
46.44315675667214
 20
16.08100973548443
 10
46.46839329555376
 20
15.82292228929616
 10
46.45674203940802
 20
15.56459224333814
 10
46.40826236037988
 20
15.30733598824179
 10
46.32320129984735
 20
15.05246444294505
 10
46.20199230935263
 20
14.80127637446701
 10
46.04525304222304
 20
14.55505177957079
 10
45.85378220587331
 20
14.31504536232076
 10
45.62855549168705
 20
14.08248014049155
 10
45.37072060340419
 20
13.85854121310761
 10
45.08159140854892
 20
13.64436972160159
 10
44.76264124324218
 20
13.4410570348287
 10
44.41549540435032
 20
13.24963918760069
 10
44.04192286752683
 20
13.07109160140743
 10
43.64382727278946
 20
12.90632411379802
 10
43.22323722403676
 20
12.7561763421603
 10
42.782295951732
 20
12.6214134051266
 10
42.32325039159375
 20
12.50272202373514
 10
41.84843973448411
 20
12.40070702196544
 10
41.36028350671701
 20
12.31588824500991
 10
40.86126924058128
 20
12.24869790982565
 10
40.35393979827658
 20
12.1994784030331
 10
39.84088041444544
 20
12.16848053589184
 10
39.3247055220689
 20
12.15586226645104
 10
38.80804543010057
 20
12.16168789447158
 10
38.29353291996013
 20
12.18592773398565
 10
37.78378982936672
 20
12.22845826427807
 10
37.28141369235824
 20
12.28906275949929
 10
36.78896450256583
 20
12.36743239309021
 10
36.30895166811814
 20
12.46316781126509
 10
35.84382122445968
 20
12.57578116838439
 10
35.39594336969183
 20
12.70469861249968
 10
34.96760038667977
 20
12.84926320992727
 10
34.56097501308166
 20
13.00873829258066
 10
34.17813931862563
 20
13.18231121205275
 10
33.82104414623908
 20
13.36909748046449
 10
33.49150917107265
 20
13.56814527783318
 10
33.19121362784951
 20
13.77844030215721
 10
32.92168775372977
 20
13.9989109383096
 10
32.68430499089454
 20
14.22843371837872
 10
32.48027498740748
 20
14.46583904693352
 10
32.31063743349636
 20
14.7099171608171
 10
32.17625676312791
 20
14.9594242939111
 10
32.07781774949043
 20
15.21308901506347
 10
32.01582201520794
 20
15.46961870695288
 10
31.9905854763263
 20
15.72770615314117
 10
32.00223673241975
 20
15.98603619915148
 10
32.05071641144789
 20
16.24329245424785
 10
32.13577747203269
 20
16.49816399949225
 10
32.25698646247514
 20
16.74935206802266
 10
32.41372572960472
 20
16.99557666291885
 10
32.60519656600677
 20
17.23558308011653
 10
32.83042328019302
 20
17.46814830194576
 10
33.08825816847591
 20
17.6920872293297
 10
33.37738736327886
 20
17.90625872083573
 10
33.69633752863789
 20
18.10957140766092
 10
34.04348336752974
 20
18.30098925488896
 10
34.41705590435323
 20
18.47953684108221
 10
34.81515149909061
 20
18.64430432863926
 10
35.23574154784335
 20
18.79445210027701
 10
35.67668282009574
 20
18.92921503731072
 10
36.1357283802863
 20
19.04790641875449
 10
36.61053903734365
 20
19.14992142047188
 10
37.09869526511076
 20
19.23474019747971
  0
LWPOLYLINE
  5
F0
330
2
100
AcDbEntity
  8
0
100
AcDbPolyline
 90
       98
 70
   128
 43
0.0
 10
31.53694077964865
 20
13.68152420349503
 10
31.26558917149975
 20
13.9351499242817
 10
31.02764092849966
 20
14.19702601794321
 10
30.82409408828964
 20
14.46605408525347
 10
30.65580239700887
 20
14.74110572895859
 10
30.5234717285321
 20
15.02102728683299
 10
30.42765712369385
 20
15.30464467067307
 10
30.36876046221204
 20
15.59076829051301
 10
30.3470287771465
 20
15.87819804454771
 10
30.36255321874517
 20
16.1657283524777
 10
30.41526867207251
 20
16.45215321218656
 10
30.50495403030392
 20
16.73627125835376
 10
30.63123312175035
 20
17.01689080118808
 10
30.79357628810122
 20
17.29283482466897
 10
30.99130260567342
 20
17.56294592384051
 10
31.22358274155677
 20
17.82609115871558
 10
31.48944243215245
 20
18.081166806845
 10
31.78776656950925
 20
18.32710299226645
 10
32.11730387861131
 20
18.56286817314982
 10
32.47667216531985
 20
18.78747346836454
 10
32.86436411425128
 20
18.99997680533821
 10
33.27875361064428
 20
19.1994868711578
 10
33.71810256084213
 20
19.38516685127176
 10
34.18056818277447
 20
19.55623793931306
 10
34.66421073484009
 20
19.71198260370924
 10
35.16700165211529
 20
19.85174759721562
 10
35.68683205473219
 20
19.97494669686902
 10
36.22152159337598
 20
20.0810631628518
 10
36.76882759428615
 20
20.16965190580361
 10
37.32645446588602
 20
20.24034135368752
 10
37.89206332733305
 20
20.29283501051974
 10
38.46328181839311
 20
20.32691269958672
 10
39.03771405030468
 20
20.34243148717369
 10
39.61295065462881
 20
20.33932628220083
 10
40.18657888912281
 20
20.31761010894223
 10
40.75619275763429
 20
20.27737405251338
 10
41.3194031016406
 20
20.2187868769707
 10
41.87384762121484
 20
20.14209431727826
 10
42.41720078335761
 20
20.04761804864727
 10
42.94718357610365
 20
19.93575433748512
 10
43.46157306738814
 20
19.80697237897732
 10
43.95821172901835
 20
19.66181232941002
 10
44.4350164857814
 20
19.50088304055813
 10
44.88998745280571
 20
19.32485950571211
 10
45.32121632382422
 20
19.13448002880086
 10
45.72689437502494
 20
18.93054312743973
 10
46.10532005168934
 20
18.7139041839241
 10
46.45490610497176
 20
18.48547185724747
 10
46.77418624957732
 20
18.24620427204777
 10
47.06182131356441
 20
17.99710499960079
 10
47.3166048555262
 20
17.73921884890988
 10
47.53746822472112
 20
17.47362748405683
 10
47.72348504343425
 20
17.20144488758952
 10
47.87387509252812
 20
16.92381268788991
 10
47.98800758380706
 20
16.64189537087341
 10
48.06540380596068
 20
16.35687539569
 10
48.10573913231418
 20
16.06994823530065
 10
48.10884438253959
 20
15.78231736180905
 10
48.07470653210138
 20
15.49518919904407
 10
48.00346876703013
 20
15.20976806242962
 10
47.89542988329272
 20
14.9272511073294
 10
47.75104303347831
 20
14.64882330799631
 10
47.57091382618891
 20
14.37565248742433
 10
47.35579778592995
 20
14.10888441897677
 10
47.10659718417256
 20
13.84963802066453
 10
46.82435725482374
 20
13.59900066190232
 10
46.51026181021697
 20
13.35802360293572
 10
46.16562827582955
 20
13.12771758524977
 10
45.79190216444295
 20
12.90904859236816
 10
45.39065101328832
 20
12.7029337979929
 10
44.96355780907889
 20
12.5102377192193
 10
44.51241392923203
 20
12.33176859041627
 10
44.03911162784492
 20
12.16827497304803
 10
43.54563609932989
 20
12.02044261624201
 10
43.03405715156968
 20
11.88889158024078
 10
42.50652052437597
 20
11.77417363576367
 10
41.96523888971475
 20
11.6767699498464
 10
41.41248257094739
 20
11.59708906726121
 10
40.8505700201136
 20
11.5354651974573
 10
40.28185809369711
 20
11.49215681225338
 10
39.70873216720775
 20
11.46734556212951
 10
39.13359612996237
 20
11.46113551404771
 10
38.55886230238657
 20
11.47355271519582
 10
37.98694131779495
 20
11.50454508338748
 10
37.42023201165193
 20
11.55398262594856
 10
36.86111135969535
 20
11.62165798463181
 10
36.31192450823891
 20
11.7072873054084
 10
35.77497493782625
 20
11.81051142926523
 10
35.25251480151304
 20
11.93089739820117
 10
34.74673547873945
 20
12.06794027176579
 10
34.25975838366375
 20
12.22106524446248
 10
33.79362606755917
 20
12.38963005690141
 10
33.3502936513197
 20
12.57292768976774
 10
32.93162062511292
 20
12.77018932899184
 10
32.53936304918605
 20
12.9805875907689
 10
32.17516618810267
 20
13.2032399916747
 10
31.84055761000865
 20
13.43721265011911
 10
31.53694077964865
 20
13.68152420349503
  0
LWPOLYLINE
  5
F1
330
2
100
AcDbEntity
  8
0
100
AcDbPolyline
 90
       52
 70
   128
 43
0.0
 10
30.34726748916854
 20
15.78629233521923
 10
30.33604417991308
 20
15.98690338573175
 10
30.35158782001926
 20
16.27478927133687
 10
30.40436846455754
 20
16.56156834167373
 10
30.49416473314748
 20
16.84603774567179
 10
30.62059998912292
 20
17.12700431987439
 10
30.78314391903072
 20
17.40328959274899
 10
30.98111475707098
 20
17.67373472789275
 10
31.21368214490416
 20
17.93720538437117
 10
31.47987061395686
 20
18.1925964747283
 10
31.77856367730279
 20
18.4388367999518
 10
32.10850851249651
 20
18.67489354255905
 10
32.46832121615879
 20
18.89977659850066
 10
32.85649260881276
 20
19.1125427301982
 10
33.27139456470286
 20
19.3122995224062
 10
33.71128684085692
 20
19.49820912583192
 10
34.17432437619993
 20
19.66949177088179
 10
34.6585650303766
 20
19.82542903877078
 10
35.16197772984734
 20
19.96536687424686
 10
35.68245098672968
 20
20.08871832946818
 10
36.21780175538614
 20
20.19496602558752
 10
36.76578458856876
 20
20.28366432278462
 10
37.32410105587187
 20
20.35444118964324
 10
37.89040938400072
 20
20.40699976334579
 10
38.46233427899255
 20
20.44111959498307
 10
39.03747688916516
 20
20.45665757406734
 10
39.61342486641824
 20
20.45354852900587
 10
40.18776248487164
 20
20.43180550018573
 10
40.7580807729491
 20
20.39151968535694
 10
41.32198761747309
 20
20.3328600573134
 10
41.87711779723907
 20
20.25607265486548
 10
42.42114290337943
 20
20.16147955113337
 10
42.95178110539806
 20
20.04947750240358
 10
43.46680672243549
 20
19.92053628419347
 10
43.96405955796501
 20
19.77519672080136
 10
44.44145396082815
 20
19.61406841686931
 10
44.89698757295502
 20
19.4378272004806
 10
45.32874972808981
 20
19.24721228856809
 10
45.73492946568662
 20
19.0430231863001
 10
46.11382312685939
 20
18.82611633378425
 10
46.46384149979353
 20
18.5974015136388
 10
46.78351648584667
 20
18.35783803538733
 10
47.07150725704116
 20
18.10843071148255
 10
47.3266058799946
 20
17.85022564290257
 10
47.54774238243251
 20
17.58430583147984
 10
47.73398924099057
 20
17.31178663721997
 10
47.88456527163073
 20
17.03381110049071
 10
47.99883890619091
 20
16.75154514712956
 10
48.07633084125779
 20
16.46617269875644
 10
48.11671604879487
 20
16.17889070654898
 10
48.11982513916132
 20
15.89090413102919
 10
48.11171128265922
 20
15.78629233521923
  0
LINE
  5
F2
330
2
100
AcDbEntity
  8
0
100
AcDbLine
 10
33.19278469860251
 20
20.08941567733429
 30
0.0
 11
33.13876243684287
 21
19.23893757084018
 31
0.0
  0
SPLINE
  5
F3
330
2
100
AcDbEntity
  8
0
100
AcDbSpline
210
0.0
220
0.0
230
1.0
 70
     8
 71
     3
 72
    12
 73
     8
 74
     0
 42
0.000000001
 43
0.0000000001
 40
0.0
 40
0.0
 40
0.0
 40
0.0
 40
0.2499999999999977
 40
0.2499999999999977
 40
0.4999999999999953
 40
0.4999999999999953
 40
1.0
 40
1.0
 40
1.0
 40
1.0
 10
33.25966266294309
 20
20.22033745607855
 30
0.0
 10
33.25147151134717
 20
20.21477518802021
 30
0.0
 10
33.24334957293307
 20
20.20703483795395
 30
0.0
 10
33.22792960601424
 20
20.18797579966629
 30
0.0
 10
33.22075310399467
 20
20.17676103378331
 30
0.0
 10
33.20232984121148
 20
20.14059273347968
 30
0.0
 10
33.19428393130127
 20
20.11301168772175
 30
0.0
 10
33.1927846986216
 20
20.08941567735405
 30
0.0
  0
ARC
  5
F4
330
2
100
AcDbEntity
  8
0
100
AcDbCircle
 10
36.38767103505003
 20
15.61333710606124
 30
0.0
 40
5.568562525543161
100
AcDbArc
 50
123.1209904229009
 51
124.1752714889
  0
LWPOLYLINE
  5
F5
330
2
100
AcDbEntity
  8
0
100
AcDbPolyline
 90
        4
 70
   128
 43
0.0
 10
33.37171608717213
 20
20.69438806578869
 10
33.36827873344367
 20
20.64078871830692
 10
33.35453057702292
 20
20.42639091613648
 10
33.34495933251524
 20
20.2771117679145
  0
LWPOLYLINE
  5
F6
330
2
100
AcDbEntity
  8
0
100
AcDbPolyline
 90
        4
 70
   128
 43
0.0
 10
33.4480105354065
 20
21.63712019323583
 10
33.44361984963065
 20
21.58294985722284
 10
33.4260651433892
 20
21.36626574794929
 10
33.37171608717213
 20
20.69438806578869
  0
SPLINE
  5
F7
330
2
100
AcDbEntity
  8
0
100
AcDbSpline
210
0.0
220
0.0
230
1.0
 70
     8
 71
     3
 72
     8
 73
     4
 74
     0
 42
0.000000001
 43
0.0000000001
 40
0.0
 40
0.0
 40
0.0
 40
0.0
 40
1.0
 40
1.0
 40
1.0
 40
1.0
 10
33.4574574199882
 20
21.64499229721358
 30
0.0
 10
33.45425978274858
 20
21.64294539152153
 30
0.0
 10
33.45111139322742
 20
21.64031650727684
 30
0.0
 10
33.4480105353836
 20
21.63712019322927
 30
0.0
  0
LWPOLYLINE
  5
F8
330
2
100
AcDbEntity
  8
0
100
AcDbPolyline
 90
       26
 70
   128
 43
0.0
 10
33.45745742001187
 20
21.64499229721192
 10
33.79976603385329
 20
21.84843666063114
 10
34.17069297267413
 20
22.03892736194871
 10
34.56828319991247
 20
22.2154603860471
 10
34.990441145406
 20
22.37710528404682
 10
35.43494175037468
 20
22.5230100777467
 10
35.89944219516844
 20
22.65240574993746
 10
36.38149424736838
 20
22.76461029762224
 10
36.87855716573547
 20
22.85903232674721
 10
37.38801109147573
 20
22.93517416919036
 10
37.90717085692738
 20
22.99263450573812
 10
38.43330013790651
 20
23.03111048150078
 10
38.96362587626023
 20
23.05039930199511
 10
39.49535289561982
 20
23.05039930199511
 10
40.02567863397354
 20
23.03111048150078
 10
40.5518079149527
 20
22.99263450573812
 10
41.07096768035204
 20
22.93517416919036
 10
41.58042160609229
 20
22.85903232674721
 10
42.07748452445939
 20
22.76461029762224
 10
42.55953657671164
 20
22.65240574993746
 10
43.02403702150543
 20
22.5230100777467
 10
43.46853762647405
 20
22.37710528404682
 10
43.89069557191528
 20
22.2154603860471
 10
44.28828579915363
 20
22.03892736194871
 10
44.65921273802679
 20
21.84843666063114
 10
45.00152135186825
 20
21.64499229721192
  0
SPLINE
  5
F9
330
2
100
AcDbEntity
  8
0
100
AcDbSpline
210
0.0
220
0.0
230
1.0
 70
     8
 71
     3
 72
     8
 73
     4
 74
     0
 42
0.000000001
 43
0.0000000001
 40
0.0
 40
0.0
 40
0.0
 40
0.0
 40
1.0
 40
1.0
 40
1.0
 40
1.0
 10
45.01096823647205
 20
21.63712019322927
 30
0.0
 10
45.00790182810121
 20
21.64028099731792
 30
0.0
 10
45.00469918608759
 20
21.64295806804176
 30
0.0
 10
45.00152135186744
 20
21.64499229721358
 30
0.0
  0
LWPOLYLINE
  5
FA
330
2
100
AcDbEntity
  8
0
100
AcDbPolyline
 90
        4
 70
   128
 43
0.0
 10
45.08726268465563
 20
20.69438806578869
 10
45.082885040941
 20
20.74856288787771
 10
45.06536659950628
 20
20.96525947133156
 10
45.01096823647357
 20
21.63712019323583
  0
LWPOLYLINE
  5
FB
330
2
100
AcDbEntity
  8
0
100
AcDbPolyline
 90
        4
 70
   128
 43
0.0
 10
45.11401943931253
 20
20.2771117679145
 10
45.11058293711775
 20
20.33071139428833
 10
45.09683567680315
 20
20.54510948999904
 10
45.08726268465563
 20
20.69438806578869
  0
ARC
  5
FC
330
2
100
AcDbEntity
  8
0
100
AcDbCircle
 10
42.07130773677774
 20
15.61333710600893
 30
0.0
 40
5.568562525634116
100
AcDbArc
 50
55.82472851110001
 51
56.87900957709906
  0
SPLINE
  5
FD
330
2
100
AcDbEntity
  8
0
100
AcDbSpline
210
0.0
220
0.0
230
1.0
 70
     8
 71
     3
 72
    12
 73
     8
 74
     0
 42
0.000000001
 43
0.0000000001
 40
0.0
 40
0.0
 40
0.0
 40
0.0
 40
0.2499999999999977
 40
0.2499999999999977
 40
0.4999999999999953
 40
0.4999999999999953
 40
1.0
 40
1.0
 40
1.0
 40
1.0
 10
45.26619407323406
 20
20.08941567735405
 30
0.0
 10
45.26544450268911
 20
20.10121296178466
 30
0.0
 10
45.26313127886002
 20
20.11385754151782
 30
0.0
 10
45.25566714935972
 20
20.13962483253969
 30
0.0
 10
45.25053411981907
 20
20.15258727633154
 30
0.0
 10
45.23212885424215
 20
20.18875007946109
 30
0.0
 10
45.21569686113076
 20
20.20921397316305
 30
0.0
 10
45.19931610891251
 20
20.22033745607855
 30
0.0
  0
LINE
  5
FE
330
2
100
AcDbEntity
  8
0
100
AcDbLine
 10
45.31994507138064
 20
19.24320810264211
 30
0.0
 11
45.26619407322523
 21
20.08941567733429
 31
0.0
  0
ELLIPSE
  5
FF
330
2
100
AcDbEntity
  8
0
100
AcDbEllipse
 10
45.84311426818867
 20
20.66663779268207
 30
0.0
 11
-0.015311685389451
 21
0.0500299786477753
 31
0.0
210
0.0
220
0.0
230
0.9999999999999998
 40
0.4241965134
 41
6.276413276824133
 42
7.226106511356732
  0
LINE
  5
100
330
2
100
AcDbEntity
  8
0
100
AcDbLine
 10
45.81544380848086
 20
19.8073816255572
 30
0.0
 11
45.8169448518539
 21
20.69077033644795
 31
0.0
  0
LINE
  5
101
330
2
100
AcDbEntity
  8
0
100
AcDbLine
 10
45.81544380848086
 20
19.8073816255572
 30
0.0
 11
45.82567579135156
 21
18.99107325444736
 31
0.0
  0
LINE
  5
102
330
2
100
AcDbEntity
  8
0
100
AcDbLine
 10
45.02885544559187
 20
21.41619969924994
 30
0.0
 11
45.83440356895809
 21
20.7185745604903
 31
0.0
  0
ELLIPSE
  5
103
330
2
100
AcDbEntity
  8
0
100
AcDbEllipse
 10
32.6158645036391
 20
20.66663779268207
 30
0.0
 11
0.015311685389451
 21
0.050029978647805
 31
0.0
210
0.0
220
0.0
230
0.9999999999999998
 40
0.4241965134000001
 41
5.340264103002066
 42
6.289957337533787
  0
LINE
  5
104
330
2
100
AcDbEntity
  8
0
100
AcDbLine
 10
32.64353496339921
 20
19.8073816255572
 30
0.0
 11
32.63329204849183
 21
18.99020110299194
 31
0.0
  0
LINE
  5
105
330
2
100
AcDbEntity
  8
0
100
AcDbLine
 10
32.64203392002622
 20
20.69077033644795
 30
0.0
 11
32.64353496339921
 21
19.8073816255572
 31
0.0
  0
LINE
  5
106
330
2
100
AcDbEntity
  8
0
100
AcDbLine
 10
32.62457520292203
 20
20.7185745604903
 30
0.0
 11
33.43010958853766
 21
21.41618780203822
 31
0.0
  0
LINE
  5
107
330
2
100
AcDbEntity
  8
0
100
AcDbLine
 10
32.584767781223
 20
18.97662119882381
 30
0.0
 11
32.58289634865852
 21
19.34643000509324
 31
0.0
  0
LINE
  5
108
330
2
100
AcDbEntity
  8
0
100
AcDbLine
 10
32.45636087815613
 20
19.11128137546632
 30
0.0
 11
32.47556512645664
 21
19.46828530777986
 31
0.0
  0
LINE
  5
109
330
2
100
AcDbEntity
  8
0
100
AcDbLine
 10
32.58289634865852
 20
19.34643000509324
 30
0.0
 11
32.57036395934241
 21
19.44091924191648
 31
0.0
  0
LINE
  5
10A
330
2
100
AcDbEntity
  8
0
100
AcDbLine
 10
45.87421099065708
 20
18.97662119882381
 30
0.0
 11
45.8760824232216
 21
19.34643000509324
 31
0.0
  0
LINE
  5
10B
330
2
100
AcDbEntity
  8
0
100
AcDbLine
 10
45.8760824232216
 20
19.34643000509324
 30
0.0
 11
45.88861481253768
 21
19.44091924191648
 31
0.0
  0
LINE
  5
10C
330
2
100
AcDbEntity
  8
0
100
AcDbLine
 10
45.98341364542345
 20
19.46828530777986
 30
0.0
 11
46.00245044151885
 21
19.11439428489443
 31
0.0
  0
SPLINE
  5
10D
330
2
100
AcDbEntity
  8
0
100
AcDbSpline
210
0.0
220
0.0
230
1.0
 70
     8
 71
     3
 72
     8
 73
     4
 74
     0
 42
0.000000001
 43
0.0000000001
 40
0.0
 40
0.0
 40
0.0
 40
0.0
 40
1.0
 40
1.0
 40
1.0
 40
1.0
 10
32.44461262402091
 20
20.76815211188503
 30
0.0
 10
32.44284722772281
 20
20.76712845038423
 30
0.0
 10
32.44095016654841
 20
20.76538904859541
 30
0.0
 10
32.43901569537863
 20
20.76299589142771
 30
0.0
  0
LWPOLYLINE
  5
10E
330
2
100
AcDbEntity
  8
0
100
AcDbPolyline
 90
        4
 70
   128
 43
0.0
 10
32.40459472609884
 20
19.85683639853005
 10
32.4068878669202
 20
19.90920598821546
 10
32.41606821103725
 20
20.11868156755799
 10
32.44461262402778
 20
20.76815211187867
  0
LWPOLYLINE
  5
10F
330
2
100
AcDbEntity
  8
0
100
AcDbPolyline
 90
        4
 70
   128
 43
0.0
 10
32.38212912545577
 20
19.44327634904198
 10
32.38501443914652
 20
19.49639863214638
 10
32.3965569047435
 20
19.70888731967596
 10
32.40459472609884
 20
19.85683639853005
  0
ARC
  5
110
330
2
100
AcDbEntity
  8
0
100
AcDbCircle
 10
34.90120053444615
 20
17.35213094524698
 30
0.0
 40
3.273928811595221
100
AcDbArc
 50
138.8008210537007
 51
140.3030696584016
  0
SPLINE
  5
111
330
2
100
AcDbEntity
  8
0
100
AcDbSpline
210
0.0
220
0.0
230
1.0
 70
     8
 71
     3
 72
    12
 73
     8
 74
     0
 42
0.000000001
 43
0.0000000001
 40
0.0
 40
0.0
 40
0.0
 40
0.0
 40
0.2499999999999977
 40
0.2499999999999977
 40
0.4999999999999953
 40
0.4999999999999953
 40
1.0
 40
1.0
 40
1.0
 40
1.0
 10
32.47556512644322
 20
19.46828530775616
 30
0.0
 10
32.47619433648832
 20
19.47997835693637
 30
0.0
 10
32.47568265976069
 20
19.49017650102414
 30
0.0
 10
32.47250717272656
 20
19.50672961384066
 30
0.0
 10
32.46984220999344
 20
19.51293879822506
 30
0.0
 10
32.45933594157004
 20
19.52406347844793
 30
0.0
 10
32.44889284475977
 20
19.52125286154872
 30
0.0
 10
32.43781678330214
 20
19.50859804631396
 30
0.0
  0
ARC
  5
112
330
2
100
AcDbEntity
  8
0
100
AcDbCircle
 10
34.14829668991308
 20
19.30083189231733
 30
0.0
 40
2.249347700692732
100
AcDbArc
 50
139.4554486087002
 51
174.1405686757003
  0
SPLINE
  5
113
330
2
100
AcDbEntity
  8
0
100
AcDbSpline
210
0.0
220
0.0
230
1.0
 70
     8
 71
     3
 72
    12
 73
     8
 74
     0
 42
0.000000001
 43
0.0000000001
 40
0.0
 40
0.0
 40
0.0
 40
0.0
 40
0.2499999999999977
 40
0.2499999999999977
 40
0.4999999999999953
 40
0.4999999999999953
 40
1.0
 40
1.0
 40
1.0
 40
1.0
 10
46.02116198855354
 20
19.50859804631391
 30
0.0
 10
46.015623433469
 20
19.51492605302728
 30
0.0
 10
46.01029524888115
 20
19.51883385116468
 30
0.0
 10
46.00052440154648
 20
19.52159069796268
 30
0.0
 10
45.99616350644195
 20
19.52036761108267
 30
0.0
 10
45.98564422034104
 20
19.50926429336294
 30
0.0
 10
45.98215514843916
 20
19.49167283488651
 30
0.0
 10
45.98341364541237
 20
19.46828530775616
 30
0.0
  0
ARC
  5
114
330
2
100
AcDbEntity
  8
0
100
AcDbCircle
 10
43.55777823717235
 20
17.35213094503771
 30
0.0
 40
3.273928811901786
100
AcDbArc
 50
39.69693034159838
 51
41.19917894619971
  0
LWPOLYLINE
  5
115
330
2
100
AcDbEntity
  8
0
100
AcDbPolyline
 90
        4
 70
   128
 43
0.0
 10
46.05438404578125
 20
19.85683639853005
 10
46.05727018343553
 20
19.80371441817338
 10
46.06881351620832
 20
19.59122604929537
 10
46.07684964642431
 20
19.44327634904198
  0
LWPOLYLINE
  5
116
330
2
100
AcDbEntity
  8
0
100
AcDbPolyline
 90
        4
 70
   128
 43
0.0
 10
46.01436614785227
 20
20.76815211187867
 10
46.01667218843767
 20
20.71578713152384
 10
46.02588840175424
 20
20.50632436892116
 10
46.05438404578125
 20
19.85683639853005
  0
SPLINE
  5
117
330
2
100
AcDbEntity
  8
0
100
AcDbSpline
210
0.0
220
0.0
230
1.0
 70
     8
 71
     3
 72
     8
 73
     4
 74
     0
 42
0.000000001
 43
0.0000000001
 40
0.0
 40
0.0
 40
0.0
 40
0.0
 40
1.0
 40
1.0
 40
1.0
 40
1.0
 10
46.01996307647698
 20
20.76299589142762
 30
0.0
 10
46.01801655043979
 20
20.76540396181446
 30
0.0
 10
46.01615137742469
 20
20.76711695008974
 30
0.0
 10
46.01436614783467
 20
20.76815211188503
 30
0.0
  0
ARC
  5
118
330
2
100
AcDbEntity
  8
0
100
AcDbCircle
 10
44.33680700081754
 20
19.31203012163962
 30
0.0
 40
2.222232220116116
100
AcDbArc
 50
5.640979907201446
 51
40.76300280839961
  0
ELLIPSE
  5
119
330
2
100
AcDbEntity
  8
0
100
AcDbEllipse
 10
32.51815523972411
 20
19.39479384117702
 30
0.0
 11
0.0157825893016792
 21
0.1041193503515485
 31
0.0
210
0.0
220
0.0
230
1.0
 40
0.4926395442000002
 41
5.24450207558694
 42
6.218569152574621
  0
ELLIPSE
  5
11A
330
2
100
AcDbEntity
  8
0
100
AcDbEllipse
 10
45.94082353210365
 20
19.39479384117702
 30
0.0
 11
-0.0157825893016197
 21
0.1041193503515485
 31
0.0
210
0.0
220
0.0
230
1.0
 40
0.4926395442000002
 41
0.0646161546055553
 42
1.038683231592614
  0
SPLINE
  5
11B
330
2
100
AcDbEntity
  8
0
100
AcDbSpline
210
0.0
220
0.0
230
1.0
 70
     8
 71
     2
 72
     6
 73
     3
 74
     0
 42
0.000000001
 43
0.0000000001
 40
0.0
 40
0.0
 40
0.0
 40
1.0
 40
1.0
 40
1.0
 10
32.44461262402091
 20
20.76815211188503
 30
0.0
 10
32.44673698282138
 20
20.76938391707243
 30
0.0
 10
32.45249544073324
 20
20.76824970897425
 30
0.0
  0
SPLINE
  5
11C
330
2
100
AcDbEntity
  8
0
100
AcDbSpline
210
0.0
220
0.0
230
1.0
 70
     8
 71
     2
 72
     6
 73
     3
 74
     0
 42
0.000000001
 43
0.0000000001
 40
0.0
 40
0.0
 40
0.0
 40
1.0
 40
1.0
 40
1.0
 10
46.01436614783467
 20
20.76815211188503
 30
0.0
 10
46.01224178903422
 20
20.76938391707243
 30
0.0
 10
46.00648333109453
 20
20.76824970897425
 30
0.0
  0
SPLINE
  5
11D
330
2
100
AcDbEntity
  8
0
100
AcDbSpline
210
0.0
220
0.0
230
1.0
 70
     8
 71
     3
 72
    10
 73
     6
 74
     0
 42
0.000000001
 43
0.0000000001
 40
0.0
 40
0.0
 40
0.0
 40
0.0
 40
0.3852248288516202
 40
0.9303658622867883
 40
1.0
 40
1.0
 40
1.0
 40
1.0
 10
17.77191743921855
 20
10.09356536519985
 30
0.0
 10
17.753345370825
 20
10.07871186934625
 30
0.0
 10
17.70849151631896
 20
10.04283882990859
 30
0.0
 10
17.66784456645052
 20
9.991583405770439
 30
0.0
 10
17.65713581295893
 20
9.95523090670292
 30
0.0
 10
17.65592285763753
 20
9.951113344632917
 30
0.0
  0
SPLINE
  5
11E
330
2
100
AcDbEntity
  8
0
100
AcDbSpline
210
0.0
220
0.0
230
1.0
 70
     8
 71
     3
 72
    10
 73
     6
 74
     0
 42
0.000000001
 43
0.0000000001
 40
0.0
 40
0.0
 40
0.0
 40
0.0
 40
0.178406816138169
 40
0.5961940725780118
 40
1.0
 40
1.0
 40
1.0
 40
1.0
 10
18.045985043391
 20
10.1074817846391
 30
0.0
 10
18.03696595828959
 20
10.114500926862
 30
0.0
 10
18.00682627420177
 20
10.13795726714358
 30
0.0
 10
17.94002163741999
 20
10.14960876590442
 30
0.0
 10
17.88686791071532
 20
10.13972149958425
 30
0.0
 10
17.86074331483314
 20
10.13486199390125
 30
0.0
  0
SPLINE
  5
11F
330
2
100
AcDbEntity
  8
0
100
AcDbSpline
210
0.0
220
0.0
230
1.0
 70
     8
 71
     3
 72
    12
 73
     8
 74
     0
 42
0.000000001
 43
0.0000000001
 40
0.0
 40
0.0
 40
0.0
 40
0.0
 40
0.0291081485275992
 40
0.324446051290663
 40
0.5915218762100177
 40
0.8482103367107132
 40
1.0
 40
1.0
 40
1.0
 40
1.0
 10
17.67501231598284
 20
9.988857731623312
 30
0.0
 10
17.67297699554715
 20
9.986286199747198
 30
0.0
 10
17.65029085053736
 20
9.957623319929396
 30
0.0
 10
17.63165567599428
 20
9.89187376865739
 30
0.0
 10
17.62719587390295
 20
9.804947518513742
 30
0.0
 10
17.64648113497651
 20
9.733807078949212
 30
0.0
 10
17.67517424753991
 20
9.70239513415872
 30
0.0
 10
17.68583655144566
 20
9.690722517572167
 30
0.0
  0
LINE
  5
120
330
2
100
AcDbEntity
  8
0
100
AcDbLine
 10
18.11057253604167
 20
10.06829404196
 30
0.0
 11
18.045985043391
 21
10.1074817846391
 31
0.0
  0
LINE
  5
121
330
2
100
AcDbEntity
  8
0
100
AcDbLine
 10
17.68583655144566
 20
9.690722517572167
 30
0.0
 11
17.73384044137913
 21
9.633282094139444
 31
0.0
  0
SPLINE
  5
122
330
2
100
AcDbEntity
  8
0
100
AcDbSpline
210
0.0
220
0.0
230
1.0
 70
     8
 71
     3
 72
     9
 73
     5
 74
     0
 42
0.000000001
 43
0.0000000001
 40
0.0
 40
0.0
 40
0.0
 40
0.0
 40
0.0304439907759075
 40
1.0
 40
1.0
 40
1.0
 40
1.0
 10
8.835094158553365
 20
7.52369073391894
 30
0.0
 10
8.834212933272732
 20
7.523380331802457
 30
0.0
 10
8.805267146005146
 20
7.513184489912233
 30
0.0
 10
8.782018439214379
 20
7.491334757826222
 30
0.0
 10
8.759477515838625
 20
7.470150218782293
 30
0.0
  0
SPLINE
  5
123
330
2
100
AcDbEntity
  8
0
100
AcDbSpline
210
0.0
220
0.0
230
1.0
 70
     8
 71
     3
 72
     9
 73
     5
 74
     0
 42
0.000000001
 43
0.0000000001
 40
0.0
 40
0.0
 40
0.0
 40
0.0
 40
0.558387413646741
 40
1.0
 40
1.0
 40
1.0
 40
1.0
 10
8.759477515838625
 20
7.470150218782293
 30
0.0
 10
8.742623897481996
 20
7.452964310227513
 30
0.0
 10
8.712441235866222
 20
7.422186559628713
 30
0.0
 10
8.696609823477146
 20
7.382524244203281
 30
0.0
 10
8.689618472506321
 20
7.36500886650748
 30
0.0
  0
SPLINE
  5
124
330
2
100
AcDbEntity
  8
0
100
AcDbSpline
210
0.0
220
0.0
230
1.0
 70
     8
 71
     3
 72
    10
 73
     6
 74
     0
 42
0.000000001
 43
0.0000000001
 40
0.0
 40
0.0
 40
0.0
 40
0.0
 40
0.3341848966245098
 40
0.6760545672849795
 40
1.0
 40
1.0
 40
1.0
 40
1.0
 10
9.069752130940402
 20
7.525501447678863
 30
0.0
 10
9.04590130124896
 20
7.536297254566377
 30
0.0
 10
8.997651178310086
 20
7.558137124134275
 30
0.0
 10
8.915777857224757
 20
7.556763456398556
 30
0.0
 10
8.865209814909636
 20
7.535901338011044
 30
0.0
 10
8.840606458412819
 20
7.525751090691414
 30
0.0
  0
SPLINE
  5
125
330
2
100
AcDbEntity
  8
0
100
AcDbSpline
210
0.0
220
0.0
230
1.0
 70
     8
 71
     3
 72
    11
 73
     7
 74
     0
 42
0.000000001
 43
0.0000000001
 40
0.0
 40
0.0
 40
0.0
 40
0.0
 40
0.1174437488512791
 40
0.4532904660140817
 40
0.7450588621110571
 40
1.0
 40
1.0
 40
1.0
 40
1.0
 10
8.69254894162761
 20
7.373106800040829
 30
0.0
 10
8.686587817653787
 20
7.362937402814706
 30
0.0
 10
8.663580031454452
 20
7.323687201311669
 30
0.0
 10
8.655147381659972
 20
7.250019044626028
 30
0.0
 10
8.666306823656777
 20
7.166042984734203
 30
0.0
 10
8.695637940793716
 20
7.124131372536112
 30
0.0
 10
8.709315603087082
 20
7.104587184186911
 30
0.0
  0
LINE
  5
126
330
2
100
AcDbEntity
  8
0
100
AcDbLine
 10
9.110263337187532
 20
7.499893072061268
 30
0.0
 11
9.079059743227293
 21
7.520406378137367
 31
0.0
  0
LINE
  5
127
330
2
100
AcDbEntity
  8
0
100
AcDbLine
 10
8.713222665180973
 20
7.097973954601798
 30
0.0
 11
8.737984305469398
 21
7.070021523243481
 31
0.0
  0
LINE
  5
128
330
2
100
AcDbEntity
  8
0
100
AcDbLine
 10
17.73384044137913
 20
9.633282094139444
 30
0.0
 11
17.77046107880111
 21
9.601567691829556
 31
0.0
  0
LINE
  5
129
330
2
100
AcDbEntity
  8
0
100
AcDbLine
 10
18.14719317344264
 20
10.03657963965006
 30
0.0
 11
18.11057253604167
 21
10.06829404196
 31
0.0
  0
LINE
  5
12A
330
2
100
AcDbEntity
  8
0
100
AcDbLine
 10
21.29648768463075
 20
10.68004689234294
 30
0.0
 11
21.2511813473998
 21
10.66696807933594
 31
0.0
  0
LINE
  5
12B
330
2
100
AcDbEntity
  8
0
100
AcDbLine
 10
24.20283997785459
 20
11.14008666027921
 30
0.0
 11
21.91361668998321
 21
13.12261218251204
 31
0.0
  0
LINE
  5
12C
330
2
100
AcDbEntity
  8
0
100
AcDbLine
 10
21.74496233583688
 20
13.26867113766172
 30
0.0
 11
21.40609398569333
 21
13.56213973742474
 31
0.0
  0
LINE
  5
12D
330
2
100
AcDbEntity
  8
0
100
AcDbLine
 10
21.33811244008037
 20
13.62101348291413
 30
0.0
 11
21.26213331821798
 21
13.68681333260424
 31
0.0
  0
LINE
  5
12E
330
2
100
AcDbEntity
  8
0
100
AcDbLine
 10
21.16806944699526
 20
13.68445091688255
 30
0.0
 11
5.039045122593067
 21
9.028402649163282
 31
0.0
  0
LINE
  5
12F
330
2
100
AcDbEntity
  8
0
100
AcDbLine
 10
21.2197943838517
 20
9.235667936827297
 30
0.0
 11
24.09712739688206
 21
6.743824452378077
 31
0.0
  0
LINE
  5
130
330
2
100
AcDbEntity
  8
0
100
AcDbLine
 10
24.99920327547191
 20
7.018788959674567
 30
0.0
 11
24.99920327547191
 21
7.064095296905477
 31
0.0
  0
LINE
  5
131
330
2
100
AcDbEntity
  8
0
100
AcDbLine
 10
5.601121223281658
 20
2.285820952642082
 30
0.0
 11
23.33387066030086
 21
7.404824783119861
 31
0.0
  0
LINE
  5
132
330
2
100
AcDbEntity
  8
0
100
AcDbLine
 10
1.810654606696408
 20
3.632187643534621
 30
0.0
 11
1.810654606696408
 21
3.586881306303722
 31
0.0
  0
LINE
  5
133
330
2
100
AcDbEntity
  8
0
100
AcDbLine
 10
17.77253777893147
 20
10.09395429030343
 30
0.0
 11
17.85758209937878
 21
10.13399466234594
 31
0.0
  0
LINE
  5
134
330
2
100
AcDbEntity
  8
0
100
AcDbLine
 10
8.83439792754485
 20
7.523738416941569
 30
0.0
 11
8.839715138536689
 21
7.526408570524607
 31
0.0
  0
LINE
  5
135
330
2
100
AcDbEntity
  8
0
100
AcDbLine
 10
9.071989931967802
 20
7.524795976155316
 30
0.0
 11
9.079059743227293
 21
7.520406378137367
 31
0.0
  0
LINE
  5
136
330
2
100
AcDbEntity
  8
0
100
AcDbLine
 10
8.713222665180973
 20
7.097973954601798
 30
0.0
 11
8.709388008193323
 21
7.102467068933862
 31
0.0
  0
LWPOLYLINE
  5
137
330
2
100
AcDbEntity
  8
0
100
AcDbPolyline
 90
        6
 70
   128
 43
0.0
 10
9.077048996654973
 20
7.104371671757959
 10
9.142285423474216
 20
7.186563411313798
 10
9.180229624358698
 20
7.280164956013705
 10
9.185754770980102
 20
7.372533280444044
 10
9.158116885838907
 20
7.4511948665629
 10
9.110263337187532
 20
7.499893072061268
  0
ARC
  5
138
330
2
100
AcDbEntity
  8
0
100
AcDbCircle
 10
8.891086187600238
 20
7.24937901183928
 30
0.0
 40
0.2358162314770565
100
AcDbArc
 50
229.5154980495011
 51
322.0541318141965
  0
LWPOLYLINE
  5
139
330
2
100
AcDbEntity
  8
0
100
AcDbPolyline
 90
       11
 70
   128
 43
0.0
 10
17.77046107880111
 20
9.601567691829556
 10
17.77554199929136
 20
9.597345565077803
 10
17.84890276803903
 20
9.563713054412147
 10
17.93710933026037
 20
9.564568129611146
 10
18.0282499451731
 20
9.599795761722289
 10
18.1100132034897
 20
9.664637884222161
 10
18.17135826359844
 20
9.750337576424783
 10
18.20400010605397
 20
9.845320573514412
 10
18.20353022555886
 20
9.936758632320872
 10
18.17001073272603
 20
10.01230257629031
 10
18.14719317344264
 20
10.03657963965006
  0
LWPOLYLINE
  5
13A
330
2
100
AcDbEntity
  8
0
100
AcDbPolyline
 90
       14
 70
   128
 43
0.0
 10
17.66369153620026
 20
9.617792090053979
 10
17.71737538373162
 20
9.543748691183694
 10
17.7972240140309
 20
9.499540944605186
 10
17.89458379446468
 20
9.489959310505582
 10
17.99890671787715
 20
9.516042616137623
 10
18.098885947092
 20
9.574963996182288
 10
18.1836872258938
 20
9.660338437170523
 10
18.24412223009621
 20
9.762914242712438
 10
18.27363963723884
 20
9.871575428503831
 10
18.26904344978557
 20
9.974547580267056
 10
18.23083055284972
 20
10.06067202506187
 10
18.16314075571911
 20
10.12061505645968
 10
18.07331121542988
 20
10.14788160363058
 10
17.97997917505042
 20
10.14161741960804
  0
LWPOLYLINE
  5
13B
330
2
100
AcDbEntity
  8
0
100
AcDbPolyline
 90
        3
 70
   128
 43
0.0
 10
17.64245239735882
 20
9.749827350551813
 10
17.64199061824073
 20
9.713647595632581
 10
17.66369153620026
 20
9.617792090053979
  0
LWPOLYLINE
  5
13C
330
2
100
AcDbEntity
  8
0
100
AcDbPolyline
 90
       14
 70
   128
 43
0.0
 10
8.723958411871683
 20
6.977805866127681
 10
8.79522497180241
 20
6.922085953837098
 10
8.887402564376186
 20
6.899676534492286
 10
8.990500827971979
 20
6.913005449178411
 10
9.093349298778306
 20
6.960629017895199
 10
9.184801817135376
 20
7.037385625902004
 10
9.254949035297233
 20
7.134958406134344
 10
9.296189150875322
 20
7.242773371588213
 10
9.304051547917335
 20
7.349146898494794
 10
9.277685580705712
 20
7.442551906240225
 10
9.219949688926234
 20
7.512866892316111
 10
9.137098144157652
 20
7.552471682049898
 10
9.038109984744924
 20
7.557074821223395
 10
9.007205890015027
 20
7.551536244571606
  0
ARC
  5
13D
330
2
100
AcDbEntity
  8
0
100
AcDbCircle
 10
8.940465121879501
 20
7.138523321479142
 30
0.0
 40
0.2696391216699255
100
AcDbArc
 50
173.769377047998
 51
216.587270882999
  0
LWPOLYLINE
  5
13E
330
2
100
AcDbEntity
  8
0
100
AcDbPolyline
 90
        4
 70
   128
 43
0.0
 10
21.32550686737148
 20
10.67013400022488
 10
21.31530071979394
 20
10.6772316600084
 10
21.30548678654557
 20
10.68057424205133
 10
21.296442178029
 20
10.68003364319745
  0
LINE
  5
13F
330
2
100
AcDbEntity
  8
0
100
AcDbLine
 10
21.32550686737148
 20
10.67013400022488
 30
0.0
 11
21.43013717648073
 21
10.57952149455269
 31
0.0
  0
LWPOLYLINE
  5
140
330
2
100
AcDbEntity
  8
0
100
AcDbPolyline
 90
        3
 70
   128
 43
0.0
 10
21.43013717648073
 20
10.57952149455269
 10
21.5038315684775
 20
10.53405228566605
 10
21.55655769504658
 20
10.53009644243548
  0
LINE
  5
141
330
2
100
AcDbEntity
  8
0
100
AcDbLine
 10
24.20283997785459
 20
11.14008666027921
 30
0.0
 11
24.20283997785454
 21
7.767784325322196
 31
0.0
  0
ARC
  5
142
330
2
100
AcDbEntity
  8
0
100
AcDbCircle
 10
21.42623789300285
 20
10.11169871951223
 30
0.0
 40
0.1983596433180804
100
AcDbArc
 50
179.5143398835012
 51
222.5891566898015
  0
LINE
  5
143
330
2
100
AcDbEntity
  8
0
100
AcDbLine
 10
21.22788537558603
 20
10.61174876561306
 30
0.0
 11
21.22788537558603
 21
10.11338006872743
 31
0.0
  0
LINE
  5
144
330
2
100
AcDbEntity
  8
0
100
AcDbLine
 10
21.28020053014073
 20
9.97746147896693
 30
0.0
 11
21.59409145744731
 21
9.705623961908671
 31
0.0
  0
LINE
  5
145
330
2
100
AcDbEntity
  8
0
100
AcDbLine
 10
5.027397185412553
 20
5.693437420828201
 30
0.0
 11
5.027397185412553
 21
9.00079295010444
 31
0.0
  0
LINE
  5
146
330
2
100
AcDbEntity
  8
0
100
AcDbLine
 10
18.34743467742421
 20
11.03370712731312
 30
0.0
 11
17.6225346319215
 21
10.82444650909477
 31
0.0
  0
LINE
  5
147
330
2
100
AcDbEntity
  8
0
100
AcDbLine
 10
18.34743467742421
 20
11.30554447558175
 30
0.0
 11
18.34743467742421
 21
11.03370712731312
 31
0.0
  0
LINE
  5
148
330
2
100
AcDbEntity
  8
0
100
AcDbLine
 10
18.34743467742421
 20
11.30554447558175
 30
0.0
 11
17.6225346319215
 21
11.09628385738432
 31
0.0
  0
LINE
  5
149
330
2
100
AcDbEntity
  8
0
100
AcDbLine
 10
17.6225346319215
 20
11.09628385738432
 30
0.0
 11
17.6225346319215
 21
10.82444650909477
 31
0.0
  0
LINE
  5
14A
330
2
100
AcDbEntity
  8
0
100
AcDbLine
 10
9.376797458344707
 20
8.444107220690964
 30
0.0
 11
8.651897412863025
 21
8.23484660249349
 31
0.0
  0
LINE
  5
14B
330
2
100
AcDbEntity
  8
0
100
AcDbLine
 10
9.376797458344707
 20
8.715944568959598
 30
0.0
 11
9.376797458344707
 21
8.444107220690964
 31
0.0
  0
LINE
  5
14C
330
2
100
AcDbEntity
  8
0
100
AcDbLine
 10
9.376797458344707
 20
8.715944568959598
 30
0.0
 11
8.651897412863025
 21
8.506683950762122
 31
0.0
  0
LINE
  5
14D
330
2
100
AcDbEntity
  8
0
100
AcDbLine
 10
8.651897412863025
 20
8.506683950762122
 30
0.0
 11
8.651897412863025
 21
8.23484660249349
 31
0.0
  0
LWPOLYLINE
  5
14E
330
2
100
AcDbEntity
  8
0
100
AcDbPolyline
 90
        7
 70
   128
 43
0.0
 10
21.2511813473998
 20
10.66696807933594
 10
21.2511358407981
 20
10.66695483019033
 10
21.24320814175179
 20
10.66255172582477
 10
21.23670215873587
 20
10.65445489486212
 10
21.23186764214371
 20
10.64297598758337
 10
21.22889061360617
 20
10.62855577012141
 10
21.22788537558603
 20
10.61174876561306
  0
ARC
  5
14F
330
2
100
AcDbEntity
  8
0
100
AcDbCircle
 10
21.15181325016025
 20
9.27885943587249
 30
0.0
 40
0.61460391580014
100
AcDbArc
 50
13.13109163540021
 51
43.97729533529892
  0
ARC
  5
150
330
2
100
AcDbEntity
  8
0
100
AcDbCircle
 10
20.23831588665142
 20
10.09778177519845
 30
0.0
 40
0.1289084520592562
100
AcDbArc
 50
287.2089174333012
 51
357.1688175609007
  0
LINE
  5
151
330
2
100
AcDbEntity
  8
0
100
AcDbLine
 10
20.27645431904559
 20
9.9746442545553
 30
0.0
 11
5.144168738647766
 21
5.606329677918296
 31
0.0
  0
LINE
  5
152
330
2
100
AcDbEntity
  8
0
100
AcDbLine
 10
20.36706699350734
 20
11.26937696016762
 30
0.0
 11
20.36706699350734
 21
10.09141455503111
 31
0.0
  0
LWPOLYLINE
  5
153
330
2
100
AcDbEntity
  8
0
100
AcDbPolyline
 90
        8
 70
   128
 43
0.0
 10
21.55655769504658
 20
10.53009644243548
 10
21.58251660366768
 20
10.55161140303479
 10
21.62276851235874
 20
10.62523588883403
 10
21.64374413447373
 20
10.7308019533511
 10
21.64374413447373
 20
10.85975714694846
 10
21.62276851235874
 20
11.00165371714446
 10
21.58251660366768
 20
11.14499722900173
 10
21.55242947589866
 20
11.21620910806983
  0
LWPOLYLINE
  5
154
330
2
100
AcDbEntity
  8
0
100
AcDbPolyline
 90
        2
 70
   128
 43
0.0
 10
21.55242947589866
 20
11.21620910806983
 10
21.47674849000687
 20
11.33851457731744
  0
ARC
  5
155
330
2
100
AcDbEntity
  8
0
100
AcDbCircle
 10
21.42623577233518
 20
11.69741666420394
 30
0.0
 40
0.1983575268290837
100
AcDbArc
 50
179.5141952210006
 51
222.5893967578022
  0
ARC
  5
156
330
2
100
AcDbEntity
  8
0
100
AcDbCircle
 10
21.05383034094662
 20
11.69238574565123
 30
0.0
 40
0.1289059883591469
100
AcDbArc
 50
287.2081354590005
 51
357.1692786496003
  0
LINE
  5
157
330
2
100
AcDbEntity
  8
0
100
AcDbLine
 10
21.09196636389348
 20
11.56925005794244
 30
0.0
 11
21.07770221966253
 21
11.56513235418661
 31
0.0
  0
LINE
  5
158
330
2
100
AcDbEntity
  8
0
100
AcDbLine
 10
20.9950068630503
 20
11.54126026098578
 30
0.0
 11
20.45767899287344
 21
11.38614706573814
 31
0.0
  0
LINE
  5
159
330
2
100
AcDbEntity
  8
0
100
AcDbLine
 10
21.22788537558603
 20
13.69257328383355
 30
0.0
 11
21.22788537558603
 21
13.13189682490495
 31
0.0
  0
LINE
  5
15A
330
2
100
AcDbEntity
  8
0
100
AcDbLine
 10
21.22788537558603
 20
12.69943250747739
 30
0.0
 11
21.22788537558603
 21
11.69909849628786
 31
0.0
  0
LINE
  5
15B
330
2
100
AcDbEntity
  8
0
100
AcDbLine
 10
21.18257903835523
 20
11.68601968330178
 30
0.0
 11
21.18257903835523
 21
12.41612647597979
 31
0.0
  0
LINE
  5
15C
330
2
100
AcDbEntity
  8
0
100
AcDbLine
 10
21.18257903835523
 20
12.90050004993541
 30
0.0
 11
21.18257903835523
 21
13.63418813361356
 31
0.0
  0
LINE
  5
15D
330
2
100
AcDbEntity
  8
0
100
AcDbLine
 10
21.3167104283021
 20
11.53066148238737
 30
0.0
 11
21.28020053014073
 21
11.56318024410656
 31
0.0
  0
ARC
  5
15E
330
2
100
AcDbEntity
  8
0
100
AcDbCircle
 10
20.49581625872363
 20
11.26301118408666
 30
0.0
 40
0.1289065413344767
100
AcDbArc
 50
107.2086376752012
 51
177.1694182046975
  0
LWPOLYLINE
  5
15F
330
2
100
AcDbEntity
  8
0
100
AcDbPolyline
 90
        7
 70
   128
 43
0.0
 10
5.027397185412553
 20
9.00079295010444
 10
5.027899804412143
 20
9.009196958696007
 10
5.029388269944075
 20
9.016406940834796
 10
5.031805576976911
 20
9.022146183508098
 10
5.035058568474464
 20
9.026194936547694
 10
5.039022418008083
 20
9.028395982393137
 10
5.039045122593067
 20
9.028402649163282
  0
LWPOLYLINE
  5
160
330
2
100
AcDbEntity
  8
0
100
AcDbPolyline
 90
        4
 70
   128
 43
0.0
 10
21.18257903835523
 20
13.67949447084441
 10
21.17747596457682
 20
13.68304363828399
 10
21.17256904666853
 20
13.68471488711856
 10
21.16804674241021
 20
13.68444425011236
  0
LINE
  5
161
330
2
100
AcDbEntity
  8
0
100
AcDbLine
 10
21.18257903835523
 20
13.63418813361356
 30
0.0
 11
21.18257903835523
 21
13.67949447084441
 31
0.0
  0
LINE
  5
162
330
2
100
AcDbEntity
  8
0
100
AcDbLine
 10
21.18257903835523
 20
13.67949447084441
 30
0.0
 11
21.22788537558603
 21
13.69257328383054
 31
0.0
  0
ARC
  5
163
330
2
100
AcDbEntity
  8
0
100
AcDbCircle
 10
5.177108526197137
 20
7.277721108837582
 30
0.0
 40
0.2141751359216568
100
AcDbArc
 50
180.5536595746979
 51
216.0803568636987
  0
LINE
  5
164
330
2
100
AcDbEntity
  8
0
100
AcDbLine
 10
4.962943389724271
 20
8.951982629648954
 30
0.0
 11
4.962943389724271
 21
7.275651527626719
 31
0.0
  0
LINE
  5
165
330
2
100
AcDbEntity
  8
0
100
AcDbLine
 10
5.008249051838658
 20
9.010367585002498
 30
0.0
 11
5.029409877271222
 21
9.016476189137947
 31
0.0
  0
ARC
  5
166
330
2
100
AcDbEntity
  8
0
100
AcDbCircle
 10
5.027317418793542
 20
8.948800217435632
 30
0.0
 40
0.0644526443614012
100
AcDbArc
 50
107.2085625796019
 51
177.1698141882998
  0
ARC
  5
167
330
2
100
AcDbEntity
  8
0
100
AcDbCircle
 10
22.12070279743472
 20
9.304109442589606
 30
0.0
 40
0.1691358770470512
100
AcDbArc
 50
57.13638854679935
 51
107.6021872117999
  0
LINE
  5
168
330
2
100
AcDbEntity
  8
0
100
AcDbLine
 10
22.21248287544341
 20
9.446177602948806
 30
0.0
 11
24.98518557938549
 21
7.044946624192576
 31
0.0
  0
LWPOLYLINE
  5
169
330
2
100
AcDbEntity
  8
0
100
AcDbPolyline
 90
        9
 70
   128
 43
0.0
 10
24.94688805945748
 20
6.973482745363327
 10
24.96356072515801
 20
6.979456478248422
 10
24.97758175886698
 20
6.986941578478564
 10
24.98841339873908
 20
6.995650709990228
 10
24.99563849581168
 20
7.00524899047633
 10
24.99897924979605
 20
7.015367388917892
 10
24.99830810090185
 20
7.025617459224817
 10
24.99365060365497
 20
7.035605222122255
 10
24.98518557938549
 20
7.044946624192576
  0
LINE
  5
16A
330
2
100
AcDbEntity
  8
0
100
AcDbLine
 10
24.13137601460959
 20
6.73806469603619
 30
0.0
 11
24.94688805945748
 21
6.973482745363327
 31
0.0
  0
LINE
  5
16B
330
2
100
AcDbEntity
  8
0
100
AcDbLine
 10
22.06955504642711
 20
9.465326229791683
 30
0.0
 11
21.25404300157916
 21
9.229908180485423
 31
0.0
  0
LWPOLYLINE
  5
16C
330
2
100
AcDbEntity
  8
0
100
AcDbPolyline
 90
        9
 70
   128
 43
0.0
 10
22.99583557115681
 20
8.192308055502465
 10
22.93444814797981
 20
8.165390410344597
 10
22.89833534920698
 20
8.128775781254361
 10
22.89299555223902
 20
8.088038572388255
 10
22.91924051914274
 20
8.049380308369819
 10
22.97307611309554
 20
8.018686772329985
 10
23.04630492712024
 20
8.000630367795793
 10
23.12777972436761
 20
7.997960353831317
 10
23.20509616499639
 20
8.011083065230748
  0
LINE
  5
16D
330
2
100
AcDbEntity
  8
0
100
AcDbLine
 10
23.20509616499639
 20
8.011083065230748
 30
0.0
 11
23.38632083882426
 21
8.063398122332657
 31
0.0
  0
LWPOLYLINE
  5
16E
330
2
100
AcDbEntity
  8
0
100
AcDbPolyline
 90
        9
 70
   128
 43
0.0
 10
23.38632083882426
 20
8.063398122332657
 10
23.44770826200126
 20
8.090315767490507
 10
23.48382106077407
 20
8.126930396559826
 10
23.48916085774203
 20
8.167667605446865
 10
23.46291589083842
 20
8.206325869465302
 10
23.40908029688552
 20
8.237019405505137
 10
23.33585148286077
 20
8.255075810018411
 10
23.25437668561348
 20
8.257745824003791
 10
23.17706024498477
 20
8.244623112604415
  0
LINE
  5
16F
330
2
100
AcDbEntity
  8
0
100
AcDbLine
 10
23.17706024498477
 20
8.244623112604415
 30
0.0
 11
22.99583557115681
 21
8.192308055502465
 31
0.0
  0
ARC
  5
170
330
2
100
AcDbEntity
  8
0
100
AcDbCircle
 10
22.12070279743472
 20
9.349415779820503
 30
0.0
 40
0.169135877047013
100
AcDbArc
 50
57.13638854679935
 51
107.6021872117999
  0
LINE
  5
171
330
2
100
AcDbEntity
  8
0
100
AcDbLine
 10
21.22788564511366
 20
10.12848225894078
 30
0.0
 11
21.20873666434841
 21
10.12295442434629
 31
0.0
  0
LINE
  5
172
330
2
100
AcDbEntity
  8
0
100
AcDbLine
 10
21.25404300157916
 20
10.0122541555466
 30
0.0
 11
21.25404300157916
 21
9.275214517716321
 31
0.0
  0
ARC
  5
173
330
2
100
AcDbEntity
  8
0
100
AcDbCircle
 10
21.24193034475084
 20
9.260840083080095
 30
0.0
 40
0.0332189562418188
100
AcDbArc
 50
177.7647556206002
 51
291.3848674344984
  0
LINE
  5
174
330
2
100
AcDbEntity
  8
0
100
AcDbLine
 10
21.20873666434841
 20
9.262135704709264
 30
0.0
 11
21.20873666434841
 21
10.12295442434629
 31
0.0
  0
LINE
  5
175
330
2
100
AcDbEntity
  8
0
100
AcDbLine
 10
22.06955504642711
 20
9.510632567022524
 30
0.0
 11
21.25404300157916
 21
9.275214517716321
 31
0.0
  0
LINE
  5
176
330
2
100
AcDbEntity
  8
0
100
AcDbLine
 10
24.98518557938549
 20
7.090252961423471
 30
0.0
 11
22.21248287544341
 21
9.491483940179648
 31
0.0
  0
ARC
  5
177
330
2
100
AcDbEntity
  8
0
100
AcDbCircle
 10
24.11939856142108
 20
6.771548766890531
 30
0.0
 40
0.0355618107665518
100
AcDbArc
 50
231.224807159
 51
289.6824349112993
  0
LWPOLYLINE
  5
178
330
2
100
AcDbEntity
  8
0
100
AcDbPolyline
 90
       10
 70
   128
 43
0.0
 10
21.70677019939645
 20
9.405905602458542
 10
21.6865724771353
 20
9.468571020053003
 10
21.64414180569119
 20
9.554422947614483
 10
21.59409145744731
 20
9.615011287446918
 10
21.54404110918251
 20
9.641112693721792
 10
21.50161043775932
 20
9.628752844878137
 10
21.47325923742338
 20
9.579813625866803
 10
21.46330361979762
 20
9.50174586631239
 10
21.47325923742338
 20
9.406434133652169
 10
21.49033980586573
 20
9.340407062005196
  0
LINE
  5
179
330
2
100
AcDbEntity
  8
0
100
AcDbLine
 10
21.22788537558616
 20
11.69573483209083
 30
0.0
 11
21.22788537558603
 21
10.61174876561306
 31
0.0
  0
LINE
  5
17A
330
2
100
AcDbEntity
  8
0
100
AcDbLine
 10
2.678482542654366
 20
4.773730821694329
 30
0.0
 11
2.723788204768704
 21
4.786809439796058
 31
0.0
  0
ARC
  5
17B
330
2
100
AcDbEntity
  8
0
100
AcDbCircle
 10
2.751501831255028
 20
4.840849749360343
 30
0.0
 40
0.0991804767082931
100
AcDbArc
 50
179.5143988047016
 51
222.5890500659986
  0
LINE
  5
17C
330
2
100
AcDbEntity
  8
0
100
AcDbLine
 10
21.20873666434841
 20
10.12295442434629
 30
0.0
 11
20.99634735045523
 21
10.06164291057163
 31
0.0
  0
LINE
  5
17D
330
2
100
AcDbEntity
  8
0
100
AcDbLine
 10
20.91634672249992
 20
10.03854871852896
 30
0.0
 11
2.723788204768704
 21
4.786809439796058
 31
0.0
  0
LINE
  5
17E
330
2
100
AcDbEntity
  8
0
100
AcDbLine
 10
2.652324916661179
 20
6.382102417859797
 30
0.0
 11
2.652324916661179
 21
4.841690327530159
 31
0.0
  0
ARC
  5
17F
330
2
100
AcDbEntity
  8
0
100
AcDbCircle
 10
2.78107574474007
 20
6.375735444013058
 30
0.0
 40
0.1289081614510237
100
AcDbArc
 50
107.2094559851
 51
177.1689207830007
  0
LINE
  5
180
330
2
100
AcDbEntity
  8
0
100
AcDbLine
 10
2.742936240889912
 20
6.498872328545913
 30
0.0
 11
5.027398032583129
 21
7.158339643746898
 31
0.0
  0
LINE
  5
181
330
2
100
AcDbEntity
  8
0
100
AcDbLine
 10
20.68421067902779
 20
11.45154113073151
 30
0.0
 11
20.68421067902779
 21
11.22500944457722
 31
0.0
  0
LINE
  5
182
330
2
100
AcDbEntity
  8
0
100
AcDbLine
 10
20.68421067902779
 20
11.22500944457722
 30
0.0
 11
20.97421571520074
 21
11.30872668742633
 31
0.0
  0
LINE
  5
183
330
2
100
AcDbEntity
  8
0
100
AcDbLine
 10
20.94224057137006
 20
10.84643389882271
 30
0.0
 11
20.68421067902779
 21
10.7719470849224
 31
0.0
  0
LINE
  5
184
330
2
100
AcDbEntity
  8
0
100
AcDbLine
 10
20.68421067902779
 20
10.7719470849224
 30
0.0
 11
20.68421067902779
 21
10.59072207353631
 31
0.0
  0
LINE
  5
185
330
2
100
AcDbEntity
  8
0
100
AcDbLine
 10
20.68421067902779
 20
10.59072207353631
 30
0.0
 11
20.93297099113049
 21
10.66253299011329
 31
0.0
  0
LINE
  5
186
330
2
100
AcDbEntity
  8
0
100
AcDbLine
 10
2.723788204768704
 20
4.786809439796058
 30
0.0
 11
5.601121217799078
 21
2.294965955367743
 31
0.0
  0
ARC
  5
187
330
2
100
AcDbEntity
  8
0
100
AcDbCircle
 10
24.96444391405608
 20
7.062302837330448
 30
0.0
 40
0.0348055472132352
100
AcDbArc
 50
2.951995516898983
 51
53.4210509663035
  0
LINE
  5
188
330
2
100
AcDbEntity
  8
0
100
AcDbLine
 10
1.862969822710835
 20
3.677493857866693
 30
0.0
 11
2.678482542654366
 21
3.912912102057346
 31
0.0
  0
LINE
  5
189
330
2
100
AcDbEntity
  8
0
100
AcDbLine
 10
2.678482542654366
 20
3.912912102057346
 30
0.0
 11
2.678482542654366
 21
4.773730821694329
 31
0.0
  0
LINE
  5
18A
330
2
100
AcDbEntity
  8
0
100
AcDbLine
 10
2.723788204768704
 20
3.925990720159076
 30
0.0
 11
2.723788204768704
 21
4.786809439796058
 31
0.0
  0
ARC
  5
18B
330
2
100
AcDbEntity
  8
0
100
AcDbCircle
 10
2.659412790729239
 20
3.929174207092883
 30
0.0
 40
0.0644540807255685
100
AcDbArc
 50
287.2094559851008
 51
357.1689207828996
  0
LINE
  5
18C
330
2
100
AcDbEntity
  8
0
100
AcDbLine
 10
1.862969822710835
 20
3.632187520614961
 30
0.0
 11
2.678482542654366
 21
3.86760576482645
 31
0.0
  0
LINE
  5
18D
330
2
100
AcDbEntity
  8
0
100
AcDbLine
 10
2.723788204768704
 20
3.925990720159076
 30
0.0
 11
5.601121217799078
 21
1.434147235730775
 31
0.0
  0
ARC
  5
18E
330
2
100
AcDbEntity
  8
0
100
AcDbCircle
 10
5.536745803759613
 20
1.437330722664583
 30
0.0
 40
0.0644540807255353
100
AcDbArc
 50
287.2094559851008
 51
357.1689207828996
  0
ARC
  5
18F
330
2
100
AcDbEntity
  8
0
100
AcDbCircle
 10
4.689155350557376
 20
1.301553444128089
 30
0.0
 40
0.1691287629182438
100
AcDbArc
 50
237.1352689343988
 51
287.6028573528978
  0
LINE
  5
190
330
2
100
AcDbEntity
  8
0
100
AcDbLine
 10
4.597376356957925
 20
1.159493052819172
 30
0.0
 11
1.82467365301583
 21
3.560724031554484
 31
0.0
  0
LWPOLYLINE
  5
191
330
2
100
AcDbEntity
  8
0
100
AcDbPolyline
 90
        9
 70
   128
 43
0.0
 10
1.862969822710835
 20
3.632187520614961
 10
1.846297832105948
 20
3.626213982635206
 10
1.832275448184823
 20
3.618728492594398
 10
1.82144448340837
 20
3.610019555987975
 10
1.814218711240231
 20
3.600421080617593
 10
1.810879982605337
 20
3.590303266850041
 10
1.811550456382976
 20
3.580053001637836
 10
1.816206603396851
 20
3.570064848971681
 10
1.82467365301583
 20
3.560724031554484
  0
LINE
  5
192
330
2
100
AcDbEntity
  8
0
100
AcDbLine
 10
5.555815555684688
 20
1.375762280398149
 30
0.0
 11
4.740302835741261
 21
1.140344036186617
 31
0.0
  0
LINE
  5
193
330
2
100
AcDbEntity
  8
0
100
AcDbLine
 10
3.814022986107096
 20
2.413362405360189
 30
0.0
 11
3.632797637183651
 21
2.361047153373874
 31
0.0
  0
LWPOLYLINE
  5
194
330
2
100
AcDbEntity
  8
0
100
AcDbPolyline
 90
        9
 70
   128
 43
0.0
 10
3.604762392267554
 20
2.594587395652921
 10
3.682077482684187
 20
2.607709717262522
 10
3.763552955048076
 20
2.60503989818251
 10
3.836781093956323
 20
2.586983298763897
 10
3.890618038121209
 20
2.556290152492877
 10
3.916861654812788
 20
2.517631498705624
 10
3.911522532961381
 20
2.476894484723884
 10
3.875409059072056
 20
2.440279660749325
 10
3.814022986107096
 20
2.413362405360189
  0
LINE
  5
195
330
2
100
AcDbEntity
  8
0
100
AcDbLine
 10
3.423537043344064
 20
2.542272143645631
 30
0.0
 11
3.604762392267554
 21
2.594587395652921
 31
0.0
  0
LWPOLYLINE
  5
196
330
2
100
AcDbEntity
  8
0
100
AcDbPolyline
 90
        9
 70
   128
 43
0.0
 10
3.632797637183651
 20
2.361047153373874
 10
3.555482546787841
 20
2.347924831764231
 10
3.474007074424107
 20
2.350594650844243
 10
3.400778935515808
 20
2.3686512502629
 10
3.346941991329951
 20
2.399344396512943
 10
3.320698374659292
 20
2.438003050300139
 10
3.326037496510751
 20
2.478740064302868
 10
3.362150970400069
 20
2.515354888256496
 10
3.423537043344064
 20
2.542272143645631
  0
LINE
  5
197
330
2
100
AcDbEntity
  8
0
100
AcDbLine
 10
5.601121217799078
 20
1.434147235730775
 30
0.0
 11
5.601121217799078
 21
2.294965955367743
 31
0.0
  0
LWPOLYLINE
  5
198
330
2
100
AcDbEntity
  8
0
100
AcDbPolyline
 90
        7
 70
   128
 43
0.0
 10
1.810654606696408
 20
3.632187643534621
 10
1.810879982605337
 20
3.63560960408094
 10
1.814218711240231
 20
3.645727417848504
 10
1.82144448340837
 20
3.655325893218872
 10
1.832275448184823
 20
3.664034829846214
 10
1.846297832105948
 20
3.671520319866004
 10
1.862969822710835
 20
3.677493857866693
  0
LWPOLYLINE
  5
199
330
2
100
AcDbEntity
  8
0
100
AcDbPolyline
 90
       10
 70
   128
 43
0.0
 10
18.045985043391
 20
10.1074817846391
 10
18.09969602852414
 20
10.05730221940979
 10
18.12459294404052
 20
9.978659859881359
 10
18.11680480972941
 20
9.887384116264852
 10
18.07738210551885
 20
9.79580137092401
 10
18.0116487935865
 20
9.716280412649323
 10
17.9284826449076
 20
9.659561371680453
 10
17.83911623396947
 20
9.633304432330136
 10
17.75561792839317
 20
9.641055542877637
 10
17.69758647200706
 20
9.676662815050462
  0
LWPOLYLINE
  5
19A
330
2
100
AcDbEntity
  8
0
100
AcDbPolyline
 90
       16
 70
   128
 43
0.0
 10
8.839715138536689
 20
7.526408570524607
 10
8.840783171514681
 20
7.526928533857486
 10
8.928005415119748
 20
7.551841768748913
 10
9.008487303896924
 20
7.541450415531045
 10
9.069974138302283
 20
7.497336249218362
 10
9.103107464959975
 20
7.426215918156215
 10
9.102841469374499
 20
7.338916550704964
 10
9.069218008747702
 20
7.24872874246398
 10
9.007353109586032
 20
7.169382037277087
 10
8.926668686090387
 20
7.112957461377616
 10
8.839446442506206
 20
7.08804456404448
 10
8.758964553729072
 20
7.098435579704116
 10
8.697476369090647
 20
7.142549356247982
 10
8.664343042433047
 20
7.213669687310129
 10
8.664609037997607
 20
7.300969054761437
 10
8.685526821805531
 20
7.366120626539441
  0
ARC
  5
19B
330
2
100
AcDbEntity
  8
0
100
AcDbCircle
 10
5.122124089457535
 20
5.69860034255663
 30
0.0
 40
0.0948674976518985
100
AcDbArc
 50
183.1197180373412
 51
283.4368231249491
  0
ARC
  5
19C
330
2
100
AcDbEntity
  8
0
100
AcDbCircle
 10
21.23260491035406
 20
13.61593809491973
 30
0.0
 40
0.0767803763198359
100
AcDbArc
 50
67.38216101075015
 51
93.52407748584592
  0
LINE
  5
19D
330
2
100
AcDbEntity
  8
0
100
AcDbLine
 10
21.3975977531104
 20
9.012547575281587
 30
0.0
 11
21.53400743005572
 21
8.894413329718032
 31
0.0
  0
LINE
  5
19E
330
2
100
AcDbEntity
  8
0
100
AcDbLine
 10
21.42796911192392
 20
9.005258620538709
 30
0.0
 11
21.47137837414529
 21
9.017789795144876
 31
0.0
  0
ARC
  5
19F
330
2
100
AcDbEntity
  8
0
100
AcDbCircle
 10
21.45798952720703
 20
9.123731931190278
 30
0.0
 40
0.122217636485055
100
AcDbArc
 50
174.8069247138071
 51
197.7982758284785
  0
ARC
  5
1A0
330
2
100
AcDbEntity
  8
0
100
AcDbCircle
 10
21.45798952720703
 20
9.123731931190278
 30
0.0
 40
0.122217636485055
100
AcDbArc
 50
243.6760031272354
 51
255.7808851649024
  0
LWPOLYLINE
  5
1A1
330
2
100
AcDbEntity
  8
0
100
AcDbPolyline
 90
        3
 70
   128
 43
0.0
 10
21.53400743005572
 20
8.894413329718032
 10
21.55392671778012
 20
8.880696572553873
 10
21.58491452685092
 20
8.869339904196465
  0
LINE
  5
1A2
330
2
100
AcDbEntity
  8
0
100
AcDbLine
 10
21.58491452685092
 20
8.869339904196465
 30
0.0
 11
21.62832378907234
 21
8.881871078823591
 31
0.0
  0
ELLIPSE
  5
1A3
330
2
100
AcDbEntity
  8
0
100
AcDbEllipse
 10
21.55215514554644
 20
9.171822953331382
 30
0.0
 11
0.0181477154907184
 21
0.2774096236133642
 31
0.0
210
0.0
220
0.0
230
1.0
 40
0.6128168285279183
 41
1.9018349736237
 42
6.870853096261243
  0
ELLIPSE
  5
1A4
330
2
100
AcDbEntity
  8
0
100
AcDbEllipse
 10
21.76992588426636
 20
9.029923703834327
 30
0.0
 11
-0.0852843374520714
 21
-0.0550970992628292
 31
0.0
210
0.0
220
0.0
230
1.0
 40
0.8108083480216544
 41
-1.570796326794896
 42
4.712388980384688
  0
POLYLINE
  5
1A5
330
2
100
AcDbEntity
  8
0
100
AcDb2dPolyline
 66
     1
 10
0.0
 20
0.0
 30
0.0
 70
     2
  0
VERTEX
  5
1A6
330
1A5
100
AcDbEntity
  8
0
100
AcDbVertex
100
AcDb2dVertex
 10
21.38548556468716
 20
9.092175165039748
 30
0.0
 42
-0.0407001063012493
  0
VERTEX
  5
1A7
330
1A5
100
AcDbEntity
  8
0
100
AcDbVertex
100
AcDb2dVertex
 10
21.36085645475434
 20
9.086852397627183
 30
0.0
 42
-0.0533636094325774
 70
     1
  0
VERTEX
  5
1A8
330
1A5
100
AcDbEntity
  8
0
100
AcDbVertex
100
AcDb2dVertex
 10
21.34162139895529
 20
9.086374075320591
 30
0.0
 42
-0.0721016312397558
  0
VERTEX
  5
1A9
330
1A5
100
AcDbEntity
  8
0
100
AcDbVertex
100
AcDb2dVertex
 10
21.30546481438724
 20
9.094676757243576
 30
0.0
 42
-0.049181819659195
 70
     1
  0
VERTEX
  5
1AA
330
1A5
100
AcDbEntity
  8
0
100
AcDbVertex
100
AcDb2dVertex
 10
21.25706005524753
 20
9.119140429417342
 30
0.0
 42
-0.1299918264744689
  0
VERTEX
  5
1AB
330
1A5
100
AcDbEntity
  8
0
100
AcDbVertex
100
AcDb2dVertex
 10
21.23726827946685
 20
9.140555650364461
 30
0.0
 42
-0.0183988239051425
 70
     1
  0
VERTEX
  5
1AC
330
1A5
100
AcDbEntity
  8
0
100
AcDbVertex
100
AcDb2dVertex
 10
21.14898744578217
 20
9.322987605390961
 30
0.0
 42
-0.1065909250173949
  0
VERTEX
  5
1AD
330
1A5
100
AcDbEntity
  8
0
100
AcDbVertex
100
AcDb2dVertex
 10
20.99641756777704
 20
10.06980529877812
 30
0.0
 42
-0.0341714829428452
 70
     1
  0
VERTEX
  5
1AE
330
1A5
100
AcDbEntity
  8
0
100
AcDbVertex
100
AcDb2dVertex
 10
21.18257903835523
 20
12.41612647597975
 30
0.0
 42
-0.0351584512428674
  0
VERTEX
  5
1AF
330
1A5
100
AcDbEntity
  8
0
100
AcDbVertex
100
AcDb2dVertex
 10
21.5753285386109
 20
14.19094537587811
 30
0.0
 42
-0.0163892026655929
 70
     1
  0
VERTEX
  5
1B0
330
1A5
100
AcDbEntity
  8
0
100
AcDbVertex
100
AcDb2dVertex
 10
22.80391069705808
 20
17.88786313257524
 30
0.0
 42
-0.0510981219346352
  0
VERTEX
  5
1B1
330
1A5
100
AcDbEntity
  8
0
100
AcDbVertex
100
AcDb2dVertex
 10
24.44453631349993
 20
21.23513829653872
 30
0.0
 42
-0.0960405987144896
 70
     1
  0
VERTEX
  5
1B2
330
1A5
100
AcDbEntity
  8
0
100
AcDbVertex
100
AcDb2dVertex
 10
25.80438083924526
 20
22.69679924840737
 30
0.0
 42
-0.1610809047953647
  0
VERTEX
  5
1B3
330
1A5
100
AcDbEntity
  8
0
100
AcDbVertex
100
AcDb2dVertex
 10
27.33549643313632
 20
23.18819730694535
 30
0.0
 42
-0.255790732332755
 70
     1
  0
VERTEX
  5
1B4
330
1A5
100
AcDbEntity
  8
0
100
AcDbVertex
100
AcDb2dVertex
 10
28.25343607546336
 20
22.67509627322066
 30
0.0
 42
-0.098011211948385
  0
VERTEX
  5
1B5
330
1A5
100
AcDbEntity
  8
0
100
AcDbVertex
100
AcDb2dVertex
 10
28.4134075800415
 20
22.25626965247875
 30
0.0
 42
-0.0855608966021421
 70
     1
  0
VERTEX
  5
1B6
330
1A5
100
AcDbEntity
  8
0
100
AcDbVertex
100
AcDb2dVertex
 10
28.41276546480488
 20
21.7438556264146
 30
0.0
  0
SEQEND
  5
1B7
330
1A5
100
AcDbEntity
  8
0
  0
POLYLINE
  5
1B8
330
2
100
AcDbEntity
  8
0
100
AcDb2dPolyline
 66
     1
 10
0.0
 20
0.0
 30
0.0
  0
VERTEX
  5
1B9
330
1B8
100
AcDbEntity
  8
0
100
AcDbVertex
100
AcDb2dVertex
 10
21.4526700583299
 20
9.033991686804339
 30
0.0
 42
-0.0917287563956366
  0
VERTEX
  5
1BA
330
1B8
100
AcDbEntity
  8
0
100
AcDbVertex
100
AcDb2dVertex
 10
21.37134522417227
 20
9.007542967443256
 30
0.0
 42
-0.0533636094325817
  0
VERTEX
  5
1BB
330
1B8
100
AcDbEntity
  8
0
100
AcDbVertex
100
AcDb2dVertex
 10
21.33508756556984
 20
9.006641340378847
 30
0.0
 42
-0.0721016312397559
  0
VERTEX
  5
1BC
330
1B8
100
AcDbEntity
  8
0
100
AcDbVertex
100
AcDb2dVertex
 10
21.27656002372152
 20
9.0200810933175
 30
0.0
 42
-0.0491818196591948
  0
VERTEX
  5
1BD
330
1B8
100
AcDbEntity
  8
0
100
AcDbVertex
100
AcDb2dVertex
 10
21.21414295976148
 20
9.051626557398023
 30
0.0
 42
-0.129991826474462
  0
VERTEX
  5
1BE
330
1B8
100
AcDbEntity
  8
0
100
AcDbVertex
100
AcDb2dVertex
 10
21.1665872695094
 20
9.10308306263164
 30
0.0
 42
-0.0183988239051426
  0
VERTEX
  5
1BF
330
1B8
100
AcDbEntity
  8
0
100
AcDbVertex
100
AcDb2dVertex
 10
21.07574271286617
 20
9.290812939890543
 30
0.0
 42
-0.1065909250173949
  0
VERTEX
  5
1C0
330
1B8
100
AcDbEntity
  8
0
100
AcDbVertex
100
AcDb2dVertex
 10
20.91642228497311
 20
10.07067405025037
 30
0.0
 42
-0.0341714829428451
  0
VERTEX
  5
1C1
330
1B8
100
AcDbEntity
  8
0
100
AcDbVertex
100
AcDb2dVertex
 10
21.10344762205421
 20
12.42788313172005
 30
0.0
 42
-0.0351584512428675
  0
VERTEX
  5
1C2
330
1B8
100
AcDbEntity
  8
0
100
AcDbVertex
100
AcDb2dVertex
 10
21.49862498113992
 20
14.213673426197
 30
0.0
 42
-0.0163892026655928
  0
VERTEX
  5
1C3
330
1B8
100
AcDbEntity
  8
0
100
AcDbVertex
100
AcDb2dVertex
 10
22.72886065371865
 20
17.91556676040174
 30
0.0
 42
-0.0510981219346353
  0
VERTEX
  5
1C4
330
1B8
100
AcDbEntity
  8
0
100
AcDbVertex
100
AcDb2dVertex
 10
24.37666402363757
 20
21.27748628667803
 30
0.0
 42
-0.0960405987144895
  0
VERTEX
  5
1C5
330
1B8
100
AcDbEntity
  8
0
100
AcDbVertex
100
AcDb2dVertex
 10
25.75725090756777
 20
22.76144265131961
 30
0.0
 42
-0.1610809047953648
  0
VERTEX
  5
1C6
330
1B8
100
AcDbEntity
  8
0
100
AcDbVertex
100
AcDb2dVertex
 10
27.3362053472592
 20
23.26819416588847
 30
0.0
 42
-0.2557907323327542
  0
VERTEX
  5
1C7
330
1B8
100
AcDbEntity
  8
0
100
AcDbVertex
100
AcDb2dVertex
 10
28.32120587525856
 20
22.71760808611682
 30
0.0
 42
-0.0980112119483848
  0
VERTEX
  5
1C8
330
1B8
100
AcDbEntity
  8
0
100
AcDbVertex
100
AcDb2dVertex
 10
28.49226175402596
 20
22.26976110329875
 30
0.0
 42
-0.0910097670417274
  0
VERTEX
  5
1C9
330
1B8
100
AcDbEntity
  8
0
100
AcDbVertex
100
AcDb2dVertex
 10
28.48534283124423
 20
21.69639195824189
 30
0.0
 42
-0.0855608966021423
  0
SEQEND
  5
1CA
330
1B8
100
AcDbEntity
  8
0
  0
POLYLINE
  5
1CB
330
2
100
AcDbEntity
  8
0
100
AcDb2dPolyline
 66
     1
 10
0.0
 20
0.0
 30
0.0
 70
     2
  0
VERTEX
  5
1CC
330
1CB
100
AcDbEntity
  8
0
100
AcDbVertex
100
AcDb2dVertex
 10
21.22788537558609
 20
11.15374179885194
 30
0.0
 42
-0.0040113403305492
  0
VERTEX
  5
1CD
330
1CB
100
AcDbEntity
  8
0
100
AcDbVertex
100
AcDb2dVertex
 10
21.66252274123195
 20
12.94708432560807
 30
0.0
 42
-0.0075768084471684
 70
     1
  0
VERTEX
  5
1CE
330
1CB
100
AcDbEntity
  8
0
100
AcDbVertex
100
AcDb2dVertex
 10
21.91458075172886
 20
13.8909735202012
 30
0.0
 42
-0.0018925756175435
  0
VERTEX
  5
1CF
330
1CB
100
AcDbEntity
  8
0
100
AcDbVertex
100
AcDb2dVertex
 10
22.65184587450353
 20
16.45594017281249
 30
0.0
 42
-0.0043139102797093
 70
     1
  0
VERTEX
  5
1D0
330
1CB
100
AcDbEntity
  8
0
100
AcDbVertex
100
AcDb2dVertex
 10
22.98924278284882
 20
17.57714392386124
 30
0.0
 42
-0.0418767819269687
  0
VERTEX
  5
1D1
330
1CB
100
AcDbEntity
  8
0
100
AcDbVertex
100
AcDb2dVertex
 10
23.72558384928472
 20
19.39617305228002
 30
0.0
 42
-0.0330546918914628
 70
     1
  0
VERTEX
  5
1D2
330
1CB
100
AcDbEntity
  8
0
100
AcDbVertex
100
AcDb2dVertex
 10
24.99107235559427
 20
21.53426083547971
 30
0.0
 42
-0.0475351096181545
  0
VERTEX
  5
1D3
330
1CB
100
AcDbEntity
  8
0
100
AcDbVertex
100
AcDb2dVertex
 10
25.48370670198848
 20
22.12449461736927
 30
0.0
 42
-0.0420582397227134
 70
     1
  0
VERTEX
  5
1D4
330
1CB
100
AcDbEntity
  8
0
100
AcDbVertex
100
AcDb2dVertex
 10
26.15007971052333
 20
22.68148074104754
 30
0.0
 42
-0.1586308766120422
  0
VERTEX
  5
1D5
330
1CB
100
AcDbEntity
  8
0
100
AcDbVertex
100
AcDb2dVertex
 10
27.2338999897866
 20
23.01379468694611
 30
0.0
 42
-0.2054227055945032
 70
     1
  0
VERTEX
  5
1D6
330
1CB
100
AcDbEntity
  8
0
100
AcDbVertex
100
AcDb2dVertex
 10
28.0456522238584
 20
22.64901225413961
 30
0.0
 42
-0.1178316098490597
  0
VERTEX
  5
1D7
330
1CB
100
AcDbEntity
  8
0
100
AcDbVertex
100
AcDb2dVertex
 10
28.22958374057571
 20
22.31915839133015
 30
0.0
 42
-0.0908404211066918
 70
     1
  0
VERTEX
  5
1D8
330
1CB
100
AcDbEntity
  8
0
100
AcDbVertex
100
AcDb2dVertex
 10
28.27477908559017
 20
21.83409505003537
 30
0.0
  0
SEQEND
  5
1D9
330
1CB
100
AcDbEntity
  8
0
  0
POLYLINE
  5
1DA
330
2
100
AcDbEntity
  8
0
100
AcDb2dPolyline
 66
     1
 10
0.0
 20
0.0
 30
0.0
  0
VERTEX
  5
1DB
330
1DA
100
AcDbEntity
  8
0
100
AcDbVertex
100
AcDb2dVertex
 10
21.32168905849782
 20
10.67278901851634
 30
0.0
 42
-0.0049846506989399
  0
VERTEX
  5
1DC
330
1DA
100
AcDbEntity
  8
0
100
AcDbVertex
100
AcDb2dVertex
 10
21.85651136434289
 20
12.89841797066425
 30
0.0
 42
-0.0075768084471685
  0
VERTEX
  5
1DD
330
1DA
100
AcDbEntity
  8
0
100
AcDbVertex
100
AcDb2dVertex
 10
22.1070056044358
 20
13.8364512673065
 30
0.0
 42
-0.0018925756175435
  0
VERTEX
  5
1DE
330
1DA
100
AcDbEntity
  8
0
100
AcDbVertex
100
AcDb2dVertex
 10
22.8438524678553
 20
16.39996278354286
 30
0.0
 42
-0.0043139102797093
  0
VERTEX
  5
1DF
330
1DA
100
AcDbEntity
  8
0
100
AcDbVertex
100
AcDb2dVertex
 10
23.1802549197819
 20
17.51786185621631
 30
0.0
 42
-0.0418767819269687
  0
VERTEX
  5
1E0
330
1DA
100
AcDbEntity
  8
0
100
AcDbVertex
100
AcDb2dVertex
 10
23.90404751157333
 20
19.3058917073491
 30
0.0
 42
-0.0330546918914628
  0
VERTEX
  5
1E1
330
1DA
100
AcDbEntity
  8
0
100
AcDbVertex
100
AcDb2dVertex
 10
25.15608165574307
 20
21.42124786779725
 30
0.0
 42
-0.0475351096181543
  0
VERTEX
  5
1E2
330
1DA
100
AcDbEntity
  8
0
100
AcDbVertex
100
AcDb2dVertex
 10
25.62440339618832
 20
21.98235229347792
 30
0.0
 42
-0.0420582397227135
  0
VERTEX
  5
1E3
330
1DA
100
AcDbEntity
  8
0
100
AcDbVertex
100
AcDb2dVertex
 10
26.26500590986792
 20
22.51779821692169
 30
0.0
 42
-0.1586308766120425
  0
VERTEX
  5
1E4
330
1DA
100
AcDbEntity
  8
0
100
AcDbVertex
100
AcDb2dVertex
 10
27.23047477394445
 20
22.81382401935601
 30
0.0
 42
-0.2054227055945034
  0
VERTEX
  5
1E5
330
1DA
100
AcDbEntity
  8
0
100
AcDbVertex
100
AcDb2dVertex
 10
27.8983979204156
 20
22.51367500827736
 30
0.0
 42
-0.1178316098490587
  0
VERTEX
  5
1E6
330
1DA
100
AcDbEntity
  8
0
100
AcDbVertex
100
AcDb2dVertex
 10
28.03704932876643
 20
22.26502429607354
 30
0.0
 42
-0.0668429697767973
  0
VERTEX
  5
1E7
330
1DA
100
AcDbEntity
  8
0
100
AcDbVertex
100
AcDb2dVertex
 10
28.08001368425109
 20
21.96146644464788
 30
0.0
 42
-0.090840421106692
  0
SEQEND
  5
1E8
330
1DA
100
AcDbEntity
  8
0
  0
POLYLINE
  5
1E9
330
2
100
AcDbEntity
  8
0
100
AcDb2dPolyline
 66
     1
 10
0.0
 20
0.0
 30
0.0
 70
     2
  0
VERTEX
  5
1EA
330
1E9
100
AcDbEntity
  8
0
100
AcDbVertex
100
AcDb2dVertex
 10
28.53327772471109
 20
21.66504381226989
 30
0.0
 42
-0.0745402614561629
  0
VERTEX
  5
1EB
330
1E9
100
AcDbEntity
  8
0
100
AcDbVertex
100
AcDb2dVertex
 10
28.82130699342509
 20
24.3739191122021
 30
0.0
 42
-0.0819365762137526
 70
     1
  0
VERTEX
  5
1EC
330
1E9
100
AcDbEntity
  8
0
100
AcDbVertex
100
AcDb2dVertex
 10
29.82901676261906
 20
26.64115074199752
 30
0.0
 42
-0.0382246655931619
  0
VERTEX
  5
1ED
330
1E9
100
AcDbEntity
  8
0
100
AcDbVertex
100
AcDb2dVertex
 10
31.08618354188079
 20
28.26714930632358
 30
0.0
 42
-0.0691838780396303
 70
     1
  0
VERTEX
  5
1EE
330
1E9
100
AcDbEntity
  8
0
100
AcDbVertex
100
AcDb2dVertex
 10
31.95902044324555
 20
28.99945961670015
 30
0.0
 42
-0.1505247027418366
  0
VERTEX
  5
1EF
330
1E9
100
AcDbEntity
  8
0
100
AcDbVertex
100
AcDb2dVertex
 10
33.21993830200514
 20
29.33640297709187
 30
0.0
 42
-0.1067816705428751
 70
     1
  0
VERTEX
  5
1F0
330
1E9
100
AcDbEntity
  8
0
100
AcDbVertex
100
AcDb2dVertex
 10
34.98274227184416
 20
28.88545198576638
 30
0.0
  0
SEQEND
  5
1F1
330
1E9
100
AcDbEntity
  8
0
  0
POLYLINE
  5
1F2
330
2
100
AcDbEntity
  8
0
100
AcDb2dPolyline
 66
     1
 10
0.0
 20
0.0
 30
0.0
  0
VERTEX
  5
1F3
330
1F2
100
AcDbEntity
  8
0
100
AcDbVertex
100
AcDb2dVertex
 10
28.74043216024636
 20
21.52957031865714
 30
0.0
 42
-0.078575973028044
  0
VERTEX
  5
1F4
330
1F2
100
AcDbEntity
  8
0
100
AcDbVertex
100
AcDb2dVertex
 10
29.0148529988708
 20
24.32352125732704
 30
0.0
 42
-0.0819365762137527
  0
VERTEX
  5
1F5
330
1F2
100
AcDbEntity
  8
0
100
AcDbVertex
100
AcDb2dVertex
 10
29.9961171063922
 20
26.53125317555086
 30
0.0
 42
-0.0382246655931619
  0
VERTEX
  5
1F6
330
1F2
100
AcDbEntity
  8
0
100
AcDbVertex
100
AcDb2dVertex
 10
31.23460662979832
 20
28.13309488836944
 30
0.0
 42
-0.0691838780396306
  0
VERTEX
  5
1F7
330
1F2
100
AcDbEntity
  8
0
100
AcDbVertex
100
AcDb2dVertex
 10
32.06524509343458
 20
28.83000070223349
 30
0.0
 42
-0.1505247027418365
  0
VERTEX
  5
1F8
330
1F2
100
AcDbEntity
  8
0
100
AcDbVertex
100
AcDb2dVertex
 10
33.21240277553753
 20
29.1365449879074
 30
0.0
 42
-0.1067816705428748
  0
VERTEX
  5
1F9
330
1F2
100
AcDbEntity
  8
0
100
AcDbVertex
100
AcDb2dVertex
 10
34.89337948230331
 20
28.70652660510316
 30
0.0
 42
-0.1067816705428748
  0
SEQEND
  5
1FA
330
1F2
100
AcDbEntity
  8
0
  0
POLYLINE
  5
1FB
330
2
100
AcDbEntity
  8
0
100
AcDb2dPolyline
 66
     1
 10
0.0
 20
0.0
 30
0.0
 70
     2
  0
VERTEX
  5
1FC
330
1FB
100
AcDbEntity
  8
0
100
AcDbVertex
100
AcDb2dVertex
 10
28.84369845942192
 20
21.46203690434416
 30
0.0
 42
-0.0391643802708447
  0
VERTEX
  5
1FD
330
1FB
100
AcDbEntity
  8
0
100
AcDbVertex
100
AcDb2dVertex
 10
29.8296019411964
 20
21.80723397597255
 30
0.0
 42
-0.0516584848478834
 70
     1
  0
VERTEX
  5
1FE
330
1FB
100
AcDbEntity
  8
0
100
AcDbVertex
100
AcDb2dVertex
 10
30.61290529213932
 20
21.92985170001882
 30
0.0
 42
-0.0149213429273903
  0
VERTEX
  5
1FF
330
1FB
100
AcDbEntity
  8
0
100
AcDbVertex
100
AcDb2dVertex
 10
31.33422499229573
 20
21.94587730484742
 30
0.0
 42
-0.0191475261548332
 70
     1
  0
VERTEX
  5
200
330
1FB
100
AcDbEntity
  8
0
100
AcDbVertex
100
AcDb2dVertex
 10
31.8959641592478
 20
21.92006553911821
 30
0.0
 42
-0.0880666380657274
  0
VERTEX
  5
201
330
1FB
100
AcDbEntity
  8
0
100
AcDbVertex
100
AcDb2dVertex
 10
32.48677040554608
 20
21.76296929907184
 30
0.0
 42
-0.0581149075967138
 70
     1
  0
VERTEX
  5
202
330
1FB
100
AcDbEntity
  8
0
100
AcDbVertex
100
AcDb2dVertex
 10
33.27232203676351
 20
21.2795397738042
 30
0.0
  0
SEQEND
  5
203
330
1FB
100
AcDbEntity
  8
0
  0
POLYLINE
  5
204
330
2
100
AcDbEntity
  8
0
100
AcDb2dPolyline
 66
     1
 10
0.0
 20
0.0
 30
0.0
  0
VERTEX
  5
205
330
204
100
AcDbEntity
  8
0
100
AcDbVertex
100
AcDb2dVertex
 10
28.92376806697146
 20
21.40967350966761
 30
0.0
 42
-0.0371854104713422
  0
VERTEX
  5
206
330
204
100
AcDbEntity
  8
0
100
AcDbVertex
100
AcDb2dVertex
 10
29.85005272840524
 20
21.72989210307993
 30
0.0
 42
-0.0516584848478834
  0
VERTEX
  5
207
330
204
100
AcDbEntity
  8
0
100
AcDbVertex
100
AcDb2dVertex
 10
30.61706772214447
 20
21.8499600598025
 30
0.0
 42
-0.0149213429273904
  0
VERTEX
  5
208
330
204
100
AcDbEntity
  8
0
100
AcDbVertex
100
AcDb2dVertex
 10
31.33361483315107
 20
21.8658796317199
 30
0.0
 42
-0.0191475261548331
  0
VERTEX
  5
209
330
204
100
AcDbEntity
  8
0
100
AcDbVertex
100
AcDb2dVertex
 10
31.88923549314995
 20
21.84034900976235
 30
0.0
 42
-0.088066638065727
  0
VERTEX
  5
20A
330
204
100
AcDbEntity
  8
0
100
AcDbVertex
100
AcDb2dVertex
 10
32.45301637928817
 20
21.69043885228306
 30
0.0
 42
-0.0571290467665297
  0
VERTEX
  5
20B
330
204
100
AcDbEntity
  8
0
100
AcDbVertex
100
AcDb2dVertex
 10
33.21072451088081
 20
21.22619475158082
 30
0.0
 42
-0.0581149075967138
  0
SEQEND
  5
20C
330
204
100
AcDbEntity
  8
0
  0
ELLIPSE
  5
20D
330
2
100
AcDbEntity
  8
0
100
AcDbEllipse
 10
21.69319361971202
 20
13.66069607493266
 30
0.0
 11
-0.3830741409384471
 21
0.0861019405737693
 31
0.0
210
0.0
220
0.0
230
1.0
 40
0.5809397374563459
 41
5.714265006057348
 42
9.85740178862858
  0
ELLIPSE
  5
20E
330
2
100
AcDbEntity
  8
0
100
AcDbEllipse
 10
21.69319361971202
 20
13.66069607493266
 30
0.0
 11
-0.3830741409384471
 21
0.0861019405737693
 31
0.0
210
0.0
220
0.0
230
1.0
 40
0.5809397374563459
 41
10.57037100166608
 42
11.68104088359399
  0
ELLIPSE
  5
20F
330
2
100
AcDbEntity
  8
0
100
AcDbEllipse
 10
22.88154204237446
 20
17.50610776540542
 30
0.0
 11
-0.3517167519848954
 21
0.1221050215827973
 31
0.0
210
0.0
220
0.0
230
1.0
 40
0.6455762318861252
 41
5.57074265611684
 42
10.15760111439395
  0
ELLIPSE
  5
210
330
2
100
AcDbEntity
  8
0
100
AcDbEllipse
 10
22.88154204237446
 20
17.50610776540542
 30
0.0
 11
-0.3517167519848954
 21
0.1221050215827973
 31
0.0
210
0.0
220
0.0
230
1.0
 40
0.6455762318861252
 41
10.79334250496275
 42
11.56579345218613
  0
ELLIPSE
  5
211
330
2
100
AcDbEntity
  8
0
100
AcDbEllipse
 10
27.53489041972136
 20
23.00446650165689
 30
0.0
 11
-0.0976200672032519
 21
-0.2757344610830614
 31
0.0
210
0.0
220
0.0
230
1.0
 40
0.6893643018305377
 41
2.571438519388913
 42
6.923706853574566
  0
ELLIPSE
  5
212
330
2
100
AcDbEntity
  8
0
100
AcDbEllipse
 10
27.53489041972136
 20
23.00446650165689
 30
0.0
 11
-0.0976200672032519
 21
-0.2757344610830614
 31
0.0
210
0.0
220
0.0
230
1.0
 40
0.6893643018305377
 41
7.714972198776042
 42
8.451705391672668
  0
ELLIPSE
  5
213
330
2
100
AcDbEntity
  8
0
100
AcDbEllipse
 10
24.81629515742827
 20
21.41424736617084
 30
0.0
 11
0.2750620245872142
 21
-0.2687932199876855
 31
0.0
210
0.0
220
0.0
230
1.0
 40
0.5997093324209702
 41
2.503148074535856
 42
7.146244927074576
  0
ELLIPSE
  5
214
330
2
100
AcDbEntity
  8
0
100
AcDbEllipse
 10
24.81629515742827
 20
21.41424736617084
 30
0.0
 11
0.2750620245872142
 21
-0.2687932199876855
 31
0.0
210
0.0
220
0.0
230
1.0
 40
0.5997093324209702
 41
7.756559642359723
 42
8.506058199430404
  0
ELLIPSE
  5
215
330
2
100
AcDbEntity
  8
0
100
AcDbEllipse
 10
27.55321015504478
 20
20.8408237735017
 30
0.0
 11
0.0391924985307242
 21
0.2721633586079406
 31
0.0
210
0.0
220
0.0
230
0.9999999999999998
 40
0.6734409848838056
 41
1.783251316079797
 42
6.966804327811713
  0
ELLIPSE
  5
216
330
2
100
AcDbEntity
  8
0
100
AcDbEllipse
 10
27.46842498568208
 20
20.44668320295925
 30
0.0
 11
0.0503870955143384
 21
0.1494871175883077
 31
0.0
210
0.0
220
0.0
230
0.9999999999999996
 40
0.5668852251311926
 41
0.0
 42
6.283185307179585
  0
ARC
  5
217
330
2
100
AcDbEntity
  8
0
100
AcDbCircle
 10
13.9269680572522
 20
19.97872687485491
 30
0.0
 40
13.49610138121925
100
AcDbArc
 50
306.0237860935805
 51
1.350384722852231
  0
ENDSEC
  0
SECTION
  2
OBJECTS
  0
DICTIONARY
  5
A
330
0
100
AcDbDictionary
281
     1
  3
ACAD_COLOR
350
42
  3
ACAD_GROUP
350
3B
  3
ACAD_LAYOUT
350
1C
  3
ACAD_MATERIAL
350
C
  3
ACAD_MLEADERSTYLE
350
45
  3
ACAD_MLINESTYLE
350
3C
  3
ACAD_PLOTSETTINGS
350
3D
  3
ACAD_PLOTSTYLENAME
350
9
  3
ACAD_SCALELIST
350
43
  3
ACAD_TABLESTYLE
350
44
  3
ACAD_VISUALSTYLE
350
31
  3
ACDB_RECOMPOSE_DATA
350
227
  3
AcDbVariableDictionary
350
219
  0
DICTIONARY
  5
24
330
23
100
AcDbDictionary
280
     1
281
     1
  3
ACAD_LAYERSTATES
360
25
  0
DICTIONARY
  5
7
330
6
100
AcDbDictionary
280
     1
281
     1
  0
DICTIONARY
  5
3
330
2
100
AcDbDictionary
280
     1
281
     1
  3
ACAD_SORTENTS
360
218
  0
DICTIONARY
  5
42
102
{ACAD_REACTORS
330
A
102
}
330
A
100
AcDbDictionary
281
     1
  0
DICTIONARY
  5
3B
102
{ACAD_REACTORS
330
A
102
}
330
A
100
AcDbDictionary
281
     1
  0
DICTIONARY
  5
1C
102
{ACAD_REACTORS
330
A
102
}
330
A
100
AcDbDictionary
281
     1
  3
Model
350
1B
  3
レイアウト1
350
22
  0
DICTIONARY
  5
C
102
{ACAD_REACTORS
330
A
102
}
330
A
100
AcDbDictionary
281
     1
  3
ByBlock
350
3E
  3
ByLayer
350
16
  3
Global
350
B
  0
DICTIONARY
  5
45
102
{ACAD_REACTORS
330
A
102
}
330
A
100
AcDbDictionary
281
     1
  0
DICTIONARY
  5
3C
102
{ACAD_REACTORS
330
A
102
}
330
A
100
AcDbDictionary
281
     1
  3
Standard
350
46
  0
DICTIONARY
  5
3D
102
{ACAD_REACTORS
330
A
102
}
330
A
100
AcDbDictionary
281
     1
  0
ACDBDICTIONARYWDFLT
  5
9
102
{ACAD_REACTORS
330
A
102
}
330
A
100
AcDbDictionary
281
     1
  3
Normal
350
8
100
AcDbDictionaryWithDefault
340
8
  0
DICTIONARY
  5
43
102
{ACAD_REACTORS
330
A
102
}
330
A
100
AcDbDictionary
281
     1
  3
A0
350
4B
  3
A1
350
4C
  3
A2
350
4D
  3
A3
350
4E
  3
A4
350
4F
  3
A5
350
50
  3
A6
350
51
  3
A7
350
52
  3
A8
350
53
  3
A9
350
54
  3
B0
350
55
  3
B1
350
56
  3
B2
350
57
  3
B3
350
58
  3
B4
350
59
  3
B5
350
5A
  3
B6
350
5B
  0
DICTIONARY
  5
44
102
{ACAD_REACTORS
330
A
102
}
330
A
100
AcDbDictionary
281
     1
  3
Standard
350
47
  0
DICTIONARY
  5
31
102
{ACAD_REACTORS
330
A
102
}
330
A
100
AcDbDictionary
281
     1
  3
2dWireframe
350
30
  3
Realistic
350
49
  3
Wireframe
350
4A
  0
XRECORD
  5
227
102
{ACAD_REACTORS
330
A
102
}
330
A
100
AcDbXrecord
280
     1
 90
        1
330
47
  0
DICTIONARY
  5
219
102
{ACAD_REACTORS
330
A
102
}
330
A
100
AcDbDictionary
281
     1
  3
CANNOSCALE
350
21F
  3
CMLEADERSTYLE
350
21B
  3
CTABLESTYLE
350
21A
  3
CVIEWDETAILSTYLE
350
21C
  3
CVIEWSECTIONSTYLE
350
21D
  3
LAYEREVAL
350
221
  3
LAYERNOTIFY
350
222
  3
LIGHTINGUNITS
350
220
  3
MSLTSCALE
350
21E
  3
PSOLHEIGHT
350
224
  3
PSOLWIDTH
350
223
  3
XCLIPFRAME
350
225
  0
DICTIONARY
  5
25
102
{ACAD_REACTORS
330
24
102
}
330
24
100
AcDbDictionary
281
     1
  0
SORTENTSTABLE
  5
218
102
{ACAD_REACTORS
330
3
102
}
330
3
100
AcDbSortentsTable
330
2
  0
LAYOUT
  5
1B
102
{ACAD_XDICTIONARY
360
1D
102
}
102
{ACAD_REACTORS
330
1C
102
}
330
1C
100
AcDbPlotSettings
  1

  2
none_device
  4
ISO_A4_(210.00_x_297.00_MM)
  6

 40
7.5
 41
20.0
 42
7.5
 43
20.0
 44
210.0
 45
297.0
 46
11.54999923706054
 47
-13.65000009536743
 48
0.0
 49
0.0
140
0.0
141
0.0
142
1.0
143
8.704084754739808
 70
 11952
 72
     1
 73
     0
 74
     0
  7

 75
     0
147
0.1148885871608098
 76
     0
 77
     2
 78
   300
148
0.0
149
0.0
100
AcDbLayout
  1
Model
 70
     1
 71
     0
 10
0.0
 20
0.0
 11
12.0
 21
9.0
 12
0.0
 22
0.0
 32
0.0
 14
0.0
 24
0.0
 34
0.0
 15
0.0
 25
0.0
 35
0.0
146
0.0
 13
0.0
 23
0.0
 33
0.0
 16
1.0
 26
0.0
 36
0.0
 17
0.0
 27
1.0
 37
0.0
 76
     0
330
2
331
2F
1001
ACAD_PSEXT
1000
None
1000
None
1000
Not applicable
1000
The layout will not be plotted unless a new plotter configuration name is selected.
1070
     0
  0
LAYOUT
  5
22
102
{ACAD_REACTORS
330
1C
102
}
330
1C
100
AcDbPlotSettings
  1

  2
C:\Documents and Settings\basas\Application Data\Autodesk\AutoCAD 2005\R16.1\enu\plotters\Default Windows System Printer.pc3
  4

  6

 40
0.0
 41
0.0
 42
0.0
 43
0.0
 44
0.0
 45
0.0
 46
0.0
 47
0.0
 48
0.0
 49
0.0
140
0.0
141
0.0
142
1.0
143
1.0
 70
   688
 72
     0
 73
     0
 74
     5
  7

 75
    16
147
1.0
 76
     0
 77
     2
 78
   300
148
0.0
149
0.0
100
AcDbLayout
  1
レイアウト1
 70
     1
 71
     1
 10
0.0
 20
0.0
 11
12.0
 21
9.0
 12
0.0
 22
0.0
 32
0.0
 14
0.0
 24
0.0
 34
0.0
 15
0.0
 25
0.0
 35
0.0
146
0.0
 13
0.0
 23
0.0
 33
0.0
 16
1.0
 26
0.0
 36
0.0
 17
0.0
 27
1.0
 37
0.0
 76
     0
330
1F
  0
MATERIAL
  5
3E
102
{ACAD_XDICTIONARY
360
3F
102
}
102
{ACAD_REACTORS
330
C
102
}
330
C
100
AcDbMaterial
  1
ByBlock
  0
MATERIAL
  5
16
102
{ACAD_XDICTIONARY
360
17
102
}
102
{ACAD_REACTORS
330
C
102
}
330
C
100
AcDbMaterial
  1
ByLayer
  0
MATERIAL
  5
B
102
{ACAD_XDICTIONARY
360
D
102
}
102
{ACAD_REACTORS
330
C
102
}
330
C
100
AcDbMaterial
  1
Global
 43
0.0007999999797903
 43
0.0
 43
0.0
 43
0.0
 43
0.0
 43
0.0007999999797903
 43
0.0
 43
0.0
 43
0.0
 43
0.0
 43
1.0
 43
0.0
 43
0.0
 43
0.0
 43
0.0
 43
1.0
 49
0.0007999999797903
 49
0.0
 49
0.0
 49
0.0
 49
0.0
 49
0.0007999999797903
 49
0.0
 49
0.0
 49
0.0
 49
0.0
 49
1.0
 49
0.0
 49
0.0
 49
0.0
 49
0.0
 49
1.0
142
0.0007999999797903
142
0.0
142
0.0
142
0.0
142
0.0
142
0.0007999999797903
142
0.0
142
0.0
142
0.0
142
0.0
142
1.0
142
0.0
142
0.0
142
0.0
142
0.0
142
1.0
144
0.0007999999797903
144
0.0
144
0.0
144
0.0
144
0.0
144
0.0007999999797903
144
0.0
144
0.0
144
0.0
144
0.0
144
1.0
144
0.0
144
0.0
144
0.0
144
0.0
144
1.0
1001
ACAD
1070
    -1
1070
     3
1070
     0
1000

1071
        0
1070
     0
  0
MLINESTYLE
  5
46
102
{ACAD_REACTORS
330
3C
102
}
330
3C
100
AcDbMlineStyle
  2
STANDARD
 70
     0
  3

 62
   256
 51
90.0
 52
90.0
 71
     2
 49
0.5
 62
   256
  6
BYLAYER
 49
-0.5
 62
   256
  6
BYLAYER
  0
ACDBPLACEHOLDER
  5
8
102
{ACAD_REACTORS
330
9
102
}
330
9
  0
SCALE
  5
4B
102
{ACAD_REACTORS
330
43
102
}
330
43
100
AcDbScale
 70
     0
300
1:1
140
1.0
141
1.0
290
     1
  0
SCALE
  5
4C
102
{ACAD_REACTORS
330
43
102
}
330
43
100
AcDbScale
 70
     0
300
1:2
140
1.0
141
2.0
290
     0
  0
SCALE
  5
4D
102
{ACAD_REACTORS
330
43
102
}
330
43
100
AcDbScale
 70
     0
300
1:4
140
1.0
141
4.0
290
     0
  0
SCALE
  5
4E
102
{ACAD_REACTORS
330
43
102
}
330
43
100
AcDbScale
 70
     0
300
1:5
140
1.0
141
5.0
290
     0
  0
SCALE
  5
4F
102
{ACAD_REACTORS
330
43
102
}
330
43
100
AcDbScale
 70
     0
300
1:8
140
1.0
141
8.0
290
     0
  0
SCALE
  5
50
102
{ACAD_REACTORS
330
43
102
}
330
43
100
AcDbScale
 70
     0
300
1:10
140
1.0
141
10.0
290
     0
  0
SCALE
  5
51
102
{ACAD_REACTORS
330
43
102
}
330
43
100
AcDbScale
 70
     0
300
1:16
140
1.0
141
16.0
290
     0
  0
SCALE
  5
52
102
{ACAD_REACTORS
330
43
102
}
330
43
100
AcDbScale
 70
     0
300
1:20
140
1.0
141
20.0
290
     0
  0
SCALE
  5
53
102
{ACAD_REACTORS
330
43
102
}
330
43
100
AcDbScale
 70
     0
300
1:30
140
1.0
141
30.0
290
     0
  0
SCALE
  5
54
102
{ACAD_REACTORS
330
43
102
}
330
43
100
AcDbScale
 70
     0
300
1:40
140
1.0
141
40.0
290
     0
  0
SCALE
  5
55
102
{ACAD_REACTORS
330
43
102
}
330
43
100
AcDbScale
 70
     0
300
1:50
140
1.0
141
50.0
290
     0
  0
SCALE
  5
56
102
{ACAD_REACTORS
330
43
102
}
330
43
100
AcDbScale
 70
     0
300
1:100
140
1.0
141
100.0
290
     0
  0
SCALE
  5
57
102
{ACAD_REACTORS
330
43
102
}
330
43
100
AcDbScale
 70
     0
300
2:1
140
2.0
141
1.0
290
     0
  0
SCALE
  5
58
102
{ACAD_REACTORS
330
43
102
}
330
43
100
AcDbScale
 70
     0
300
4:1
140
4.0
141
1.0
290
     0
  0
SCALE
  5
59
102
{ACAD_REACTORS
330
43
102
}
330
43
100
AcDbScale
 70
     0
300
8:1
140
8.0
141
1.0
290
     0
  0
SCALE
  5
5A
102
{ACAD_REACTORS
330
43
102
}
330
43
100
AcDbScale
 70
     0
300
10:1
140
10.0
141
1.0
290
     0
  0
SCALE
  5
5B
102
{ACAD_REACTORS
330
43
102
}
330
43
100
AcDbScale
 70
     0
300
100:1
140
100.0
141
1.0
290
     0
  0
TABLESTYLE
  5
47
102
{ACAD_XDICTIONARY
360
48
102
}
102
{ACAD_REACTORS
330
44
102
}
330
44
100
AcDbTableStyle
  3
Standard
 70
     0
 71
     0
 40
1.5
 41
1.5
280
     0
281
     0
  7
Standard
140
4.5
170
     2
 62
     0
 63
     7
283
     0
274
    -2
284
     1
 64
     0
275
    -2
285
     1
 65
     0
276
    -2
286
     1
 66
     0
277
    -2
287
     1
 67
     0
278
    -2
288
     1
 68
     0
279
    -2
289
     1
 69
     0
  7
Standard
140
6.0
170
     5
 62
     0
 63
     7
283
     0
274
    -2
284
     1
 64
     0
275
    -2
285
     1
 65
     0
276
    -2
286
     1
 66
     0
277
    -2
287
     1
 67
     0
278
    -2
288
     1
 68
     0
279
    -2
289
     1
 69
     0
  7
Standard
140
4.5
170
     5
 62
     0
 63
     7
283
     0
274
    -2
284
     1
 64
     0
275
    -2
285
     1
 65
     0
276
    -2
286
     1
 66
     0
277
    -2
287
     1
 67
     0
278
    -2
288
     1
 68
     0
279
    -2
289
     1
 69
     0
  0
VISUALSTYLE
  5
30
102
{ACAD_XDICTIONARY
360
228
102
}
102
{ACAD_REACTORS
330
31
102
}
330
31
100
AcDbVisualStyle
  2

 70
     4
 71
     0
 72
     2
 73
     1
 90
        0
 40
-0.6
 41
-30.0
 62
     5
 63
     7
421
 16777215
 74
     1
 91
        4
 64
     7
 65
   257
 75
     1
175
     1
 42
1.0
 92
        0
 66
   257
 43
1.0
 76
     1
 77
     6
 78
     2
 67
     7
 79
     5
170
     0
171
     0
290
     0
174
     0
 93
        1
 44
0.0
173
     0
291
     0
 45
0.0
1001
ACAD
1000
AcDbSavedByObjectVersion
1070
     0
  0
VISUALSTYLE
  5
49
102
{ACAD_XDICTIONARY
360
22B
102
}
102
{ACAD_REACTORS
330
31
102
}
330
31
100
AcDbVisualStyle
  2

 70
     8
 71
     2
 72
     3
 73
     0
 90
        2
 40
-0.6
 41
30.0
 62
     5
 63
     7
421
 16777215
 74
     0
 91
        0
 64
     7
 65
   257
 75
     1
175
     1
 42
1.0
 92
        8
 66
   257
 43
1.0
 76
     1
 77
     6
 78
     2
 67
     7
 79
     3
170
     0
171
     0
290
     0
174
     0
 93
       13
 44
0.0
173
     0
291
     0
 45
0.0
1001
ACAD
1000
AcDbSavedByObjectVersion
1070
     0
  0
VISUALSTYLE
  5
4A
102
{ACAD_XDICTIONARY
360
22D
102
}
102
{ACAD_REACTORS
330
31
102
}
330
31
100
AcDbVisualStyle
  2

 70
     5
 71
     0
 72
     2
 73
     0
 90
        0
 40
-0.6
 41
-30.0
 62
     5
 63
     7
421
 16777215
 74
     1
 91
        4
 64
     7
 65
   257
 75
     1
175
     1
 42
1.0
 92
        0
 66
   257
 43
1.0
 76
     1
 77
     6
 78
     2
 67
     7
 79
     3
170
     0
171
     0
290
     0
174
     0
 93
        1
 44
0.0
173
     0
291
     0
 45
0.0
1001
ACAD
1000
AcDbSavedByObjectVersion
1070
     0
  0
DICTIONARYVAR
  5
21F
102
{ACAD_REACTORS
330
219
102
}
330
219
100
DictionaryVariables
280
     0
  1
1:1
  0
DICTIONARYVAR
  5
21B
102
{ACAD_REACTORS
330
219
102
}
330
219
100
DictionaryVariables
280
     0
  1
STANDARD
  0
DICTIONARYVAR
  5
21A
102
{ACAD_REACTORS
330
219
102
}
330
219
100
DictionaryVariables
280
     0
  1
STANDARD
  0
DICTIONARYVAR
  5
21C
102
{ACAD_REACTORS
330
219
102
}
330
219
100
DictionaryVariables
280
     0
  1

  0
DICTIONARYVAR
  5
21D
102
{ACAD_REACTORS
330
219
102
}
330
219
100
DictionaryVariables
280
     0
  1

  0
DICTIONARYVAR
  5
221
102
{ACAD_REACTORS
330
219
102
}
330
219
100
DictionaryVariables
280
     0
  1
0
  0
DICTIONARYVAR
  5
222
102
{ACAD_REACTORS
330
219
102
}
330
219
100
DictionaryVariables
280
     0
  1
0
  0
DICTIONARYVAR
  5
220
102
{ACAD_REACTORS
330
219
102
}
330
219
100
DictionaryVariables
280
     0
  1
2
  0
DICTIONARYVAR
  5
21E
102
{ACAD_REACTORS
330
219
102
}
330
219
100
DictionaryVariables
280
     0
  1
1
  0
DICTIONARYVAR
  5
224
102
{ACAD_REACTORS
330
219
102
}
330
219
100
DictionaryVariables
280
     0
  1
80.000000
  0
DICTIONARYVAR
  5
223
102
{ACAD_REACTORS
330
219
102
}
330
219
100
DictionaryVariables
280
     0
  1
5.000000
  0
DICTIONARYVAR
  5
225
102
{ACAD_REACTORS
330
219
102
}
330
219
100
DictionaryVariables
280
     0
  1
2
  0
DICTIONARY
  5
1D
330
1B
100
AcDbDictionary
280
     1
281
     1
  0
DICTIONARY
  5
3F
330
3E
100
AcDbDictionary
280
     1
281
     1
  3
ACAD_XREC_ROUNDTRIP
360
40
  3
FBXASSET
360
41
  0
DICTIONARY
  5
17
330
16
100
AcDbDictionary
280
     1
281
     1
  3
ACAD_XREC_ROUNDTRIP
360
18
  3
FBXASSET
360
19
  0
DICTIONARY
  5
D
330
B
100
AcDbDictionary
280
     1
281
     1
  3
ACAD_XREC_ROUNDTRIP
360
E
  3
BUMPTILE
360
F
  3
DIFFUSETILE
360
10
  3
FBXASSET
360
11
  3
OPACITYTILE
360
12
  3
REFLECTIONTILE
360
13
  0
DICTIONARY
  5
48
330
47
100
AcDbDictionary
280
     1
281
     1
  3
ACAD_ROUNDTRIP_2008_TABLESTYLE_CELLSTYLEMAP
360
226
  3
ACAD_XREC_ROUNDTRIP
360
22A
  0
DICTIONARY
  5
228
330
30
100
AcDbDictionary
280
     1
281
     1
  3
ACAD_XREC_ROUNDTRIP
360
229
  0
DICTIONARY
  5
22B
330
49
100
AcDbDictionary
280
     1
281
     1
  3
ACAD_XREC_ROUNDTRIP
360
22C
  0
DICTIONARY
  5
22D
330
4A
100
AcDbDictionary
280
     1
281
     1
  3
ACAD_XREC_ROUNDTRIP
360
22E
  0
XRECORD
  5
40
102
{ACAD_REACTORS
330
3F
102
}
330
3F
100
AcDbXrecord
280
     1
102
MATERIAL
148
0.0
149
0.0
149
0.0
 93
        0
 94
      127
282
     0
 72
     1
 77
     1
171
     1
175
     1
179
     1
273
     0
  0
XRECORD
  5
41
102
{ACAD_REACTORS
330
3F
102
}
330
3F
100
AcDbXrecord
280
     1
 70
     1
 90
429727718
  1
D62C5603-E3A1-4AEA-B7FB-FE5D8D0755AF
310
504B03040A0000080000CC70623B3DEE336E79000000790000001B0000006175746F6465736B2D64657369676E2D7061636B6167652E786D6C3C3F786D6C2076657273696F6E3D22312E302220656E636F64696E673D227574662D3822203F3E3C666F726D6174733E3C666F726D61743E687474703A2F2F736368656D612E
310
6175746F6465736B2E636F6D2F64657369676E2D7061636B6167652F323030393C2F666F726D61743E3C2F666F726D6174733E504B0304140006080800CC70623BD486FD9CA0000000F4000000130000005B436F6E74656E745F54797065735D2E786D6C7D8EC10E82300C865F65E91D8A1E8C310C0EEA1BF002731658846E
310
D98AC1B77784ABF1D8FE5FBFBF75BBCE937A534CCEB38643598122B6FEE978D0B0485F9C41B54DDD7D022595594E1A469170414C76A4D9A4D207E29CF43ECE46F218070CC6BECC4078ACAA135ACF422C856C0E68EA1BF5669944DDD7BCDE7B1F8E415D77AECB980613C2E4AC91FC167A2B244592486606FC29C8FD7F045B9A
310
EF7053A7E60B504B0304140006080800CC70623B853B8169EB0000007C01000008000000636F72652E786D6C8D90416EC3201045AF62CDB6C206821CC7C244919D9CA01740401C94182C03558F5F9C3852BBEB6A467FFE9B197D7EFC9E1EC5975982F5AE035262288C535E5B377690E21535501C055FBC8FBF6C503839990E
310
5619041F179FE64D52DE45E362569DD7661365082642A11EB9E920A89B99642953CC8E702F67A9EE7234257977194EC9EAE275C4EABCCF5EAD5940D4AC6F0E35A568B8F43562CD7046CD199FD07E60174276A7BE677B5EADB0E0D14EEFFB6A31321A0D82627C4084204C3F096B71DD52F6819B16635EADF63F509AF53FA164
310
5DDCD1EDDD17164090FCC8732078B56691CB33A85CD7DCC40F504B0304140006080800CC70623B55019EA25F0000007C00000007000000636E782E786D6C4DCB3B0E80201045D1AD90E915ED2CF8AC45050C11660C8261F98AB1B07AC9C97D42D718D865D3E909258CFD00CCE24AC6E326A164D74DC0B4128928FF32603847
310
2BA13128B1252AC747C6BAB984FC68F0B87FE8960A5C09FE86CFB69FBA01504B0304140006080800CC70623BDBABAAF470010000D40300000C0000006662782F636F72652E786D6CC553D16E823014FD95A6AF4B694182CC941A83FA05FB810A9511A125A5257EFE2E82712ECEB8A7F100CD39F7F69E734AF9FADC366850B6
310
AF8DCE7018308C942E4C59EB2AC3DE1D498AD15A706B8CFB56869196ADCAF00863C12B6B7C374385D14E6907A836A59A41D9F7CA615434B0C8705F7CAA5606D23BA8E84F41278B93AC54100640439DE0BDB320004D43C63716C7C399D30917DCFBBA9CD9BA8469F5B156168B24CED3F7248AC8769F27244EB73B92EED8862C
310
B7F13E0C179B3C8F979C8ECD82BBBABDAA2BAC924E9558448CBD9330242CFA08E3154B5651FCC6D215639C8EE5774DBE2B5F6CF2B5768B68963BB5F5588420E442FC700B1139D4CB01F450C1E918227C2E09DF070D8140C84E1E9AAB8F1340832A9CB13130A5F1376A908D57309505ECF2A0DF179C4E9D30F5B239B87E3823
310
7A79C6F31DE1A8A5AEC08474B03C7837EAE4938639B44E5932B833D2C6B6B279CDC613877FA26EE21F4A2A4C63EC7F29A2F301D1F9F7A0E37D145F504B0304140006080800CC70623B9C113CC27E0000009D0000000B0000006662782F636E782E786D6C4DCCDF0A83201C86E15B91DFB94BFB330DD428C8FB886521330DA7
310
6397BF1A1DECE883878F57749FCDA1B7892F1BBC047A23808C7F84D9FA55424E0BE6803A256208E9EF06C84F9B91703228B1C690F78B66B34CD9A5439DF5CF0BFBF65E35BCA1B8D6A5C6F540381E886698B5741C695F9503EBA150A2F8958E3DC3EA0B504B0304140006080800CC70623B7DF2F77C2A010000120200003100
310
00006662782F41393633353835312D344632462D344230382D423046372D3739314545314133324237412F636F72652E786D6C8D51DB8EC22014FC15C2939B0D2DB4B45643319AE817EC0F6041255A68B86CFCFC856D4D76DF7CE190393373060EDB3DC707F856CE6B6B7A480A0C81328395DA5C7B18C3057510EC3873D686
310
3F34088C18550F330C39BB3A1BA7051AAC09CA84841A2BD5020AEF55806078A44B0FFD7053A328440C89E1EFC52486BBB8AA8214A99D789CF9E05200300FC927E4FB4D5B375D43103D5527440FB843077C5AA3F5861C8F645F5787F59E95B390B318B55CE45AA638FAA2957BD7248B390B7A7CC51F9C124149C82B8C378810
310
84AB2F42B7B8DD56F413775B8C5999E9FF4471926F8AA236A1AE96B8B3CC434E5839373893369E1FAF30EA395917409EB7F26AF8801C171837A4A6AC9C89E9F9C9B1A58BA30FD6A5EF5DDDCF894B9AD9B6A59C957943A9FCAE2FD5BC4DFE03504B0304140006080800CC70623BAD7543B64E01000033030000300000006662
310
782F41393633353835312D344632462D344230382D423046372D3739314545314133324237412F636E782E786D6CD593CD6EC32010845F0571AD6CE3D48AD20813A9873E410FBD12D82434182C7EAAE6EDBB2424CD25871E7B41D6EC30B3FA84F9E67BB2E40B4234DE8DB46F1925E094D7C6ED479AD3AE5951B2113C789FEE
310
6C943839C1488B4C05DF079FE72A69D8C96C13AAD6B8631503449F83828872B949AC57D26200B826A308D316B4064D6E46FCDA41C05550DC9E483A00797BFD207EFB092A45DE9514C1BBD22178396BD39D891265658C238DEA00936C654E5E433CB65A26D9F6EDB5EBC14EBF49A45CB856E66048291F6939A9A81BB5C89177
310
38143CA680F4AA299D66A042CEB3354A2684DC9D8D178FE0D9B8B41CAAD720F880EE7EF93C0C18769E099ECC04D5A102C8049A8A05632F4DDF376CF1DE0F6BB65C2F8627B65A33C6BB62177CEBBDAD973006829F89F22E814B54F4BC2BE347F8AA8F681390B50FA73F804400B5F542E796F19FF974E7F78DB802FE05E20750
310
4B0304140006080800CC70623BE75B7789680500003C100000340000006662782F41393633353835312D344632462D344230382D423046372D3739314545314133324237412F6F626A656374732E786D6CAD575B8F9B3818FD2B887D06C22499CB8AA1CA655245D5B455A356FB305264C061D8018C6C3393D95FBFC7600890
310
A4CD5EF210B0B1BFEBF98E3F7B1FF6596ABC522E1296DF9BAE3D320D9A872C4AF2F8DE2CE5CEBA358D0FBEC719939D65A691938CDE9B6ADAF4BD98B3B2D05311DD91329583D9D5FC0F438434A7A611A644887B5384CF34233629258BA878B12322891DEFF6B66BD70BFB62634E8AE781D082709A4B588AF91C528CDA28B73F
310
1C998EEF39EABBEFA97FBD6A7C7E9553F9D3D79FE442923C3C523610337627CB87ABE99D359D4CC6D6E4FACAB5E6ABF9D2726FC6A3C5F56271377BB88362213924694B38DD99FE47C48627A1E7D49F5A8BB5E1A74C0A599ED3B0F21F1E56366B89112D681E218F0915D0D6F17AD41FBA2A369DCF6335D62ABBD39779D5DDD1
310
11D4D8DE3CBB96B2E04FB8202E41051754A1AA8E8F76B4C6DFE810B580B1547F4B84911149794252234D024EF8BBE963A95AE27B3D310A9D5C215C7960FAEE415ED75694C6AFB17BCACA5D99A60A9AA65F217B0BFC53292ACB92BF283FAD0D3621576592CB5BED907C2FA8E9DF794E35E97BEA31BED21FEB401ABB94C44839
310
DCACBF0E1C5DA8DA5B2F4DFFD32AD86F543D9E565E7056502E157C00AD2671CD534549AB752FCA9CDA00677A313F04E51B22FF19E57B300579E3C97EB29F682D92935CEC18CF901B7B54FD8C51F362B56FC72FE0B3C1EAE335EDCCBF5AEC39ADB17DC238973F804BA5E6F6BFE7AF1FB32E523BE9F3BD571418E3631DCA4D48
310
5250CF639223210A9446CA30052EDF057BD35F8329C1ECD84552BF0DC8D18BE7BCE23BFE6BD960AB4A7DE79923A103BEBD80F911CBAA2C60DB19B01CF164A5583B772EE6D3FFA56666CBCDA74DC97724A48F9A58967497E489C4D979006FD7A05E227A1EBDD0F737C623387A9C844D3709995625106D157315F8B8392CD4E0
310
A0B9A720C4BE9829CEF37EA1E13111214D53925356365ADA634861B52519DD27A00AEB808EAF0628E6F435519D446F45CF2C9CF5214F0A15B2F6D06B79DA3EE3CBF7F56780D2F4E7EF73A0F5E5B02A38D07DC852C6B7C1FBB6664213E0C39E3EBA7FF4E1AD23EA2829407C85E586727488B751B2DB9502BC7B228A3FD68B6E
310
A65A22397E690AA8D158D7E404EC8CDA235CC3B7D1898680131CEC2CDF2638C65196279577750F15884AEE19F94199155B92B13297978469D4F8D358DF0AEF7631E28DC8F0D9F437D5D39A83B2231A1D52D543813A824EF8D44BCFF2FA6A31BD1E8DAD87F1CCB526B3879935BF59CDADD5C37479BB1CDD4CA7B3556B516589
310
EF352754B706114D9C885EC9131DE6EFEB43D99AFE2391C2F958179413D7CFEF6B1B6DB1E7600F00DE6E5C67454A339A4BA2E0FBA85ED26F045D454F463DBFCE484C2F90F2E5E3666003662ED8F755951A7D1BECD5B30B550B2785C8E7320B7292A4838DDA71BBC863ED7613CAF659337A3354231D4FF4A182A54904C2898C
310
98B28C4AD0CE056CCF332A80986E571EE9DBC305BB5FEB7E509220A58D25CF042D712A806AC0AD0C657FDEF80D2D9CEAA2EE4D1C76F60BFE74219A06527D6F82DF6412526107381E55E353090704D085B52408A8913C4ED159D79BDA71BB4BC506F4831350EB6F975CD22D69BF7AC49B91A2C0A9DDA3D5CA36AD20FC478E37
310
E61844E2352865EBCB61A275A65283CAAA9DD27703B4102F5AF51EF5F573B75CBB5AD38BC845F7A49F82A0966A49C2E3EA5EA0ECD326CD965F1DB402C6FA8B51A4658C5C5E2EC9E214602E55810345408596591009A82E7E7FFACA19EEA299B14A0081A705CB3296EBC14CDF658DCD336EA6D1136881AAEB87B81AB9EE53D5
310
F5EB8BC8362082DA24122F98680A4E7930C01A0079749CEA14382A0783E5EBA5A10F8C098456A03D6A4AEB6BB881E2513747552A5DB22C7EDAF83BD5528081A365F7FF06504B0304140006080000CC70623B000000000000000000000000350000006662782F41393633353835312D344632462D344230382D423046372D37
310
39314545314133324237412F76657274696365732E62696E504B0304140006080800CC70623BF270F1330600000004000000360000006662782F41393633353835312D344632462D344230382D423046372D3739314545314133324237412F747269616E676C65732E62696E636660600000504B0304140006080000CC7062
310
3B000000000000000000000000370000006662782F41393633353835312D344632462D344230382D423046372D3739314545314133324237412F617474726962757465732E62696E504B0304140006080800CC70623B08DA0BD19000000041010000360000006662782F41393633353835312D344632462D344230382D4230
310
46372D3739314545314133324237412F6469726563746F72792E786D6C858F410AC3201045AF22B36F53E9A60B35CBEEBAE80D244E44489C6234F4F835464A48035D0DF398FF9F8AF63D0E6CC63039F212F8F9020C7D47C6792B21C5FE7403D62A1188E2E60C98D7234A5830286103A55745067B9D86B8A3CF9C7F90C11DE6
310
07FB144396D7B6A82D282E9A152AD114D5EF2CB866EEE831B8EEA07A7BB5A8D7D61A2BAAEB7FD5F70921FF497D00504B0304140006080800CC70623BEDD1DC58FD000000A00100003B0000006662782F41393633353835312D344632462D344230382D423046372D3739314545314133324237412F7265736F75726365732F
310
636F72652E786D6C8D504B6E833010BD0A9A6D65B00922041947112427E8052C33A156828DFCA97AFC9A40A576D7CDCCE87D344F8F9FBFE667F689CE6B6B3A6039850C8DB2A336530731DC4903D95970676DF82583CCC8193B5861107C72362E3BA4AC096842428D1D7107A5F7182053CF7474E0D507CE32973124857FE48B
310
540F3961CEF244279DE03EB81420DB9EAC1384436FA353E879B1B182C7A8C75DA3C7F453DF353A1075D537A7BA6464B8F535A99AE14A9A2BBD90E350DD183B5CFABE3AF262350B1EF4FC9351399401471025A527C218A1E53BAB5A5AB765F5469B96525EACF23FA6B88CFF34456DC2A1DCE36E360F82A5202F42F062ED2BAD
310
579969AFDD8A6F504B010214000A0000080000CC70623B3DEE336E79000000790000001B00000000000000000000000000000000006175746F6465736B2D64657369676E2D7061636B6167652E786D6C504B01021400140006080800CC70623BD486FD9CA0000000F40000001300000000000000000000000000B20000005B
310
436F6E74656E745F54797065735D2E786D6C504B01021400140006080800CC70623B853B8169EB0000007C010000080000000000000000000000000083010000636F72652E786D6C504B01021400140006080800CC70623B55019EA25F0000007C000000070000000000000000000000000094020000636E782E786D6C504B
310
01021400140006080800CC70623BDBABAAF470010000D40300000C00000000000000000000000000180300006662782F636F72652E786D6C504B01021400140006080800CC70623B9C113CC27E0000009D0000000B00000000000000000000000000B20400006662782F636E782E786D6C504B01021400140006080800CC70
310
623B7DF2F77C2A010000120200003100000000000000000000000000590500006662782F41393633353835312D344632462D344230382D423046372D3739314545314133324237412F636F72652E786D6C504B01021400140006080800CC70623BAD7543B64E010000330300003000000000000000000000000000D2060000
310
6662782F41393633353835312D344632462D344230382D423046372D3739314545314133324237412F636E782E786D6C504B01021400140006080800CC70623BE75B7789680500003C10000034000000000000000000000000006E0800006662782F41393633353835312D344632462D344230382D423046372D3739314545
310
314133324237412F6F626A656374732E786D6C504B01021400140006080000CC70623B0000000000000000000000003500000000000000000000000000280E00006662782F41393633353835312D344632462D344230382D423046372D3739314545314133324237412F76657274696365732E62696E504B01021400140006
310
080800CC70623BF270F133060000000400000036000000000000000000000000007B0E00006662782F41393633353835312D344632462D344230382D423046372D3739314545314133324237412F747269616E676C65732E62696E504B01021400140006080000CC70623B0000000000000000000000003700000000000000
310
000000000000D50E00006662782F41393633353835312D344632462D344230382D423046372D3739314545314133324237412F617474726962757465732E62696E504B01021400140006080800CC70623B08DA0BD1900000004101000036000000000000000000000000002A0F00006662782F41393633353835312D344632
310
462D344230382D423046372D3739314545314133324237412F6469726563746F72792E786D6C504B01021400140006080800CC70623BEDD1DC58FD000000A00100003B000000000000000000000000000E1000006662782F41393633353835312D344632462D344230382D423046372D3739314545314133324237412F7265
310
736F75726365732F636F72652E786D6C504B0506000000000E000E0080040000641100000000
  0
XRECORD
  5
18
102
{ACAD_REACTORS
330
17
102
}
330
17
100
AcDbXrecord
280
     1
102
MATERIAL
148
0.0
149
0.0
149
0.0
 93
        0
 94
      127
282
     0
 72
     1
 77
     1
171
     1
175
     1
179
     1
273
     0
  0
XRECORD
  5
19
102
{ACAD_REACTORS
330
17
102
}
330
17
100
AcDbXrecord
280
     1
 70
     1
 90
429727718
  1
30362254-06B7-45E0-A893-8CFA70E3D6BC
310
504B03040A0000080000CC70623B3DEE336E79000000790000001B0000006175746F6465736B2D64657369676E2D7061636B6167652E786D6C3C3F786D6C2076657273696F6E3D22312E302220656E636F64696E673D227574662D3822203F3E3C666F726D6174733E3C666F726D61743E687474703A2F2F736368656D612E
310
6175746F6465736B2E636F6D2F64657369676E2D7061636B6167652F323030393C2F666F726D61743E3C2F666F726D6174733E504B0304140006080800CC70623BD486FD9CA0000000F4000000130000005B436F6E74656E745F54797065735D2E786D6C7D8EC10E82300C865F65E91D8A1E8C310C0EEA1BF002731658846E
310
D98AC1B77784ABF1D8FE5FBFBF75BBCE937A534CCEB38643598122B6FEE978D0B0485F9C41B54DDD7D022595594E1A469170414C76A4D9A4D207E29CF43ECE46F218070CC6BECC4078ACAA135ACF422C856C0E68EA1BF5669944DDD7BCDE7B1F8E415D77AECB980613C2E4AC91FC167A2B244592486606FC29C8FD7F045B9A
310
EF7053A7E60B504B0304140006080800CC70623B1EC5D7A3EB0000007C01000008000000636F72652E786D6C8D90416EC3201045AF82665B6103C6756C6122AB4D4ED00B204C5C94182C03558F5F9C3852BBEB6A467FFE9B197D71FC9E6FE8CBACC17AD7032D0820E3B41FAD9B7A48F1820F808E52ACDEC75F36404ECDA687
310
4D0629A6D5A76597B477D1B89855E747B38B2A041301E95B6E7A08FAD3CCAA50296647B8168BD2573599823EBB0CA76447F43862C7BCCF5EAC59410E4DDD9C7973C2755553CCCFA4C603E3040F1565ED3B1FDE4E432BCA0D9622DAF9795FAF464533826484B498524CD807E51D79ED187F21878E10516EF63F505AC67F42C9
310
BA58B1FDDD071640D2FCC87D2045B96591CB3DA85CB7DCE40F504B0304140006080800CC70623B55019EA25F0000007C00000007000000636E782E786D6C4DCB3B0E80201045D1AD90E915ED2CF8AC45050C11660C8261F98AB1B07AC9C97D42D718D865D3E909258CFD00CCE24AC6E326A164D74DC0B4128928FF32603847
310
2BA13128B1252AC747C6BAB984FC68F0B87FE8960A5C09FE86CFB69FBA01504B0304140006080800CC70623B8C9102E971010000D40300000C0000006662782F636F72652E786D6CC5535B6E833010BC8AE5DF0A6C08340F1947A84D4ED00B38C6A128602363A31CBFCB234A53A551FA553EC09AD9F5CE8C31DB9E9B1AF5CA
310
7695D1198E428A91D2D214952E33ECDD315861B4E5CC1AE3BE9561A445A3323CC098B3D21ADFCE9034DA29ED00D5A6503328BA4E398C640D8B0C77F253352214DE4145770A5B214FA2546114020D759C75CE8200340D19DE981F0F6746269C33EFAB6266AB02A655C74A59CCF365BADC27CB5D902ED22848F6340DF238A141
310
BE88E2F57B92BFEDF23523433367AE6A2EEAA455C2A902F398D2751045018D3FA264435F3771F242571B4A1919CA6F9A7C5B3CD9E42BED16F12C776AEB308F40C848FC700B1139D4891EF410CEC810227CC6846F8386402064270EF5C5C709A05E49676C024C61FC95EA45ED154CA5211D1FF4FB8291A913A68E9B83EBBB33
310
E2A7673CDE118E5AE8124C0807CB8377834E366998436B950D7A7746DAD846D4CFD978E0F04FD455FC5D49D2D4C6FE9722321F10997F0F32DC47FE05504B0304140006080800CC70623BFFEA85907E0000009D0000000B0000006662782F636E782E786D6C4DCCD10A83201886E15B91FFDC95D95A811AB6F23E625948A6C3
310
E9D8E5AF46073BFAE0E1E365ED67B3E8ADC3CB78C7815C7240DA3DFC64DCC221C519D7805AC182F7F1EF06C88D9BE6703008B6049F9E274D7A1E938DBB5AE3D6131B2589BA0D3D965551E0B2EA732C9B9A624AAEB41E3A557677029960D9AFB4EF11165F504B0304140006080800CC70623B4FEEA4082C0100001202000031
310
0000006662782F39464131463745442D413632322D343644302D413938332D3331353338454246344243312F636F72652E786D6C8D515B6EC32010BC0AE2AB55850DD871ED0813254D72825EC00192A2C460F1A872FC42ED48ED5F7E00CDCECCCEB26C731F6FE05B39AFADE921293004CA082BB5B9F43086336A21D870E6AC
310
0D7F68109861543DCC30E4ECE26C9C164858139409093556AA051CBC570102714B8F1E7AF1A5C6A11862480C7F2DA6415C878B2A4891CA89C7990F2E050073937C42DE1DB7E4F87ED8A36D4329AA9B3D46DBAEAD504556557BD81DEBDD0761E52CE42C462D17B996298E3E6BE59E35C962CE821E1FF18553435012728A7187
310
0841987E927A8D9B35ADDF70BBC6989599FE4F1427F9A4286A132ABAC49D651EF234CD5CE04CDA78BA3DC2A8FB645D00B9DF8B57E215725C60BCA2A463E54C4CE327C7A65E1C7DB02E7DEFCBF594B864C5CA6CDBD49C957943E9FA5D5FBAF336F90F504B0304140006080800CC70623BAD7543B64E01000033030000300000
310
006662782F39464131463745442D413632322D343644302D413938332D3331353338454246344243312F636E782E786D6CD593CD6EC32010845F0571AD6CE3D48AD20813A9873E410FBD12D82434182C7EAAE6EDBB2424CD25871E7B41D6EC30B3FA84F9E67BB2E40B4234DE8DB46F1925E094D7C6ED479AD3AE5951B2113C
310
789FEE6C943839C1488B4C05DF079FE72A69D8C96C13AAD6B8631503449F83828872B949AC57D26200B826A308D316B4064D6E46FCDA41C05550DC9E483A00797BFD207EFB092A45DE9514C1BBD22178396BD39D891265658C238DEA00936C654E5E433CB65A26D9F6EDB5EBC14EBF49A45CB856E66048291F6939A9A81BB5
310
C8917738143CA680F4AA299D66A042CEB3354A2684DC9D8D178FE0D9B8B41CAAD720F880EE7EF93C0C18769E099ECC04D5A102C8049A8A05632F4DDF376CF1DE0F6BB65C2F8627B65A33C6BB62177CEBBDAD973006829F89F22E814B54F4BC2BE347F8AA8F681390B50FA73F804400B5F542E796F19FF974E7F78DB802FE05
310
E207504B0304140006080800CC70623B16AB87BA640500003C100000340000006662782F39464131463745442D413632322D343644302D413938332D3331353338454246344243312F6F626A656374732E786D6CAD575B6FA33818FD2B887DE6924B3BED8A326A92B68A663B534DD4D13E548A0C38942D60649B369D5FBFC7
310
600890A493BDE42160637FD7F31D7FF63E6FB3D478A55C242CBF3247B66B1A340F5994E4F19559CA8D75611A9F7D8F33263BCB4C232719BD32D5B4E97B316765A1A722BA21652A07B3B7B33F0D11D29C9A46981221AE4C113ED38CD8A4942CA2E2C58E882476BCD9DA23BB5ED8171B73523C0F841684D35CC252CCE79062D4
310
468DFA43D7747CCF51DF7D4FFDEB5593E3AB9CCA9FBEFE241792E4E19EB28198C968BAB8199F5D5A67D3E9C49A9E8F47D6EC76B6B0469F26EEFC7C3EBFBCBEB98462213924694B38DD98FE1D62C393D073EA4FADC5DAF04326852CCF6958F90F0F2B9BB5C48816348F90C7840A68EB78EDF68723159BCEE7891A6B95DDE9D3
310
BCEAEEE8086A6C6F9E5D4B59F0175C10A7A0820BAA5055C7473B5AE3CFDD452D602CD5DF12616444529E90D448938013FE6EFA58AA96F85E4F8C42275708571E98FE6827AF6B2B4AE3D7D83D64E5A64C53054DD3AF90BD06FEA9149565C94FCA0F6B834DC85599E4F2423B24DF0B6AFA979E534DFA9E7A4CC6FA631D486393
310
921829879BF5D781A373557BCB85E97FB90DB62B558F8795179C15944B051F40AB495CF35451D26A4727654E6D8033BD98EF82F21D91FF8AF2DD9982BCF1643BDD4EB516C9492E368C67C88DED563FC36D5EACF66DFF057C3658BDBFA69DF9578B3DA735B64F18C7F20770A9D45CFCF7FCF563D6456A277DBEF78A02637CA2
310
43B90A490AEAB94F72244481D24819A6C0E59B606BFA4B3025981DBB48EAB701D97BF19C577CC77F2D1B6C55A9EF3C732474C0B727303F625995056C3B02963D9EAC146BE78EC5FCEC7FA999EBC5EACBAAE41B12D27B4D2C0BBA49F244E2ECDC81B76B502F113D8F5EE8FB1BE3111CDD4FC2AA9B844CAB1288B68AB90A7CDC
310
1C166AB0D3DC5310625FCC14E779BFD0709F8890A629C9292B1B2DED31A4B0DA928CEE135085754027E3018A397D4D5427D15BD1330B677DC8934285AC3DF45A9EB68FF8F2B8FC0A509AFEECFD0FF2DE25CC6047F7214B195F07EFEB9A094D800F7BFAE8FED187B78EA8A3A400F115961BCAD1215E47C966530AF0EE8128FE
310
58CEBB996A8964FFA529A046635D9353B0336A8F700DDF46271A024E70B0B37C9DE01847591E54DED53D54202AB947E4076556AC49C6CA5C9E1226B7F1A7B1BE15DEED62C41B91E1B3E9AFAAA735036547343A925075041DF0A9979E893B391F8FCFA6967B3EFB644DCF6E5CEBFAE272625DCC6FAF3FB93793C5F90CE1EF57
310
407342756B10D1C489E8953CD1617E5CEECAD6F4EF8914CE5D5D504E5C3F1F9736DA62CFC11E00BCDDB8CC8A9466349744C1F75EBDA4DF09BA8A9E8C7A7E9991989E20E5DBDD6A6003664ED8F7A04A8DBE0DF6EAD9B9AA858342E47399053949D2C146EDB85DE4B176BB0965FBAC19BD19AA918E27FA50C1D22402E144464C
310
59462568E704B6E71915404CB72B8FF4EDE184DDAF753F284990D2C6926782963815403548A70C657FDEF80D2D9CEAA2AE4C1C76F60BFE74219A06527D6582DF6412526107381E55E353090704D085B52408D0933C4ED159D79BDA71BB4BC506F4831350EB6F979CD22D69BF7AC49B91A2C0A9DDA3D5CA36AD20FC478E37E6
310
1844E2352865EBCB6EA275A652E3836BE04EFB400BF1A2556F515F1FBB35B2AB35BD889C744FFA1004B5544B121E57F70215746DD2F5E2C1412B602CBF19455AC6C8E5E9922C4E01E65215385004546899059180EAFCF7A707CE7017CD8CDB0410789AB32C63B91E5CEBBBACB17AC6CD347A022D5075FD106377347AAABA7E
310
7D11590744509B44E205134DC1290F06580320F78E537D3D73540E06CB970B431F185308AD40BBD794D6D77003C5A36E8EAA54BA64597CD8F83BD552A080A365F7FF06504B0304140006080000CC70623B000000000000000000000000350000006662782F39464131463745442D413632322D343644302D413938332D3331
310
353338454246344243312F76657274696365732E62696E504B0304140006080800CC70623BF270F1330600000004000000360000006662782F39464131463745442D413632322D343644302D413938332D3331353338454246344243312F747269616E676C65732E62696E636660600000504B0304140006080000CC70623B
310
000000000000000000000000370000006662782F39464131463745442D413632322D343644302D413938332D3331353338454246344243312F617474726962757465732E62696E504B0304140006080800CC70623B08DA0BD19000000041010000360000006662782F39464131463745442D413632322D343644302D413938
310
332D3331353338454246344243312F6469726563746F72792E786D6C858F410AC3201045AF22B36F53E9A60B35CBEEBAE80D244E44489C6234F4F835464A48035D0DF398FF9F8AF63D0E6CC63039F212F8F9020C7D47C6792B21C5FE7403D62A1188E2E60C98D7234A5830286103A55745067B9D86B8A3CF9C7F90C11DE607
310
FB144396D7B6A82D282E9A152AD114D5EF2CB866EEE831B8EEA07A7BB5A8D7D61A2BAAEB7FD5F70921FF497D00504B0304140006080800CC70623B0D6EF93BFE000000A00100003B0000006662782F39464131463745442D413632322D343644302D413938332D3331353338454246344243312F7265736F75726365732F63
310
6F72652E786D6C8D50596E833010BD0A9ADFCA60B334011947A8694ED00B586642AC041B79A97AFC9A40A5F6AF3F33A3B7689E1E3F7DCD8FEC139DD7D6F4C0720A191A65476DA61E62B892236427C19DB5E1970C322367EC618541F0C9D9B8EC90B226A009093576C41D94DE63804C3DD2D18357379C652E63480A7FCF17A9
310
EE72C29CE5894E3AC17D702940B63D59270887DE46A7D0F36263058F518FBB468FE9A7BE6A7420864373B8D4873369AA8691FA421B3294352543C5CAF65C0F6FEF43CB8BD52C78D0F34F46E550061C419494B6843142CB0F5677F4B52BEB177AEC28E5C52AFF638ACBF84F53D42654E51E77B379102C05791282176B5F693D
310
CB4C7BED567C03504B010214000A0000080000CC70623B3DEE336E79000000790000001B00000000000000000000000000000000006175746F6465736B2D64657369676E2D7061636B6167652E786D6C504B01021400140006080800CC70623BD486FD9CA0000000F40000001300000000000000000000000000B20000005B
310
436F6E74656E745F54797065735D2E786D6C504B01021400140006080800CC70623B1EC5D7A3EB0000007C010000080000000000000000000000000083010000636F72652E786D6C504B01021400140006080800CC70623B55019EA25F0000007C000000070000000000000000000000000094020000636E782E786D6C504B
310
01021400140006080800CC70623B8C9102E971010000D40300000C00000000000000000000000000180300006662782F636F72652E786D6C504B01021400140006080800CC70623BFFEA85907E0000009D0000000B00000000000000000000000000B30400006662782F636E782E786D6C504B01021400140006080800CC70
310
623B4FEEA4082C0100001202000031000000000000000000000000005A0500006662782F39464131463745442D413632322D343644302D413938332D3331353338454246344243312F636F72652E786D6C504B01021400140006080800CC70623BAD7543B64E010000330300003000000000000000000000000000D5060000
310
6662782F39464131463745442D413632322D343644302D413938332D3331353338454246344243312F636E782E786D6C504B01021400140006080800CC70623B16AB87BA640500003C1000003400000000000000000000000000710800006662782F39464131463745442D413632322D343644302D413938332D3331353338
310
454246344243312F6F626A656374732E786D6C504B01021400140006080000CC70623B0000000000000000000000003500000000000000000000000000270E00006662782F39464131463745442D413632322D343644302D413938332D3331353338454246344243312F76657274696365732E62696E504B01021400140006
310
080800CC70623BF270F133060000000400000036000000000000000000000000007A0E00006662782F39464131463745442D413632322D343644302D413938332D3331353338454246344243312F747269616E676C65732E62696E504B01021400140006080000CC70623B0000000000000000000000003700000000000000
310
000000000000D40E00006662782F39464131463745442D413632322D343644302D413938332D3331353338454246344243312F617474726962757465732E62696E504B01021400140006080800CC70623B08DA0BD190000000410100003600000000000000000000000000290F00006662782F39464131463745442D413632
310
322D343644302D413938332D3331353338454246344243312F6469726563746F72792E786D6C504B01021400140006080800CC70623B0D6EF93BFE000000A00100003B000000000000000000000000000D1000006662782F39464131463745442D413632322D343644302D413938332D3331353338454246344243312F7265
310
736F75726365732F636F72652E786D6C504B0506000000000E000E0080040000641100000000
  0
XRECORD
  5
E
102
{ACAD_REACTORS
330
D
102
}
330
D
100
AcDbXrecord
280
     1
102
MATERIAL
148
0.0
149
0.0
149
0.0
 93
        0
 94
      127
282
     0
 72
     1
 77
     1
171
     1
175
     1
179
     1
273
     0
  0
XRECORD
  5
F
102
{ACAD_REACTORS
330
D
102
}
330
D
100
AcDbXrecord
280
     1
270
     1
271
     1
  0
XRECORD
  5
10
102
{ACAD_REACTORS
330
D
102
}
330
D
100
AcDbXrecord
280
     1
270
     1
271
     1
  0
XRECORD
  5
11
102
{ACAD_REACTORS
330
D
102
}
330
D
100
AcDbXrecord
280
     1
 70
     0
 90
1673772943
  1
ECE7A1D2-D628-4531-984C-D00F80459256
310
504B03040A0000080000CC70623B3DEE336E79000000790000001B0000006175746F6465736B2D64657369676E2D7061636B6167652E786D6C3C3F786D6C2076657273696F6E3D22312E302220656E636F64696E673D227574662D3822203F3E3C666F726D6174733E3C666F726D61743E687474703A2F2F736368656D612E
310
6175746F6465736B2E636F6D2F64657369676E2D7061636B6167652F323030393C2F666F726D61743E3C2F666F726D6174733E504B0304140006080800CC70623BD486FD9CA0000000F4000000130000005B436F6E74656E745F54797065735D2E786D6C7D8EC10E82300C865F65E91D8A1E8C310C0EEA1BF002731658846E
310
D98AC1B77784ABF1D8FE5FBFBF75BBCE937A534CCEB38643598122B6FEE978D0B0485F9C41B54DDD7D022595594E1A469170414C76A4D9A4D207E29CF43ECE46F218070CC6BECC4078ACAA135ACF422C856C0E68EA1BF5669944DDD7BCDE7B1F8E415D77AECB980613C2E4AC91FC167A2B244592486606FC29C8FD7F045B9A
310
EF7053A7E60B504B0304140006080800CC70623BD9DDAED0EC0000007C01000008000000636F72652E786D6C8D90416EC3201045AF82665B61836D9CD8C2444DD39CA01740405C94182C03558F5F9C3852BBEB6A467FFE9B197D7EF89E6EE8CB2CC17A37002D0820E394D7D68D03A478C17B4007C117EFE32F1B20272733C0
310
2A83E0E3E2D3BC49CABB685CCCAAF3DA6CA20CC14440EA969B0182FA34932C648AD911AEC52CD5558EA6A0CF2EC329598D1E47ACCEFBECC59A050463A7EA5833865FEBDD0E37353BE3EE8DBDE3F6786A48D375FBF6CC78B9C282473B3DEFABC5C86834888A900E538A49F5419B9EB47DD5BC907D4F082F57FB1F28CDFA9F50
310
B22ED6D5F6EE030B20687EE43E10BC5CB3C8E51E54AE6B6EE207504B0304140006080800CC70623B55019EA25F0000007C00000007000000636E782E786D6C4DCB3B0E80201045D1AD90E915ED2CF8AC45050C11660C8261F98AB1B07AC9C97D42D718D865D3E909258CFD00CCE24AC6E326A164D74DC0B4128928FF326038
310
472BA13128B1252AC747C6BAB984FC68F0B87FE8960A5C09FE86CFB69FBA01504B0304140006080800CC70623BA24EB22D72010000D40300000C0000006662782F636F72652E786D6CC5535B6E833010BC8AE5DF0A6C5E49888CA3A6694ED00B38E05014B091B1518EDFE511A5A9D228FD2A1F60CDEC7A67C6986DCE4D8D7A
310
69BA4AAB0C073EC548AA5C17952A33ECECD15B61B4E1CC686DBF9561A44423333CC098B3D268D7CE50AE9595CA02AA74216750749DB418E5352C32DCE59FB211BE70162ABA93DF8AFC244AE9073ED050C759670D0840D390E18DF9F1706664C23973AE2A66B62A605A75ACA4C13C4976E1364A12EF355A2EBD384AF65EFA96
310
BC7B8BED2EA6719AAE16FB8491A199335B351775B991C2CA02F390D2D40B028F861F41BCA68B7518BFD0D59A524686F29B26D7164F36B94AD9289CE54E6D1DE6010819891F6E21228B3AD1831EC219194284CF98F06DD01008846CC5A1BEF83801D4CBDC6A1303536877A57A513B0953A94FC707FDBE6064EA84A9E3E6E0FA
310
EE8CF0E9198F7784A316AA0413C2C2F2E0ECA0934D1AE6D05A69BCDE9E91D2A611F573361E38FC1375157F5752AE6B6DFE4B11990F88CCBF0719EE23FF02504B0304140006080800CC70623B408A7D3B7C0000009D0000000B0000006662782F636E782E786D6C4DCCD10A83201886E15B91FFDC552A92A0064DBC8F581632
310
D3703A76F9ABD1C18E3E78F878E5F0D9027ABBFCF2292AE86E2D20171F69F6715550CB827B40839639A5F2770314A7CD293819B45C73AAFB45B35BA61ACAA1C1C7E7855C58C15BC331339661262CC762340413D68D77DA5B42298546CBE6573AF60CEB2F504B0304140006080800CC70623B449FB9BD290100001202000031
310
0000006662782F36394639363044362D344446342D343946362D394244322D3234314243333846323333332F636F72652E786D6C8D515B6EC32010BC0AE22B55850D98B871848994463E412FE002495162B07854397EA176A4F62F3F2C9A9D991D587EB84F37F0AD7D30CEF6905418026DA553C65E7A98E219ED203808EE9D
310
8B7F6810D871D23D2C3014FCE25D9A57483A1BB58D19B54EE9151C43D0110279CB971E06F9A5A7B11A53CC8C70ADE6515EC78BAE4895DB992778883E0700CB907242D17643D7E2538BD869608875438BBAE38922CAC8F1BDD90DB4691A5E2F42C153326A951B95E398B3D1FE599322163C9AE9115F7A3D46ADA0A018778810
310
84E907617BDCEE297BC5BB3DC6BC2EF47FA234AB2745C9D8D8D035EE220B50105E2F0DC1954B9FB747187D9F9D8FA0CCDB042D5FA0C015C65B42DF78BD10F3F3B363CB56C7109DCFDFBBB97E662ED92EB62D13BC2E1BCAE5777DB9966D8A1F504B0304140006080800CC70623BAD7543B64E01000033030000300000006662
310
782F36394639363044362D344446342D343946362D394244322D3234314243333846323333332F636E782E786D6CD593CD6EC32010845F0571AD6CE3D48AD20813A9873E410FBD12D82434182C7EAAE6EDBB2424CD25871E7B41D6EC30B3FA84F9E67BB2E40B4234DE8DB46F1925E094D7C6ED479AD3AE5951B2113C789FEE
310
6C943839C1488B4C05DF079FE72A69D8C96C13AAD6B8631503449F83828872B949AC57D26200B826A308D316B4064D6E46FCDA41C05550DC9E483A00797BFD207EFB092A45DE9514C1BBD22178396BD39D891265658C238DEA00936C654E5E433CB65A26D9F6EDB5EBC14EBF49A45CB856E66048291F6939A9A81BB5C89177
310
38143CA680F4AA299D66A042CEB3354A2684DC9D8D178FE0D9B8B41CAAD720F880EE7EF93C0C18769E099ECC04D5A102C8049A8A05632F4DDF376CF1DE0F6BB65C2F8627B65A33C6BB62177CEBBDAD973006829F89F22E814B54F4BC2BE347F8AA8F681390B50FA73F804400B5F542E796F19FF974E7F78DB802FE05E20750
310
4B0304140006080800CC70623B8D05915C650500003B100000340000006662782F36394639363044362D344446342D343946362D394244322D3234314243333846323333332F6F626A656374732E786D6CAD575B6FA33814FE2B887D06429276DA1565D4266D158D3A339A6846FB502932E050B66023DB74D2FDF5FB190C01
310
9276B2973C046C8ECFF53B17071F77456EBD502133CEAE6CDF9DD81665314F32965ED995DA3A17B6F5310C04E7AA47665B8C14F4CAD6DB7618A48257A5D94AE89654B91AEDDEDDFC61C998326A5B714EA4BCB265FC440BE2924AF184CA6737218AB8E976E7FA6E4338649B0A523E8D98964450A6A029F619B8588D52FE7039
310
B1BD30F0F4F730D0FF866AF6369557DB33949F31A9088B0F848DD8CCFCF9F2767A76E99CCDE733677E3EF59D9BBB9BA5E37F984D16E78BC5E5F5ED25044B25C0C96822E8D60EEFE11B91C581D77CEA34368A1F5329E68CD1B8B61F16D63A1B8E092D294B10C78C4A48EB593D192E7DED9BDEE7995E1B91FDEDD3ACEA9FE831
310
6A756F9F7D4D79F4274C90A7A04248AA51D5F8C718DAE06FB2F75AC4796EBE65D22A88A22223B995679120E2D50E41AA49C260C046A35368846B0BECD0DFF3EBEB8AD4F835768F69B9ADF25C43D30E6B646F807FAA64AD59F61715C7A54127C4AACA98BA3006A9D792DAE165E0D59B61A01FB3A9F9D838D2DAE62445C86166
310
F37564E842E7DE6A69879FEEA2DD5AE7E371E1A5E025154AC307D06A03D73EB5978C58FFA4C8E9033066E0F3BD53BEC1F39F91BE7B55103791EDE6BBB991A2046172CB4581D8B893FA674DDA17A77B3B7C413D1B511FD2743BFF8A38F03A658705E3ADF8015C3A3417FF3D7E439FF591DA0B5F18BC20C1B8981957AE6392A3
310
F43C640C01D1A0B4728E2DD4F26DB4B3C3152A252A3B4E913CEC1C72F012782FF88EFF8637AA552DBEF76408E8A8DE9E50F9E1CB3A2DA0DB1B6039A893B56063DC5B3E3FFB5F72E67AB9FEB4AEC496C4F4C1149625DD662C53E89D7BF0F6151A046260D1337DFDC94502430F83B0EE07A130A224BCAD7DAE1D9FB6CD422FF6
310
920702629C4BB9AE79C12F243C6432A6794E18E5552BA56B431AAB5D91317302B2B071E86C3A42B1A02F999E24061403B5D0EB639195DA655DD3EBEAB4FB862DDF579F014AD0E73C22F99E28DA57FB98E75C6CA2D74D53086D600F4786E0FE3144B771A8A7B900F03594DB8A633CBC49B2EDB69228BB479CF863B5E807AAAB
310
23872F6DFEB4129B949CA33823F58830E86D65621E10047D9DB34D862E8EAC3C2ABC2F7B2C40D67CDFE01F5545B92105AF983AC54D93D69E56FB8E797F88913F898A9FEC705D3F9D1B54EC8426FB500D40A03BD0119B06E1B95DDC7EB8F6975367793EBD70E66733DFB9BC982F9CE564727731999F5D4ECFCE3B8D6A4DC2A0
310
6D50FD148437D110834A64C6CDDF57FBACB5C307A2A477DFE4939736CFEF2B175371E0E10CF0DD1D5C15654E0BCA14D1E87DD02FF93782A162C0A3D95F1524A52770F972BF1EE9809D13CE7DD599467F8ECE9ADD85CE85A34CD45355448C64F9E8A031DC2D596ACC6E5DD93D9B82DE2EF5CAF81363A8E47996A0DE24564A79
310
4115AACE09C55E14540231FDA13C319787134EBF34E3A022514E5B4D9E0826E25C02D5805B15ABE1BEF51B26383D445DD9E875EE33FE4C22DA16427D65A3BCA92CA6D28DD01DF5DC53330704308475351050232CCD31583787BA75774AFB06E5070DD0C8EF484E19968C5D83BA5B90B244D31E54D55A372320FE4786B7EA58
310
44E135AA5467CB7EA333A61683CC6A8C3257034C10CF46F40EF9F5BE59BE5BD30C3C72D235E95D10345C1D45445A5F0BB47E46A5EBE5570F9380B5FA629579952296A773720405982B9DE04011506178964401AA8BDF1FBF0A8EAB6861DD6580C0E38217056766716DAEB2D6FA0917D3E4116581EADB879C4E7CFFB11EFACD
310
3D641311495D92C8676CB409A72D18610D803CE8A626049E8EC1887CB5B44CC39883690DDA8399B4B9855B481E7D71D4A9D22F96E5BB73BF5793020C02137BF837504B0304140006080000CC70623B000000000000000000000000350000006662782F36394639363044362D344446342D343946362D394244322D32343142
310
43333846323333332F76657274696365732E62696E504B0304140006080800CC70623BF270F1330600000004000000360000006662782F36394639363044362D344446342D343946362D394244322D3234314243333846323333332F747269616E676C65732E62696E636660600000504B0304140006080000CC70623B0000
310
00000000000000000000370000006662782F36394639363044362D344446342D343946362D394244322D3234314243333846323333332F617474726962757465732E62696E504B0304140006080800CC70623B08DA0BD19000000041010000360000006662782F36394639363044362D344446342D343946362D394244322D
310
3234314243333846323333332F6469726563746F72792E786D6C858F410AC3201045AF22B36F53E9A60B35CBEEBAE80D244E44489C6234F4F835464A48035D0DF398FF9F8AF63D0E6CC63039F212F8F9020C7D47C6792B21C5FE7403D62A1188E2E60C98D7234A5830286103A55745067B9D86B8A3CF9C7F90C11DE607FB14
310
4396D7B6A82D282E9A152AD114D5EF2CB866EEE831B8EEA07A7BB5A8D7D61A2BAAEB7FD5F70921FF497D00504B0304140006080800CC70623BCA768048FE000000A00100003B0000006662782F36394639363044362D344446342D343946362D394244322D3234314243333846323333332F7265736F75726365732F636F72
310
652E786D6C8D50596E833010BD0A9ADFCA60D600328E9AA639412F609909B1126CE4A5EAF16B0295DABFFECC8CDEA2797AECF8353F924FB44E193D409E5248504B332A3D0D10FC95B4901C39B3C6F85F3248B49871801506CE266BC2B243D2688FDA47549B11775038871E12F988C7004EDE7016A9083E2ADC3D5D84BC8B09
310
D33C8D74D471E6BC8D0192EDC93A815B742658898E651BCB59086ADC356A8C3FD555A1055ED7E7E254D615792D0F075295F585746FF53B694EE78A565DD736979A65AB9933AFE69F8CD2A2F038022F28ED489E135A7CE4554F9BBEA85E68DB53CAB255FEC71496F19FA6A0B42F8B3DEE6673C0F318E4497096AD7DC5F52C33
310
EEB55BFE0D504B010214000A0000080000CC70623B3DEE336E79000000790000001B00000000000000000000000000000000006175746F6465736B2D64657369676E2D7061636B6167652E786D6C504B01021400140006080800CC70623BD486FD9CA0000000F40000001300000000000000000000000000B20000005B436F
310
6E74656E745F54797065735D2E786D6C504B01021400140006080800CC70623BD9DDAED0EC0000007C010000080000000000000000000000000083010000636F72652E786D6C504B01021400140006080800CC70623B55019EA25F0000007C000000070000000000000000000000000095020000636E782E786D6C504B0102
310
1400140006080800CC70623BA24EB22D72010000D40300000C00000000000000000000000000190300006662782F636F72652E786D6C504B01021400140006080800CC70623B408A7D3B7C0000009D0000000B00000000000000000000000000B50400006662782F636E782E786D6C504B01021400140006080800CC70623B
310
449FB9BD290100001202000031000000000000000000000000005A0500006662782F36394639363044362D344446342D343946362D394244322D3234314243333846323333332F636F72652E786D6C504B01021400140006080800CC70623BAD7543B64E010000330300003000000000000000000000000000D20600006662
310
782F36394639363044362D344446342D343946362D394244322D3234314243333846323333332F636E782E786D6C504B01021400140006080800CC70623B8D05915C650500003B10000034000000000000000000000000006E0800006662782F36394639363044362D344446342D343946362D394244322D32343142433338
310
46323333332F6F626A656374732E786D6C504B01021400140006080000CC70623B0000000000000000000000003500000000000000000000000000250E00006662782F36394639363044362D344446342D343946362D394244322D3234314243333846323333332F76657274696365732E62696E504B010214001400060808
310
00CC70623BF270F13306000000040000003600000000000000000000000000780E00006662782F36394639363044362D344446342D343946362D394244322D3234314243333846323333332F747269616E676C65732E62696E504B01021400140006080000CC70623B00000000000000000000000037000000000000000000
310
00000000D20E00006662782F36394639363044362D344446342D343946362D394244322D3234314243333846323333332F617474726962757465732E62696E504B01021400140006080800CC70623B08DA0BD190000000410100003600000000000000000000000000270F00006662782F36394639363044362D344446342D
310
343946362D394244322D3234314243333846323333332F6469726563746F72792E786D6C504B01021400140006080800CC70623BCA768048FE000000A00100003B000000000000000000000000000B1000006662782F36394639363044362D344446342D343946362D394244322D3234314243333846323333332F7265736F
310
75726365732F636F72652E786D6C504B0506000000000E000E0080040000621100000000
  0
XRECORD
  5
12
102
{ACAD_REACTORS
330
D
102
}
330
D
100
AcDbXrecord
280
     1
270
     1
271
     1
  0
XRECORD
  5
13
102
{ACAD_REACTORS
330
D
102
}
330
D
100
AcDbXrecord
280
     1
270
     1
271
     1
  0
CELLSTYLEMAP
  5
226
102
{ACAD_REACTORS
330
48
102
}
330
48
100
AcDbCellStyleMap
 90
        3
300
CELLSTYLE
  1
TABLEFORMAT_BEGIN
 90
        5
170
     1
 91
        0
 92
    32768
 62
   257
 93
        1
300
CONTENTFORMAT
  1
CONTENTFORMAT_BEGIN
 90
        0
 91
        0
 92
      512
 93
        0
300

 40
0.0
140
1.0
 94
        5
 62
     0
340
27
144
6.0
309
CONTENTFORMAT_END
171
     1
301
MARGIN
  1
CELLMARGIN_BEGIN
 40
1.5
 40
1.5
 40
1.5
 40
1.5
 40
0.18
 40
0.18
309
CELLMARGIN_END
 94
        6
 95
        1
302
GRIDFORMAT
  1
GRIDFORMAT_BEGIN
 90
        0
 91
        1
 62
     0
 92
       -2
340
2A
 93
        0
 40
1.125
309
GRIDFORMAT_END
 95
        2
302
GRIDFORMAT
  1
GRIDFORMAT_BEGIN
 90
        0
 91
        1
 62
     0
 92
       -2
340
2A
 93
        0
 40
1.125
309
GRIDFORMAT_END
 95
        4
302
GRIDFORMAT
  1
GRIDFORMAT_BEGIN
 90
        0
 91
        1
 62
     0
 92
       -2
340
2A
 93
        0
 40
1.125
309
GRIDFORMAT_END
 95
        8
302
GRIDFORMAT
  1
GRIDFORMAT_BEGIN
 90
        0
 91
        1
 62
     0
 92
       -2
340
2A
 93
        0
 40
1.125
309
GRIDFORMAT_END
 95
       16
302
GRIDFORMAT
  1
GRIDFORMAT_BEGIN
 90
        0
 91
        1
 62
     0
 92
       -2
340
2A
 93
        0
 40
1.125
309
GRIDFORMAT_END
 95
       32
302
GRIDFORMAT
  1
GRIDFORMAT_BEGIN
 90
        0
 91
        1
 62
     0
 92
       -2
340
2A
 93
        0
 40
1.125
309
GRIDFORMAT_END
309
TABLEFORMAT_END
  1
CELLSTYLE_BEGIN
 90
        1
 91
        1
300
_TITLE
309
CELLSTYLE_END
300
CELLSTYLE
  1
TABLEFORMAT_BEGIN
 90
        5
170
     1
 91
        0
 92
        0
 62
   257
 93
        1
300
CONTENTFORMAT
  1
CONTENTFORMAT_BEGIN
 90
        0
 91
        0
 92
      512
 93
        0
300

 40
0.0
140
1.0
 94
        5
 62
     0
340
27
144
4.5
309
CONTENTFORMAT_END
171
     1
301
MARGIN
  1
CELLMARGIN_BEGIN
 40
1.5
 40
1.5
 40
1.5
 40
1.5
 40
0.18
 40
0.18
309
CELLMARGIN_END
 94
        6
 95
        1
302
GRIDFORMAT
  1
GRIDFORMAT_BEGIN
 90
        0
 91
        1
 62
     0
 92
       -2
340
2A
 93
        0
 40
1.125
309
GRIDFORMAT_END
 95
        2
302
GRIDFORMAT
  1
GRIDFORMAT_BEGIN
 90
        0
 91
        1
 62
     0
 92
       -2
340
2A
 93
        0
 40
1.125
309
GRIDFORMAT_END
 95
        4
302
GRIDFORMAT
  1
GRIDFORMAT_BEGIN
 90
        0
 91
        1
 62
     0
 92
       -2
340
2A
 93
        0
 40
1.125
309
GRIDFORMAT_END
 95
        8
302
GRIDFORMAT
  1
GRIDFORMAT_BEGIN
 90
        0
 91
        1
 62
     0
 92
       -2
340
2A
 93
        0
 40
1.125
309
GRIDFORMAT_END
 95
       16
302
GRIDFORMAT
  1
GRIDFORMAT_BEGIN
 90
        0
 91
        1
 62
     0
 92
       -2
340
2A
 93
        0
 40
1.125
309
GRIDFORMAT_END
 95
       32
302
GRIDFORMAT
  1
GRIDFORMAT_BEGIN
 90
        0
 91
        1
 62
     0
 92
       -2
340
2A
 93
        0
 40
1.125
309
GRIDFORMAT_END
309
TABLEFORMAT_END
  1
CELLSTYLE_BEGIN
 90
        2
 91
        1
300
_HEADER
309
CELLSTYLE_END
300
CELLSTYLE
  1
TABLEFORMAT_BEGIN
 90
        5
170
     1
 91
        0
 92
        0
 62
   257
 93
        1
300
CONTENTFORMAT
  1
CONTENTFORMAT_BEGIN
 90
        0
 91
        0
 92
      512
 93
        0
300

 40
0.0
140
1.0
 94
        2
 62
     0
340
27
144
4.5
309
CONTENTFORMAT_END
171
     1
301
MARGIN
  1
CELLMARGIN_BEGIN
 40
1.5
 40
1.5
 40
1.5
 40
1.5
 40
0.18
 40
0.18
309
CELLMARGIN_END
 94
        6
 95
        1
302
GRIDFORMAT
  1
GRIDFORMAT_BEGIN
 90
        0
 91
        1
 62
     0
 92
       -2
340
2A
 93
        0
 40
1.125
309
GRIDFORMAT_END
 95
        2
302
GRIDFORMAT
  1
GRIDFORMAT_BEGIN
 90
        0
 91
        1
 62
     0
 92
       -2
340
2A
 93
        0
 40
1.125
309
GRIDFORMAT_END
 95
        4
302
GRIDFORMAT
  1
GRIDFORMAT_BEGIN
 90
        0
 91
        1
 62
     0
 92
       -2
340
2A
 93
        0
 40
1.125
309
GRIDFORMAT_END
 95
        8
302
GRIDFORMAT
  1
GRIDFORMAT_BEGIN
 90
        0
 91
        1
 62
     0
 92
       -2
340
2A
 93
        0
 40
1.125
309
GRIDFORMAT_END
 95
       16
302
GRIDFORMAT
  1
GRIDFORMAT_BEGIN
 90
        0
 91
        1
 62
     0
 92
       -2
340
2A
 93
        0
 40
1.125
309
GRIDFORMAT_END
 95
       32
302
GRIDFORMAT
  1
GRIDFORMAT_BEGIN
 90
        0
 91
        1
 62
     0
 92
       -2
340
2A
 93
        0
 40
1.125
309
GRIDFORMAT_END
309
TABLEFORMAT_END
  1
CELLSTYLE_BEGIN
 90
        3
 91
        2
300
_DATA
309
CELLSTYLE_END
  0
XRECORD
  5
22A
102
{ACAD_REACTORS
330
48
102
}
330
48
100
AcDbXrecord
280
     1
102
ACAD_ROUNDTRIP_PRE2007_TABLESTYLE
 90
      512
 91
        0
  1

 92
      512
 93
        0
  2

 94
      512
 95
        0
  3

  0
XRECORD
  5
229
102
{ACAD_REACTORS
330
228
102
}
330
228
100
AcDbXrecord
280
     1
102
RTVSPost2010Prop28
280
     1
102
RTVSPost2010PropOp28
 70
     1
102
RTVSPost2010Prop29
280
     1
102
RTVSPost2010PropOp29
 70
     1
102
RTVSPost2010Prop30
280
     0
102
RTVSPost2010PropOp30
 70
     1
102
RTVSPost2010Prop31
280
     0
102
RTVSPost2010PropOp31
 70
     1
102
RTVSPost2010Prop32
280
     0
102
RTVSPost2010PropOp32
 70
     1
102
RTVSPost2010Prop33
280
     0
102
RTVSPost2010PropOp33
 70
     1
102
RTVSPost2010Prop34
280
     0
102
RTVSPost2010PropOp34
 70
     1
102
RTVSPost2010Prop35
280
     0
102
RTVSPost2010PropOp35
 70
     1
102
RTVSPost2010Prop36
280
     0
102
RTVSPost2010PropOp36
 70
     1
102
RTVSPost2010Prop37
 90
       50
102
RTVSPost2010PropOp37
 70
     1
102
RTVSPost2010Prop38
140
0.0
102
RTVSPost2010PropOp38
 70
     1
102
RTVSPost2010Prop39
140
1.0
102
RTVSPost2010PropOp39
 70
     1
102
RTVSPost2010Prop40
 90
        0
102
RTVSPost2010PropOp40
 70
     1
102
RTVSPost2010Prop41ColorIndex
 90
       18
102
RTVSPost2010Prop41ColorRGB
 90
        0
102
RTVSPost2010PropOp41
 70
     1
102
RTVSPost2010Prop42
 90
       50
102
RTVSPost2010PropOp42
 70
     1
102
RTVSPost2010Prop43
 90
        3
102
RTVSPost2010PropOp43
 70
     1
102
RTVSPost2010Prop44ColorIndex
 90
        5
102
RTVSPost2010Prop44ColorRGB
 90
      255
102
RTVSPost2010PropOp44
 70
     1
102
RTVSPost2010Prop45
280
     0
102
RTVSPost2010PropOp45
 70
     1
102
RTVSPost2010Prop46
 90
       50
102
RTVSPost2010PropOp46
 70
     1
102
RTVSPost2010Prop47
 90
       50
102
RTVSPost2010PropOp47
 70
     1
102
RTVSPost2010Prop48
 90
       50
102
RTVSPost2010PropOp48
 70
     1
102
RTVSPost2010Prop49
280
     0
102
RTVSPost2010PropOp49
 70
     1
102
RTVSPost2010Prop50
 90
       50
102
RTVSPost2010PropOp50
 70
     1
102
RTVSPost2010Prop51ColorIndex
 90
      256
102
RTVSPost2010Prop51ColorRGB
 90
-16777216
102
RTVSPost2010PropOp51
 70
     0
102
RTVSPost2010Prop52
140
1.0
102
RTVSPost2010PropOp52
 70
     0
102
RTVSPost2010Prop53
 90
        2
102
RTVSPost2010PropOp53
 70
     1
102
RTVSPost2010Prop54
  1
strokes_ogs.tif
102
RTVSPost2010PropOp54
 70
     1
102
RTVSPost2010Prop55
280
     0
102
RTVSPost2010PropOp55
 70
     1
102
RTVSPost2010Prop56
140
1.0
102
RTVSPost2010PropOp56
 70
     1
102
RTVSPost2010Prop57
140
1.0
102
RTVSPost2010PropOp57
 70
     1
102
RTVSPropertyOp0
 70
     1
102
RTVSPropertyOp1
 70
     1
102
RTVSPropertyOp2
 70
     1
102
RTVSPropertyOp3
 70
     1
102
RTVSPropertyOp4
 70
     1
102
RTVSPropertyOp5
 70
     1
102
RTVSPropertyOp6
 70
     1
102
RTVSPropertyOp7
 70
     1
102
RTVSPropertyOp8
 70
     1
102
RTVSPropertyOp9
 70
     1
102
RTVSPropertyOp10
 70
     1
102
RTVSPropertyOp11
 70
     1
102
RTVSPropertyOp12
 70
     1
102
RTVSPropertyOp13
 70
     1
102
RTVSPropertyOp14
 70
     1
102
RTVSPropertyOp15
 70
     1
102
RTVSPropertyOp16
 70
     1
102
RTVSPropertyOp17
 70
     1
102
RTVSPropertyOp18
 70
     1
102
RTVSPropertyOp19
 70
     1
102
RTVSPropertyOp20
 70
     1
102
RTVSPropertyOp21
 70
     1
102
RTVSPropertyOp22
 70
     1
102
RTVSPropertyOp23
 70
     1
102
RTVSPropertyOp24
 70
     1
102
RTVSPropertyOp25
 70
     1
102
RTVSPropertyOp26
 70
     1
102
RTVSPropertyOp27
 70
     1
102
RTVSPropertyOp28
 70
     1
102
RTVSPropertyOp29
 70
     1
102
RTVSPropertyOp30
 70
     1
102
RTVSPropertyOp31
 70
     1
102
RTVSPropertyOp32
 70
     1
102
RTVSPropertyOp33
 70
     1
102
RTVSPropertyOp34
 70
     1
102
RTVSPropertyOp35
 70
     1
102
RTVSPropertyOp36
 70
     1
102
RTVSPropertyOp37
 70
     1
102
RTVSPropertyOp38
 70
     1
102
RTVSPropertyOp39
 70
     1
102
RTVSPropertyOp40
 70
     1
102
RTVSPropertyOp41
 70
     1
102
RTVSPropertyOp42
 70
     1
102
RTVSPropertyOp43
 70
     1
102
RTVSPropertyOp44
 70
     1
102
RTVSPropertyOp45
 70
     1
102
RTVSPropertyOp46
 70
     1
102
RTVSPropertyOp47
 70
     1
102
RTVSPropertyOp48
 70
     1
102
RTVSPropertyOp49
 70
     1
102
RTVSPropertyOp50
 70
     1
102
RTVSPropertyOp51
 70
     0
102
RTVSPropertyOp52
 70
     0
102
RTVSPropertyOp53
 70
     1
102
RTVSPropertyOp54
 70
     1
102
RTVSPropertyOp55
 70
     1
102
RTVSPropertyOp56
 70
     1
102
RTVSPropertyOp57
 70
     1
102
RTVSPropertyOp58
 70
     1
102
RTVSPropertyOp59
 70
     1
102
RTVSPropertyOp60
 70
     1
102
RTVSPropertyOp61
 70
     1
102
RTVSPropertyOp62
 70
     1
  0
XRECORD
  5
22C
102
{ACAD_REACTORS
330
22B
102
}
330
22B
100
AcDbXrecord
280
     1
102
RTVSPost2010Prop28
280
     0
102
RTVSPost2010PropOp28
 70
     1
102
RTVSPost2010Prop29
280
     1
102
RTVSPost2010PropOp29
 70
     1
102
RTVSPost2010Prop30
280
     1
102
RTVSPost2010PropOp30
 70
     1
102
RTVSPost2010Prop31
280
     0
102
RTVSPost2010PropOp31
 70
     1
102
RTVSPost2010Prop32
280
     0
102
RTVSPost2010PropOp32
 70
     1
102
RTVSPost2010Prop33
280
     0
102
RTVSPost2010PropOp33
 70
     1
102
RTVSPost2010Prop34
280
     0
102
RTVSPost2010PropOp34
 70
     1
102
RTVSPost2010Prop35
280
     0
102
RTVSPost2010PropOp35
 70
     1
102
RTVSPost2010Prop36
280
     0
102
RTVSPost2010PropOp36
 70
     1
102
RTVSPost2010Prop37
 90
       50
102
RTVSPost2010PropOp37
 70
     1
102
RTVSPost2010Prop38
140
0.0
102
RTVSPost2010PropOp38
 70
     1
102
RTVSPost2010Prop39
140
1.0
102
RTVSPost2010PropOp39
 70
     1
102
RTVSPost2010Prop40
 90
        0
102
RTVSPost2010PropOp40
 70
     1
102
RTVSPost2010Prop41ColorIndex
 90
       18
102
RTVSPost2010Prop41ColorRGB
 90
        0
102
RTVSPost2010PropOp41
 70
     1
102
RTVSPost2010Prop42
 90
       50
102
RTVSPost2010PropOp42
 70
     1
102
RTVSPost2010Prop43
 90
        3
102
RTVSPost2010PropOp43
 70
     1
102
RTVSPost2010Prop44ColorIndex
 90
        5
102
RTVSPost2010Prop44ColorRGB
 90
      255
102
RTVSPost2010PropOp44
 70
     1
102
RTVSPost2010Prop45
280
     0
102
RTVSPost2010PropOp45
 70
     1
102
RTVSPost2010Prop46
 90
       50
102
RTVSPost2010PropOp46
 70
     1
102
RTVSPost2010Prop47
 90
       50
102
RTVSPost2010PropOp47
 70
     1
102
RTVSPost2010Prop48
 90
       50
102
RTVSPost2010PropOp48
 70
     1
102
RTVSPost2010Prop49
280
     0
102
RTVSPost2010PropOp49
 70
     1
102
RTVSPost2010Prop50
 90
       50
102
RTVSPost2010PropOp50
 70
     1
102
RTVSPost2010Prop51ColorIndex
 90
      256
102
RTVSPost2010Prop51ColorRGB
 90
-16777216
102
RTVSPost2010PropOp51
 70
     0
102
RTVSPost2010Prop52
140
1.0
102
RTVSPost2010PropOp52
 70
     0
102
RTVSPost2010Prop53
 90
        2
102
RTVSPost2010PropOp53
 70
     1
102
RTVSPost2010Prop54
  1
strokes_ogs.tif
102
RTVSPost2010PropOp54
 70
     1
102
RTVSPost2010Prop55
280
     0
102
RTVSPost2010PropOp55
 70
     1
102
RTVSPost2010Prop56
140
1.0
102
RTVSPost2010PropOp56
 70
     1
102
RTVSPost2010Prop57
140
1.0
102
RTVSPost2010PropOp57
 70
     1
102
RTVSPropertyOp0
 70
     1
102
RTVSPropertyOp1
 70
     1
102
RTVSPropertyOp2
 70
     1
102
RTVSPropertyOp3
 70
     1
102
RTVSPropertyOp4
 70
     1
102
RTVSPropertyOp5
 70
     1
102
RTVSPropertyOp6
 70
     1
102
RTVSPropertyOp7
 70
     1
102
RTVSPropertyOp8
 70
     1
102
RTVSPropertyOp9
 70
     1
102
RTVSPropertyOp10
 70
     1
102
RTVSPropertyOp11
 70
     1
102
RTVSPropertyOp12
 70
     1
102
RTVSPropertyOp13
 70
     1
102
RTVSPropertyOp14
 70
     1
102
RTVSPropertyOp15
 70
     1
102
RTVSPropertyOp16
 70
     1
102
RTVSPropertyOp17
 70
     1
102
RTVSPropertyOp18
 70
     1
102
RTVSPropertyOp19
 70
     1
102
RTVSPropertyOp20
 70
     1
102
RTVSPropertyOp21
 70
     1
102
RTVSPropertyOp22
 70
     1
102
RTVSPropertyOp23
 70
     1
102
RTVSPropertyOp24
 70
     1
102
RTVSPropertyOp25
 70
     1
102
RTVSPropertyOp26
 70
     1
102
RTVSPropertyOp27
 70
     1
102
RTVSPropertyOp28
 70
     1
102
RTVSPropertyOp29
 70
     1
102
RTVSPropertyOp30
 70
     1
102
RTVSPropertyOp31
 70
     1
102
RTVSPropertyOp32
 70
     1
102
RTVSPropertyOp33
 70
     1
102
RTVSPropertyOp34
 70
     1
102
RTVSPropertyOp35
 70
     1
102
RTVSPropertyOp36
 70
     1
102
RTVSPropertyOp37
 70
     1
102
RTVSPropertyOp38
 70
     1
102
RTVSPropertyOp39
 70
     1
102
RTVSPropertyOp40
 70
     1
102
RTVSPropertyOp41
 70
     1
102
RTVSPropertyOp42
 70
     1
102
RTVSPropertyOp43
 70
     1
102
RTVSPropertyOp44
 70
     1
102
RTVSPropertyOp45
 70
     1
102
RTVSPropertyOp46
 70
     1
102
RTVSPropertyOp47
 70
     1
102
RTVSPropertyOp48
 70
     1
102
RTVSPropertyOp49
 70
     1
102
RTVSPropertyOp50
 70
     1
102
RTVSPropertyOp51
 70
     0
102
RTVSPropertyOp52
 70
     0
102
RTVSPropertyOp53
 70
     1
102
RTVSPropertyOp54
 70
     1
102
RTVSPropertyOp55
 70
     1
102
RTVSPropertyOp56
 70
     1
102
RTVSPropertyOp57
 70
     1
102
RTVSPropertyOp58
 70
     1
102
RTVSPropertyOp59
 70
     1
102
RTVSPropertyOp60
 70
     1
102
RTVSPropertyOp61
 70
     1
102
RTVSPropertyOp62
 70
     1
  0
XRECORD
  5
22E
102
{ACAD_REACTORS
330
22D
102
}
330
22D
100
AcDbXrecord
280
     1
102
RTVSPost2010Prop28
280
     0
102
RTVSPost2010PropOp28
 70
     1
102
RTVSPost2010Prop29
280
     1
102
RTVSPost2010PropOp29
 70
     1
102
RTVSPost2010Prop30
280
     1
102
RTVSPost2010PropOp30
 70
     1
102
RTVSPost2010Prop31
280
     0
102
RTVSPost2010PropOp31
 70
     1
102
RTVSPost2010Prop32
280
     0
102
RTVSPost2010PropOp32
 70
     1
102
RTVSPost2010Prop33
280
     0
102
RTVSPost2010PropOp33
 70
     1
102
RTVSPost2010Prop34
280
     0
102
RTVSPost2010PropOp34
 70
     1
102
RTVSPost2010Prop35
280
     0
102
RTVSPost2010PropOp35
 70
     1
102
RTVSPost2010Prop36
280
     0
102
RTVSPost2010PropOp36
 70
     1
102
RTVSPost2010Prop37
 90
       50
102
RTVSPost2010PropOp37
 70
     1
102
RTVSPost2010Prop38
140
0.0
102
RTVSPost2010PropOp38
 70
     1
102
RTVSPost2010Prop39
140
1.0
102
RTVSPost2010PropOp39
 70
     1
102
RTVSPost2010Prop40
 90
        0
102
RTVSPost2010PropOp40
 70
     1
102
RTVSPost2010Prop41ColorIndex
 90
       18
102
RTVSPost2010Prop41ColorRGB
 90
        0
102
RTVSPost2010PropOp41
 70
     1
102
RTVSPost2010Prop42
 90
       50
102
RTVSPost2010PropOp42
 70
     1
102
RTVSPost2010Prop43
 90
        3
102
RTVSPost2010PropOp43
 70
     1
102
RTVSPost2010Prop44ColorIndex
 90
        5
102
RTVSPost2010Prop44ColorRGB
 90
      255
102
RTVSPost2010PropOp44
 70
     1
102
RTVSPost2010Prop45
280
     0
102
RTVSPost2010PropOp45
 70
     1
102
RTVSPost2010Prop46
 90
       50
102
RTVSPost2010PropOp46
 70
     1
102
RTVSPost2010Prop47
 90
       50
102
RTVSPost2010PropOp47
 70
     1
102
RTVSPost2010Prop48
 90
       50
102
RTVSPost2010PropOp48
 70
     1
102
RTVSPost2010Prop49
280
     0
102
RTVSPost2010PropOp49
 70
     1
102
RTVSPost2010Prop50
 90
       50
102
RTVSPost2010PropOp50
 70
     1
102
RTVSPost2010Prop51ColorIndex
 90
      256
102
RTVSPost2010Prop51ColorRGB
 90
-16777216
102
RTVSPost2010PropOp51
 70
     0
102
RTVSPost2010Prop52
140
1.0
102
RTVSPost2010PropOp52
 70
     0
102
RTVSPost2010Prop53
 90
        2
102
RTVSPost2010PropOp53
 70
     1
102
RTVSPost2010Prop54
  1
strokes_ogs.tif
102
RTVSPost2010PropOp54
 70
     1
102
RTVSPost2010Prop55
280
     0
102
RTVSPost2010PropOp55
 70
     1
102
RTVSPost2010Prop56
140
1.0
102
RTVSPost2010PropOp56
 70
     1
102
RTVSPost2010Prop57
140
1.0
102
RTVSPost2010PropOp57
 70
     1
102
RTVSPropertyOp0
 70
     1
102
RTVSPropertyOp1
 70
     1
102
RTVSPropertyOp2
 70
     1
102
RTVSPropertyOp3
 70
     1
102
RTVSPropertyOp4
 70
     1
102
RTVSPropertyOp5
 70
     1
102
RTVSPropertyOp6
 70
     1
102
RTVSPropertyOp7
 70
     1
102
RTVSPropertyOp8
 70
     1
102
RTVSPropertyOp9
 70
     1
102
RTVSPropertyOp10
 70
     1
102
RTVSPropertyOp11
 70
     1
102
RTVSPropertyOp12
 70
     1
102
RTVSPropertyOp13
 70
     1
102
RTVSPropertyOp14
 70
     1
102
RTVSPropertyOp15
 70
     1
102
RTVSPropertyOp16
 70
     1
102
RTVSPropertyOp17
 70
     1
102
RTVSPropertyOp18
 70
     1
102
RTVSPropertyOp19
 70
     1
102
RTVSPropertyOp20
 70
     1
102
RTVSPropertyOp21
 70
     1
102
RTVSPropertyOp22
 70
     1
102
RTVSPropertyOp23
 70
     1
102
RTVSPropertyOp24
 70
     1
102
RTVSPropertyOp25
 70
     1
102
RTVSPropertyOp26
 70
     1
102
RTVSPropertyOp27
 70
     1
102
RTVSPropertyOp28
 70
     1
102
RTVSPropertyOp29
 70
     1
102
RTVSPropertyOp30
 70
     1
102
RTVSPropertyOp31
 70
     1
102
RTVSPropertyOp32
 70
     1
102
RTVSPropertyOp33
 70
     1
102
RTVSPropertyOp34
 70
     1
102
RTVSPropertyOp35
 70
     1
102
RTVSPropertyOp36
 70
     1
102
RTVSPropertyOp37
 70
     1
102
RTVSPropertyOp38
 70
     1
102
RTVSPropertyOp39
 70
     1
102
RTVSPropertyOp40
 70
     1
102
RTVSPropertyOp41
 70
     1
102
RTVSPropertyOp42
 70
     1
102
RTVSPropertyOp43
 70
     1
102
RTVSPropertyOp44
 70
     1
102
RTVSPropertyOp45
 70
     1
102
RTVSPropertyOp46
 70
     1
102
RTVSPropertyOp47
 70
     1
102
RTVSPropertyOp48
 70
     1
102
RTVSPropertyOp49
 70
     1
102
RTVSPropertyOp50
 70
     1
102
RTVSPropertyOp51
 70
     0
102
RTVSPropertyOp52
 70
     0
102
RTVSPropertyOp53
 70
     1
102
RTVSPropertyOp54
 70
     1
102
RTVSPropertyOp55
 70
     1
102
RTVSPropertyOp56
 70
     1
102
RTVSPropertyOp57
 70
     1
102
RTVSPropertyOp58
 70
     1
102
RTVSPropertyOp59
 70
     1
102
RTVSPropertyOp60
 70
     1
102
RTVSPropertyOp61
 70
     1
102
RTVSPropertyOp62
 70
     1
  0
ENDSEC
  0
EOF
