  0
SECTION
  2
HEADER
  9
$ACADVER
  1
AC1015
  9
$ACADMAINTVER
 70
     6
  9
$DWGCODEPAGE
  3
ANSI_932
  9
$INSBASE
 10
0.0
 20
0.0
 30
0.0
  9
$EXTMIN
 10
-2779.340752658452
 20
-45.42188701257817
 30
0.0
  9
$EXTMAX
 10
-2729.291688820797
 20
-14.89773783183628
 30
0.0
  9
$LIMMIN
 10
0.0
 20
0.0
  9
$LIMMAX
 10
420.0
 20
297.0
  9
$ORTHOMODE
 70
     1
  9
$REGENMODE
 70
     1
  9
$FILLMODE
 70
     1
  9
$QTEXTMODE
 70
     0
  9
$MIRRTEXT
 70
     1
  9
$LTSCALE
 40
1.0
  9
$ATTMODE
 70
     1
  9
$TEXTSIZE
 40
3.5
  9
$TRACEWID
 40
1.0
  9
$TEXTSTYLE
  7
Standard
  9
$CLAYER
  8
0
  9
$CELTYPE
  6
ByLayer
  9
$CECOLOR
 62
   256
  9
$CELTSCALE
 40
1.0
  9
$DISPSILH
 70
     0
  9
$DIMSCALE
 40
1.0
  9
$DIMASZ
 40
2.5
  9
$DIMEXO
 40
0.625
  9
$DIMDLI
 40
3.75
  9
$DIMRND
 40
0.0
  9
$DIMDLE
 40
0.0
  9
$DIMEXE
 40
1.25
  9
$DIMTP
 40
0.0
  9
$DIMTM
 40
0.0
  9
$DIMTXT
 40
2.5
  9
$DIMCEN
 40
2.5
  9
$DIMTSZ
 40
0.0
  9
$DIMTOL
 70
     0
  9
$DIMLIM
 70
     0
  9
$DIMTIH
 70
     0
  9
$DIMTOH
 70
     0
  9
$DIMSE1
 70
     0
  9
$DIMSE2
 70
     0
  9
$DIMTAD
 70
     1
  9
$DIMZIN
 70
     8
  9
$DIMBLK
  1

  9
$DIMASO
 70
     1
  9
$DIMSHO
 70
     1
  9
$DIMPOST
  1

  9
$DIMAPOST
  1

  9
$DIMALT
 70
     0
  9
$DIMALTD
 70
     3
  9
$DIMALTF
 40
0.0393700787
  9
$DIMLFAC
 40
1.0
  9
$DIMTOFL
 70
     1
  9
$DIMTVP
 40
0.0
  9
$DIMTIX
 70
     0
  9
$DIMSOXD
 70
     0
  9
$DIMSAH
 70
     0
  9
$DIMBLK1
  1

  9
$DIMBLK2
  1

  9
$DIMSTYLE
  2
ISO-25
  9
$DIMCLRD
 70
     0
  9
$DIMCLRE
 70
     0
  9
$DIMCLRT
 70
     0
  9
$DIMTFAC
 40
1.0
  9
$DIMGAP
 40
0.625
  9
$DIMJUST
 70
     0
  9
$DIMSD1
 70
     0
  9
$DIMSD2
 70
     0
  9
$DIMTOLJ
 70
     0
  9
$DIMTZIN
 70
     8
  9
$DIMALTZ
 70
     0
  9
$DIMALTTZ
 70
     0
  9
$DIMUPT
 70
     0
  9
$DIMDEC
 70
     2
  9
$DIMTDEC
 70
     2
  9
$DIMALTU
 70
     2
  9
$DIMALTTD
 70
     3
  9
$DIMTXSTY
  7
Standard
  9
$DIMAUNIT
 70
     0
  9
$DIMADEC
 70
     0
  9
$DIMALTRND
 40
0.0
  9
$DIMAZIN
 70
     0
  9
$DIMDSEP
 70
    44
  9
$DIMATFIT
 70
     3
  9
$DIMFRAC
 70
     0
  9
$DIMLDRBLK
  1

  9
$DIMLUNIT
 70
     2
  9
$DIMLWD
 70
    -2
  9
$DIMLWE
 70
    -2
  9
$DIMTMOVE
 70
     0
  9
$LUNITS
 70
     2
  9
$LUPREC
 70
     1
  9
$SKETCHINC
 40
1.0
  9
$FILLETRAD
 40
10.0
  9
$AUNITS
 70
     0
  9
$AUPREC
 70
     1
  9
$MENU
  1
.
  9
$ELEVATION
 40
0.0
  9
$PELEVATION
 40
0.0
  9
$THICKNESS
 40
0.0
  9
$LIMCHECK
 70
     0
  9
$CHAMFERA
 40
0.0
  9
$CHAMFERB
 40
0.0
  9
$CHAMFERC
 40
0.0
  9
$CHAMFERD
 40
0.0
  9
$SKPOLY
 70
     0
  9
$TDCREATE
 40
2457973.769116146
  9
$TDUCREATE
 40
2457973.394116146
  9
$TDUPDATE
 40
2458016.687065799
  9
$TDUUPDATE
 40
2458016.312065799
  9
$TDINDWG
 40
0.0052260301
  9
$TDUSRTIMER
 40
2458016.311865856
  9
$USRTIMER
 70
     1
  9
$ANGBASE
 50
0.0
  9
$ANGDIR
 70
     0
  9
$PDMODE
 70
     0
  9
$PDSIZE
 40
-1.0
  9
$PLINEWID
 40
0.0
  9
$SPLFRAME
 70
     0
  9
$SPLINETYPE
 70
     6
  9
$SPLINESEGS
 70
     8
  9
$HANDSEED
  5
187
  9
$SURFTAB1
 70
     6
  9
$SURFTAB2
 70
     6
  9
$SURFTYPE
 70
     6
  9
$SURFU
 70
     6
  9
$SURFV
 70
     6
  9
$UCSBASE
  2

  9
$UCSNAME
  2

  9
$UCSORG
 10
0.0
 20
0.0
 30
0.0
  9
$UCSXDIR
 10
1.0
 20
0.0
 30
0.0
  9
$UCSYDIR
 10
0.0
 20
1.0
 30
0.0
  9
$UCSORTHOREF
  2

  9
$UCSORTHOVIEW
 70
     0
  9
$UCSORGTOP
 10
0.0
 20
0.0
 30
0.0
  9
$UCSORGBOTTOM
 10
0.0
 20
0.0
 30
0.0
  9
$UCSORGLEFT
 10
0.0
 20
0.0
 30
0.0
  9
$UCSORGRIGHT
 10
0.0
 20
0.0
 30
0.0
  9
$UCSORGFRONT
 10
0.0
 20
0.0
 30
0.0
  9
$UCSORGBACK
 10
0.0
 20
0.0
 30
0.0
  9
$PUCSBASE
  2

  9
$PUCSNAME
  2

  9
$PUCSORG
 10
0.0
 20
0.0
 30
0.0
  9
$PUCSXDIR
 10
1.0
 20
0.0
 30
0.0
  9
$PUCSYDIR
 10
0.0
 20
1.0
 30
0.0
  9
$PUCSORTHOREF
  2

  9
$PUCSORTHOVIEW
 70
     0
  9
$PUCSORGTOP
 10
0.0
 20
0.0
 30
0.0
  9
$PUCSORGBOTTOM
 10
0.0
 20
0.0
 30
0.0
  9
$PUCSORGLEFT
 10
0.0
 20
0.0
 30
0.0
  9
$PUCSORGRIGHT
 10
0.0
 20
0.0
 30
0.0
  9
$PUCSORGFRONT
 10
0.0
 20
0.0
 30
0.0
  9
$PUCSORGBACK
 10
0.0
 20
0.0
 30
0.0
  9
$USERI1
 70
     0
  9
$USERI2
 70
     0
  9
$USERI3
 70
     0
  9
$USERI4
 70
     0
  9
$USERI5
 70
     0
  9
$USERR1
 40
0.0
  9
$USERR2
 40
0.0
  9
$USERR3
 40
0.0
  9
$USERR4
 40
0.0
  9
$USERR5
 40
0.0
  9
$WORLDVIEW
 70
     1
  9
$SHADEDGE
 70
     3
  9
$SHADEDIF
 70
    70
  9
$TILEMODE
 70
     1
  9
$MAXACTVP
 70
    64
  9
$PINSBASE
 10
0.0
 20
0.0
 30
0.0
  9
$PLIMCHECK
 70
     0
  9
$PEXTMIN
 10
1.000000000000000E+20
 20
1.000000000000000E+20
 30
1.000000000000000E+20
  9
$PEXTMAX
 10
-1.000000000000000E+20
 20
-1.000000000000000E+20
 30
-1.000000000000000E+20
  9
$PLIMMIN
 10
0.0
 20
0.0
  9
$PLIMMAX
 10
0.0
 20
0.0
  9
$UNITMODE
 70
     0
  9
$VISRETAIN
 70
     1
  9
$PLINEGEN
 70
     0
  9
$PSLTSCALE
 70
     1
  9
$TREEDEPTH
 70
  3020
  9
$CMLSTYLE
  2
Standard
  9
$CMLJUST
 70
     0
  9
$CMLSCALE
 40
20.0
  9
$PROXYGRAPHICS
 70
     1
  9
$MEASUREMENT
 70
     1
  9
$CELWEIGHT
370
    -1
  9
$ENDCAPS
280
     0
  9
$JOINSTYLE
280
     0
  9
$LWDISPLAY
290
     0
  9
$INSUNITS
 70
     4
  9
$HYPERLINKBASE
  1

  9
$STYLESHEET
  1

  9
$XEDIT
290
     1
  9
$CEPSNTYPE
380
     0
  9
$PSTYLEMODE
290
     1
  9
$FINGERPRINTGUID
  2
{C7A19B7D-5C2A-453B-ADF7-5A67EC2790E8}
  9
$VERSIONGUID
  2
{5307C728-6ABF-4526-A685-2C72112C3328}
  9
$EXTNAMES
290
     1
  9
$PSVPSCALE
 40
0.0
  9
$OLESTARTUP
290
     0
  0
ENDSEC
  0
SECTION
  2
CLASSES
  0
CLASS
  1
ACDBDICTIONARYWDFLT
  2
AcDbDictionaryWithDefault
  3
ObjectDBX Classes
 90
        0
280
     0
281
     0
  0
CLASS
  1
VISUALSTYLE
  2
AcDbVisualStyle
  3
ObjectDBX Classes
 90
     4095
280
     0
281
     0
  0
CLASS
  1
MATERIAL
  2
AcDbMaterial
  3
ObjectDBX Classes
 90
     1153
280
     0
281
     0
  0
CLASS
  1
SCALE
  2
AcDbScale
  3
ObjectDBX Classes
 90
     1153
280
     0
281
     0
  0
CLASS
  1
TABLESTYLE
  2
AcDbTableStyle
  3
ObjectDBX Classes
 90
     4095
280
     0
281
     0
  0
CLASS
  1
MLEADERSTYLE
  2
AcDbMLeaderStyle
  3
ACDB_MLEADERSTYLE_CLASS
 90
     4095
280
     0
281
     0
  0
CLASS
  1
SUN
  2
AcDbSun
  3
SCENEOE
 90
     1153
280
     0
281
     0
  0
CLASS
  1
ACDBSECTIONVIEWSTYLE
  2
AcDbSectionViewStyle
  3
ObjectDBX Classes
 90
     1025
280
     0
281
     0
  0
CLASS
  1
ACDBDETAILVIEWSTYLE
  2
AcDbDetailViewStyle
  3
ObjectDBX Classes
 90
     1025
280
     0
281
     0
  0
CLASS
  1
DICTIONARYVAR
  2
AcDbDictionaryVar
  3
ObjectDBX Classes
 90
        0
280
     0
281
     0
  0
CLASS
  1
CELLSTYLEMAP
  2
AcDbCellStyleMap
  3
ObjectDBX Classes
 90
     1152
280
     0
281
     0
  0
CLASS
  1
RASTERVARIABLES
  2
AcDbRasterVariables
  3
ISM
 90
        0
280
     0
281
     0
  0
CLASS
  1
ACDBPLACEHOLDER
  2
AcDbPlaceHolder
  3
ObjectDBX Classes
 90
        0
280
     0
281
     0
  0
CLASS
  1
LAYOUT
  2
AcDbLayout
  3
ObjectDBX Classes
 90
        0
280
     0
281
     0
  0
ENDSEC
  0
SECTION
  2
TABLES
  0
TABLE
  2
VPORT
  5
26
330
0
100
AcDbSymbolTable
 70
     1
  0
VPORT
  5
27
330
26
100
AcDbSymbolTableRecord
100
AcDbViewportTableRecord
  2
*Active
 70
     0
 10
0.0
 20
0.0
 11
1.0
 21
1.0
 12
-2755.73083581779
 22
-32.29104496950346
 13
0.0
 23
0.0
 14
10.0
 24
10.0
 15
10.0
 25
10.0
 16
0.0
 26
0.0
 36
1.0
 17
0.0
 27
0.0
 37
0.0
 40
49.26593511136385
 41
2.163875598086124
 42
50.0
 43
0.0
 44
0.0
 50
0.0
 51
0.0
 71
     0
 72
  2000
 73
     1
 74
     3
 75
     0
 76
     0
 77
     0
 78
     0
281
     0
 65
     1
110
0.0
120
0.0
130
0.0
111
1.0
121
0.0
131
0.0
112
0.0
122
1.0
132
0.0
 79
     0
146
0.0
1001
ACAD_NAV_VCDISPLAY
1070
     3
  0
ENDTAB
  0
TABLE
  2
LTYPE
  5
21
330
0
100
AcDbSymbolTable
 70
     1
  0
LTYPE
  5
22
330
21
100
AcDbSymbolTableRecord
100
AcDbLinetypeTableRecord
  2
ByBlock
 70
     0
  3

 72
    65
 73
     0
 40
0.0
  0
LTYPE
  5
23
330
21
100
AcDbSymbolTableRecord
100
AcDbLinetypeTableRecord
  2
ByLayer
 70
     0
  3

 72
    65
 73
     0
 40
0.0
  0
LTYPE
  5
13
330
21
100
AcDbSymbolTableRecord
100
AcDbLinetypeTableRecord
  2
Continuous
 70
     0
  3
Solid line
 72
    65
 73
     0
 40
0.0
  0
ENDTAB
  0
TABLE
  2
LAYER
  5
1B
102
{ACAD_XDICTIONARY
360
1C
102
}
330
0
100
AcDbSymbolTable
 70
     1
  0
LAYER
  5
4
102
{ACAD_XDICTIONARY
360
5
102
}
330
1B
100
AcDbSymbolTableRecord
100
AcDbLayerTableRecord
  2
0
 70
     0
 62
     7
  6
Continuous
370
    -3
390
7
  0
ENDTAB
  0
TABLE
  2
STYLE
  5
1E
330
0
100
AcDbSymbolTable
 70
     1
  0
STYLE
  5
1F
330
1E
100
AcDbSymbolTableRecord
100
AcDbTextStyleTableRecord
  2
Standard
 70
     0
 40
0.0
 41
1.0
 50
0.0
 71
     0
 42
3.5
  3
txt
  4
bigfont
  0
ENDTAB
  0
TABLE
  2
VIEW
  5
24
330
0
100
AcDbSymbolTable
 70
     0
  0
ENDTAB
  0
TABLE
  2
UCS
  5
25
330
0
100
AcDbSymbolTable
 70
     0
  0
ENDTAB
  0
TABLE
  2
APPID
  5
2B
330
0
100
AcDbSymbolTable
 70
     2
  0
APPID
  5
2C
330
2B
100
AcDbSymbolTableRecord
100
AcDbRegAppTableRecord
  2
ACAD
 70
     0
  0
APPID
  5
2A
330
2B
100
AcDbSymbolTableRecord
100
AcDbRegAppTableRecord
  2
ACAD_NAV_VCDISPLAY
 70
     0
  0
ENDTAB
  0
TABLE
  2
DIMSTYLE
  5
2D
330
0
100
AcDbSymbolTable
 70
     1
100
AcDbDimStyleTable
  0
DIMSTYLE
105
2E
330
2D
100
AcDbSymbolTableRecord
100
AcDbDimStyleTableRecord
  2
ISO-25
 70
     0
 41
2.5
 42
0.625
 43
3.75
 44
1.25
 73
     0
 74
     0
 77
     1
 78
     8
140
2.5
141
2.5
143
0.0393700787
147
0.625
171
     3
172
     1
178
     0
271
     2
272
     2
274
     3
278
    44
283
     0
284
     8
340
1F
  0
ENDTAB
  0
TABLE
  2
BLOCK_RECORD
  5
1
330
0
100
AcDbSymbolTable
 70
     0
  0
BLOCK_RECORD
  5
2
330
1
100
AcDbSymbolTableRecord
100
AcDbBlockTableRecord
  2
*Model_Space
340
15
  0
BLOCK_RECORD
  5
17
330
1
100
AcDbSymbolTableRecord
100
AcDbBlockTableRecord
  2
*Paper_Space
340
1A
  0
ENDTAB
  0
ENDSEC
  0
SECTION
  2
BLOCKS
  0
BLOCK
  5
3
330
2
100
AcDbEntity
  8
0
100
AcDbBlockBegin
  2
*Model_Space
 70
     0
 10
0.0
 20
0.0
 30
0.0
  3
*Model_Space
  1

  0
ENDBLK
  5
14
330
2
100
AcDbEntity
  8
0
100
AcDbBlockEnd
  0
BLOCK
  5
18
330
17
100
AcDbEntity
 67
     1
  8
0
100
AcDbBlockBegin
  2
*Paper_Space
 70
     0
 10
0.0
 20
0.0
 30
0.0
  3
*Paper_Space
  1

  0
ENDBLK
  5
19
330
17
100
AcDbEntity
 67
     1
  8
0
100
AcDbBlockEnd
  0
ENDSEC
  0
SECTION
  2
ENTITIES
  0
LINE
  5
6C
330
2
100
AcDbEntity
  8
0
370
    18
100
AcDbLine
 10
-2775.089212719938
 20
-44.10793157085852
 30
0.0
 11
-2734.009146641548
 21
-20.39291421216955
 31
0.0
  0
LINE
  5
6D
330
2
100
AcDbEntity
  8
0
370
    18
100
AcDbLine
 10
-2733.745023318042
 20
-19.50139756385008
 30
0.0
 11
-2733.745030226368
 21
-19.50140155191533
 31
0.0
  0
LINE
  5
6E
330
2
100
AcDbEntity
  8
0
370
    18
100
AcDbLine
 10
-2735.591538687872
 20
-17.74682293966282
 30
0.0
 11
-2776.63047548594
 21
-41.43809687020336
 31
0.0
  0
LINE
  5
6F
330
2
100
AcDbEntity
  8
0
370
    18
100
AcDbLine
 10
-2774.95734188025
 20
-43.33003546951687
 30
0.0
 11
-2733.746642248418
 21
-19.53960496563925
 31
0.0
  0
SPLINE
  5
70
330
2
100
AcDbEntity
  8
0
370
    18
100
AcDbSpline
210
0.0
220
0.0
230
1.0
 70
     8
 71
     3
 72
    18
 73
    14
 74
     0
 42
0.000000001
 43
0.0000000001
 40
0.0
 40
0.0
 40
0.0
 40
0.0
 40
0.0734903975616881
 40
0.1682746900512086
 40
0.2631425402272081
 40
0.3582467912750139
 40
0.4537130825000329
 40
0.5496286296235554
 40
0.6460370482054635
 40
0.7429396122120345
 40
0.840302068442244
 40
0.9380650298180501
 40
1.0
 40
1.0
 40
1.0
 40
1.0
 10
-2778.861842480087
 20
-42.81960253358674
 30
0.0
 10
-2778.872099632933
 20
-42.82567958047948
 30
0.0
 10
-2778.895585955955
 20
-42.83959450292146
 30
0.0
 10
-2778.929805224113
 20
-42.86543321036456
 30
0.0
 10
-2778.96478432584
 20
-42.89628895627731
 30
0.0
 10
-2778.997362320271
 20
-42.93051699802771
 30
0.0
 10
-2779.027545220321
 20
-42.96790546025195
 30
0.0
 10
-2779.055232553345
 20
-43.00841420453387
 30
0.0
 10
-2779.080344569028
 20
-43.0519470676776
 30
0.0
 10
-2779.102812912241
 20
-43.09839092639464
 30
0.0
 10
-2779.122504909453
 20
-43.14766403099887
 30
0.0
 10
-2779.137456842196
 20
-43.19308155874025
 30
0.0
 10
-2779.145180385352
 20
-43.222532758578
 30
0.0
 10
-2779.148175774274
 20
-43.23395469226229
 30
0.0
  0
LINE
  5
71
330
2
100
AcDbEntity
  8
0
370
    18
100
AcDbLine
 10
-2777.066465091984
 20
-41.75698294000776
 30
0.0
 11
-2778.865275037859
 21
-42.82120745849245
 31
0.0
  0
SPLINE
  5
72
330
2
100
AcDbEntity
  8
0
370
    18
100
AcDbSpline
210
0.0
220
0.0
230
1.0
 70
     8
 71
     3
 72
    13
 73
     9
 74
     0
 42
0.000000001
 43
0.0000000001
 40
0.0
 40
0.0
 40
0.0
 40
0.0
 40
0.0008283839237415
 40
0.2292597564330209
 40
0.4455316642111213
 40
0.6560730249286189
 40
0.8633768811564303
 40
1.0
 40
1.0
 40
1.0
 40
1.0
 10
-2777.229370374979
 20
-44.44905197769287
 30
0.0
 10
-2777.229350866836
 20
-44.44906341556647
 30
0.0
 10
-2777.223951882192
 20
-44.45222890929627
 30
0.0
 10
-2777.212279748541
 20
-44.45566786487754
 30
0.0
 10
-2777.194883673733
 20
-44.45882345608383
 30
0.0
 10
-2777.177624386969
 20
-44.45788325833364
 30
0.0
 10
-2777.162788953444
 20
-44.45448566578392
 30
0.0
 10
-2777.154646066635
 20
-44.44980167943612
 30
0.0
 10
-2777.151411349172
 20
-44.44794099135451
 30
0.0
  0
SPLINE
  5
73
330
2
100
AcDbEntity
  8
0
370
    18
100
AcDbSpline
210
0.0
220
0.0
230
1.0
 70
     8
 71
     3
 72
     9
 73
     5
 74
     0
 42
0.000000001
 43
0.0000000001
 40
0.0
 40
0.0
 40
0.0
 40
0.0
 40
0.0106812454117457
 40
1.0
 40
1.0
 40
1.0
 40
1.0
 10
-2777.151141904552
 20
-44.44841039842164
 30
0.0
 10
-2777.144626073942
 20
-44.44478671196337
 30
0.0
 10
-2776.534600710894
 20
-44.10552978839404
 30
0.0
 10
-2775.924604368697
 20
-43.76700981598365
 30
0.0
 10
-2775.32112354713
 20
-43.43210565847544
 30
0.0
  0
SPLINE
  5
74
330
2
100
AcDbEntity
  8
0
370
    18
100
AcDbSpline
210
0.0
220
0.0
230
1.0
 70
     8
 71
     3
 72
    14
 73
    10
 74
     0
 42
0.000000001
 43
0.0000000001
 40
0.0
 40
0.0
 40
0.0
 40
0.0
 40
0.1146697063551384
 40
0.3039359142666724
 40
0.4748484230154035
 40
0.6371351889263127
 40
0.8096711156429819
 40
0.9671778606075335
 40
1.0
 40
1.0
 40
1.0
 40
1.0
 10
-2777.313958470684
 20
-44.44194117456413
 30
0.0
 10
-2777.312071552622
 20
-44.44079530305519
 30
0.0
 10
-2777.307070212823
 20
-44.43775813207288
 30
0.0
 10
-2777.297296235871
 20
-44.43532244143804
 30
0.0
 10
-2777.284198773207
 20
-44.43424129690566
 30
0.0
 10
-2777.268971040037
 20
-44.43563697692131
 30
0.0
 10
-2777.251940269844
 20
-44.43976629902794
 30
0.0
 10
-2777.238144283769
 20
-44.44498752442136
 30
0.0
 10
-2777.230622593675
 20
-44.44847791584656
 30
0.0
 10
-2777.229325481251
 20
-44.44907983244094
 30
0.0
  0
SPLINE
  5
75
330
2
100
AcDbEntity
  8
0
370
    18
100
AcDbSpline
210
0.0
220
0.0
230
1.0
 70
     8
 71
     3
 72
    42
 73
    38
 74
     0
 42
0.000000001
 43
0.0000000001
 40
0.0
 40
0.0
 40
0.0
 40
0.0
 40
0.0256967449646017
 40
0.0545891828234171
 40
0.0834752965566362
 40
0.1123569265006644
 40
0.1412359484274895
 40
0.170114260582034
 40
0.1989936019417328
 40
0.2278754298399869
 40
0.256761671318761
 40
0.2856542520899329
 40
0.3145550860027325
 40
0.3434660580397975
 40
0.3723889973053047
 40
0.4013256356552387
 40
0.4302775463863842
 40
0.4592460558508026
 40
0.4882321190546351
 40
0.5172361484261674
 40
0.5462577834448604
 40
0.5752955886015442
 40
0.6043466698088077
 40
0.633406207501907
 40
0.6624645747613672
 40
0.6915096898987672
 40
0.720526563481166
 40
0.7494964890751424
 40
0.7783974739336471
 40
0.807205476070891
 40
0.8358966211183608
 40
0.864450348903907
 40
0.8928530995318453
 40
0.921101811648468
 40
0.9492063501032184
 40
0.9771901299287639
 40
1.0
 40
1.0
 40
1.0
 40
1.0
 10
-2779.04920246341
 20
-44.16558116946814
 30
0.0
 10
-2779.041161598944
 20
-44.18637748115847
 30
0.0
 10
-2779.024079893811
 20
-44.23055637083815
 30
0.0
 10
-2778.994926187229
 20
-44.297688849611
 30
0.0
 10
-2778.962523590175
 20
-44.36682563096018
 30
0.0
 10
-2778.927782899039
 20
-44.43517687031183
 30
0.0
 10
-2778.890879245258
 20
-44.50256536143403
 30
0.0
 10
-2778.851891812204
 20
-44.56880686725982
 30
0.0
 10
-2778.810932065633
 20
-44.63372203246271
 30
0.0
 10
-2778.76810890963
 20
-44.6971341215265
 30
0.0
 10
-2778.72353748192
 20
-44.75887044215196
 30
0.0
 10
-2778.677336165686
 20
-44.81876273308422
 30
0.0
 10
-2778.629627124252
 20
-44.87664727682544
 30
0.0
 10
-2778.580535767961
 20
-44.93236525020631
 30
0.0
 10
-2778.53019044393
 20
-44.98576305562179
 30
0.0
 10
-2778.478722073925
 20
-45.03669260126457
 30
0.0
 10
-2778.426263830116
 20
-45.08501153249603
 30
0.0
 10
-2778.372950845561
 20
-45.13058340941488
 30
0.0
 10
-2778.3189199871
 20
-45.17327783126816
 30
0.0
 10
-2778.264309716851
 20
-45.21297051329702
 30
0.0
 10
-2778.209260075627
 20
-45.24954333083999
 30
0.0
 10
-2778.153912824591
 20
-45.28288435944455
 30
0.0
 10
-2778.098411780654
 20
-45.31288795954593
 30
0.0
 10
-2778.042904863439
 20
-45.339454266091
 30
0.0
 10
-2777.987544487676
 20
-45.36249028839252
 30
0.0
 10
-2777.93248803237
 20
-45.38191126914982
 30
0.0
 10
-2777.87789720912
 20
-45.39764256777774
 30
0.0
 10
-2777.823938913923
 20
-45.4096213400921
 30
0.0
 10
-2777.770785373648
 20
-45.41779884443634
 30
0.0
 10
-2777.718612513588
 20
-45.42214358923502
 30
0.0
 10
-2777.667597773925
 20
-45.42264279357017
 30
0.0
 10
-2777.617913616667
 20
-45.41930818741247
 30
0.0
 10
-2777.569731477932
 20
-45.41216037475948
 30
0.0
 10
-2777.523184431107
 20
-45.40128406702263
 30
0.0
 10
-2777.478484758235
 20
-45.38661082369874
 30
0.0
 10
-2777.438080457563
 20
-45.36978760553835
 30
0.0
 10
-2777.413556823183
 20
-45.35618424202358
 30
0.0
 10
-2777.402544011247
 20
-45.3500753887529
 30
0.0
  0
LINE
  5
76
330
2
100
AcDbEntity
  8
0
370
    18
100
AcDbLine
 10
-2777.404538110928
 20
-45.35155220055789
 30
0.0
 11
-2775.583391427572
 21
-44.3260202387114
 31
0.0
  0
SPLINE
  5
77
330
2
100
AcDbEntity
  8
0
370
    18
100
AcDbSpline
210
0.0
220
0.0
230
1.0
 70
     8
 71
     3
 72
    13
 73
     9
 74
     0
 42
0.000000001
 43
0.0000000001
 40
0.0
 40
0.0
 40
0.0
 40
0.0
 40
0.129709752853676
 40
0.3058019130376712
 40
0.4822660321214804
 40
0.6591934336548544
 40
0.8366289718467202
 40
1.0
 40
1.0
 40
1.0
 40
1.0
 10
-2777.171369638052
 20
-41.6960459808404
 30
0.0
 10
-2777.180388049752
 20
-41.7035974626851
 30
0.0
 10
-2777.201649732004
 20
-41.72140073147226
 30
0.0
 10
-2777.232455694085
 20
-41.75331443769962
 30
0.0
 10
-2777.264137930254
 20
-41.79106233871961
 30
0.0
 10
-2777.293222644941
 20
-41.83212749721906
 30
0.0
 10
-2777.319298094545
 20
-41.87477500121299
 30
0.0
 10
-2777.334273204127
 20
-41.90512413656603
 30
0.0
 10
-2777.341451760208
 20
-41.91967247552369
 30
0.0
  0
SPLINE
  5
78
330
2
100
AcDbEntity
  8
0
370
    18
100
AcDbSpline
210
0.0
220
0.0
230
1.0
 70
     8
 71
     3
 72
    14
 73
    10
 74
     0
 42
0.000000001
 43
0.0000000001
 40
0.0
 40
0.0
 40
0.0
 40
0.0
 40
0.1012840209461578
 40
0.2777056200523931
 40
0.4536654506367494
 40
0.629113340060283
 40
0.8040314923164403
 40
0.9784445534230028
 40
1.0
 40
1.0
 40
1.0
 40
1.0
 10
-2775.861304025618
 20
-44.48251957758206
 30
0.0
 10
-2775.851080204274
 20
-44.48339083318791
 30
0.0
 10
-2775.823048016973
 20
-44.48577968560495
 30
0.0
 10
-2775.778407117087
 20
-44.48551449949234
 30
0.0
 10
-2775.72751413589
 20
-44.48205259589243
 30
0.0
 10
-2775.678102412383
 20
-44.47476264085857
 30
0.0
 10
-2775.630480875853
 20
-44.46343529732001
 30
0.0
 10
-2775.597493834926
 20
-44.45375652217137
 30
0.0
 10
-2775.580962608275
 20
-44.44680857698742
 30
0.0
 10
-2775.57914426523
 20
-44.44604434163655
 30
0.0
  0
LINE
  5
79
330
2
100
AcDbEntity
  8
0
370
    18
100
AcDbLine
 10
-2776.878208149685
 20
-41.51398304987069
 30
0.0
 11
-2777.099141425882
 21
-41.64469313962548
 31
0.0
  0
LINE
  5
7A
330
2
100
AcDbEntity
  8
0
370
    18
100
AcDbLine
 10
-2775.502491699125
 20
-44.41047126602645
 30
0.0
 11
-2775.278814982163
 21
-44.28451347001734
 31
0.0
  0
SPLINE
  5
7B
330
2
100
AcDbEntity
  8
0
370
    18
100
AcDbSpline
210
0.0
220
0.0
230
1.0
 70
     8
 71
     3
 72
    26
 73
    22
 74
     0
 42
0.000000001
 43
0.0000000001
 40
0.0
 40
0.0
 40
0.0
 40
0.0
 40
0.0288173167862643
 40
0.0842243427696094
 40
0.1399638170509095
 40
0.1960379546723615
 40
0.2523830645134404
 40
0.3089189735641682
 40
0.3655589161272336
 40
0.4222138204568971
 40
0.4787663365087502
 40
0.5351244517073965
 40
0.5912006011574631
 40
0.6469145309004027
 40
0.7022048436713999
 40
0.7570518163431927
 40
0.8115193929941606
 40
0.8658293134083356
 40
0.9203149347857419
 40
0.9757730279417292
 40
1.0
 40
1.0
 40
1.0
 40
1.0
 10
-2779.088375974706
 20
-43.37591046871733
 30
0.0
 10
-2779.084684521826
 20
-43.37850568346508
 30
0.0
 10
-2779.073895516207
 20
-43.38609071499647
 30
0.0
 10
-2779.055854809946
 20
-43.40095368612709
 30
0.0
 10
-2779.034667596908
 20
-43.42125832422228
 30
0.0
 10
-2779.014094152915
 20
-43.44414331999682
 30
0.0
 10
-2778.994526250168
 20
-43.46922210168367
 30
0.0
 10
-2778.976322375024
 20
-43.49611754779623
 30
0.0
 10
-2778.959808708449
 20
-43.5243891677666
 30
0.0
 10
-2778.945271563041
 20
-43.55356145681404
 30
0.0
 10
-2778.932948730778
 20
-43.58313011716977
 30
0.0
 10
-2778.923022479252
 20
-43.61257353770398
 30
0.0
 10
-2778.915612142144
 20
-43.64136633153248
 30
0.0
 10
-2778.91076868506
 20
-43.66898584924267
 30
0.0
 10
-2778.908466548446
 20
-43.69492296146944
 30
0.0
 10
-2778.908593896551
 20
-43.71870700437229
 30
0.0
 10
-2778.910950603338
 20
-43.73990555668655
 30
0.0
 10
-2778.915231313801
 20
-43.75823533816078
 30
0.0
 10
-2778.921094481411
 20
-43.77327076582907
 30
0.0
 10
-2778.926625046548
 20
-43.78333113347138
 30
0.0
 10
-2778.930225124834
 20
-43.78735900602412
 30
0.0
 10
-2778.931319671168
 20
-43.78858361637647
 30
0.0
  0
SPLINE
  5
7C
330
2
100
AcDbEntity
  8
0
370
    18
100
AcDbSpline
210
0.0
220
0.0
230
1.0
 70
     8
 71
     3
 72
    16
 73
    12
 74
     0
 42
0.000000001
 43
0.0000000001
 40
0.0
 40
0.0
 40
0.0
 40
0.0
 40
0.0722032655966084
 40
0.1868404481934028
 40
0.311013054045967
 40
0.4381898881707678
 40
0.56694795037394
 40
0.6981866181305448
 40
0.8304841137167336
 40
0.967261537831176
 40
1.0
 40
1.0
 40
1.0
 40
1.0
 10
-2779.147829685591
 20
-43.23408674127723
 30
0.0
 10
-2779.148755688408
 20
-43.23774238677315
 30
0.0
 10
-2779.151151906639
 20
-43.24720210354999
 30
0.0
 10
-2779.151493615653
 20
-43.2636339496223
 30
0.0
 10
-2779.149257757511
 20
-43.28308727740721
 30
0.0
 10
-2779.143656107719
 20
-43.30314710955555
 30
0.0
 10
-2779.135007156826
 20
-43.32290194191761
 30
0.0
 10
-2779.12355612495
 20
-43.34169085229489
 30
0.0
 10
-2779.109334021492
 20
-43.35861047347184
 30
0.0
 10
-2779.097400542428
 20
-43.37006842078497
 30
0.0
 10
-2779.089735833811
 20
-43.37470730113409
 30
0.0
 10
-2779.088255555009
 20
-43.37560320423881
 30
0.0
  0
SPLINE
  5
7D
330
2
100
AcDbEntity
  8
0
370
    18
100
AcDbSpline
210
0.0
220
0.0
230
1.0
 70
     8
 71
     3
 72
    14
 73
    10
 74
     0
 42
0.000000001
 43
0.0000000001
 40
0.0
 40
0.0
 40
0.0
 40
0.0
 40
0.1040176250185891
 40
0.2556674649612917
 40
0.4036066812960373
 40
0.5553685035293321
 40
0.7087381636796927
 40
0.8740344767964753
 40
1.0
 40
1.0
 40
1.0
 40
1.0
 10
-2779.092662440979
 20
-43.80446216623329
 30
0.0
 10
-2779.096047595556
 20
-43.806478427545
 30
0.0
 10
-2779.104368049796
 20
-43.81143424554369
 30
0.0
 10
-2779.11475869233
 20
-43.82284508430942
 30
0.0
 10
-2779.12380339852
 20
-43.83718671652426
 30
0.0
 10
-2779.129791126944
 20
-43.85321773985616
 30
0.0
 10
-2779.132802204514
 20
-43.87059543751926
 30
0.0
 10
-2779.133134724895
 20
-43.88751373413476
 30
0.0
 10
-2779.131095987686
 20
-43.89860587319482
 30
0.0
 10
-2779.130214270388
 20
-43.90340302450655
 30
0.0
  0
LINE
  5
7E
330
2
100
AcDbEntity
  8
0
370
    18
100
AcDbLine
 10
-2778.908948476088
 20
-43.69375248684693
 30
0.0
 11
-2779.092714670504
 21
-43.80390810904894
 31
0.0
  0
SPLINE
  5
7F
330
2
100
AcDbEntity
  8
0
370
    18
100
AcDbSpline
210
0.0
220
0.0
230
1.0
 70
     8
 71
     3
 72
    16
 73
    12
 74
     0
 42
0.000000001
 43
0.0000000001
 40
0.0
 40
0.0
 40
0.0
 40
0.0
 40
0.0747319981687001
 40
0.1853802633355636
 40
0.2992020352085303
 40
0.4154545796055375
 40
0.5331702376030675
 40
0.6514241037394378
 40
0.7694961277201738
 40
0.8874084376633835
 40
1.0
 40
1.0
 40
1.0
 40
1.0
 10
-2775.477751176195
 20
-43.77819503740184
 30
0.0
 10
-2775.474340735276
 20
-43.78141762291984
 30
0.0
 10
-2775.465880792398
 20
-43.78941157151733
 30
0.0
 10
-2775.451410639024
 20
-43.80043013620429
 30
0.0
 10
-2775.43444072891
 20
-43.81126385714866
 30
0.0
 10
-2775.416576204392
 20
-43.82007067591584
 30
0.0
 10
-2775.398072974255
 20
-43.82655121587393
 30
0.0
 10
-2775.379164176939
 20
-43.83036578266159
 30
0.0
 10
-2775.360183845198
 20
-43.83111960114071
 30
0.0
 10
-2775.341655048263
 20
-43.8289322965218
 30
0.0
 10
-2775.330187735886
 20
-43.82466869922011
 30
0.0
 10
-2775.324586430348
 20
-43.82258610912461
 30
0.0
  0
SPLINE
  5
80
330
2
100
AcDbEntity
  8
0
370
    18
100
AcDbSpline
210
0.0
220
0.0
230
1.0
 70
     8
 71
     3
 72
    11
 73
     7
 74
     0
 42
0.000000001
 43
0.0000000001
 40
0.0
 40
0.0
 40
0.0
 40
0.0
 40
0.3145220365073504
 40
0.6516837163871974
 40
0.9743451738770856
 40
1.0
 40
1.0
 40
1.0
 40
1.0
 10
-2775.566427802156
 20
-43.56833385460432
 30
0.0
 10
-2775.566810851545
 20
-43.57510813196618
 30
0.0
 10
-2775.567604522642
 20
-43.58914430665215
 30
0.0
 10
-2775.5653534811
 20
-43.61107665590831
 30
0.0
 10
-2775.562937234732
 20
-43.62672702749814
 30
0.0
 10
-2775.560651710625
 20
-43.63473286389799
 30
0.0
 10
-2775.560483373035
 20
-43.63532252436025
 30
0.0
  0
LINE
  5
81
330
2
100
AcDbEntity
  8
0
370
    18
100
AcDbLine
 10
-2775.323359550786
 20
-43.82215139792562
 30
0.0
 11
-2775.279089322709
 21
-43.80256170573177
 31
0.0
  0
SPLINE
  5
82
330
2
100
AcDbEntity
  8
0
370
    18
100
AcDbSpline
210
0.0
220
0.0
230
1.0
 70
     8
 71
     3
 72
    14
 73
    10
 74
     0
 42
0.000000001
 43
0.0000000001
 40
0.0
 40
0.0
 40
0.0
 40
0.0
 40
0.0782315428800153
 40
0.2350127477563644
 40
0.3942449780600876
 40
0.5526387088907394
 40
0.7069521529354525
 40
0.854629079872982
 40
1.0
 40
1.0
 40
1.0
 40
1.0
 10
-2733.411837341508
 20
-19.60828718744091
 30
0.0
 10
-2733.410179812245
 20
-19.60527560673266
 30
0.0
 10
-2733.405200484313
 20
-19.59622861837896
 30
0.0
 10
-2733.400199880106
 20
-19.57916102557943
 30
0.0
 10
-2733.396588932036
 20
-19.55770738073288
 30
0.0
 10
-2733.395966567449
 20
-19.53527309061808
 30
0.0
 10
-2733.397933384206
 20
-19.51270855757532
 30
0.0
 10
-2733.401992868065
 20
-19.49034623741394
 30
0.0
 10
-2733.406442501496
 20
-19.47561911808157
 30
0.0
 10
-2733.408649811028
 20
-19.46831350260072
 30
0.0
  0
LINE
  5
83
330
2
100
AcDbEntity
  8
0
370
    18
100
AcDbLine
 10
-2778.219394036166
 20
-44.58583307902435
 30
0.0
 11
-2778.276040746661
 21
-44.64033701428998
 31
0.0
  0
LINE
  5
84
330
2
100
AcDbEntity
  8
0
370
    18
100
AcDbLine
 10
-2778.162943166001
 20
-44.83624899768351
 30
0.0
 11
-2778.087415972349
 21
-44.81445056222719
 31
0.0
  0
SPLINE
  5
85
330
2
100
AcDbEntity
  8
0
370
    18
100
AcDbSpline
210
0.0
220
0.0
230
1.0
 70
     8
 71
     3
 72
    19
 73
    15
 74
     0
 42
0.000000001
 43
0.0000000001
 40
0.0
 40
0.0
 40
0.0
 40
0.0
 40
0.033668373434194
 40
0.1115823195320886
 40
0.1918911502671756
 40
0.2764396782412253
 40
0.364823493029788
 40
0.4550163390045381
 40
0.5450922175782177
 40
0.6348297260940301
 40
0.7244939462698534
 40
0.8144692285295004
 40
0.9051368534149656
 40
1.0
 40
1.0
 40
1.0
 40
1.0
 10
-2778.275219708334
 20
-44.64022031207956
 30
0.0
 10
-2778.276831606297
 20
-44.64157746314163
 30
0.0
 10
-2778.282173691323
 20
-44.64607527660919
 30
0.0
 10
-2778.288453528021
 20
-44.65668842731976
 30
0.0
 10
-2778.293956547679
 20
-44.67129985614104
 30
0.0
 10
-2778.296440440549
 20
-44.68816752299693
 30
0.0
 10
-2778.295948151377
 20
-44.70677438413758
 30
0.0
 10
-2778.292346728812
 20
-44.72652413483941
 30
0.0
 10
-2778.285809418292
 20
-44.74655090567416
 30
0.0
 10
-2778.276637341298
 20
-44.76606677249725
 30
0.0
 10
-2778.265171040181
 20
-44.78444900288323
 30
0.0
 10
-2778.251740069499
 20
-44.80102305644762
 30
0.0
 10
-2778.236589686246
 20
-44.81571267243642
 30
0.0
 10
-2778.225491750421
 20
-44.82290375611599
 30
0.0
 10
-2778.219817300276
 20
-44.82658060615968
 30
0.0
  0
SPLINE
  5
86
330
2
100
AcDbEntity
  8
0
370
    18
100
AcDbSpline
210
0.0
220
0.0
230
1.0
 70
     8
 71
     3
 72
    11
 73
     7
 74
     0
 42
0.000000001
 43
0.0000000001
 40
0.0
 40
0.0
 40
0.0
 40
0.0
 40
0.1732733643368846
 40
0.4956613429769745
 40
0.7731848236314423
 40
1.0
 40
1.0
 40
1.0
 40
1.0
 10
-2778.219817300276
 20
-44.82658060615968
 30
0.0
 10
-2778.216766258981
 20
-44.8282277089591
 30
0.0
 10
-2778.208038528487
 20
-44.83293936899238
 30
0.0
 10
-2778.193958038567
 20
-44.83742350558765
 30
0.0
 10
-2778.178663790108
 20
-44.83924003576169
 30
0.0
 10
-2778.169678190602
 20
-44.83750635501485
 30
0.0
 10
-2778.165637115605
 20
-44.83672667037453
 30
0.0
  0
SPLINE
  5
87
330
2
100
AcDbEntity
  8
0
370
    18
100
AcDbSpline
210
0.0
220
0.0
230
1.0
 70
     8
 71
     3
 72
     9
 73
     5
 74
     0
 42
0.000000001
 43
0.0000000001
 40
0.0
 40
0.0
 40
0.0
 40
0.0
 40
0.7794735048163708
 40
1.0
 40
1.0
 40
1.0
 40
1.0
 10
-2778.209039762391
 20
-44.5783802992584
 30
0.0
 10
-2778.211983581848
 20
-44.57995755953681
 30
0.0
 10
-2778.21576025859
 20
-44.5819810539452
 30
0.0
 10
-2778.218511657941
 20
-44.58524104669542
 30
0.0
 10
-2778.219118414396
 20
-44.58595996147096
 30
0.0
  0
SPLINE
  5
88
330
2
100
AcDbEntity
  8
0
370
    18
100
AcDbSpline
210
0.0
220
0.0
230
1.0
 70
     8
 71
     3
 72
     9
 73
     5
 74
     0
 42
0.000000001
 43
0.0000000001
 40
0.0
 40
0.0
 40
0.0
 40
0.0
 40
0.7935361100642587
 40
1.0
 40
1.0
 40
1.0
 40
1.0
 10
-2778.08651303179
 20
-44.81364319758561
 30
0.0
 10
-2778.083101567971
 20
-44.81284072201918
 30
0.0
 10
-2778.078802502336
 20
-44.8118294566763
 30
0.0
 10
-2778.075287083581
 20
-44.80928488976117
 30
0.0
 10
-2778.07456127655
 20
-44.80875952857771
 30
0.0
  0
LINE
  5
89
330
2
100
AcDbEntity
  8
0
370
    18
100
AcDbLine
 10
-2778.073864251416
 20
-44.80869655425282
 30
0.0
 11
-2777.581941927974
 21
-44.52471584162177
 31
0.0
  0
LINE
  5
8A
330
2
100
AcDbEntity
  8
0
370
    18
100
AcDbLine
 10
-2777.715711903887
 20
-44.29299433929704
 30
0.0
 11
-2778.207634227328
 21
-44.57697505192807
 31
0.0
  0
SPLINE
  5
8B
330
2
100
AcDbEntity
  8
0
370
    18
100
AcDbSpline
210
0.0
220
0.0
230
1.0
 70
     8
 71
     3
 72
     9
 73
     5
 74
     0
 42
0.000000001
 43
0.0000000001
 40
0.0
 40
0.0
 40
0.0
 40
0.0
 40
0.6279563380873264
 40
1.0
 40
1.0
 40
1.0
 40
1.0
 10
-2729.374554427737
 20
-16.69421825963128
 30
0.0
 10
-2729.373099231148
 20
-16.69340334805493
 30
0.0
 10
-2729.370781878012
 20
-16.69210562793193
 30
0.0
 10
-2729.369102376461
 20
-16.69003865020653
 30
0.0
 10
-2729.368477528555
 20
-16.68926964424452
 30
0.0
  0
LINE
  5
8C
330
2
100
AcDbEntity
  8
0
370
    18
100
AcDbLine
 10
-2729.368294609126
 20
-16.68950045559745
 30
0.0
 11
-2729.311647898632
 21
-16.63499652038998
 31
0.0
  0
SPLINE
  5
8D
330
2
100
AcDbEntity
  8
0
370
    18
100
AcDbSpline
210
0.0
220
0.0
230
1.0
 70
     8
 71
     3
 72
    21
 73
    17
 74
     0
 42
0.000000001
 43
0.0000000001
 40
0.0
 40
0.0
 40
0.0
 40
0.0
 40
0.0261656191582938
 40
0.0958772075698612
 40
0.1677315601524469
 40
0.2433792776422732
 40
0.3224585237510951
 40
0.4031563560539312
 40
0.4837495346493177
 40
0.5640399649514133
 40
0.6442648223124805
 40
0.7247679948282042
 40
0.8058906238929511
 40
0.8907670928867522
 40
0.9355271259788043
 40
1.0
 40
1.0
 40
1.0
 40
1.0
 10
-2729.311853743099
 20
-16.63455820581351
 30
0.0
 10
-2729.310457738791
 20
-16.63337533915932
 30
0.0
 10
-2729.305342438673
 20
-16.62904102736482
 30
0.0
 10
-2729.299245528592
 20
-16.61863479869052
 30
0.0
 10
-2729.293729110957
 20
-16.60403663912746
 30
0.0
 10
-2729.291249060582
 20
-16.58716514925705
 30
0.0
 10
-2729.291740264654
 20
-16.568559436831
 30
0.0
 10
-2729.295341941285
 20
-16.54880914905426
 30
0.0
 10
-2729.301879357861
 20
-16.52878334020566
 30
0.0
 10
-2729.311050758182
 20
-16.50926417872977
 30
0.0
 10
-2729.322519659306
 20
-16.49089416395893
 30
0.0
 10
-2729.33594085001
 20
-16.47427427706673
 30
0.0
 10
-2729.351128605997
 20
-16.45975977462799
 30
0.0
 10
-2729.365096359177
 20
-16.45005508665989
 30
0.0
 10
-2729.37836700738
 20
-16.44302094638556
 30
0.0
 10
-2729.386083137543
 20
-16.44085411027305
 30
0.0
 10
-2729.390637452732
 20
-16.43957517194395
 30
0.0
  0
LINE
  5
8E
330
2
100
AcDbEntity
  8
0
370
    18
100
AcDbLine
 10
-2779.264077756624
 20
-43.98275000419269
 30
0.0
 11
-2779.320724467118
 21
-44.03725393945833
 31
0.0
  0
LINE
  5
8F
330
2
100
AcDbEntity
  8
0
370
    18
100
AcDbLine
 10
-2779.207626886459
 20
-44.23316592285186
 30
0.0
 11
-2779.132099692806
 21
-44.21136748739555
 31
0.0
  0
SPLINE
  5
90
330
2
100
AcDbEntity
  8
0
370
    18
100
AcDbSpline
210
0.0
220
0.0
230
1.0
 70
     8
 71
     3
 72
    23
 73
    19
 74
     0
 42
0.000000001
 43
0.0000000001
 40
0.0
 40
0.0
 40
0.0
 40
0.0
 40
0.017689241402314
 40
0.0779134265253624
 40
0.1396269835864718
 40
0.2044963325946853
 40
0.2725065938608827
 40
0.3421952939276893
 40
0.4119552231009993
 40
0.4814451684308258
 40
0.5508319226276694
 40
0.6204197137877204
 40
0.6904792412262487
 40
0.7613923921296657
 40
0.8334027703909427
 40
0.898054918037147
 40
0.95948136192759
 40
1.0
 40
1.0
 40
1.0
 40
1.0
 10
-2779.319681107513
 20
-44.03683244797017
 30
0.0
 10
-2779.320806995357
 20
-44.03771210676985
 30
0.0
 10
-2779.325766042377
 20
-44.04158662177542
 30
0.0
 10
-2779.331958316167
 20
-44.05140866549861
 30
0.0
 10
-2779.337952895835
 20
-44.06562801203985
 30
0.0
 10
-2779.340910168106
 20
-44.08217583414201
 30
0.0
 10
-2779.340929323113
 20
-44.10051872005245
 30
0.0
 10
-2779.337833834536
 20
-44.12013826654916
 30
0.0
 10
-2779.331764065601
 20
-44.14017327830807
 30
0.0
 10
-2779.32300539377
 20
-44.15982302850077
 30
0.0
 10
-2779.311891786875
 20
-44.17842436443459
 30
0.0
 10
-2779.298770142487
 20
-44.19537713448015
 30
0.0
 10
-2779.283984737569
 20
-44.21012800851649
 30
0.0
 10
-2779.267866284371
 20
-44.22212564448183
 30
0.0
 10
-2779.251353665657
 20
-44.23053934667321
 30
0.0
 10
-2779.235188216916
 20
-44.23495595990331
 30
0.0
 10
-2779.221366208434
 20
-44.23608305243305
 30
0.0
 10
-2779.213322747012
 20
-44.23418421792951
 30
0.0
 10
-2779.210125828671
 20
-44.23342951562775
 30
0.0
  0
SPLINE
  5
91
330
2
100
AcDbEntity
  8
0
370
    18
100
AcDbSpline
210
0.0
220
0.0
230
1.0
 70
     8
 71
     3
 72
     9
 73
     5
 74
     0
 42
0.000000001
 43
0.0000000001
 40
0.0
 40
0.0
 40
0.0
 40
0.0
 40
0.6792810316875098
 40
1.0
 40
1.0
 40
1.0
 40
1.0
 10
-2779.133879535613
 20
-44.21143480830764
 30
0.0
 10
-2779.129764029506
 20
-44.21045111103213
 30
0.0
 10
-2779.123705408823
 20
-44.20900296625899
 30
0.0
 10
-2779.118736166974
 20
-44.20537256925451
 30
0.0
 10
-2779.117142436855
 20
-44.20420823207272
 30
0.0
  0
SPLINE
  5
92
330
2
100
AcDbEntity
  8
0
370
    18
100
AcDbSpline
210
0.0
220
0.0
230
1.0
 70
     8
 71
     3
 72
     9
 73
     5
 74
     0
 42
0.000000001
 43
0.0000000001
 40
0.0
 40
0.0
 40
0.0
 40
0.0
 40
0.7066160965177803
 40
1.0
 40
1.0
 40
1.0
 40
1.0
 10
-2779.251620922697
 20
-43.97382900275334
 30
0.0
 10
-2779.255465589156
 20
-43.97598745590222
 30
0.0
 10
-2779.260906544262
 20
-43.9790420893297
 30
0.0
 10
-2779.26484007545
 20
-43.98388289225461
 30
0.0
 10
-2779.265994110185
 20
-43.98530310591268
 30
0.0
  0
LINE
  5
93
330
2
100
AcDbEntity
  8
0
370
    18
100
AcDbLine
 10
-2779.118547971873
 20
-44.20561347942117
 30
0.0
 11
-2778.626625648432
 21
-43.92163276679013
 31
0.0
  0
LINE
  5
94
330
2
100
AcDbEntity
  8
0
370
    18
100
AcDbLine
 10
-2778.760395624344
 20
-43.68991126446537
 30
0.0
 11
-2779.252317947785
 21
-43.97389197709642
 31
0.0
  0
LINE
  5
95
330
2
100
AcDbEntity
  8
0
370
    18
100
AcDbLine
 10
-2733.522171328365
 20
-20.07878043285357
 30
0.0
 11
-2729.717181998988
 21
-17.88220684836491
 31
0.0
  0
LINE
  5
96
330
2
100
AcDbEntity
  8
0
370
    18
100
AcDbLine
 10
-2729.368234517212
 20
-17.21156840209908
 30
0.0
 11
-2729.361099793227
 21
-17.1012357536339
 31
0.0
  0
SPLINE
  5
97
330
2
100
AcDbEntity
  8
0
370
    18
100
AcDbSpline
210
0.0
220
0.0
230
1.0
 70
     8
 71
     3
 72
    22
 73
    18
 74
     0
 42
0.000000001
 43
0.0000000001
 40
0.0
 40
0.0
 40
0.0
 40
0.0
 40
0.0336676588859846
 40
0.1019453820831162
 40
0.1702574870090909
 40
0.2386977879643274
 40
0.3073461045350523
 40
0.3762613012379316
 40
0.4454775137734905
 40
0.5150038883918411
 40
0.5848275117745445
 40
0.6549186208828021
 40
0.7252368467817836
 40
0.7957372670376822
 40
0.8663753707210258
 40
0.9371105107003128
 40
1.0
 40
1.0
 40
1.0
 40
1.0
 10
-2729.714660954237
 20
-17.88015674563904
 30
0.0
 10
-2729.707762076012
 20
-17.87623845151554
 30
0.0
 10
-2729.68687233197
 20
-17.86437389054648
 30
0.0
 10
-2729.654212168456
 20
-17.84079855596119
 30
0.0
 10
-2729.61671037184
 20
-17.80974691921307
 30
0.0
 10
-2729.581602668816
 20
-17.77520493486759
 30
0.0
 10
-2729.548828325438
 20
-17.73747861236615
 30
0.0
 10
-2729.518501996013
 20
-17.69657804421302
 30
0.0
 10
-2729.490693733609
 20
-17.65260363337744
 30
0.0
 10
-2729.465486157338
 20
-17.60564723874523
 30
0.0
 10
-2729.442956170926
 20
-17.55582170969618
 30
0.0
 10
-2729.423173969126
 20
-17.50325497860529
 30
0.0
 10
-2729.406206794686
 20
-17.4480861678105
 30
0.0
 10
-2729.392088204005
 20
-17.39047969028248
 30
0.0
 10
-2729.380925891515
 20
-17.33055842335054
 30
0.0
 10
-2729.372808476942
 20
-17.27094845264623
 30
0.0
 10
-2729.369698300018
 20
-17.23057152045962
 30
0.0
 10
-2729.368234517185
 20
-17.21156840210935
 30
0.0
  0
LINE
  5
98
330
2
100
AcDbEntity
  8
0
370
    18
100
AcDbLine
 10
-2735.332714085753
 20
-17.53024466293436
 30
0.0
 11
-2735.579489837079
 21
-17.67270527184313
 31
0.0
  0
LINE
  5
99
330
2
100
AcDbEntity
  8
0
370
    18
100
AcDbLine
 10
-2733.98006621202
 20
-20.44328845178262
 30
0.0
 11
-2733.741275647037
 21
-20.30543759289338
 31
0.0
  0
SPLINE
  5
9A
330
2
100
AcDbEntity
  8
0
370
    18
100
AcDbSpline
210
0.0
220
0.0
230
1.0
 70
     8
 71
     3
 72
    19
 73
    15
 74
     0
 42
0.000000001
 43
0.0000000001
 40
0.0
 40
0.0
 40
0.0
 40
0.0
 40
0.0656243233591563
 40
0.153756046191288
 40
0.242579203366781
 40
0.3323314750027019
 40
0.4231385960466861
 40
0.514995810519579
 40
0.6077735749098931
 40
0.7012504051364958
 40
0.7948857361554856
 40
0.8891377436332565
 40
0.9838927115381203
 40
1.0
 40
1.0
 40
1.0
 40
1.0
 10
-2735.430163076209
 20
-17.23630274660112
 30
0.0
 10
-2735.437686831153
 20
-17.24072819673093
 30
0.0
 10
-2735.455314789103
 20
-17.25109690881422
 30
0.0
 10
-2735.480615655854
 20
-17.27140904879856
 30
0.0
 10
-2735.506295035142
 20
-17.29646586729294
 30
0.0
 10
-2735.529599314368
 20
-17.32487189301817
 30
0.0
 10
-2735.550481664678
 20
-17.35637969747052
 30
0.0
 10
-2735.568772608071
 20
-17.39090583997807
 30
0.0
 10
-2735.584340409029
 20
-17.42826809391638
 30
0.0
 10
-2735.597016129251
 20
-17.46824432323774
 30
0.0
 10
-2735.606807141873
 20
-17.51055674971837
 30
0.0
 10
-2735.613365283087
 20
-17.55516964620693
 30
0.0
 10
-2735.616694580647
 20
-17.58846359324133
 30
0.0
 10
-2735.616935983965
 20
-17.60727003609913
 30
0.0
 10
-2735.616971057695
 20
-17.61000244305147
 30
0.0
  0
LINE
  5
9B
330
2
100
AcDbEntity
  8
0
370
    18
100
AcDbLine
 10
-2731.450248877856
 20
-14.93831855332455
 30
0.0
 11
-2735.430372914385
 21
-17.23599525221034
 31
0.0
  0
LINE
  5
9C
330
2
100
AcDbEntity
  8
0
370
    18
100
AcDbLine
 10
-2735.61721475539
 20
-17.60986199626713
 30
0.0
 11
-2735.620670708938
 21
-17.70084414571472
 31
0.0
  0
SPLINE
  5
9D
330
2
100
AcDbEntity
  8
0
370
    18
100
AcDbSpline
210
0.0
220
0.0
230
1.0
 70
     8
 71
     3
 72
    29
 73
    25
 74
     0
 42
0.000000001
 43
0.0000000001
 40
0.0
 40
0.0
 40
0.0
 40
0.0
 40
0.0251959412737793
 40
0.0726992032809269
 40
0.1201546395463722
 40
0.1675584138097385
 40
0.2149067742135057
 40
0.2622017724163453
 40
0.3094490931169497
 40
0.3566566072537317
 40
0.4038334529090603
 40
0.4509894793269681
 40
0.4981349295861797
 40
0.5452802718532805
 40
0.5924339002757623
 40
0.6396051985244331
 40
0.6868049103220557
 40
0.7340437207147145
 40
0.7813320528915475
 40
0.8286796908223013
 40
0.8760951229876615
 40
0.9235844616557455
 40
0.9711497438504871
 40
1.0
 40
1.0
 40
1.0
 40
1.0
 10
-2729.380209562862
 20
-16.54264407632682
 30
0.0
 10
-2729.380617022128
 20
-16.53397083105144
 30
0.0
 10
-2729.381792686241
 20
-16.50894545039468
 30
0.0
 10
-2729.386038977859
 20
-16.46661514049494
 30
0.0
 10
-2729.393864910045
 20
-16.41552963951758
 30
0.0
 10
-2729.40461253526
 20
-16.36371284133309
 30
0.0
 10
-2729.41815658035
 20
-16.31143580126866
 30
0.0
 10
-2729.434427600584
 20
-16.25894014904421
 30
0.0
 10
-2729.453329180908
 20
-16.20647502478985
 30
0.0
 10
-2729.474760503922
 20
-16.15428653536672
 30
0.0
 10
-2729.498610522432
 20
-16.10262019398905
 30
0.0
 10
-2729.524759790672
 20
-16.05171946932459
 30
0.0
 10
-2729.553080380411
 20
-16.00182509890732
 30
0.0
 10
-2729.583435996921
 20
-15.95317480736994
 30
0.0
 10
-2729.615682593147
 20
-15.90600186597631
 30
0.0
 10
-2729.649669364076
 20
-15.86053357306198
 30
0.0
 10
-2729.685240194482
 20
-15.81698951422174
 30
0.0
 10
-2729.722234467991
 20
-15.77558170635942
 30
0.0
 10
-2729.760487548457
 20
-15.73651252365384
 30
0.0
 10
-2729.799831977991
 20
-15.69998161039849
 30
0.0
 10
-2729.840096679053
 20
-15.66615870020224
 30
0.0
 10
-2729.881112591955
 20
-15.63528526623125
 30
0.0
 10
-2729.917218069274
 20
-15.61098068286747
 30
0.0
 10
-2729.939645211842
 20
-15.59769573973156
 30
0.0
 10
-2729.948112453215
 20
-15.59268008426789
 30
0.0
  0
LINE
  5
9E
330
2
100
AcDbEntity
  8
0
370
    18
100
AcDbLine
 10
-2729.360131846041
 20
-17.08078568708437
 30
0.0
 11
-2729.380209562857
 21
-16.54264407634346
 31
0.0
  0
LINE
  5
9F
330
2
100
AcDbEntity
  8
0
370
    18
100
AcDbLine
 10
-2729.94811245324
 20
-15.59268008426091
 30
0.0
 11
-2731.015408831908
 21
-14.97654299972439
 31
0.0
  0
SPLINE
  5
A0
330
2
100
AcDbEntity
  8
0
370
    18
100
AcDbSpline
210
0.0
220
0.0
230
1.0
 70
     8
 71
     3
 72
    19
 73
    15
 74
     0
 42
0.000000001
 43
0.0000000001
 40
0.0
 40
0.0
 40
0.0
 40
0.0
 40
0.0487189893133972
 40
0.1407454089353362
 40
0.2328416298839206
 40
0.3248322389499105
 40
0.4165495343638119
 40
0.5077806318898935
 40
0.5982902660121641
 40
0.6878649290367683
 40
0.7763695001247667
 40
0.8637961537922935
 40
0.9502851183715101
 40
1.0
 40
1.0
 40
1.0
 40
1.0
 10
-2731.015408831892
 20
-14.97654299970407
 30
0.0
 10
-2731.02283036534
 20
-14.97235719988751
 30
0.0
 10
-2731.044270604041
 20
-14.96026474650915
 30
0.0
 10
-2731.079869038087
 20
-14.94288131533134
 30
0.0
 10
-2731.122044107712
 20
-14.92566090132173
 30
0.0
 10
-2731.163989435185
 20
-14.91218362316939
 30
0.0
 10
-2731.205453268984
 20
-14.90251339701545
 30
0.0
 10
-2731.246177947679
 20
-14.89675624121159
 30
0.0
 10
-2731.285892108179
 20
-14.89495297060623
 30
0.0
 10
-2731.324310858684
 20
-14.8971195671514
 30
0.0
 10
-2731.361205624624
 20
-14.90314413881241
 30
0.0
 10
-2731.396225583715
 20
-14.91313982300292
 30
0.0
 10
-2731.424981195614
 20
-14.92438303148291
 30
0.0
 10
-2731.441177464263
 20
-14.93369133028749
 30
0.0
 10
-2731.447089159133
 20
-14.93708889200185
 30
0.0
  0
ARC
  5
A1
330
2
100
AcDbEntity
  8
0
370
    18
100
AcDbCircle
 10
-2733.732598611468
 20
-19.5475735153452
 30
0.0
 40
0.0362323418966831
100
AcDbArc
 50
6.52442361380124
 51
57.16145648649633
  0
LWPOLYLINE
  5
A2
330
2
100
AcDbEntity
  8
0
370
    18
100
AcDbPolyline
 90
       18
 70
   128
 43
0.0
 10
-2733.696600927971
 20
-19.54345655260476
 10
-2733.691627079879
 20
-19.61437265261249
 10
-2733.689856417301
 20
-19.68365095140817
 10
-2733.691294152512
 20
-19.75108751486322
 10
-2733.695936053326
 20
-19.81648383011431
 10
-2733.703768455369
 20
-19.87964739036018
 10
-2733.71476830244
 20
-19.94039226127813
 10
-2733.728903214282
 20
-19.9985396284204
 10
-2733.746131582085
 20
-20.05391832361261
 10
-2733.76640269075
 20
-20.10636532884236
 10
-2733.789656868262
 20
-20.15572625606706
 10
-2733.815825661403
 20
-20.20185580171981
 10
-2733.84483203724
 20
-20.24461817440105
 10
-2733.876590609801
 20
-20.28388749476691
 10
-2733.911007891457
 20
-20.3195481658113
 10
-2733.947982568285
 20
-20.35149521336722
 10
-2733.987405797991
 20
-20.37963459508254
 10
-2734.009146641548
 20
-20.39291421216955
  0
LINE
  5
A3
330
2
100
AcDbEntity
  8
0
370
    18
100
AcDbLine
 10
-2733.739207232148
 20
-19.50197349679866
 30
0.0
 11
-2733.712950770963
 21
-19.51713102920968
 31
0.0
  0
ARC
  5
A4
330
2
100
AcDbEntity
  8
0
370
    18
100
AcDbCircle
 10
-2733.742614730273
 20
-19.50672985195639
 30
0.0
 40
0.0058509792289246
100
AcDbArc
 50
54.38182734031273
 51
114.3139521612777
  0
ARC
  5
A5
330
2
100
AcDbEntity
  8
0
370
    18
100
AcDbCircle
 10
-2777.326535700537
 20
-43.6288205933799
 30
0.0
 40
2.393397130688042
100
AcDbArc
 50
7.484089125693064
 51
57.84211725685104
  0
ARC
  5
A6
330
2
100
AcDbEntity
  8
0
370
    18
100
AcDbCircle
 10
-2774.96702415808
 20
-43.32008617063905
 30
0.0
 40
0.0138274643310426
100
AcDbArc
 50
314.3925481480286
 51
12.56288446868276
  0
LWPOLYLINE
  5
A7
330
2
100
AcDbEntity
  8
0
370
    18
100
AcDbPolyline
 90
       42
 70
   128
 43
0.0
 10
-2735.591538687872
 20
-17.74682293966282
 10
-2735.579033975931
 20
-17.73983464887847
 10
-2735.534886804364
 20
-17.71860758298968
 10
-2735.488584750518
 20
-17.70149462745914
 10
-2735.440267560064
 20
-17.68854743140785
 10
-2735.390081060466
 20
-17.6798050710582
 10
-2735.338176721076
 20
-17.6752939320068
 10
-2735.284711195835
 20
-17.67502762947955
 10
-2735.22984585062
 20
-17.67900696720849
 10
-2735.173746276165
 20
-17.68721993504709
 10
-2735.116581788187
 20
-17.69964174520741
 10
-2735.05852491646
 20
-17.71623490700273
 10
-2734.999750884112
 20
-17.73694934015431
 10
-2734.940437078791
 20
-17.76172252590548
 10
-2734.880762517243
 20
-17.79047969547812
 10
-2734.820907304901
 20
-17.82313405610416
 10
-2734.761052092559
 20
-17.85958705265442
 10
-2734.701377530952
 20
-17.89972866533002
 10
-2734.64206372563
 20
-17.94343774155531
 10
-2734.583289693341
 20
-17.99058236166468
 10
-2734.525232821614
 20
-18.04102023716267
 10
-2734.468068333636
 20
-18.09459913998569
 10
-2734.411968759124
 20
-18.15115736212666
 10
-2734.357103413966
 20
-18.210524203586
 10
-2734.303637888725
 20
-18.27252048760254
 10
-2734.251733549335
 20
-18.33695910130241
 10
-2734.201547049679
 20
-18.40364556071986
 10
-2734.153229859225
 20
-18.47237859751319
 10
-2734.106927805437
 20
-18.54295076644635
 10
-2734.062780633812
 20
-18.61514907165773
 10
-2734.020921586293
 20
-18.68875560938995
 10
-2733.981476998882
 20
-18.7635482255517
 10
-2733.944565920364
 20
-18.83930118642516
 10
-2733.910299753191
 20
-18.91578585972696
 10
-2733.878781917057
 20
-18.99277140497531
 10
-2733.850107536889
 20
-19.0700254697322
 10
-2733.824363155636
 20
-19.14731489137129
 10
-2733.801626473098
 20
-19.22440640041585
 10
-2733.781966111636
 20
-19.30106732469171
 10
-2733.7654414087
 20
-19.37706629167654
 10
-2733.752102237963
 20
-19.45217392677765
 10
-2733.741988858737
 20
-19.52616354532807
  0
LINE
  5
A8
330
2
100
AcDbEntity
  8
0
370
    18
100
AcDbLine
 10
-2774.953527752678
 20
-43.31707854492233
 30
0.0
 11
-2733.741988858737
 21
-19.52616354532807
 31
0.0
  0
ARC
  5
A9
330
2
100
AcDbEntity
  8
0
370
    18
100
AcDbCircle
 10
-2733.754116593524
 20
-19.52949115738339
 30
0.0
 40
0.0125759672497685
100
AcDbArc
 50
306.465283472628
 51
15.343238631725
  0
LWPOLYLINE
  5
AA
330
2
100
AcDbEntity
  8
0
370
    18
100
AcDbPolyline
 90
       47
 70
   128
 43
0.0
 10
-2777.209459406499
 20
-44.38217934133909
 10
-2777.225012704421
 20
-44.30979289878344
 10
-2777.24369832228
 20
-44.23673613327132
 10
-2777.265454399928
 20
-44.16325090469659
 10
-2777.290208912316
 20
-44.08958049132088
 10
-2777.317879907739
 20
-44.01596878464572
 10
-2777.348375779296
 20
-43.94265948155046
 10
-2777.381595568166
 20
-43.86989527800103
 10
-2777.417429297824
 20
-43.7979170653181
 10
-2777.455758337988
 20
-43.72696313266821
 10
-2777.496455797523
 20
-43.65726837828082
 10
-2777.539386944458
 20
-43.58906353189037
 10
-2777.584409652113
 20
-43.52257439073149
 10
-2777.631374869372
 20
-43.45802107193658
 10
-2777.680127114445
 20
-43.39561728412839
 10
-2777.730504989465
 20
-43.33556961966097
 10
-2777.782341714619
 20
-43.2780768708251
 10
-2777.835465680662
 20
-43.22332937158844
 10
-2777.889701016674
 20
-43.17150836760392
 10
-2777.944868172645
 20
-43.12278541623182
 10
-2778.00078451358
 20
-43.07732181832013
 10
-2778.057264924301
 20
-43.03526808453537
 10
-2778.114122422109
 20
-42.99676343694146
 10
-2778.171168776131
 20
-42.96193534792144
 10
-2778.22821513021
 20
-42.93089911853485
 10
-2778.285072628018
 20
-42.90375749648634
 10
-2778.341553038739
 20
-42.88060033608961
 10
-2778.397469379674
 20
-42.86150430092487
 10
-2778.452636535645
 20
-42.84653260982979
 10
-2778.506871871657
 20
-42.83573482767788
 10
-2778.5599958377
 20
-42.82914670129338
 10
-2778.611832562853
 20
-42.82679004120059
 10
-2778.662210437874
 20
-42.82867264926589
 10
-2778.710962682947
 20
-42.83478829304672
 10
-2778.757927900206
 20
-42.8451167261496
 10
-2778.802950607861
 20
-42.85962375558574
 10
-2778.845881754796
 20
-42.87826135478688
 10
-2778.886579214331
 20
-42.90096782251366
 10
-2778.924908254495
 20
-42.92766798742396
 10
-2778.960741984153
 20
-42.95827345649809
 10
-2778.993961773023
 20
-42.99268290819348
 10
-2779.024457644581
 20
-43.03078242742006
 10
-2779.052128640004
 20
-43.07244588286065
 10
-2779.076883152391
 20
-43.11753534454159
 10
-2779.098639230039
 20
-43.16590154054888
 10
-2779.117324847898
 20
-43.21738435091224
 10
-2779.13287814582
 20
-43.27181333795893
  0
LINE
  5
AB
330
2
100
AcDbEntity
  8
0
370
    18
100
AcDbLine
 10
-2778.865275037859
 20
-42.82120745849245
 30
0.0
 11
-2778.862259223009
 21
-42.81943780520333
 31
0.0
  0
ARC
  5
AC
330
2
100
AcDbEntity
  8
0
370
    18
100
AcDbCircle
 10
-2777.185641265004
 20
-44.26645272667815
 30
0.0
 40
0.1181522458931259
100
AcDbArc
 50
258.3701307379848
 51
298.7496196001217
  0
LWPOLYLINE
  5
AD
330
2
100
AcDbEntity
  8
0
370
    18
100
AcDbPolyline
 90
       40
 70
   128
 43
0.0
 10
-2777.066465091984
 20
-41.75698294000776
 10
-2777.060643562665
 20
-41.75359209090894
 10
-2777.017922056193
 20
-41.7317740443436
 10
-2776.973015650046
 20
-41.71404999034716
 10
-2776.926064998031
 20
-41.70047544343456
 10
-2776.877217156886
 20
-41.69109292107875
 10
-2776.826625125601
 20
-41.6859318109186
 10
-2776.774447366135
 20
-41.68500827827565
 10
-2776.720847307267
 20
-41.68832521578259
 10
-2776.665992832735
 20
-41.69587223430966
 10
-2776.610055755187
 20
-41.70762569547897
 10
-2776.553211278152
 20
-41.723548785535
 10
-2776.495637447362
 20
-41.74359163091944
 10
-2776.437514592827
 20
-41.7676914544459
 10
-2776.379024764396
 20
-41.79577277166695
 10
-2776.320351161156
 20
-41.82774762754978
 10
-2776.261677557917
 20
-41.86351587200663
 10
-2776.203187729486
 20
-41.90296547329101
 10
-2776.14506487495
 20
-41.94597286914336
 10
-2776.08749104416
 20
-41.99240335388291
 10
-2776.030646567126
 20
-42.04211149999191
 10
-2775.974709489578
 20
-42.09494161390121
 10
-2775.919855015045
 20
-42.15072822359231
 10
-2775.866254956235
 20
-42.20929659673639
 10
-2775.814077196711
 20
-42.27046328814887
 10
-2775.763485165426
 20
-42.33403671434902
 10
-2775.714637324281
 20
-42.399817753538
 10
-2775.667686672267
 20
-42.46760036942469
 10
-2775.622780266178
 20
-42.53717225634041
 10
-2775.580058759648
 20
-42.60831550436213
 10
-2775.539655963133
 20
-42.68080728200216
 10
-2775.501698424415
 20
-42.75442053367165
 10
-2775.466305032324
 20
-42.82892469139458
 10
-2775.433586644417
 20
-42.904086396701
 10
-2775.403645739732
 20
-42.97967023141937
 10
-2775.376576097829
 20
-43.05543945544887
 10
-2775.352462504996
 20
-43.13115674778899
 10
-2775.331380488781
 20
-43.20658495024474
 10
-2775.313396081142
 20
-43.28148781008468
 10
-2775.298565612193
 20
-43.3556307199656
  0
SPLINE
  5
AE
330
2
100
AcDbEntity
  8
0
370
    18
100
AcDbSpline
210
0.0
220
0.0
230
1.0
 70
     8
 71
     3
 72
    10
 73
     6
 74
     0
 42
0.000000001
 43
0.0000000001
 40
0.0
 40
0.0
 40
0.0
 40
0.0
 40
0.4887438014402594
 40
0.7723796420983089
 40
1.0
 40
1.0
 40
1.0
 40
1.0
 10
-2777.128812049472
 20
-44.37004033919698
 30
0.0
 10
-2776.830633626868
 20
-44.20468134460489
 30
0.0
 10
-2776.359411398262
 20
-43.94335849880221
 30
0.0
 10
-2775.749332605159
 20
-43.60529246016065
 30
0.0
 10
-2775.437430140211
 20
-43.43254220693352
 30
0.0
 10
-2775.298565612207
 20
-43.35563071993756
 30
0.0
  0
LWPOLYLINE
  5
AF
330
2
100
AcDbEntity
  8
0
370
    18
100
AcDbPolyline
 90
       14
 70
   128
 43
0.0
 10
-2777.554229571178
 20
-44.46346497518343
 10
-2777.555840270717
 20
-44.44246279606332
 10
-2777.560617518953
 20
-44.42031614685849
 10
-2777.568398632384
 20
-44.39777920517523
 10
-2777.578918634601
 20
-44.37561943939806
 10
-2777.591819279454
 20
-44.35459147390317
 10
-2777.606661250997
 20
-44.33541139080438
 10
-2777.622939123674
 20
-44.3187323447293
 10
-2777.640098574098
 20
-44.30512232076447
 10
-2777.657555257763
 20
-44.29504479178059
 10
-2777.67471470813
 20
-44.28884293607325
 10
-2777.690992580865
 20
-44.28672795032606
 10
-2777.705834552408
 20
-44.28877185784339
 10
-2777.715711903887
 20
-44.29299433929704
  0
ARC
  5
B0
330
2
100
AcDbEntity
  8
0
370
    18
100
AcDbCircle
 10
-2777.620472728212
 20
-44.47038843111563
 30
0.0
 40
0.0666039795941569
100
AcDbArc
 50
305.3455294363841
 51
5.966650956992214
  0
LWPOLYLINE
  5
B1
330
2
100
AcDbEntity
  8
0
370
    18
100
AcDbPolyline
 90
       19
 70
   128
 43
0.0
 10
-2778.760395624344
 20
-43.68991126446537
 10
-2778.750518272865
 20
-43.68568878301175
 10
-2778.735676301322
 20
-43.68364487549444
 10
-2778.719398428587
 20
-43.6857598612416
 10
-2778.702238978221
 20
-43.69196171694894
 10
-2778.684782294555
 20
-43.70203924593281
 10
-2778.667622844189
 20
-43.71564926989764
 10
-2778.651344971454
 20
-43.73232831591457
 10
-2778.636502999911
 20
-43.75150839907152
 10
-2778.623602355058
 20
-43.77253636456645
 10
-2778.6130823529
 20
-43.79469613028542
 10
-2778.60530123941
 20
-43.81723307202685
 10
-2778.600523991173
 20
-43.83937972123166
 10
-2778.598913291635
 20
-43.86038190035178
 10
-2778.600523991173
 20
-43.87952440528289
 10
-2778.60530123941
 20
-43.89615536109842
 10
-2778.6130823529
 20
-43.90970842048021
 10
-2778.623602355058
 20
-43.91972205020536
 10
-2778.626625648432
 20
-43.92163276679013
  0
LWPOLYLINE
  5
B2
330
2
100
AcDbEntity
  8
0
370
    18
100
AcDbPolyline
 90
       25
 70
   128
 43
0.0
 10
-2777.261171405849
 20
-44.92776623486732
 10
-2777.287665720074
 20
-44.90561668046595
 10
-2777.313254821839
 20
-44.88036318674587
 10
-2777.337567918444
 20
-44.85237168352975
 10
-2777.360252706577
 20
-44.82204777509574
 10
-2777.380980477796
 20
-44.78983086277753
 10
-2777.399450881183
 20
-44.75618777810132
 10
-2777.415396275764
 20
-44.72160601836061
 10
-2777.428585608577
 20
-44.68658668217327
 10
-2777.438827762689
 20
-44.6516372090785
 10
-2777.445974326628
 20
-44.61726402606898
 10
-2777.44992174477
 20
-44.58396520959506
 10
-2777.450612818008
 20
-44.55222326832064
 10
-2777.448037532439
 20
-44.52249815132886
 10
-2777.442233204777
 20
-44.4952205833348
 10
-2777.43328394112
 20
-44.47078582357632
 10
-2777.421319418734
 20
-44.44954793801599
 10
-2777.406513006606
 20
-44.4318146693111
 10
-2777.389079253676
 20
-44.41784297714154
 10
-2777.369270779483
 20
-44.40783531503103
 10
-2777.347374614151
 20
-44.40193669664906
 10
-2777.323708038795
 20
-44.40023259446313
 10
-2777.298613988288
 20
-44.40274770139311
 10
-2777.272456082117
 20
-44.40944557291858
 10
-2777.245613355217
 20
-44.42022915510595
  0
SPLINE
  5
B3
330
2
100
AcDbEntity
  8
0
370
    18
100
AcDbSpline
210
0.0
220
0.0
230
1.0
 70
     8
 71
     3
 72
    13
 73
     9
 74
     0
 42
0.000000001
 43
0.0000000001
 40
0.0
 40
0.0
 40
0.0
 40
0.0
 40
0.0235920081473761
 40
0.2188691447146758
 40
0.4141415561023436
 40
0.609420638906835
 40
0.8047105564748553
 40
1.0
 40
1.0
 40
1.0
 40
1.0
 10
-2777.228650063046
 20
-45.00821983983008
 30
0.0
 10
-2777.228483724671
 20
-45.00770316452357
 30
0.0
 10
-2777.226940560662
 20
-45.00290983443828
 30
0.0
 10
-2777.225904079812
 20
-44.99204389456593
 30
0.0
 10
-2777.229094924198
 20
-44.97437304254225
 30
0.0
 10
-2777.236670659556
 20
-44.95636940626096
 30
0.0
 10
-2777.247691709715
 20
-44.93965875784961
 30
0.0
 10
-2777.256678177448
 20
-44.93173040599003
 30
0.0
 10
-2777.261171405861
 20
-44.92776623487148
 30
0.0
  0
SPLINE
  5
B4
330
2
100
AcDbEntity
  8
0
370
    18
100
AcDbSpline
210
0.0
220
0.0
230
1.0
 70
     8
 71
     3
 72
    13
 73
     9
 74
     0
 42
0.000000001
 43
0.0000000001
 40
0.0
 40
0.0
 40
0.0
 40
0.0
 40
0.0235920081473802
 40
0.2188691447146792
 40
0.4141415561023455
 40
0.6094206389068396
 40
0.8047105564748562
 40
1.0
 40
1.0
 40
1.0
 40
1.0
 10
-2779.132878145821
 20
-43.27181333794853
 30
0.0
 10
-2779.133007216514
 20
-43.27236339273357
 30
0.0
 10
-2779.134204638628
 20
-43.27746639285164
 30
0.0
 10
-2779.13454881771
 20
-43.28878744516231
 30
0.0
 10
-2779.130413277707
 20
-43.30670938920007
 30
0.0
 10
-2779.12203572939
 20
-43.32453512787975
 30
0.0
 10
-2779.110418663494
 20
-43.34068057369174
 30
0.0
 10
-2779.101289015541
 20
-43.34796393575952
 30
0.0
 10
-2779.096724197105
 20
-43.3516056123735
 30
0.0
  0
SPLINE
  5
B5
330
2
100
AcDbEntity
  8
0
370
    18
100
AcDbSpline
210
0.0
220
0.0
230
1.0
 70
     8
 71
     3
 72
    13
 73
     9
 74
     0
 42
0.000000001
 43
0.0000000001
 40
0.0
 40
0.0
 40
0.0
 40
0.0
 40
0.0235920081200232
 40
0.2188691444792388
 40
0.4141415558934944
 40
0.6094206389068013
 40
0.8047105564688212
 40
1.0
 40
1.0
 40
1.0
 40
1.0
 10
-2777.245613355209
 20
-44.42022915510858
 30
0.0
 10
-2777.24506029088
 20
-44.42048200444455
 30
0.0
 10
-2777.239929370445
 20
-44.42282775295278
 30
0.0
 10
-2777.230403520374
 20
-44.42488304035935
 30
0.0
 10
-2777.21908257611
 20
-44.42176318978674
 30
0.0
 10
-2777.21124721943
 20
-44.41285332886607
 30
0.0
 10
-2777.207386512185
 20
-44.39929658889053
 30
0.0
 10
-2777.208768442283
 20
-44.38788508591862
 30
0.0
 10
-2777.209459406493
 20
-44.38217934135752
 30
0.0
  0
SPLINE
  5
B6
330
2
100
AcDbEntity
  8
0
370
    18
100
AcDbSpline
210
0.0
220
0.0
230
1.0
 70
     8
 71
     3
 72
    11
 73
     7
 74
     0
 42
0.000000001
 43
0.0000000001
 40
0.0
 40
0.0
 40
0.0
 40
0.0
 40
0.3294139391037854
 40
0.6588287494696755
 40
0.9882234828233984
 40
1.0
 40
1.0
 40
1.0
 40
1.0
 10
-2775.298565612207
 20
-43.35563071993756
 30
0.0
 10
-2775.297330375388
 20
-43.36703747825914
 30
0.0
 10
-2775.294859898481
 20
-43.38985102507192
 30
0.0
 10
-2775.303654861011
 20
-43.41540678556164
 30
0.0
 10
-2775.313223639241
 20
-43.42981529044322
 30
0.0
 10
-2775.321032325028
 20
-43.43163831937128
 30
0.0
 10
-2775.32130186451
 20
-43.43170124651257
 30
0.0
  0
ARC
  5
B7
330
2
100
AcDbEntity
  8
0
370
    18
100
AcDbCircle
 10
-2777.158408200082
 20
-44.95063273583946
 30
0.0
 40
0.1052765564125976
100
AcDbArc
 50
121.7723627677441
 51
167.4551300801915
  0
SPLINE
  5
B8
330
2
100
AcDbEntity
  8
0
370
    18
100
AcDbSpline
210
0.0
220
0.0
230
1.0
 70
     8
 71
     3
 72
    13
 73
     9
 74
     0
 42
0.000000001
 43
0.0000000001
 40
0.0
 40
0.0
 40
0.0
 40
0.0
 40
0.1952867809148346
 40
0.3905778357856126
 40
0.5858596696289946
 40
0.7811335526217484
 40
0.9764085494007778
 40
1.0
 40
1.0
 40
1.0
 40
1.0
 10
-2777.213841126518
 20
-44.86113221071474
 30
0.0
 10
-2777.204898390196
 20
-44.86908563957579
 30
0.0
 10
-2777.187012721836
 20
-44.88499267136314
 30
0.0
 10
-2777.165035410643
 20
-44.91845076019124
 30
0.0
 10
-2777.149888561221
 20
-44.95446033513021
 30
0.0
 10
-2777.143447031786
 20
-44.98976761320913
 30
0.0
 10
-2777.145437762211
 20
-45.01145268828227
 30
0.0
 10
-2777.148471442734
 20
-45.02100931860055
 30
0.0
 10
-2777.148798440888
 20
-45.02203942063194
 30
0.0
  0
ARC
  5
B9
330
2
100
AcDbEntity
  8
0
370
    18
100
AcDbCircle
 10
-2777.178664839418
 20
-44.95700482744315
 30
0.0
 40
0.071564656572955
100
AcDbArc
 50
225.6962260171458
 51
294.6664159155064
  0
SPLINE
  5
BA
330
2
100
AcDbEntity
  8
0
370
    18
100
AcDbSpline
210
0.0
220
0.0
230
1.0
 70
     8
 71
     3
 72
    13
 73
     9
 74
     0
 42
0.000000001
 43
0.0000000001
 40
0.0
 40
0.0
 40
0.0
 40
0.0
 40
0.0149859668678548
 40
0.2451235675152154
 40
0.4752471411594106
 40
0.7053612705201252
 40
0.9354802139838291
 40
1.0
 40
1.0
 40
1.0
 40
1.0
 10
-2775.364008762705
 20
-43.83046925140578
 30
0.0
 10
-2775.363426754726
 20
-43.8309741024872
 30
0.0
 10
-2775.353906923705
 20
-43.83923188786923
 30
0.0
 10
-2775.338472114215
 20
-43.86294334544034
 30
0.0
 10
-2775.321387980779
 20
-43.89798041908075
 30
0.0
 10
-2775.313106311639
 20
-43.933982998874
 30
0.0
 10
-2775.313663612422
 20
-43.95841419308989
 30
0.0
 10
-2775.316783565309
 20
-43.96974577792157
 30
0.0
 10
-2775.317466770442
 20
-43.97222716056212
 30
0.0
  0
SPLINE
  5
BB
330
2
100
AcDbEntity
  8
0
370
    18
100
AcDbSpline
210
0.0
220
0.0
230
1.0
 70
     8
 71
     3
 72
    11
 73
     7
 74
     0
 42
0.000000001
 43
0.0000000001
 40
0.0
 40
0.0
 40
0.0
 40
0.0
 40
0.3884960108452038
 40
0.5111754026410658
 40
0.7948097726308088
 40
1.0
 40
1.0
 40
1.0
 40
1.0
 10
-2775.317466770442
 20
-43.97222716056218
 30
0.0
 10
-2775.554623039742
 20
-44.10826301726851
 30
0.0
 10
-2775.866668589923
 20
-44.28725631934706
 30
0.0
 10
-2776.35185553298
 20
-44.56540380585916
 30
0.0
 10
-2776.725143700359
 20
-44.77934398942557
 30
0.0
 10
-2777.023542020653
 20
-44.95028485727634
 30
0.0
 10
-2777.148798440888
 20
-45.02203942063198
 30
0.0
  0
LINE
  5
BC
330
2
100
AcDbEntity
  8
0
370
    18
100
AcDbLine
 10
-2777.402548637267
 20
-45.35042572137979
 30
0.0
 11
-2777.404538110928
 21
-45.35155220055789
 31
0.0
  0
ARC
  5
BD
330
2
100
AcDbEntity
  8
0
370
    18
100
AcDbCircle
 10
-2775.890079840867
 20
-43.81866507850948
 30
0.0
 40
0.592846558101002
100
AcDbArc
 50
301.1523182816488
 51
344.9877827990271
  0
ARC
  5
BE
330
2
100
AcDbEntity
  8
0
370
    18
100
AcDbCircle
 10
-2775.765035079426
 20
-43.94433469899716
 30
0.0
 40
0.5349817302495459
100
AcDbArc
 50
290.7055374895488
 51
308.0197126108485
  0
ARC
  5
BF
330
2
100
AcDbEntity
  8
0
370
    18
100
AcDbCircle
 10
-2776.826365538698
 20
-42.1058484077842
 30
0.0
 40
0.5357753871358656
100
AcDbArc
 50
111.5643222770336
 51
129.6985068674854
  0
LWPOLYLINE
  5
C0
330
2
100
AcDbEntity
  8
0
370
    18
100
AcDbPolyline
 90
       61
 70
   128
 43
0.0
 10
-2776.878208149685
 20
-41.51398304987069
 10
-2776.862635245191
 20
-41.50511948273501
 10
-2776.818388204767
 20
-41.48349419226862
 10
-2776.772029911663
 20
-41.46587393319001
 10
-2776.723691773629
 20
-41.45230865205529
 10
-2776.673510810348
 20
-41.44283680108637
 10
-2776.621629265179
 20
-41.43748522934333
 10
-2776.568194201953
 20
-41.43626910635279
 10
-2776.513357088277
 20
-41.43919187935644
 10
-2776.457273365806
 20
-41.44624526348079
 10
-2776.400102010044
 20
-41.45740926517818
 10
-2776.342005079328
 20
-41.47265223876352
 10
-2776.283147255731
 20
-41.49193097645467
 10
-2776.223695378162
 20
-41.51519083052019
 10
-2776.163817969484
 20
-41.54236586840707
 10
-2776.103684758621
 20
-41.57337905951016
 10
-2776.043466199706
 20
-41.60814249358421
 10
-2775.983332988843
 20
-41.64655762992507
 10
-2775.923455580164
 20
-41.68851557662269
 10
-2775.864003702596
 20
-41.73389739924611
 10
-2775.805145878999
 20
-41.78257445820348
 10
-2775.747048948283
 20
-41.83440877303335
 10
-2775.689877592462
 20
-41.88925341374281
 10
-2775.63379387005
 20
-41.94695291727291
 10
-2775.578956756374
 20
-42.00734372804481
 10
-2775.525521693149
 20
-42.07025466177232
 10
-2775.473640147979
 20
-42.13550739056282
 10
-2775.423459184698
 20
-42.20291694855059
 10
-2775.375121046664
 20
-42.27229225591071
 10
-2775.32876275356
 20
-42.34343666084595
 10
-2775.284515713078
 20
-42.41614849681306
 10
-2775.242505348252
 20
-42.49022165423233
 10
-2775.20285074201
 20
-42.56544616464462
 10
-2775.165664299639
 20
-42.64160879603601
 10
-2775.131051430093
 20
-42.71849365712022
 10
-2775.099110247431
 20
-42.79588280947314
 10
-2775.069931292322
 20
-42.8735568850187
 10
-2775.043597275704
 20
-42.95129570828438
 10
-2775.02018284415
 20
-43.02887892005252
 10
-2774.99975436855
 20
-43.10608660229149
 10
-2774.982369755477
 20
-43.18269990139981
 10
-2774.968078283632
 20
-43.25850164877493
 10
-2774.956920463715
 20
-43.33327697597235
 10
-2774.948927923729
 20
-43.40681392433926
 10
-2774.944123319462
 20
-43.47890404534133
 10
-2774.942520269977
 20
-43.5493429916417
 10
-2774.944123319462
 20
-43.61793109654624
 10
-2774.948927923729
 20
-43.68447393948963
 10
-2774.956920463715
 20
-43.7487828975613
 10
-2774.968078283632
 20
-43.81067568010533
 10
-2774.982369755477
 20
-43.86997684528917
 10
-2774.99975436855
 20
-43.92651829741922
 10
-2775.02018284415
 20
-43.98013976372415
 10
-2775.043597275704
 20
-44.03068924833746
 10
-2775.069931292322
 20
-44.07802346312988
 10
-2775.099110247431
 20
-44.12200823422857
 10
-2775.131051430093
 20
-44.16251888201301
 10
-2775.165664299639
 20
-44.19944057464546
 10
-2775.20285074201
 20
-44.23266865350721
 10
-2775.242505348252
 20
-44.26210893007599
 10
-2775.278814982163
 20
-44.28451347001734
  0
ARC
  5
C1
330
2
100
AcDbEntity
  8
0
370
    18
100
AcDbCircle
 10
-2775.287697843347
 20
-43.5731032259801
 30
0.0
 40
0.2791285625036009
100
AcDbArc
 50
202.9655013793646
 51
237.1299427220493
  0
SPLINE
  5
C2
330
2
100
AcDbEntity
  8
0
370
    18
100
AcDbSpline
210
0.0
220
0.0
230
1.0
 70
     8
 71
     3
 72
     9
 73
     5
 74
     0
 42
0.000000001
 43
0.0000000001
 40
0.0
 40
0.0
 40
0.0
 40
0.0
 40
0.4930007119830839
 40
1.0
 40
1.0
 40
1.0
 40
1.0
 10
-2775.46989270173
 20
-43.71480870552104
 30
0.0
 10
-2775.468212941981
 20
-43.72727793670557
 30
0.0
 10
-2775.464805726315
 20
-43.75257045836214
 30
0.0
 10
-2775.455669516708
 20
-43.7727417218146
 30
0.0
 10
-2775.451037464942
 20
-43.78296853802335
 30
0.0
  0
ARC
  5
C3
330
2
100
AcDbEntity
  8
0
370
    18
100
AcDbCircle
 10
-2775.469085708488
 20
-43.70276350833835
 30
0.0
 40
0.0120722000237584
100
AcDbArc
 50
266.1670771641795
 51
333.8436745905269
  0
ARC
  5
C4
330
2
100
AcDbEntity
  8
0
370
    18
100
AcDbCircle
 10
-2775.291083356218
 20
-43.3457646163725
 30
0.0
 40
0.3990248260201594
100
AcDbArc
 50
245.2324827884123
 51
258.4549544371585
  0
LINE
  5
C5
330
2
100
AcDbEntity
  8
0
370
    18
100
AcDbLine
 10
-2775.370943494287
 20
-43.7134439002973
 30
0.0
 11
-2775.370943494287
 21
-43.73671624222338
 31
0.0
  0
ARC
  5
C6
330
2
100
AcDbEntity
  8
0
370
    18
100
AcDbCircle
 10
-2775.291083473597
 20
-43.32249269271517
 30
0.0
 40
0.399024397293374
100
AcDbArc
 50
245.2324729519949
 51
258.4549598755214
  0
ARC
  5
C7
330
2
100
AcDbEntity
  8
0
370
    18
100
AcDbCircle
 10
-2775.51262191281
 20
-43.70276052502546
 30
0.0
 40
0.0572577432772602
100
AcDbArc
 50
18.26750951712437
 51
41.73249062854954
  0
SPLINE
  5
C8
330
2
100
AcDbEntity
  8
0
370
    18
100
AcDbSpline
210
0.0
220
0.0
230
1.0
 70
     8
 71
     3
 72
     9
 73
     5
 74
     0
 42
0.000000001
 43
0.0000000001
 40
0.0
 40
0.0
 40
0.0
 40
0.0
 40
0.493000713046625
 40
1.0
 40
1.0
 40
1.0
 40
1.0
 10
-2775.451037467219
 20
-43.57471708109524
 30
0.0
 10
-2775.455553888499
 20
-43.58986098749347
 30
0.0
 10
-2775.464714973179
 20
-43.62057880594171
 30
0.0
 10
-2775.468150760174
 20
-43.64982095229708
 30
0.0
 10
-2775.46989270173
 20
-43.66464669964822
 30
0.0
  0
SPLINE
  5
C9
330
2
100
AcDbEntity
  8
0
370
    18
100
AcDbSpline
210
0.0
220
0.0
230
1.0
 70
     8
 71
     3
 72
     9
 73
     5
 74
     0
 42
0.000000001
 43
0.0000000001
 40
0.0
 40
0.0
 40
0.0
 40
0.0
 40
0.5000000003302071
 40
1.0
 40
1.0
 40
1.0
 40
1.0
 10
-2775.471190812813
 20
-43.56308279407234
 30
0.0
 10
-2775.467889804405
 20
-43.56487408954879
 30
0.0
 10
-2775.461287787594
 20
-43.56845668049939
 30
0.0
 10
-2775.454454238812
 20
-43.57263027647022
 30
0.0
 10
-2775.451037464423
 20
-43.57471707445431
 30
0.0
  0
SPLINE
  5
CA
330
2
100
AcDbEntity
  8
0
370
    18
100
AcDbSpline
210
0.0
220
0.0
230
1.0
 70
     8
 71
     3
 72
     9
 73
     5
 74
     0
 42
0.000000001
 43
0.0000000001
 40
0.0
 40
0.0
 40
0.0
 40
0.0
 40
0.4930007138946521
 40
1.0
 40
1.0
 40
1.0
 40
1.0
 10
-2775.471190815429
 20
-43.56308280389359
 30
0.0
 10
-2775.475707236367
 20
-43.57822670939171
 30
0.0
 10
-2775.484868320339
 20
-43.60894452596137
 30
0.0
 10
-2775.488304107316
 20
-43.63818667061922
 30
0.0
 10
-2775.49004604886
 20
-43.65301241708492
 30
0.0
  0
ARC
  5
CB
330
2
100
AcDbEntity
  8
0
370
    18
100
AcDbCircle
 10
-2775.490853042282
 20
-43.66505761709571
 30
0.0
 40
0.0120722001019955
100
AcDbArc
 50
86.16707952117325
 51
153.8436744544188
  0
ARC
  5
CC
330
2
100
AcDbEntity
  8
0
370
    18
100
AcDbCircle
 10
-2775.398538881312
 20
-43.50863120999441
 30
0.0
 40
0.1829551303557062
100
AcDbArc
 50
213.3964769451023
 51
235.68099713061
  0
LINE
  5
CD
330
2
100
AcDbEntity
  8
0
370
    18
100
AcDbLine
 10
-2775.551284782955
 20
-43.63260743245082
 30
0.0
 11
-2775.551284782955
 21
-43.60933509017574
 31
0.0
  0
ARC
  5
CE
330
2
100
AcDbEntity
  8
0
370
    18
100
AcDbCircle
 10
-2775.398539249325
 20
-43.53190393005493
 30
0.0
 40
0.1829546103404147
100
AcDbArc
 50
213.3964428130496
 51
235.6810254982739
  0
ARC
  5
CF
330
2
100
AcDbEntity
  8
0
370
    18
100
AcDbCircle
 10
-2775.447316855176
 20
-43.66506061239076
 30
0.0
 40
0.057257723207918
100
AcDbArc
 50
198.2675034713338
 51
221.7324940920491
  0
SPLINE
  5
D0
330
2
100
AcDbEntity
  8
0
370
    18
100
AcDbSpline
210
0.0
220
0.0
230
1.0
 70
     8
 71
     3
 72
     9
 73
     5
 74
     0
 42
0.000000001
 43
0.0000000001
 40
0.0
 40
0.0
 40
0.0
 40
0.0
 40
0.4930007140390674
 40
1.0
 40
1.0
 40
1.0
 40
1.0
 10
-2775.49004604886
 20
-43.70317442823425
 30
0.0
 10
-2775.488366289296
 20
-43.71564365759533
 30
0.0
 10
-2775.484959074019
 20
-43.74093617544779
 30
0.0
 10
-2775.475822866451
 20
-43.76110743666536
 30
0.0
 10
-2775.471190815738
 20
-43.77133425169957
 30
0.0
  0
SPLINE
  5
D1
330
2
100
AcDbEntity
  8
0
370
    18
100
AcDbSpline
210
0.0
220
0.0
230
1.0
 70
     8
 71
     3
 72
     9
 73
     5
 74
     0
 42
0.000000001
 43
0.0000000001
 40
0.0
 40
0.0
 40
0.0
 40
0.0
 40
0.4999999874128728
 40
1.0
 40
1.0
 40
1.0
 40
1.0
 10
-2775.451037464942
 20
-43.78296853802335
 30
0.0
 10
-2775.454454239156
 20
-43.78124407290593
 30
0.0
 10
-2775.461287787756
 20
-43.77779514258427
 30
0.0
 10
-2775.467889804396
 20
-43.77348788616258
 30
0.0
 10
-2775.4711908128
 20
-43.77133425789755
 30
0.0
  0
LWPOLYLINE
  5
D2
330
2
100
AcDbEntity
  8
0
370
    18
100
AcDbPolyline
 90
       18
 70
   128
 43
0.0
 10
-2775.279089322709
 20
-43.80256170573177
 10
-2775.276465160249
 20
-43.80133346213827
 10
-2775.261831131723
 20
-43.79156889320651
 10
-2775.249711207876
 20
-43.77803774160189
 10
-2775.240376127699
 20
-43.76104227084154
 10
-2775.234034421565
 20
-43.74096213171912
 10
-2775.230827752689
 20
-43.71824588129692
 10
-2775.230827752689
 20
-43.69340096312758
 10
-2775.234034421565
 20
-43.66698237159567
 10
-2775.240376127699
 20
-43.63958025438837
 10
-2775.249711207876
 20
-43.61180672955611
 10
-2775.261831131723
 20
-43.5842822117141
 10
-2775.276465160249
 20
-43.55762155310253
 10
-2775.293286393436
 20
-43.53242030877225
 10
-2775.311919072702
 20
-43.50924143289378
 10
-2775.331946974823
 20
-43.48860270324126
 10
-2775.352922709484
 20
-43.47096515496571
 10
-2775.370097896724
 20
-43.45926695092863
  0
LINE
  5
D3
330
2
100
AcDbEntity
  8
0
370
    18
100
AcDbLine
 10
-2775.471190814112
 20
-43.56308279896639
 30
0.0
 11
-2775.45739676447
 21
-43.59829327296973
 31
0.0
  0
LINE
  5
D4
330
2
100
AcDbEntity
  8
0
370
    18
100
AcDbLine
 10
-2775.472298826589
 20
-43.65621199846391
 30
0.0
 11
-2775.468287574625
 21
-43.653896352031
 31
0.0
  0
LINE
  5
D5
330
2
100
AcDbEntity
  8
0
370
    18
100
AcDbLine
 10
-2775.490046050265
 20
-43.65301241910067
 30
0.0
 11
-2775.472298826589
 21
-43.65621199846391
 31
0.0
  0
LINE
  5
D6
330
2
100
AcDbEntity
  8
0
370
    18
100
AcDbLine
 10
-2775.370943494287
 20
-43.7367162419907
 30
0.0
 11
-2775.393943705261
 21
-43.70791263679494
 31
0.0
  0
LINE
  5
D7
330
2
100
AcDbEntity
  8
0
370
    18
100
AcDbLine
 10
-2775.45824976628
 20
-43.70808519698809
 30
0.0
 11
-2775.452145479271
 21
-43.69111861998263
 31
0.0
  0
LINE
  5
D8
330
2
100
AcDbEntity
  8
0
370
    18
100
AcDbLine
 10
-2775.452145479271
 20
-43.69111861998263
 30
0.0
 11
-2775.448692923291
 21
-43.68912550184073
 31
0.0
  0
LINE
  5
D9
330
2
100
AcDbEntity
  8
0
370
    18
100
AcDbLine
 10
-2775.469892701726
 20
-43.7148087055191
 30
0.0
 11
-2775.452145479271
 21
-43.69111861998263
 31
0.0
  0
LINE
  5
DA
330
2
100
AcDbEntity
  8
0
370
    18
100
AcDbLine
 10
-2775.501688984548
 20
-43.65973592838781
 30
0.0
 11
-2775.472298826589
 21
-43.65621199846391
 31
0.0
  0
LINE
  5
DB
330
2
100
AcDbEntity
  8
0
370
    18
100
AcDbLine
 10
-2775.448981415931
 20
-43.68900046456002
 30
0.0
 11
-2775.449074577307
 21
-43.6893458259845
 31
0.0
  0
LINE
  5
DC
330
2
100
AcDbEntity
  8
0
370
    18
100
AcDbLine
 10
-2775.464349877231
 20
-43.745973814954
 30
0.0
 11
-2775.471190814287
 21
-43.77133425477073
 31
0.0
  0
LINE
  5
DD
330
2
100
AcDbEntity
  8
0
370
    18
100
AcDbLine
 10
-2775.472298826589
 20
-43.6794843401573
 30
0.0
 11
-2775.490046049974
 21
-43.70317442685709
 31
0.0
  0
LINE
  5
DE
330
2
100
AcDbEntity
  8
0
370
    18
100
AcDbLine
 10
-2775.463036723515
 20
-43.6741374418446
 30
0.0
 11
-2775.472298826589
 21
-43.6794843401573
 31
0.0
  0
LINE
  5
DF
330
2
100
AcDbEntity
  8
0
370
    18
100
AcDbLine
 10
-2775.46840215507
 20
-43.65466375486291
 30
0.0
 11
-2775.469233616535
 21
-43.65444249035609
 31
0.0
  0
LINE
  5
E0
330
2
100
AcDbEntity
  8
0
370
    18
100
AcDbLine
 10
-2775.524411495506
 20
-43.63975882093444
 30
0.0
 11
-2775.55128476725
 21
-43.63260743623157
 31
0.0
  0
LINE
  5
E1
330
2
100
AcDbEntity
  8
0
370
    18
100
AcDbLine
 10
-2775.472298826589
 20
-43.6794843401573
 30
0.0
 11
-2775.501688984548
 21
-43.68300827008122
 31
0.0
  0
LINE
  5
E2
330
2
100
AcDbEntity
  8
0
370
    18
100
AcDbLine
 10
-2778.164867929808
 20
-44.83675392918084
 30
0.0
 11
-2778.162943166001
 21
-44.83624899768351
 31
0.0
  0
LWPOLYLINE
  5
E3
330
2
100
AcDbEntity
  8
0
370
    18
100
AcDbPolyline
 90
       29
 70
   128
 43
0.0
 10
-2778.22463684059
 20
-44.81592828156739
 10
-2778.210248980807
 20
-44.8223622038289
 10
-2778.196582588456
 20
-44.82472947757068
 10
-2778.184322953431
 20
-44.82291139788306
 10
-2778.174084825018
 20
-44.81699913083001
 10
-2778.166381585767
 20
-44.8072891421576
 10
-2778.161599508216
 20
-44.79426833121709
 10
-2778.159978385753
 20
-44.77858961590224
 10
-2778.161599508216
 20
-44.76103919246203
 10
-2778.166381585767
 20
-44.742497112321
 10
-2778.174084825018
 20
-44.72389315289574
 10
-2778.184322953431
 20
-44.70616019438788
 10
-2778.196582588456
 20
-44.69018744139119
 10
-2778.210248980807
 20
-44.67677583437463
 10
-2778.22463684059
 20
-44.66659788733418
 10
-2778.239024700373
 20
-44.66016396507268
 10
-2778.252691092724
 20
-44.6577966913309
 10
-2778.264950727749
 20
-44.65961477101852
 10
-2778.275188856162
 20
-44.66552703807155
 10
-2778.282892095413
 20
-44.675237026744
 10
-2778.287674172964
 20
-44.68825783768447
 10
-2778.289295295427
 20
-44.70393655299936
 10
-2778.287674172964
 20
-44.72148697649768
 10
-2778.282892095413
 20
-44.74002905658056
 10
-2778.275188856162
 20
-44.75863301600584
 10
-2778.264950727749
 20
-44.77636597451371
 10
-2778.252691092724
 20
-44.7923387275104
 10
-2778.239024700373
 20
-44.80575033452694
 10
-2778.22463684059
 20
-44.81592828156739
  0
LWPOLYLINE
  5
E4
330
2
100
AcDbEntity
  8
0
370
    18
100
AcDbPolyline
 90
       21
 70
   128
 43
0.0
 10
-2778.22463684059
 20
-44.77925874437024
 10
-2778.214469123306
 20
-44.78326880260245
 10
-2778.205296693069
 20
-44.78316704854051
 10
-2778.1980174112
 20
-44.7789634424594
 10
-2778.193343824508
 20
-44.77106946272153
 10
-2778.191733416321
 20
-44.76025782698122
 10
-2778.193343824508
 20
-44.74758685348155
 10
-2778.1980174112
 20
-44.7342968654124
 10
-2778.205296693069
 20
-44.72168877943926
 10
-2778.214469123306
 20
-44.71099676273889
 10
-2778.22463684059
 20
-44.70326742458951
 10
-2778.234804557874
 20
-44.69925736629913
 10
-2778.243976988111
 20
-44.69935912036105
 10
-2778.25125626998
 20
-44.70356272644219
 10
-2778.255929856672
 20
-44.71145670618001
 10
-2778.25754026486
 20
-44.72226834192038
 10
-2778.255929856672
 20
-44.73493931542003
 10
-2778.25125626998
 20
-44.7482293034892
 10
-2778.243976988111
 20
-44.76083738952051
 10
-2778.234804557874
 20
-44.77152940616266
 10
-2778.22463684059
 20
-44.77925874437024
  0
LINE
  5
E5
330
2
100
AcDbEntity
  8
0
370
    18
100
AcDbLine
 10
-2778.207634227328
 20
-44.57697505192807
 30
0.0
 11
-2778.208870517083
 21
-44.57771562751204
 31
0.0
  0
LWPOLYLINE
  5
E6
330
2
100
AcDbEntity
  8
0
370
    18
100
AcDbPolyline
 90
        3
 70
   128
 43
0.0
 10
-2778.2040722004
 20
-44.767387030296
 10
-2778.193904483174
 20
-44.77139708852821
 10
-2778.193484974761
 20
-44.77147825802191
  0
ARC
  5
E7
330
2
100
AcDbEntity
  8
0
370
    18
100
AcDbCircle
 10
-2778.171387762873
 20
-44.71124111776191
 30
0.0
 40
0.0649664216868152
100
AcDbArc
 50
169.2974641362225
 51
239.7948655179003
  0
LINE
  5
E8
330
2
100
AcDbEntity
  8
0
370
    18
100
AcDbLine
 10
-2779.209380988422
 20
-44.23363009242997
 30
0.0
 11
-2779.207626886459
 21
-44.23316592285186
 31
0.0
  0
LWPOLYLINE
  5
E9
330
2
100
AcDbEntity
  8
0
370
    18
100
AcDbPolyline
 90
       29
 70
   128
 43
0.0
 10
-2779.269320561047
 20
-44.06351481250253
 10
-2779.283708420831
 20
-44.05708089024102
 10
-2779.297374813181
 20
-44.05471361644109
 10
-2779.309634448265
 20
-44.05653169618688
 10
-2779.31987257662
 20
-44.06244396323991
 10
-2779.32757581587
 20
-44.07215395191234
 10
-2779.332357893421
 20
-44.08517476285284
 10
-2779.333979015884
 20
-44.10085347816772
 10
-2779.332357893421
 20
-44.11840390160789
 10
-2779.32757581587
 20
-44.13694598174892
 10
-2779.31987257662
 20
-44.1555499411742
 10
-2779.309634448265
 20
-44.17328289968206
 10
-2779.297374813181
 20
-44.18925565267876
 10
-2779.283708420831
 20
-44.2026672596953
 10
-2779.269320561047
 20
-44.21284520673575
 10
-2779.254932701322
 20
-44.21927912899725
 10
-2779.241266308913
 20
-44.22164640273905
 10
-2779.229006673888
 20
-44.21982832305141
 10
-2779.218768545475
 20
-44.21391605599838
 10
-2779.211065306224
 20
-44.20420606732595
 10
-2779.206283228674
 20
-44.19118525638549
 10
-2779.204662106211
 20
-44.1755065410706
 10
-2779.206283228674
 20
-44.15795611757222
 10
-2779.211065306224
 20
-44.13941403748935
 10
-2779.218768545475
 20
-44.12081007806408
 10
-2779.229006673888
 20
-44.10307711955624
 10
-2779.241266308913
 20
-44.08710436655954
 10
-2779.254932701322
 20
-44.07369275954297
 10
-2779.269320561047
 20
-44.06351481250253
  0
LWPOLYLINE
  5
EA
330
2
100
AcDbEntity
  8
0
370
    18
100
AcDbPolyline
 90
       21
 70
   128
 43
0.0
 10
-2779.269320561047
 20
-44.1001843496997
 10
-2779.279488278332
 20
-44.0961742914675
 10
-2779.288660708568
 20
-44.09627604552942
 10
-2779.295939990437
 20
-44.10047965155238
 10
-2779.30061357713
 20
-44.10837363134838
 10
-2779.302223985317
 20
-44.11918526708873
 10
-2779.30061357713
 20
-44.13185624058839
 10
-2779.295939990437
 20
-44.14514622865754
 10
-2779.288660708568
 20
-44.15775431463069
 10
-2779.279488278332
 20
-44.16844633133102
 10
-2779.269320561047
 20
-44.17617566948043
 10
-2779.259152843763
 20
-44.18018572777079
 10
-2779.249980413526
 20
-44.18008397370889
 10
-2779.242701131657
 20
-44.17588036762774
 10
-2779.238027545023
 20
-44.16798638788994
 10
-2779.236417136778
 20
-44.15717475214957
 10
-2779.238027545023
 20
-44.1445037786499
 10
-2779.242701131657
 20
-44.13121379058075
 10
-2779.249980413526
 20
-44.11860570454942
 10
-2779.259152843763
 20
-44.10791368790728
 10
-2779.269320561047
 20
-44.1001843496997
  0
LINE
  5
EB
330
2
100
AcDbEntity
  8
0
370
    18
100
AcDbLine
 10
-2779.118547971873
 20
-44.20561347942117
 30
0.0
 11
-2779.117311682176
 21
-44.2048729038372
 31
0.0
  0
ARC
  5
EC
330
2
100
AcDbEntity
  8
0
370
    18
100
AcDbCircle
 10
-2779.219851253071
 20
-44.1096219841228
 30
0.0
 40
0.06156111288992
100
AcDbArc
 50
167.3020143487202
 51
252.6926283665353
  0
LINE
  5
ED
330
2
100
AcDbEntity
  8
0
370
    18
100
AcDbLine
 10
-2733.417112897985
 20
-19.75489928003986
 30
0.0
 11
-2733.399777884104
 21
-19.7448919894911
 31
0.0
  0
SPLINE
  5
EE
330
2
100
AcDbEntity
  8
0
370
    18
100
AcDbSpline
210
0.0
220
0.0
230
1.0
 70
     8
 71
     3
 72
    12
 73
     8
 74
     0
 42
0.000000001
 43
0.0000000001
 40
0.0
 40
0.0
 40
0.0
 40
0.0
 40
0.2500000000000003
 40
0.2500000000000003
 40
0.5000000000000006
 40
0.5000000000000006
 40
1.0
 40
1.0
 40
1.0
 40
1.0
 10
-2733.300553672824
 20
-19.61304258760861
 30
0.0
 10
-2733.302472146849
 20
-19.62446743145247
 30
0.0
 10
-2733.3065958573
 20
-19.63672264756745
 30
0.0
 10
-2733.318750474103
 20
-19.66193607403222
 30
0.0
 10
-2733.326713108506
 20
-19.67468669589796
 30
0.0
 10
-2733.354377436508
 20
-19.71091729722274
 30
0.0
 10
-2733.377940502757
 20
-19.73228553760153
 30
0.0
 10
-2733.39977788409
 20
-19.74489198950896
 30
0.0
  0
ELLIPSE
  5
EF
330
2
100
AcDbEntity
  8
0
370
    18
100
AcDbEllipse
 10
-2734.403368423547
 20
-18.75822446847555
 30
0.0
 11
-0.7815803720726242
 21
1.378045436946669
 31
0.0
210
0.0
220
0.0
230
1.0
 40
0.5823970823
 41
3.763522625398887
 42
3.867712278359448
  0
LINE
  5
F0
330
2
100
AcDbEntity
  8
0
370
    18
100
AcDbLine
 10
-2729.385233269791
 20
-17.23453818130418
 30
0.0
 11
-2733.286052002624
 21
-19.48643290282226
 31
0.0
  0
ELLIPSE
  5
F1
330
2
100
AcDbEntity
  8
0
370
    18
100
AcDbEllipse
 10
-2730.502572575149
 20
-16.50634295781623
 30
0.0
 11
-0.7819683163768876
 21
1.377822803039368
 31
0.0
210
0.0
220
0.0
230
1.0
 40
0.5822137395000002
 41
3.145867734617464
 42
3.149113186086494
  0
LINE
  5
F2
330
2
100
AcDbEntity
  8
0
370
    18
100
AcDbLine
 10
-2733.29428488665
 20
-19.36669859273151
 30
0.0
 11
-2733.278884231163
 21
-19.37558920192062
 31
0.0
  0
LINE
  5
F3
330
2
100
AcDbEntity
  8
0
370
    18
100
AcDbLine
 10
-2733.278884231163
 20
-19.37558920192062
 30
0.0
 11
-2733.286052002624
 21
-19.48643290282226
 31
0.0
  0
LINE
  5
F4
330
2
100
AcDbEntity
  8
0
370
    18
100
AcDbLine
 10
-2733.392446315561
 20
-19.55999409414006
 30
0.0
 11
-2733.300553672799
 21
-19.61304258760128
 31
0.0
  0
LINE
  5
F5
330
2
100
AcDbEntity
  8
0
370
    18
100
AcDbLine
 10
-2733.294287990191
 20
-19.36655878621966
 30
0.0
 11
-2733.29428488665
 21
-19.36669859273151
 31
0.0
  0
LINE
  5
F6
330
2
100
AcDbEntity
  8
0
370
    18
100
AcDbLine
 10
-2729.39347243919
 20
-17.11480749969903
 30
0.0
 11
-2733.29428488665
 21
-19.36669859273151
 31
0.0
  0
LINE
  5
F7
330
2
100
AcDbEntity
  8
0
370
    18
100
AcDbLine
 10
-2729.37806549833
 20
-17.12369448034441
 30
0.0
 11
-2733.278884231163
 21
-19.37558920192062
 31
0.0
  0
LINE
  5
F8
330
2
100
AcDbEntity
  8
0
370
    18
100
AcDbLine
 10
-2729.385233269791
 20
-17.23453818130418
 30
0.0
 11
-2729.37806549833
 21
-17.12369448034441
 31
0.0
  0
ELLIPSE
  5
F9
330
2
100
AcDbEntity
  8
0
370
    18
100
AcDbEllipse
 10
-2729.418195124475
 20
-17.10057012109214
 30
0.0
 11
0.0349418840855488
 21
0.0
 31
0.0
210
0.0
220
0.0
230
1.0
 40
0.5765850178000002
 41
5.498396131368071
 42
5.598103909585227
  0
ELLIPSE
  5
FA
330
2
100
AcDbEntity
  8
0
370
    18
100
AcDbEllipse
 10
-2729.41930151419
 20
-17.09991585689781
 30
0.0
 11
0.0582421809060334
 21
-0.0001006718521746
 31
0.0
210
0.0
220
0.0
230
1.0
 40
0.5769643078000001
 41
5.500061346220669
 42
6.533408129092581
  0
SPLINE
  5
FB
330
2
100
AcDbEntity
  8
0
370
    18
100
AcDbSpline
210
0.0
220
0.0
230
1.0
 70
     8
 71
     3
 72
     9
 73
     5
 74
     0
 42
0.000000001
 43
0.0000000001
 40
0.0
 40
0.0
 40
0.0
 40
0.0
 40
0.3837970127141949
 40
1.0
 40
1.0
 40
1.0
 40
1.0
 10
-2733.406037011176
 20
-19.59587791099549
 30
0.0
 10
-2733.403374186345
 20
-19.59107171091031
 30
0.0
 10
-2733.396436079109
 20
-19.57854894516173
 30
0.0
 10
-2733.393967476117
 20
-19.56706842495945
 30
0.0
 10
-2733.392446315578
 20
-19.55999409411515
 30
0.0
  0
SPLINE
  5
FC
330
2
100
AcDbEntity
  8
0
370
    18
100
AcDbSpline
210
0.0
220
0.0
230
1.0
 70
     8
 71
     3
 72
    24
 73
    20
 74
     0
 42
0.000000001
 43
0.0000000001
 40
0.0
 40
0.0
 40
0.0
 40
0.0
 40
0.0625
 40
0.0625
 40
0.1249999999999999
 40
0.1249999999999999
 40
0.25
 40
0.25
 40
0.3750000000000001
 40
0.3750000000000001
 40
0.5000000000000001
 40
0.5000000000000001
 40
0.6250000000000002
 40
0.6250000000000002
 40
0.7500000000000001
 40
0.7500000000000001
 40
0.8750000000000001
 40
0.8750000000000001
 40
1.0
 40
1.0
 40
1.0
 40
1.0
 10
-2733.457754900688
 20
-19.13627687392827
 30
0.0
 10
-2733.464824539273
 20
-19.10634597259011
 30
0.0
 10
-2733.472640748069
 20
-19.07610830506947
 30
0.0
 10
-2733.489524189735
 20
-19.01592797423927
 30
0.0
 10
-2733.498613492559
 20
-18.9858827676134
 30
0.0
 10
-2733.527788335391
 20
-18.89587953785977
 30
0.0
 10
-2733.549773753085
 20
-18.83605341494189
 30
0.0
 10
-2733.598801121152
 20
-18.71675222208552
 30
0.0
 10
-2733.62588422234
 20
-18.65719391870921
 30
0.0
 10
-2733.685150778311
 20
-18.53879595613506
 30
0.0
 10
-2733.716907655792
 20
-18.48073498665605
 30
0.0
 10
-2733.784339014937
 20
-18.36722229840974
 30
0.0
 10
-2733.820185470437
 20
-18.31151868201884
 30
0.0
 10
-2733.895373878228
 20
-18.20350380294019
 30
0.0
 10
-2733.934340040289
 20
-18.1517006528698
 30
0.0
 10
-2734.01492455735
 20
-18.05235535552142
 30
0.0
 10
-2734.056543069625
 20
-18.00481353379115
 30
0.0
 10
-2734.142463553641
 20
-17.9140414429315
 30
0.0
 10
-2734.187073968159
 20
-17.8705551874064
 30
0.0
 10
-2734.232062379486
 20
-17.83024450356877
 30
0.0
  0
SPLINE
  5
FD
330
2
100
AcDbEntity
  8
0
370
    18
100
AcDbSpline
210
0.0
220
0.0
230
1.0
 70
     8
 71
     3
 72
    20
 73
    16
 74
     0
 42
0.000000001
 43
0.0000000001
 40
0.0
 40
0.0
 40
0.0
 40
0.0
 40
0.0156250000000001
 40
0.0156250000000001
 40
0.0312500000000002
 40
0.0312500000000002
 40
0.0625000000000003
 40
0.0625000000000003
 40
0.1250000000000004
 40
0.1250000000000004
 40
0.2500000000000003
 40
0.2500000000000003
 40
0.5
 40
0.5
 40
1.0
 40
1.0
 40
1.0
 40
1.0
 10
-2733.369758496872
 20
-19.41012698233187
 30
0.0
 10
-2733.371064877655
 20
-19.41088091410244
 30
0.0
 10
-2733.37225013751
 20
-19.41039883266743
 30
0.0
 10
-2733.37412147605
 20
-19.40901310269248
 30
0.0
 10
-2733.37490621225
 20
-19.40805797584013
 30
0.0
 10
-2733.377061544532
 20
-19.4050241447983
 30
0.0
 10
-2733.378264554862
 20
-19.40269430114513
 30
0.0
 10
-2733.381678916304
 20
-19.39547434339396
 30
0.0
 10
-2733.383648681271
 20
-19.39033457766826
 30
0.0
 10
-2733.389385002589
 20
-19.37462248067669
 30
0.0
 10
-2733.392921051626
 20
-19.36368732450132
 30
0.0
 10
-2733.403467830136
 20
-19.33043334749761
 30
0.0
 10
-2733.410351912472
 20
-19.30758493673761
 30
0.0
 10
-2733.431174886797
 20
-19.23743935216777
 30
0.0
 10
-2733.445450640656
 20
-19.1883697197806
 30
0.0
 10
-2733.457754900688
 20
-19.13627687392827
 30
0.0
  0
LINE
  5
FE
330
2
100
AcDbEntity
  8
0
370
    18
100
AcDbLine
 10
-2733.369758496885
 20
-19.41012698237091
 30
0.0
 11
-2733.407825199437
 21
-19.43210242198747
 31
0.0
  0
LINE
  5
FF
330
2
100
AcDbEntity
  8
0
370
    18
100
AcDbLine
 10
-2733.407825199437
 20
-19.43210242198747
 30
0.0
 11
-2733.654600881429
 21
-19.57456299087832
 31
0.0
  0
LWPOLYLINE
  5
100
330
2
100
AcDbEntity
  8
0
370
    18
100
AcDbPolyline
 90
       49
 70
   128
 43
0.0
 10
-2733.654600881429
 20
-19.57456299087832
 10
-2733.662353401647
 20
-19.50091263043742
 10
-2733.673292875633
 20
-19.42599905091261
 10
-2733.687388103364
 20
-19.35003590985722
 10
-2733.70459888451
 20
-19.27323985814195
 10
-2733.724876133019
 20
-19.19582992206185
 10
-2733.748162017115
 20
-19.11802687881241
 10
-2733.774390124263
 20
-19.04005262684724
 10
-2733.803485650553
 20
-18.9621295528036
 10
-2733.835365613936
 20
-18.88447989732316
 10
-2733.869939091071
 20
-18.80732512133796
 10
-2733.907107476692
 20
-18.73088527433392
 10
-2733.946764764542
 20
-18.65537836674405
 10
-2733.988797849951
 20
-18.58101974827491
 10
-2734.033086852308
 20
-18.50802149356161
 10
-2734.079505457192
 20
-18.43659179747822
 10
-2734.12792127618
 20
-18.3669343813255
 10
-2734.178196224869
 20
-18.29924791158207
 10
-2734.230186916423
 20
-18.23372543377887
 10
-2734.283745070651
 20
-18.17055382132191
 10
-2734.338717936988
 20
-18.10991324304473
 10
-2734.394948729806
 20
-18.05197664908251
 10
-2734.452277075997
 20
-17.99690927756998
 10
-2734.5105394721
 20
-17.94486818355818
 10
-2734.569569750727
 20
-17.89600179102311
 10
-2734.629199554381
 20
-17.85044946942042
 10
-2734.689258815728
 20
-17.8083411364725
 10
-2734.749576242586
 20
-17.76979688724649
 10
-2734.809979806512
 20
-17.73492665202446
 10
-2734.870297233428
 20
-17.70382988249992
 10
-2734.930356494776
 20
-17.67659526833704
 10
-2734.989986298371
 20
-17.65330048409211
 10
-2735.049016576998
 20
-17.63401196766078
 10
-2735.107278973101
 20
-17.61878473094927
 10
-2735.164607319293
 20
-17.60766220282706
 10
-2735.22083811211
 20
-17.60067610535062
 10
-2735.275810978447
 20
-17.59784636319966
 10
-2735.329369132733
 20
-17.5991810469655
 10
-2735.381359824287
 20
-17.6046763500015
 10
-2735.431634772918
 20
-17.61431659953219
 10
-2735.480050591907
 20
-17.62807430097595
 10
-2735.52646919679
 20
-17.64591021664273
 10
-2735.570758199206
 20
-17.66777347764472
 10
-2735.612791284615
 20
-17.69360172872872
 10
-2735.652448572406
 20
-17.72332130637909
 10
-2735.689616958028
 20
-17.75684744879555
 10
-2735.724190435221
 20
-17.7940845376875
 10
-2735.756070398604
 20
-17.83492637089615
 10
-2735.764140783745
 20
-17.8464640086584
  0
SPLINE
  5
101
330
2
100
AcDbEntity
  8
0
370
    18
100
AcDbSpline
210
0.0
220
0.0
230
1.0
 70
     8
 71
     3
 72
    14
 73
    10
 74
     0
 42
0.000000001
 43
0.0000000001
 40
0.0
 40
0.0
 40
0.0
 40
0.0
 40
0.1389607487985962
 40
0.2786421305991524
 40
0.4205671077456178
 40
0.5632601269915885
 40
0.7147571389216024
 40
0.8671895515932421
 40
1.0
 40
1.0
 40
1.0
 40
1.0
 10
-2734.833942244693
 20
-17.48278665323254
 30
0.0
 10
-2734.859852002949
 20
-17.4767587456816
 30
0.0
 10
-2734.911805884216
 20
-17.46467167060772
 30
0.0
 10
-2734.987838256063
 20
-17.45595554196494
 30
0.0
 10
-2735.062242498524
 20
-17.45437304350164
 30
0.0
 10
-2735.135806326971
 20
-17.46088288141949
 30
0.0
 10
-2735.207520327512
 20
-17.47621515912099
 30
0.0
 10
-2735.274150199592
 20
-17.49886078833931
 30
0.0
 10
-2735.313897691292
 20
-17.52065481211152
 30
0.0
 10
-2735.33240431465
 20
-17.53080221442989
 30
0.0
  0
SPLINE
  5
102
330
2
100
AcDbEntity
  8
0
370
    18
100
AcDbSpline
210
0.0
220
0.0
230
1.0
 70
     8
 71
     3
 72
    12
 73
     8
 74
     0
 42
0.000000001
 43
0.0000000001
 40
0.0
 40
0.0
 40
0.0
 40
0.0
 40
0.2499999999999999
 40
0.2499999999999999
 40
0.5
 40
0.5
 40
1.0
 40
1.0
 40
1.0
 40
1.0
 10
-2734.833942244693
 20
-17.48278665323254
 30
0.0
 10
-2734.80911655758
 20
-17.48920536420598
 30
0.0
 10
-2734.782538066043
 20
-17.49575787111219
 30
0.0
 10
-2734.72735773166
 20
-17.51002037809139
 30
0.0
 10
-2734.69888955067
 20
-17.51766966284966
 30
0.0
 10
-2734.612124076214
 20
-17.54274260944433
 30
0.0
 10
-2734.552338118074
 20
-17.56231288889354
 30
0.0
 10
-2734.49223042588
 20
-17.58589835772304
 30
0.0
  0
SPLINE
  5
103
330
2
100
AcDbEntity
  8
0
370
    18
100
AcDbSpline
210
0.0
220
0.0
230
1.0
 70
     8
 71
     3
 72
    12
 73
     8
 74
     0
 42
0.000000001
 43
0.0000000001
 40
0.0
 40
0.0
 40
0.0
 40
0.0
 40
0.25
 40
0.25
 40
0.5
 40
0.5
 40
1.0
 40
1.0
 40
1.0
 40
1.0
 10
-2734.232062379486
 20
-17.83024450356805
 30
0.0
 10
-2734.256888106278
 20
-17.80800006340669
 30
0.0
 10
-2734.28018681518
 20
-17.78575907538693
 30
0.0
 10
-2734.325371110788
 20
-17.74208231474432
 30
0.0
 10
-2734.347086937634
 20
-17.72076098843559
 30
0.0
 10
-2734.41076515986
 20
-17.6589846375743
 30
0.0
 10
-2734.45137476875
 20
-17.62059778982805
 30
0.0
 10
-2734.49223042588
 20
-17.58589835772317
 30
0.0
  0
LINE
  5
104
330
2
100
AcDbEntity
  8
0
370
    18
100
AcDbLine
 10
-2733.654600881429
 20
-19.57456299087832
 30
0.0
 11
-2733.658827680398
 21
-19.85175243346657
 31
0.0
  0
ARC
  5
105
330
2
100
AcDbEntity
  8
0
370
    18
100
AcDbCircle
 10
-2734.133240243029
 20
-19.84584433583907
 30
0.0
 40
0.4744493494499674
100
AcDbArc
 50
351.0999029681054
 51
359.2865038017003
  0
ARC
  5
106
330
2
100
AcDbEntity
  8
0
370
    18
100
AcDbCircle
 10
-2734.298317529741
 20
-19.88611884222108
 30
0.0
 40
0.6346792771906692
100
AcDbArc
 50
276.826453902384
 51
357.0079566514015
  0
SPLINE
  5
107
330
2
100
AcDbEntity
  8
0
370
    18
100
AcDbSpline
210
0.0
220
0.0
230
1.0
 70
     8
 71
     3
 72
    11
 73
     7
 74
     0
 42
0.000000001
 43
0.0000000001
 40
0.0
 40
0.0
 40
0.0
 40
0.0
 40
0.0010000000990675
 40
0.0010000000990675
 40
0.0010000000990675
 40
0.0028313396888577
 40
0.0028313396888577
 40
0.0028313396888577
 40
0.0028313396888577
 10
-2733.99834910541
 20
-17.96422583829345
 30
0.0
 10
-2734.025896462782
 20
-17.94847102755088
 30
0.0
 10
-2734.05343121811
 20
-17.93270887080648
 30
0.0
 10
-2734.080954725612
 20
-17.91694017467212
 30
0.0
 10
-2734.131359601386
 20
-17.8880623447044
 30
0.0
 10
-2734.1817270845
 20
-17.85916275185394
 30
0.0
 10
-2734.232062379486
 20
-17.83024450356805
 30
0.0
  0
SPLINE
  5
108
330
2
100
AcDbEntity
  8
0
370
    18
100
AcDbSpline
210
0.0
220
0.0
230
1.0
 70
     8
 71
     3
 72
    26
 73
    22
 74
     0
 42
0.000000001
 43
0.0000000001
 40
0.0
 40
0.0
 40
0.0
 40
0.0
 40
0.1249999999999999
 40
0.1249999999999999
 40
0.1874999999999999
 40
0.1874999999999999
 40
0.2499999999999999
 40
0.2499999999999999
 40
0.3749999999999998
 40
0.3749999999999998
 40
0.4999999999999997
 40
0.4999999999999997
 40
0.6249999999999993
 40
0.6249999999999993
 40
0.6874999999999994
 40
0.6874999999999994
 40
0.7499999999999996
 40
0.7499999999999996
 40
0.8749999999999996
 40
0.8749999999999996
 40
1.0
 40
1.0
 40
1.0
 40
1.0
 10
-2733.463778190218
 20
-18.86873617376195
 30
0.0
 10
-2733.464694656006
 20
-18.82802886631871
 30
0.0
 10
-2733.468942669639
 20
-18.78622930441282
 30
0.0
 10
-2733.480106279704
 20
-18.72195902954706
 30
0.0
 10
-2733.484631775122
 20
-18.70027191586952
 30
0.0
 10
-2733.49532461028
 20
-18.65635940664875
 30
0.0
 10
-2733.501528403542
 20
-18.63403534214225
 30
0.0
 10
-2733.522263006253
 20
-18.56758434884639
 30
0.0
 10
-2733.538953637121
 20
-18.52363775588696
 30
0.0
 10
-2733.57798385599
 20
-18.43644206898341
 30
0.0
 10
-2733.600581321278
 20
-18.39283534506281
 30
0.0
 10
-2733.64978504281
 20
-18.30977942785629
 30
0.0
 10
-2733.676519314258
 20
-18.26997840941953
 30
0.0
 10
-2733.719770627622
 20
-18.21284425023237
 30
0.0
 10
-2733.734794454289
 20
-18.19414780231051
 30
0.0
 10
-2733.765337538305
 20
-18.15835327244633
 30
0.0
 10
-2733.780899142386
 20
-18.1411881303418
 30
0.0
 10
-2733.828435491855
 20
-18.0918413811932
 30
0.0
 10
-2733.86125368333
 20
-18.06178831666356
 30
0.0
 10
-2733.929237309773
 20
-18.00759760198381
 30
0.0
 10
-2733.963661321911
 20
-17.98406438239515
 30
0.0
 10
-2733.99834910541
 20
-17.96422583829345
 30
0.0
  0
LINE
  5
109
330
2
100
AcDbEntity
  8
0
370
    18
100
AcDbLine
 10
-2733.457754900706
 20
-19.13627687394851
 30
0.0
 11
-2733.463778190216
 21
-18.86873617376454
 31
0.0
  0
ARC
  5
10A
330
2
100
AcDbEntity
  8
0
370
    18
100
AcDbCircle
 10
-2733.908593040766
 20
-17.96874504577137
 30
0.0
 40
0.0898697633892555
100
AcDbArc
 50
122.9045815182198
 51
177.1175982189032
  0
SPLINE
  5
10B
330
2
100
AcDbEntity
  8
0
370
    18
100
AcDbSpline
210
0.0
220
0.0
230
1.0
 70
     8
 71
     3
 72
    26
 73
    22
 74
     0
 42
0.000000001
 43
0.0000000001
 40
0.0
 40
0.0
 40
0.0
 40
0.0
 40
0.125
 40
0.125
 40
0.25
 40
0.25
 40
0.3125
 40
0.3125
 40
0.375
 40
0.375
 40
0.5
 40
0.5
 40
0.625
 40
0.625
 40
0.75
 40
0.75
 40
0.8125
 40
0.8125
 40
0.875
 40
0.875
 40
1.0
 40
1.0
 40
1.0
 40
1.0
 10
-2733.957414033625
 20
-17.89329251081593
 30
0.0
 10
-2733.920080032193
 20
-17.91465873221507
 30
0.0
 10
-2733.883029166771
 20
-17.94000520161661
 30
0.0
 10
-2733.809859903819
 20
-17.99837314546975
 30
0.0
 10
-2733.774539947951
 20
-18.03074314938824
 30
0.0
 10
-2733.7233828953
 20
-18.08389614795176
 30
0.0
 10
-2733.706636539758
 20
-18.1023855785624
 30
0.0
 10
-2733.673769425031
 20
-18.14094269828227
 30
0.0
 10
-2733.657603603717
 20
-18.16108206920549
 30
0.0
 10
-2733.611069588929
 20
-18.22262442203372
 30
0.0
 10
-2733.582308070806
 20
-18.26549406180011
 30
0.0
 10
-2733.529350472214
 20
-18.35492916843633
 30
0.0
 10
-2733.505027569299
 20
-18.40187937576717
 30
0.0
 10
-2733.463010597371
 20
-18.49575453056484
 30
0.0
 10
-2733.445038733816
 20
-18.54306554200536
 30
0.0
 10
-2733.422705689959
 20
-18.61460079620446
 30
0.0
 10
-2733.416022376299
 20
-18.63863195318823
 30
0.0
 10
-2733.404499980881
 20
-18.68590100066511
 30
0.0
 10
-2733.399621578193
 20
-18.70924541507735
 30
0.0
 10
-2733.387581175979
 20
-18.77842593785397
 30
0.0
 10
-2733.382989501644
 20
-18.8234173707367
 30
0.0
 10
-2733.381980619476
 20
-18.86723140524646
 30
0.0
  0
ARC
  5
10C
330
2
100
AcDbEntity
  8
0
370
    18
100
AcDbCircle
 10
-2733.424418378798
 20
-18.78432685024404
 30
0.0
 40
0.0931350022956685
100
AcDbArc
 50
245.0005032042456
 51
297.1073139444229
  0
LINE
  5
10D
330
2
100
AcDbEntity
  8
0
370
    18
100
AcDbLine
 10
-2729.977192882768
 20
-15.59555974906191
 30
0.0
 11
-2733.957414033608
 21
-17.89329251078966
 31
0.0
  0
ELLIPSE
  5
10E
330
2
100
AcDbEntity
  8
0
370
    18
100
AcDbEllipse
 10
-2729.972526795481
 20
-16.25779012225661
 30
0.0
 11
-0.4120328351495686
 21
0.7023992331089343
 31
0.0
210
0.0
220
0.0
230
1.0
 40
0.5726848272000002
 41
3.957991476552868
 42
5.493881218307897
  0
LINE
  5
10F
330
2
100
AcDbEntity
  8
0
370
    18
100
AcDbLine
 10
-2729.397230482748
 20
-16.56688411557662
 30
0.0
 11
-2733.38198061947
 21
-18.86723140527466
 31
0.0
  0
LWPOLYLINE
  5
110
330
2
100
AcDbEntity
  8
0
370
    18
100
AcDbPolyline
 90
        4
 70
   128
 43
0.0
 10
-2733.38198061947
 20
-18.86723140527466
 10
-2733.379797212322
 20
-18.96421334161314
 10
-2733.371063583674
 20
-19.35214108708346
 10
-2733.369758496885
 20
-19.41012698237091
  0
SPLINE
  5
111
330
2
100
AcDbEntity
  8
0
370
    18
100
AcDbSpline
210
0.0
220
0.0
230
1.0
 70
     8
 71
     3
 72
    11
 73
     7
 74
     0
 42
0.000000001
 43
0.0000000001
 40
0.0
 40
0.0
 40
0.0
 40
0.0
 40
0.0036572563765595
 40
0.0036572563765595
 40
0.0036572563765595
 40
0.0064874631530434
 40
0.0064874631530434
 40
0.0064874631530434
 40
0.0064874631530434
 10
-2734.492230029242
 20
-17.58589858669729
 30
0.0
 10
-2734.39194981376
 20
-17.64378912250507
 30
0.0
 10
-2734.291555443145
 20
-17.70161385127894
 30
0.0
 10
-2734.19103388536
 20
-17.75936472702287
 30
0.0
 10
-2734.113244194694
 20
-17.80405586451436
 30
0.0
 10
-2734.035378756617
 20
-17.84870313554527
 30
0.0
 10
-2733.957414033625
 20
-17.89329251081593
 30
0.0
  0
LINE
  5
112
330
2
100
AcDbEntity
  8
0
370
    18
100
AcDbLine
 10
-2729.377144766419
 20
-17.10524013670806
 30
0.0
 11
-2729.397230482748
 21
-16.56688411557662
 31
0.0
  0
LINE
  5
113
330
2
100
AcDbEntity
  8
0
370
    18
100
AcDbLine
 10
-2729.377144766419
 20
-17.10524013670806
 30
0.0
 11
-2733.369758496885
 21
-19.41012698237091
 31
0.0
  0
SPLINE
  5
114
330
2
100
AcDbEntity
  8
0
370
    18
100
AcDbSpline
210
0.0
220
0.0
230
1.0
 70
     8
 71
     3
 72
    11
 73
     7
 74
     0
 42
0.000000001
 43
0.0000000001
 40
0.0
 40
0.0
 40
0.0
 40
0.0
 40
0.0028302072559559
 40
0.0028302072559559
 40
0.0028302072559559
 40
0.006487468086704
 40
0.006487468086704
 40
0.006487468086704
 40
0.006487468086704
 10
-2735.024710412302
 20
-17.27715542625211
 30
0.0
 10
-2734.947470979802
 20
-17.32216350281186
 30
0.0
 10
-2734.870131258036
 20
-17.36711426341071
 30
0.0
 10
-2734.792715549099
 20
-17.41202129595952
 30
0.0
 10
-2734.692677153881
 20
-17.47005121691244
 30
0.0
 10
-2734.59251082734
 20
-17.52800771412457
 30
0.0
 10
-2734.492230507084
 20
-17.58589831084485
 30
0.0
  0
LINE
  5
115
330
2
100
AcDbEntity
  8
0
370
    18
100
AcDbLine
 10
-2731.044489261437
 20
-14.97942266446722
 30
0.0
 11
-2735.024710412276
 21
-17.27715542625314
 31
0.0
  0
LINE
  5
116
330
2
100
AcDbEntity
  8
0
370
    18
100
AcDbLine
 10
-2729.977192882768
 20
-15.59555974906191
 30
0.0
 11
-2731.044489261437
 21
-14.97942266446722
 31
0.0
  0
LINE
  5
117
330
2
100
AcDbEntity
  8
0
370
    18
100
AcDbLine
 10
-2733.414165236975
 20
-19.71051181125556
 30
0.0
 11
-2733.407825199437
 21
-19.43210242198747
 31
0.0
  0
LINE
  5
118
330
2
100
AcDbEntity
  8
0
370
    18
100
AcDbLine
 10
-2733.658827680398
 20
-19.85175243346657
 30
0.0
 11
-2733.414165236975
 21
-19.71051181125556
 31
0.0
  0
LINE
  5
119
330
2
100
AcDbEntity
  8
0
370
    18
100
AcDbLine
 10
-2733.420375848231
 20
-19.77831550611798
 30
0.0
 11
-2733.664503451762
 21
-19.91924737178748
 31
0.0
  0
ELLIPSE
  5
11A
330
2
100
AcDbEntity
  8
0
370
    18
100
AcDbEllipse
 10
-2733.825332756529
 20
-19.46478858354256
 30
0.0
 11
-0.2869603326541104
 21
0.505954846268762
 31
0.0
210
0.0
220
0.0
230
1.0
 40
0.5823970822999999
 41
3.764272389920654
 42
3.914059649711564
  0
ELLIPSE
  5
11B
330
2
100
AcDbEntity
  8
0
370
    18
100
AcDbEllipse
 10
-2734.534007345962
 20
-18.91611646907919
 30
0.0
 11
-0.7891409147987936
 21
1.391375827239115
 31
0.0
210
0.0
220
0.0
230
1.0
 40
0.5823970823
 41
3.146033514772057
 42
3.764272389920656
  0
SPLINE
  5
11C
330
2
100
AcDbEntity
  8
0
370
    18
100
AcDbSpline
210
0.0
220
0.0
230
1.0
 70
     8
 71
     3
 72
    11
 73
     7
 74
     0
 42
0.000000001
 43
0.0000000001
 40
0.0
 40
0.0
 40
0.0
 40
0.0
 40
0.0010000000655116
 40
0.0010000000655116
 40
0.0010000000655116
 40
0.0028313397457415
 40
0.0028313397457415
 40
0.0028313397457415
 40
0.0028313397457415
 10
-2734.833942244693
 20
-17.48278665323254
 30
0.0
 10
-2734.861295617435
 20
-17.46691960483915
 30
0.0
 10
-2734.888639281418
 20
-17.45104697637586
 30
0.0
 10
-2734.915972510647
 20
-17.43516836376271
 30
0.0
 10
-2734.966028924375
 20
-17.40608923828873
 30
0.0
 10
-2735.016050630571
 20
-17.37699018186618
 30
0.0
 10
-2735.066029870888
 20
-17.3478668519529
 30
0.0
  0
ARC
  5
11D
330
2
100
AcDbEntity
  8
0
370
    18
100
AcDbCircle
 10
-2734.977003282498
 20
-17.35246057551448
 30
0.0
 40
0.0891450264536869
100
AcDbArc
 50
122.3549739847218
 51
177.0461885832004
  0
SPLINE
  5
11E
330
2
100
AcDbEntity
  8
0
370
    18
100
AcDbSpline
210
0.0
220
0.0
230
1.0
 70
     8
 71
     3
 72
    26
 73
    22
 74
     0
 42
0.000000001
 43
0.0000000001
 40
0.0
 40
0.0
 40
0.0
 40
0.0
 40
0.1250000000000003
 40
0.1250000000000003
 40
0.1875000000000002
 40
0.1875000000000002
 40
0.2500000000000001
 40
0.2500000000000001
 40
0.3750000000000001
 40
0.3750000000000001
 40
0.5000000000000002
 40
0.5000000000000002
 40
0.6250000000000004
 40
0.6250000000000004
 40
0.6875000000000001
 40
0.6875000000000001
 40
0.75
 40
0.75
 40
0.875
 40
0.875
 40
1.0
 40
1.0
 40
1.0
 40
1.0
 10
-2735.066029870888
 20
-17.3478668519529
 30
0.0
 10
-2735.100397209791
 20
-17.32784071024338
 30
0.0
 10
-2735.134212681242
 20
-17.311968994209
 30
0.0
 10
-2735.184138100396
 20
-17.29413251412823
 30
0.0
 10
-2735.20064601164
 20
-17.28918929472088
 30
0.0
 10
-2735.233387956571
 20
-17.28134797090965
 30
0.0
 10
-2735.249690289158
 20
-17.27844975051721
 30
0.0
 10
-2735.297206287246
 20
-17.27303601670094
 30
0.0
 10
-2735.327300945502
 20
-17.27367536600497
 30
0.0
 10
-2735.384373253734
 20
-17.28331799614279
 30
0.0
 10
-2735.411529807423
 20
-17.29250090067765
 30
0.0
 10
-2735.460557703661
 20
-17.31881292200012
 30
0.0
 10
-2735.482689954293
 20
-17.33588899573971
 30
0.0
 10
-2735.512275056763
 20
-17.36745023440959
 30
0.0
 10
-2735.521567702301
 20
-17.37903519727518
 30
0.0
 10
-2735.53856349089
 20
-17.40378457934233
 30
0.0
 10
-2735.546304544445
 20
-17.41697302327738
 30
0.0
 10
-2735.567307460288
 20
-17.45892555568038
 30
0.0
 10
-2735.578369837877
 20
-17.4900545235246
 30
0.0
 10
-2735.594386782177
 20
-17.55887955922101
 30
0.0
 10
-2735.599155297212
 20
-17.59583334678352
 30
0.0
 10
-2735.600648629683
 20
-17.63514712673963
 30
0.0
  0
ELLIPSE
  5
11F
330
2
100
AcDbEntity
  8
0
370
    18
100
AcDbEllipse
 10
-2731.03982317415
 20
-15.64165303772009
 30
0.0
 11
-0.412032835149577
 21
0.7023992331089169
 31
0.0
210
0.0
220
0.0
230
1.0
 40
0.5726848272000002
 41
6.272919268065848
 42
6.279198117643204
  0
ELLIPSE
  5
120
330
2
100
AcDbEntity
  8
0
370
    18
100
AcDbEllipse
 10
-2729.418311643347
 20
-17.08148946723495
 30
0.0
 11
0.0581932801464131
 21
-2.876699738490000E-5
 31
0.0
210
0.0
220
0.0
230
1.0
 40
0.5771117367000002
 41
5.498510259852408
 42
6.30499920272395
  0
LINE
  5
121
330
2
100
AcDbEntity
  8
0
370
    18
100
AcDbLine
 10
-2733.696600927971
 20
-19.54345655260476
 30
0.0
 11
-2774.953596129523
 21
-43.36061291999557
 31
0.0
  0
LINE
  5
122
330
2
100
AcDbEntity
  8
0
370
    18
100
AcDbLine
 10
-2733.742589012243
 20
-19.53424082169561
 30
0.0
 11
-2733.712950770963
 21
-19.51713102920968
 31
0.0
  0
LINE
  5
123
330
2
100
AcDbEntity
  8
0
370
    18
100
AcDbLine
 10
-2733.739207232148
 20
-19.50197349679866
 30
0.0
 11
-2733.744558526383
 21
-19.50506273319504
 31
0.0
  0
ARC
  5
124
330
2
100
AcDbEntity
  8
0
370
    18
100
AcDbCircle
 10
-2779.110243939004
 20
-43.24064645837075
 30
0.0
 40
0.0385185890061986
100
AcDbArc
 50
170.0163812070807
 51
234.0118615245412
  0
LWPOLYLINE
  5
125
330
2
100
AcDbEntity
  8
0
370
    18
100
AcDbPolyline
 90
       39
 70
   128
 43
0.0
 10
-2778.862259223009
 20
-42.81943780520333
 10
-2778.842305936167
 20
-42.80844187645679
 10
-2778.799042055672
 20
-42.78851184956656
 10
-2778.753657749553
 20
-42.77268941296326
 10
-2778.706296942095
 20
-42.76102474324787
 10
-2778.657109825391
 20
-42.75355483187178
 10
-2778.606252383431
 20
-42.75030336764245
 10
-2778.553885897054
 20
-42.75128066180598
 10
-2778.500176432674
 20
-42.75648361495092
 10
-2778.445294315529
 20
-42.76589572747818
 10
-2778.389413589673
 20
-42.77948715125189
 10
-2778.332711466047
 20
-42.79721478475852
 10
-2778.275367760302
 20
-42.81902240950493
 10
-2778.217564322838
 20
-42.84484086835436
 10
-2778.159484461803
 20
-42.87458828498488
 10
-2778.101312362072
 20
-42.90817032330806
 10
-2778.043232501094
 20
-42.9454804869054
 10
-2777.985429063572
 20
-42.98640045638876
 10
-2777.928085357827
 20
-43.0308004650336
 10
-2777.871383234201
 20
-43.07853971000982
 10
-2777.815502508403
 20
-43.12946679891881
 10
-2777.760620391257
 20
-43.18342023006676
 10
-2777.706910926819
 20
-43.24022890455464
 10
-2777.654544440443
 20
-43.29971266867196
 10
-2777.603686998483
 20
-43.36168288549024
 10
-2777.554499881838
 20
-43.42594303292156
 10
-2777.507139074321
 20
-43.49228932707896
 10
-2777.461754768201
 20
-43.56051136814729
 10
-2777.418490887707
 20
-43.63039280824041
 10
-2777.377484632776
 20
-43.70171203676624
 10
-2777.33886604386
 20
-43.77424288388145
 10
-2777.302757589471
 20
-43.84775533720776
 10
-2777.269273778049
 20
-43.92201627151915
 10
-2777.238520794592
 20
-43.9967901880848
 10
-2777.210596164002
 20
-44.07183996116603
 10
-2777.185588441811
 20
-44.14692759044649
 10
-2777.163576933423
 20
-44.22181495543964
 10
-2777.144631442429
 20
-44.29626457071086
 10
-2777.128812049456
 20
-44.37004033917992
  0
LWPOLYLINE
  5
126
330
2
100
AcDbEntity
  8
0
370
    18
100
AcDbPolyline
 90
       42
 70
   128
 43
0.0
 10
-2779.039387836274
 20
-44.15991530580832
 10
-2779.019455272027
 20
-44.2111854515631
 10
-2778.988793778035
 20
-44.28372763550003
 10
-2778.955476497303
 20
-44.35569679610551
 10
-2778.919611649928
 20
-44.42685916519116
 10
-2778.881315731285
 20
-44.49698359510283
 10
-2778.840713133016
 20
-44.56584230957995
 10
-2778.797935739304
 20
-44.63321164368015
 10
-2778.753122498605
 20
-44.6988727702092
 10
-2778.70641897204
 20
-44.76261241056256
 10
-2778.657976860579
 20
-44.82422352736128
 10
-2778.607953512658
 20
-44.88350599707878
 10
-2778.556511412737
 20
-44.94026726009944
 10
-2778.503817653503
 20
-44.99432294599872
 10
-2778.450043393474
 20
-45.04549747264859
 10
-2778.395363300648
 20
-45.0936246163567
 10
-2778.339954985387
 20
-45.13854805187557
 10
-2778.283998423415
 20
-45.18012186013018
 10
-2778.22767537137
 20
-45.21821100226721
 10
-2778.171168776131
 20
-45.2526917581657
 10
-2778.114662180949
 20
-45.28345212836109
 10
-2778.058339128904
 20
-45.31039219798723
 10
-2778.002382566932
 20
-45.33342446093333
 10
-2777.946974251671
 20
-45.35247410450627
 10
-2777.892294158845
 20
-45.36747925221381
 10
-2777.838519898816
 20
-45.37839116466837
 10
-2777.785826139582
 20
-45.38517439814664
 10
-2777.734384039603
 20
-45.38780691952462
 10
-2777.68436069174
 20
-45.38628017793763
 10
-2777.635918580279
 20
-45.38059913246725
 10
-2777.589215053656
 20
-45.37078223620382
 10
-2777.544401812956
 20
-45.35686137604507
 10
-2777.501624419303
 20
-45.33888176933598
 10
-2777.461021821034
 20
-45.31690181700058
 10
-2777.42272590239
 20
-45.29099291368946
 10
-2777.386861055016
 20
-45.26123921593181
 10
-2777.353543774284
 20
-45.22773736887349
 10
-2777.322882280292
 20
-45.19059619235735
 10
-2777.294976166948
 20
-45.14993632727637
 10
-2777.269916078106
 20
-45.10588984382867
 10
-2777.247783413246
 20
-45.05859981260425
 10
-2777.228650063054
 20
-45.00821983984205
  0
SPLINE
  5
127
330
2
100
AcDbEntity
  8
0
370
    18
100
AcDbSpline
210
0.0
220
0.0
230
1.0
 70
     8
 71
     3
 72
    11
 73
     7
 74
     0
 42
0.000000001
 43
0.0000000001
 40
0.0
 40
0.0
 40
0.0
 40
0.0
 40
0.2861500367221556
 40
0.5878007201546298
 40
0.8894617096636126
 40
1.0
 40
1.0
 40
1.0
 40
1.0
 10
-2779.083469400177
 20
-43.8764177853304
 30
0.0
 10
-2779.087693106848
 20
-43.87548188114374
 30
0.0
 10
-2779.096369316892
 20
-43.8735593751702
 30
0.0
 10
-2779.106589200063
 20
-43.87842481000072
 30
0.0
 10
-2779.112883639607
 20
-43.88562265906552
 30
0.0
 10
-2779.113826381422
 20
-43.89229826506256
 30
0.0
 10
-2779.114079193771
 20
-43.89408844304186
 30
0.0
  0
ARC
  5
128
330
2
100
AcDbEntity
  8
0
370
    18
100
AcDbCircle
 10
-2779.368010165704
 20
-43.74099510282341
 30
0.0
 40
0.4745737582809073
100
AcDbArc
 50
356.8431321644046
 51
55.13524067756255
  0
SPLINE
  5
129
330
2
100
AcDbEntity
  8
0
370
    18
100
AcDbSpline
210
0.0
220
0.0
230
1.0
 70
     8
 71
     3
 72
    11
 73
     7
 74
     0
 42
0.000000001
 43
0.0000000001
 40
0.0
 40
0.0
 40
0.0
 40
0.0
 40
0.3235754330180572
 40
0.647157947509653
 40
0.9707251838934753
 40
1.0
 40
1.0
 40
1.0
 40
1.0
 10
-2777.128812049472
 20
-44.37004033919712
 30
0.0
 10
-2777.127441326703
 20
-44.38154044616418
 30
0.0
 10
-2777.124699851164
 20
-44.40454091177902
 30
0.0
 10
-2777.132973943585
 20
-44.43072600550617
 30
0.0
 10
-2777.142604623011
 20
-44.44569762581541
 30
0.0
 10
-2777.150738330949
 20
-44.44776640551623
 30
0.0
 10
-2777.151413173425
 20
-44.44793804930095
 30
0.0
  0
ARC
  5
12A
330
2
100
AcDbEntity
  8
0
370
    18
100
AcDbCircle
 10
-2777.213772537041
 20
-44.42127804744148
 30
0.0
 40
0.0318580896498872
100
AcDbArc
 50
178.1132589450033
 51
240.7334387711297
  0
LWPOLYLINE
  5
12B
330
2
100
AcDbEntity
  8
0
370
    18
100
AcDbPolyline
 90
       18
 70
   128
 43
0.0
 10
-2777.314281847171
 20
-44.44168080739638
 10
-2777.326456095756
 20
-44.45002790420398
 10
-2777.340645518815
 20
-44.46449655831304
 10
-2777.352141598371
 20
-44.48247153376184
 10
-2777.360746134608
 20
-44.50364293024072
 10
-2777.366310779747
 20
-44.52764573926988
 10
-2777.368739595704
 20
-44.55406613690141
 10
-2777.3679907082
 20
-44.58244861825187
 10
-2777.364077028424
 20
-44.61230385113617
 10
-2777.357066030784
 20
-44.64311711188059
 10
-2777.347078589416
 20
-44.67435715999529
 10
-2777.334286894289
 20
-44.7054853968692
 10
-2777.318911482492
 20
-44.73596515144071
 10
-2777.301217436122
 20
-44.76527093312083
 10
-2777.281509811923
 20
-44.79289749119945
 10
-2777.26012838213
 20
-44.81836852595634
 10
-2777.23744177638
 20
-44.84124490030409
 10
-2777.21384112654
 20
-44.86113221073691
  0
SPLINE
  5
12C
330
2
100
AcDbEntity
  8
0
370
    18
100
AcDbSpline
210
0.0
220
0.0
230
1.0
 70
     8
 71
     3
 72
     9
 73
     5
 74
     0
 42
0.000000001
 43
0.0000000001
 40
0.0
 40
0.0
 40
0.0
 40
0.0
 40
0.1821062019854898
 40
1.0
 40
1.0
 40
1.0
 40
1.0
 10
-2777.213841126518
 20
-44.86113221071462
 30
0.0
 10
-2777.104410587332
 20
-44.79806403813843
 30
0.0
 10
-2776.503494539481
 20
-44.45173770829036
 30
0.0
 10
-2775.902748079831
 20
-44.10501908886923
 30
0.0
 10
-2775.411401276305
 20
-43.82144008038854
 30
0.0
  0
ARC
  5
12D
330
2
100
AcDbEntity
  8
0
370
    18
100
AcDbCircle
 10
-2777.69971726795
 20
-44.8585661024761
 30
0.0
 40
0.5746608389157833
100
AcDbArc
 50
301.1392663656611
 51
343.4728763236113
  0
ARC
  5
12E
330
2
100
AcDbEntity
  8
0
370
    18
100
AcDbCircle
 10
-2776.007234783793
 20
-43.74585619343652
 30
0.0
 40
0.843312704734863
100
AcDbArc
 50
312.6825947152819
 51
4.713264873403691
  0
LWPOLYLINE
  5
12F
330
2
100
AcDbEntity
  8
0
370
    18
100
AcDbPolyline
 90
       44
 70
   128
 43
0.0
 10
-2777.023287379444
 20
-41.60757433248856
 10
-2776.993145315536
 20
-41.59666654461386
 10
-2776.944890091963
 20
-41.58312453198202
 10
-2776.894795204094
 20
-41.57366892811544
 10
-2776.843002651399
 20
-41.56832653589068
 10
-2776.789659245446
 20
-41.56711249889257
 10
-2776.734916193899
 20
-41.570030258488
 10
-2776.678928671897
 20
-41.5770715439378
 10
-2776.621855382208
 20
-41.58821639601198
 10
-2776.563858105195
 20
-41.60343322329389
 10
-2776.505101240536
 20
-41.62267889210439
 10
-2776.44575134085
 20
-41.64589884853313
 10
-2776.385976639917
 20
-41.673027273101
 10
-2776.3259465756
 20
-41.70398726723873
 10
-2776.265831309692
 20
-41.73869107158258
 10
-2776.205801245375
 20
-41.77704031434125
 10
-2776.146026544441
 20
-41.81892629054901
 10
-2776.086676644756
 20
-41.86423026970328
 10
-2776.02791978004
 20
-41.91282383283432
 10
-2775.969922503084
 20
-41.9645692362147
 10
-2775.912849213336
 20
-42.0193198018829
 10
-2775.856861691394
 20
-42.07692033335284
 10
-2775.802118639847
 20
-42.13720755569473
 10
-2775.748775233893
 20
-42.20001057824222
 10
-2775.69698268114
 20
-42.26515137899546
 10
-2775.646887793329
 20
-42.33244530926572
 10
-2775.598632569756
 20
-42.40170161710746
 10
-2775.552353795115
 20
-42.47272398796751
 10
-2775.508182651649
 20
-42.5453111012134
 10
-2775.466244347237
 20
-42.61925720085402
 10
-2775.42665776053
 20
-42.6943526785915
 10
-2775.389535104111
 20
-42.77038466815716
 10
-2775.354981606098
 20
-42.8471376485468
 10
-2775.323095212161
 20
-42.92439405522469
 10
-2775.293966307724
 20
-43.001934896388
 10
-2775.26767746186
 20
-43.07954037411701
 10
-2775.244303193179
 20
-43.15699050732851
 10
-2775.223909758505
 20
-43.23406575513653
 10
-2775.206554965301
 20
-43.31054763939843
 10
-2775.192288007632
 20
-43.38621936388781
 10
-2775.181149326693
 20
-43.46086642892996
 10
-2775.173170496336
 20
-43.53427723929058
 10
-2775.168374133377
 20
-43.60624370397933
 10
-2775.16677383367
 20
-43.67656182633952
  0
LWPOLYLINE
  5
130
330
2
100
AcDbEntity
  8
0
370
    18
100
AcDbPolyline
 90
       73
 70
   128
 43
0.0
 10
-2775.82967192121
 20
-44.46470677071869
 10
-2775.82026819808
 20
-44.46468571041413
 10
-2775.768131920973
 20
-44.46214697796091
 10
-2775.717587834882
 20
-44.45550453864611
 10
-2775.668781671474
 20
-44.44477754436142
 10
-2775.621854151622
 20
-44.42999692378478
 10
-2775.576940579416
 20
-44.41120529321241
 10
-2775.53417045239
 20
-44.38845683388776
 10
-2775.493667087868
 20
-44.36181713547779
 10
-2775.455547267572
 20
-44.331363007093
 10
-2775.419920900728
 20
-44.29718225590931
 10
-2775.386890707415
 20
-44.25937343385675
 10
-2775.356551922259
 20
-44.21804555353896
 10
-2775.32899201979
 20
-44.17331777396429
 10
-2775.304290462399
 20
-44.12531905684562
 10
-2775.282518470996
 20
-44.0741877950383
 10
-2775.263738819917
 20
-44.02007141305915
 10
-2775.248005655738
 20
-43.96312594253572
 10
-2775.235364341278
 20
-43.90351557200469
 10
-2775.225851324663
 20
-43.8414121735603
 10
-2775.219494034456
 20
-43.77699480734182
 10
-2775.216310800262
 20
-43.71044920537203
 10
-2775.216310800262
 20
-43.64196723579403
 10
-2775.219494034456
 20
-43.57174634989101
 10
-2775.225851324663
 20
-43.49998901258707
 10
-2775.235364341278
 20
-43.42690211893001
 10
-2775.248005655738
 20
-43.35269639737052
 10
-2775.263738819917
 20
-43.27758580216459
 10
-2775.282518470996
 20
-43.20178689658551
 10
-2775.304290462399
 20
-43.12551822851642
 10
-2775.32899201979
 20
-43.04899970034241
 10
-2775.356551922259
 20
-42.97245193471309
 10
-2775.386890707415
 20
-42.89609563861812
 10
-2775.419920900728
 20
-42.82015096717212
 10
-2775.455547267572
 20
-42.74483688833
 10
-2775.493667087868
 20
-42.67037055225592
 10
-2775.53417045239
 20
-42.59696666453066
 10
-2775.576940579416
 20
-42.52483686767722
 10
-2775.621854151622
 20
-42.45418913047998
 10
-2775.668781671474
 20
-42.38522714870502
 10
-2775.717587834882
 20
-42.31814975762755
 10
-2775.768131920973
 20
-42.25315035869366
 10
-2775.82026819808
 20
-42.19041636194513
 10
-2775.87384634382
 20
-42.13012864583559
 10
-2775.928711878597
 20
-42.07246103536883
 10
-2775.984706610746
 20
-42.01757980123505
 10
-2776.041669093017
 20
-41.96564318029365
 10
-2776.099435087897
 20
-41.91680091914794
 10
-2776.157838040964
 20
-41.87119384278917
 10
-2776.216709561452
 20
-41.82895344813537
 10
-2776.275879907462
 20
-41.79020152525704
 10
-2776.335178475611
 20
-41.75504980594081
 10
-2776.39443429281
 20
-41.72359964168452
 10
-2776.453476509109
 20
-41.69594171153173
 10
-2776.512134890647
 20
-41.67215576032642
 10
-2776.570240309991
 20
-41.65231036919164
 10
-2776.627625234255
 20
-41.63646275753388
 10
-2776.684124207767
 20
-41.62465861814356
 10
-2776.739574329484
 20
-41.61693198533373
 10
-2776.79381572222
 20
-41.61330513704736
 10
-2776.846691994129
 20
-41.6137885304098
 10
-2776.898050689078
 20
-41.61838077165731
 10
-2776.947743726792
 20
-41.62706862015037
 10
-2776.995627829321
 20
-41.63982702670483
 10
-2777.041564934423
 20
-41.65661920536829
 10
-2777.085422593475
 20
-41.67739674003757
 10
-2777.127074353561
 20
-41.70209972364895
 10
-2777.166400121825
 20
-41.73065693110451
 10
-2777.20328651196
 20
-41.76298602465475
 10
-2777.237627170868
 20
-41.79899379109787
 10
-2777.269323085598
 20
-41.83857641073756
 10
-2777.298282868591
 20
-41.88161975658653
 10
-2777.309724904873
 20
-41.90090201155065
  0
ARC
  5
131
330
2
100
AcDbEntity
  8
0
370
    18
100
AcDbCircle
 10
-2778.995601858165
 20
-43.68573728194273
 30
0.0
 40
0.1279209872504154
100
AcDbArc
 50
246.331163777845
 51
281.353775229275
  0
ARC
  5
132
330
2
100
AcDbEntity
  8
0
370
    18
100
AcDbCircle
 10
-2779.071765555964
 20
-43.35662398296726
 30
0.0
 40
0.0254581580292482
100
AcDbArc
 50
168.6312709088096
 51
229.1676079484559
  0
ARC
  5
133
330
2
100
AcDbEntity
  8
0
370
    18
100
AcDbCircle
 10
-2779.002374865435
 20
-43.86847164375653
 30
0.0
 40
0.0792930857357397
100
AcDbArc
 50
124.2100532615398
 51
184.8764487301908
  0
SPLINE
  5
134
330
2
100
AcDbEntity
  8
0
370
    18
100
AcDbSpline
210
0.0
220
0.0
230
1.0
 70
     8
 71
     3
 72
     9
 73
     5
 74
     0
 42
0.000000001
 43
0.0000000001
 40
0.0
 40
0.0
 40
0.0
 40
0.0
 40
0.0031040810022537
 40
1.0
 40
1.0
 40
1.0
 40
1.0
 10
-2778.909242811157
 20
-43.72085442357
 30
0.0
 10
-2778.909385323452
 20
-43.72093933892887
 30
0.0
 10
-2778.955296591461
 20
-43.74829537723861
 30
0.0
 10
-2779.001197384309
 20
-43.77563897404459
 30
0.0
 10
-2779.04695569738
 20
-43.80289769411136
 30
0.0
  0
SPLINE
  5
135
330
2
100
AcDbEntity
  8
0
370
    18
100
AcDbSpline
210
0.0
220
0.0
230
1.0
 70
     8
 71
     3
 72
    10
 73
     6
 74
     0
 42
0.000000001
 43
0.0000000001
 40
0.0
 40
0.0
 40
0.0
 40
0.0
 40
0.405893383003474
 40
0.9359616923164551
 40
1.0
 40
1.0
 40
1.0
 40
1.0
 10
-2779.092247466721
 20
-43.80501914319606
 30
0.0
 10
-2779.087135943977
 20
-43.80225105153828
 30
0.0
 10
-2779.075349130791
 20
-43.79586802618975
 30
0.0
 10
-2779.058259413849
 20
-43.79872697659815
 30
0.0
 10
-2779.048055562844
 20
-43.80249187818622
 30
0.0
 10
-2779.04695569738
 20
-43.80289769411118
 30
0.0
  0
ARC
  5
136
330
2
100
AcDbEntity
  8
0
370
    18
100
AcDbCircle
 10
-2775.348185036065
 20
-43.58738787529347
 30
0.0
 40
0.2181124440436262
100
AcDbArc
 50
174.2701576313924
 51
205.7111950453496
  0
LWPOLYLINE
  5
137
330
2
100
AcDbEntity
  8
0
370
    18
100
AcDbPolyline
 90
       23
 70
   128
 43
0.0
 10
-2775.455814604225
 20
-43.50485554005385
 10
-2775.449446322526
 20
-43.50775180996636
 10
-2775.428935374987
 20
-43.51959252794879
 10
-2775.408690038795
 20
-43.53507929863282
 10
-2775.38923465757
 20
-43.55381102289761
 10
-2775.371073115481
 20
-43.57530255886508
 10
-2775.354675786861
 20
-43.5989972870623
 10
-2775.340467354008
 20
-43.6242815264132
 10
-2775.328815807787
 20
-43.65050042845012
 10
-2775.320022917131
 20
-43.67697493735185
 10
-2775.314316413282
 20
-43.70301937729727
 10
-2775.311844091794
 20
-43.72795921094243
 10
-2775.312669984369
 20
-43.75114850962861
 10
-2775.316772700903
 20
-43.77198668285197
 10
-2775.324045983108
 20
-43.78993403273018
 10
-2775.334301456906
 20
-43.80452573241396
 10
-2775.347273510835
 20
-43.81538386450233
 10
-2775.362626175525
 20
-43.82222720908919
 10
-2775.37996182504
 20
-43.8248785271998
 10
-2775.398831475207
 20
-43.82326915098619
 10
-2775.418746411909
 20
-43.81744076248899
 10
-2775.439190848786
 20
-43.80754431390966
 10
-2775.439190848786
 20
-43.80754431390966
  0
LWPOLYLINE
  5
138
330
2
100
AcDbEntity
  8
0
370
    18
100
AcDbPolyline
 90
       18
 70
   128
 43
0.0
 10
-2775.324173628592
 20
-43.82250519661738
 10
-2775.322885039308
 20
-43.82193921609141
 10
-2775.307991220067
 20
-43.81266652600861
 10
-2775.295634296933
 20
-43.7995133646283
 10
-2775.286103905618
 20
-43.78278803090331
 10
-2775.27962343053
 20
-43.76288255244969
 10
-2775.276344768479
 20
-43.7402634968963
 10
-2775.276344768479
 20
-43.71546103564952
 10
-2775.27962343053
 20
-43.6890565173975
 10
-2775.286103905618
 20
-43.66166884171639
 10
-2775.295634296933
 20
-43.63393995239873
 10
-2775.307991220067
 20
-43.60651979123779
 10
-2775.322885039308
 20
-43.58005106352999
 10
-2775.339966656151
 20
-43.5551541737697
 10
-2775.358835691915
 20
-43.53241268396189
 10
-2775.379049872409
 20
-43.51235963546118
 10
-2775.400135394438
 20
-43.49546505459665
 10
-2775.417729783849
 20
-43.48424847243096
  0
ARC
  5
139
330
2
100
AcDbEntity
  8
0
370
    18
100
AcDbCircle
 10
-2733.591516432023
 20
-19.55542702451525
 30
0.0
 40
0.1845228290017913
100
AcDbArc
 50
347.222720873907
 51
10.1682103739801
  0
LWPOLYLINE
  5
13A
330
2
100
AcDbEntity
  8
0
370
    18
100
AcDbPolyline
 90
       19
 70
   128
 43
0.0
 10
-2778.162943166001
 20
-44.83624899768351
 10
-2778.152855068273
 20
-44.83170880259526
 10
-2778.142849023049
 20
-44.82255784185812
 10
-2778.135649936749
 20
-44.80976609525507
 10
-2778.131552540795
 20
-44.79385725838509
 10
-2778.130724583109
 20
-44.77548264097975
 10
-2778.133199960269
 20
-44.75539450193709
 10
-2778.138877330198
 20
-44.73441525209816
 10
-2778.147524260539
 20
-44.71340378434108
 10
-2778.158786745065
 20
-44.6932203106814
 10
-2778.172203696278
 20
-44.67469114492913
 10
-2778.187225822636
 20
-44.65857487323472
 10
-2778.20323811654
 20
-44.645531297738
 10
-2778.219585032756
 20
-44.63609442382995
 10
-2778.235597326661
 20
-44.63065059838463
 10
-2778.250619453019
 20
-44.62942269209335
 10
-2778.264036404289
 20
-44.63246097572718
 10
-2778.275298888758
 20
-44.6396410615405
 10
-2778.276040746661
 20
-44.64033701428998
  0
LWPOLYLINE
  5
13B
330
2
100
AcDbEntity
  8
0
370
    18
100
AcDbPolyline
 90
       21
 70
   128
 43
0.0
 10
-2778.087415972349
 20
-44.81445056222719
 10
-2778.080461099555
 20
-44.81181944496647
 10
-2778.068740326282
 20
-44.80373882675337
 10
-2778.059581602882
 20
-44.79194496725791
 10
-2778.053296818754
 20
-44.77683949223211
 10
-2778.050099994695
 20
-44.75893680049492
 10
-2778.050099994695
 20
-44.73884654678424
 10
-2778.053296818754
 20
-44.71725288059801
 10
-2778.059581602882
 20
-44.69489114825954
 10
-2778.068740326282
 20
-44.67252285181833
 10
-2778.080461099555
 20
-44.65090971679612
 10
-2778.094344785914
 20
-44.63078775248755
 10
-2778.109918593021
 20
-44.61284218835103
 10
-2778.126652173579
 20
-44.59768413902247
 10
-2778.143975685565
 20
-44.58582979365755
 10
-2778.161299197551
 20
-44.57768283782622
 10
-2778.178032778109
 20
-44.57352070630906
 10
-2778.193606585274
 20
-44.57348513543574
 10
-2778.207490271633
 20
-44.57757733667906
 10
-2778.219211044906
 20
-44.58565795489216
 10
-2778.219394036166
 20
-44.58583307902435
  0
LWPOLYLINE
  5
13C
330
2
100
AcDbEntity
  8
0
370
    18
100
AcDbPolyline
 90
       19
 70
   128
 43
0.0
 10
-2778.074273400537
 20
-44.80892987927759
 10
-2778.065258928605
 20
-44.80224574634718
 10
-2778.056069168921
 20
-44.79041192075406
 10
-2778.049763087405
 20
-44.77525525751142
 10
-2778.046555430238
 20
-44.75729189866081
 10
-2778.046555430238
 20
-44.73713356469095
 10
-2778.049763087405
 20
-44.71546672363816
 10
-2778.056069168921
 20
-44.69302921369764
 10
-2778.065258928605
 20
-44.67058511743516
 10
-2778.077019420307
 20
-44.64889874152847
 10
-2778.090950154598
 20
-44.62870858958706
 10
-2778.10657673697
 20
-44.61070221298128
 10
-2778.123367022926
 20
-44.59549279727471
 10
-2778.140749239401
 20
-44.58359828089477
 10
-2778.158131455877
 20
-44.57542371729149
 10
-2778.174921741832
 20
-44.57124748149219
 10
-2778.190548324205
 20
-44.57121179009978
 10
-2778.204479058437
 20
-44.57531785865865
 10
-2778.207634227328
 20
-44.57697505192807
  0
LWPOLYLINE
  5
13D
330
2
100
AcDbEntity
  8
0
370
    18
100
AcDbPolyline
 90
       10
 70
   128
 43
0.0
 10
-2729.382161135648
 20
-16.54028649444245
 10
-2729.371449095095
 20
-16.5602470458761
 10
-2729.362259335353
 20
-16.58269114219673
 10
-2729.355953253895
 20
-16.60512865213724
 10
-2729.35274559667
 20
-16.62679549319001
 10
-2729.35274559667
 20
-16.64695382710171
 10
-2729.355953253895
 20
-16.6649171860105
 10
-2729.362259335353
 20
-16.68007384925315
 10
-2729.371449095095
 20
-16.69190767484629
 10
-2729.374540151842
 20
-16.69460089474708
  0
ARC
  5
13E
330
2
100
AcDbEntity
  8
0
370
    18
100
AcDbCircle
 10
-2729.486260188027
 20
-16.62183286035405
 30
0.0
 40
0.1359943403623255
100
AcDbArc
 50
330.1587874919056
 51
38.98173384182787
  0
LWPOLYLINE
  5
13F
330
2
100
AcDbEntity
  8
0
370
    18
100
AcDbPolyline
 90
       13
 70
   128
 43
0.0
 10
-2729.390280220217
 20
-16.4417393423666
 10
-2729.376277070586
 20
-16.44841113168712
 10
-2729.360014025131
 20
-16.45970932371817
 10
-2729.344416790612
 20
-16.47436443802499
 10
-2729.33012391971
 20
-16.49177649234129
 10
-2729.317720564268
 20
-16.51123263524443
 10
-2729.307714519045
 20
-16.5319363298655
 10
-2729.300515432687
 20
-16.55303996459997
 10
-2729.296418036792
 20
-16.5736795541143
 10
-2729.295590079047
 20
-16.59301011117711
 10
-2729.298065456264
 20
-16.61024024052458
 10
-2729.303742826135
 20
-16.62466453866288
 10
-2729.311647898632
 20
-16.63499652038998
  0
ARC
  5
140
330
2
100
AcDbEntity
  8
0
370
    18
100
AcDbCircle
 10
-2779.288408115728
 20
-44.07777833764552
 30
0.0
 40
0.0518321658363478
100
AcDbArc
 50
51.43423544203998
 51
128.5707563760744
  0
LWPOLYLINE
  5
141
330
2
100
AcDbEntity
  8
0
370
    18
100
AcDbPolyline
 90
       14
 70
   128
 43
0.0
 10
-2779.207626886459
 20
-44.23316592285186
 10
-2779.203470465522
 20
-44.231712551277
 10
-2779.192207980996
 20
-44.22453246546368
 10
-2779.183561050655
 20
-44.21350453104524
 10
-2779.177883680784
 20
-44.19908023290692
 10
-2779.175408303567
 20
-44.18185010355945
 10
-2779.176236261311
 20
-44.16251954649669
 10
-2779.180333657264
 20
-44.14187995698234
 10
-2779.187532743564
 20
-44.12077632230604
 10
-2779.197538788788
 20
-44.10007262762678
 10
-2779.209942144229
 20
-44.08061648478184
 10
-2779.224235015132
 20
-44.06320443040735
 10
-2779.239832249651
 20
-44.0485493161587
 10
-2779.256095295105
 20
-44.03725112406948
  0
ARC
  5
142
330
2
100
AcDbEntity
  8
0
370
    18
100
AcDbCircle
 10
-2779.22636651118
 20
-44.030270098225
 30
0.0
 40
0.0606654544978105
100
AcDbArc
 50
51.56999471175253
 51
128.4349971064117
  0
LWPOLYLINE
  5
143
330
2
100
AcDbEntity
  8
0
370
    18
100
AcDbPolyline
 90
       15
 70
   128
 43
0.0
 10
-2779.132099692806
 20
-44.21136748739555
 10
-2779.125144820012
 20
-44.20873637013483
 10
-2779.113424046739
 20
-44.20065575192173
 10
-2779.104265323339
 20
-44.18886189242626
 10
-2779.097980539211
 20
-44.17375641740046
 10
-2779.094783715152
 20
-44.15585372566328
 10
-2779.094783715152
 20
-44.1357634719526
 10
-2779.097980539211
 20
-44.1141698057082
 10
-2779.104265323339
 20
-44.09180807342788
 10
-2779.113424046739
 20
-44.06943977698666
 10
-2779.125144820012
 20
-44.04782664190631
 10
-2779.13902850637
 20
-44.02770467765593
 10
-2779.154602313536
 20
-44.00975911351939
 10
-2779.171335894095
 20
-43.99460106419083
 10
-2779.18865940608
 20
-43.98274671882592
  0
ARC
  5
144
330
2
100
AcDbEntity
  8
0
370
    18
100
AcDbCircle
 10
-2779.224390890876
 20
-44.03254373281842
 30
0.0
 40
0.0649975998612482
100
AcDbArc
 50
53.17485753122165
 51
115.0474106378754
  0
LWPOLYLINE
  5
145
330
2
100
AcDbEntity
  8
0
370
    18
100
AcDbPolyline
 90
       14
 70
   128
 43
0.0
 10
-2779.117311682176
 20
-44.2048729038372
 10
-2779.109942649062
 20
-44.19916267151553
 10
-2779.100752889378
 20
-44.18732884592244
 10
-2779.094446807862
 20
-44.17217218267978
 10
-2779.091239150695
 20
-44.15420882377101
 10
-2779.091239150695
 20
-44.1340504898593
 10
-2779.094446807862
 20
-44.11238364880652
 10
-2779.100752889378
 20
-44.089946138866
 10
-2779.109942649062
 20
-44.06750204260352
 10
-2779.121703140764
 20
-44.04581566669683
 10
-2779.135633875054
 20
-44.02562551475542
 10
-2779.151260457427
 20
-44.00761913814966
 10
-2779.168050743382
 20
-43.99240972244307
 10
-2779.185432959858
 20
-43.98051520606313
  0
ELLIPSE
  5
146
330
2
100
AcDbEntity
  8
0
370
    18
100
AcDbEllipse
 10
-2730.502572575149
 20
-16.50634295781623
 30
0.0
 11
-0.7819683163768876
 21
1.377822803039368
 31
0.0
210
0.0
220
0.0
230
1.0
 40
0.5822137395000002
 41
3.149113186086494
 42
3.867546498204852
  0
LINE
  5
147
330
2
100
AcDbEntity
  8
0
370
    18
100
AcDbLine
 10
-2729.39347243919
 20
-17.11480749969903
 30
0.0
 11
-2729.393480714292
 21
-17.11467067865223
 31
0.0
  0
LINE
  5
148
330
2
100
AcDbEntity
  8
0
370
    18
100
AcDbLine
 10
-2733.399777884104
 20
-19.7448919894911
 30
0.0
 11
-2733.415361766946
 21
-19.73589560542755
 31
0.0
  0
ARC
  5
149
330
2
100
AcDbEntity
  8
0
370
    18
100
AcDbCircle
 10
-2729.397719001488
 20
-17.20752329217958
 30
0.0
 40
0.0297606742135154
100
AcDbArc
 50
294.8054185852431
 51
352.1881016493999
  0
LINE
  5
14A
330
2
100
AcDbEntity
  8
0
370
    18
100
AcDbLine
 10
-2735.600648629656
 20
-17.63514712671482
 30
0.0
 11
-2735.60271393164
 21
-17.68951869403277
 31
0.0
  0
ARC
  5
14B
330
2
100
AcDbEntity
  8
0
370
    18
100
AcDbCircle
 10
-2735.588187145332
 20
-17.60890068437803
 30
0.0
 40
0.0290545061693869
100
AcDbArc
 50
182.2060885238981
 51
244.6022138117008
  0
SPLINE
  5
14C
330
2
100
AcDbEntity
  8
0
370
    18
100
AcDbSpline
210
0.0
220
0.0
230
1.0
 70
     8
 71
     3
 72
    16
 73
    12
 74
     0
 42
0.000000001
 43
0.0000000001
 40
0.0
 40
0.0
 40
0.0
 40
0.0
 40
0.0313944854202569
 40
0.1407535804470196
 40
0.2462708488869591
 40
0.3525207554696179
 40
0.4610813551011674
 40
0.5704403955710191
 40
0.7332597408342048
 40
0.8988172628168424
 40
1.0
 40
1.0
 40
1.0
 40
1.0
 10
-2735.430040803651
 20
-17.23650550663379
 30
0.0
 10
-2735.426788327576
 20
-17.23442469444126
 30
0.0
 10
-2735.412206223533
 20
-17.22509561124674
 30
0.0
 10
-2735.38380493283
 20
-17.21395206248969
 30
0.0
 10
-2735.345063862143
 20
-17.20317032365892
 30
0.0
 10
-2735.303973812781
 20
-17.19793371837299
 30
0.0
 10
-2735.260452882263
 20
-17.19786324165604
 30
0.0
 10
-2735.207321375768
 20
-17.20412621316206
 30
0.0
 10
-2735.143888214334
 20
-17.22051871188488
 30
0.0
 10
-2735.079912362559
 20
-17.24653345182329
 30
0.0
 10
-2735.039891535745
 20
-17.26873405759234
 30
0.0
 10
-2735.024710412302
 20
-17.27715542625211
 30
0.0
  0
ELLIPSE
  5
14D
330
2
100
AcDbEntity
  8
0
370
    18
100
AcDbEllipse
 10
-2731.03982317415
 20
-15.64165303772009
 30
0.0
 11
-0.412032835149577
 21
0.7023992331089169
 31
0.0
210
0.0
220
0.0
230
1.0
 40
0.5726848272000002
 41
5.493881218307862
 42
6.272919268065848
  0
ARC
  5
14E
330
2
100
AcDbEntity
  8
0
370
    18
100
AcDbCircle
 10
-2729.408664752935
 20
-16.54075780570753
 30
0.0
 40
0.0285188815141213
100
AcDbArc
 50
293.636757840535
 51
356.1834378717029
  0
ARC
  5
14F
330
2
100
AcDbEntity
  8
0
370
    18
100
AcDbCircle
 10
-2729.960217811319
 20
-15.61870048372981
 30
0.0
 40
0.0286992447921664
100
AcDbArc
 50
65.0689786839777
 51
126.2622082740884
  0
ARC
  5
150
330
2
100
AcDbEntity
  8
0
370
    18
100
AcDbCircle
 10
-2731.027515301532
 20
-15.0025601212717
 30
0.0
 40
0.0286959443592229
100
AcDbArc
 50
65.04616854275763
 51
126.2642898863008
  0
ENDSEC
  0
SECTION
  2
OBJECTS
  0
DICTIONARY
  5
9
330
0
100
AcDbDictionary
281
     1
  3
ACAD_DETAILVIEWSTYLE
350
15E
  3
ACAD_GROUP
350
30
  3
ACAD_IMAGE_VARS
350
17A
  3
ACAD_LAYOUT
350
16
  3
ACAD_MLINESTYLE
350
31
  3
ACAD_PLOTSETTINGS
350
32
  3
ACAD_PLOTSTYLENAME
350
8
  3
ACAD_SCALELIST
350
44
  3
ACAD_SECTIONVIEWSTYLE
350
160
  3
AcDbVariableDictionary
350
151
  3
AcDsDecomposeData
350
17E
  3
APPDATA
350
178
  3
DWGPROPS
350
17B
  0
DICTIONARY
  5
1C
330
1B
100
AcDbDictionary
280
     1
281
     1
  3
ACAD_LAYERSTATES
360
1D
  0
DICTIONARY
  5
5
330
4
100
AcDbDictionary
280
     1
281
     1
  3
ADSK_XREC_LAYER_RECONCILED
360
6
  0
DICTIONARY
  5
15E
102
{ACAD_REACTORS
330
9
102
}
330
9
100
AcDbDictionary
281
     1
  3
Metric50
350
15F
  0
DICTIONARY
  5
30
102
{ACAD_REACTORS
330
9
102
}
330
9
100
AcDbDictionary
281
     1
  0
RASTERVARIABLES
  5
17A
102
{ACAD_REACTORS
330
9
102
}
330
9
100
AcDbRasterVariables
 90
        0
 70
     1
 71
     1
 72
     1
  0
DICTIONARY
  5
16
102
{ACAD_REACTORS
330
9
102
}
330
9
100
AcDbDictionary
281
     1
  3
Layout1
350
1A
  3
Model
350
15
  0
DICTIONARY
  5
31
102
{ACAD_REACTORS
330
9
102
}
330
9
100
AcDbDictionary
281
     1
  3
Standard
350
47
  0
DICTIONARY
  5
32
102
{ACAD_REACTORS
330
9
102
}
330
9
100
AcDbDictionary
281
     1
  0
ACDBDICTIONARYWDFLT
  5
8
102
{ACAD_REACTORS
330
9
102
}
330
9
100
AcDbDictionary
281
     1
  3
Normal
350
7
100
AcDbDictionaryWithDefault
340
7
  0
DICTIONARY
  5
44
102
{ACAD_REACTORS
330
9
102
}
330
9
100
AcDbDictionary
281
     1
  3
A0
350
4B
  3
A1
350
4C
  3
A2
350
4D
  3
A3
350
4E
  3
A4
350
4F
  3
A5
350
50
  3
A6
350
51
  3
A7
350
52
  3
A8
350
53
  3
A9
350
54
  3
B0
350
55
  3
B1
350
56
  3
B2
350
57
  3
B3
350
58
  3
B4
350
59
  3
B5
350
5A
  3
B6
350
5B
  3
B7
350
5C
  3
B8
350
5D
  3
B9
350
5E
  3
C0
350
5F
  3
C1
350
60
  3
C2
350
61
  3
C3
350
62
  3
C4
350
63
  3
C5
350
64
  3
C6
350
65
  3
C7
350
66
  3
C8
350
67
  3
C9
350
68
  3
D0
350
69
  3
D1
350
6A
  3
D2
350
6B
  0
DICTIONARY
  5
160
102
{ACAD_REACTORS
330
9
102
}
330
9
100
AcDbDictionary
281
     1
  3
Metric50
350
161
  0
DICTIONARY
  5
151
102
{ACAD_REACTORS
330
9
102
}
330
9
100
AcDbDictionary
281
     1
  0
DICTIONARY
  5
17E
102
{ACAD_REACTORS
330
9
102
}
330
9
100
AcDbDictionary
281
     1
  3
AcDsRecords
350
17F
  3
AcDsSchemas
350
180
1001
ACAD
1070
     2
  0
DICTIONARY
  5
178
102
{ACAD_REACTORS
330
9
102
}
330
9
100
AcDbDictionary
281
     1
  0
XRECORD
  5
17B
102
{ACAD_REACTORS
330
9
102
}
330
9
100
AcDbXrecord
280
     1
  1
DWGPROPS COOKIE
  2

  3

  4

  6

  7

  8
j00675
  9

300
=
301
=
302
=
303
=
304
=
305
=
306
=
307
=
308
=
309
=
 40
0.0
 41
2457973.394116146
 42
2458016.312065799
  1

 90
        0
  0
DICTIONARY
  5
1D
102
{ACAD_REACTORS
330
1C
102
}
330
1C
100
AcDbDictionary
281
     1
  0
XRECORD
  5
6
102
{ACAD_REACTORS
330
5
102
}
330
5
100
AcDbXrecord
280
     1
290
     1
  0
ACDBDETAILVIEWSTYLE
  5
15F
102
{ACAD_REACTORS
330
15E
102
}
330
15E
100
AcDbModelDocViewStyle
 70
     0
  3
Metric50
290
     0
100
AcDbDetailViewStyle
 70
     0
 71
     0
 90
        3
 71
     1
340
1F
 40
5.0
340
0
 40
5.0
300

 40
0.36
280
     1
 71
     2
340
13
 90
       25
 71
     3
340
1F
 40
5.0
 90
        0
 40
15.0
 90
        1
300
%<\AcVar ViewDetailId>% (%<\AcVar ViewScale \f "%sn">%)
 71
     4
340
13
 90
       25
340
13
 90
       25
280
     0
  0
LAYOUT
  5
1A
102
{ACAD_REACTORS
330
16
102
}
330
16
100
AcDbPlotSettings
  1

  2
none_device
  4

  6

 40
0.0
 41
0.0
 42
0.0
 43
0.0
 44
0.0
 45
0.0
 46
0.0
 47
0.0
 48
0.0
 49
0.0
140
0.0
141
0.0
142
1.0
143
1.0
 70
   688
 72
     1
 73
     0
 74
     5
  7

 75
    16
147
1.0
148
0.0
149
0.0
100
AcDbLayout
  1
Layout1
 70
     1
 71
     1
 10
0.0
 20
0.0
 11
420.0
 21
297.0
 12
0.0
 22
0.0
 32
0.0
 14
1.000000000000000E+20
 24
1.000000000000000E+20
 34
1.000000000000000E+20
 15
-1.000000000000000E+20
 25
-1.000000000000000E+20
 35
-1.000000000000000E+20
146
0.0
 13
0.0
 23
0.0
 33
0.0
 16
1.0
 26
0.0
 36
0.0
 17
0.0
 27
1.0
 37
0.0
 76
     0
330
17
  0
LAYOUT
  5
15
102
{ACAD_REACTORS
330
16
102
}
102
{ACAD_XDICTIONARY
360
17C
102
}
330
16
100
AcDbPlotSettings
  1

  2
none_device
  4
Letter_(8.50_x_11.00_Inches)
  6

 40
6.349999999999999
 41
6.349999999999999
 42
6.350005079999999
 43
6.350005079999999
 44
215.9
 45
279.4
 46
0.0
 47
0.0
 48
0.0
 49
0.0
140
0.0
141
0.0
142
1.0
143
1.0
 70
  1712
 72
     1
 73
     0
 74
     0
  7

 75
     0
147
1.0
148
0.0
149
0.0
100
AcDbLayout
  1
Model
 70
     1
 71
     0
 10
0.0
 20
0.0
 11
420.0
 21
297.0
 12
0.0
 22
0.0
 32
0.0
 14
-2779.340752658452
 24
-45.42188701257817
 34
0.0
 15
-2729.291688820797
 25
-14.89773783183628
 35
0.0
146
0.0
 13
0.0
 23
0.0
 33
0.0
 16
1.0
 26
0.0
 36
0.0
 17
0.0
 27
1.0
 37
0.0
 76
     0
330
2
331
27
  0
MLINESTYLE
  5
47
102
{ACAD_REACTORS
330
31
102
}
330
31
100
AcDbMlineStyle
  2
STANDARD
 70
     0
  3

 62
   256
 51
90.0
 52
90.0
 71
     2
 49
0.5
 62
   256
  6
BYLAYER
 49
-0.5
 62
   256
  6
BYLAYER
  0
ACDBPLACEHOLDER
  5
7
102
{ACAD_REACTORS
330
8
102
}
330
8
  0
SCALE
  5
4B
102
{ACAD_REACTORS
330
44
102
}
330
44
100
AcDbScale
 70
     0
300
1:1
140
1.0
141
1.0
290
     1
  0
SCALE
  5
4C
102
{ACAD_REACTORS
330
44
102
}
330
44
100
AcDbScale
 70
     0
300
1:2
140
1.0
141
2.0
290
     0
  0
SCALE
  5
4D
102
{ACAD_REACTORS
330
44
102
}
330
44
100
AcDbScale
 70
     0
300
1:4
140
1.0
141
4.0
290
     0
  0
SCALE
  5
4E
102
{ACAD_REACTORS
330
44
102
}
330
44
100
AcDbScale
 70
     0
300
1:5
140
1.0
141
5.0
290
     0
  0
SCALE
  5
4F
102
{ACAD_REACTORS
330
44
102
}
330
44
100
AcDbScale
 70
     0
300
1:8
140
1.0
141
8.0
290
     0
  0
SCALE
  5
50
102
{ACAD_REACTORS
330
44
102
}
330
44
100
AcDbScale
 70
     0
300
1:10
140
1.0
141
10.0
290
     0
  0
SCALE
  5
51
102
{ACAD_REACTORS
330
44
102
}
330
44
100
AcDbScale
 70
     0
300
1:16
140
1.0
141
16.0
290
     0
  0
SCALE
  5
52
102
{ACAD_REACTORS
330
44
102
}
330
44
100
AcDbScale
 70
     0
300
1:20
140
1.0
141
20.0
290
     0
  0
SCALE
  5
53
102
{ACAD_REACTORS
330
44
102
}
330
44
100
AcDbScale
 70
     0
300
1:30
140
1.0
141
30.0
290
     0
  0
SCALE
  5
54
102
{ACAD_REACTORS
330
44
102
}
330
44
100
AcDbScale
 70
     0
300
1:40
140
1.0
141
40.0
290
     0
  0
SCALE
  5
55
102
{ACAD_REACTORS
330
44
102
}
330
44
100
AcDbScale
 70
     0
300
1:50
140
1.0
141
50.0
290
     0
  0
SCALE
  5
56
102
{ACAD_REACTORS
330
44
102
}
330
44
100
AcDbScale
 70
     0
300
1:100
140
1.0
141
100.0
290
     0
  0
SCALE
  5
57
102
{ACAD_REACTORS
330
44
102
}
330
44
100
AcDbScale
 70
     0
300
2:1
140
2.0
141
1.0
290
     0
  0
SCALE
  5
58
102
{ACAD_REACTORS
330
44
102
}
330
44
100
AcDbScale
 70
     0
300
4:1
140
4.0
141
1.0
290
     0
  0
SCALE
  5
59
102
{ACAD_REACTORS
330
44
102
}
330
44
100
AcDbScale
 70
     0
300
8:1
140
8.0
141
1.0
290
     0
  0
SCALE
  5
5A
102
{ACAD_REACTORS
330
44
102
}
330
44
100
AcDbScale
 70
     0
300
10:1
140
10.0
141
1.0
290
     0
  0
SCALE
  5
5B
102
{ACAD_REACTORS
330
44
102
}
330
44
100
AcDbScale
 70
     0
300
100:1
140
100.0
141
1.0
290
     0
  0
SCALE
  5
5C
102
{ACAD_REACTORS
330
44
102
}
330
44
100
AcDbScale
 70
     0
300
1/128" = 1'-0"
140
0.0078125
141
12.0
290
     0
  0
SCALE
  5
5D
102
{ACAD_REACTORS
330
44
102
}
330
44
100
AcDbScale
 70
     0
300
1/64" = 1'-0"
140
0.015625
141
12.0
290
     0
  0
SCALE
  5
5E
102
{ACAD_REACTORS
330
44
102
}
330
44
100
AcDbScale
 70
     0
300
1/32" = 1'-0"
140
0.03125
141
12.0
290
     0
  0
SCALE
  5
5F
102
{ACAD_REACTORS
330
44
102
}
330
44
100
AcDbScale
 70
     0
300
1/16" = 1'-0"
140
0.0625
141
12.0
290
     0
  0
SCALE
  5
60
102
{ACAD_REACTORS
330
44
102
}
330
44
100
AcDbScale
 70
     0
300
3/32" = 1'-0"
140
0.09375
141
12.0
290
     0
  0
SCALE
  5
61
102
{ACAD_REACTORS
330
44
102
}
330
44
100
AcDbScale
 70
     0
300
1/8" = 1'-0"
140
0.125
141
12.0
290
     0
  0
SCALE
  5
62
102
{ACAD_REACTORS
330
44
102
}
330
44
100
AcDbScale
 70
     0
300
3/16" = 1'-0"
140
0.1875
141
12.0
290
     0
  0
SCALE
  5
63
102
{ACAD_REACTORS
330
44
102
}
330
44
100
AcDbScale
 70
     0
300
1/4" = 1'-0"
140
0.25
141
12.0
290
     0
  0
SCALE
  5
64
102
{ACAD_REACTORS
330
44
102
}
330
44
100
AcDbScale
 70
     0
300
3/8" = 1'-0"
140
0.375
141
12.0
290
     0
  0
SCALE
  5
65
102
{ACAD_REACTORS
330
44
102
}
330
44
100
AcDbScale
 70
     0
300
1/2" = 1'-0"
140
0.5
141
12.0
290
     0
  0
SCALE
  5
66
102
{ACAD_REACTORS
330
44
102
}
330
44
100
AcDbScale
 70
     0
300
3/4" = 1'-0"
140
0.75
141
12.0
290
     0
  0
SCALE
  5
67
102
{ACAD_REACTORS
330
44
102
}
330
44
100
AcDbScale
 70
     0
300
1" = 1'-0"
140
1.0
141
12.0
290
     0
  0
SCALE
  5
68
102
{ACAD_REACTORS
330
44
102
}
330
44
100
AcDbScale
 70
     0
300
1-1/2" = 1'-0"
140
1.5
141
12.0
290
     0
  0
SCALE
  5
69
102
{ACAD_REACTORS
330
44
102
}
330
44
100
AcDbScale
 70
     0
300
3" = 1'-0"
140
3.0
141
12.0
290
     0
  0
SCALE
  5
6A
102
{ACAD_REACTORS
330
44
102
}
330
44
100
AcDbScale
 70
     0
300
6" = 1'-0"
140
6.0
141
12.0
290
     0
  0
SCALE
  5
6B
102
{ACAD_REACTORS
330
44
102
}
330
44
100
AcDbScale
 70
     0
300
1'-0" = 1'-0"
140
12.0
141
12.0
290
     0
  0
ACDBSECTIONVIEWSTYLE
  5
161
102
{ACAD_REACTORS
330
160
102
}
330
160
100
AcDbModelDocViewStyle
 70
     0
  3
Metric50
290
     0
100
AcDbSectionViewStyle
 70
     0
 71
     0
 90
      102
 71
     1
340
1F
 40
5.0
340
0
340
0
 40
5.0
300
I, O, Q, S, X, Z
 40
10.0
 90
        0
 40
2.5
 90
        0
 71
     2
340
13
 90
       25
340
13
 90
       50
 40
5.0
 40
2.5
 40
5.0
 71
     3
340
1F
 40
5.0
 90
        0
 40
15.0
 90
        1
300
%<\AcVar ViewSectionStartId>%-%<\AcVar ViewSectionEndId>% (%<\AcVar ViewScale \f "%sn">%)
 71
     4
300
ANSI31
 40
1.0
 90
        0
290
     0
290
     0
 90
        6
 40
0.0
 40
1.570796
 40
0.261799
 40
1.308997
 40
-0.261799
 40
1.832596
  0
DICTIONARY
  5
17F
102
{ACAD_REACTORS
330
17E
102
}
330
17E
100
AcDbDictionary
281
     1
  0
DICTIONARY
  5
180
102
{ACAD_REACTORS
330
17E
102
}
330
17E
100
AcDbDictionary
281
     1
  3
8796088911344
350
181
  3
8796088911360
350
182
  3
8796088911376
350
183
  3
8796088911392
350
184
  3
8796088911408
350
185
  3
8796088911424
350
186
  0
DICTIONARY
  5
17C
330
15
100
AcDbDictionary
280
     1
281
     1
  3
ADSK_XREC_LAYOUTTHUMBNAIL
360
17D
  0
XRECORD
  5
181
102
{ACAD_REACTORS
330
180
102
}
330
180
100
AcDbXrecord
280
     1
  1
AcDb_Thumbnail_Schema
102
{ATTRRECORD
341
183
  2
AcDbDs::TreatedAsObjectData
280
     1
291
     1
102
ATTRRECORD}
102
{ATTRRECORD
341
184
  2
AcDbDs::Legacy
280
     1
291
     1
102
ATTRRECORD}
  2
AcDbDs::ID
280
    10
 91
        8
102
{ATTRRECORD
341
185
  2
AcDs:Indexable
280
     1
291
     1
102
ATTRRECORD}
102
{ATTRRECORD
341
186
  2
AcDbDs::HandleAttribute
280
     7
282
     1
102
ATTRRECORD}
  2
Thumbnail_Data
280
    15
 91
        0
  0
XRECORD
  5
182
102
{ACAD_REACTORS
330
180
102
}
330
180
100
AcDbXrecord
280
     1
  1
AcDb3DSolid_ASM_Data
102
{ATTRRECORD
341
183
  2
AcDbDs::TreatedAsObjectData
280
     1
291
     1
102
ATTRRECORD}
102
{ATTRRECORD
341
184
  2
AcDbDs::Legacy
280
     1
291
     1
102
ATTRRECORD}
  2
AcDbDs::ID
280
    10
 91
        8
102
{ATTRRECORD
341
185
  2
AcDs:Indexable
280
     1
291
     1
102
ATTRRECORD}
102
{ATTRRECORD
341
186
  2
AcDbDs::HandleAttribute
280
     7
282
     1
102
ATTRRECORD}
  2
ASM_Data
280
    15
 91
        0
  0
XRECORD
  5
183
102
{ACAD_REACTORS
330
180
102
}
330
180
100
AcDbXrecord
280
     1
  1
AcDbDs::TreatedAsObjectDataSchema
  2
AcDbDs::TreatedAsObjectData
280
     1
 91
        0
  0
XRECORD
  5
184
102
{ACAD_REACTORS
330
180
102
}
330
180
100
AcDbXrecord
280
     1
  1
AcDbDs::LegacySchema
  2
AcDbDs::Legacy
280
     1
 91
        0
  0
XRECORD
  5
185
102
{ACAD_REACTORS
330
180
102
}
330
180
100
AcDbXrecord
280
     1
  1
AcDbDs::IndexedPropertySchema
  2
AcDs:Indexable
280
     1
 91
        0
  0
XRECORD
  5
186
102
{ACAD_REACTORS
330
180
102
}
330
180
100
AcDbXrecord
280
     1
  1
AcDbDs::HandleAttributeSchema
  2
AcDbDs::HandleAttribute
280
     7
 91
        1
284
     1
  0
XRECORD
  5
17D
102
{ACAD_REACTORS
330
17C
102
}
330
17C
100
AcDbXrecord
280
     1
310
28000000000100007600000001000800000000000076000000000000000000000000000000000000302821FF000000FFC8C8C8FF000000FF000000FF000000FF000000FF000000FF000000FF000000FF000000FF330000FF660000FF990000FFCC0000FFFF0000FF003300FF333300FF663300FF993300FFCC3300FFFF3300
310
FF006600FF336600FF666600FF996600FFCC6600FFFF6600FF009900FF339900FF669900FF999900FFCC9900FFFF9900FF00CC00FF33CC00FF66CC00FF99CC00FFCCCC00FFFFCC00FF00FF00FF33FF00FF66FF00FF99FF00FFCCFF00FFFFFF00FF000033FF330033FF660033FF990033FFCC0033FFFF0033FF003333FF3333
310
33FF663333FF993333FFCC3333FFFF3333FF006633FF336633FF666633FF996633FFCC6633FFFF6633FF009933FF339933FF669933FF999933FFCC9933FFFF9933FF00CC33FF33CC33FF66CC33FF99CC33FFCCCC33FFFFCC33FF00FF33FF33FF33FF66FF33FF99FF33FFCCFF33FFFFFF33FF000066FF330066FF660066FF99
310
0066FFCC0066FFFF0066FF003366FF333366FF663366FF993366FFCC3366FFFF3366FF006666FF336666FF666666FF996666FFCC6666FFFF6666FF009966FF339966FF669966FF999966FFCC9966FFFF9966FF00CC66FF33CC66FF66CC66FF99CC66FFCCCC66FFFFCC66FF00FF66FF33FF66FF66FF66FF99FF66FFCCFF66FF
310
FFFF66FF000099FF330099FF660099FF990099FFCC0099FFFF0099FF003399FF333399FF663399FF993399FFCC3399FFFF3399FF006699FF336699FF666699FF996699FFCC6699FFFF6699FF009999FF339999FF669999FF999999FFCC9999FFFF9999FF00CC99FF33CC99FF66CC99FF99CC99FFCCCC99FFFFCC99FF00FF99
310
FF33FF99FF66FF99FF99FF99FFCCFF99FFFFFF99FF0000CCFF3300CCFF6600CCFF9900CCFFCC00CCFFFF00CCFF0033CCFF3333CCFF6633CCFF9933CCFFCC33CCFFFF33CCFF0066CCFF3366CCFF6666CCFF9966CCFFCC66CCFFFF66CCFF0099CCFF3399CCFF6699CCFF9999CCFFCC99CCFFFF99CCFF00CCCCFF33CCCCFF66CC
310
CCFF99CCCCFFCCCCCCFFFFCCCCFF00FFCCFF33FFCCFF66FFCCFF99FFCCFFCCFFCCFFFFFFCCFF0000FFFF3300FFFF6600FFFF9900FFFFCC00FFFFFF00FFFF0033FFFF3333FFFF6633FFFF9933FFFFCC33FFFFFF33FFFF0066FFFF3366FFFF6666FFFF9966FFFFCC66FFFFFF66FFFF0099FFFF3399FFFF6699FFFF9999FFFFCC
310
99FFFFFF99FFFF00CCFFFF33CCFFFF66CCFFFF99CCFFFFCCCCFFFFFFCCFFFF00FFFFFF33FFFFFF66FFFFFF99FFFFFFCCFFFFFFFFFFFFFF000000FF0D0D0DFF1A1A1AFF282828FF353535FF434343FF505050FF5D5D5DFF6B6B6BFF787878FF868686FF939393FFA1A1A1FFAEAEAEFFBBBBBBFFC9C9C9FFD6D6D6FFE4E4E4FF
310
F1F1F1FFFFFFFFFF000000FF000000FF000000FF000000FF000000FF000000FF000000FF000000FF000000FF000000FF00000000000000000000000000000000000000000000000000000000000000000000000000000000000000000000000000000000000000000000000000000000000000000000000000000000000000
310
00000000000000000000000000000000000000000000000000000000000000000000000000000000000000000000000000000000000000000000000000000000000000000000000000000000000000000000000000000000000000000000000000000000000000000000000000000000000000000000000000000000000000
310
000000000000000000F5F50000000000000000000000000000000000000000000000000000000000000000000000000000000000000000000000000000000000000000000000000000000000000000000000000000000000000000000000000000000000000000000000000000000000000000000000000000000000000000
310
00000000000000000000000000000000000000000000000000000000000000000000000000000000000000000000000000000000000000000000000000000000000000000000000000000000000000000000000000000000000000000000000000000000000000000000000000000000000000000000000000000000000000
310
0000000000000000000000F5F5F5F500000000000000000000000000000000000000000000000000000000000000000000000000000000000000000000000000000000000000000000000000000000000000000000000000000000000000000000000000000000000000000000000000000000000000000000000000000000
310
00000000000000000000000000000000000000000000000000000000000000000000000000000000000000000000000000000000000000000000000000000000000000000000000000000000000000000000000000000000000000000000000000000000000000000000000000000000000000000000000000000000000000
310
0000000000000000000000F5F5F5000000F5F5000000000000000000000000000000000000000000000000000000000000000000000000000000000000000000000000000000000000000000000000000000000000000000000000000000000000000000000000000000000000000000000000000000000000000000000000
310
00000000000000000000000000000000000000000000000000000000000000000000000000000000000000000000000000000000000000000000000000000000000000000000000000000000000000000000000000000000000000000000000000000000000000000000000000000000000000000000000000000000000000
310
0000000000000000000000F5F5F500000000000000F5000000000000000000000000000000000000000000000000000000000000000000000000000000000000000000000000000000000000000000000000000000000000000000000000000000000000000000000000000000000000000000000000000000000000000000
310
00000000000000000000000000000000000000000000000000000000000000000000000000000000000000000000000000000000000000000000000000000000000000000000000000000000000000000000000000000000000000000000000000000000000000000000000000000000000000000000000000000000000000
310
0000000000000000000000F5F5F500000000000000F5F5F5F5000000000000000000000000000000000000000000000000000000000000000000000000000000000000000000000000000000000000000000000000000000000000000000000000000000000000000000000000000000000000000000000000000000000000
310
00000000000000000000000000000000000000000000000000000000000000000000000000000000000000000000000000000000000000000000000000000000000000000000000000000000000000000000000000000000000000000000000000000000000000000000000000000000000000000000000000000000000000
310
0000000000000000000000F5F5F500000000000000F5F5000000F5F5000000000000000000000000000000000000000000000000000000000000000000000000000000000000000000000000000000000000000000000000000000000000000000000000000000000000000000000000000000000000000000000000000000
310
00000000000000000000000000000000000000000000000000000000000000000000000000000000000000000000000000000000000000000000000000000000000000000000000000000000000000000000000000000000000000000000000000000000000000000000000000000000000000000000000000000000000000
310
0000000000000000000000F5F5F50000000000000000F5000000000000F500000000000000000000000000000000000000000000000000000000000000000000000000000000000000000000000000000000000000000000000000000000000000000000000000000000000000000000000000000000000000000000000000
310
00000000000000000000000000000000000000000000000000000000000000000000000000000000000000000000000000000000000000000000000000000000000000000000000000000000000000000000000000000000000000000000000000000000000000000000000000000000000000000000000000000000000000
310
0000000000000000000000F5F5F50000000000000000F5F500000000000000F50000000000000000000000000000000000000000000000000000000000000000000000000000000000000000000000000000000000000000000000000000000000000000000000000000000000000000000000000000000000000000000000
310
00000000000000000000000000000000000000000000000000000000000000000000000000000000000000000000000000000000000000000000000000000000000000000000000000000000000000000000000000000000000000000000000000000000000000000000000000000000000000000000000000000000000000
310
0000000000000000000000F5F5F50000000000000000F5F500000000000000F5F5F5000000000000000000000000000000000000000000000000000000000000000000000000000000000000000000000000000000000000000000000000000000000000000000000000000000000000000000000000000000000000000000
310
00000000000000000000000000000000000000000000000000000000000000000000000000000000000000000000000000000000000000000000000000000000000000000000000000000000000000000000000000000000000000000000000000000000000000000000000000000000000000000000000000000000000000
310
000000000000000000000000F5F5000000000000000000F500000000000000F5F50000F500000000000000000000000000000000000000000000000000000000000000000000000000000000000000000000000000000000000000000000000000000000000000000000000000000000000000000000000000000000000000
310
00000000000000000000000000000000000000000000000000000000000000000000000000000000000000000000000000000000000000000000000000000000000000000000000000000000000000000000000000000000000000000000000000000000000000000000000000000000000000000000000000000000000000
310
00000000000000000000000000F5F5F5F5F50000000000F5F500000000000000F50000F5F5F50000000000000000000000000000000000000000000000000000000000000000000000000000000000000000000000000000000000000000000000000000000000000000000000000000000000000000000000000000000000
310
00000000000000000000000000000000000000000000000000000000000000000000000000000000000000000000000000000000000000000000000000000000000000000000000000000000000000000000000000000000000000000000000000000000000000000000000000000000000000000000000000000000000000
310
000000000000000000000000000000F5F5F5F5F5F50000F5F500000000000000F5F500F5F500F5F5000000000000000000000000000000000000000000000000000000000000000000000000000000000000000000000000000000000000000000000000000000000000000000000000000000000000000000000000000000
310
00000000000000000000000000000000000000000000000000000000000000000000000000000000000000000000000000000000000000000000000000000000000000000000000000000000000000000000000000000000000000000000000000000000000000000000000000000000000000000000000000000000000000
310
000000000000000000000000000000F5F5F50000F5F5F5F5F500000000000000F5F500F5F5000000F50000000000000000000000000000000000000000000000000000000000000000000000000000000000000000000000000000000000000000000000000000000000000000000000000000000000000000000000000000
310
00000000000000000000000000000000000000000000000000000000000000000000000000000000000000000000000000000000000000000000000000000000000000000000000000000000000000000000000000000000000000000000000000000000000000000000000000000000000000000000000000000000000000
310
000000000000000000000000000000F5F500000000000000F5F5F5F50000000000F500F5F5F50000F5F500000000000000000000000000000000000000000000000000000000000000000000000000000000000000000000000000000000000000000000000000000000000000000000000000000000000000000000000000
310
00000000000000000000000000000000000000000000000000000000000000000000000000000000000000000000000000000000000000000000000000000000000000000000000000000000000000000000000000000000000000000000000000000000000000000000000000000000000000000000000000000000000000
310
000000000000000000000000000000F5F5000000000000000000F5F5F5F5F50000F5F5F5F5F50000F5F500000000000000000000000000000000000000000000000000000000000000000000000000000000000000000000000000000000000000000000000000000000000000000000000000000000000000000000000000
310
00000000000000000000000000000000000000000000000000000000000000000000000000000000000000000000000000000000000000000000000000000000000000000000000000000000000000000000000000000000000000000000000000000000000000000000000000000000000000000000000000000000000000
310
00000000000000000000000000000000F5000000000000000000000000F5F5F5F5F5F5F5F5F50000F5F500000000000000000000000000000000000000000000000000000000000000000000000000000000000000000000000000000000000000000000000000000000000000000000000000000000000000000000000000
310
00000000000000000000000000000000000000000000000000000000000000000000000000000000000000000000000000000000000000000000000000000000000000000000000000000000000000000000000000000000000000000000000000000000000000000000000000000000000000000000000000000000000000
310
00000000000000000000000000000000F5F50000000000000000000000000000F5F5F5F5F5F5F500F5F500000000000000000000000000000000000000000000000000000000000000000000000000000000000000000000000000000000000000000000000000000000000000000000000000000000000000000000000000
310
00000000000000000000000000000000000000000000000000000000000000000000000000000000000000000000000000000000000000000000000000000000000000000000000000000000000000000000000000000000000000000000000000000000000000000000000000000000000000000000000000000000000000
310
00000000000000000000000000000000F5F500000000000000000000000000000000F5F5F5F5F500F5F500000000000000000000000000000000000000000000000000000000000000000000000000000000000000000000000000000000000000000000000000000000000000000000000000000000000000000000000000
310
00000000000000000000000000000000000000000000000000000000000000000000000000000000000000000000000000000000000000000000000000000000000000000000000000000000000000000000000000000000000000000000000000000000000000000000000000000000000000000000000000000000000000
310
00000000000000000000000000000000F5F5000000000000000000000000000000000000F5F5F500F5F500000000000000000000000000000000000000000000000000000000000000000000000000000000000000000000000000000000000000000000000000000000000000000000000000000000000000000000000000
310
00000000000000000000000000000000000000000000000000000000000000000000000000000000000000000000000000000000000000000000000000000000000000000000000000000000000000000000000000000000000000000000000000000000000000000000000000000000000000000000000000000000000000
310
0000000000000000000000000000000000F5000000000000000000000000000000000000F5F5F5F5F5F500000000000000000000000000000000000000000000000000000000000000000000000000000000000000000000000000000000000000000000000000000000000000000000000000000000000000000000000000
310
00000000000000000000000000000000000000000000000000000000000000000000000000000000000000000000000000000000000000000000000000000000000000000000000000000000000000000000000000000000000000000000000000000000000000000000000000000000000000000000000000000000000000
310
0000000000000000000000000000000000F5F50000000000000000000000000000000000F5F5F500F5F500000000000000000000000000000000000000000000000000000000000000000000000000000000000000000000000000000000000000000000000000000000000000000000000000000000000000000000000000
310
00000000000000000000000000000000000000000000000000000000000000000000000000000000000000000000000000000000000000000000000000000000000000000000000000000000000000000000000000000000000000000000000000000000000000000000000000000000000000000000000000000000000000
310
0000000000000000000000000000000000F5F50000000000000000000000000000000000F5F5F50000F5F5F50000000000000000000000000000000000000000000000000000000000000000000000000000000000000000000000000000000000000000000000000000000000000000000000000000000000000000000000
310
00000000000000000000000000000000000000000000000000000000000000000000000000000000000000000000000000000000000000000000000000000000000000000000000000000000000000000000000000000000000000000000000000000000000000000000000000000000000000000000000000000000000000
310
0000000000000000000000000000000000F5F5000000000000000000000000000000000000F5F50000F5F5F50000000000000000000000000000000000000000000000000000000000000000000000000000000000000000000000000000000000000000000000000000000000000000000000000000000000000000000000
310
00000000000000000000000000000000000000000000000000000000000000000000000000000000000000000000000000000000000000000000000000000000000000000000000000000000000000000000000000000000000000000000000000000000000000000000000000000000000000000000000000000000000000
310
000000000000000000000000000000000000F5000000000000000000000000000000000000F5F5F500F5F5000000000000000000000000000000000000000000000000000000000000000000000000000000000000000000000000000000000000000000000000000000000000000000000000000000000000000000000000
310
00000000000000000000000000000000000000000000000000000000000000000000000000000000000000000000000000000000000000000000000000000000000000000000000000000000000000000000000000000000000000000000000000000000000000000000000000000000000000000000000000000000000000
310
000000000000000000000000000000000000F5F50000000000000000000000000000000000F5F5F500F5F5000000000000000000000000000000000000000000000000000000000000000000000000000000000000000000000000000000000000000000000000000000000000000000000000000000000000000000000000
310
00000000000000000000000000000000000000000000000000000000000000000000000000000000000000000000000000000000000000000000000000000000000000000000000000000000000000000000000000000000000000000000000000000000000000000000000000000000000000000000000000000000000000
310
000000000000000000000000000000000000F5F50000000000000000000000000000000000F5F5F50000F5000000000000000000000000000000000000000000000000000000000000000000000000000000000000000000000000000000000000000000000000000000000000000000000000000000000000000000000000
310
00000000000000000000000000000000000000000000000000000000000000000000000000000000000000000000000000000000000000000000000000000000000000000000000000000000000000000000000000000000000000000000000000000000000000000000000000000000000000000000000000000000000000
310
000000000000000000000000000000000000F5F5000000000000000000000000000000000000F5F50000F5F50000000000000000000000000000000000000000000000000000000000000000000000000000000000000000000000000000000000000000000000000000000000000000000000000000000000000000000000
310
00000000000000000000000000000000000000000000000000000000000000000000000000000000000000000000000000000000000000000000000000000000000000000000000000000000000000000000000000000000000000000000000000000000000000000000000000000000000000000000000000000000000000
310
00000000000000000000000000000000000000F5000000000000000000000000000000000000F5F5F500F5F50000000000000000000000000000000000000000000000000000000000000000000000000000000000000000000000000000000000000000000000000000000000000000000000000000000000000000000000
310
00000000000000000000000000000000000000000000000000000000000000000000000000000000000000000000000000000000000000000000000000000000000000000000000000000000000000000000000000000000000000000000000000000000000000000000000000000000000000000000000000000000000000
310
00000000000000000000000000000000000000F5F50000000000000000000000000000000000F5F5F50000F50000000000000000000000000000000000000000000000000000000000000000000000000000000000000000000000000000000000000000000000000000000000000000000000000000000000000000000000
310
00000000000000000000000000000000000000000000000000000000000000000000000000000000000000000000000000000000000000000000000000000000000000000000000000000000000000000000000000000000000000000000000000000000000000000000000000000000000000000000000000000000000000
310
00000000000000000000000000000000000000F5F5000000000000000000000000000000000000F5F50000F5F500000000000000000000000000000000000000000000000000000000000000000000000000000000000000000000000000000000000000000000000000000000000000000000000000000000000000000000
310
00000000000000000000000000000000000000000000000000000000000000000000000000000000000000000000000000000000000000000000000000000000000000000000000000000000000000000000000000000000000000000000000000000000000000000000000000000000000000000000000000000000000000
310
00000000000000000000000000000000000000F5F5000000000000000000000000000000000000F5F50000F5F500000000000000000000000000000000000000000000000000000000000000000000000000000000000000000000000000000000000000000000000000000000000000000000000000000000000000000000
310
00000000000000000000000000000000000000000000000000000000000000000000000000000000000000000000000000000000000000000000000000000000000000000000000000000000000000000000000000000000000000000000000000000000000000000000000000000000000000000000000000000000000000
310
0000000000000000000000000000000000000000F5000000000000000000000000000000000000F5F5F500F5F500000000000000000000000000000000000000000000000000000000000000000000000000000000000000000000000000000000000000000000000000000000000000000000000000000000000000000000
310
00000000000000000000000000000000000000000000000000000000000000000000000000000000000000000000000000000000000000000000000000000000000000000000000000000000000000000000000000000000000000000000000000000000000000000000000000000000000000000000000000000000000000
310
0000000000000000000000000000000000000000F5F50000000000000000000000000000000000F5F5F50000F500000000000000000000000000000000000000000000000000000000000000000000000000000000000000000000000000000000000000000000000000000000000000000000000000000000000000000000
310
00000000000000000000000000000000000000000000000000000000000000000000000000000000000000000000000000000000000000000000000000000000000000000000000000000000000000000000000000000000000000000000000000000000000000000000000000000000000000000000000000000000000000
310
0000000000000000000000000000000000000000F5F5000000000000000000000000000000000000F5F50000F5F5000000000000000000000000000000000000000000000000000000000000000000000000000000000000000000000000000000000000000000000000000000000000000000000000000000000000000000
310
00000000000000000000000000000000000000000000000000000000000000000000000000000000000000000000000000000000000000000000000000000000000000000000000000000000000000000000000000000000000000000000000000000000000000000000000000000000000000000000000000000000000000
310
000000000000000000000000000000000000000000F5000000000000000000000000000000000000F5F50000F5F5000000000000000000000000000000000000000000000000000000000000000000000000000000000000000000000000000000000000000000000000000000000000000000000000000000000000000000
310
00000000000000000000000000000000000000000000000000000000000000000000000000000000000000000000000000000000000000000000000000000000000000000000000000000000000000000000000000000000000000000000000000000000000000000000000000000000000000000000000000000000000000
310
000000000000000000000000000000000000000000F5F50000000000000000000000000000000000F5F5F500F5F5000000000000000000000000000000000000000000000000000000000000000000000000000000000000000000000000000000000000000000000000000000000000000000000000000000000000000000
310
00000000000000000000000000000000000000000000000000000000000000000000000000000000000000000000000000000000000000000000000000000000000000000000000000000000000000000000000000000000000000000000000000000000000000000000000000000000000000000000000000000000000000
310
000000000000000000000000000000000000000000F5F50000000000000000000000000000000000F5F5F50000F5000000000000000000000000000000000000000000000000000000000000000000000000000000000000000000000000000000000000000000000000000000000000000000000000000000000000000000
310
00000000000000000000000000000000000000000000000000000000000000000000000000000000000000000000000000000000000000000000000000000000000000000000000000000000000000000000000000000000000000000000000000000000000000000000000000000000000000000000000000000000000000
310
000000000000000000000000000000000000000000F5F5000000000000000000000000000000000000F5F50000F5F50000000000000000000000000000000000000000000000000000000000000000000000000000000000000000000000000000000000000000000000000000000000000000000000000000000000000000
310
00000000000000000000000000000000000000000000000000000000000000000000000000000000000000000000000000000000000000000000000000000000000000000000000000000000000000000000000000000000000000000000000000000000000000000000000000000000000000000000000000000000000000
310
00000000000000000000000000000000000000000000F5000000000000000000000000000000000000F5F50000F5F50000000000000000000000000000000000000000000000000000000000000000000000000000000000000000000000000000000000000000000000000000000000000000000000000000000000000000
310
00000000000000000000000000000000000000000000000000000000000000000000000000000000000000000000000000000000000000000000000000000000000000000000000000000000000000000000000000000000000000000000000000000000000000000000000000000000000000000000000000000000000000
310
00000000000000000000000000000000000000000000F5F50000000000000000000000000000000000F5F5F50000F50000000000000000000000000000000000000000000000000000000000000000000000000000000000000000000000000000000000000000000000000000000000000000000000000000000000000000
310
00000000000000000000000000000000000000000000000000000000000000000000000000000000000000000000000000000000000000000000000000000000000000000000000000000000000000000000000000000000000000000000000000000000000000000000000000000000000000000000000000000000000000
310
00000000000000000000000000000000000000000000F5F50000000000000000000000000000000000F5F5F50000F5F500000000000000000000000000000000000000000000000000000000000000000000000000000000000000000000000000000000000000000000000000000000000000000000000000000000000000
310
00000000000000000000000000000000000000000000000000000000000000000000000000000000000000000000000000000000000000000000000000000000000000000000000000000000000000000000000000000000000000000000000000000000000000000000000000000000000000000000000000000000000000
310
00000000000000000000000000000000000000000000F5F5000000000000000000000000000000000000F5F50000F5F500000000000000000000000000000000000000000000000000000000000000000000000000000000000000000000000000000000000000000000000000000000000000000000000000000000000000
310
00000000000000000000000000000000000000000000000000000000000000000000000000000000000000000000000000000000000000000000000000000000000000000000000000000000000000000000000000000000000000000000000000000000000000000000000000000000000000000000000000000000000000
310
0000000000000000000000000000000000000000000000F5000000000000000000000000000000000000F5F50000F5F500000000000000000000000000000000000000000000000000000000000000000000000000000000000000000000000000000000000000000000000000000000000000000000000000000000000000
310
00000000000000000000000000000000000000000000000000000000000000000000000000000000000000000000000000000000000000000000000000000000000000000000000000000000000000000000000000000000000000000000000000000000000000000000000000000000000000000000000000000000000000
310
0000000000000000000000000000000000000000000000F5F50000000000000000000000000000000000F5F5F50000F500000000000000000000000000000000000000000000000000000000000000000000000000000000000000000000000000000000000000000000000000000000000000000000000000000000000000
310
00000000000000000000000000000000000000000000000000000000000000000000000000000000000000000000000000000000000000000000000000000000000000000000000000000000000000000000000000000000000000000000000000000000000000000000000000000000000000000000000000000000000000
310
0000000000000000000000000000000000000000000000F5F50000000000000000000000000000000000F5F5F50000F5F5000000000000000000000000000000000000000000000000000000000000000000000000000000000000000000000000000000000000000000000000000000000000000000000000000000000000
310
00000000000000000000000000000000000000000000000000000000000000000000000000000000000000000000000000000000000000000000000000000000000000000000000000000000000000000000000000000000000000000000000000000000000000000000000000000000000000000000000000000000000000
310
0000000000000000000000000000000000000000000000F5F5000000000000000000000000000000000000F5F50000F5F5000000000000000000000000000000000000000000000000000000000000000000000000000000000000000000000000000000000000000000000000000000000000000000000000000000000000
310
00000000000000000000000000000000000000000000000000000000000000000000000000000000000000000000000000000000000000000000000000000000000000000000000000000000000000000000000000000000000000000000000000000000000000000000000000000000000000000000000000000000000000
310
000000000000000000000000000000000000000000000000F5000000000000000000000000000000000000F5F5000000F5000000000000000000000000000000000000000000000000000000000000000000000000000000000000000000000000000000000000000000000000000000000000000000000000000000000000
310
00000000000000000000000000000000000000000000000000000000000000000000000000000000000000000000000000000000000000000000000000000000000000000000000000000000000000000000000000000000000000000000000000000000000000000000000000000000000000000000000000000000000000
310
000000000000000000000000000000000000000000000000F5F50000000000000000000000000000000000F5F5F50000F5F50000000000000000000000000000000000000000000000000000000000000000000000000000000000000000000000000000000000000000000000000000000000000000000000000000000000
310
00000000000000000000000000000000000000000000000000000000000000000000000000000000000000000000000000000000000000000000000000000000000000000000000000000000000000000000000000000000000000000000000000000000000000000000000000000000000000000000000000000000000000
310
000000000000000000000000000000000000000000000000F5F5000000000000000000000000000000000000F5F50000F5F50000000000000000000000000000000000000000000000000000000000000000000000000000000000000000000000000000000000000000000000000000000000000000000000000000000000
310
00000000000000000000000000000000000000000000000000000000000000000000000000000000000000000000000000000000000000000000000000000000000000000000000000000000000000000000000000000000000000000000000000000000000000000000000000000000000000000000000000000000000000
310
000000000000000000000000000000000000000000000000F5F5000000000000000000000000000000000000F5F50000F5F50000000000000000000000000000000000000000000000000000000000000000000000000000000000000000000000000000000000000000000000000000000000000000000000000000000000
310
00000000000000000000000000000000000000000000000000000000000000000000000000000000000000000000000000000000000000000000000000000000000000000000000000000000000000000000000000000000000000000000000000000000000000000000000000000000000000000000000000000000000000
310
00000000000000000000000000000000000000000000000000F5000000000000000000000000000000000000F5F5000000F50000000000000000000000000000000000000000000000000000000000000000000000000000000000000000000000000000000000000000000000000000000000000000000000000000000000
310
00000000000000000000000000000000000000000000000000000000000000000000000000000000000000000000000000000000000000000000000000000000000000000000000000000000000000000000000000000000000000000000000000000000000000000000000000000000000000000000000000000000000000
310
00000000000000000000000000000000000000000000000000F5F50000000000000000000000000000000000F5F5F50000F5F500000000000000000000000000000000000000000000000000000000000000000000000000000000000000000000000000000000000000000000000000000000000000000000000000000000
310
00000000000000000000000000000000000000000000000000000000000000000000000000000000000000000000000000000000000000000000000000000000000000000000000000000000000000000000000000000000000000000000000000000000000000000000000000000000000000000000000000000000000000
310
00000000000000000000000000000000000000000000000000F5F5000000000000000000000000000000000000F5F50000F5F500000000000000000000000000000000000000000000000000000000000000000000000000000000000000000000000000000000000000000000000000000000000000000000000000000000
310
00000000000000000000000000000000000000000000000000000000000000000000000000000000000000000000000000000000000000000000000000000000000000000000000000000000000000000000000000000000000000000000000000000000000000000000000000000000000000000000000000000000000000
310
00000000000000000000000000000000000000000000000000F5F5000000000000000000000000000000000000F5F50000F5F500000000000000000000000000000000000000000000000000000000000000000000000000000000000000000000000000000000000000000000000000000000000000000000000000000000
310
00000000000000000000000000000000000000000000000000000000000000000000000000000000000000000000000000000000000000000000000000000000000000000000000000000000000000000000000000000000000000000000000000000000000000000000000000000000000000000000000000000000000000
310
0000000000000000000000000000000000000000000000000000F5000000000000000000000000000000000000F5F5000000F500000000000000000000000000000000000000000000000000000000000000000000000000000000000000000000000000000000000000000000000000000000000000000000000000000000
310
00000000000000000000000000000000000000000000000000000000000000000000000000000000000000000000000000000000000000000000000000000000000000000000000000000000000000000000000000000000000000000000000000000000000000000000000000000000000000000000000000000000000000
310
0000000000000000000000000000000000000000000000000000F5F50000000000000000000000000000000000F5F5F50000F5F5000000000000000000000000000000000000000000000000000000000000000000000000000000000000000000000000000000000000000000000000000000000000000000000000000000
310
00000000000000000000000000000000000000000000000000000000000000000000000000000000000000000000000000000000000000000000000000000000000000000000000000000000000000000000000000000000000000000000000000000000000000000000000000000000000000000000000000000000000000
310
0000000000000000000000000000000000000000000000000000F5F5000000000000000000000000000000000000F5F50000F5F5000000000000000000000000000000000000000000000000000000000000000000000000000000000000000000000000000000000000000000000000000000000000000000000000000000
310
00000000000000000000000000000000000000000000000000000000000000000000000000000000000000000000000000000000000000000000000000000000000000000000000000000000000000000000000000000000000000000000000000000000000000000000000000000000000000000000000000000000000000
310
0000000000000000000000000000000000000000000000000000F5F5000000000000000000000000000000000000F5F5000000F5000000000000000000000000000000000000000000000000000000000000000000000000000000000000000000000000000000000000000000000000000000000000000000000000000000
310
00000000000000000000000000000000000000000000000000000000000000000000000000000000000000000000000000000000000000000000000000000000000000000000000000000000000000000000000000000000000000000000000000000000000000000000000000000000000000000000000000000000000000
310
000000000000000000000000000000000000000000000000000000F5000000000000000000000000000000000000F5F5000000F5F50000000000000000000000000000000000000000000000000000000000000000000000000000000000000000000000000000000000000000000000000000000000000000000000000000
310
00000000000000000000000000000000000000000000000000000000000000000000000000000000000000000000000000000000000000000000000000000000000000000000000000000000000000000000000000000000000000000000000000000000000000000000000000000000000000000000000000000000000000
310
000000000000000000000000000000000000000000000000000000F5F50000000000000000000000000000000000F5F5F50000F5F50000000000000000000000000000000000000000000000000000000000000000000000000000000000000000000000000000000000000000000000000000000000000000000000000000
310
00000000000000000000000000000000000000000000000000000000000000000000000000000000000000000000000000000000000000000000000000000000000000000000000000000000000000000000000000000000000000000000000000000000000000000000000000000000000000000000000000000000000000
310
000000000000000000000000000000000000000000000000000000F5F5000000000000000000000000000000000000F5F50000F5F50000000000000000000000000000000000000000000000000000000000000000000000000000000000000000000000000000000000000000000000000000000000000000000000000000
310
00000000000000000000000000000000000000000000000000000000000000000000000000000000000000000000000000000000000000000000000000000000000000000000000000000000000000000000000000000000000000000000000000000000000000000000000000000000000000000000000000000000000000
310
000000000000000000000000000000000000000000000000000000F5F5000000000000000000000000000000000000F5F5000000F50000000000000000000000000000000000000000000000000000000000000000000000000000000000000000000000000000000000000000000000000000000000000000000000000000
310
00000000000000000000000000000000000000000000000000000000000000000000000000000000000000000000000000000000000000000000000000000000000000000000000000000000000000000000000000000000000000000000000000000000000000000000000000000000000000000000000000000000000000
310
00000000000000000000000000000000000000000000000000000000F5000000000000000000000000000000000000F5F5000000F5F500000000000000000000000000000000000000000000000000000000000000000000000000000000000000000000000000000000000000000000000000000000000000000000000000
310
00000000000000000000000000000000000000000000000000000000000000000000000000000000000000000000000000000000000000000000000000000000000000000000000000000000000000000000000000000000000000000000000000000000000000000000000000000000000000000000000000000000000000
310
00000000000000000000000000000000000000000000000000000000F5F50000000000000000000000000000000000F5F5F50000F5F500000000000000000000000000000000000000000000000000000000000000000000000000000000000000000000000000000000000000000000000000000000000000000000000000
310
00000000000000000000000000000000000000000000000000000000000000000000000000000000000000000000000000000000000000000000000000000000000000000000000000000000000000000000000000000000000000000000000000000000000000000000000000000000000000000000000000000000000000
310
00000000000000000000000000000000000000000000000000000000F5F5000000000000000000000000000000000000F5F50000F5F500000000000000000000000000000000000000000000000000000000000000000000000000000000000000000000000000000000000000000000000000000000000000000000000000
310
00000000000000000000000000000000000000000000000000000000000000000000000000000000000000000000000000000000000000000000000000000000000000000000000000000000000000000000000000000000000000000000000000000000000000000000000000000000000000000000000000000000000000
310
00000000000000000000000000000000000000000000000000000000F5F5000000000000000000000000000000000000F5F5000000F500000000000000000000000000000000000000000000000000000000000000000000000000000000000000000000000000000000000000000000000000000000000000000000000000
310
00000000000000000000000000000000000000000000000000000000000000000000000000000000000000000000000000000000000000000000000000000000000000000000000000000000000000000000000000000000000000000000000000000000000000000000000000000000000000000000000000000000000000
310
0000000000000000000000000000000000000000000000000000000000F5000000000000000000000000000000000000F5F5F50000F5F5000000000000000000000000000000000000000000000000000000000000000000000000000000000000000000000000000000000000000000000000000000000000000000000000
310
00000000000000000000000000000000000000000000000000000000000000000000000000000000000000000000000000000000000000000000000000000000000000000000000000000000000000000000000000000000000000000000000000000000000000000000000000000000000000000000000000000000000000
310
0000000000000000000000000000000000000000000000000000000000F5F5000000000000000000000000000000000000F5F50000F5F5000000000000000000000000000000000000000000000000000000000000000000000000000000000000000000000000000000000000000000000000000000000000000000000000
310
00000000000000000000000000000000000000000000000000000000000000000000000000000000000000000000000000000000000000000000000000000000000000000000000000000000000000000000000000000000000000000000000000000000000000000000000000000000000000000000000000000000000000
310
0000000000000000000000000000000000000000000000000000000000F5F5000000000000000000000000000000000000F5F5000000F5000000000000000000000000000000000000000000000000000000000000000000000000000000000000000000000000000000000000000000000000000000000000000000000000
310
00000000000000000000000000000000000000000000000000000000000000000000000000000000000000000000000000000000000000000000000000000000000000000000000000000000000000000000000000000000000000000000000000000000000000000000000000000000000000000000000000000000000000
310
0000000000000000000000000000000000000000000000000000000000F5F5000000000000000000000000000000000000F5F5000000F5F50000000000000000000000000000000000000000000000000000000000000000000000000000000000000000000000000000000000000000000000000000000000000000000000
310
00000000000000000000000000000000000000000000000000000000000000000000000000000000000000000000000000000000000000000000000000000000000000000000000000000000000000000000000000000000000000000000000000000000000000000000000000000000000000000000000000000000000000
310
000000000000000000000000000000000000000000000000000000000000F5000000000000000000000000000000000000F5F5F50000F5F50000000000000000000000000000000000000000000000000000000000000000000000000000000000000000000000000000000000000000000000000000000000000000000000
310
00000000000000000000000000000000000000000000000000000000000000000000000000000000000000000000000000000000000000000000000000000000000000000000000000000000000000000000000000000000000000000000000000000000000000000000000000000000000000000000000000000000000000
310
000000000000000000000000000000000000000000000000000000000000F5F5000000000000000000000000000000000000F5F50000F5F50000000000000000000000000000000000000000000000000000000000000000000000000000000000000000000000000000000000000000000000000000000000000000000000
310
00000000000000000000000000000000000000000000000000000000000000000000000000000000000000000000000000000000000000000000000000000000000000000000000000000000000000000000000000000000000000000000000000000000000000000000000000000000000000000000000000000000000000
310
000000000000000000000000000000000000000000000000000000000000F5F5000000000000000000000000000000000000F5F5000000F50000000000000000000000000000000000000000000000000000000000000000000000000000000000000000000000000000000000000000000000000000000000000000000000
310
00000000000000000000000000000000000000000000000000000000000000000000000000000000000000000000000000000000000000000000000000000000000000000000000000000000000000000000000000000000000000000000000000000000000000000000000000000000000000000000000000000000000000
310
000000000000000000000000000000000000000000000000000000000000F5F5000000000000000000000000000000000000F5F5000000F5F500000000000000000000000000000000000000000000000000000000000000000000000000000000000000000000000000000000000000000000000000000000000000000000
310
00000000000000000000000000000000000000000000000000000000000000000000000000000000000000000000000000000000000000000000000000000000000000000000000000000000000000000000000000000000000000000000000000000000000000000000000000000000000000000000000000000000000000
310
00000000000000000000000000000000000000000000000000000000000000F5000000000000000000000000000000000000F5F5F50000F5F500000000000000000000000000000000000000000000000000000000000000000000000000000000000000000000000000000000000000000000000000000000000000000000
310
00000000000000000000000000000000000000000000000000000000000000000000000000000000000000000000000000000000000000000000000000000000000000000000000000000000000000000000000000000000000000000000000000000000000000000000000000000000000000000000000000000000000000
310
00000000000000000000000000000000000000000000000000000000000000F5F5000000000000000000000000000000000000F5F50000F5F500000000000000000000000000000000000000000000000000000000000000000000000000000000000000000000000000000000000000000000000000000000000000000000
310
00000000000000000000000000000000000000000000000000000000000000000000000000000000000000000000000000000000000000000000000000000000000000000000000000000000000000000000000000000000000000000000000000000000000000000000000000000000000000000000000000000000000000
310
00000000000000000000000000000000000000000000000000000000000000F5F5000000000000000000000000000000000000F5F5000000F500000000000000000000000000000000000000000000000000000000000000000000000000000000000000000000000000000000000000000000000000000000000000000000
310
00000000000000000000000000000000000000000000000000000000000000000000000000000000000000000000000000000000000000000000000000000000000000000000000000000000000000000000000000000000000000000000000000000000000000000000000000000000000000000000000000000000000000
310
00000000000000000000000000000000000000000000000000000000000000F5F5000000000000000000000000000000000000F5F5000000F5F5000000000000000000000000000000000000000000000000000000000000000000000000000000000000000000000000000000000000000000000000000000000000000000
310
00000000000000000000000000000000000000000000000000000000000000000000000000000000000000000000000000000000000000000000000000000000000000000000000000000000000000000000000000000000000000000000000000000000000000000000000000000000000000000000000000000000000000
310
0000000000000000000000000000000000000000000000000000000000000000F5000000000000000000000000000000000000F5F5F50000F5F5000000000000000000000000000000000000000000000000000000000000000000000000000000000000000000000000000000000000000000000000000000000000000000
310
00000000000000000000000000000000000000000000000000000000000000000000000000000000000000000000000000000000000000000000000000000000000000000000000000000000000000000000000000000000000000000000000000000000000000000000000000000000000000000000000000000000000000
310
0000000000000000000000000000000000000000000000000000000000000000F5F5000000000000000000000000000000000000F5F5000000F5000000000000000000000000000000000000000000000000000000000000000000000000000000000000000000000000000000000000000000000000000000000000000000
310
00000000000000000000000000000000000000000000000000000000000000000000000000000000000000000000000000000000000000000000000000000000000000000000000000000000000000000000000000000000000000000000000000000000000000000000000000000000000000000000000000000000000000
310
0000000000000000000000000000000000000000000000000000000000000000F5F5000000000000000000000000000000000000F5F5000000F5F50000000000000000000000000000000000000000000000000000000000000000000000000000000000000000000000000000000000000000000000000000000000000000
310
00000000000000000000000000000000000000000000000000000000000000000000000000000000000000000000000000000000000000000000000000000000000000000000000000000000000000000000000000000000000000000000000000000000000000000000000000000000000000000000000000000000000000
310
000000000000000000000000000000000000000000000000000000000000000000F5000000000000000000000000000000000000F5F5000000F5F50000000000000000000000000000000000000000000000000000000000000000000000000000000000000000000000000000000000000000000000000000000000000000
310
00000000000000000000000000000000000000000000000000000000000000000000000000000000000000000000000000000000000000000000000000000000000000000000000000000000000000000000000000000000000000000000000000000000000000000000000000000000000000000000000000000000000000
310
000000000000000000000000000000000000000000000000000000000000000000F5F5000000000000000000000000000000000000F5F50000F5F50000000000000000000000000000000000000000000000000000000000000000000000000000000000000000000000000000000000000000000000000000000000000000
310
00000000000000000000000000000000000000000000000000000000000000000000000000000000000000000000000000000000000000000000000000000000000000000000000000000000000000000000000000000000000000000000000000000000000000000000000000000000000000000000000000000000000000
310
000000000000000000000000000000000000000000000000000000000000000000F5F5000000000000000000000000000000000000F5F5000000F50000000000000000000000000000000000000000000000000000000000000000000000000000000000000000000000000000000000000000000000000000000000000000
310
00000000000000000000000000000000000000000000000000000000000000000000000000000000000000000000000000000000000000000000000000000000000000000000000000000000000000000000000000000000000000000000000000000000000000000000000000000000000000000000000000000000000000
310
000000000000000000000000000000000000000000000000000000000000000000F5F5000000000000000000000000000000000000F5F5000000F5F500000000000000000000000000000000000000000000000000000000000000000000000000000000000000000000000000000000000000000000000000000000000000
310
00000000000000000000000000000000000000000000000000000000000000000000000000000000000000000000000000000000000000000000000000000000000000000000000000000000000000000000000000000000000000000000000000000000000000000000000000000000000000000000000000000000000000
310
00000000000000000000000000000000000000000000000000000000000000000000F5000000000000000000000000000000000000F5F5000000F5F500000000000000000000000000000000000000000000000000000000000000000000000000000000000000000000000000000000000000000000000000000000000000
310
00000000000000000000000000000000000000000000000000000000000000000000000000000000000000000000000000000000000000000000000000000000000000000000000000000000000000000000000000000000000000000000000000000000000000000000000000000000000000000000000000000000000000
310
00000000000000000000000000000000000000000000000000000000000000000000F5F5000000000000000000000000000000000000F5F50000F5F500000000000000000000000000000000000000000000000000000000000000000000000000000000000000000000000000000000000000000000000000000000000000
310
00000000000000000000000000000000000000000000000000000000000000000000000000000000000000000000000000000000000000000000000000000000000000000000000000000000000000000000000000000000000000000000000000000000000000000000000000000000000000000000000000000000000000
310
00000000000000000000000000000000000000000000000000000000000000000000F5F5000000000000000000000000000000000000F5F5000000F500000000000000000000000000000000000000000000000000000000000000000000000000000000000000000000000000000000000000000000000000000000000000
310
00000000000000000000000000000000000000000000000000000000000000000000000000000000000000000000000000000000000000000000000000000000000000000000000000000000000000000000000000000000000000000000000000000000000000000000000000000000000000000000000000000000000000
310
00000000000000000000000000000000000000000000000000000000000000000000F5F5000000000000000000000000000000000000F5F5000000F5F5000000000000000000000000000000000000000000000000000000000000000000000000000000000000000000000000000000000000000000000000000000000000
310
00000000000000000000000000000000000000000000000000000000000000000000000000000000000000000000000000000000000000000000000000000000000000000000000000000000000000000000000000000000000000000000000000000000000000000000000000000000000000000000000000000000000000
310
0000000000000000000000000000000000000000000000000000000000000000000000F5000000000000000000000000000000000000F5F5000000F5F5000000000000000000000000000000000000000000000000000000000000000000000000000000000000000000000000000000000000000000000000000000000000
310
00000000000000000000000000000000000000000000000000000000000000000000000000000000000000000000000000000000000000000000000000000000000000000000000000000000000000000000000000000000000000000000000000000000000000000000000000000000000000000000000000000000000000
310
0000000000000000000000000000000000000000000000000000000000000000000000F5F5000000000000000000000000000000000000F5F5000000F5000000000000000000000000000000000000000000000000000000000000000000000000000000000000000000000000000000000000000000000000000000000000
310
00000000000000000000000000000000000000000000000000000000000000000000000000000000000000000000000000000000000000000000000000000000000000000000000000000000000000000000000000000000000000000000000000000000000000000000000000000000000000000000000000000000000000
310
0000000000000000000000000000000000000000000000000000000000000000000000F5F5000000000000000000000000000000000000F5F5000000F5F50000000000000000000000000000000000000000000000000000000000000000000000000000000000000000000000000000000000000000000000000000000000
310
00000000000000000000000000000000000000000000000000000000000000000000000000000000000000000000000000000000000000000000000000000000000000000000000000000000000000000000000000000000000000000000000000000000000000000000000000000000000000000000000000000000000000
310
0000000000000000000000000000000000000000000000000000000000000000000000F5F5000000000000000000000000000000000000F5F5000000F5F50000000000000000000000000000000000000000000000000000000000000000000000000000000000000000000000000000000000000000000000000000000000
310
00000000000000000000000000000000000000000000000000000000000000000000000000000000000000000000000000000000000000000000000000000000000000000000000000000000000000000000000000000000000000000000000000000000000000000000000000000000000000000000000000000000000000
310
000000000000000000000000000000000000000000000000000000000000000000000000F5000000000000000000000000000000000000F5F5000000F5F50000000000000000000000000000000000000000000000000000000000000000000000000000000000000000000000000000000000000000000000000000000000
310
00000000000000000000000000000000000000000000000000000000000000000000000000000000000000000000000000000000000000000000000000000000000000000000000000000000000000000000000000000000000000000000000000000000000000000000000000000000000000000000000000000000000000
310
000000000000000000000000000000000000000000000000000000000000000000000000F5F5000000000000000000000000000000000000F5F5000000F50000000000000000000000000000000000000000000000000000000000000000000000000000000000000000000000000000000000000000000000000000000000
310
00000000000000000000000000000000000000000000000000000000000000000000000000000000000000000000000000000000000000000000000000000000000000000000000000000000000000000000000000000000000000000000000000000000000000000000000000000000000000000000000000000000000000
310
000000000000000000000000000000000000000000000000000000000000000000000000F5F5000000000000000000000000000000000000F5F5000000F5F500000000000000000000000000000000000000000000000000000000000000000000000000000000000000000000000000000000000000000000000000000000
310
00000000000000000000000000000000000000000000000000000000000000000000000000000000000000000000000000000000000000000000000000000000000000000000000000000000000000000000000000000000000000000000000000000000000000000000000000000000000000000000000000000000000000
310
000000000000000000000000000000000000000000000000000000000000000000000000F5F5000000000000000000000000000000000000F5F5000000F5F500000000000000000000000000000000000000000000000000000000000000000000000000000000000000000000000000000000000000000000000000000000
310
00000000000000000000000000000000000000000000000000000000000000000000000000000000000000000000000000000000000000000000000000000000000000000000000000000000000000000000000000000000000000000000000000000000000000000000000000000000000000000000000000000000000000
310
00000000000000000000000000000000000000000000000000000000000000000000000000F5000000000000000000000000000000000000F5F500000000F500000000000000000000000000000000000000000000000000000000000000000000000000000000000000000000000000000000000000000000000000000000
310
00000000000000000000000000000000000000000000000000000000000000000000000000000000000000000000000000000000000000000000000000000000000000000000000000000000000000000000000000000000000000000000000000000000000000000000000000000000000000000000000000000000000000
310
00000000000000000000000000000000000000000000000000000000000000000000000000F5F5000000000000000000000000000000000000F5F5000000F5F5000000000000000000000000000000000000000000000000000000000000000000000000000000000000000000000000000000000000000000000000000000
310
00000000000000000000000000000000000000000000000000000000000000000000000000000000000000000000000000000000000000000000000000000000000000000000000000000000000000000000000000000000000000000000000000000000000000000000000000000000000000000000000000000000000000
310
00000000000000000000000000000000000000000000000000000000000000000000000000F5F5000000000000000000000000000000000000F5F5000000F5F5000000000000000000000000000000000000000000000000000000000000000000000000000000000000000000000000000000000000000000000000000000
310
00000000000000000000000000000000000000000000000000000000000000000000000000000000000000000000000000000000000000000000000000000000000000000000000000000000000000000000000000000000000000000000000000000000000000000000000000000000000000000000000000000000000000
310
00000000000000000000000000000000000000000000000000000000000000000000000000F5F5000000000000000000000000000000000000F5F5000000F5F5000000000000000000000000000000000000000000000000000000000000000000000000000000000000000000000000000000000000000000000000000000
310
00000000000000000000000000000000000000000000000000000000000000000000000000000000000000000000000000000000000000000000000000000000000000000000000000000000000000000000000000000000000000000000000000000000000000000000000000000000000000000000000000000000000000
310
0000000000000000000000000000000000000000000000000000000000000000000000000000F5F5000000000000000000000000000000000000F500000000F5000000000000000000000000000000000000000000000000000000000000000000000000000000000000000000000000000000000000000000000000000000
310
00000000000000000000000000000000000000000000000000000000000000000000000000000000000000000000000000000000000000000000000000000000000000000000000000000000000000000000000000000000000000000000000000000000000000000000000000000000000000000000000000000000000000
310
0000000000000000000000000000000000000000000000000000000000000000000000000000F5F5F5F5F5F50000000000000000000000000000F5F5000000F5F50000000000000000000000000000000000000000000000000000000000000000000000000000000000000000000000000000000000000000000000000000
310
00000000000000000000000000000000000000000000000000000000000000000000000000000000000000000000000000000000000000000000000000000000000000000000000000000000000000000000000000000000000000000000000000000000000000000000000000000000000000000000000000000000000000
310
000000000000000000000000000000000000000000000000000000000000000000000000000000F5F5F500F5F5F5F50000000000000000000000F5F5000000F5F50000000000000000000000000000000000000000000000000000000000000000000000000000000000000000000000000000000000000000000000000000
310
00000000000000000000000000000000000000000000000000000000000000000000000000000000000000000000000000000000000000000000000000000000000000000000000000000000000000000000000000000000000000000000000000000000000000000000000000000000000000000000000000000000000000
310
00000000000000000000000000000000000000000000000000000000000000000000000000000000F5F500000000F5F5F5F50000000000000000F5F5000000F5F50000000000000000000000000000000000000000000000000000000000000000000000000000000000000000000000000000000000000000000000000000
310
00000000000000000000000000000000000000000000000000000000000000000000000000000000000000000000000000000000000000000000000000000000000000000000000000000000000000000000000000000000000000000000000000000000000000000000000000000000000000000000000000000000000000
310
00000000000000000000000000000000000000000000000000000000000000000000000000000000F5F500000000000000F5F5F500000000000000F500000000F50000000000000000000000000000000000000000000000000000000000000000000000000000000000000000000000000000000000000000000000000000
310
00000000000000000000000000000000000000000000000000000000000000000000000000000000000000000000000000000000000000000000000000000000000000000000000000000000000000000000000000000000000000000000000000000000000000000000000000000000000000000000000000000000000000
310
00000000000000000000000000000000000000000000000000000000000000000000000000000000F5F500000000000000000000F5F5F500000000F5F5000000F5F500000000000000000000000000000000000000000000000000000000000000000000000000000000000000000000000000000000000000000000000000
310
00000000000000000000000000000000000000000000000000000000000000000000000000000000000000000000000000000000000000000000000000000000000000000000000000000000000000000000000000000000000000000000000000000000000000000000000000000000000000000000000000000000000000
310
0000000000000000000000000000000000000000000000000000000000000000000000000000000000F5F5F5F5F50000000000000000F5F5F50000F5F5000000F5F500000000000000000000000000000000000000000000000000000000000000000000000000000000000000000000000000000000000000000000000000
310
00000000000000000000000000000000000000000000000000000000000000000000000000000000000000000000000000000000000000000000000000000000000000000000000000000000000000000000000000000000000000000000000000000000000000000000000000000000000000000000000000000000000000
310
000000000000000000000000000000000000000000000000000000000000000000000000000000000000F5F5000000F5F50000000000000000F5F5F5F500000000F500000000000000000000000000000000000000000000000000000000000000000000000000000000000000000000000000000000000000000000000000
310
00000000000000000000000000000000000000000000000000000000000000000000000000000000000000000000000000000000000000000000000000000000000000000000000000000000000000000000000000000000000000000000000000000000000000000000000000000000000000000000000000000000000000
310
0000000000000000000000000000000000000000000000000000000000000000000000000000000000000000F5F500000000F5F5000000000000F5F5F500000000F5F5000000000000000000000000000000000000000000000000000000000000000000000000000000000000000000000000000000000000000000000000
310
00000000000000000000000000000000000000000000000000000000000000000000000000000000000000000000000000000000000000000000000000000000000000000000000000000000000000000000000000000000000000000000000000000000000000000000000000000000000000000000000000000000000000
310
00000000000000000000000000000000000000000000000000000000000000000000000000000000000000000000F5F5F500000000F50000000000F5F5F5F50000F5F5000000000000000000000000000000000000000000000000000000000000000000000000000000000000000000000000000000000000000000000000
310
00000000000000000000000000000000000000000000000000000000000000000000000000000000000000000000000000000000000000000000000000000000000000000000000000000000000000000000000000000000000000000000000000000000000000000000000000000000000000000000000000000000000000
310
000000000000000000000000000000000000000000000000000000000000000000000000000000000000000000000000F5F5F500000000F5F50000F5F5F5F5F5F5F5F5000000000000000000000000000000000000000000000000000000000000000000000000000000000000000000000000000000000000000000000000
310
00000000000000000000000000000000000000000000000000000000000000000000000000000000000000000000000000000000000000000000000000000000000000000000000000000000000000000000000000000000000000000000000000000000000000000000000000000000000000000000000000000000000000
310
0000000000000000000000000000000000000000000000000000000000000000000000000000000000000000000000000000F5F5000000F5F500F5F5F5F5F5F5F5F5F5000000000000000000000000000000000000000000000000000000000000000000000000000000000000000000000000000000000000000000000000
310
00000000000000000000000000000000000000000000000000000000000000000000000000000000000000000000000000000000000000000000000000000000000000000000000000000000000000000000000000000000000000000000000000000000000000000000000000000000000000000000000000000000000000
310
0000000000000000000000000000000000000000000000000000000000000000000000000000000000000000000000000000000000F5F500F5F5F5F5F5F5F5F5F5F5F5F50000000000000000000000000000000000000000000000000000000000000000000000000000000000000000000000000000000000000000000000
310
00000000000000000000000000000000000000000000000000000000000000000000000000000000000000000000000000000000000000000000000000000000000000000000000000000000000000000000000000000000000000000000000000000000000000000000000000000000000000000000000000000000000000
310
0000000000000000000000000000000000000000000000000000000000000000000000000000000000000000000000000000000000000000F500F5F500F5F5F5F5F500000000000000000000000000000000000000000000000000000000000000000000000000000000000000000000000000000000000000000000000000
310
00000000000000000000000000000000000000000000000000000000000000000000000000000000000000000000000000000000000000000000000000000000000000000000000000000000000000000000000000000000000000000000000000000000000000000000000000000000000000000000000000000000000000
310
00000000000000000000000000000000000000000000000000000000000000000000000000000000000000000000000000000000000000000000F5F5000000F5F5F500000000000000000000000000000000000000000000000000000000000000000000000000000000000000000000000000000000000000000000000000
310
00000000000000000000000000000000000000000000000000000000000000000000000000000000000000000000000000000000000000000000000000000000000000000000000000000000000000000000000000000000000000000000000000000000000000000000000000000000000000000000000000000000000000
310
00000000000000000000000000000000000000000000000000000000000000000000000000000000000000000000000000000000000000000000000000F5F5F5F5F5F5000000000000000000000000000000000000000000000000000000000000000000000000000000000000000000000000000000000000000000000000
310
00000000000000000000000000000000000000000000000000000000000000000000000000000000000000000000000000000000000000000000000000000000000000000000000000000000000000000000000000000000000000000000000000000000000000000000000000000000000000000000000000000000000000
310
0000000000000000000000000000000000000000000000000000000000000000000000000000000000000000000000000000000000000000000000000000000000F5F5000000000000000000000000000000000000000000000000000000000000000000000000000000000000000000000000000000000000000000000000
310
00000000000000000000000000000000000000000000000000000000000000000000000000000000000000000000000000000000000000000000000000000000000000000000000000000000000000000000000000000000000000000000000000000000000000000000000000000000000000000000000000000000000000
310
000000000000000000000000000000000000000000000000000000000000
  0
ENDSEC
  0
EOF
