  0
SECTION
  2
HEADER
  9
$ACADVER
  1
AC1009
  9
$INSBASE
 10
0.0
 20
0.0
 30
0.0
  9
$EXTMIN
 10
188.47151739949999
 20
66.627799999999993
 30
0.0
  9
$EXTMAX
 10
293.12332131020008
 20
127.60094982139211
 30
0.0
  9
$LIMMIN
 10
0.0
 20
0.0
  9
$LIMMAX
 10
420.0
 20
297.0
  9
$ORTHOMODE
 70
     0
  9
$REGENMODE
 70
     1
  9
$FILLMODE
 70
     1
  9
$QTEXTMODE
 70
     0
  9
$MIRRTEXT
 70
     1
  9
$DRAGMODE
 70
     2
  9
$LTSCALE
 40
1.0
  9
$OSMODE
 70
    37
  9
$ATTMODE
 70
     1
  9
$TEXTSIZE
 40
2.5
  9
$TRACEWID
 40
1.0
  9
$TEXTSTYLE
  7
STANDARD
  9
$CLAYER
  8
0
  9
$CELTYPE
  6
BYLAYER
  9
$CECOLOR
 62
   256
  9
$DIMSCALE
 40
1.0
  9
$DIMASZ
 40
3.302
  9
$DIMEXO
 40
1.0
  9
$DIMDLI
 40
3.75
  9
$DIMRND
 40
0.0
  9
$DIMDLE
 40
0.0
  9
$DIMEXE
 40
1.0
  9
$DIMTP
 40
0.0
  9
$DIMTM
 40
0.0
  9
$DIMTXT
 40
3.5
  9
$DIMCEN
 40
2.5
  9
$DIMTSZ
 40
0.0
  9
$DIMTOL
 70
     0
  9
$DIMLIM
 70
     0
  9
$DIMTIH
 70
     1
  9
$DIMTOH
 70
     1
  9
$DIMSE1
 70
     0
  9
$DIMSE2
 70
     0
  9
$DIMTAD
 70
     1
  9
$DIMZIN
 70
     0
  9
$DIMBLK
  1

  9
$DIMASO
 70
     1
  9
$DIMSHO
 70
     1
  9
$DIMPOST
  1

  9
$DIMAPOST
  1

  9
$DIMALT
 70
     0
  9
$DIMALTD
 70
     3
  9
$DIMALTF
 40
0.0393700787
  9
$DIMLFAC
 40
10.0
  9
$DIMTOFL
 70
     1
  9
$DIMTVP
 40
0.0
  9
$DIMTIX
 70
     0
  9
$DIMSOXD
 70
     0
  9
$DIMSAH
 70
     0
  9
$DIMBLK1
  1

  9
$DIMBLK2
  1

  9
$DIMSTYLE
  2
ISO-25
  9
$DIMCLRD
 70
     0
  9
$DIMCLRE
 70
     0
  9
$DIMCLRT
 70
     0
  9
$DIMTFAC
 40
1.0
  9
$DIMGAP
 40
1.524
  9
$LUNITS
 70
     2
  9
$LUPREC
 70
     2
  9
$SKETCHINC
 40
1.0
  9
$FILLETRAD
 40
10.0
  9
$AUNITS
 70
     0
  9
$AUPREC
 70
     2
  9
$MENU
  1
.
  9
$ELEVATION
 40
0.0
  9
$PELEVATION
 40
0.0
  9
$THICKNESS
 40
0.0
  9
$LIMCHECK
 70
     0
  9
$BLIPMODE
 70
     0
  9
$CHAMFERA
 40
10.0
  9
$CHAMFERB
 40
10.0
  9
$SKPOLY
 70
     0
  9
$TDCREATE
 40
2456889.6996586691
  9
$TDUPDATE
 40
2456889.7031701738
  9
$TDINDWG
 40
0.0003096644
  9
$TDUSRTIMER
 40
0.0003094676
  9
$USRTIMER
 70
     1
  9
$ANGBASE
 50
0.0
  9
$ANGDIR
 70
     0
  9
$PDMODE
 70
     0
  9
$PDSIZE
 40
-1.0
  9
$PLINEWID
 40
0.0
  9
$COORDS
 70
     1
  9
$SPLFRAME
 70
     0
  9
$SPLINETYPE
 70
     6
  9
$SPLINESEGS
 70
     8
  9
$ATTDIA
 70
     0
  9
$ATTREQ
 70
     1
  9
$HANDLING
 70
     1
  9
$HANDSEED
  5
FD1
  9
$SURFTAB1
 70
     6
  9
$SURFTAB2
 70
     6
  9
$SURFTYPE
 70
     6
  9
$SURFU
 70
     6
  9
$SURFV
 70
     6
  9
$UCSNAME
  2

  9
$UCSORG
 10
0.0
 20
0.0
 30
0.0
  9
$UCSXDIR
 10
1.0
 20
0.0
 30
0.0
  9
$UCSYDIR
 10
0.0
 20
1.0
 30
0.0
  9
$PUCSNAME
  2

  9
$PUCSORG
 10
0.0
 20
0.0
 30
0.0
  9
$PUCSXDIR
 10
1.0
 20
0.0
 30
0.0
  9
$PUCSYDIR
 10
0.0
 20
1.0
 30
0.0
  9
$USERI1
 70
     0
  9
$USERI2
 70
     0
  9
$USERI3
 70
     0
  9
$USERI4
 70
     0
  9
$USERI5
 70
     0
  9
$USERR1
 40
0.0
  9
$USERR2
 40
0.0
  9
$USERR3
 40
0.0
  9
$USERR4
 40
0.0
  9
$USERR5
 40
0.0
  9
$WORLDVIEW
 70
     1
  9
$SHADEDGE
 70
     3
  9
$SHADEDIF
 70
    70
  9
$TILEMODE
 70
     1
  9
$MAXACTVP
 70
    64
  9
$PLIMCHECK
 70
     0
  9
$PEXTMIN
 10
1.0000000000000000E+020
 20
1.0000000000000000E+020
 30
1.0000000000000000E+020
  9
$PEXTMAX
 10
-1.0000000000000000E+020
 20
-1.0000000000000000E+020
 30
-1.0000000000000000E+020
  9
$PLIMMIN
 10
0.0
 20
0.0
  9
$PLIMMAX
 10
420.0
 20
297.0
  9
$UNITMODE
 70
     0
  9
$VISRETAIN
 70
     1
  9
$PLINEGEN
 70
     0
  9
$PSLTSCALE
 70
     1
  0
ENDSEC
  0
SECTION
  2
TABLES
  0
TABLE
  2
VPORT
 70
     1
  0
VPORT
  2
*ACTIVE
 70
     0
 10
0.0
 20
0.0
 11
1.0
 21
1.0
 12
260.79058309032808
 22
98.829855183141291
 13
0.0
 23
0.0
 14
10.0
 24
10.0
 15
10.0
 25
10.0
 16
0.0
 26
0.0
 36
1.0
 17
0.0
 27
0.0
 37
0.0
 40
118.5664478782062
 41
1.911550468262226
 42
50.0
 43
0.0
 44
0.0
 50
0.0
 51
0.0
 71
     0
 72
  2000
 73
     1
 74
     3
 75
     0
 76
     0
 77
     0
 78
     0
  0
ENDTAB
  0
TABLE
  2
LTYPE
 70
     7
  0
LTYPE
  2
CONTINUOUS
 70
     0
  3
Solid line
 72
    65
 73
     0
 40
0.0
  0
LTYPE
  2
PHANTOM2
 70
     0
  3
___ _ _ ___ _ _ ___ _ _ ___ _ _
 72
    65
 73
     6
 40
1.25
 49
0.625
 49
-0.125
 49
0.125
 49
-0.125
 49
0.125
 49
-0.125
  0
LTYPE
  2
HIDDEN
 70
     0
  3
Hidden __ __ __ __ __ __ __ __ __ __ __ __ __ __
 72
    65
 73
     2
 40
1.905
 49
1.27
 49
-0.635
  0
LTYPE
  2
PHANTOM
 70
     0
  3
Phantom ______  __  __  ______  __  __  ______
 72
    65
 73
     6
 40
12.699999999999999
 49
6.3499999999999979
 49
-1.27
 49
1.27
 49
-1.27
 49
1.27
 49
-1.27
  0
LTYPE
  2
CENTER
 70
     0
  3
Center ____ _ ____ _ ____ _ ____ _ ____ _ ____
 72
    65
 73
     4
 40
10.16
 49
6.3499999999999979
 49
-1.27
 49
1.27
 49
-1.27
  0
LTYPE
  2
CENTERX2
 70
     0
  3
Center (2x) ________  __  ________  __  _____
 72
    65
 73
     4
 40
20.32
 49
12.699999999999999
 49
-2.54
 49
2.54
 49
-2.54
  0
LTYPE
  2
DOT2
 70
     0
  3
Dot (.5x) ........................................
 72
    65
 73
     2
 40
0.635
 49
0.0
 49
-0.635
  0
ENDTAB
  0
TABLE
  2
LAYER
 70
     4
  0
LAYER
  2
0
 70
     0
 62
     7
  6
CONTINUOUS
  0
LAYER
  2
FORMAT
 70
     0
 62
     7
  6
CONTINUOUS
  0
LAYER
  2
図枠
 70
     0
 62
     7
  6
CONTINUOUS
  0
LAYER
  2
ﾚｲﾔｰ2
 70
     0
 62
     7
  6
CONTINUOUS
  0
ENDTAB
  0
TABLE
  2
STYLE
 70
     3
  0
STYLE
  2
STANDARD
 70
     0
 40
0.0
 41
1.0
 50
0.0
 71
     0
 42
2.5
  3
txt
  4
bigfont
  0
STYLE
  2
ANNOTATIVE
 70
     0
 40
0.0
 41
1.0
 50
0.0
 71
     0
 42
0.2
  3
txt
  4

  0
STYLE
  2
SLDTEXTSTYLE0
 70
     0
 40
0.0
 41
0.7
 50
0.0
 71
     0
 42
0.2
  3
TXT
  4
bigfont
  0
ENDTAB
  0
TABLE
  2
VIEW
 70
     0
  0
ENDTAB
  0
TABLE
  2
UCS
 70
     0
  0
ENDTAB
  0
TABLE
  2
APPID
 70
     4
  0
APPID
  2
ACAD
 70
     0
  0
APPID
  2
ACADANNOTATIVE
 70
     0
  0
APPID
  2
ACAD_NAV_VCDISPLAY
 70
     0
  0
APPID
  2
ACAD_MLEADERVER
 70
     0
  0
ENDTAB
  0
TABLE
  2
DIMSTYLE
 70
     3
  0
DIMSTYLE
  2
STANDARD
 70
     0
  3

  4

  5

  6

  7

 40
1.0
 41
0.18
 42
0.0625
 43
0.38
 44
0.18
 45
0.0
 46
0.0
 47
0.0
 48
0.0
140
0.18
141
0.09
142
0.0
143
25.399999999999999
144
1.0
145
0.0
146
1.0
147
0.09
 71
     0
 72
     0
 73
     1
 74
     1
 75
     0
 76
     0
 77
     0
 78
     0
170
     0
171
     2
172
     0
173
     0
174
     0
175
     0
176
     0
177
     0
178
     0
  0
DIMSTYLE
  2
ANNOTATIVE
 70
     0
  3

  4

  5

  6

  7

 40
1.0
 41
0.18
 42
0.0625
 43
0.38
 44
0.18
 45
0.0
 46
0.0
 47
0.0
 48
0.0
140
0.18
141
0.09
142
0.0
143
25.399999999999999
144
1.0
145
0.0
146
1.0
147
0.09
 71
     0
 72
     0
 73
     1
 74
     1
 75
     0
 76
     0
 77
     0
 78
     0
170
     0
171
     2
172
     0
173
     0
174
     0
175
     0
176
     0
177
     0
178
     0
  0
DIMSTYLE
  2
ISO-25
 70
     0
  3

  4

  5

  6

  7

 40
1.0
 41
2.5
 42
0.625
 43
3.75
 44
1.25
 45
0.0
 46
0.0
 47
0.0
 48
0.0
140
2.5
141
2.5
142
0.0
143
0.0393700787
144
1.0
145
0.0
146
1.0
147
0.625
 71
     0
 72
     0
 73
     0
 74
     0
 75
     0
 76
     0
 77
     1
 78
     8
170
     0
171
     3
172
     1
173
     0
174
     0
175
     0
176
     0
177
     0
178
     0
  0
ENDTAB
  0
ENDSEC
  0
SECTION
  2
BLOCKS
  0
BLOCK
  8
0
  2
$MODEL_SPACE
 70
     0
 10
0.0
 20
0.0
 30
0.0
  3
$MODEL_SPACE
  1

  0
ENDBLK
  5
EF1
  8
0
  0
BLOCK
 67
     1
  8
0
  2
$PAPER_SPACE
 70
     0
 10
0.0
 20
0.0
 30
0.0
  3
$PAPER_SPACE
  1

  0
ENDBLK
  5
EED
 67
     1
  8
0
  0
BLOCK
  8
0
  2
三角３
 70
     0
 10
0.0
 20
0.0
 30
0.0
  3
三角３
  1

  0
LINE
  5
4A
  8
FORMAT
 10
0.0
 20
0.0
 30
0.0
 11
-1.75
 21
-3.5
 31
0.0
  0
LINE
  5
4B
  8
FORMAT
 10
-1.75
 20
-3.5
 30
0.0
 11
1.75
 21
-3.5
 31
0.0
  0
LINE
  5
4C
  8
FORMAT
 10
1.75
 20
-3.5
 30
0.0
 11
0.0
 21
0.0
 31
0.0
  0
INSERT
  5
70
  8
0
  2
*U3
 10
0.0
 20
0.0
 30
0.0
  0
ENDBLK
  5
49
  8
0
  0
BLOCK
  8
0
  2
*U3
 70
     1
 10
0.0
 20
0.0
 30
0.0
  3
*U3
  1

  0
TEXT
  5
2EF
  8
FORMAT
 62
     7
 10
-0.6943926639
 20
-3.0546912028999991
 30
0.0
 40
2.1166666667
  1
3
 41
0.7
  7
SLDTEXTSTYLE0
  0
ENDBLK
  5
2F1
  8
0
  0
BLOCK
  8
0
  2
三角２
 70
     0
 10
0.0
 20
0.0
 30
0.0
  3
三角２
  1

  0
LINE
  5
74
  8
FORMAT
 10
0.0
 20
0.0
 30
0.0
 11
-1.75
 21
-3.5
 31
0.0
  0
LINE
  5
75
  8
FORMAT
 10
-1.75
 20
-3.5
 30
0.0
 11
1.75
 21
-3.5
 31
0.0
  0
LINE
  5
76
  8
FORMAT
 10
1.75
 20
-3.5
 30
0.0
 11
0.0
 21
0.0
 31
0.0
  0
INSERT
  5
77
  8
0
  2
*U5
 10
0.0
 20
0.0
 30
0.0
  0
ENDBLK
  5
73
  8
0
  0
BLOCK
  8
0
  2
*U5
 70
     1
 10
0.0
 20
0.0
 30
0.0
  3
*U5
  1

  0
TEXT
  5
2F3
  8
FORMAT
 62
     7
 10
-0.6943926639
 20
-3.0546912028999991
 30
0.0
 40
2.1166666667
  1
2
 41
0.7
  7
SLDTEXTSTYLE0
  0
ENDBLK
  5
2F5
  8
0
  0
BLOCK
  8
0
  2
三角１
 70
     0
 10
0.0
 20
0.0
 30
0.0
  3
三角１
  1

  0
LINE
  5
7B
  8
FORMAT
 10
0.0
 20
0.0
 30
0.0
 11
-1.75
 21
-3.5
 31
0.0
  0
LINE
  5
7C
  8
FORMAT
 10
-1.75
 20
-3.5
 30
0.0
 11
1.75
 21
-3.5
 31
0.0
  0
LINE
  5
7D
  8
FORMAT
 10
1.75
 20
-3.5
 30
0.0
 11
0.0
 21
0.0
 31
0.0
  0
INSERT
  5
7E
  8
0
  2
*U7
 10
0.0
 20
0.0
 30
0.0
  0
ENDBLK
  5
7A
  8
0
  0
BLOCK
  8
0
  2
*U7
 70
     1
 10
0.0
 20
0.0
 30
0.0
  3
*U7
  1

  0
TEXT
  5
2F7
  8
FORMAT
 62
     7
 10
-0.6943926639
 20
-3.0546912028999991
 30
0.0
 40
2.1166666667
  1
1
 41
0.7
  7
SLDTEXTSTYLE0
  0
ENDBLK
  5
2F9
  8
0
  0
ENDSEC
  0
SECTION
  2
ENTITIES
  0
LINE
  5
1A3
  8
0
  6
CONTINUOUS
 10
292.05023199060003
 20
118.85232448639999
 30
0.0
 11
277.90809615609999
 21
127.01640572629999
 31
0.0
  0
LINE
  5
1A4
  8
0
  6
CONTINUOUS
 10
293.05604334959997
 20
117.80493511020001
 30
0.0
 11
293.05604334959997
 21
118.2370411041
 31
0.0
  0
LINE
  5
1A5
  8
0
  6
CONTINUOUS
 10
276.83401217099998
 20
127.59704642280001
 30
0.0
 11
188.53051455810001
 21
76.620522316700004
 31
0.0
  0
LINE
  5
1A6
  8
0
  6
CONTINUOUS
 10
194.0342473366
 20
70.619715856900001
 30
0.0
 11
282.4225949849
 21
121.64522284589999
 31
0.0
  0
LINE
  5
1A7
  8
0
  6
CONTINUOUS
 10
204.718401521
 20
66.674083318900003
 30
0.0
 11
293.10674916929997
 21
117.69959030779999
 31
0.0
  0
POLYLINE
  5
1A8
  8
0
  6
CONTINUOUS
 66
     1
 10
0.0
 20
0.0
 30
0.0
 70
     8
  0
VERTEX
  5
39A
  8
0
 10
282.24599999999998
 20
121.158
 30
0.0
 70
    32
  0
VERTEX
  5
39B
  8
0
 10
282.24599999999998
 20
121.15600000000001
 30
0.0
 70
    32
  0
VERTEX
  5
39C
  8
0
 10
282.24599999999998
 20
121.155
 30
0.0
 70
    32
  0
VERTEX
  5
39D
  8
0
 10
282.245
 20
121.154
 30
0.0
 70
    32
  0
VERTEX
  5
39E
  8
0
 10
282.245
 20
121.15300000000001
 30
0.0
 70
    32
  0
VERTEX
  5
39F
  8
0
 10
282.245
 20
121.152
 30
0.0
 70
    32
  0
VERTEX
  5
3A0
  8
0
 10
282.24400000000003
 20
121.151
 30
0.0
 70
    32
  0
VERTEX
  5
3A1
  8
0
 10
282.24400000000003
 20
121.15000000000001
 30
0.0
 70
    32
  0
VERTEX
  5
3A2
  8
0
 10
282.24400000000003
 20
121.148
 30
0.0
 70
    32
  0
VERTEX
  5
3A3
  8
0
 10
282.24400000000003
 20
121.14700000000001
 30
0.0
 70
    32
  0
VERTEX
  5
3A4
  8
0
 10
282.24400000000003
 20
121.146
 30
0.0
 70
    32
  0
VERTEX
  5
3A5
  8
0
 10
282.24299999999999
 20
121.145
 30
0.0
 70
    32
  0
VERTEX
  5
3A6
  8
0
 10
282.24299999999999
 20
121.14400000000001
 30
0.0
 70
    32
  0
VERTEX
  5
3A7
  8
0
 10
282.24299999999999
 20
121.142
 30
0.0
 70
    32
  0
VERTEX
  5
3A8
  8
0
 10
282.24299999999999
 20
121.14100000000001
 30
0.0
 70
    32
  0
VERTEX
  5
3A9
  8
0
 10
282.24299999999999
 20
121.14
 30
0.0
 70
    32
  0
VERTEX
  5
3AA
  8
0
 10
282.24299999999999
 20
121.139
 30
0.0
 70
    32
  0
VERTEX
  5
3AB
  8
0
 10
282.24200000000002
 20
121.137
 30
0.0
 70
    32
  0
VERTEX
  5
3AC
  8
0
 10
282.24200000000002
 20
121.136
 30
0.0
 70
    32
  0
VERTEX
  5
3AD
  8
0
 10
282.24200000000002
 20
121.13500000000001
 30
0.0
 70
    32
  0
VERTEX
  5
3AE
  8
0
 10
282.24200000000002
 20
121.134
 30
0.0
 70
    32
  0
VERTEX
  5
3AF
  8
0
 10
282.24200000000002
 20
121.13200000000001
 30
0.0
 70
    32
  0
VERTEX
  5
3B0
  8
0
 10
282.24200000000002
 20
121.131
 30
0.0
 70
    32
  0
VERTEX
  5
3B1
  8
0
 10
282.24200000000002
 20
121.13
 30
0.0
 70
    32
  0
VERTEX
  5
3B2
  8
0
 10
282.24200000000002
 20
121.129
 30
0.0
 70
    32
  0
VERTEX
  5
3B3
  8
0
 10
282.24200000000002
 20
121.127
 30
0.0
 70
    32
  0
VERTEX
  5
3B4
  8
0
 10
282.24099999999999
 20
121.126
 30
0.0
 70
    32
  0
VERTEX
  5
3B5
  8
0
 10
282.24099999999999
 20
121.125
 30
0.0
 70
    32
  0
VERTEX
  5
3B6
  8
0
 10
282.24099999999999
 20
121.123
 30
0.0
 70
    32
  0
VERTEX
  5
3B7
  8
0
 10
282.24099999999999
 20
121.122
 30
0.0
 70
    32
  0
VERTEX
  5
3B8
  8
0
 10
282.24099999999999
 20
121.121
 30
0.0
 70
    32
  0
VERTEX
  5
3B9
  8
0
 10
282.24099999999999
 20
121.119
 30
0.0
 70
    32
  0
VERTEX
  5
3BA
  8
0
 10
282.24099999999999
 20
121.11799999999999
 30
0.0
 70
    32
  0
VERTEX
  5
3BB
  8
0
 10
282.24099999999999
 20
121.117
 30
0.0
 70
    32
  0
VERTEX
  5
3BC
  8
0
 10
282.24099999999999
 20
121.11499999999999
 30
0.0
 70
    32
  0
VERTEX
  5
3BD
  8
0
 10
282.24099999999999
 20
121.114
 30
0.0
 70
    32
  0
VERTEX
  5
3BE
  8
0
 10
282.24099999999999
 20
121.113
 30
0.0
 70
    32
  0
VERTEX
  5
3BF
  8
0
 10
282.24099999999999
 20
121.111
 30
0.0
 70
    32
  0
VERTEX
  5
3C0
  8
0
 10
282.24099999999999
 20
121.11
 30
0.0
 70
    32
  0
VERTEX
  5
3C1
  8
0
 10
282.24200000000002
 20
121.10899999999999
 30
0.0
 70
    32
  0
VERTEX
  5
3C2
  8
0
 10
282.24200000000002
 20
121.107
 30
0.0
 70
    32
  0
VERTEX
  5
3C3
  8
0
 10
282.24200000000002
 20
121.10599999999999
 30
0.0
 70
    32
  0
VERTEX
  5
3C4
  8
0
 10
282.24200000000002
 20
121.104
 30
0.0
 70
    32
  0
VERTEX
  5
3C5
  8
0
 10
282.24200000000002
 20
121.10299999999999
 30
0.0
 70
    32
  0
VERTEX
  5
3C6
  8
0
 10
282.24200000000002
 20
121.102
 30
0.0
 70
    32
  0
VERTEX
  5
3C7
  8
0
 10
282.24200000000002
 20
121.09999999999999
 30
0.0
 70
    32
  0
VERTEX
  5
3C8
  8
0
 10
282.24200000000002
 20
121.099
 30
0.0
 70
    32
  0
VERTEX
  5
3C9
  8
0
 10
282.24200000000002
 20
121.098
 30
0.0
 70
    32
  0
VERTEX
  5
3CA
  8
0
 10
282.24299999999999
 20
121.096
 30
0.0
 70
    32
  0
VERTEX
  5
3CB
  8
0
 10
282.24299999999999
 20
121.095
 30
0.0
 70
    32
  0
VERTEX
  5
3CC
  8
0
 10
282.24299999999999
 20
121.093
 30
0.0
 70
    32
  0
VERTEX
  5
3CD
  8
0
 10
282.24299999999999
 20
121.092
 30
0.0
 70
    32
  0
VERTEX
  5
3CE
  8
0
 10
282.24299999999999
 20
121.09
 30
0.0
 70
    32
  0
VERTEX
  5
3CF
  8
0
 10
282.24299999999999
 20
121.089
 30
0.0
 70
    32
  0
VERTEX
  5
3D0
  8
0
 10
282.24400000000003
 20
121.08799999999999
 30
0.0
 70
    32
  0
VERTEX
  5
3D1
  8
0
 10
282.24400000000003
 20
121.086
 30
0.0
 70
    32
  0
VERTEX
  5
3D2
  8
0
 10
282.24400000000003
 20
121.08499999999999
 30
0.0
 70
    32
  0
VERTEX
  5
3D3
  8
0
 10
282.24400000000003
 20
121.083
 30
0.0
 70
    32
  0
VERTEX
  5
3D4
  8
0
 10
282.24400000000003
 20
121.08199999999999
 30
0.0
 70
    32
  0
VERTEX
  5
3D5
  8
0
 10
282.245
 20
121.08
 30
0.0
 70
    32
  0
VERTEX
  5
3D6
  8
0
 10
282.245
 20
121.07899999999999
 30
0.0
 70
    32
  0
VERTEX
  5
3D7
  8
0
 10
282.245
 20
121.077
 30
0.0
 70
    32
  0
VERTEX
  5
3D8
  8
0
 10
282.24599999999998
 20
121.07599999999999
 30
0.0
 70
    32
  0
VERTEX
  5
3D9
  8
0
 10
282.24599999999998
 20
121.075
 30
0.0
 70
    32
  0
VERTEX
  5
3DA
  8
0
 10
282.24599999999998
 20
121.07299999999999
 30
0.0
 70
    32
  0
VERTEX
  5
3DB
  8
0
 10
282.24599999999998
 20
121.072
 30
0.0
 70
    32
  0
VERTEX
  5
3DC
  8
0
 10
282.24700000000001
 20
121.06999999999999
 30
0.0
 70
    32
  0
VERTEX
  5
3DD
  8
0
 10
282.24700000000001
 20
121.069
 30
0.0
 70
    32
  0
VERTEX
  5
3DE
  8
0
 10
282.24700000000001
 20
121.06699999999999
 30
0.0
 70
    32
  0
VERTEX
  5
3DF
  8
0
 10
282.24799999999999
 20
121.066
 30
0.0
 70
    32
  0
VERTEX
  5
3E0
  8
0
 10
282.24799999999999
 20
121.06399999999999
 30
0.0
 70
    32
  0
VERTEX
  5
3E1
  8
0
 10
282.24799999999999
 20
121.063
 30
0.0
 70
    32
  0
VERTEX
  5
3E2
  8
0
 10
282.24900000000002
 20
121.06100000000001
 30
0.0
 70
    32
  0
VERTEX
  5
3E3
  8
0
 10
282.24900000000002
 20
121.06
 30
0.0
 70
    32
  0
VERTEX
  5
3E4
  8
0
 10
282.25
 20
121.05800000000001
 30
0.0
 70
    32
  0
VERTEX
  5
3E5
  8
0
 10
282.25
 20
121.057
 30
0.0
 70
    32
  0
VERTEX
  5
3E6
  8
0
 10
282.25
 20
121.05500000000001
 30
0.0
 70
    32
  0
VERTEX
  5
3E7
  8
0
 10
282.25099999999998
 20
121.054
 30
0.0
 70
    32
  0
VERTEX
  5
3E8
  8
0
 10
282.25099999999998
 20
121.05200000000001
 30
0.0
 70
    32
  0
VERTEX
  5
3E9
  8
0
 10
282.25200000000001
 20
121.051
 30
0.0
 70
    32
  0
VERTEX
  5
3EA
  8
0
 10
282.25200000000001
 20
121.04900000000001
 30
0.0
 70
    32
  0
VERTEX
  5
3EB
  8
0
 10
282.25299999999999
 20
121.048
 30
0.0
 70
    32
  0
VERTEX
  5
3EC
  8
0
 10
282.25299999999999
 20
121.04600000000001
 30
0.0
 70
    32
  0
VERTEX
  5
3ED
  8
0
 10
282.25299999999999
 20
121.045
 30
0.0
 70
    32
  0
VERTEX
  5
3EE
  8
0
 10
282.25400000000002
 20
121.04300000000001
 30
0.0
 70
    32
  0
VERTEX
  5
3EF
  8
0
 10
282.25400000000002
 20
121.042
 30
0.0
 70
    32
  0
VERTEX
  5
3F0
  8
0
 10
282.255
 20
121.04000000000001
 30
0.0
 70
    32
  0
VERTEX
  5
3F1
  8
0
 10
282.255
 20
121.039
 30
0.0
 70
    32
  0
VERTEX
  5
3F2
  8
0
 10
282.25599999999997
 20
121.03700000000001
 30
0.0
 70
    32
  0
VERTEX
  5
3F3
  8
0
 10
282.25599999999997
 20
121.036
 30
0.0
 70
    32
  0
VERTEX
  5
3F4
  8
0
 10
282.25700000000001
 20
121.03400000000001
 30
0.0
 70
    32
  0
VERTEX
  5
3F5
  8
0
 10
282.25700000000001
 20
121.033
 30
0.0
 70
    32
  0
VERTEX
  5
3F6
  8
0
 10
282.25799999999998
 20
121.032
 30
0.0
 70
    32
  0
VERTEX
  5
3F7
  8
0
 10
282.25900000000001
 20
121.03
 30
0.0
 70
    32
  0
VERTEX
  5
3F8
  8
0
 10
282.25900000000001
 20
121.029
 30
0.0
 70
    32
  0
VERTEX
  5
3F9
  8
0
 10
282.25999999999999
 20
121.027
 30
0.0
 70
    32
  0
VERTEX
  5
3FA
  8
0
 10
282.25999999999999
 20
121.026
 30
0.0
 70
    32
  0
VERTEX
  5
3FB
  8
0
 10
282.26100000000002
 20
121.024
 30
0.0
 70
    32
  0
VERTEX
  5
3FC
  8
0
 10
282.26100000000002
 20
121.023
 30
0.0
 70
    32
  0
VERTEX
  5
3FD
  8
0
 10
282.262
 20
121.021
 30
0.0
 70
    32
  0
VERTEX
  5
3FE
  8
0
 10
282.26299999999998
 20
121.02
 30
0.0
 70
    32
  0
VERTEX
  5
3FF
  8
0
 10
282.26299999999998
 20
121.018
 30
0.0
 70
    32
  0
VERTEX
  5
400
  8
0
 10
282.26400000000001
 20
121.017
 30
0.0
 70
    32
  0
VERTEX
  5
401
  8
0
 10
282.26400000000001
 20
121.015
 30
0.0
 70
    32
  0
VERTEX
  5
402
  8
0
 10
282.26499999999999
 20
121.014
 30
0.0
 70
    32
  0
VERTEX
  5
403
  8
0
 10
282.26599999999991
 20
121.012
 30
0.0
 70
    32
  0
VERTEX
  5
404
  8
0
 10
282.26599999999991
 20
121.011
 30
0.0
 70
    32
  0
VERTEX
  5
405
  8
0
 10
282.267
 20
121.009
 30
0.0
 70
    32
  0
VERTEX
  5
406
  8
0
 10
282.26799999999997
 20
121.008
 30
0.0
 70
    32
  0
VERTEX
  5
407
  8
0
 10
282.26799999999997
 20
121.006
 30
0.0
 70
    32
  0
VERTEX
  5
408
  8
0
 10
282.26900000000001
 20
121.005
 30
0.0
 70
    32
  0
VERTEX
  5
409
  8
0
 10
282.26999999999998
 20
121.003
 30
0.0
 70
    32
  0
VERTEX
  5
40A
  8
0
 10
282.27100000000002
 20
121.002
 30
0.0
 70
    32
  0
VERTEX
  5
40B
  8
0
 10
282.27100000000002
 20
121.0
 30
0.0
 70
    32
  0
VERTEX
  5
40C
  8
0
 10
282.27199999999999
 20
120.999
 30
0.0
 70
    32
  0
VERTEX
  5
40D
  8
0
 10
282.27299999999991
 20
120.997
 30
0.0
 70
    32
  0
VERTEX
  5
40E
  8
0
 10
282.27299999999991
 20
120.996
 30
0.0
 70
    32
  0
VERTEX
  5
40F
  8
0
 10
282.274
 20
120.995
 30
0.0
 70
    32
  0
VERTEX
  5
410
  8
0
 10
282.27499999999998
 20
120.99299999999999
 30
0.0
 70
    32
  0
VERTEX
  5
411
  8
0
 10
282.27600000000001
 20
120.992
 30
0.0
 70
    32
  0
VERTEX
  5
412
  8
0
 10
282.27600000000001
 20
120.98999999999999
 30
0.0
 70
    32
  0
VERTEX
  5
413
  8
0
 10
282.27699999999999
 20
120.989
 30
0.0
 70
    32
  0
VERTEX
  5
414
  8
0
 10
282.27800000000002
 20
120.98699999999999
 30
0.0
 70
    32
  0
VERTEX
  5
415
  8
0
 10
282.279
 20
120.986
 30
0.0
 70
    32
  0
VERTEX
  5
416
  8
0
 10
282.279
 20
120.98399999999999
 30
0.0
 70
    32
  0
VERTEX
  5
417
  8
0
 10
282.27999999999997
 20
120.983
 30
0.0
 70
    32
  0
VERTEX
  5
418
  8
0
 10
282.28100000000001
 20
120.982
 30
0.0
 70
    32
  0
VERTEX
  5
419
  8
0
 10
282.28199999999998
 20
120.98
 30
0.0
 70
    32
  0
VERTEX
  5
41A
  8
0
 10
282.28300000000002
 20
120.979
 30
0.0
 70
    32
  0
SEQEND
  5
41B
  8
0
  0
LINE
  5
1A9
  8
0
  6
CONTINUOUS
 10
282.36837359110001
 20
121.6139214972
 30
0.0
 11
282.24611006169999
 21
121.15759168140001
 31
0.0
  0
LINE
  5
1AA
  8
0
  6
CONTINUOUS
 10
282.51707030680001
 20
122.1279145232
 30
0.0
 11
287.2634948134999
 21
119.38786197909999
 31
0.0
  0
LINE
  5
1AB
  8
0
  6
CONTINUOUS
 10
287.52494277839997
 20
118.1101864199
 30
0.0
 11
287.2634948134999
 21
119.38786197909999
 31
0.0
  0
POLYLINE
  5
1AC
  8
0
  6
CONTINUOUS
 66
     1
 10
0.0
 20
0.0
 30
0.0
 70
     8
  0
VERTEX
  5
41C
  8
0
 10
287.488
 20
117.974
 30
0.0
 70
    32
  0
VERTEX
  5
41D
  8
0
 10
287.48899999999998
 20
117.974
 30
0.0
 70
    32
  0
VERTEX
  5
41E
  8
0
 10
287.49000000000001
 20
117.97499999999999
 30
0.0
 70
    32
  0
VERTEX
  5
41F
  8
0
 10
287.49099999999999
 20
117.97499999999999
 30
0.0
 70
    32
  0
VERTEX
  5
420
  8
0
 10
287.49200000000002
 20
117.976
 30
0.0
 70
    32
  0
VERTEX
  5
421
  8
0
 10
287.49200000000002
 20
117.976
 30
0.0
 70
    32
  0
VERTEX
  5
422
  8
0
 10
287.49299999999999
 20
117.977
 30
0.0
 70
    32
  0
VERTEX
  5
423
  8
0
 10
287.49400000000003
 20
117.977
 30
0.0
 70
    32
  0
VERTEX
  5
424
  8
0
 10
287.495
 20
117.97799999999999
 30
0.0
 70
    32
  0
VERTEX
  5
425
  8
0
 10
287.495
 20
117.97799999999999
 30
0.0
 70
    32
  0
VERTEX
  5
426
  8
0
 10
287.49599999999998
 20
117.979
 30
0.0
 70
    32
  0
VERTEX
  5
427
  8
0
 10
287.49700000000001
 20
117.979
 30
0.0
 70
    32
  0
VERTEX
  5
428
  8
0
 10
287.49799999999999
 20
117.98
 30
0.0
 70
    32
  0
VERTEX
  5
429
  8
0
 10
287.49799999999999
 20
117.98099999999999
 30
0.0
 70
    32
  0
VERTEX
  5
42A
  8
0
 10
287.49900000000002
 20
117.98099999999999
 30
0.0
 70
    32
  0
VERTEX
  5
42B
  8
0
 10
287.5
 20
117.982
 30
0.0
 70
    32
  0
VERTEX
  5
42C
  8
0
 10
287.50099999999992
 20
117.983
 30
0.0
 70
    32
  0
VERTEX
  5
42D
  8
0
 10
287.50099999999992
 20
117.983
 30
0.0
 70
    32
  0
VERTEX
  5
42E
  8
0
 10
287.50200000000001
 20
117.98399999999999
 30
0.0
 70
    32
  0
VERTEX
  5
42F
  8
0
 10
287.50299999999999
 20
117.985
 30
0.0
 70
    32
  0
VERTEX
  5
430
  8
0
 10
287.50299999999999
 20
117.985
 30
0.0
 70
    32
  0
VERTEX
  5
431
  8
0
 10
287.50400000000002
 20
117.986
 30
0.0
 70
    32
  0
VERTEX
  5
432
  8
0
 10
287.505
 20
117.98699999999999
 30
0.0
 70
    32
  0
VERTEX
  5
433
  8
0
 10
287.505
 20
117.98699999999999
 30
0.0
 70
    32
  0
VERTEX
  5
434
  8
0
 10
287.50599999999997
 20
117.988
 30
0.0
 70
    32
  0
VERTEX
  5
435
  8
0
 10
287.50700000000001
 20
117.989
 30
0.0
 70
    32
  0
VERTEX
  5
436
  8
0
 10
287.50700000000001
 20
117.98999999999999
 30
0.0
 70
    32
  0
VERTEX
  5
437
  8
0
 10
287.50799999999998
 20
117.98999999999999
 30
0.0
 70
    32
  0
VERTEX
  5
438
  8
0
 10
287.50799999999998
 20
117.991
 30
0.0
 70
    32
  0
VERTEX
  5
439
  8
0
 10
287.50900000000001
 20
117.992
 30
0.0
 70
    32
  0
VERTEX
  5
43A
  8
0
 10
287.50999999999999
 20
117.99299999999999
 30
0.0
 70
    32
  0
VERTEX
  5
43B
  8
0
 10
287.50999999999999
 20
117.994
 30
0.0
 70
    32
  0
VERTEX
  5
43C
  8
0
 10
287.51100000000002
 20
117.994
 30
0.0
 70
    32
  0
VERTEX
  5
43D
  8
0
 10
287.51100000000002
 20
117.995
 30
0.0
 70
    32
  0
VERTEX
  5
43E
  8
0
 10
287.512
 20
117.996
 30
0.0
 70
    32
  0
VERTEX
  5
43F
  8
0
 10
287.51299999999998
 20
117.997
 30
0.0
 70
    32
  0
VERTEX
  5
440
  8
0
 10
287.51299999999998
 20
117.998
 30
0.0
 70
    32
  0
VERTEX
  5
441
  8
0
 10
287.51400000000001
 20
117.999
 30
0.0
 70
    32
  0
VERTEX
  5
442
  8
0
 10
287.51400000000001
 20
118.0
 30
0.0
 70
    32
  0
VERTEX
  5
443
  8
0
 10
287.51499999999999
 20
118.0
 30
0.0
 70
    32
  0
VERTEX
  5
444
  8
0
 10
287.51499999999999
 20
118.001
 30
0.0
 70
    32
  0
VERTEX
  5
445
  8
0
 10
287.51600000000002
 20
118.002
 30
0.0
 70
    32
  0
VERTEX
  5
446
  8
0
 10
287.51600000000002
 20
118.003
 30
0.0
 70
    32
  0
VERTEX
  5
447
  8
0
 10
287.517
 20
118.004
 30
0.0
 70
    32
  0
VERTEX
  5
448
  8
0
 10
287.517
 20
118.005
 30
0.0
 70
    32
  0
VERTEX
  5
449
  8
0
 10
287.51799999999997
 20
118.006
 30
0.0
 70
    32
  0
VERTEX
  5
44A
  8
0
 10
287.51799999999997
 20
118.00700000000001
 30
0.0
 70
    32
  0
VERTEX
  5
44B
  8
0
 10
287.51900000000001
 20
118.008
 30
0.0
 70
    32
  0
VERTEX
  5
44C
  8
0
 10
287.51900000000001
 20
118.009
 30
0.0
 70
    32
  0
VERTEX
  5
44D
  8
0
 10
287.51900000000001
 20
118.01000000000001
 30
0.0
 70
    32
  0
VERTEX
  5
44E
  8
0
 10
287.51999999999998
 20
118.011
 30
0.0
 70
    32
  0
VERTEX
  5
44F
  8
0
 10
287.51999999999998
 20
118.012
 30
0.0
 70
    32
  0
VERTEX
  5
450
  8
0
 10
287.52100000000002
 20
118.01300000000001
 30
0.0
 70
    32
  0
VERTEX
  5
451
  8
0
 10
287.52100000000002
 20
118.014
 30
0.0
 70
    32
  0
VERTEX
  5
452
  8
0
 10
287.52100000000002
 20
118.015
 30
0.0
 70
    32
  0
VERTEX
  5
453
  8
0
 10
287.52199999999999
 20
118.01600000000001
 30
0.0
 70
    32
  0
VERTEX
  5
454
  8
0
 10
287.52199999999999
 20
118.017
 30
0.0
 70
    32
  0
VERTEX
  5
455
  8
0
 10
287.52300000000002
 20
118.018
 30
0.0
 70
    32
  0
VERTEX
  5
456
  8
0
 10
287.52300000000002
 20
118.01900000000001
 30
0.0
 70
    32
  0
VERTEX
  5
457
  8
0
 10
287.52300000000002
 20
118.02
 30
0.0
 70
    32
  0
VERTEX
  5
458
  8
0
 10
287.524
 20
118.021
 30
0.0
 70
    32
  0
VERTEX
  5
459
  8
0
 10
287.524
 20
118.02200000000001
 30
0.0
 70
    32
  0
VERTEX
  5
45A
  8
0
 10
287.524
 20
118.023
 30
0.0
 70
    32
  0
VERTEX
  5
45B
  8
0
 10
287.52499999999998
 20
118.02500000000001
 30
0.0
 70
    32
  0
VERTEX
  5
45C
  8
0
 10
287.52499999999998
 20
118.026
 30
0.0
 70
    32
  0
VERTEX
  5
45D
  8
0
 10
287.52499999999998
 20
118.027
 30
0.0
 70
    32
  0
VERTEX
  5
45E
  8
0
 10
287.52600000000001
 20
118.02800000000001
 30
0.0
 70
    32
  0
VERTEX
  5
45F
  8
0
 10
287.52600000000001
 20
118.029
 30
0.0
 70
    32
  0
VERTEX
  5
460
  8
0
 10
287.52600000000001
 20
118.03
 30
0.0
 70
    32
  0
VERTEX
  5
461
  8
0
 10
287.52600000000001
 20
118.03100000000001
 30
0.0
 70
    32
  0
VERTEX
  5
462
  8
0
 10
287.52699999999999
 20
118.033
 30
0.0
 70
    32
  0
VERTEX
  5
463
  8
0
 10
287.52699999999999
 20
118.03400000000001
 30
0.0
 70
    32
  0
VERTEX
  5
464
  8
0
 10
287.52699999999999
 20
118.035
 30
0.0
 70
    32
  0
VERTEX
  5
465
  8
0
 10
287.52699999999999
 20
118.036
 30
0.0
 70
    32
  0
VERTEX
  5
466
  8
0
 10
287.52699999999999
 20
118.03700000000001
 30
0.0
 70
    32
  0
VERTEX
  5
467
  8
0
 10
287.52800000000002
 20
118.038
 30
0.0
 70
    32
  0
VERTEX
  5
468
  8
0
 10
287.52800000000002
 20
118.04000000000001
 30
0.0
 70
    32
  0
VERTEX
  5
469
  8
0
 10
287.52800000000002
 20
118.041
 30
0.0
 70
    32
  0
VERTEX
  5
46A
  8
0
 10
287.52800000000002
 20
118.042
 30
0.0
 70
    32
  0
VERTEX
  5
46B
  8
0
 10
287.52800000000002
 20
118.04300000000001
 30
0.0
 70
    32
  0
VERTEX
  5
46C
  8
0
 10
287.529
 20
118.045
 30
0.0
 70
    32
  0
VERTEX
  5
46D
  8
0
 10
287.529
 20
118.04600000000001
 30
0.0
 70
    32
  0
VERTEX
  5
46E
  8
0
 10
287.529
 20
118.047
 30
0.0
 70
    32
  0
VERTEX
  5
46F
  8
0
 10
287.529
 20
118.048
 30
0.0
 70
    32
  0
VERTEX
  5
470
  8
0
 10
287.529
 20
118.05
 30
0.0
 70
    32
  0
VERTEX
  5
471
  8
0
 10
287.529
 20
118.051
 30
0.0
 70
    32
  0
VERTEX
  5
472
  8
0
 10
287.529
 20
118.05200000000001
 30
0.0
 70
    32
  0
VERTEX
  5
473
  8
0
 10
287.529
 20
118.053
 30
0.0
 70
    32
  0
VERTEX
  5
474
  8
0
 10
287.529
 20
118.05500000000001
 30
0.0
 70
    32
  0
VERTEX
  5
475
  8
0
 10
287.52999999999997
 20
118.056
 30
0.0
 70
    32
  0
VERTEX
  5
476
  8
0
 10
287.52999999999997
 20
118.057
 30
0.0
 70
    32
  0
VERTEX
  5
477
  8
0
 10
287.52999999999997
 20
118.059
 30
0.0
 70
    32
  0
VERTEX
  5
478
  8
0
 10
287.52999999999997
 20
118.06
 30
0.0
 70
    32
  0
VERTEX
  5
479
  8
0
 10
287.52999999999997
 20
118.06100000000001
 30
0.0
 70
    32
  0
VERTEX
  5
47A
  8
0
 10
287.52999999999997
 20
118.062
 30
0.0
 70
    32
  0
VERTEX
  5
47B
  8
0
 10
287.52999999999997
 20
118.06399999999999
 30
0.0
 70
    32
  0
VERTEX
  5
47C
  8
0
 10
287.52999999999997
 20
118.065
 30
0.0
 70
    32
  0
VERTEX
  5
47D
  8
0
 10
287.52999999999997
 20
118.066
 30
0.0
 70
    32
  0
VERTEX
  5
47E
  8
0
 10
287.52999999999997
 20
118.068
 30
0.0
 70
    32
  0
VERTEX
  5
47F
  8
0
 10
287.52999999999997
 20
118.069
 30
0.0
 70
    32
  0
VERTEX
  5
480
  8
0
 10
287.52999999999997
 20
118.071
 30
0.0
 70
    32
  0
VERTEX
  5
481
  8
0
 10
287.52999999999997
 20
118.072
 30
0.0
 70
    32
  0
VERTEX
  5
482
  8
0
 10
287.52999999999997
 20
118.07299999999999
 30
0.0
 70
    32
  0
VERTEX
  5
483
  8
0
 10
287.52999999999997
 20
118.075
 30
0.0
 70
    32
  0
VERTEX
  5
484
  8
0
 10
287.529
 20
118.07599999999999
 30
0.0
 70
    32
  0
VERTEX
  5
485
  8
0
 10
287.529
 20
118.077
 30
0.0
 70
    32
  0
VERTEX
  5
486
  8
0
 10
287.529
 20
118.07899999999999
 30
0.0
 70
    32
  0
VERTEX
  5
487
  8
0
 10
287.529
 20
118.08
 30
0.0
 70
    32
  0
VERTEX
  5
488
  8
0
 10
287.529
 20
118.08199999999999
 30
0.0
 70
    32
  0
VERTEX
  5
489
  8
0
 10
287.529
 20
118.083
 30
0.0
 70
    32
  0
VERTEX
  5
48A
  8
0
 10
287.529
 20
118.084
 30
0.0
 70
    32
  0
VERTEX
  5
48B
  8
0
 10
287.529
 20
118.086
 30
0.0
 70
    32
  0
VERTEX
  5
48C
  8
0
 10
287.529
 20
118.087
 30
0.0
 70
    32
  0
VERTEX
  5
48D
  8
0
 10
287.52800000000002
 20
118.089
 30
0.0
 70
    32
  0
VERTEX
  5
48E
  8
0
 10
287.52800000000002
 20
118.09
 30
0.0
 70
    32
  0
VERTEX
  5
48F
  8
0
 10
287.52800000000002
 20
118.09099999999999
 30
0.0
 70
    32
  0
VERTEX
  5
490
  8
0
 10
287.52800000000002
 20
118.093
 30
0.0
 70
    32
  0
VERTEX
  5
491
  8
0
 10
287.52800000000002
 20
118.09399999999999
 30
0.0
 70
    32
  0
VERTEX
  5
492
  8
0
 10
287.52699999999999
 20
118.096
 30
0.0
 70
    32
  0
VERTEX
  5
493
  8
0
 10
287.52699999999999
 20
118.09699999999999
 30
0.0
 70
    32
  0
VERTEX
  5
494
  8
0
 10
287.52699999999999
 20
118.099
 30
0.0
 70
    32
  0
VERTEX
  5
495
  8
0
 10
287.52699999999999
 20
118.09999999999999
 30
0.0
 70
    32
  0
VERTEX
  5
496
  8
0
 10
287.52699999999999
 20
118.101
 30
0.0
 70
    32
  0
VERTEX
  5
497
  8
0
 10
287.52600000000001
 20
118.10299999999999
 30
0.0
 70
    32
  0
VERTEX
  5
498
  8
0
 10
287.52600000000001
 20
118.104
 30
0.0
 70
    32
  0
VERTEX
  5
499
  8
0
 10
287.52600000000001
 20
118.10599999999999
 30
0.0
 70
    32
  0
VERTEX
  5
49A
  8
0
 10
287.52600000000001
 20
118.107
 30
0.0
 70
    32
  0
VERTEX
  5
49B
  8
0
 10
287.52499999999998
 20
118.10899999999999
 30
0.0
 70
    32
  0
VERTEX
  5
49C
  8
0
 10
287.52499999999998
 20
118.11
 30
0.0
 70
    32
  0
SEQEND
  5
49D
  8
0
  0
LINE
  5
1AD
  8
0
  6
CONTINUOUS
 10
286.73782812370001
 20
117.5401882875
 30
0.0
 11
287.48834587959999
 21
117.9735939646
 31
0.0
  0
POLYLINE
  5
1AE
  8
0
  6
CONTINUOUS
 66
     1
 10
0.0
 20
0.0
 30
0.0
 70
     8
  0
VERTEX
  5
49E
  8
0
 10
286.63799999999998
 20
117.55
 30
0.0
 70
    32
  0
VERTEX
  5
49F
  8
0
 10
286.63900000000001
 20
117.55
 30
0.0
 70
    32
  0
VERTEX
  5
4A0
  8
0
 10
286.63999999999999
 20
117.54900000000001
 30
0.0
 70
    32
  0
VERTEX
  5
4A1
  8
0
 10
286.63999999999999
 20
117.54900000000001
 30
0.0
 70
    32
  0
VERTEX
  5
4A2
  8
0
 10
286.64100000000002
 20
117.548
 30
0.0
 70
    32
  0
VERTEX
  5
4A3
  8
0
 10
286.642
 20
117.548
 30
0.0
 70
    32
  0
VERTEX
  5
4A4
  8
0
 10
286.64299999999997
 20
117.547
 30
0.0
 70
    32
  0
VERTEX
  5
4A5
  8
0
 10
286.64400000000001
 20
117.547
 30
0.0
 70
    32
  0
VERTEX
  5
4A6
  8
0
 10
286.64499999999998
 20
117.54600000000001
 30
0.0
 70
    32
  0
VERTEX
  5
4A7
  8
0
 10
286.64600000000002
 20
117.54600000000001
 30
0.0
 70
    32
  0
VERTEX
  5
4A8
  8
0
 10
286.64699999999999
 20
117.545
 30
0.0
 70
    32
  0
VERTEX
  5
4A9
  8
0
 10
286.64699999999999
 20
117.545
 30
0.0
 70
    32
  0
VERTEX
  5
4AA
  8
0
 10
286.64800000000002
 20
117.545
 30
0.0
 70
    32
  0
VERTEX
  5
4AB
  8
0
 10
286.649
 20
117.544
 30
0.0
 70
    32
  0
VERTEX
  5
4AC
  8
0
 10
286.64999999999998
 20
117.544
 30
0.0
 70
    32
  0
VERTEX
  5
4AD
  8
0
 10
286.65100000000001
 20
117.54300000000001
 30
0.0
 70
    32
  0
VERTEX
  5
4AE
  8
0
 10
286.65199999999999
 20
117.54300000000001
 30
0.0
 70
    32
  0
VERTEX
  5
4AF
  8
0
 10
286.65300000000002
 20
117.542
 30
0.0
 70
    32
  0
VERTEX
  5
4B0
  8
0
 10
286.65300000000002
 20
117.542
 30
0.0
 70
    32
  0
VERTEX
  5
4B1
  8
0
 10
286.654
 20
117.542
 30
0.0
 70
    32
  0
VERTEX
  5
4B2
  8
0
 10
286.65499999999997
 20
117.541
 30
0.0
 70
    32
  0
VERTEX
  5
4B3
  8
0
 10
286.65600000000001
 20
117.541
 30
0.0
 70
    32
  0
VERTEX
  5
4B4
  8
0
 10
286.65699999999998
 20
117.541
 30
0.0
 70
    32
  0
VERTEX
  5
4B5
  8
0
 10
286.65800000000002
 20
117.54000000000001
 30
0.0
 70
    32
  0
VERTEX
  5
4B6
  8
0
 10
286.65899999999999
 20
117.54000000000001
 30
0.0
 70
    32
  0
VERTEX
  5
4B7
  8
0
 10
286.65899999999999
 20
117.54000000000001
 30
0.0
 70
    32
  0
VERTEX
  5
4B8
  8
0
 10
286.66000000000003
 20
117.539
 30
0.0
 70
    32
  0
VERTEX
  5
4B9
  8
0
 10
286.661
 20
117.539
 30
0.0
 70
    32
  0
VERTEX
  5
4BA
  8
0
 10
286.66200000000009
 20
117.539
 30
0.0
 70
    32
  0
VERTEX
  5
4BB
  8
0
 10
286.66300000000001
 20
117.538
 30
0.0
 70
    32
  0
VERTEX
  5
4BC
  8
0
 10
286.66399999999999
 20
117.538
 30
0.0
 70
    32
  0
VERTEX
  5
4BD
  8
0
 10
286.66500000000002
 20
117.538
 30
0.0
 70
    32
  0
VERTEX
  5
4BE
  8
0
 10
286.66500000000002
 20
117.53700000000001
 30
0.0
 70
    32
  0
VERTEX
  5
4BF
  8
0
 10
286.666
 20
117.53700000000001
 30
0.0
 70
    32
  0
VERTEX
  5
4C0
  8
0
 10
286.66699999999997
 20
117.53700000000001
 30
0.0
 70
    32
  0
VERTEX
  5
4C1
  8
0
 10
286.66800000000001
 20
117.536
 30
0.0
 70
    32
  0
VERTEX
  5
4C2
  8
0
 10
286.6690000000001
 20
117.536
 30
0.0
 70
    32
  0
VERTEX
  5
4C3
  8
0
 10
286.67000000000002
 20
117.536
 30
0.0
 70
    32
  0
VERTEX
  5
4C4
  8
0
 10
286.67099999999999
 20
117.536
 30
0.0
 70
    32
  0
VERTEX
  5
4C5
  8
0
 10
286.67099999999999
 20
117.535
 30
0.0
 70
    32
  0
VERTEX
  5
4C6
  8
0
 10
286.67200000000003
 20
117.535
 30
0.0
 70
    32
  0
VERTEX
  5
4C7
  8
0
 10
286.673
 20
117.535
 30
0.0
 70
    32
  0
VERTEX
  5
4C8
  8
0
 10
286.67399999999998
 20
117.535
 30
0.0
 70
    32
  0
VERTEX
  5
4C9
  8
0
 10
286.67500000000001
 20
117.53400000000001
 30
0.0
 70
    32
  0
VERTEX
  5
4CA
  8
0
 10
286.67599999999999
 20
117.53400000000001
 30
0.0
 70
    32
  0
VERTEX
  5
4CB
  8
0
 10
286.67599999999999
 20
117.53400000000001
 30
0.0
 70
    32
  0
VERTEX
  5
4CC
  8
0
 10
286.67700000000002
 20
117.53400000000001
 30
0.0
 70
    32
  0
VERTEX
  5
4CD
  8
0
 10
286.678
 20
117.53400000000001
 30
0.0
 70
    32
  0
VERTEX
  5
4CE
  8
0
 10
286.67899999999997
 20
117.533
 30
0.0
 70
    32
  0
VERTEX
  5
4CF
  8
0
 10
286.68000000000001
 20
117.533
 30
0.0
 70
    32
  0
VERTEX
  5
4D0
  8
0
 10
286.68099999999998
 20
117.533
 30
0.0
 70
    32
  0
VERTEX
  5
4D1
  8
0
 10
286.68099999999998
 20
117.533
 30
0.0
 70
    32
  0
VERTEX
  5
4D2
  8
0
 10
286.68200000000002
 20
117.533
 30
0.0
 70
    32
  0
VERTEX
  5
4D3
  8
0
 10
286.68299999999999
 20
117.533
 30
0.0
 70
    32
  0
VERTEX
  5
4D4
  8
0
 10
286.68400000000003
 20
117.532
 30
0.0
 70
    32
  0
VERTEX
  5
4D5
  8
0
 10
286.685
 20
117.532
 30
0.0
 70
    32
  0
VERTEX
  5
4D6
  8
0
 10
286.685
 20
117.532
 30
0.0
 70
    32
  0
VERTEX
  5
4D7
  8
0
 10
286.68599999999998
 20
117.532
 30
0.0
 70
    32
  0
VERTEX
  5
4D8
  8
0
 10
286.68700000000001
 20
117.532
 30
0.0
 70
    32
  0
VERTEX
  5
4D9
  8
0
 10
286.68799999999999
 20
117.532
 30
0.0
 70
    32
  0
VERTEX
  5
4DA
  8
0
 10
286.68900000000002
 20
117.532
 30
0.0
 70
    32
  0
VERTEX
  5
4DB
  8
0
 10
286.69
 20
117.532
 30
0.0
 70
    32
  0
VERTEX
  5
4DC
  8
0
 10
286.69
 20
117.53100000000001
 30
0.0
 70
    32
  0
VERTEX
  5
4DD
  8
0
 10
286.69099999999997
 20
117.53100000000001
 30
0.0
 70
    32
  0
VERTEX
  5
4DE
  8
0
 10
286.69200000000001
 20
117.53100000000001
 30
0.0
 70
    32
  0
VERTEX
  5
4DF
  8
0
 10
286.69299999999998
 20
117.53100000000001
 30
0.0
 70
    32
  0
VERTEX
  5
4E0
  8
0
 10
286.69400000000002
 20
117.53100000000001
 30
0.0
 70
    32
  0
VERTEX
  5
4E1
  8
0
 10
286.69400000000002
 20
117.53100000000001
 30
0.0
 70
    32
  0
VERTEX
  5
4E2
  8
0
 10
286.69499999999999
 20
117.53100000000001
 30
0.0
 70
    32
  0
VERTEX
  5
4E3
  8
0
 10
286.69600000000003
 20
117.53100000000001
 30
0.0
 70
    32
  0
VERTEX
  5
4E4
  8
0
 10
286.697
 20
117.53100000000001
 30
0.0
 70
    32
  0
VERTEX
  5
4E5
  8
0
 10
286.69799999999998
 20
117.53100000000001
 30
0.0
 70
    32
  0
VERTEX
  5
4E6
  8
0
 10
286.69799999999998
 20
117.53100000000001
 30
0.0
 70
    32
  0
VERTEX
  5
4E7
  8
0
 10
286.69900000000001
 20
117.53100000000001
 30
0.0
 70
    32
  0
VERTEX
  5
4E8
  8
0
 10
286.69999999999999
 20
117.53100000000001
 30
0.0
 70
    32
  0
VERTEX
  5
4E9
  8
0
 10
286.70100000000002
 20
117.53100000000001
 30
0.0
 70
    32
  0
VERTEX
  5
4EA
  8
0
 10
286.70100000000002
 20
117.53100000000001
 30
0.0
 70
    32
  0
VERTEX
  5
4EB
  8
0
 10
286.702
 20
117.53100000000001
 30
0.0
 70
    32
  0
VERTEX
  5
4EC
  8
0
 10
286.70299999999997
 20
117.53100000000001
 30
0.0
 70
    32
  0
VERTEX
  5
4ED
  8
0
 10
286.70400000000001
 20
117.53100000000001
 30
0.0
 70
    32
  0
VERTEX
  5
4EE
  8
0
 10
286.70400000000001
 20
117.53100000000001
 30
0.0
 70
    32
  0
VERTEX
  5
4EF
  8
0
 10
286.70499999999998
 20
117.53100000000001
 30
0.0
 70
    32
  0
VERTEX
  5
4F0
  8
0
 10
286.70600000000002
 20
117.53100000000001
 30
0.0
 70
    32
  0
VERTEX
  5
4F1
  8
0
 10
286.70699999999999
 20
117.53100000000001
 30
0.0
 70
    32
  0
VERTEX
  5
4F2
  8
0
 10
286.70799999999991
 20
117.53100000000001
 30
0.0
 70
    32
  0
VERTEX
  5
4F3
  8
0
 10
286.70799999999991
 20
117.53100000000001
 30
0.0
 70
    32
  0
VERTEX
  5
4F4
  8
0
 10
286.709
 20
117.53100000000001
 30
0.0
 70
    32
  0
VERTEX
  5
4F5
  8
0
 10
286.70999999999998
 20
117.53100000000001
 30
0.0
 70
    32
  0
VERTEX
  5
4F6
  8
0
 10
286.71100000000001
 20
117.53100000000001
 30
0.0
 70
    32
  0
VERTEX
  5
4F7
  8
0
 10
286.71100000000001
 20
117.53100000000001
 30
0.0
 70
    32
  0
VERTEX
  5
4F8
  8
0
 10
286.71199999999999
 20
117.532
 30
0.0
 70
    32
  0
VERTEX
  5
4F9
  8
0
 10
286.71299999999991
 20
117.532
 30
0.0
 70
    32
  0
VERTEX
  5
4FA
  8
0
 10
286.71299999999991
 20
117.532
 30
0.0
 70
    32
  0
VERTEX
  5
4FB
  8
0
 10
286.714
 20
117.532
 30
0.0
 70
    32
  0
VERTEX
  5
4FC
  8
0
 10
286.71499999999997
 20
117.532
 30
0.0
 70
    32
  0
VERTEX
  5
4FD
  8
0
 10
286.71600000000001
 20
117.532
 30
0.0
 70
    32
  0
VERTEX
  5
4FE
  8
0
 10
286.71600000000001
 20
117.532
 30
0.0
 70
    32
  0
VERTEX
  5
4FF
  8
0
 10
286.71699999999998
 20
117.532
 30
0.0
 70
    32
  0
VERTEX
  5
500
  8
0
 10
286.71800000000002
 20
117.533
 30
0.0
 70
    32
  0
VERTEX
  5
501
  8
0
 10
286.71899999999999
 20
117.533
 30
0.0
 70
    32
  0
VERTEX
  5
502
  8
0
 10
286.71899999999999
 20
117.533
 30
0.0
 70
    32
  0
VERTEX
  5
503
  8
0
 10
286.72000000000003
 20
117.533
 30
0.0
 70
    32
  0
VERTEX
  5
504
  8
0
 10
286.721
 20
117.533
 30
0.0
 70
    32
  0
VERTEX
  5
505
  8
0
 10
286.721
 20
117.533
 30
0.0
 70
    32
  0
VERTEX
  5
506
  8
0
 10
286.72199999999998
 20
117.53400000000001
 30
0.0
 70
    32
  0
VERTEX
  5
507
  8
0
 10
286.72300000000001
 20
117.53400000000001
 30
0.0
 70
    32
  0
VERTEX
  5
508
  8
0
 10
286.72300000000001
 20
117.53400000000001
 30
0.0
 70
    32
  0
VERTEX
  5
509
  8
0
 10
286.72399999999999
 20
117.53400000000001
 30
0.0
 70
    32
  0
VERTEX
  5
50A
  8
0
 10
286.72500000000002
 20
117.53400000000001
 30
0.0
 70
    32
  0
VERTEX
  5
50B
  8
0
 10
286.726
 20
117.535
 30
0.0
 70
    32
  0
VERTEX
  5
50C
  8
0
 10
286.726
 20
117.535
 30
0.0
 70
    32
  0
VERTEX
  5
50D
  8
0
 10
286.72699999999998
 20
117.535
 30
0.0
 70
    32
  0
VERTEX
  5
50E
  8
0
 10
286.72800000000001
 20
117.535
 30
0.0
 70
    32
  0
VERTEX
  5
50F
  8
0
 10
286.72800000000001
 20
117.536
 30
0.0
 70
    32
  0
VERTEX
  5
510
  8
0
 10
286.72899999999998
 20
117.536
 30
0.0
 70
    32
  0
VERTEX
  5
511
  8
0
 10
286.73000000000002
 20
117.536
 30
0.0
 70
    32
  0
VERTEX
  5
512
  8
0
 10
286.73000000000002
 20
117.536
 30
0.0
 70
    32
  0
VERTEX
  5
513
  8
0
 10
286.73099999999999
 20
117.53700000000001
 30
0.0
 70
    32
  0
VERTEX
  5
514
  8
0
 10
286.73200000000003
 20
117.53700000000001
 30
0.0
 70
    32
  0
VERTEX
  5
515
  8
0
 10
286.73200000000003
 20
117.53700000000001
 30
0.0
 70
    32
  0
VERTEX
  5
516
  8
0
 10
286.733
 20
117.538
 30
0.0
 70
    32
  0
VERTEX
  5
517
  8
0
 10
286.733
 20
117.538
 30
0.0
 70
    32
  0
VERTEX
  5
518
  8
0
 10
286.73399999999998
 20
117.538
 30
0.0
 70
    32
  0
VERTEX
  5
519
  8
0
 10
286.73500000000001
 20
117.538
 30
0.0
 70
    32
  0
VERTEX
  5
51A
  8
0
 10
286.73500000000001
 20
117.539
 30
0.0
 70
    32
  0
VERTEX
  5
51B
  8
0
 10
286.73599999999999
 20
117.539
 30
0.0
 70
    32
  0
VERTEX
  5
51C
  8
0
 10
286.73700000000002
 20
117.539
 30
0.0
 70
    32
  0
VERTEX
  5
51D
  8
0
 10
286.73700000000002
 20
117.54000000000001
 30
0.0
 70
    32
  0
VERTEX
  5
51E
  8
0
 10
286.738
 20
117.54000000000001
 30
0.0
 70
    32
  0
SEQEND
  5
51F
  8
0
  0
LINE
  5
1AF
  8
0
  6
CONTINUOUS
 10
283.13320955339998
 20
119.57326569609999
 30
0.0
 11
286.6378432866
 21
117.55008370660001
 31
0.0
  0
POLYLINE
  5
1B0
  8
0
  6
CONTINUOUS
 66
     1
 10
0.0
 20
0.0
 30
0.0
 70
     8
  0
VERTEX
  5
520
  8
0
 10
283.03300000000002
 20
119.679
 30
0.0
 70
    32
  0
VERTEX
  5
521
  8
0
 10
283.03399999999999
 20
119.678
 30
0.0
 70
    32
  0
VERTEX
  5
522
  8
0
 10
283.03399999999999
 20
119.67700000000001
 30
0.0
 70
    32
  0
VERTEX
  5
523
  8
0
 10
283.03500000000003
 20
119.676
 30
0.0
 70
    32
  0
VERTEX
  5
524
  8
0
 10
283.036
 20
119.675
 30
0.0
 70
    32
  0
VERTEX
  5
525
  8
0
 10
283.036
 20
119.67400000000001
 30
0.0
 70
    32
  0
VERTEX
  5
526
  8
0
 10
283.03699999999998
 20
119.672
 30
0.0
 70
    32
  0
VERTEX
  5
527
  8
0
 10
283.03800000000001
 20
119.67100000000001
 30
0.0
 70
    32
  0
VERTEX
  5
528
  8
0
 10
283.03800000000001
 20
119.67
 30
0.0
 70
    32
  0
VERTEX
  5
529
  8
0
 10
283.03899999999999
 20
119.669
 30
0.0
 70
    32
  0
VERTEX
  5
52A
  8
0
 10
283.04000000000002
 20
119.66800000000001
 30
0.0
 70
    32
  0
VERTEX
  5
52B
  8
0
 10
283.04000000000002
 20
119.667
 30
0.0
 70
    32
  0
VERTEX
  5
52C
  8
0
 10
283.041
 20
119.666
 30
0.0
 70
    32
  0
VERTEX
  5
52D
  8
0
 10
283.04199999999997
 20
119.66500000000001
 30
0.0
 70
    32
  0
VERTEX
  5
52E
  8
0
 10
283.04199999999997
 20
119.664
 30
0.0
 70
    32
  0
VERTEX
  5
52F
  8
0
 10
283.04300000000001
 20
119.663
 30
0.0
 70
    32
  0
VERTEX
  5
530
  8
0
 10
283.04399999999998
 20
119.66200000000001
 30
0.0
 70
    32
  0
VERTEX
  5
531
  8
0
 10
283.04399999999998
 20
119.661
 30
0.0
 70
    32
  0
VERTEX
  5
532
  8
0
 10
283.04500000000002
 20
119.66
 30
0.0
 70
    32
  0
VERTEX
  5
533
  8
0
 10
283.04599999999999
 20
119.65900000000001
 30
0.0
 70
    32
  0
VERTEX
  5
534
  8
0
 10
283.04599999999999
 20
119.658
 30
0.0
 70
    32
  0
VERTEX
  5
535
  8
0
 10
283.04700000000003
 20
119.657
 30
0.0
 70
    32
  0
VERTEX
  5
536
  8
0
 10
283.048
 20
119.65600000000001
 30
0.0
 70
    32
  0
VERTEX
  5
537
  8
0
 10
283.048
 20
119.655
 30
0.0
 70
    32
  0
VERTEX
  5
538
  8
0
 10
283.04900000000009
 20
119.654
 30
0.0
 70
    32
  0
VERTEX
  5
539
  8
0
 10
283.05000000000001
 20
119.65300000000001
 30
0.0
 70
    32
  0
VERTEX
  5
53A
  8
0
 10
283.05000000000001
 20
119.652
 30
0.0
 70
    32
  0
VERTEX
  5
53B
  8
0
 10
283.05099999999999
 20
119.651
 30
0.0
 70
    32
  0
VERTEX
  5
53C
  8
0
 10
283.05200000000002
 20
119.65000000000001
 30
0.0
 70
    32
  0
VERTEX
  5
53D
  8
0
 10
283.053
 20
119.649
 30
0.0
 70
    32
  0
VERTEX
  5
53E
  8
0
 10
283.053
 20
119.648
 30
0.0
 70
    32
  0
VERTEX
  5
53F
  8
0
 10
283.05399999999997
 20
119.64700000000001
 30
0.0
 70
    32
  0
VERTEX
  5
540
  8
0
 10
283.05500000000001
 20
119.646
 30
0.0
 70
    32
  0
VERTEX
  5
541
  8
0
 10
283.05500000000001
 20
119.645
 30
0.0
 70
    32
  0
VERTEX
  5
542
  8
0
 10
283.05599999999998
 20
119.64400000000001
 30
0.0
 70
    32
  0
VERTEX
  5
543
  8
0
 10
283.05700000000002
 20
119.643
 30
0.0
 70
    32
  0
VERTEX
  5
544
  8
0
 10
283.05799999999999
 20
119.642
 30
0.0
 70
    32
  0
VERTEX
  5
545
  8
0
 10
283.05799999999999
 20
119.64100000000001
 30
0.0
 70
    32
  0
VERTEX
  5
546
  8
0
 10
283.05900000000003
 20
119.64
 30
0.0
 70
    32
  0
VERTEX
  5
547
  8
0
 10
283.06
 20
119.639
 30
0.0
 70
    32
  0
VERTEX
  5
548
  8
0
 10
283.06099999999998
 20
119.63800000000001
 30
0.0
 70
    32
  0
VERTEX
  5
549
  8
0
 10
283.06099999999998
 20
119.63800000000001
 30
0.0
 70
    32
  0
VERTEX
  5
54A
  8
0
 10
283.06200000000001
 20
119.637
 30
0.0
 70
    32
  0
VERTEX
  5
54B
  8
0
 10
283.06299999999999
 20
119.636
 30
0.0
 70
    32
  0
VERTEX
  5
54C
  8
0
 10
283.06400000000002
 20
119.63500000000001
 30
0.0
 70
    32
  0
VERTEX
  5
54D
  8
0
 10
283.06400000000002
 20
119.634
 30
0.0
 70
    32
  0
VERTEX
  5
54E
  8
0
 10
283.065
 20
119.633
 30
0.0
 70
    32
  0
VERTEX
  5
54F
  8
0
 10
283.06599999999997
 20
119.63200000000001
 30
0.0
 70
    32
  0
VERTEX
  5
550
  8
0
 10
283.06700000000001
 20
119.631
 30
0.0
 70
    32
  0
VERTEX
  5
551
  8
0
 10
283.06700000000001
 20
119.63
 30
0.0
 70
    32
  0
VERTEX
  5
552
  8
0
 10
283.06799999999998
 20
119.629
 30
0.0
 70
    32
  0
VERTEX
  5
553
  8
0
 10
283.06900000000002
 20
119.628
 30
0.0
 70
    32
  0
VERTEX
  5
554
  8
0
 10
283.06999999999999
 20
119.627
 30
0.0
 70
    32
  0
VERTEX
  5
555
  8
0
 10
283.06999999999999
 20
119.627
 30
0.0
 70
    32
  0
VERTEX
  5
556
  8
0
 10
283.07100000000003
 20
119.626
 30
0.0
 70
    32
  0
VERTEX
  5
557
  8
0
 10
283.072
 20
119.625
 30
0.0
 70
    32
  0
VERTEX
  5
558
  8
0
 10
283.07299999999998
 20
119.624
 30
0.0
 70
    32
  0
VERTEX
  5
559
  8
0
 10
283.07400000000001
 20
119.623
 30
0.0
 70
    32
  0
VERTEX
  5
55A
  8
0
 10
283.07400000000001
 20
119.622
 30
0.0
 70
    32
  0
VERTEX
  5
55B
  8
0
 10
283.07499999999999
 20
119.621
 30
0.0
 70
    32
  0
VERTEX
  5
55C
  8
0
 10
283.07600000000002
 20
119.62
 30
0.0
 70
    32
  0
VERTEX
  5
55D
  8
0
 10
283.077
 20
119.619
 30
0.0
 70
    32
  0
VERTEX
  5
55E
  8
0
 10
283.077
 20
119.619
 30
0.0
 70
    32
  0
VERTEX
  5
55F
  8
0
 10
283.07799999999997
 20
119.61799999999999
 30
0.0
 70
    32
  0
VERTEX
  5
560
  8
0
 10
283.07900000000001
 20
119.617
 30
0.0
 70
    32
  0
VERTEX
  5
561
  8
0
 10
283.07999999999998
 20
119.616
 30
0.0
 70
    32
  0
VERTEX
  5
562
  8
0
 10
283.0809999999999
 20
119.61499999999999
 30
0.0
 70
    32
  0
VERTEX
  5
563
  8
0
 10
283.08199999999999
 20
119.614
 30
0.0
 70
    32
  0
VERTEX
  5
564
  8
0
 10
283.08199999999999
 20
119.614
 30
0.0
 70
    32
  0
VERTEX
  5
565
  8
0
 10
283.08300000000003
 20
119.613
 30
0.0
 70
    32
  0
VERTEX
  5
566
  8
0
 10
283.084
 20
119.61199999999999
 30
0.0
 70
    32
  0
VERTEX
  5
567
  8
0
 10
283.08499999999998
 20
119.611
 30
0.0
 70
    32
  0
VERTEX
  5
568
  8
0
 10
283.08600000000001
 20
119.61
 30
0.0
 70
    32
  0
VERTEX
  5
569
  8
0
 10
283.08600000000001
 20
119.61
 30
0.0
 70
    32
  0
VERTEX
  5
56A
  8
0
 10
283.08699999999999
 20
119.60899999999999
 30
0.0
 70
    32
  0
VERTEX
  5
56B
  8
0
 10
283.08800000000002
 20
119.608
 30
0.0
 70
    32
  0
VERTEX
  5
56C
  8
0
 10
283.089
 20
119.607
 30
0.0
 70
    32
  0
VERTEX
  5
56D
  8
0
 10
283.08999999999997
 20
119.60599999999999
 30
0.0
 70
    32
  0
VERTEX
  5
56E
  8
0
 10
283.09100000000001
 20
119.60599999999999
 30
0.0
 70
    32
  0
VERTEX
  5
56F
  8
0
 10
283.09100000000001
 20
119.605
 30
0.0
 70
    32
  0
VERTEX
  5
570
  8
0
 10
283.09199999999998
 20
119.604
 30
0.0
 70
    32
  0
VERTEX
  5
571
  8
0
 10
283.09300000000002
 20
119.60299999999999
 30
0.0
 70
    32
  0
VERTEX
  5
572
  8
0
 10
283.09399999999999
 20
119.602
 30
0.0
 70
    32
  0
VERTEX
  5
573
  8
0
 10
283.09500000000008
 20
119.602
 30
0.0
 70
    32
  0
VERTEX
  5
574
  8
0
 10
283.09500000000008
 20
119.601
 30
0.0
 70
    32
  0
VERTEX
  5
575
  8
0
 10
283.096
 20
119.59999999999999
 30
0.0
 70
    32
  0
VERTEX
  5
576
  8
0
 10
283.09699999999998
 20
119.599
 30
0.0
 70
    32
  0
VERTEX
  5
577
  8
0
 10
283.09800000000001
 20
119.599
 30
0.0
 70
    32
  0
VERTEX
  5
578
  8
0
 10
283.09899999999999
 20
119.598
 30
0.0
 70
    32
  0
VERTEX
  5
579
  8
0
 10
283.10000000000002
 20
119.59699999999999
 30
0.0
 70
    32
  0
VERTEX
  5
57A
  8
0
 10
283.101
 20
119.59699999999999
 30
0.0
 70
    32
  0
VERTEX
  5
57B
  8
0
 10
283.101
 20
119.596
 30
0.0
 70
    32
  0
VERTEX
  5
57C
  8
0
 10
283.10199999999998
 20
119.595
 30
0.0
 70
    32
  0
VERTEX
  5
57D
  8
0
 10
283.10300000000001
 20
119.59399999999999
 30
0.0
 70
    32
  0
VERTEX
  5
57E
  8
0
 10
283.1040000000001
 20
119.59399999999999
 30
0.0
 70
    32
  0
VERTEX
  5
57F
  8
0
 10
283.10500000000002
 20
119.593
 30
0.0
 70
    32
  0
VERTEX
  5
580
  8
0
 10
283.10599999999999
 20
119.592
 30
0.0
 70
    32
  0
VERTEX
  5
581
  8
0
 10
283.10599999999999
 20
119.592
 30
0.0
 70
    32
  0
VERTEX
  5
582
  8
0
 10
283.10700000000003
 20
119.59099999999999
 30
0.0
 70
    32
  0
VERTEX
  5
583
  8
0
 10
283.108
 20
119.59
 30
0.0
 70
    32
  0
VERTEX
  5
584
  8
0
 10
283.10900000000009
 20
119.59
 30
0.0
 70
    32
  0
VERTEX
  5
585
  8
0
 10
283.11000000000001
 20
119.589
 30
0.0
 70
    32
  0
VERTEX
  5
586
  8
0
 10
283.11099999999999
 20
119.58799999999999
 30
0.0
 70
    32
  0
VERTEX
  5
587
  8
0
 10
283.11200000000002
 20
119.58799999999999
 30
0.0
 70
    32
  0
VERTEX
  5
588
  8
0
 10
283.11200000000002
 20
119.587
 30
0.0
 70
    32
  0
VERTEX
  5
589
  8
0
 10
283.113
 20
119.586
 30
0.0
 70
    32
  0
VERTEX
  5
58A
  8
0
 10
283.11399999999998
 20
119.586
 30
0.0
 70
    32
  0
VERTEX
  5
58B
  8
0
 10
283.11500000000001
 20
119.58499999999999
 30
0.0
 70
    32
  0
VERTEX
  5
58C
  8
0
 10
283.11599999999999
 20
119.584
 30
0.0
 70
    32
  0
VERTEX
  5
58D
  8
0
 10
283.11700000000002
 20
119.584
 30
0.0
 70
    32
  0
VERTEX
  5
58E
  8
0
 10
283.11799999999999
 20
119.583
 30
0.0
 70
    32
  0
VERTEX
  5
58F
  8
0
 10
283.11799999999999
 20
119.583
 30
0.0
 70
    32
  0
VERTEX
  5
590
  8
0
 10
283.11900000000003
 20
119.58199999999999
 30
0.0
 70
    32
  0
VERTEX
  5
591
  8
0
 10
283.12
 20
119.581
 30
0.0
 70
    32
  0
VERTEX
  5
592
  8
0
 10
283.12099999999998
 20
119.581
 30
0.0
 70
    32
  0
VERTEX
  5
593
  8
0
 10
283.12200000000001
 20
119.58
 30
0.0
 70
    32
  0
VERTEX
  5
594
  8
0
 10
283.12299999999999
 20
119.58
 30
0.0
 70
    32
  0
VERTEX
  5
595
  8
0
 10
283.12400000000002
 20
119.57899999999999
 30
0.0
 70
    32
  0
VERTEX
  5
596
  8
0
 10
283.125
 20
119.57899999999999
 30
0.0
 70
    32
  0
VERTEX
  5
597
  8
0
 10
283.125
 20
119.578
 30
0.0
 70
    32
  0
VERTEX
  5
598
  8
0
 10
283.12599999999998
 20
119.577
 30
0.0
 70
    32
  0
VERTEX
  5
599
  8
0
 10
283.12700000000001
 20
119.577
 30
0.0
 70
    32
  0
VERTEX
  5
59A
  8
0
 10
283.12799999999999
 20
119.57599999999999
 30
0.0
 70
    32
  0
VERTEX
  5
59B
  8
0
 10
283.12900000000002
 20
119.57599999999999
 30
0.0
 70
    32
  0
VERTEX
  5
59C
  8
0
 10
283.13
 20
119.575
 30
0.0
 70
    32
  0
VERTEX
  5
59D
  8
0
 10
283.13099999999997
 20
119.575
 30
0.0
 70
    32
  0
VERTEX
  5
59E
  8
0
 10
283.13099999999997
 20
119.574
 30
0.0
 70
    32
  0
VERTEX
  5
59F
  8
0
 10
283.13200000000001
 20
119.574
 30
0.0
 70
    32
  0
VERTEX
  5
5A0
  8
0
 10
283.13299999999998
 20
119.57299999999999
 30
0.0
 70
    32
  0
SEQEND
  5
5A1
  8
0
  0
LINE
  5
1B1
  8
0
  6
CONTINUOUS
 10
282.28270696049998
 20
120.9787453461
 30
0.0
 11
283.03322471640001
 21
119.67881031260001
 31
0.0
  0
LINE
  5
1B2
  8
0
  6
CONTINUOUS
 10
282.13853418209999
 20
120.89784297670001
 30
0.0
 11
282.89078272469999
 21
119.59491028479999
 31
0.0
  0
POLYLINE
  5
1B3
  8
0
  6
CONTINUOUS
 66
     1
 10
0.0
 20
0.0
 30
0.0
 70
     8
  0
VERTEX
  5
5A2
  8
0
 10
282.10199999999998
 20
121.077
 30
0.0
 70
    32
  0
VERTEX
  5
5A3
  8
0
 10
282.10199999999998
 20
121.07599999999999
 30
0.0
 70
    32
  0
VERTEX
  5
5A4
  8
0
 10
282.101
 20
121.074
 30
0.0
 70
    32
  0
VERTEX
  5
5A5
  8
0
 10
282.101
 20
121.07299999999999
 30
0.0
 70
    32
  0
VERTEX
  5
5A6
  8
0
 10
282.101
 20
121.072
 30
0.0
 70
    32
  0
VERTEX
  5
5A7
  8
0
 10
282.101
 20
121.071
 30
0.0
 70
    32
  0
VERTEX
  5
5A8
  8
0
 10
282.10000000000002
 20
121.06999999999999
 30
0.0
 70
    32
  0
VERTEX
  5
5A9
  8
0
 10
282.10000000000002
 20
121.069
 30
0.0
 70
    32
  0
VERTEX
  5
5AA
  8
0
 10
282.10000000000002
 20
121.06699999999999
 30
0.0
 70
    32
  0
VERTEX
  5
5AB
  8
0
 10
282.10000000000002
 20
121.066
 30
0.0
 70
    32
  0
VERTEX
  5
5AC
  8
0
 10
282.09899999999999
 20
121.065
 30
0.0
 70
    32
  0
VERTEX
  5
5AD
  8
0
 10
282.09899999999999
 20
121.06399999999999
 30
0.0
 70
    32
  0
VERTEX
  5
5AE
  8
0
 10
282.09899999999999
 20
121.063
 30
0.0
 70
    32
  0
VERTEX
  5
5AF
  8
0
 10
282.09899999999999
 20
121.062
 30
0.0
 70
    32
  0
VERTEX
  5
5B0
  8
0
 10
282.09899999999999
 20
121.06
 30
0.0
 70
    32
  0
VERTEX
  5
5B1
  8
0
 10
282.09800000000001
 20
121.059
 30
0.0
 70
    32
  0
VERTEX
  5
5B2
  8
0
 10
282.09800000000001
 20
121.05800000000001
 30
0.0
 70
    32
  0
VERTEX
  5
5B3
  8
0
 10
282.09800000000001
 20
121.057
 30
0.0
 70
    32
  0
VERTEX
  5
5B4
  8
0
 10
282.09800000000001
 20
121.05500000000001
 30
0.0
 70
    32
  0
VERTEX
  5
5B5
  8
0
 10
282.09800000000001
 20
121.054
 30
0.0
 70
    32
  0
VERTEX
  5
5B6
  8
0
 10
282.09800000000001
 20
121.053
 30
0.0
 70
    32
  0
VERTEX
  5
5B7
  8
0
 10
282.09800000000001
 20
121.05200000000001
 30
0.0
 70
    32
  0
VERTEX
  5
5B8
  8
0
 10
282.09800000000001
 20
121.05
 30
0.0
 70
    32
  0
VERTEX
  5
5B9
  8
0
 10
282.09800000000001
 20
121.04900000000001
 30
0.0
 70
    32
  0
VERTEX
  5
5BA
  8
0
 10
282.09699999999998
 20
121.048
 30
0.0
 70
    32
  0
VERTEX
  5
5BB
  8
0
 10
282.09699999999998
 20
121.04600000000001
 30
0.0
 70
    32
  0
VERTEX
  5
5BC
  8
0
 10
282.09699999999998
 20
121.045
 30
0.0
 70
    32
  0
VERTEX
  5
5BD
  8
0
 10
282.09699999999998
 20
121.044
 30
0.0
 70
    32
  0
VERTEX
  5
5BE
  8
0
 10
282.09699999999998
 20
121.04300000000001
 30
0.0
 70
    32
  0
VERTEX
  5
5BF
  8
0
 10
282.09699999999998
 20
121.041
 30
0.0
 70
    32
  0
VERTEX
  5
5C0
  8
0
 10
282.09699999999998
 20
121.04000000000001
 30
0.0
 70
    32
  0
VERTEX
  5
5C1
  8
0
 10
282.09699999999998
 20
121.039
 30
0.0
 70
    32
  0
VERTEX
  5
5C2
  8
0
 10
282.09699999999998
 20
121.03700000000001
 30
0.0
 70
    32
  0
VERTEX
  5
5C3
  8
0
 10
282.09699999999998
 20
121.036
 30
0.0
 70
    32
  0
VERTEX
  5
5C4
  8
0
 10
282.09699999999998
 20
121.035
 30
0.0
 70
    32
  0
VERTEX
  5
5C5
  8
0
 10
282.09699999999998
 20
121.033
 30
0.0
 70
    32
  0
VERTEX
  5
5C6
  8
0
 10
282.09699999999998
 20
121.032
 30
0.0
 70
    32
  0
VERTEX
  5
5C7
  8
0
 10
282.09699999999998
 20
121.03
 30
0.0
 70
    32
  0
VERTEX
  5
5C8
  8
0
 10
282.09699999999998
 20
121.029
 30
0.0
 70
    32
  0
VERTEX
  5
5C9
  8
0
 10
282.09699999999998
 20
121.02800000000001
 30
0.0
 70
    32
  0
VERTEX
  5
5CA
  8
0
 10
282.09699999999998
 20
121.026
 30
0.0
 70
    32
  0
VERTEX
  5
5CB
  8
0
 10
282.09800000000001
 20
121.02500000000001
 30
0.0
 70
    32
  0
VERTEX
  5
5CC
  8
0
 10
282.09800000000001
 20
121.024
 30
0.0
 70
    32
  0
VERTEX
  5
5CD
  8
0
 10
282.09800000000001
 20
121.02200000000001
 30
0.0
 70
    32
  0
VERTEX
  5
5CE
  8
0
 10
282.09800000000001
 20
121.021
 30
0.0
 70
    32
  0
VERTEX
  5
5CF
  8
0
 10
282.09800000000001
 20
121.01900000000001
 30
0.0
 70
    32
  0
VERTEX
  5
5D0
  8
0
 10
282.09800000000001
 20
121.018
 30
0.0
 70
    32
  0
VERTEX
  5
5D1
  8
0
 10
282.09800000000001
 20
121.017
 30
0.0
 70
    32
  0
VERTEX
  5
5D2
  8
0
 10
282.09800000000001
 20
121.015
 30
0.0
 70
    32
  0
VERTEX
  5
5D3
  8
0
 10
282.09800000000001
 20
121.014
 30
0.0
 70
    32
  0
VERTEX
  5
5D4
  8
0
 10
282.09899999999999
 20
121.012
 30
0.0
 70
    32
  0
VERTEX
  5
5D5
  8
0
 10
282.09899999999999
 20
121.011
 30
0.0
 70
    32
  0
VERTEX
  5
5D6
  8
0
 10
282.09899999999999
 20
121.01000000000001
 30
0.0
 70
    32
  0
VERTEX
  5
5D7
  8
0
 10
282.09899999999999
 20
121.008
 30
0.0
 70
    32
  0
VERTEX
  5
5D8
  8
0
 10
282.09899999999999
 20
121.00700000000001
 30
0.0
 70
    32
  0
VERTEX
  5
5D9
  8
0
 10
282.10000000000002
 20
121.005
 30
0.0
 70
    32
  0
VERTEX
  5
5DA
  8
0
 10
282.10000000000002
 20
121.004
 30
0.0
 70
    32
  0
VERTEX
  5
5DB
  8
0
 10
282.10000000000002
 20
121.002
 30
0.0
 70
    32
  0
VERTEX
  5
5DC
  8
0
 10
282.10000000000002
 20
121.001
 30
0.0
 70
    32
  0
VERTEX
  5
5DD
  8
0
 10
282.101
 20
120.999
 30
0.0
 70
    32
  0
VERTEX
  5
5DE
  8
0
 10
282.101
 20
120.998
 30
0.0
 70
    32
  0
VERTEX
  5
5DF
  8
0
 10
282.101
 20
120.997
 30
0.0
 70
    32
  0
VERTEX
  5
5E0
  8
0
 10
282.101
 20
120.995
 30
0.0
 70
    32
  0
VERTEX
  5
5E1
  8
0
 10
282.10199999999998
 20
120.994
 30
0.0
 70
    32
  0
VERTEX
  5
5E2
  8
0
 10
282.10199999999998
 20
120.992
 30
0.0
 70
    32
  0
VERTEX
  5
5E3
  8
0
 10
282.10199999999998
 20
120.991
 30
0.0
 70
    32
  0
VERTEX
  5
5E4
  8
0
 10
282.10300000000001
 20
120.989
 30
0.0
 70
    32
  0
VERTEX
  5
5E5
  8
0
 10
282.10300000000001
 20
120.988
 30
0.0
 70
    32
  0
VERTEX
  5
5E6
  8
0
 10
282.10300000000001
 20
120.986
 30
0.0
 70
    32
  0
VERTEX
  5
5E7
  8
0
 10
282.10399999999998
 20
120.985
 30
0.0
 70
    32
  0
VERTEX
  5
5E8
  8
0
 10
282.10399999999998
 20
120.983
 30
0.0
 70
    32
  0
VERTEX
  5
5E9
  8
0
 10
282.10399999999998
 20
120.982
 30
0.0
 70
    32
  0
VERTEX
  5
5EA
  8
0
 10
282.10500000000002
 20
120.98
 30
0.0
 70
    32
  0
VERTEX
  5
5EB
  8
0
 10
282.10500000000002
 20
120.979
 30
0.0
 70
    32
  0
VERTEX
  5
5EC
  8
0
 10
282.10500000000002
 20
120.977
 30
0.0
 70
    32
  0
VERTEX
  5
5ED
  8
0
 10
282.10599999999999
 20
120.976
 30
0.0
 70
    32
  0
VERTEX
  5
5EE
  8
0
 10
282.10599999999999
 20
120.974
 30
0.0
 70
    32
  0
VERTEX
  5
5EF
  8
0
 10
282.10700000000003
 20
120.973
 30
0.0
 70
    32
  0
VERTEX
  5
5F0
  8
0
 10
282.10700000000003
 20
120.971
 30
0.0
 70
    32
  0
VERTEX
  5
5F1
  8
0
 10
282.10700000000003
 20
120.97
 30
0.0
 70
    32
  0
VERTEX
  5
5F2
  8
0
 10
282.108
 20
120.96899999999999
 30
0.0
 70
    32
  0
VERTEX
  5
5F3
  8
0
 10
282.108
 20
120.967
 30
0.0
 70
    32
  0
VERTEX
  5
5F4
  8
0
 10
282.10899999999998
 20
120.96599999999999
 30
0.0
 70
    32
  0
VERTEX
  5
5F5
  8
0
 10
282.10899999999998
 20
120.964
 30
0.0
 70
    32
  0
VERTEX
  5
5F6
  8
0
 10
282.11000000000001
 20
120.96299999999999
 30
0.0
 70
    32
  0
VERTEX
  5
5F7
  8
0
 10
282.11000000000001
 20
120.961
 30
0.0
 70
    32
  0
VERTEX
  5
5F8
  8
0
 10
282.11099999999999
 20
120.95999999999999
 30
0.0
 70
    32
  0
VERTEX
  5
5F9
  8
0
 10
282.11099999999999
 20
120.958
 30
0.0
 70
    32
  0
VERTEX
  5
5FA
  8
0
 10
282.11200000000002
 20
120.95699999999999
 30
0.0
 70
    32
  0
VERTEX
  5
5FB
  8
0
 10
282.11200000000002
 20
120.955
 30
0.0
 70
    32
  0
VERTEX
  5
5FC
  8
0
 10
282.113
 20
120.95399999999999
 30
0.0
 70
    32
  0
VERTEX
  5
5FD
  8
0
 10
282.113
 20
120.952
 30
0.0
 70
    32
  0
VERTEX
  5
5FE
  8
0
 10
282.11399999999998
 20
120.95099999999999
 30
0.0
 70
    32
  0
VERTEX
  5
5FF
  8
0
 10
282.11399999999998
 20
120.949
 30
0.0
 70
    32
  0
VERTEX
  5
600
  8
0
 10
282.11500000000001
 20
120.94799999999999
 30
0.0
 70
    32
  0
VERTEX
  5
601
  8
0
 10
282.11500000000001
 20
120.946
 30
0.0
 70
    32
  0
VERTEX
  5
602
  8
0
 10
282.11599999999999
 20
120.94499999999999
 30
0.0
 70
    32
  0
VERTEX
  5
603
  8
0
 10
282.11700000000002
 20
120.943
 30
0.0
 70
    32
  0
VERTEX
  5
604
  8
0
 10
282.11700000000002
 20
120.94199999999999
 30
0.0
 70
    32
  0
VERTEX
  5
605
  8
0
 10
282.11799999999999
 20
120.94
 30
0.0
 70
    32
  0
VERTEX
  5
606
  8
0
 10
282.11799999999999
 20
120.93899999999999
 30
0.0
 70
    32
  0
VERTEX
  5
607
  8
0
 10
282.11900000000009
 20
120.937
 30
0.0
 70
    32
  0
VERTEX
  5
608
  8
0
 10
282.12
 20
120.93600000000001
 30
0.0
 70
    32
  0
VERTEX
  5
609
  8
0
 10
282.12
 20
120.934
 30
0.0
 70
    32
  0
VERTEX
  5
60A
  8
0
 10
282.12099999999998
 20
120.93300000000001
 30
0.0
 70
    32
  0
VERTEX
  5
60B
  8
0
 10
282.12200000000001
 20
120.931
 30
0.0
 70
    32
  0
VERTEX
  5
60C
  8
0
 10
282.12200000000001
 20
120.93000000000001
 30
0.0
 70
    32
  0
VERTEX
  5
60D
  8
0
 10
282.12299999999999
 20
120.928
 30
0.0
 70
    32
  0
VERTEX
  5
60E
  8
0
 10
282.12400000000002
 20
120.92700000000001
 30
0.0
 70
    32
  0
VERTEX
  5
60F
  8
0
 10
282.12400000000002
 20
120.925
 30
0.0
 70
    32
  0
VERTEX
  5
610
  8
0
 10
282.125
 20
120.92400000000001
 30
0.0
 70
    32
  0
VERTEX
  5
611
  8
0
 10
282.12599999999998
 20
120.922
 30
0.0
 70
    32
  0
VERTEX
  5
612
  8
0
 10
282.12599999999998
 20
120.92100000000001
 30
0.0
 70
    32
  0
VERTEX
  5
613
  8
0
 10
282.12700000000001
 20
120.919
 30
0.0
 70
    32
  0
VERTEX
  5
614
  8
0
 10
282.12799999999999
 20
120.91800000000001
 30
0.0
 70
    32
  0
VERTEX
  5
615
  8
0
 10
282.12799999999999
 20
120.917
 30
0.0
 70
    32
  0
VERTEX
  5
616
  8
0
 10
282.12900000000002
 20
120.91500000000001
 30
0.0
 70
    32
  0
VERTEX
  5
617
  8
0
 10
282.13
 20
120.914
 30
0.0
 70
    32
  0
VERTEX
  5
618
  8
0
 10
282.13099999999997
 20
120.91200000000001
 30
0.0
 70
    32
  0
VERTEX
  5
619
  8
0
 10
282.13099999999997
 20
120.911
 30
0.0
 70
    32
  0
VERTEX
  5
61A
  8
0
 10
282.13200000000001
 20
120.90900000000001
 30
0.0
 70
    32
  0
VERTEX
  5
61B
  8
0
 10
282.13299999999998
 20
120.908
 30
0.0
 70
    32
  0
VERTEX
  5
61C
  8
0
 10
282.13400000000001
 20
120.90600000000001
 30
0.0
 70
    32
  0
VERTEX
  5
61D
  8
0
 10
282.13499999999999
 20
120.905
 30
0.0
 70
    32
  0
VERTEX
  5
61E
  8
0
 10
282.13499999999999
 20
120.904
 30
0.0
 70
    32
  0
VERTEX
  5
61F
  8
0
 10
282.13600000000002
 20
120.902
 30
0.0
 70
    32
  0
VERTEX
  5
620
  8
0
 10
282.137
 20
120.901
 30
0.0
 70
    32
  0
VERTEX
  5
621
  8
0
 10
282.13799999999998
 20
120.899
 30
0.0
 70
    32
  0
VERTEX
  5
622
  8
0
 10
282.13900000000001
 20
120.898
 30
0.0
 70
    32
  0
SEQEND
  5
623
  8
0
  0
POLYLINE
  5
1B4
  8
0
  6
CONTINUOUS
 66
     1
 10
0.0
 20
0.0
 30
0.0
 70
     8
  0
VERTEX
  5
624
  8
0
 10
282.89100000000002
 20
119.595
 30
0.0
 70
    32
  0
VERTEX
  5
625
  8
0
 10
282.89100000000002
 20
119.59399999999999
 30
0.0
 70
    32
  0
VERTEX
  5
626
  8
0
 10
282.892
 20
119.593
 30
0.0
 70
    32
  0
VERTEX
  5
627
  8
0
 10
282.89299999999997
 20
119.592
 30
0.0
 70
    32
  0
VERTEX
  5
628
  8
0
 10
282.89299999999997
 20
119.59099999999999
 30
0.0
 70
    32
  0
VERTEX
  5
629
  8
0
 10
282.89400000000001
 20
119.59
 30
0.0
 70
    32
  0
VERTEX
  5
62A
  8
0
 10
282.89499999999998
 20
119.589
 30
0.0
 70
    32
  0
VERTEX
  5
62B
  8
0
 10
282.89499999999998
 20
119.58799999999999
 30
0.0
 70
    32
  0
VERTEX
  5
62C
  8
0
 10
282.89600000000002
 20
119.586
 30
0.0
 70
    32
  0
VERTEX
  5
62D
  8
0
 10
282.89600000000002
 20
119.58499999999999
 30
0.0
 70
    32
  0
VERTEX
  5
62E
  8
0
 10
282.89699999999999
 20
119.584
 30
0.0
 70
    32
  0
VERTEX
  5
62F
  8
0
 10
282.89799999999991
 20
119.583
 30
0.0
 70
    32
  0
VERTEX
  5
630
  8
0
 10
282.89799999999991
 20
119.58199999999999
 30
0.0
 70
    32
  0
VERTEX
  5
631
  8
0
 10
282.899
 20
119.581
 30
0.0
 70
    32
  0
VERTEX
  5
632
  8
0
 10
282.89999999999998
 20
119.58
 30
0.0
 70
    32
  0
VERTEX
  5
633
  8
0
 10
282.89999999999998
 20
119.57899999999999
 30
0.0
 70
    32
  0
VERTEX
  5
634
  8
0
 10
282.90100000000001
 20
119.578
 30
0.0
 70
    32
  0
VERTEX
  5
635
  8
0
 10
282.90199999999999
 20
119.577
 30
0.0
 70
    32
  0
VERTEX
  5
636
  8
0
 10
282.90199999999999
 20
119.57599999999999
 30
0.0
 70
    32
  0
VERTEX
  5
637
  8
0
 10
282.90300000000002
 20
119.575
 30
0.0
 70
    32
  0
VERTEX
  5
638
  8
0
 10
282.904
 20
119.574
 30
0.0
 70
    32
  0
VERTEX
  5
639
  8
0
 10
282.904
 20
119.57299999999999
 30
0.0
 70
    32
  0
VERTEX
  5
63A
  8
0
 10
282.90499999999997
 20
119.572
 30
0.0
 70
    32
  0
VERTEX
  5
63B
  8
0
 10
282.90600000000001
 20
119.571
 30
0.0
 70
    32
  0
VERTEX
  5
63C
  8
0
 10
282.90699999999998
 20
119.56999999999999
 30
0.0
 70
    32
  0
VERTEX
  5
63D
  8
0
 10
282.90699999999998
 20
119.569
 30
0.0
 70
    32
  0
VERTEX
  5
63E
  8
0
 10
282.90800000000002
 20
119.568
 30
0.0
 70
    32
  0
VERTEX
  5
63F
  8
0
 10
282.90899999999999
 20
119.56699999999999
 30
0.0
 70
    32
  0
VERTEX
  5
640
  8
0
 10
282.90899999999999
 20
119.566
 30
0.0
 70
    32
  0
VERTEX
  5
641
  8
0
 10
282.91000000000003
 20
119.565
 30
0.0
 70
    32
  0
VERTEX
  5
642
  8
0
 10
282.911
 20
119.56399999999999
 30
0.0
 70
    32
  0
VERTEX
  5
643
  8
0
 10
282.911
 20
119.563
 30
0.0
 70
    32
  0
VERTEX
  5
644
  8
0
 10
282.91200000000009
 20
119.562
 30
0.0
 70
    32
  0
VERTEX
  5
645
  8
0
 10
282.91300000000001
 20
119.56100000000001
 30
0.0
 70
    32
  0
VERTEX
  5
646
  8
0
 10
282.91399999999999
 20
119.56
 30
0.0
 70
    32
  0
VERTEX
  5
647
  8
0
 10
282.91399999999999
 20
119.559
 30
0.0
 70
    32
  0
VERTEX
  5
648
  8
0
 10
282.91500000000002
 20
119.55800000000001
 30
0.0
 70
    32
  0
VERTEX
  5
649
  8
0
 10
282.916
 20
119.557
 30
0.0
 70
    32
  0
VERTEX
  5
64A
  8
0
 10
282.91699999999997
 20
119.556
 30
0.0
 70
    32
  0
VERTEX
  5
64B
  8
0
 10
282.91699999999997
 20
119.556
 30
0.0
 70
    32
  0
VERTEX
  5
64C
  8
0
 10
282.91800000000001
 20
119.55500000000001
 30
0.0
 70
    32
  0
VERTEX
  5
64D
  8
0
 10
282.91899999999998
 20
119.554
 30
0.0
 70
    32
  0
VERTEX
  5
64E
  8
0
 10
282.92000000000002
 20
119.553
 30
0.0
 70
    32
  0
VERTEX
  5
64F
  8
0
 10
282.92000000000002
 20
119.55200000000001
 30
0.0
 70
    32
  0
VERTEX
  5
650
  8
0
 10
282.92099999999999
 20
119.551
 30
0.0
 70
    32
  0
VERTEX
  5
651
  8
0
 10
282.92200000000003
 20
119.55
 30
0.0
 70
    32
  0
VERTEX
  5
652
  8
0
 10
282.923
 20
119.54900000000001
 30
0.0
 70
    32
  0
VERTEX
  5
653
  8
0
 10
282.923
 20
119.548
 30
0.0
 70
    32
  0
VERTEX
  5
654
  8
0
 10
282.92399999999998
 20
119.547
 30
0.0
 70
    32
  0
VERTEX
  5
655
  8
0
 10
282.92500000000001
 20
119.54600000000001
 30
0.0
 70
    32
  0
VERTEX
  5
656
  8
0
 10
282.92599999999999
 20
119.545
 30
0.0
 70
    32
  0
VERTEX
  5
657
  8
0
 10
282.92599999999999
 20
119.544
 30
0.0
 70
    32
  0
VERTEX
  5
658
  8
0
 10
282.92700000000002
 20
119.544
 30
0.0
 70
    32
  0
VERTEX
  5
659
  8
0
 10
282.928
 20
119.54300000000001
 30
0.0
 70
    32
  0
VERTEX
  5
65A
  8
0
 10
282.92899999999997
 20
119.542
 30
0.0
 70
    32
  0
VERTEX
  5
65B
  8
0
 10
282.93000000000001
 20
119.541
 30
0.0
 70
    32
  0
VERTEX
  5
65C
  8
0
 10
282.93000000000001
 20
119.54000000000001
 30
0.0
 70
    32
  0
VERTEX
  5
65D
  8
0
 10
282.93099999999998
 20
119.539
 30
0.0
 70
    32
  0
VERTEX
  5
65E
  8
0
 10
282.93200000000002
 20
119.538
 30
0.0
 70
    32
  0
VERTEX
  5
65F
  8
0
 10
282.93299999999999
 20
119.53700000000001
 30
0.0
 70
    32
  0
VERTEX
  5
660
  8
0
 10
282.93299999999999
 20
119.536
 30
0.0
 70
    32
  0
VERTEX
  5
661
  8
0
 10
282.93400000000003
 20
119.536
 30
0.0
 70
    32
  0
VERTEX
  5
662
  8
0
 10
282.935
 20
119.535
 30
0.0
 70
    32
  0
VERTEX
  5
663
  8
0
 10
282.93599999999998
 20
119.53400000000001
 30
0.0
 70
    32
  0
VERTEX
  5
664
  8
0
 10
282.93700000000001
 20
119.533
 30
0.0
 70
    32
  0
VERTEX
  5
665
  8
0
 10
282.93700000000001
 20
119.532
 30
0.0
 70
    32
  0
VERTEX
  5
666
  8
0
 10
282.93799999999999
 20
119.53100000000001
 30
0.0
 70
    32
  0
VERTEX
  5
667
  8
0
 10
282.93900000000002
 20
119.53100000000001
 30
0.0
 70
    32
  0
VERTEX
  5
668
  8
0
 10
282.94
 20
119.53
 30
0.0
 70
    32
  0
VERTEX
  5
669
  8
0
 10
282.94099999999997
 20
119.529
 30
0.0
 70
    32
  0
VERTEX
  5
66A
  8
0
 10
282.94200000000001
 20
119.52800000000001
 30
0.0
 70
    32
  0
VERTEX
  5
66B
  8
0
 10
282.94200000000001
 20
119.527
 30
0.0
 70
    32
  0
VERTEX
  5
66C
  8
0
 10
282.94299999999998
 20
119.526
 30
0.0
 70
    32
  0
VERTEX
  5
66D
  8
0
 10
282.94400000000002
 20
119.526
 30
0.0
 70
    32
  0
VERTEX
  5
66E
  8
0
 10
282.94499999999999
 20
119.52500000000001
 30
0.0
 70
    32
  0
VERTEX
  5
66F
  8
0
 10
282.94600000000003
 20
119.524
 30
0.0
 70
    32
  0
VERTEX
  5
670
  8
0
 10
282.94600000000003
 20
119.523
 30
0.0
 70
    32
  0
VERTEX
  5
671
  8
0
 10
282.947
 20
119.52200000000001
 30
0.0
 70
    32
  0
VERTEX
  5
672
  8
0
 10
282.94799999999998
 20
119.52200000000001
 30
0.0
 70
    32
  0
VERTEX
  5
673
  8
0
 10
282.94900000000001
 20
119.521
 30
0.0
 70
    32
  0
VERTEX
  5
674
  8
0
 10
282.94999999999999
 20
119.52
 30
0.0
 70
    32
  0
VERTEX
  5
675
  8
0
 10
282.95099999999991
 20
119.51900000000001
 30
0.0
 70
    32
  0
VERTEX
  5
676
  8
0
 10
282.95099999999991
 20
119.51900000000001
 30
0.0
 70
    32
  0
VERTEX
  5
677
  8
0
 10
282.952
 20
119.518
 30
0.0
 70
    32
  0
VERTEX
  5
678
  8
0
 10
282.95299999999997
 20
119.517
 30
0.0
 70
    32
  0
VERTEX
  5
679
  8
0
 10
282.95400000000001
 20
119.51600000000001
 30
0.0
 70
    32
  0
VERTEX
  5
67A
  8
0
 10
282.95499999999998
 20
119.51600000000001
 30
0.0
 70
    32
  0
VERTEX
  5
67B
  8
0
 10
282.95600000000002
 20
119.515
 30
0.0
 70
    32
  0
VERTEX
  5
67C
  8
0
 10
282.95600000000002
 20
119.514
 30
0.0
 70
    32
  0
VERTEX
  5
67D
  8
0
 10
282.95699999999999
 20
119.51300000000001
 30
0.0
 70
    32
  0
VERTEX
  5
67E
  8
0
 10
282.95799999999991
 20
119.51300000000001
 30
0.0
 70
    32
  0
VERTEX
  5
67F
  8
0
 10
282.959
 20
119.512
 30
0.0
 70
    32
  0
VERTEX
  5
680
  8
0
 10
282.95999999999998
 20
119.511
 30
0.0
 70
    32
  0
VERTEX
  5
681
  8
0
 10
282.96100000000001
 20
119.511
 30
0.0
 70
    32
  0
VERTEX
  5
682
  8
0
 10
282.96100000000001
 20
119.51000000000001
 30
0.0
 70
    32
  0
VERTEX
  5
683
  8
0
 10
282.96199999999999
 20
119.509
 30
0.0
 70
    32
  0
VERTEX
  5
684
  8
0
 10
282.96300000000002
 20
119.508
 30
0.0
 70
    32
  0
VERTEX
  5
685
  8
0
 10
282.964
 20
119.508
 30
0.0
 70
    32
  0
VERTEX
  5
686
  8
0
 10
282.96499999999997
 20
119.50700000000001
 30
0.0
 70
    32
  0
VERTEX
  5
687
  8
0
 10
282.96600000000001
 20
119.506
 30
0.0
 70
    32
  0
VERTEX
  5
688
  8
0
 10
282.96699999999998
 20
119.506
 30
0.0
 70
    32
  0
VERTEX
  5
689
  8
0
 10
282.96699999999998
 20
119.505
 30
0.0
 70
    32
  0
VERTEX
  5
68A
  8
0
 10
282.96800000000002
 20
119.504
 30
0.0
 70
    32
  0
VERTEX
  5
68B
  8
0
 10
282.96899999999999
 20
119.504
 30
0.0
 70
    32
  0
VERTEX
  5
68C
  8
0
 10
282.97000000000003
 20
119.503
 30
0.0
 70
    32
  0
VERTEX
  5
68D
  8
0
 10
282.971
 20
119.502
 30
0.0
 70
    32
  0
VERTEX
  5
68E
  8
0
 10
282.97199999999998
 20
119.502
 30
0.0
 70
    32
  0
VERTEX
  5
68F
  8
0
 10
282.97300000000001
 20
119.501
 30
0.0
 70
    32
  0
VERTEX
  5
690
  8
0
 10
282.97300000000001
 20
119.501
 30
0.0
 70
    32
  0
VERTEX
  5
691
  8
0
 10
282.97399999999999
 20
119.5
 30
0.0
 70
    32
  0
VERTEX
  5
692
  8
0
 10
282.97500000000002
 20
119.499
 30
0.0
 70
    32
  0
VERTEX
  5
693
  8
0
 10
282.976
 20
119.499
 30
0.0
 70
    32
  0
VERTEX
  5
694
  8
0
 10
282.97699999999998
 20
119.498
 30
0.0
 70
    32
  0
VERTEX
  5
695
  8
0
 10
282.97800000000001
 20
119.498
 30
0.0
 70
    32
  0
VERTEX
  5
696
  8
0
 10
282.97899999999998
 20
119.497
 30
0.0
 70
    32
  0
VERTEX
  5
697
  8
0
 10
282.97899999999998
 20
119.496
 30
0.0
 70
    32
  0
VERTEX
  5
698
  8
0
 10
282.98000000000002
 20
119.496
 30
0.0
 70
    32
  0
VERTEX
  5
699
  8
0
 10
282.98099999999999
 20
119.495
 30
0.0
 70
    32
  0
VERTEX
  5
69A
  8
0
 10
282.98200000000003
 20
119.495
 30
0.0
 70
    32
  0
VERTEX
  5
69B
  8
0
 10
282.983
 20
119.494
 30
0.0
 70
    32
  0
VERTEX
  5
69C
  8
0
 10
282.98399999999998
 20
119.494
 30
0.0
 70
    32
  0
VERTEX
  5
69D
  8
0
 10
282.98500000000001
 20
119.49299999999999
 30
0.0
 70
    32
  0
VERTEX
  5
69E
  8
0
 10
282.98599999999999
 20
119.492
 30
0.0
 70
    32
  0
VERTEX
  5
69F
  8
0
 10
282.98599999999999
 20
119.492
 30
0.0
 70
    32
  0
VERTEX
  5
6A0
  8
0
 10
282.98700000000002
 20
119.491
 30
0.0
 70
    32
  0
VERTEX
  5
6A1
  8
0
 10
282.988
 20
119.491
 30
0.0
 70
    32
  0
VERTEX
  5
6A2
  8
0
 10
282.98899999999998
 20
119.48999999999999
 30
0.0
 70
    32
  0
VERTEX
  5
6A3
  8
0
 10
282.99000000000001
 20
119.48999999999999
 30
0.0
 70
    32
  0
VERTEX
  5
6A4
  8
0
 10
282.99099999999999
 20
119.489
 30
0.0
 70
    32
  0
SEQEND
  5
6A5
  8
0
  0
LINE
  5
1B5
  8
0
  6
CONTINUOUS
 10
282.99076756170001
 20
119.4893656683
 30
0.0
 11
286.4974462074
 21
117.465003176
 31
0.0
  0
LINE
  5
1B6
  8
0
  6
CONTINUOUS
 10
282.22346324289998
 20
121.53026648709999
 30
0.0
 11
282.1019372833
 21
121.076689312
 31
0.0
  0
POLYLINE
  5
1B7
  8
0
  6
CONTINUOUS
 66
     1
 10
0.0
 20
0.0
 30
0.0
 70
     8
  0
VERTEX
  5
6A6
  8
0
 10
286.49700000000001
 20
117.465
 30
0.0
 70
    32
  0
VERTEX
  5
6A7
  8
0
 10
286.49799999999999
 20
117.465
 30
0.0
 70
    32
  0
VERTEX
  5
6A8
  8
0
 10
286.49900000000002
 20
117.464
 30
0.0
 70
    32
  0
VERTEX
  5
6A9
  8
0
 10
286.5
 20
117.464
 30
0.0
 70
    32
  0
VERTEX
  5
6AA
  8
0
 10
286.50099999999998
 20
117.46299999999999
 30
0.0
 70
    32
  0
VERTEX
  5
6AB
  8
0
 10
286.50200000000001
 20
117.46299999999999
 30
0.0
 70
    32
  0
VERTEX
  5
6AC
  8
0
 10
286.50299999999999
 20
117.462
 30
0.0
 70
    32
  0
VERTEX
  5
6AD
  8
0
 10
286.50400000000002
 20
117.462
 30
0.0
 70
    32
  0
VERTEX
  5
6AE
  8
0
 10
286.50400000000002
 20
117.461
 30
0.0
 70
    32
  0
VERTEX
  5
6AF
  8
0
 10
286.505
 20
117.461
 30
0.0
 70
    32
  0
VERTEX
  5
6B0
  8
0
 10
286.50599999999997
 20
117.45999999999999
 30
0.0
 70
    32
  0
VERTEX
  5
6B1
  8
0
 10
286.50700000000001
 20
117.45999999999999
 30
0.0
 70
    32
  0
VERTEX
  5
6B2
  8
0
 10
286.50799999999998
 20
117.459
 30
0.0
 70
    32
  0
VERTEX
  5
6B3
  8
0
 10
286.50900000000001
 20
117.459
 30
0.0
 70
    32
  0
VERTEX
  5
6B4
  8
0
 10
286.50999999999999
 20
117.459
 30
0.0
 70
    32
  0
VERTEX
  5
6B5
  8
0
 10
286.50999999999999
 20
117.458
 30
0.0
 70
    32
  0
VERTEX
  5
6B6
  8
0
 10
286.51099999999991
 20
117.458
 30
0.0
 70
    32
  0
VERTEX
  5
6B7
  8
0
 10
286.512
 20
117.45699999999999
 30
0.0
 70
    32
  0
VERTEX
  5
6B8
  8
0
 10
286.51299999999998
 20
117.45699999999999
 30
0.0
 70
    32
  0
VERTEX
  5
6B9
  8
0
 10
286.51400000000001
 20
117.45699999999999
 30
0.0
 70
    32
  0
VERTEX
  5
6BA
  8
0
 10
286.51499999999999
 20
117.456
 30
0.0
 70
    32
  0
VERTEX
  5
6BB
  8
0
 10
286.51599999999991
 20
117.456
 30
0.0
 70
    32
  0
VERTEX
  5
6BC
  8
0
 10
286.51599999999991
 20
117.456
 30
0.0
 70
    32
  0
VERTEX
  5
6BD
  8
0
 10
286.517
 20
117.455
 30
0.0
 70
    32
  0
VERTEX
  5
6BE
  8
0
 10
286.51799999999997
 20
117.455
 30
0.0
 70
    32
  0
VERTEX
  5
6BF
  8
0
 10
286.51900000000001
 20
117.45399999999999
 30
0.0
 70
    32
  0
VERTEX
  5
6C0
  8
0
 10
286.51999999999998
 20
117.45399999999999
 30
0.0
 70
    32
  0
VERTEX
  5
6C1
  8
0
 10
286.52100000000002
 20
117.45399999999999
 30
0.0
 70
    32
  0
VERTEX
  5
6C2
  8
0
 10
286.52199999999999
 20
117.453
 30
0.0
 70
    32
  0
VERTEX
  5
6C3
  8
0
 10
286.52199999999999
 20
117.453
 30
0.0
 70
    32
  0
VERTEX
  5
6C4
  8
0
 10
286.52300000000002
 20
117.453
 30
0.0
 70
    32
  0
VERTEX
  5
6C5
  8
0
 10
286.524
 20
117.453
 30
0.0
 70
    32
  0
VERTEX
  5
6C6
  8
0
 10
286.52499999999992
 20
117.452
 30
0.0
 70
    32
  0
VERTEX
  5
6C7
  8
0
 10
286.52600000000001
 20
117.452
 30
0.0
 70
    32
  0
VERTEX
  5
6C8
  8
0
 10
286.52699999999999
 20
117.452
 30
0.0
 70
    32
  0
VERTEX
  5
6C9
  8
0
 10
286.52800000000002
 20
117.45099999999999
 30
0.0
 70
    32
  0
VERTEX
  5
6CA
  8
0
 10
286.52800000000002
 20
117.45099999999999
 30
0.0
 70
    32
  0
VERTEX
  5
6CB
  8
0
 10
286.529
 20
117.45099999999999
 30
0.0
 70
    32
  0
VERTEX
  5
6CC
  8
0
 10
286.52999999999997
 20
117.45099999999999
 30
0.0
 70
    32
  0
VERTEX
  5
6CD
  8
0
 10
286.53100000000001
 20
117.45
 30
0.0
 70
    32
  0
VERTEX
  5
6CE
  8
0
 10
286.53199999999998
 20
117.45
 30
0.0
 70
    32
  0
VERTEX
  5
6CF
  8
0
 10
286.53300000000002
 20
117.45
 30
0.0
 70
    32
  0
VERTEX
  5
6D0
  8
0
 10
286.53300000000002
 20
117.45
 30
0.0
 70
    32
  0
VERTEX
  5
6D1
  8
0
 10
286.53399999999999
 20
117.449
 30
0.0
 70
    32
  0
VERTEX
  5
6D2
  8
0
 10
286.53500000000003
 20
117.449
 30
0.0
 70
    32
  0
VERTEX
  5
6D3
  8
0
 10
286.536
 20
117.449
 30
0.0
 70
    32
  0
VERTEX
  5
6D4
  8
0
 10
286.53699999999998
 20
117.449
 30
0.0
 70
    32
  0
VERTEX
  5
6D5
  8
0
 10
286.53800000000001
 20
117.449
 30
0.0
 70
    32
  0
VERTEX
  5
6D6
  8
0
 10
286.53800000000001
 20
117.44799999999999
 30
0.0
 70
    32
  0
VERTEX
  5
6D7
  8
0
 10
286.53899999999999
 20
117.44799999999999
 30
0.0
 70
    32
  0
VERTEX
  5
6D8
  8
0
 10
286.54000000000002
 20
117.44799999999999
 30
0.0
 70
    32
  0
VERTEX
  5
6D9
  8
0
 10
286.541
 20
117.44799999999999
 30
0.0
 70
    32
  0
VERTEX
  5
6DA
  8
0
 10
286.54199999999997
 20
117.44799999999999
 30
0.0
 70
    32
  0
VERTEX
  5
6DB
  8
0
 10
286.54300000000001
 20
117.447
 30
0.0
 70
    32
  0
VERTEX
  5
6DC
  8
0
 10
286.54300000000001
 20
117.447
 30
0.0
 70
    32
  0
VERTEX
  5
6DD
  8
0
 10
286.54399999999998
 20
117.447
 30
0.0
 70
    32
  0
VERTEX
  5
6DE
  8
0
 10
286.54500000000002
 20
117.447
 30
0.0
 70
    32
  0
VERTEX
  5
6DF
  8
0
 10
286.54599999999999
 20
117.447
 30
0.0
 70
    32
  0
VERTEX
  5
6E0
  8
0
 10
286.54700000000003
 20
117.447
 30
0.0
 70
    32
  0
VERTEX
  5
6E1
  8
0
 10
286.548
 20
117.447
 30
0.0
 70
    32
  0
VERTEX
  5
6E2
  8
0
 10
286.548
 20
117.447
 30
0.0
 70
    32
  0
VERTEX
  5
6E3
  8
0
 10
286.54899999999998
 20
117.446
 30
0.0
 70
    32
  0
VERTEX
  5
6E4
  8
0
 10
286.55000000000001
 20
117.446
 30
0.0
 70
    32
  0
VERTEX
  5
6E5
  8
0
 10
286.55099999999999
 20
117.446
 30
0.0
 70
    32
  0
VERTEX
  5
6E6
  8
0
 10
286.55200000000002
 20
117.446
 30
0.0
 70
    32
  0
VERTEX
  5
6E7
  8
0
 10
286.55200000000002
 20
117.446
 30
0.0
 70
    32
  0
VERTEX
  5
6E8
  8
0
 10
286.553
 20
117.446
 30
0.0
 70
    32
  0
VERTEX
  5
6E9
  8
0
 10
286.55399999999997
 20
117.446
 30
0.0
 70
    32
  0
VERTEX
  5
6EA
  8
0
 10
286.55500000000001
 20
117.446
 30
0.0
 70
    32
  0
VERTEX
  5
6EB
  8
0
 10
286.55599999999998
 20
117.446
 30
0.0
 70
    32
  0
VERTEX
  5
6EC
  8
0
 10
286.55599999999998
 20
117.446
 30
0.0
 70
    32
  0
VERTEX
  5
6ED
  8
0
 10
286.55700000000002
 20
117.446
 30
0.0
 70
    32
  0
VERTEX
  5
6EE
  8
0
 10
286.55799999999999
 20
117.446
 30
0.0
 70
    32
  0
VERTEX
  5
6EF
  8
0
 10
286.55900000000003
 20
117.446
 30
0.0
 70
    32
  0
VERTEX
  5
6F0
  8
0
 10
286.55900000000003
 20
117.446
 30
0.0
 70
    32
  0
VERTEX
  5
6F1
  8
0
 10
286.56
 20
117.446
 30
0.0
 70
    32
  0
VERTEX
  5
6F2
  8
0
 10
286.56099999999998
 20
117.446
 30
0.0
 70
    32
  0
VERTEX
  5
6F3
  8
0
 10
286.56200000000001
 20
117.446
 30
0.0
 70
    32
  0
VERTEX
  5
6F4
  8
0
 10
286.56299999999999
 20
117.446
 30
0.0
 70
    32
  0
VERTEX
  5
6F5
  8
0
 10
286.56299999999999
 20
117.446
 30
0.0
 70
    32
  0
VERTEX
  5
6F6
  8
0
 10
286.56400000000002
 20
117.446
 30
0.0
 70
    32
  0
VERTEX
  5
6F7
  8
0
 10
286.565
 20
117.446
 30
0.0
 70
    32
  0
VERTEX
  5
6F8
  8
0
 10
286.56599999999997
 20
117.446
 30
0.0
 70
    32
  0
VERTEX
  5
6F9
  8
0
 10
286.56599999999997
 20
117.446
 30
0.0
 70
    32
  0
VERTEX
  5
6FA
  8
0
 10
286.56700000000001
 20
117.446
 30
0.0
 70
    32
  0
VERTEX
  5
6FB
  8
0
 10
286.56799999999998
 20
117.446
 30
0.0
 70
    32
  0
VERTEX
  5
6FC
  8
0
 10
286.56900000000002
 20
117.446
 30
0.0
 70
    32
  0
VERTEX
  5
6FD
  8
0
 10
286.56900000000002
 20
117.446
 30
0.0
 70
    32
  0
VERTEX
  5
6FE
  8
0
 10
286.56999999999999
 20
117.446
 30
0.0
 70
    32
  0
VERTEX
  5
6FF
  8
0
 10
286.57099999999991
 20
117.446
 30
0.0
 70
    32
  0
VERTEX
  5
700
  8
0
 10
286.572
 20
117.446
 30
0.0
 70
    32
  0
VERTEX
  5
701
  8
0
 10
286.572
 20
117.447
 30
0.0
 70
    32
  0
VERTEX
  5
702
  8
0
 10
286.57299999999998
 20
117.447
 30
0.0
 70
    32
  0
VERTEX
  5
703
  8
0
 10
286.57400000000001
 20
117.447
 30
0.0
 70
    32
  0
VERTEX
  5
704
  8
0
 10
286.57499999999999
 20
117.447
 30
0.0
 70
    32
  0
VERTEX
  5
705
  8
0
 10
286.57499999999999
 20
117.447
 30
0.0
 70
    32
  0
VERTEX
  5
706
  8
0
 10
286.57600000000002
 20
117.447
 30
0.0
 70
    32
  0
VERTEX
  5
707
  8
0
 10
286.577
 20
117.447
 30
0.0
 70
    32
  0
VERTEX
  5
708
  8
0
 10
286.577
 20
117.447
 30
0.0
 70
    32
  0
VERTEX
  5
709
  8
0
 10
286.57799999999997
 20
117.44799999999999
 30
0.0
 70
    32
  0
VERTEX
  5
70A
  8
0
 10
286.57900000000001
 20
117.44799999999999
 30
0.0
 70
    32
  0
VERTEX
  5
70B
  8
0
 10
286.57999999999998
 20
117.44799999999999
 30
0.0
 70
    32
  0
VERTEX
  5
70C
  8
0
 10
286.57999999999998
 20
117.44799999999999
 30
0.0
 70
    32
  0
VERTEX
  5
70D
  8
0
 10
286.58100000000002
 20
117.44799999999999
 30
0.0
 70
    32
  0
VERTEX
  5
70E
  8
0
 10
286.58199999999999
 20
117.449
 30
0.0
 70
    32
  0
VERTEX
  5
70F
  8
0
 10
286.58199999999999
 20
117.449
 30
0.0
 70
    32
  0
VERTEX
  5
710
  8
0
 10
286.58300000000003
 20
117.449
 30
0.0
 70
    32
  0
VERTEX
  5
711
  8
0
 10
286.584
 20
117.449
 30
0.0
 70
    32
  0
VERTEX
  5
712
  8
0
 10
286.584
 20
117.449
 30
0.0
 70
    32
  0
VERTEX
  5
713
  8
0
 10
286.58499999999998
 20
117.45
 30
0.0
 70
    32
  0
VERTEX
  5
714
  8
0
 10
286.58600000000001
 20
117.45
 30
0.0
 70
    32
  0
VERTEX
  5
715
  8
0
 10
286.58600000000001
 20
117.45
 30
0.0
 70
    32
  0
VERTEX
  5
716
  8
0
 10
286.58699999999999
 20
117.45
 30
0.0
 70
    32
  0
VERTEX
  5
717
  8
0
 10
286.58800000000002
 20
117.45099999999999
 30
0.0
 70
    32
  0
VERTEX
  5
718
  8
0
 10
286.58800000000002
 20
117.45099999999999
 30
0.0
 70
    32
  0
VERTEX
  5
719
  8
0
 10
286.589
 20
117.45099999999999
 30
0.0
 70
    32
  0
VERTEX
  5
71A
  8
0
 10
286.58999999999997
 20
117.45099999999999
 30
0.0
 70
    32
  0
VERTEX
  5
71B
  8
0
 10
286.58999999999997
 20
117.452
 30
0.0
 70
    32
  0
VERTEX
  5
71C
  8
0
 10
286.59100000000001
 20
117.452
 30
0.0
 70
    32
  0
VERTEX
  5
71D
  8
0
 10
286.59199999999998
 20
117.452
 30
0.0
 70
    32
  0
VERTEX
  5
71E
  8
0
 10
286.59199999999998
 20
117.452
 30
0.0
 70
    32
  0
VERTEX
  5
71F
  8
0
 10
286.59300000000002
 20
117.453
 30
0.0
 70
    32
  0
VERTEX
  5
720
  8
0
 10
286.59399999999999
 20
117.453
 30
0.0
 70
    32
  0
VERTEX
  5
721
  8
0
 10
286.59399999999999
 20
117.453
 30
0.0
 70
    32
  0
VERTEX
  5
722
  8
0
 10
286.59500000000003
 20
117.45399999999999
 30
0.0
 70
    32
  0
VERTEX
  5
723
  8
0
 10
286.596
 20
117.45399999999999
 30
0.0
 70
    32
  0
VERTEX
  5
724
  8
0
 10
286.596
 20
117.45399999999999
 30
0.0
 70
    32
  0
VERTEX
  5
725
  8
0
 10
286.59699999999998
 20
117.455
 30
0.0
 70
    32
  0
VERTEX
  5
726
  8
0
 10
286.59699999999998
 20
117.455
 30
0.0
 70
    32
  0
SEQEND
  5
727
  8
0
  0
LINE
  5
1B8
  8
0
  6
CONTINUOUS
 10
287.34967958700003
 20
117.8895127686
 30
0.0
 11
287.48834587959999
 21
117.9735939646
 31
0.0
  0
LINE
  5
1B9
  8
0
  6
CONTINUOUS
 10
286.59743104440008
 20
117.45510775690001
 30
0.0
 11
287.34967958700003
 21
117.8895127686
 31
0.0
  0
POLYLINE
  5
1BA
  8
0
  6
CONTINUOUS
 66
     1
 10
0.0
 20
0.0
 30
0.0
 70
     8
  0
VERTEX
  5
728
  8
0
 10
199.45599999999999
 20
67.149699999999996
 30
0.0
 70
    32
  0
VERTEX
  5
729
  8
0
 10
199.45699999999999
 20
67.150000000000006
 30
0.0
 70
    32
  0
VERTEX
  5
72A
  8
0
 10
199.45699999999999
 20
67.150300000000001
 30
0.0
 70
    32
  0
VERTEX
  5
72B
  8
0
 10
199.458
 20
67.150499999999994
 30
0.0
 70
    32
  0
VERTEX
  5
72C
  8
0
 10
199.458
 20
67.150800000000004
 30
0.0
 70
    32
  0
VERTEX
  5
72D
  8
0
 10
199.458
 20
67.150999999999996
 30
0.0
 70
    32
  0
VERTEX
  5
72E
  8
0
 10
199.459
 20
67.151300000000006
 30
0.0
 70
    32
  0
VERTEX
  5
72F
  8
0
 10
199.459
 20
67.151600000000002
 30
0.0
 70
    32
  0
VERTEX
  5
730
  8
0
 10
199.46000000000001
 20
67.151799999999994
 30
0.0
 70
    32
  0
VERTEX
  5
731
  8
0
 10
199.46000000000001
 20
67.152100000000004
 30
0.0
 70
    32
  0
VERTEX
  5
732
  8
0
 10
199.46100000000001
 20
67.1524
 30
0.0
 70
    32
  0
VERTEX
  5
733
  8
0
 10
199.46100000000001
 20
67.152699999999996
 30
0.0
 70
    32
  0
VERTEX
  5
734
  8
0
 10
199.46100000000001
 20
67.153000000000006
 30
0.0
 70
    32
  0
VERTEX
  5
735
  8
0
 10
199.46199999999999
 20
67.153300000000002
 30
0.0
 70
    32
  0
VERTEX
  5
736
  8
0
 10
199.46199999999999
 20
67.153599999999997
 30
0.0
 70
    32
  0
VERTEX
  5
737
  8
0
 10
199.46299999999999
 20
67.153899999999993
 30
0.0
 70
    32
  0
VERTEX
  5
738
  8
0
 10
199.46299999999999
 20
67.154200000000003
 30
0.0
 70
    32
  0
VERTEX
  5
739
  8
0
 10
199.46299999999999
 20
67.154499999999999
 30
0.0
 70
    32
  0
VERTEX
  5
73A
  8
0
 10
199.464
 20
67.154799999999994
 30
0.0
 70
    32
  0
VERTEX
  5
73B
  8
0
 10
199.464
 20
67.155100000000004
 30
0.0
 70
    32
  0
VERTEX
  5
73C
  8
0
 10
199.465
 20
67.1554
 30
0.0
 70
    32
  0
VERTEX
  5
73D
  8
0
 10
199.465
 20
67.155699999999996
 30
0.0
 70
    32
  0
VERTEX
  5
73E
  8
0
 10
199.465
 20
67.156000000000006
 30
0.0
 70
    32
  0
VERTEX
  5
73F
  8
0
 10
199.46600000000001
 20
67.156300000000002
 30
0.0
 70
    32
  0
VERTEX
  5
740
  8
0
 10
199.46600000000001
 20
67.156700000000001
 30
0.0
 70
    32
  0
VERTEX
  5
741
  8
0
 10
199.46700000000001
 20
67.156999999999996
 30
0.0
 70
    32
  0
VERTEX
  5
742
  8
0
 10
199.46700000000001
 20
67.157300000000006
 30
0.0
 70
    32
  0
VERTEX
  5
743
  8
0
 10
199.46700000000001
 20
67.157700000000006
 30
0.0
 70
    32
  0
VERTEX
  5
744
  8
0
 10
199.46799999999999
 20
67.158000000000001
 30
0.0
 70
    32
  0
VERTEX
  5
745
  8
0
 10
199.46799999999999
 20
67.158299999999997
 30
0.0
 70
    32
  0
VERTEX
  5
746
  8
0
 10
199.46799999999999
 20
67.158699999999996
 30
0.0
 70
    32
  0
VERTEX
  5
747
  8
0
 10
199.46899999999999
 20
67.159000000000006
 30
0.0
 70
    32
  0
VERTEX
  5
748
  8
0
 10
199.46899999999999
 20
67.159400000000005
 30
0.0
 70
    32
  0
VERTEX
  5
749
  8
0
 10
199.47
 20
67.159700000000001
 30
0.0
 70
    32
  0
VERTEX
  5
74A
  8
0
 10
199.47
 20
67.1601
 30
0.0
 70
    32
  0
VERTEX
  5
74B
  8
0
 10
199.47
 20
67.160399999999996
 30
0.0
 70
    32
  0
VERTEX
  5
74C
  8
0
 10
199.47099999999989
 20
67.160799999999995
 30
0.0
 70
    32
  0
VERTEX
  5
74D
  8
0
 10
199.47099999999989
 20
67.161199999999994
 30
0.0
 70
    32
  0
VERTEX
  5
74E
  8
0
 10
199.47099999999989
 20
67.161500000000004
 30
0.0
 70
    32
  0
VERTEX
  5
74F
  8
0
 10
199.47200000000001
 20
67.161900000000003
 30
0.0
 70
    32
  0
VERTEX
  5
750
  8
0
 10
199.47200000000001
 20
67.162300000000002
 30
0.0
 70
    32
  0
VERTEX
  5
751
  8
0
 10
199.47200000000001
 20
67.162599999999998
 30
0.0
 70
    32
  0
VERTEX
  5
752
  8
0
 10
199.47300000000001
 20
67.162999999999997
 30
0.0
 70
    32
  0
VERTEX
  5
753
  8
0
 10
199.47300000000001
 20
67.163399999999996
 30
0.0
 70
    32
  0
VERTEX
  5
754
  8
0
 10
199.47300000000001
 20
67.163799999999995
 30
0.0
 70
    32
  0
VERTEX
  5
755
  8
0
 10
199.47399999999999
 20
67.164199999999994
 30
0.0
 70
    32
  0
VERTEX
  5
756
  8
0
 10
199.47399999999999
 20
67.164599999999993
 30
0.0
 70
    32
  0
VERTEX
  5
757
  8
0
 10
199.47399999999999
 20
67.165000000000006
 30
0.0
 70
    32
  0
VERTEX
  5
758
  8
0
 10
199.47499999999999
 20
67.165400000000005
 30
0.0
 70
    32
  0
VERTEX
  5
759
  8
0
 10
199.47499999999999
 20
67.165800000000004
 30
0.0
 70
    32
  0
VERTEX
  5
75A
  8
0
 10
199.47499999999999
 20
67.166200000000003
 30
0.0
 70
    32
  0
VERTEX
  5
75B
  8
0
 10
199.476
 20
67.166600000000003
 30
0.0
 70
    32
  0
VERTEX
  5
75C
  8
0
 10
199.476
 20
67.167000000000002
 30
0.0
 70
    32
  0
VERTEX
  5
75D
  8
0
 10
199.476
 20
67.167400000000001
 30
0.0
 70
    32
  0
VERTEX
  5
75E
  8
0
 10
199.477
 20
67.167799999999986
 30
0.0
 70
    32
  0
VERTEX
  5
75F
  8
0
 10
199.477
 20
67.168199999999999
 30
0.0
 70
    32
  0
VERTEX
  5
760
  8
0
 10
199.477
 20
67.168700000000001
 30
0.0
 70
    32
  0
VERTEX
  5
761
  8
0
 10
199.47800000000001
 20
67.1691
 30
0.0
 70
    32
  0
VERTEX
  5
762
  8
0
 10
199.47800000000001
 20
67.169499999999999
 30
0.0
 70
    32
  0
VERTEX
  5
763
  8
0
 10
199.47800000000001
 20
67.169899999999998
 30
0.0
 70
    32
  0
VERTEX
  5
764
  8
0
 10
199.47900000000001
 20
67.170400000000001
 30
0.0
 70
    32
  0
VERTEX
  5
765
  8
0
 10
199.47900000000001
 20
67.1708
 30
0.0
 70
    32
  0
VERTEX
  5
766
  8
0
 10
199.47900000000001
 20
67.171199999999999
 30
0.0
 70
    32
  0
VERTEX
  5
767
  8
0
 10
199.47999999999999
 20
67.171700000000001
 30
0.0
 70
    32
  0
VERTEX
  5
768
  8
0
 10
199.47999999999999
 20
67.1721
 30
0.0
 70
    32
  0
VERTEX
  5
769
  8
0
 10
199.47999999999999
 20
67.172600000000003
 30
0.0
 70
    32
  0
VERTEX
  5
76A
  8
0
 10
199.47999999999999
 20
67.173000000000002
 30
0.0
 70
    32
  0
VERTEX
  5
76B
  8
0
 10
199.48099999999999
 20
67.173500000000004
 30
0.0
 70
    32
  0
VERTEX
  5
76C
  8
0
 10
199.48099999999999
 20
67.173900000000003
 30
0.0
 70
    32
  0
VERTEX
  5
76D
  8
0
 10
199.48099999999999
 20
67.174400000000006
 30
0.0
 70
    32
  0
VERTEX
  5
76E
  8
0
 10
199.482
 20
67.174800000000005
 30
0.0
 70
    32
  0
VERTEX
  5
76F
  8
0
 10
199.482
 20
67.175299999999993
 30
0.0
 70
    32
  0
VERTEX
  5
770
  8
0
 10
199.482
 20
67.175799999999995
 30
0.0
 70
    32
  0
VERTEX
  5
771
  8
0
 10
199.482
 20
67.176199999999994
 30
0.0
 70
    32
  0
VERTEX
  5
772
  8
0
 10
199.483
 20
67.176699999999997
 30
0.0
 70
    32
  0
VERTEX
  5
773
  8
0
 10
199.483
 20
67.177199999999985
 30
0.0
 70
    32
  0
VERTEX
  5
774
  8
0
 10
199.483
 20
67.177700000000002
 30
0.0
 70
    32
  0
VERTEX
  5
775
  8
0
 10
199.483
 20
67.178100000000001
 30
0.0
 70
    32
  0
VERTEX
  5
776
  8
0
 10
199.48400000000001
 20
67.178600000000003
 30
0.0
 70
    32
  0
VERTEX
  5
777
  8
0
 10
199.48400000000001
 20
67.179100000000005
 30
0.0
 70
    32
  0
VERTEX
  5
778
  8
0
 10
199.48400000000001
 20
67.179599999999994
 30
0.0
 70
    32
  0
VERTEX
  5
779
  8
0
 10
199.48500000000001
 20
67.180099999999996
 30
0.0
 70
    32
  0
VERTEX
  5
77A
  8
0
 10
199.48500000000001
 20
67.180599999999998
 30
0.0
 70
    32
  0
VERTEX
  5
77B
  8
0
 10
199.48500000000001
 20
67.181100000000001
 30
0.0
 70
    32
  0
VERTEX
  5
77C
  8
0
 10
199.48500000000001
 20
67.181600000000003
 30
0.0
 70
    32
  0
VERTEX
  5
77D
  8
0
 10
199.48599999999999
 20
67.182100000000005
 30
0.0
 70
    32
  0
VERTEX
  5
77E
  8
0
 10
199.48599999999999
 20
67.182599999999994
 30
0.0
 70
    32
  0
VERTEX
  5
77F
  8
0
 10
199.48599999999999
 20
67.183099999999996
 30
0.0
 70
    32
  0
VERTEX
  5
780
  8
0
 10
199.48599999999999
 20
67.183599999999998
 30
0.0
 70
    32
  0
VERTEX
  5
781
  8
0
 10
199.48699999999999
 20
67.184100000000001
 30
0.0
 70
    32
  0
VERTEX
  5
782
  8
0
 10
199.48699999999999
 20
67.184600000000003
 30
0.0
 70
    32
  0
VERTEX
  5
783
  8
0
 10
199.48699999999999
 20
67.185100000000006
 30
0.0
 70
    32
  0
VERTEX
  5
784
  8
0
 10
199.48699999999999
 20
67.185699999999997
 30
0.0
 70
    32
  0
VERTEX
  5
785
  8
0
 10
199.48699999999999
 20
67.186199999999999
 30
0.0
 70
    32
  0
VERTEX
  5
786
  8
0
 10
199.488
 20
67.186700000000002
 30
0.0
 70
    32
  0
VERTEX
  5
787
  8
0
 10
199.488
 20
67.187200000000004
 30
0.0
 70
    32
  0
VERTEX
  5
788
  8
0
 10
199.488
 20
67.187799999999996
 30
0.0
 70
    32
  0
VERTEX
  5
789
  8
0
 10
199.488
 20
67.188299999999998
 30
0.0
 70
    32
  0
VERTEX
  5
78A
  8
0
 10
199.489
 20
67.188800000000001
 30
0.0
 70
    32
  0
VERTEX
  5
78B
  8
0
 10
199.489
 20
67.189400000000006
 30
0.0
 70
    32
  0
VERTEX
  5
78C
  8
0
 10
199.489
 20
67.189899999999994
 30
0.0
 70
    32
  0
VERTEX
  5
78D
  8
0
 10
199.489
 20
67.190399999999997
 30
0.0
 70
    32
  0
VERTEX
  5
78E
  8
0
 10
199.489
 20
67.191000000000003
 30
0.0
 70
    32
  0
VERTEX
  5
78F
  8
0
 10
199.49000000000001
 20
67.191500000000005
 30
0.0
 70
    32
  0
VERTEX
  5
790
  8
0
 10
199.49000000000001
 20
67.192099999999996
 30
0.0
 70
    32
  0
VERTEX
  5
791
  8
0
 10
199.49000000000001
 20
67.192599999999999
 30
0.0
 70
    32
  0
VERTEX
  5
792
  8
0
 10
199.49000000000001
 20
67.193200000000004
 30
0.0
 70
    32
  0
VERTEX
  5
793
  8
0
 10
199.49000000000001
 20
67.193700000000007
 30
0.0
 70
    32
  0
VERTEX
  5
794
  8
0
 10
199.49100000000001
 20
67.194299999999998
 30
0.0
 70
    32
  0
VERTEX
  5
795
  8
0
 10
199.49100000000001
 20
67.194900000000004
 30
0.0
 70
    32
  0
VERTEX
  5
796
  8
0
 10
199.49100000000001
 20
67.195400000000006
 30
0.0
 70
    32
  0
VERTEX
  5
797
  8
0
 10
199.49100000000001
 20
67.195999999999984
 30
0.0
 70
    32
  0
VERTEX
  5
798
  8
0
 10
199.49100000000001
 20
67.196600000000004
 30
0.0
 70
    32
  0
VERTEX
  5
799
  8
0
 10
199.49199999999999
 20
67.197100000000006
 30
0.0
 70
    32
  0
VERTEX
  5
79A
  8
0
 10
199.49199999999999
 20
67.197699999999998
 30
0.0
 70
    32
  0
VERTEX
  5
79B
  8
0
 10
199.49199999999999
 20
67.198300000000003
 30
0.0
 70
    32
  0
VERTEX
  5
79C
  8
0
 10
199.49199999999999
 20
67.198899999999995
 30
0.0
 70
    32
  0
VERTEX
  5
79D
  8
0
 10
199.49199999999999
 20
67.199399999999997
 30
0.0
 70
    32
  0
VERTEX
  5
79E
  8
0
 10
199.49199999999999
 20
67.200000000000003
 30
0.0
 70
    32
  0
VERTEX
  5
79F
  8
0
 10
199.49299999999999
 20
67.200599999999994
 30
0.0
 70
    32
  0
VERTEX
  5
7A0
  8
0
 10
199.49299999999999
 20
67.2012
 30
0.0
 70
    32
  0
VERTEX
  5
7A1
  8
0
 10
199.49299999999999
 20
67.201800000000006
 30
0.0
 70
    32
  0
VERTEX
  5
7A2
  8
0
 10
199.49299999999999
 20
67.202399999999997
 30
0.0
 70
    32
  0
VERTEX
  5
7A3
  8
0
 10
199.49299999999999
 20
67.203000000000003
 30
0.0
 70
    32
  0
VERTEX
  5
7A4
  8
0
 10
199.49299999999999
 20
67.203599999999994
 30
0.0
 70
    32
  0
VERTEX
  5
7A5
  8
0
 10
199.494
 20
67.2042
 30
0.0
 70
    32
  0
VERTEX
  5
7A6
  8
0
 10
199.494
 20
67.204800000000006
 30
0.0
 70
    32
  0
VERTEX
  5
7A7
  8
0
 10
199.494
 20
67.205399999999983
 30
0.0
 70
    32
  0
VERTEX
  5
7A8
  8
0
 10
199.494
 20
67.206000000000003
 30
0.0
 70
    32
  0
SEQEND
  5
7A9
  8
0
  0
LINE
  5
1BB
  8
0
  6
CONTINUOUS
 10
199.4563045276
 20
67.149747373099999
 30
0.0
 11
198.704055985
 21
66.715342361300003
 31
0.0
  0
POLYLINE
  5
1BC
  8
0
  6
CONTINUOUS
 66
     1
 10
0.0
 20
0.0
 30
0.0
 70
     8
  0
VERTEX
  5
7AA
  8
0
 10
198.60400000000001
 20
66.725200000000001
 30
0.0
 70
    32
  0
VERTEX
  5
7AB
  8
0
 10
198.60499999999999
 20
66.724699999999999
 30
0.0
 70
    32
  0
VERTEX
  5
7AC
  8
0
 10
198.60599999999999
 20
66.724199999999996
 30
0.0
 70
    32
  0
VERTEX
  5
7AD
  8
0
 10
198.607
 20
66.723799999999997
 30
0.0
 70
    32
  0
VERTEX
  5
7AE
  8
0
 10
198.608
 20
66.723299999999995
 30
0.0
 70
    32
  0
VERTEX
  5
7AF
  8
0
 10
198.608
 20
66.722800000000007
 30
0.0
 70
    32
  0
VERTEX
  5
7B0
  8
0
 10
198.60900000000001
 20
66.722300000000004
 30
0.0
 70
    32
  0
VERTEX
  5
7B1
  8
0
 10
198.61000000000001
 20
66.721900000000005
 30
0.0
 70
    32
  0
VERTEX
  5
7B2
  8
0
 10
198.61099999999999
 20
66.721400000000003
 30
0.0
 70
    32
  0
VERTEX
  5
7B3
  8
0
 10
198.61199999999999
 20
66.721000000000004
 30
0.0
 70
    32
  0
VERTEX
  5
7B4
  8
0
 10
198.613
 20
66.720500000000001
 30
0.0
 70
    32
  0
VERTEX
  5
7B5
  8
0
 10
198.614
 20
66.720100000000002
 30
0.0
 70
    32
  0
VERTEX
  5
7B6
  8
0
 10
198.614
 20
66.719700000000003
 30
0.0
 70
    32
  0
VERTEX
  5
7B7
  8
0
 10
198.61500000000001
 20
66.719300000000004
 30
0.0
 70
    32
  0
VERTEX
  5
7B8
  8
0
 10
198.61600000000001
 20
66.718800000000002
 30
0.0
 70
    32
  0
VERTEX
  5
7B9
  8
0
 10
198.61699999999999
 20
66.718400000000003
 30
0.0
 70
    32
  0
VERTEX
  5
7BA
  8
0
 10
198.61799999999999
 20
66.718000000000004
 30
0.0
 70
    32
  0
VERTEX
  5
7BB
  8
0
 10
198.619
 20
66.717600000000004
 30
0.0
 70
    32
  0
VERTEX
  5
7BC
  8
0
 10
198.62
 20
66.717200000000005
 30
0.0
 70
    32
  0
VERTEX
  5
7BD
  8
0
 10
198.6209999999999
 20
66.716899999999995
 30
0.0
 70
    32
  0
VERTEX
  5
7BE
  8
0
 10
198.6209999999999
 20
66.716499999999996
 30
0.0
 70
    32
  0
VERTEX
  5
7BF
  8
0
 10
198.62200000000001
 20
66.716099999999997
 30
0.0
 70
    32
  0
VERTEX
  5
7C0
  8
0
 10
198.62299999999999
 20
66.715699999999998
 30
0.0
 70
    32
  0
VERTEX
  5
7C1
  8
0
 10
198.624
 20
66.715400000000002
 30
0.0
 70
    32
  0
VERTEX
  5
7C2
  8
0
 10
198.625
 20
66.715000000000003
 30
0.0
 70
    32
  0
VERTEX
  5
7C3
  8
0
 10
198.626
 20
66.714699999999993
 30
0.0
 70
    32
  0
VERTEX
  5
7C4
  8
0
 10
198.62700000000001
 20
66.714299999999994
 30
0.0
 70
    32
  0
VERTEX
  5
7C5
  8
0
 10
198.62700000000001
 20
66.713999999999999
 30
0.0
 70
    32
  0
VERTEX
  5
7C6
  8
0
 10
198.62799999999999
 20
66.713700000000003
 30
0.0
 70
    32
  0
VERTEX
  5
7C7
  8
0
 10
198.62899999999999
 20
66.713399999999993
 30
0.0
 70
    32
  0
VERTEX
  5
7C8
  8
0
 10
198.63
 20
66.713099999999997
 30
0.0
 70
    32
  0
VERTEX
  5
7C9
  8
0
 10
198.63099999999989
 20
66.712699999999984
 30
0.0
 70
    32
  0
VERTEX
  5
7CA
  8
0
 10
198.63200000000001
 20
66.712500000000006
 30
0.0
 70
    32
  0
VERTEX
  5
7CB
  8
0
 10
198.63300000000001
 20
66.712199999999996
 30
0.0
 70
    32
  0
VERTEX
  5
7CC
  8
0
 10
198.63300000000001
 20
66.7119
 30
0.0
 70
    32
  0
VERTEX
  5
7CD
  8
0
 10
198.63399999999999
 20
66.711600000000004
 30
0.0
 70
    32
  0
VERTEX
  5
7CE
  8
0
 10
198.63499999999999
 20
66.711299999999994
 30
0.0
 70
    32
  0
VERTEX
  5
7CF
  8
0
 10
198.636
 20
66.711100000000002
 30
0.0
 70
    32
  0
VERTEX
  5
7D0
  8
0
 10
198.637
 20
66.710800000000006
 30
0.0
 70
    32
  0
VERTEX
  5
7D1
  8
0
 10
198.63800000000001
 20
66.710499999999996
 30
0.0
 70
    32
  0
VERTEX
  5
7D2
  8
0
 10
198.63800000000001
 20
66.710300000000004
 30
0.0
 70
    32
  0
VERTEX
  5
7D3
  8
0
 10
198.63900000000001
 20
66.710099999999997
 30
0.0
 70
    32
  0
VERTEX
  5
7D4
  8
0
 10
198.63999999999999
 20
66.709800000000001
 30
0.0
 70
    32
  0
VERTEX
  5
7D5
  8
0
 10
198.64099999999999
 20
66.709599999999995
 30
0.0
 70
    32
  0
VERTEX
  5
7D6
  8
0
 10
198.642
 20
66.709400000000002
 30
0.0
 70
    32
  0
VERTEX
  5
7D7
  8
0
 10
198.643
 20
66.709199999999996
 30
0.0
 70
    32
  0
VERTEX
  5
7D8
  8
0
 10
198.643
 20
66.709000000000003
 30
0.0
 70
    32
  0
VERTEX
  5
7D9
  8
0
 10
198.64400000000001
 20
66.708799999999997
 30
0.0
 70
    32
  0
VERTEX
  5
7DA
  8
0
 10
198.64500000000001
 20
66.708600000000004
 30
0.0
 70
    32
  0
VERTEX
  5
7DB
  8
0
 10
198.64599999999999
 20
66.708399999999997
 30
0.0
 70
    32
  0
VERTEX
  5
7DC
  8
0
 10
198.64699999999999
 20
66.708200000000005
 30
0.0
 70
    32
  0
VERTEX
  5
7DD
  8
0
 10
198.648
 20
66.707999999999984
 30
0.0
 70
    32
  0
VERTEX
  5
7DE
  8
0
 10
198.648
 20
66.707899999999995
 30
0.0
 70
    32
  0
VERTEX
  5
7DF
  8
0
 10
198.649
 20
66.707700000000003
 30
0.0
 70
    32
  0
VERTEX
  5
7E0
  8
0
 10
198.65000000000001
 20
66.707599999999999
 30
0.0
 70
    32
  0
VERTEX
  5
7E1
  8
0
 10
198.6509999999999
 20
66.707400000000007
 30
0.0
 70
    32
  0
VERTEX
  5
7E2
  8
0
 10
198.65199999999999
 20
66.707300000000004
 30
0.0
 70
    32
  0
VERTEX
  5
7E3
  8
0
 10
198.65299999999999
 20
66.7072
 30
0.0
 70
    32
  0
VERTEX
  5
7E4
  8
0
 10
198.65299999999999
 20
66.706999999999994
 30
0.0
 70
    32
  0
VERTEX
  5
7E5
  8
0
 10
198.654
 20
66.706900000000005
 30
0.0
 70
    32
  0
VERTEX
  5
7E6
  8
0
 10
198.655
 20
66.706800000000001
 30
0.0
 70
    32
  0
VERTEX
  5
7E7
  8
0
 10
198.65600000000001
 20
66.706699999999998
 30
0.0
 70
    32
  0
VERTEX
  5
7E8
  8
0
 10
198.65700000000001
 20
66.706599999999995
 30
0.0
 70
    32
  0
VERTEX
  5
7E9
  8
0
 10
198.65700000000001
 20
66.706500000000005
 30
0.0
 70
    32
  0
VERTEX
  5
7EA
  8
0
 10
198.65799999999999
 20
66.706400000000002
 30
0.0
 70
    32
  0
VERTEX
  5
7EB
  8
0
 10
198.65899999999999
 20
66.706400000000002
 30
0.0
 70
    32
  0
VERTEX
  5
7EC
  8
0
 10
198.66
 20
66.706299999999999
 30
0.0
 70
    32
  0
VERTEX
  5
7ED
  8
0
 10
198.66099999999989
 20
66.706199999999995
 30
0.0
 70
    32
  0
VERTEX
  5
7EE
  8
0
 10
198.66099999999989
 20
66.706199999999995
 30
0.0
 70
    32
  0
VERTEX
  5
7EF
  8
0
 10
198.66200000000001
 20
66.706100000000006
 30
0.0
 70
    32
  0
VERTEX
  5
7F0
  8
0
 10
198.66300000000001
 20
66.706100000000006
 30
0.0
 70
    32
  0
VERTEX
  5
7F1
  8
0
 10
198.66399999999999
 20
66.706000000000003
 30
0.0
 70
    32
  0
VERTEX
  5
7F2
  8
0
 10
198.66499999999999
 20
66.706000000000003
 30
0.0
 70
    32
  0
VERTEX
  5
7F3
  8
0
 10
198.66499999999999
 20
66.706000000000003
 30
0.0
 70
    32
  0
VERTEX
  5
7F4
  8
0
 10
198.666
 20
66.706000000000003
 30
0.0
 70
    32
  0
VERTEX
  5
7F5
  8
0
 10
198.667
 20
66.706000000000003
 30
0.0
 70
    32
  0
VERTEX
  5
7F6
  8
0
 10
198.66800000000001
 20
66.706000000000003
 30
0.0
 70
    32
  0
VERTEX
  5
7F7
  8
0
 10
198.66800000000001
 20
66.706000000000003
 30
0.0
 70
    32
  0
VERTEX
  5
7F8
  8
0
 10
198.66900000000001
 20
66.706000000000003
 30
0.0
 70
    32
  0
VERTEX
  5
7F9
  8
0
 10
198.66999999999999
 20
66.706000000000003
 30
0.0
 70
    32
  0
VERTEX
  5
7FA
  8
0
 10
198.67099999999999
 20
66.706000000000003
 30
0.0
 70
    32
  0
VERTEX
  5
7FB
  8
0
 10
198.67099999999999
 20
66.706100000000006
 30
0.0
 70
    32
  0
VERTEX
  5
7FC
  8
0
 10
198.672
 20
66.706100000000006
 30
0.0
 70
    32
  0
VERTEX
  5
7FD
  8
0
 10
198.673
 20
66.706199999999995
 30
0.0
 70
    32
  0
VERTEX
  5
7FE
  8
0
 10
198.67400000000001
 20
66.706199999999995
 30
0.0
 70
    32
  0
VERTEX
  5
7FF
  8
0
 10
198.67500000000001
 20
66.706299999999999
 30
0.0
 70
    32
  0
VERTEX
  5
800
  8
0
 10
198.67500000000001
 20
66.706299999999999
 30
0.0
 70
    32
  0
VERTEX
  5
801
  8
0
 10
198.67599999999999
 20
66.706400000000002
 30
0.0
 70
    32
  0
VERTEX
  5
802
  8
0
 10
198.67699999999999
 20
66.706500000000005
 30
0.0
 70
    32
  0
VERTEX
  5
803
  8
0
 10
198.678
 20
66.706599999999995
 30
0.0
 70
    32
  0
VERTEX
  5
804
  8
0
 10
198.678
 20
66.706699999999998
 30
0.0
 70
    32
  0
VERTEX
  5
805
  8
0
 10
198.679
 20
66.706800000000001
 30
0.0
 70
    32
  0
VERTEX
  5
806
  8
0
 10
198.68000000000001
 20
66.706900000000005
 30
0.0
 70
    32
  0
VERTEX
  5
807
  8
0
 10
198.68000000000001
 20
66.706999999999994
 30
0.0
 70
    32
  0
VERTEX
  5
808
  8
0
 10
198.68100000000001
 20
66.707099999999997
 30
0.0
 70
    32
  0
VERTEX
  5
809
  8
0
 10
198.68199999999999
 20
66.707300000000004
 30
0.0
 70
    32
  0
VERTEX
  5
80A
  8
0
 10
198.68299999999999
 20
66.707400000000007
 30
0.0
 70
    32
  0
VERTEX
  5
80B
  8
0
 10
198.68299999999999
 20
66.707499999999996
 30
0.0
 70
    32
  0
VERTEX
  5
80C
  8
0
 10
198.684
 20
66.707700000000003
 30
0.0
 70
    32
  0
VERTEX
  5
80D
  8
0
 10
198.685
 20
66.707899999999995
 30
0.0
 70
    32
  0
VERTEX
  5
80E
  8
0
 10
198.685
 20
66.707999999999984
 30
0.0
 70
    32
  0
VERTEX
  5
80F
  8
0
 10
198.68600000000001
 20
66.708200000000005
 30
0.0
 70
    32
  0
VERTEX
  5
810
  8
0
 10
198.68700000000001
 20
66.708399999999997
 30
0.0
 70
    32
  0
VERTEX
  5
811
  8
0
 10
198.68799999999999
 20
66.708600000000004
 30
0.0
 70
    32
  0
VERTEX
  5
812
  8
0
 10
198.68799999999999
 20
66.708699999999993
 30
0.0
 70
    32
  0
VERTEX
  5
813
  8
0
 10
198.68899999999999
 20
66.708899999999986
 30
0.0
 70
    32
  0
VERTEX
  5
814
  8
0
 10
198.69
 20
66.709100000000007
 30
0.0
 70
    32
  0
VERTEX
  5
815
  8
0
 10
198.69
 20
66.709400000000002
 30
0.0
 70
    32
  0
VERTEX
  5
816
  8
0
 10
198.69099999999989
 20
66.709599999999995
 30
0.0
 70
    32
  0
VERTEX
  5
817
  8
0
 10
198.69200000000001
 20
66.709800000000001
 30
0.0
 70
    32
  0
VERTEX
  5
818
  8
0
 10
198.69200000000001
 20
66.709999999999994
 30
0.0
 70
    32
  0
VERTEX
  5
819
  8
0
 10
198.69300000000001
 20
66.710300000000004
 30
0.0
 70
    32
  0
VERTEX
  5
81A
  8
0
 10
198.69399999999999
 20
66.710499999999996
 30
0.0
 70
    32
  0
VERTEX
  5
81B
  8
0
 10
198.69399999999999
 20
66.710800000000006
 30
0.0
 70
    32
  0
VERTEX
  5
81C
  8
0
 10
198.69499999999999
 20
66.710999999999999
 30
0.0
 70
    32
  0
VERTEX
  5
81D
  8
0
 10
198.696
 20
66.711299999999994
 30
0.0
 70
    32
  0
VERTEX
  5
81E
  8
0
 10
198.696
 20
66.711600000000004
 30
0.0
 70
    32
  0
VERTEX
  5
81F
  8
0
 10
198.697
 20
66.711799999999997
 30
0.0
 70
    32
  0
VERTEX
  5
820
  8
0
 10
198.69799999999989
 20
66.712100000000007
 30
0.0
 70
    32
  0
VERTEX
  5
821
  8
0
 10
198.69799999999989
 20
66.712400000000002
 30
0.0
 70
    32
  0
VERTEX
  5
822
  8
0
 10
198.69900000000001
 20
66.712699999999984
 30
0.0
 70
    32
  0
VERTEX
  5
823
  8
0
 10
198.69999999999999
 20
66.712999999999994
 30
0.0
 70
    32
  0
VERTEX
  5
824
  8
0
 10
198.69999999999999
 20
66.713300000000004
 30
0.0
 70
    32
  0
VERTEX
  5
825
  8
0
 10
198.70099999999999
 20
66.713700000000003
 30
0.0
 70
    32
  0
VERTEX
  5
826
  8
0
 10
198.702
 20
66.713999999999999
 30
0.0
 70
    32
  0
VERTEX
  5
827
  8
0
 10
198.702
 20
66.714299999999994
 30
0.0
 70
    32
  0
VERTEX
  5
828
  8
0
 10
198.703
 20
66.714600000000004
 30
0.0
 70
    32
  0
VERTEX
  5
829
  8
0
 10
198.703
 20
66.715000000000003
 30
0.0
 70
    32
  0
VERTEX
  5
82A
  8
0
 10
198.70400000000001
 20
66.715299999999999
 30
0.0
 70
    32
  0
SEQEND
  5
82B
  8
0
  0
LINE
  5
1BD
  8
0
  6
CONTINUOUS
 10
198.60407114789999
 20
66.725237780499995
 30
0.0
 11
195.0973925022999
 21
68.749600272799995
 31
0.0
  0
POLYLINE
  5
1BE
  8
0
  6
CONTINUOUS
 66
     1
 10
0.0
 20
0.0
 30
0.0
 70
     8
  0
VERTEX
  5
82C
  8
0
 10
194.99700000000001
 20
68.855099999999993
 30
0.0
 70
    32
  0
VERTEX
  5
82D
  8
0
 10
194.99799999999999
 20
68.854100000000003
 30
0.0
 70
    32
  0
VERTEX
  5
82E
  8
0
 10
194.999
 20
68.852999999999994
 30
0.0
 70
    32
  0
VERTEX
  5
82F
  8
0
 10
194.999
 20
68.852000000000004
 30
0.0
 70
    32
  0
VERTEX
  5
830
  8
0
 10
195.0
 20
68.850899999999996
 30
0.0
 70
    32
  0
VERTEX
  5
831
  8
0
 10
195.00099999999989
 20
68.849900000000005
 30
0.0
 70
    32
  0
VERTEX
  5
832
  8
0
 10
195.00099999999989
 20
68.848799999999983
 30
0.0
 70
    32
  0
VERTEX
  5
833
  8
0
 10
195.00200000000001
 20
68.847800000000007
 30
0.0
 70
    32
  0
VERTEX
  5
834
  8
0
 10
195.00200000000001
 20
68.846699999999984
 30
0.0
 70
    32
  0
VERTEX
  5
835
  8
0
 10
195.00299999999999
 20
68.845699999999994
 30
0.0
 70
    32
  0
VERTEX
  5
836
  8
0
 10
195.00399999999999
 20
68.8446
 30
0.0
 70
    32
  0
VERTEX
  5
837
  8
0
 10
195.00399999999999
 20
68.843599999999995
 30
0.0
 70
    32
  0
VERTEX
  5
838
  8
0
 10
195.005
 20
68.842600000000004
 30
0.0
 70
    32
  0
VERTEX
  5
839
  8
0
 10
195.00599999999989
 20
68.841499999999996
 30
0.0
 70
    32
  0
VERTEX
  5
83A
  8
0
 10
195.00599999999989
 20
68.840500000000006
 30
0.0
 70
    32
  0
VERTEX
  5
83B
  8
0
 10
195.00700000000001
 20
68.839500000000001
 30
0.0
 70
    32
  0
VERTEX
  5
83C
  8
0
 10
195.0079999999999
 20
68.838399999999993
 30
0.0
 70
    32
  0
VERTEX
  5
83D
  8
0
 10
195.0079999999999
 20
68.837400000000002
 30
0.0
 70
    32
  0
VERTEX
  5
83E
  8
0
 10
195.00899999999999
 20
68.836399999999983
 30
0.0
 70
    32
  0
VERTEX
  5
83F
  8
0
 10
195.00999999999999
 20
68.835400000000007
 30
0.0
 70
    32
  0
VERTEX
  5
840
  8
0
 10
195.00999999999999
 20
68.834400000000002
 30
0.0
 70
    32
  0
VERTEX
  5
841
  8
0
 10
195.011
 20
68.833399999999997
 30
0.0
 70
    32
  0
VERTEX
  5
842
  8
0
 10
195.012
 20
68.832400000000007
 30
0.0
 70
    32
  0
VERTEX
  5
843
  8
0
 10
195.012
 20
68.831400000000002
 30
0.0
 70
    32
  0
VERTEX
  5
844
  8
0
 10
195.01300000000001
 20
68.830399999999997
 30
0.0
 70
    32
  0
VERTEX
  5
845
  8
0
 10
195.01400000000001
 20
68.829400000000007
 30
0.0
 70
    32
  0
VERTEX
  5
846
  8
0
 10
195.01499999999999
 20
68.828400000000002
 30
0.0
 70
    32
  0
VERTEX
  5
847
  8
0
 10
195.01499999999999
 20
68.827399999999997
 30
0.0
 70
    32
  0
VERTEX
  5
848
  8
0
 10
195.01599999999999
 20
68.826400000000007
 30
0.0
 70
    32
  0
VERTEX
  5
849
  8
0
 10
195.017
 20
68.825400000000002
 30
0.0
 70
    32
  0
VERTEX
  5
84A
  8
0
 10
195.017
 20
68.824399999999983
 30
0.0
 70
    32
  0
VERTEX
  5
84B
  8
0
 10
195.018
 20
68.823400000000007
 30
0.0
 70
    32
  0
VERTEX
  5
84C
  8
0
 10
195.01900000000001
 20
68.822500000000005
 30
0.0
 70
    32
  0
VERTEX
  5
84D
  8
0
 10
195.02000000000001
 20
68.8215
 30
0.0
 70
    32
  0
VERTEX
  5
84E
  8
0
 10
195.02000000000001
 20
68.820499999999996
 30
0.0
 70
    32
  0
VERTEX
  5
84F
  8
0
 10
195.02099999999999
 20
68.819599999999994
 30
0.0
 70
    32
  0
VERTEX
  5
850
  8
0
 10
195.02199999999999
 20
68.818600000000004
 30
0.0
 70
    32
  0
VERTEX
  5
851
  8
0
 10
195.02199999999999
 20
68.817599999999985
 30
0.0
 70
    32
  0
VERTEX
  5
852
  8
0
 10
195.023
 20
68.816699999999983
 30
0.0
 70
    32
  0
VERTEX
  5
853
  8
0
 10
195.024
 20
68.815700000000007
 30
0.0
 70
    32
  0
VERTEX
  5
854
  8
0
 10
195.02500000000001
 20
68.814800000000005
 30
0.0
 70
    32
  0
VERTEX
  5
855
  8
0
 10
195.02500000000001
 20
68.813900000000004
 30
0.0
 70
    32
  0
VERTEX
  5
856
  8
0
 10
195.02600000000001
 20
68.812899999999985
 30
0.0
 70
    32
  0
VERTEX
  5
857
  8
0
 10
195.02699999999999
 20
68.811999999999983
 30
0.0
 70
    32
  0
VERTEX
  5
858
  8
0
 10
195.02799999999999
 20
68.811000000000007
 30
0.0
 70
    32
  0
VERTEX
  5
859
  8
0
 10
195.02799999999999
 20
68.810100000000006
 30
0.0
 70
    32
  0
VERTEX
  5
85A
  8
0
 10
195.029
 20
68.809200000000004
 30
0.0
 70
    32
  0
VERTEX
  5
85B
  8
0
 10
195.03
 20
68.808300000000003
 30
0.0
 70
    32
  0
VERTEX
  5
85C
  8
0
 10
195.03099999999989
 20
68.807400000000001
 30
0.0
 70
    32
  0
VERTEX
  5
85D
  8
0
 10
195.03200000000001
 20
68.806399999999996
 30
0.0
 70
    32
  0
VERTEX
  5
85E
  8
0
 10
195.03200000000001
 20
68.805499999999995
 30
0.0
 70
    32
  0
VERTEX
  5
85F
  8
0
 10
195.03299999999999
 20
68.804599999999994
 30
0.0
 70
    32
  0
VERTEX
  5
860
  8
0
 10
195.03399999999999
 20
68.803700000000006
 30
0.0
 70
    32
  0
VERTEX
  5
861
  8
0
 10
195.035
 20
68.802800000000005
 30
0.0
 70
    32
  0
VERTEX
  5
862
  8
0
 10
195.035
 20
68.801900000000003
 30
0.0
 70
    32
  0
VERTEX
  5
863
  8
0
 10
195.036
 20
68.801100000000005
 30
0.0
 70
    32
  0
VERTEX
  5
864
  8
0
 10
195.03700000000001
 20
68.800200000000004
 30
0.0
 70
    32
  0
VERTEX
  5
865
  8
0
 10
195.03800000000001
 20
68.799300000000002
 30
0.0
 70
    32
  0
VERTEX
  5
866
  8
0
 10
195.03899999999999
 20
68.798400000000001
 30
0.0
 70
    32
  0
VERTEX
  5
867
  8
0
 10
195.03899999999999
 20
68.797600000000003
 30
0.0
 70
    32
  0
VERTEX
  5
868
  8
0
 10
195.03999999999999
 20
68.796700000000001
 30
0.0
 70
    32
  0
VERTEX
  5
869
  8
0
 10
195.041
 20
68.7958
 30
0.0
 70
    32
  0
VERTEX
  5
86A
  8
0
 10
195.042
 20
68.795000000000002
 30
0.0
 70
    32
  0
VERTEX
  5
86B
  8
0
 10
195.042
 20
68.7941
 30
0.0
 70
    32
  0
VERTEX
  5
86C
  8
0
 10
195.04300000000001
 20
68.793300000000002
 30
0.0
 70
    32
  0
VERTEX
  5
86D
  8
0
 10
195.04400000000001
 20
68.792400000000001
 30
0.0
 70
    32
  0
VERTEX
  5
86E
  8
0
 10
195.04499999999999
 20
68.791600000000003
 30
0.0
 70
    32
  0
VERTEX
  5
86F
  8
0
 10
195.04599999999991
 20
68.790700000000001
 30
0.0
 70
    32
  0
VERTEX
  5
870
  8
0
 10
195.047
 20
68.789900000000003
 30
0.0
 70
    32
  0
VERTEX
  5
871
  8
0
 10
195.047
 20
68.789100000000005
 30
0.0
 70
    32
  0
VERTEX
  5
872
  8
0
 10
195.048
 20
68.788300000000007
 30
0.0
 70
    32
  0
VERTEX
  5
873
  8
0
 10
195.04900000000001
 20
68.787499999999994
 30
0.0
 70
    32
  0
VERTEX
  5
874
  8
0
 10
195.05000000000001
 20
68.786600000000007
 30
0.0
 70
    32
  0
VERTEX
  5
875
  8
0
 10
195.05099999999999
 20
68.785799999999995
 30
0.0
 70
    32
  0
VERTEX
  5
876
  8
0
 10
195.05099999999999
 20
68.784999999999997
 30
0.0
 70
    32
  0
VERTEX
  5
877
  8
0
 10
195.05199999999999
 20
68.784199999999998
 30
0.0
 70
    32
  0
VERTEX
  5
878
  8
0
 10
195.053
 20
68.7834
 30
0.0
 70
    32
  0
VERTEX
  5
879
  8
0
 10
195.054
 20
68.782700000000006
 30
0.0
 70
    32
  0
VERTEX
  5
87A
  8
0
 10
195.05500000000001
 20
68.781899999999993
 30
0.0
 70
    32
  0
VERTEX
  5
87B
  8
0
 10
195.05600000000001
 20
68.781099999999995
 30
0.0
 70
    32
  0
VERTEX
  5
87C
  8
0
 10
195.05600000000001
 20
68.780299999999997
 30
0.0
 70
    32
  0
VERTEX
  5
87D
  8
0
 10
195.05699999999999
 20
68.779600000000002
 30
0.0
 70
    32
  0
VERTEX
  5
87E
  8
0
 10
195.05799999999999
 20
68.778800000000004
 30
0.0
 70
    32
  0
VERTEX
  5
87F
  8
0
 10
195.059
 20
68.778000000000006
 30
0.0
 70
    32
  0
VERTEX
  5
880
  8
0
 10
195.06
 20
68.777299999999997
 30
0.0
 70
    32
  0
VERTEX
  5
881
  8
0
 10
195.06099999999989
 20
68.776499999999999
 30
0.0
 70
    32
  0
VERTEX
  5
882
  8
0
 10
195.06099999999989
 20
68.775800000000004
 30
0.0
 70
    32
  0
VERTEX
  5
883
  8
0
 10
195.06200000000001
 20
68.775099999999995
 30
0.0
 70
    32
  0
VERTEX
  5
884
  8
0
 10
195.06299999999999
 20
68.774299999999997
 30
0.0
 70
    32
  0
VERTEX
  5
885
  8
0
 10
195.06399999999999
 20
68.773600000000002
 30
0.0
 70
    32
  0
VERTEX
  5
886
  8
0
 10
195.065
 20
68.772900000000007
 30
0.0
 70
    32
  0
VERTEX
  5
887
  8
0
 10
195.066
 20
68.772199999999998
 30
0.0
 70
    32
  0
VERTEX
  5
888
  8
0
 10
195.066
 20
68.771500000000003
 30
0.0
 70
    32
  0
VERTEX
  5
889
  8
0
 10
195.06700000000001
 20
68.770700000000005
 30
0.0
 70
    32
  0
VERTEX
  5
88A
  8
0
 10
195.06800000000001
 20
68.769999999999996
 30
0.0
 70
    32
  0
VERTEX
  5
88B
  8
0
 10
195.06899999999999
 20
68.769400000000005
 30
0.0
 70
    32
  0
VERTEX
  5
88C
  8
0
 10
195.06999999999999
 20
68.768699999999995
 30
0.0
 70
    32
  0
VERTEX
  5
88D
  8
0
 10
195.071
 20
68.768000000000001
 30
0.0
 70
    32
  0
VERTEX
  5
88E
  8
0
 10
195.072
 20
68.767300000000006
 30
0.0
 70
    32
  0
VERTEX
  5
88F
  8
0
 10
195.072
 20
68.766599999999997
 30
0.0
 70
    32
  0
VERTEX
  5
890
  8
0
 10
195.07300000000001
 20
68.766000000000005
 30
0.0
 70
    32
  0
VERTEX
  5
891
  8
0
 10
195.07400000000001
 20
68.765299999999996
 30
0.0
 70
    32
  0
VERTEX
  5
892
  8
0
 10
195.07499999999999
 20
68.764600000000002
 30
0.0
 70
    32
  0
VERTEX
  5
893
  8
0
 10
195.07599999999999
 20
68.763999999999996
 30
0.0
 70
    32
  0
VERTEX
  5
894
  8
0
 10
195.077
 20
68.763300000000001
 30
0.0
 70
    32
  0
VERTEX
  5
895
  8
0
 10
195.078
 20
68.762699999999995
 30
0.0
 70
    32
  0
VERTEX
  5
896
  8
0
 10
195.078
 20
68.762100000000004
 30
0.0
 70
    32
  0
VERTEX
  5
897
  8
0
 10
195.07900000000001
 20
68.761399999999995
 30
0.0
 70
    32
  0
VERTEX
  5
898
  8
0
 10
195.08000000000001
 20
68.760800000000003
 30
0.0
 70
    32
  0
VERTEX
  5
899
  8
0
 10
195.08099999999999
 20
68.760199999999998
 30
0.0
 70
    32
  0
VERTEX
  5
89A
  8
0
 10
195.08199999999999
 20
68.759600000000006
 30
0.0
 70
    32
  0
VERTEX
  5
89B
  8
0
 10
195.083
 20
68.759
 30
0.0
 70
    32
  0
VERTEX
  5
89C
  8
0
 10
195.084
 20
68.758399999999995
 30
0.0
 70
    32
  0
VERTEX
  5
89D
  8
0
 10
195.084
 20
68.757800000000003
 30
0.0
 70
    32
  0
VERTEX
  5
89E
  8
0
 10
195.08500000000001
 20
68.757199999999997
 30
0.0
 70
    32
  0
VERTEX
  5
89F
  8
0
 10
195.08600000000001
 20
68.756600000000006
 30
0.0
 70
    32
  0
VERTEX
  5
8A0
  8
0
 10
195.08699999999999
 20
68.756
 30
0.0
 70
    32
  0
VERTEX
  5
8A1
  8
0
 10
195.08799999999999
 20
68.755499999999998
 30
0.0
 70
    32
  0
VERTEX
  5
8A2
  8
0
 10
195.089
 20
68.754900000000006
 30
0.0
 70
    32
  0
VERTEX
  5
8A3
  8
0
 10
195.09
 20
68.754400000000004
 30
0.0
 70
    32
  0
VERTEX
  5
8A4
  8
0
 10
195.09
 20
68.753799999999984
 30
0.0
 70
    32
  0
VERTEX
  5
8A5
  8
0
 10
195.09100000000001
 20
68.753299999999996
 30
0.0
 70
    32
  0
VERTEX
  5
8A6
  8
0
 10
195.09200000000001
 20
68.752700000000004
 30
0.0
 70
    32
  0
VERTEX
  5
8A7
  8
0
 10
195.0929999999999
 20
68.752200000000002
 30
0.0
 70
    32
  0
VERTEX
  5
8A8
  8
0
 10
195.09399999999999
 20
68.7517
 30
0.0
 70
    32
  0
VERTEX
  5
8A9
  8
0
 10
195.095
 20
68.751099999999994
 30
0.0
 70
    32
  0
VERTEX
  5
8AA
  8
0
 10
195.096
 20
68.750600000000006
 30
0.0
 70
    32
  0
VERTEX
  5
8AB
  8
0
 10
195.09700000000001
 20
68.750100000000003
 30
0.0
 70
    32
  0
VERTEX
  5
8AC
  8
0
 10
195.09700000000001
 20
68.749600000000001
 30
0.0
 70
    32
  0
SEQEND
  5
8AD
  8
0
  0
LINE
  5
1BF
  8
0
  6
CONTINUOUS
 10
194.9974076652999
 20
68.855144889300007
 30
0.0
 11
194.24515912269999
 21
70.158077581200004
 31
0.0
  0
POLYLINE
  5
1C0
  8
0
  6
CONTINUOUS
 66
     1
 10
0.0
 20
0.0
 30
0.0
 70
     8
  0
VERTEX
  5
8AE
  8
0
 10
194.209
 20
70.336899999999986
 30
0.0
 70
    32
  0
VERTEX
  5
8AF
  8
0
 10
194.208
 20
70.335800000000006
 30
0.0
 70
    32
  0
VERTEX
  5
8B0
  8
0
 10
194.208
 20
70.334699999999998
 30
0.0
 70
    32
  0
VERTEX
  5
8B1
  8
0
 10
194.208
 20
70.333500000000001
 30
0.0
 70
    32
  0
VERTEX
  5
8B2
  8
0
 10
194.20699999999999
 20
70.332400000000007
 30
0.0
 70
    32
  0
VERTEX
  5
8B3
  8
0
 10
194.20699999999999
 20
70.331199999999995
 30
0.0
 70
    32
  0
VERTEX
  5
8B4
  8
0
 10
194.20699999999999
 20
70.330100000000002
 30
0.0
 70
    32
  0
VERTEX
  5
8B5
  8
0
 10
194.20699999999999
 20
70.328900000000004
 30
0.0
 70
    32
  0
VERTEX
  5
8B6
  8
0
 10
194.20599999999999
 20
70.327699999999993
 30
0.0
 70
    32
  0
VERTEX
  5
8B7
  8
0
 10
194.20599999999999
 20
70.326499999999996
 30
0.0
 70
    32
  0
VERTEX
  5
8B8
  8
0
 10
194.20599999999999
 20
70.325400000000002
 30
0.0
 70
    32
  0
VERTEX
  5
8B9
  8
0
 10
194.20599999999999
 20
70.324200000000005
 30
0.0
 70
    32
  0
VERTEX
  5
8BA
  8
0
 10
194.20599999999999
 20
70.322999999999993
 30
0.0
 70
    32
  0
VERTEX
  5
8BB
  8
0
 10
194.20500000000001
 20
70.321700000000007
 30
0.0
 70
    32
  0
VERTEX
  5
8BC
  8
0
 10
194.20500000000001
 20
70.320499999999996
 30
0.0
 70
    32
  0
VERTEX
  5
8BD
  8
0
 10
194.20500000000001
 20
70.319299999999998
 30
0.0
 70
    32
  0
VERTEX
  5
8BE
  8
0
 10
194.20500000000001
 20
70.318100000000001
 30
0.0
 70
    32
  0
VERTEX
  5
8BF
  8
0
 10
194.20500000000001
 20
70.316800000000001
 30
0.0
 70
    32
  0
VERTEX
  5
8C0
  8
0
 10
194.20500000000001
 20
70.315600000000003
 30
0.0
 70
    32
  0
VERTEX
  5
8C1
  8
0
 10
194.20500000000001
 20
70.314300000000003
 30
0.0
 70
    32
  0
VERTEX
  5
8C2
  8
0
 10
194.20400000000001
 20
70.313100000000006
 30
0.0
 70
    32
  0
VERTEX
  5
8C3
  8
0
 10
194.20400000000001
 20
70.311800000000005
 30
0.0
 70
    32
  0
VERTEX
  5
8C4
  8
0
 10
194.20400000000001
 20
70.310500000000005
 30
0.0
 70
    32
  0
VERTEX
  5
8C5
  8
0
 10
194.20400000000001
 20
70.309200000000004
 30
0.0
 70
    32
  0
VERTEX
  5
8C6
  8
0
 10
194.20400000000001
 20
70.307900000000004
 30
0.0
 70
    32
  0
VERTEX
  5
8C7
  8
0
 10
194.20400000000001
 20
70.306700000000006
 30
0.0
 70
    32
  0
VERTEX
  5
8C8
  8
0
 10
194.20400000000001
 20
70.305400000000006
 30
0.0
 70
    32
  0
VERTEX
  5
8C9
  8
0
 10
194.20400000000001
 20
70.304100000000005
 30
0.0
 70
    32
  0
VERTEX
  5
8CA
  8
0
 10
194.20400000000001
 20
70.302700000000002
 30
0.0
 70
    32
  0
VERTEX
  5
8CB
  8
0
 10
194.20400000000001
 20
70.301400000000001
 30
0.0
 70
    32
  0
VERTEX
  5
8CC
  8
0
 10
194.20400000000001
 20
70.3001
 30
0.0
 70
    32
  0
VERTEX
  5
8CD
  8
0
 10
194.20400000000001
 20
70.2988
 30
0.0
 70
    32
  0
VERTEX
  5
8CE
  8
0
 10
194.20400000000001
 20
70.297399999999996
 30
0.0
 70
    32
  0
VERTEX
  5
8CF
  8
0
 10
194.20400000000001
 20
70.296099999999996
 30
0.0
 70
    32
  0
VERTEX
  5
8D0
  8
0
 10
194.20400000000001
 20
70.294799999999995
 30
0.0
 70
    32
  0
VERTEX
  5
8D1
  8
0
 10
194.20400000000001
 20
70.293400000000005
 30
0.0
 70
    32
  0
VERTEX
  5
8D2
  8
0
 10
194.20400000000001
 20
70.292100000000005
 30
0.0
 70
    32
  0
VERTEX
  5
8D3
  8
0
 10
194.20400000000001
 20
70.290700000000001
 30
0.0
 70
    32
  0
VERTEX
  5
8D4
  8
0
 10
194.20400000000001
 20
70.289299999999983
 30
0.0
 70
    32
  0
VERTEX
  5
8D5
  8
0
 10
194.20400000000001
 20
70.287999999999997
 30
0.0
 70
    32
  0
VERTEX
  5
8D6
  8
0
 10
194.20400000000001
 20
70.286600000000007
 30
0.0
 70
    32
  0
VERTEX
  5
8D7
  8
0
 10
194.20400000000001
 20
70.285200000000003
 30
0.0
 70
    32
  0
VERTEX
  5
8D8
  8
0
 10
194.20400000000001
 20
70.283799999999999
 30
0.0
 70
    32
  0
VERTEX
  5
8D9
  8
0
 10
194.20400000000001
 20
70.282399999999996
 30
0.0
 70
    32
  0
VERTEX
  5
8DA
  8
0
 10
194.20400000000001
 20
70.281000000000006
 30
0.0
 70
    32
  0
VERTEX
  5
8DB
  8
0
 10
194.20500000000001
 20
70.279700000000005
 30
0.0
 70
    32
  0
VERTEX
  5
8DC
  8
0
 10
194.20500000000001
 20
70.278199999999998
 30
0.0
 70
    32
  0
VERTEX
  5
8DD
  8
0
 10
194.20500000000001
 20
70.276799999999994
 30
0.0
 70
    32
  0
VERTEX
  5
8DE
  8
0
 10
194.20500000000001
 20
70.275400000000005
 30
0.0
 70
    32
  0
VERTEX
  5
8DF
  8
0
 10
194.20500000000001
 20
70.274000000000001
 30
0.0
 70
    32
  0
VERTEX
  5
8E0
  8
0
 10
194.20500000000001
 20
70.272599999999997
 30
0.0
 70
    32
  0
VERTEX
  5
8E1
  8
0
 10
194.20500000000001
 20
70.271199999999993
 30
0.0
 70
    32
  0
VERTEX
  5
8E2
  8
0
 10
194.20599999999999
 20
70.269800000000004
 30
0.0
 70
    32
  0
VERTEX
  5
8E3
  8
0
 10
194.20599999999999
 20
70.268299999999996
 30
0.0
 70
    32
  0
VERTEX
  5
8E4
  8
0
 10
194.20599999999999
 20
70.266900000000007
 30
0.0
 70
    32
  0
VERTEX
  5
8E5
  8
0
 10
194.20599999999999
 20
70.265500000000003
 30
0.0
 70
    32
  0
VERTEX
  5
8E6
  8
0
 10
194.20599999999999
 20
70.263999999999996
 30
0.0
 70
    32
  0
VERTEX
  5
8E7
  8
0
 10
194.20699999999999
 20
70.262600000000006
 30
0.0
 70
    32
  0
VERTEX
  5
8E8
  8
0
 10
194.20699999999999
 20
70.261099999999999
 30
0.0
 70
    32
  0
VERTEX
  5
8E9
  8
0
 10
194.20699999999999
 20
70.259699999999995
 30
0.0
 70
    32
  0
VERTEX
  5
8EA
  8
0
 10
194.20699999999999
 20
70.258200000000002
 30
0.0
 70
    32
  0
VERTEX
  5
8EB
  8
0
 10
194.208
 20
70.256799999999998
 30
0.0
 70
    32
  0
VERTEX
  5
8EC
  8
0
 10
194.208
 20
70.255300000000005
 30
0.0
 70
    32
  0
VERTEX
  5
8ED
  8
0
 10
194.208
 20
70.253900000000002
 30
0.0
 70
    32
  0
VERTEX
  5
8EE
  8
0
 10
194.209
 20
70.252399999999994
 30
0.0
 70
    32
  0
VERTEX
  5
8EF
  8
0
 10
194.209
 20
70.250900000000001
 30
0.0
 70
    32
  0
VERTEX
  5
8F0
  8
0
 10
194.209
 20
70.249499999999998
 30
0.0
 70
    32
  0
VERTEX
  5
8F1
  8
0
 10
194.21000000000001
 20
70.248000000000005
 30
0.0
 70
    32
  0
VERTEX
  5
8F2
  8
0
 10
194.21000000000001
 20
70.246499999999997
 30
0.0
 70
    32
  0
VERTEX
  5
8F3
  8
0
 10
194.21000000000001
 20
70.245099999999994
 30
0.0
 70
    32
  0
VERTEX
  5
8F4
  8
0
 10
194.2109999999999
 20
70.243600000000001
 30
0.0
 70
    32
  0
VERTEX
  5
8F5
  8
0
 10
194.2109999999999
 20
70.242099999999994
 30
0.0
 70
    32
  0
VERTEX
  5
8F6
  8
0
 10
194.2109999999999
 20
70.240600000000001
 30
0.0
 70
    32
  0
VERTEX
  5
8F7
  8
0
 10
194.21199999999999
 20
70.239099999999993
 30
0.0
 70
    32
  0
VERTEX
  5
8F8
  8
0
 10
194.21199999999999
 20
70.237700000000004
 30
0.0
 70
    32
  0
VERTEX
  5
8F9
  8
0
 10
194.21199999999999
 20
70.236199999999997
 30
0.0
 70
    32
  0
VERTEX
  5
8FA
  8
0
 10
194.21299999999999
 20
70.234700000000004
 30
0.0
 70
    32
  0
VERTEX
  5
8FB
  8
0
 10
194.21299999999999
 20
70.233199999999997
 30
0.0
 70
    32
  0
VERTEX
  5
8FC
  8
0
 10
194.214
 20
70.231700000000004
 30
0.0
 70
    32
  0
VERTEX
  5
8FD
  8
0
 10
194.214
 20
70.230199999999996
 30
0.0
 70
    32
  0
VERTEX
  5
8FE
  8
0
 10
194.215
 20
70.228700000000003
 30
0.0
 70
    32
  0
VERTEX
  5
8FF
  8
0
 10
194.215
 20
70.2273
 30
0.0
 70
    32
  0
VERTEX
  5
900
  8
0
 10
194.215
 20
70.225800000000007
 30
0.0
 70
    32
  0
VERTEX
  5
901
  8
0
 10
194.21600000000001
 20
70.224299999999985
 30
0.0
 70
    32
  0
VERTEX
  5
902
  8
0
 10
194.21600000000001
 20
70.222800000000007
 30
0.0
 70
    32
  0
VERTEX
  5
903
  8
0
 10
194.21700000000001
 20
70.221299999999999
 30
0.0
 70
    32
  0
VERTEX
  5
904
  8
0
 10
194.21700000000001
 20
70.219800000000006
 30
0.0
 70
    32
  0
VERTEX
  5
905
  8
0
 10
194.21799999999999
 20
70.218299999999999
 30
0.0
 70
    32
  0
VERTEX
  5
906
  8
0
 10
194.21799999999999
 20
70.216800000000006
 30
0.0
 70
    32
  0
VERTEX
  5
907
  8
0
 10
194.21899999999999
 20
70.215299999999999
 30
0.0
 70
    32
  0
VERTEX
  5
908
  8
0
 10
194.21899999999999
 20
70.213800000000006
 30
0.0
 70
    32
  0
VERTEX
  5
909
  8
0
 10
194.22
 20
70.212299999999999
 30
0.0
 70
    32
  0
VERTEX
  5
90A
  8
0
 10
194.22
 20
70.210800000000006
 30
0.0
 70
    32
  0
VERTEX
  5
90B
  8
0
 10
194.221
 20
70.209299999999985
 30
0.0
 70
    32
  0
VERTEX
  5
90C
  8
0
 10
194.22200000000001
 20
70.207899999999995
 30
0.0
 70
    32
  0
VERTEX
  5
90D
  8
0
 10
194.22200000000001
 20
70.206400000000002
 30
0.0
 70
    32
  0
VERTEX
  5
90E
  8
0
 10
194.22300000000001
 20
70.204899999999995
 30
0.0
 70
    32
  0
VERTEX
  5
90F
  8
0
 10
194.22300000000001
 20
70.203400000000002
 30
0.0
 70
    32
  0
VERTEX
  5
910
  8
0
 10
194.22399999999999
 20
70.201899999999995
 30
0.0
 70
    32
  0
VERTEX
  5
911
  8
0
 10
194.22399999999999
 20
70.200400000000002
 30
0.0
 70
    32
  0
VERTEX
  5
912
  8
0
 10
194.22499999999999
 20
70.198899999999995
 30
0.0
 70
    32
  0
VERTEX
  5
913
  8
0
 10
194.226
 20
70.197400000000002
 30
0.0
 70
    32
  0
VERTEX
  5
914
  8
0
 10
194.226
 20
70.195899999999995
 30
0.0
 70
    32
  0
VERTEX
  5
915
  8
0
 10
194.227
 20
70.194500000000005
 30
0.0
 70
    32
  0
VERTEX
  5
916
  8
0
 10
194.22800000000001
 20
70.192999999999998
 30
0.0
 70
    32
  0
VERTEX
  5
917
  8
0
 10
194.22800000000001
 20
70.191500000000005
 30
0.0
 70
    32
  0
VERTEX
  5
918
  8
0
 10
194.22900000000001
 20
70.189999999999998
 30
0.0
 70
    32
  0
VERTEX
  5
919
  8
0
 10
194.22999999999999
 20
70.188500000000005
 30
0.0
 70
    32
  0
VERTEX
  5
91A
  8
0
 10
194.22999999999999
 20
70.187100000000001
 30
0.0
 70
    32
  0
VERTEX
  5
91B
  8
0
 10
194.23099999999999
 20
70.185599999999994
 30
0.0
 70
    32
  0
VERTEX
  5
91C
  8
0
 10
194.232
 20
70.184100000000001
 30
0.0
 70
    32
  0
VERTEX
  5
91D
  8
0
 10
194.232
 20
70.182599999999994
 30
0.0
 70
    32
  0
VERTEX
  5
91E
  8
0
 10
194.233
 20
70.181200000000004
 30
0.0
 70
    32
  0
VERTEX
  5
91F
  8
0
 10
194.23400000000001
 20
70.179699999999997
 30
0.0
 70
    32
  0
VERTEX
  5
920
  8
0
 10
194.23400000000001
 20
70.178200000000004
 30
0.0
 70
    32
  0
VERTEX
  5
921
  8
0
 10
194.23500000000001
 20
70.1768
 30
0.0
 70
    32
  0
VERTEX
  5
922
  8
0
 10
194.23599999999999
 20
70.175299999999993
 30
0.0
 70
    32
  0
VERTEX
  5
923
  8
0
 10
194.23699999999999
 20
70.173900000000003
 30
0.0
 70
    32
  0
VERTEX
  5
924
  8
0
 10
194.23699999999999
 20
70.172399999999996
 30
0.0
 70
    32
  0
VERTEX
  5
925
  8
0
 10
194.238
 20
70.171000000000006
 30
0.0
 70
    32
  0
VERTEX
  5
926
  8
0
 10
194.239
 20
70.169499999999999
 30
0.0
 70
    32
  0
VERTEX
  5
927
  8
0
 10
194.24000000000001
 20
70.168099999999995
 30
0.0
 70
    32
  0
VERTEX
  5
928
  8
0
 10
194.24000000000001
 20
70.166600000000003
 30
0.0
 70
    32
  0
VERTEX
  5
929
  8
0
 10
194.24100000000001
 20
70.165199999999984
 30
0.0
 70
    32
  0
VERTEX
  5
92A
  8
0
 10
194.24199999999999
 20
70.163799999999995
 30
0.0
 70
    32
  0
VERTEX
  5
92B
  8
0
 10
194.24299999999999
 20
70.162300000000002
 30
0.0
 70
    32
  0
VERTEX
  5
92C
  8
0
 10
194.244
 20
70.160899999999998
 30
0.0
 70
    32
  0
VERTEX
  5
92D
  8
0
 10
194.244
 20
70.159499999999994
 30
0.0
 70
    32
  0
VERTEX
  5
92E
  8
0
 10
194.245
 20
70.158100000000005
 30
0.0
 70
    32
  0
SEQEND
  5
92F
  8
0
  0
LINE
  5
1C1
  8
0
  6
CONTINUOUS
 10
194.2085622239
 20
70.336923916399996
 30
0.0
 11
194.33008818350001
 21
70.790501091599992
 31
0.0
  0
LINE
  5
1C2
  8
0
  6
CONTINUOUS
 10
194.857010586
 20
68.775765396899999
 30
0.0
 11
194.1064928301
 21
70.075700430400005
 31
0.0
  0
POLYLINE
  5
1C3
  8
0
  6
CONTINUOUS
 66
     1
 10
0.0
 20
0.0
 30
0.0
 70
     8
  0
VERTEX
  5
930
  8
0
 10
194.06999999999999
 20
70.254499999999993
 30
0.0
 70
    32
  0
VERTEX
  5
931
  8
0
 10
194.06999999999999
 20
70.253399999999985
 30
0.0
 70
    32
  0
VERTEX
  5
932
  8
0
 10
194.06899999999999
 20
70.252300000000005
 30
0.0
 70
    32
  0
VERTEX
  5
933
  8
0
 10
194.06899999999999
 20
70.251199999999997
 30
0.0
 70
    32
  0
VERTEX
  5
934
  8
0
 10
194.06899999999999
 20
70.25
 30
0.0
 70
    32
  0
VERTEX
  5
935
  8
0
 10
194.06899999999999
 20
70.248900000000006
 30
0.0
 70
    32
  0
VERTEX
  5
936
  8
0
 10
194.06800000000001
 20
70.247699999999995
 30
0.0
 70
    32
  0
VERTEX
  5
937
  8
0
 10
194.06800000000001
 20
70.246499999999997
 30
0.0
 70
    32
  0
VERTEX
  5
938
  8
0
 10
194.06800000000001
 20
70.245400000000004
 30
0.0
 70
    32
  0
VERTEX
  5
939
  8
0
 10
194.06800000000001
 20
70.244200000000006
 30
0.0
 70
    32
  0
VERTEX
  5
93A
  8
0
 10
194.06700000000001
 20
70.242999999999995
 30
0.0
 70
    32
  0
VERTEX
  5
93B
  8
0
 10
194.06700000000001
 20
70.241799999999998
 30
0.0
 70
    32
  0
VERTEX
  5
93C
  8
0
 10
194.06700000000001
 20
70.240600000000001
 30
0.0
 70
    32
  0
VERTEX
  5
93D
  8
0
 10
194.06700000000001
 20
70.239400000000003
 30
0.0
 70
    32
  0
VERTEX
  5
93E
  8
0
 10
194.06700000000001
 20
70.238100000000003
 30
0.0
 70
    32
  0
VERTEX
  5
93F
  8
0
 10
194.066
 20
70.236900000000006
 30
0.0
 70
    32
  0
VERTEX
  5
940
  8
0
 10
194.066
 20
70.235699999999994
 30
0.0
 70
    32
  0
VERTEX
  5
941
  8
0
 10
194.066
 20
70.234399999999994
 30
0.0
 70
    32
  0
VERTEX
  5
942
  8
0
 10
194.066
 20
70.233199999999997
 30
0.0
 70
    32
  0
VERTEX
  5
943
  8
0
 10
194.066
 20
70.231899999999996
 30
0.0
 70
    32
  0
VERTEX
  5
944
  8
0
 10
194.066
 20
70.230699999999999
 30
0.0
 70
    32
  0
VERTEX
  5
945
  8
0
 10
194.066
 20
70.229399999999998
 30
0.0
 70
    32
  0
VERTEX
  5
946
  8
0
 10
194.066
 20
70.228099999999984
 30
0.0
 70
    32
  0
VERTEX
  5
947
  8
0
 10
194.065
 20
70.226900000000001
 30
0.0
 70
    32
  0
VERTEX
  5
948
  8
0
 10
194.065
 20
70.2256
 30
0.0
 70
    32
  0
VERTEX
  5
949
  8
0
 10
194.065
 20
70.224299999999985
 30
0.0
 70
    32
  0
VERTEX
  5
94A
  8
0
 10
194.065
 20
70.222999999999999
 30
0.0
 70
    32
  0
VERTEX
  5
94B
  8
0
 10
194.065
 20
70.221699999999998
 30
0.0
 70
    32
  0
VERTEX
  5
94C
  8
0
 10
194.065
 20
70.220399999999998
 30
0.0
 70
    32
  0
VERTEX
  5
94D
  8
0
 10
194.065
 20
70.218999999999994
 30
0.0
 70
    32
  0
VERTEX
  5
94E
  8
0
 10
194.065
 20
70.217699999999994
 30
0.0
 70
    32
  0
VERTEX
  5
94F
  8
0
 10
194.065
 20
70.216399999999993
 30
0.0
 70
    32
  0
VERTEX
  5
950
  8
0
 10
194.065
 20
70.215100000000007
 30
0.0
 70
    32
  0
VERTEX
  5
951
  8
0
 10
194.065
 20
70.213700000000003
 30
0.0
 70
    32
  0
VERTEX
  5
952
  8
0
 10
194.065
 20
70.212400000000002
 30
0.0
 70
    32
  0
VERTEX
  5
953
  8
0
 10
194.065
 20
70.210999999999999
 30
0.0
 70
    32
  0
VERTEX
  5
954
  8
0
 10
194.065
 20
70.209699999999998
 30
0.0
 70
    32
  0
VERTEX
  5
955
  8
0
 10
194.065
 20
70.208299999999994
 30
0.0
 70
    32
  0
VERTEX
  5
956
  8
0
 10
194.065
 20
70.206999999999994
 30
0.0
 70
    32
  0
VERTEX
  5
957
  8
0
 10
194.065
 20
70.205600000000004
 30
0.0
 70
    32
  0
VERTEX
  5
958
  8
0
 10
194.065
 20
70.2042
 30
0.0
 70
    32
  0
VERTEX
  5
959
  8
0
 10
194.065
 20
70.202799999999996
 30
0.0
 70
    32
  0
VERTEX
  5
95A
  8
0
 10
194.066
 20
70.201400000000007
 30
0.0
 70
    32
  0
VERTEX
  5
95B
  8
0
 10
194.066
 20
70.200100000000006
 30
0.0
 70
    32
  0
VERTEX
  5
95C
  8
0
 10
194.066
 20
70.198700000000002
 30
0.0
 70
    32
  0
VERTEX
  5
95D
  8
0
 10
194.066
 20
70.197299999999998
 30
0.0
 70
    32
  0
VERTEX
  5
95E
  8
0
 10
194.066
 20
70.195899999999995
 30
0.0
 70
    32
  0
VERTEX
  5
95F
  8
0
 10
194.066
 20
70.194500000000005
 30
0.0
 70
    32
  0
VERTEX
  5
960
  8
0
 10
194.066
 20
70.193100000000001
 30
0.0
 70
    32
  0
VERTEX
  5
961
  8
0
 10
194.066
 20
70.191599999999994
 30
0.0
 70
    32
  0
VERTEX
  5
962
  8
0
 10
194.06700000000001
 20
70.190200000000004
 30
0.0
 70
    32
  0
VERTEX
  5
963
  8
0
 10
194.06700000000001
 20
70.188800000000001
 30
0.0
 70
    32
  0
VERTEX
  5
964
  8
0
 10
194.06700000000001
 20
70.187399999999997
 30
0.0
 70
    32
  0
VERTEX
  5
965
  8
0
 10
194.06700000000001
 20
70.185900000000004
 30
0.0
 70
    32
  0
VERTEX
  5
966
  8
0
 10
194.06700000000001
 20
70.1845
 30
0.0
 70
    32
  0
VERTEX
  5
967
  8
0
 10
194.06800000000001
 20
70.183099999999996
 30
0.0
 70
    32
  0
VERTEX
  5
968
  8
0
 10
194.06800000000001
 20
70.181600000000003
 30
0.0
 70
    32
  0
VERTEX
  5
969
  8
0
 10
194.06800000000001
 20
70.180199999999985
 30
0.0
 70
    32
  0
VERTEX
  5
96A
  8
0
 10
194.06800000000001
 20
70.178799999999995
 30
0.0
 70
    32
  0
VERTEX
  5
96B
  8
0
 10
194.06899999999999
 20
70.177300000000002
 30
0.0
 70
    32
  0
VERTEX
  5
96C
  8
0
 10
194.06899999999999
 20
70.175899999999999
 30
0.0
 70
    32
  0
VERTEX
  5
96D
  8
0
 10
194.06899999999999
 20
70.174400000000006
 30
0.0
 70
    32
  0
VERTEX
  5
96E
  8
0
 10
194.06899999999999
 20
70.172899999999998
 30
0.0
 70
    32
  0
VERTEX
  5
96F
  8
0
 10
194.06999999999999
 20
70.171499999999995
 30
0.0
 70
    32
  0
VERTEX
  5
970
  8
0
 10
194.06999999999999
 20
70.170000000000002
 30
0.0
 70
    32
  0
VERTEX
  5
971
  8
0
 10
194.06999999999999
 20
70.168599999999998
 30
0.0
 70
    32
  0
VERTEX
  5
972
  8
0
 10
194.071
 20
70.167100000000005
 30
0.0
 70
    32
  0
VERTEX
  5
973
  8
0
 10
194.071
 20
70.165599999999998
 30
0.0
 70
    32
  0
VERTEX
  5
974
  8
0
 10
194.071
 20
70.164199999999994
 30
0.0
 70
    32
  0
VERTEX
  5
975
  8
0
 10
194.072
 20
70.162700000000001
 30
0.0
 70
    32
  0
VERTEX
  5
976
  8
0
 10
194.072
 20
70.161199999999994
 30
0.0
 70
    32
  0
VERTEX
  5
977
  8
0
 10
194.072
 20
70.159700000000001
 30
0.0
 70
    32
  0
VERTEX
  5
978
  8
0
 10
194.07300000000001
 20
70.158199999999994
 30
0.0
 70
    32
  0
VERTEX
  5
979
  8
0
 10
194.07300000000001
 20
70.156800000000004
 30
0.0
 70
    32
  0
VERTEX
  5
97A
  8
0
 10
194.07300000000001
 20
70.155299999999997
 30
0.0
 70
    32
  0
VERTEX
  5
97B
  8
0
 10
194.07400000000001
 20
70.153800000000004
 30
0.0
 70
    32
  0
VERTEX
  5
97C
  8
0
 10
194.07400000000001
 20
70.152299999999997
 30
0.0
 70
    32
  0
VERTEX
  5
97D
  8
0
 10
194.07499999999999
 20
70.150800000000004
 30
0.0
 70
    32
  0
VERTEX
  5
97E
  8
0
 10
194.07499999999999
 20
70.149299999999997
 30
0.0
 70
    32
  0
VERTEX
  5
97F
  8
0
 10
194.07499999999999
 20
70.147900000000007
 30
0.0
 70
    32
  0
VERTEX
  5
980
  8
0
 10
194.07599999999999
 20
70.146399999999986
 30
0.0
 70
    32
  0
VERTEX
  5
981
  8
0
 10
194.07599999999999
 20
70.144900000000007
 30
0.0
 70
    32
  0
VERTEX
  5
982
  8
0
 10
194.077
 20
70.1434
 30
0.0
 70
    32
  0
VERTEX
  5
983
  8
0
 10
194.077
 20
70.141900000000007
 30
0.0
 70
    32
  0
VERTEX
  5
984
  8
0
 10
194.078
 20
70.1404
 30
0.0
 70
    32
  0
VERTEX
  5
985
  8
0
 10
194.078
 20
70.138900000000007
 30
0.0
 70
    32
  0
VERTEX
  5
986
  8
0
 10
194.07900000000001
 20
70.1374
 30
0.0
 70
    32
  0
VERTEX
  5
987
  8
0
 10
194.07900000000001
 20
70.135900000000007
 30
0.0
 70
    32
  0
VERTEX
  5
988
  8
0
 10
194.08000000000001
 20
70.134399999999999
 30
0.0
 70
    32
  0
VERTEX
  5
989
  8
0
 10
194.08000000000001
 20
70.132900000000006
 30
0.0
 70
    32
  0
VERTEX
  5
98A
  8
0
 10
194.08099999999999
 20
70.131399999999985
 30
0.0
 70
    32
  0
VERTEX
  5
98B
  8
0
 10
194.08099999999999
 20
70.129999999999995
 30
0.0
 70
    32
  0
VERTEX
  5
98C
  8
0
 10
194.08199999999999
 20
70.128500000000003
 30
0.0
 70
    32
  0
VERTEX
  5
98D
  8
0
 10
194.08199999999999
 20
70.126999999999995
 30
0.0
 70
    32
  0
VERTEX
  5
98E
  8
0
 10
194.083
 20
70.125500000000002
 30
0.0
 70
    32
  0
VERTEX
  5
98F
  8
0
 10
194.083
 20
70.123999999999995
 30
0.0
 70
    32
  0
VERTEX
  5
990
  8
0
 10
194.084
 20
70.122500000000002
 30
0.0
 70
    32
  0
VERTEX
  5
991
  8
0
 10
194.08500000000001
 20
70.120999999999995
 30
0.0
 70
    32
  0
VERTEX
  5
992
  8
0
 10
194.08500000000001
 20
70.119500000000002
 30
0.0
 70
    32
  0
VERTEX
  5
993
  8
0
 10
194.0859999999999
 20
70.117999999999995
 30
0.0
 70
    32
  0
VERTEX
  5
994
  8
0
 10
194.0859999999999
 20
70.116500000000002
 30
0.0
 70
    32
  0
VERTEX
  5
995
  8
0
 10
194.08699999999999
 20
70.114999999999995
 30
0.0
 70
    32
  0
VERTEX
  5
996
  8
0
 10
194.08799999999999
 20
70.113600000000005
 30
0.0
 70
    32
  0
VERTEX
  5
997
  8
0
 10
194.08799999999999
 20
70.112099999999998
 30
0.0
 70
    32
  0
VERTEX
  5
998
  8
0
 10
194.089
 20
70.110600000000005
 30
0.0
 70
    32
  0
VERTEX
  5
999
  8
0
 10
194.09
 20
70.109099999999984
 30
0.0
 70
    32
  0
VERTEX
  5
99A
  8
0
 10
194.09
 20
70.107600000000005
 30
0.0
 70
    32
  0
VERTEX
  5
99B
  8
0
 10
194.09100000000001
 20
70.106200000000001
 30
0.0
 70
    32
  0
VERTEX
  5
99C
  8
0
 10
194.09200000000001
 20
70.104699999999994
 30
0.0
 70
    32
  0
VERTEX
  5
99D
  8
0
 10
194.09200000000001
 20
70.103200000000001
 30
0.0
 70
    32
  0
VERTEX
  5
99E
  8
0
 10
194.09299999999999
 20
70.101699999999994
 30
0.0
 70
    32
  0
VERTEX
  5
99F
  8
0
 10
194.09399999999999
 20
70.100300000000004
 30
0.0
 70
    32
  0
VERTEX
  5
9A0
  8
0
 10
194.09399999999999
 20
70.098799999999983
 30
0.0
 70
    32
  0
VERTEX
  5
9A1
  8
0
 10
194.095
 20
70.097300000000004
 30
0.0
 70
    32
  0
VERTEX
  5
9A2
  8
0
 10
194.096
 20
70.0959
 30
0.0
 70
    32
  0
VERTEX
  5
9A3
  8
0
 10
194.096
 20
70.094399999999993
 30
0.0
 70
    32
  0
VERTEX
  5
9A4
  8
0
 10
194.09700000000001
 20
70.093000000000004
 30
0.0
 70
    32
  0
VERTEX
  5
9A5
  8
0
 10
194.09800000000001
 20
70.091499999999996
 30
0.0
 70
    32
  0
VERTEX
  5
9A6
  8
0
 10
194.09899999999999
 20
70.090000000000003
 30
0.0
 70
    32
  0
VERTEX
  5
9A7
  8
0
 10
194.09899999999999
 20
70.0886
 30
0.0
 70
    32
  0
VERTEX
  5
9A8
  8
0
 10
194.09999999999999
 20
70.087199999999996
 30
0.0
 70
    32
  0
VERTEX
  5
9A9
  8
0
 10
194.101
 20
70.085700000000003
 30
0.0
 70
    32
  0
VERTEX
  5
9AA
  8
0
 10
194.102
 20
70.084299999999999
 30
0.0
 70
    32
  0
VERTEX
  5
9AB
  8
0
 10
194.102
 20
70.082800000000006
 30
0.0
 70
    32
  0
VERTEX
  5
9AC
  8
0
 10
194.10299999999989
 20
70.081400000000002
 30
0.0
 70
    32
  0
VERTEX
  5
9AD
  8
0
 10
194.10400000000001
 20
70.079999999999998
 30
0.0
 70
    32
  0
VERTEX
  5
9AE
  8
0
 10
194.10499999999999
 20
70.078500000000005
 30
0.0
 70
    32
  0
VERTEX
  5
9AF
  8
0
 10
194.10599999999999
 20
70.077100000000002
 30
0.0
 70
    32
  0
VERTEX
  5
9B0
  8
0
 10
194.10599999999999
 20
70.075699999999998
 30
0.0
 70
    32
  0
SEQEND
  5
9B1
  8
0
  0
POLYLINE
  5
1C4
  8
0
  6
CONTINUOUS
 66
     1
 10
0.0
 20
0.0
 30
0.0
 70
     8
  0
VERTEX
  5
9B2
  8
0
 10
194.857
 20
68.775800000000004
 30
0.0
 70
    32
  0
VERTEX
  5
9B3
  8
0
 10
194.858
 20
68.774699999999996
 30
0.0
 70
    32
  0
VERTEX
  5
9B4
  8
0
 10
194.858
 20
68.773600000000002
 30
0.0
 70
    32
  0
VERTEX
  5
9B5
  8
0
 10
194.85900000000001
 20
68.772599999999997
 30
0.0
 70
    32
  0
VERTEX
  5
9B6
  8
0
 10
194.85900000000001
 20
68.771500000000003
 30
0.0
 70
    32
  0
VERTEX
  5
9B7
  8
0
 10
194.86000000000001
 20
68.770499999999998
 30
0.0
 70
    32
  0
VERTEX
  5
9B8
  8
0
 10
194.86099999999999
 20
68.769400000000005
 30
0.0
 70
    32
  0
VERTEX
  5
9B9
  8
0
 10
194.86099999999999
 20
68.7684
 30
0.0
 70
    32
  0
VERTEX
  5
9BA
  8
0
 10
194.86199999999999
 20
68.767300000000006
 30
0.0
 70
    32
  0
VERTEX
  5
9BB
  8
0
 10
194.863
 20
68.766300000000001
 30
0.0
 70
    32
  0
VERTEX
  5
9BC
  8
0
 10
194.863
 20
68.765299999999996
 30
0.0
 70
    32
  0
VERTEX
  5
9BD
  8
0
 10
194.864
 20
68.764200000000002
 30
0.0
 70
    32
  0
VERTEX
  5
9BE
  8
0
 10
194.86500000000001
 20
68.763199999999983
 30
0.0
 70
    32
  0
VERTEX
  5
9BF
  8
0
 10
194.86500000000001
 20
68.762100000000004
 30
0.0
 70
    32
  0
VERTEX
  5
9C0
  8
0
 10
194.86600000000001
 20
68.761099999999999
 30
0.0
 70
    32
  0
VERTEX
  5
9C1
  8
0
 10
194.86699999999999
 20
68.760099999999994
 30
0.0
 70
    32
  0
VERTEX
  5
9C2
  8
0
 10
194.86699999999999
 20
68.759100000000004
 30
0.0
 70
    32
  0
VERTEX
  5
9C3
  8
0
 10
194.86799999999999
 20
68.757999999999996
 30
0.0
 70
    32
  0
VERTEX
  5
9C4
  8
0
 10
194.869
 20
68.757000000000005
 30
0.0
 70
    32
  0
VERTEX
  5
9C5
  8
0
 10
194.869
 20
68.756
 30
0.0
 70
    32
  0
VERTEX
  5
9C6
  8
0
 10
194.87
 20
68.754999999999995
 30
0.0
 70
    32
  0
VERTEX
  5
9C7
  8
0
 10
194.87100000000001
 20
68.754000000000005
 30
0.0
 70
    32
  0
VERTEX
  5
9C8
  8
0
 10
194.87100000000001
 20
68.753
 30
0.0
 70
    32
  0
VERTEX
  5
9C9
  8
0
 10
194.87200000000001
 20
68.751999999999995
 30
0.0
 70
    32
  0
VERTEX
  5
9CA
  8
0
 10
194.87299999999999
 20
68.751000000000005
 30
0.0
 70
    32
  0
VERTEX
  5
9CB
  8
0
 10
194.87299999999999
 20
68.75
 30
0.0
 70
    32
  0
VERTEX
  5
9CC
  8
0
 10
194.874
 20
68.748999999999995
 30
0.0
 70
    32
  0
VERTEX
  5
9CD
  8
0
 10
194.875
 20
68.748000000000005
 30
0.0
 70
    32
  0
VERTEX
  5
9CE
  8
0
 10
194.876
 20
68.747
 30
0.0
 70
    32
  0
VERTEX
  5
9CF
  8
0
 10
194.876
 20
68.745999999999995
 30
0.0
 70
    32
  0
VERTEX
  5
9D0
  8
0
 10
194.87700000000001
 20
68.745000000000005
 30
0.0
 70
    32
  0
VERTEX
  5
9D1
  8
0
 10
194.87799999999999
 20
68.744100000000003
 30
0.0
 70
    32
  0
VERTEX
  5
9D2
  8
0
 10
194.87799999999999
 20
68.743099999999998
 30
0.0
 70
    32
  0
VERTEX
  5
9D3
  8
0
 10
194.87899999999999
 20
68.742099999999994
 30
0.0
 70
    32
  0
VERTEX
  5
9D4
  8
0
 10
194.88
 20
68.741100000000003
 30
0.0
 70
    32
  0
VERTEX
  5
9D5
  8
0
 10
194.88099999999989
 20
68.740200000000002
 30
0.0
 70
    32
  0
VERTEX
  5
9D6
  8
0
 10
194.88099999999989
 20
68.739199999999997
 30
0.0
 70
    32
  0
VERTEX
  5
9D7
  8
0
 10
194.88200000000001
 20
68.738299999999995
 30
0.0
 70
    32
  0
VERTEX
  5
9D8
  8
0
 10
194.88300000000001
 20
68.737300000000005
 30
0.0
 70
    32
  0
VERTEX
  5
9D9
  8
0
 10
194.88399999999999
 20
68.736400000000003
 30
0.0
 70
    32
  0
VERTEX
  5
9DA
  8
0
 10
194.88399999999999
 20
68.735399999999998
 30
0.0
 70
    32
  0
VERTEX
  5
9DB
  8
0
 10
194.88499999999999
 20
68.734499999999997
 30
0.0
 70
    32
  0
VERTEX
  5
9DC
  8
0
 10
194.886
 20
68.733500000000006
 30
0.0
 70
    32
  0
VERTEX
  5
9DD
  8
0
 10
194.887
 20
68.732600000000005
 30
0.0
 70
    32
  0
VERTEX
  5
9DE
  8
0
 10
194.887
 20
68.731700000000004
 30
0.0
 70
    32
  0
VERTEX
  5
9DF
  8
0
 10
194.88800000000001
 20
68.730699999999999
 30
0.0
 70
    32
  0
VERTEX
  5
9E0
  8
0
 10
194.88900000000001
 20
68.729799999999997
 30
0.0
 70
    32
  0
VERTEX
  5
9E1
  8
0
 10
194.88999999999999
 20
68.728899999999996
 30
0.0
 70
    32
  0
VERTEX
  5
9E2
  8
0
 10
194.88999999999999
 20
68.727999999999994
 30
0.0
 70
    32
  0
VERTEX
  5
9E3
  8
0
 10
194.89099999999999
 20
68.727099999999993
 30
0.0
 70
    32
  0
VERTEX
  5
9E4
  8
0
 10
194.892
 20
68.726200000000006
 30
0.0
 70
    32
  0
VERTEX
  5
9E5
  8
0
 10
194.893
 20
68.725300000000004
 30
0.0
 70
    32
  0
VERTEX
  5
9E6
  8
0
 10
194.893
 20
68.724400000000003
 30
0.0
 70
    32
  0
VERTEX
  5
9E7
  8
0
 10
194.89400000000001
 20
68.723500000000001
 30
0.0
 70
    32
  0
VERTEX
  5
9E8
  8
0
 10
194.89500000000001
 20
68.7226
 30
0.0
 70
    32
  0
VERTEX
  5
9E9
  8
0
 10
194.8959999999999
 20
68.721699999999998
 30
0.0
 70
    32
  0
VERTEX
  5
9EA
  8
0
 10
194.89699999999999
 20
68.720799999999997
 30
0.0
 70
    32
  0
VERTEX
  5
9EB
  8
0
 10
194.89699999999999
 20
68.719899999999996
 30
0.0
 70
    32
  0
VERTEX
  5
9EC
  8
0
 10
194.898
 20
68.718999999999994
 30
0.0
 70
    32
  0
VERTEX
  5
9ED
  8
0
 10
194.899
 20
68.718199999999996
 30
0.0
 70
    32
  0
VERTEX
  5
9EE
  8
0
 10
194.90000000000001
 20
68.717299999999994
 30
0.0
 70
    32
  0
VERTEX
  5
9EF
  8
0
 10
194.90000000000001
 20
68.716399999999993
 30
0.0
 70
    32
  0
VERTEX
  5
9F0
  8
0
 10
194.90100000000001
 20
68.715599999999995
 30
0.0
 70
    32
  0
VERTEX
  5
9F1
  8
0
 10
194.90199999999999
 20
68.714699999999993
 30
0.0
 70
    32
  0
VERTEX
  5
9F2
  8
0
 10
194.90299999999999
 20
68.713899999999995
 30
0.0
 70
    32
  0
VERTEX
  5
9F3
  8
0
 10
194.904
 20
68.712999999999994
 30
0.0
 70
    32
  0
VERTEX
  5
9F4
  8
0
 10
194.904
 20
68.712199999999996
 30
0.0
 70
    32
  0
VERTEX
  5
9F5
  8
0
 10
194.905
 20
68.711399999999998
 30
0.0
 70
    32
  0
VERTEX
  5
9F6
  8
0
 10
194.90600000000001
 20
68.710499999999996
 30
0.0
 70
    32
  0
VERTEX
  5
9F7
  8
0
 10
194.90700000000001
 20
68.709699999999984
 30
0.0
 70
    32
  0
VERTEX
  5
9F8
  8
0
 10
194.90799999999999
 20
68.7089
 30
0.0
 70
    32
  0
VERTEX
  5
9F9
  8
0
 10
194.90899999999999
 20
68.708100000000002
 30
0.0
 70
    32
  0
VERTEX
  5
9FA
  8
0
 10
194.90899999999999
 20
68.707300000000004
 30
0.0
 70
    32
  0
VERTEX
  5
9FB
  8
0
 10
194.91
 20
68.706500000000005
 30
0.0
 70
    32
  0
VERTEX
  5
9FC
  8
0
 10
194.91099999999989
 20
68.705699999999993
 30
0.0
 70
    32
  0
VERTEX
  5
9FD
  8
0
 10
194.91200000000001
 20
68.704899999999995
 30
0.0
 70
    32
  0
VERTEX
  5
9FE
  8
0
 10
194.91300000000001
 20
68.704099999999997
 30
0.0
 70
    32
  0
VERTEX
  5
9FF
  8
0
 10
194.91300000000001
 20
68.703299999999999
 30
0.0
 70
    32
  0
VERTEX
  5
A00
  8
0
 10
194.91399999999999
 20
68.702500000000001
 30
0.0
 70
    32
  0
VERTEX
  5
A01
  8
0
 10
194.91499999999999
 20
68.701700000000002
 30
0.0
 70
    32
  0
VERTEX
  5
A02
  8
0
 10
194.916
 20
68.700900000000004
 30
0.0
 70
    32
  0
VERTEX
  5
A03
  8
0
 10
194.917
 20
68.700199999999995
 30
0.0
 70
    32
  0
VERTEX
  5
A04
  8
0
 10
194.91800000000001
 20
68.699399999999983
 30
0.0
 70
    32
  0
VERTEX
  5
A05
  8
0
 10
194.91800000000001
 20
68.698700000000002
 30
0.0
 70
    32
  0
VERTEX
  5
A06
  8
0
 10
194.91900000000001
 20
68.697900000000004
 30
0.0
 70
    32
  0
VERTEX
  5
A07
  8
0
 10
194.91999999999999
 20
68.697199999999995
 30
0.0
 70
    32
  0
VERTEX
  5
A08
  8
0
 10
194.92099999999999
 20
68.696399999999997
 30
0.0
 70
    32
  0
VERTEX
  5
A09
  8
0
 10
194.922
 20
68.695700000000002
 30
0.0
 70
    32
  0
VERTEX
  5
A0A
  8
0
 10
194.923
 20
68.694900000000004
 30
0.0
 70
    32
  0
VERTEX
  5
A0B
  8
0
 10
194.923
 20
68.694199999999995
 30
0.0
 70
    32
  0
VERTEX
  5
A0C
  8
0
 10
194.92400000000001
 20
68.6935
 30
0.0
 70
    32
  0
VERTEX
  5
A0D
  8
0
 10
194.92500000000001
 20
68.692800000000005
 30
0.0
 70
    32
  0
VERTEX
  5
A0E
  8
0
 10
194.92599999999999
 20
68.692099999999996
 30
0.0
 70
    32
  0
VERTEX
  5
A0F
  8
0
 10
194.92699999999999
 20
68.691400000000002
 30
0.0
 70
    32
  0
VERTEX
  5
A10
  8
0
 10
194.928
 20
68.690700000000007
 30
0.0
 70
    32
  0
VERTEX
  5
A11
  8
0
 10
194.929
 20
68.689999999999984
 30
0.0
 70
    32
  0
VERTEX
  5
A12
  8
0
 10
194.929
 20
68.689300000000003
 30
0.0
 70
    32
  0
VERTEX
  5
A13
  8
0
 10
194.93000000000001
 20
68.688599999999994
 30
0.0
 70
    32
  0
VERTEX
  5
A14
  8
0
 10
194.93100000000001
 20
68.687899999999999
 30
0.0
 70
    32
  0
VERTEX
  5
A15
  8
0
 10
194.93199999999999
 20
68.687200000000004
 30
0.0
 70
    32
  0
VERTEX
  5
A16
  8
0
 10
194.93299999999999
 20
68.686599999999999
 30
0.0
 70
    32
  0
VERTEX
  5
A17
  8
0
 10
194.934
 20
68.685900000000004
 30
0.0
 70
    32
  0
VERTEX
  5
A18
  8
0
 10
194.935
 20
68.685299999999984
 30
0.0
 70
    32
  0
VERTEX
  5
A19
  8
0
 10
194.935
 20
68.684600000000003
 30
0.0
 70
    32
  0
VERTEX
  5
A1A
  8
0
 10
194.93600000000001
 20
68.683999999999997
 30
0.0
 70
    32
  0
VERTEX
  5
A1B
  8
0
 10
194.93700000000001
 20
68.683300000000003
 30
0.0
 70
    32
  0
VERTEX
  5
A1C
  8
0
 10
194.93799999999999
 20
68.682699999999997
 30
0.0
 70
    32
  0
VERTEX
  5
A1D
  8
0
 10
194.93899999999999
 20
68.682100000000005
 30
0.0
 70
    32
  0
VERTEX
  5
A1E
  8
0
 10
194.94
 20
68.681399999999996
 30
0.0
 70
    32
  0
VERTEX
  5
A1F
  8
0
 10
194.941
 20
68.680800000000005
 30
0.0
 70
    32
  0
VERTEX
  5
A20
  8
0
 10
194.941
 20
68.680199999999999
 30
0.0
 70
    32
  0
VERTEX
  5
A21
  8
0
 10
194.94200000000001
 20
68.679599999999994
 30
0.0
 70
    32
  0
VERTEX
  5
A22
  8
0
 10
194.9429999999999
 20
68.679000000000002
 30
0.0
 70
    32
  0
VERTEX
  5
A23
  8
0
 10
194.94399999999999
 20
68.678399999999996
 30
0.0
 70
    32
  0
VERTEX
  5
A24
  8
0
 10
194.94499999999999
 20
68.677800000000005
 30
0.0
 70
    32
  0
VERTEX
  5
A25
  8
0
 10
194.946
 20
68.677199999999999
 30
0.0
 70
    32
  0
VERTEX
  5
A26
  8
0
 10
194.947
 20
68.676699999999997
 30
0.0
 70
    32
  0
VERTEX
  5
A27
  8
0
 10
194.947
 20
68.676100000000005
 30
0.0
 70
    32
  0
VERTEX
  5
A28
  8
0
 10
194.94800000000001
 20
68.6755
 30
0.0
 70
    32
  0
VERTEX
  5
A29
  8
0
 10
194.94900000000001
 20
68.674999999999983
 30
0.0
 70
    32
  0
VERTEX
  5
A2A
  8
0
 10
194.94999999999999
 20
68.674400000000006
 30
0.0
 70
    32
  0
VERTEX
  5
A2B
  8
0
 10
194.95099999999999
 20
68.673900000000003
 30
0.0
 70
    32
  0
VERTEX
  5
A2C
  8
0
 10
194.952
 20
68.673299999999983
 30
0.0
 70
    32
  0
VERTEX
  5
A2D
  8
0
 10
194.953
 20
68.672799999999995
 30
0.0
 70
    32
  0
VERTEX
  5
A2E
  8
0
 10
194.95400000000001
 20
68.672300000000007
 30
0.0
 70
    32
  0
VERTEX
  5
A2F
  8
0
 10
194.95400000000001
 20
68.671800000000005
 30
0.0
 70
    32
  0
VERTEX
  5
A30
  8
0
 10
194.95500000000001
 20
68.671199999999985
 30
0.0
 70
    32
  0
VERTEX
  5
A31
  8
0
 10
194.95599999999999
 20
68.670699999999997
 30
0.0
 70
    32
  0
VERTEX
  5
A32
  8
0
 10
194.95699999999999
 20
68.670199999999994
 30
0.0
 70
    32
  0
SEQEND
  5
A33
  8
0
  0
LINE
  5
1C5
  8
0
  6
CONTINUOUS
 10
198.46162915619999
 20
66.647038790899998
 30
0.0
 11
194.956995423
 21
68.670220780400001
 31
0.0
  0
LINE
  5
1C6
  8
0
  6
CONTINUOUS
 10
194.06989593130001
 20
70.254546765699985
 30
0.0
 11
194.1921594607
 21
70.710876581500003
 31
0.0
  0
LINE
  5
1C7
  8
0
  6
CONTINUOUS
 10
198.704055985
 20
66.715342361300003
 30
0.0
 11
198.5616139933
 21
66.637143371799993
 31
0.0
  0
POLYLINE
  5
1C8
  8
0
  6
CONTINUOUS
 66
     1
 10
0.0
 20
0.0
 30
0.0
 70
     8
  0
VERTEX
  5
A34
  8
0
 10
198.46199999999999
 20
66.647000000000006
 30
0.0
 70
    32
  0
VERTEX
  5
A35
  8
0
 10
198.46199999999999
 20
66.646500000000003
 30
0.0
 70
    32
  0
VERTEX
  5
A36
  8
0
 10
198.46299999999999
 20
66.646000000000001
 30
0.0
 70
    32
  0
VERTEX
  5
A37
  8
0
 10
198.464
 20
66.645600000000002
 30
0.0
 70
    32
  0
VERTEX
  5
A38
  8
0
 10
198.465
 20
66.645099999999985
 30
0.0
 70
    32
  0
VERTEX
  5
A39
  8
0
 10
198.46600000000001
 20
66.644599999999997
 30
0.0
 70
    32
  0
VERTEX
  5
A3A
  8
0
 10
198.46700000000001
 20
66.644099999999995
 30
0.0
 70
    32
  0
VERTEX
  5
A3B
  8
0
 10
198.46799999999999
 20
66.643699999999995
 30
0.0
 70
    32
  0
VERTEX
  5
A3C
  8
0
 10
198.46899999999999
 20
66.643199999999993
 30
0.0
 70
    32
  0
VERTEX
  5
A3D
  8
0
 10
198.46899999999999
 20
66.642799999999994
 30
0.0
 70
    32
  0
VERTEX
  5
A3E
  8
0
 10
198.47
 20
66.642300000000006
 30
0.0
 70
    32
  0
VERTEX
  5
A3F
  8
0
 10
198.47099999999989
 20
66.641900000000007
 30
0.0
 70
    32
  0
VERTEX
  5
A40
  8
0
 10
198.47200000000001
 20
66.641499999999994
 30
0.0
 70
    32
  0
VERTEX
  5
A41
  8
0
 10
198.47300000000001
 20
66.641099999999994
 30
0.0
 70
    32
  0
VERTEX
  5
A42
  8
0
 10
198.47399999999999
 20
66.640600000000006
 30
0.0
 70
    32
  0
VERTEX
  5
A43
  8
0
 10
198.47499999999999
 20
66.640199999999993
 30
0.0
 70
    32
  0
VERTEX
  5
A44
  8
0
 10
198.47499999999999
 20
66.639799999999994
 30
0.0
 70
    32
  0
VERTEX
  5
A45
  8
0
 10
198.476
 20
66.639399999999995
 30
0.0
 70
    32
  0
VERTEX
  5
A46
  8
0
 10
198.477
 20
66.638999999999996
 30
0.0
 70
    32
  0
VERTEX
  5
A47
  8
0
 10
198.47799999999989
 20
66.6387
 30
0.0
 70
    32
  0
VERTEX
  5
A48
  8
0
 10
198.47900000000001
 20
66.638300000000001
 30
0.0
 70
    32
  0
VERTEX
  5
A49
  8
0
 10
198.47999999999999
 20
66.637900000000002
 30
0.0
 70
    32
  0
VERTEX
  5
A4A
  8
0
 10
198.48099999999999
 20
66.637500000000003
 30
0.0
 70
    32
  0
VERTEX
  5
A4B
  8
0
 10
198.482
 20
66.637200000000007
 30
0.0
 70
    32
  0
VERTEX
  5
A4C
  8
0
 10
198.482
 20
66.636799999999994
 30
0.0
 70
    32
  0
VERTEX
  5
A4D
  8
0
 10
198.483
 20
66.636499999999998
 30
0.0
 70
    32
  0
VERTEX
  5
A4E
  8
0
 10
198.48400000000001
 20
66.636099999999999
 30
0.0
 70
    32
  0
VERTEX
  5
A4F
  8
0
 10
198.48500000000001
 20
66.635800000000003
 30
0.0
 70
    32
  0
VERTEX
  5
A50
  8
0
 10
198.48599999999999
 20
66.635499999999993
 30
0.0
 70
    32
  0
VERTEX
  5
A51
  8
0
 10
198.48699999999999
 20
66.635199999999998
 30
0.0
 70
    32
  0
VERTEX
  5
A52
  8
0
 10
198.488
 20
66.634900000000002
 30
0.0
 70
    32
  0
VERTEX
  5
A53
  8
0
 10
198.488
 20
66.634500000000003
 30
0.0
 70
    32
  0
VERTEX
  5
A54
  8
0
 10
198.489
 20
66.634299999999996
 30
0.0
 70
    32
  0
VERTEX
  5
A55
  8
0
 10
198.49000000000001
 20
66.634
 30
0.0
 70
    32
  0
VERTEX
  5
A56
  8
0
 10
198.49100000000001
 20
66.633700000000005
 30
0.0
 70
    32
  0
VERTEX
  5
A57
  8
0
 10
198.49199999999999
 20
66.633399999999995
 30
0.0
 70
    32
  0
VERTEX
  5
A58
  8
0
 10
198.49299999999999
 20
66.633099999999999
 30
0.0
 70
    32
  0
VERTEX
  5
A59
  8
0
 10
198.49299999999999
 20
66.632900000000006
 30
0.0
 70
    32
  0
VERTEX
  5
A5A
  8
0
 10
198.494
 20
66.632599999999996
 30
0.0
 70
    32
  0
VERTEX
  5
A5B
  8
0
 10
198.495
 20
66.632300000000001
 30
0.0
 70
    32
  0
VERTEX
  5
A5C
  8
0
 10
198.49600000000001
 20
66.632099999999994
 30
0.0
 70
    32
  0
VERTEX
  5
A5D
  8
0
 10
198.49700000000001
 20
66.631900000000002
 30
0.0
 70
    32
  0
VERTEX
  5
A5E
  8
0
 10
198.49799999999999
 20
66.631600000000006
 30
0.0
 70
    32
  0
VERTEX
  5
A5F
  8
0
 10
198.499
 20
66.631399999999999
 30
0.0
 70
    32
  0
VERTEX
  5
A60
  8
0
 10
198.499
 20
66.631200000000007
 30
0.0
 70
    32
  0
VERTEX
  5
A61
  8
0
 10
198.5
 20
66.631
 30
0.0
 70
    32
  0
VERTEX
  5
A62
  8
0
 10
198.50099999999989
 20
66.630799999999994
 30
0.0
 70
    32
  0
VERTEX
  5
A63
  8
0
 10
198.50200000000001
 20
66.630600000000001
 30
0.0
 70
    32
  0
VERTEX
  5
A64
  8
0
 10
198.50299999999999
 20
66.630399999999995
 30
0.0
 70
    32
  0
VERTEX
  5
A65
  8
0
 10
198.50399999999999
 20
66.630200000000002
 30
0.0
 70
    32
  0
VERTEX
  5
A66
  8
0
 10
198.50399999999999
 20
66.629999999999995
 30
0.0
 70
    32
  0
VERTEX
  5
A67
  8
0
 10
198.505
 20
66.629800000000003
 30
0.0
 70
    32
  0
VERTEX
  5
A68
  8
0
 10
198.506
 20
66.6297
 30
0.0
 70
    32
  0
VERTEX
  5
A69
  8
0
 10
198.50700000000001
 20
66.629499999999993
 30
0.0
 70
    32
  0
VERTEX
  5
A6A
  8
0
 10
198.50800000000001
 20
66.629400000000004
 30
0.0
 70
    32
  0
VERTEX
  5
A6B
  8
0
 10
198.50800000000001
 20
66.629199999999983
 30
0.0
 70
    32
  0
VERTEX
  5
A6C
  8
0
 10
198.50899999999999
 20
66.629099999999994
 30
0.0
 70
    32
  0
VERTEX
  5
A6D
  8
0
 10
198.50999999999999
 20
66.629000000000005
 30
0.0
 70
    32
  0
VERTEX
  5
A6E
  8
0
 10
198.511
 20
66.628799999999998
 30
0.0
 70
    32
  0
VERTEX
  5
A6F
  8
0
 10
198.512
 20
66.628699999999995
 30
0.0
 70
    32
  0
VERTEX
  5
A70
  8
0
 10
198.51300000000001
 20
66.628600000000006
 30
0.0
 70
    32
  0
VERTEX
  5
A71
  8
0
 10
198.51300000000001
 20
66.628500000000003
 30
0.0
 70
    32
  0
VERTEX
  5
A72
  8
0
 10
198.51400000000001
 20
66.628399999999999
 30
0.0
 70
    32
  0
VERTEX
  5
A73
  8
0
 10
198.51499999999999
 20
66.628299999999996
 30
0.0
 70
    32
  0
VERTEX
  5
A74
  8
0
 10
198.51599999999999
 20
66.628200000000007
 30
0.0
 70
    32
  0
VERTEX
  5
A75
  8
0
 10
198.517
 20
66.628200000000007
 30
0.0
 70
    32
  0
VERTEX
  5
A76
  8
0
 10
198.517
 20
66.628100000000003
 30
0.0
 70
    32
  0
VERTEX
  5
A77
  8
0
 10
198.518
 20
66.628
 30
0.0
 70
    32
  0
VERTEX
  5
A78
  8
0
 10
198.51900000000001
 20
66.628
 30
0.0
 70
    32
  0
VERTEX
  5
A79
  8
0
 10
198.52000000000001
 20
66.627899999999997
 30
0.0
 70
    32
  0
VERTEX
  5
A7A
  8
0
 10
198.52099999999999
 20
66.627899999999997
 30
0.0
 70
    32
  0
VERTEX
  5
A7B
  8
0
 10
198.52099999999999
 20
66.627799999999993
 30
0.0
 70
    32
  0
VERTEX
  5
A7C
  8
0
 10
198.52199999999999
 20
66.627799999999993
 30
0.0
 70
    32
  0
VERTEX
  5
A7D
  8
0
 10
198.523
 20
66.627799999999993
 30
0.0
 70
    32
  0
VERTEX
  5
A7E
  8
0
 10
198.524
 20
66.627799999999993
 30
0.0
 70
    32
  0
VERTEX
  5
A7F
  8
0
 10
198.524
 20
66.627799999999993
 30
0.0
 70
    32
  0
VERTEX
  5
A80
  8
0
 10
198.52500000000001
 20
66.627799999999993
 30
0.0
 70
    32
  0
VERTEX
  5
A81
  8
0
 10
198.52600000000001
 20
66.627799999999993
 30
0.0
 70
    32
  0
VERTEX
  5
A82
  8
0
 10
198.52699999999999
 20
66.627799999999993
 30
0.0
 70
    32
  0
VERTEX
  5
A83
  8
0
 10
198.52799999999999
 20
66.627799999999993
 30
0.0
 70
    32
  0
VERTEX
  5
A84
  8
0
 10
198.52799999999999
 20
66.627799999999993
 30
0.0
 70
    32
  0
VERTEX
  5
A85
  8
0
 10
198.529
 20
66.627899999999997
 30
0.0
 70
    32
  0
VERTEX
  5
A86
  8
0
 10
198.53
 20
66.627899999999997
 30
0.0
 70
    32
  0
VERTEX
  5
A87
  8
0
 10
198.53100000000001
 20
66.628
 30
0.0
 70
    32
  0
VERTEX
  5
A88
  8
0
 10
198.53100000000001
 20
66.628
 30
0.0
 70
    32
  0
VERTEX
  5
A89
  8
0
 10
198.53200000000001
 20
66.628100000000003
 30
0.0
 70
    32
  0
VERTEX
  5
A8A
  8
0
 10
198.53299999999999
 20
66.628100000000003
 30
0.0
 70
    32
  0
VERTEX
  5
A8B
  8
0
 10
198.53399999999999
 20
66.628200000000007
 30
0.0
 70
    32
  0
VERTEX
  5
A8C
  8
0
 10
198.53399999999999
 20
66.628299999999996
 30
0.0
 70
    32
  0
VERTEX
  5
A8D
  8
0
 10
198.535
 20
66.628399999999999
 30
0.0
 70
    32
  0
VERTEX
  5
A8E
  8
0
 10
198.536
 20
66.628500000000003
 30
0.0
 70
    32
  0
VERTEX
  5
A8F
  8
0
 10
198.53700000000001
 20
66.628600000000006
 30
0.0
 70
    32
  0
VERTEX
  5
A90
  8
0
 10
198.53700000000001
 20
66.628699999999995
 30
0.0
 70
    32
  0
VERTEX
  5
A91
  8
0
 10
198.53800000000001
 20
66.628799999999998
 30
0.0
 70
    32
  0
VERTEX
  5
A92
  8
0
 10
198.53899999999999
 20
66.628900000000002
 30
0.0
 70
    32
  0
VERTEX
  5
A93
  8
0
 10
198.53899999999999
 20
66.629099999999994
 30
0.0
 70
    32
  0
VERTEX
  5
A94
  8
0
 10
198.53999999999999
 20
66.629199999999983
 30
0.0
 70
    32
  0
VERTEX
  5
A95
  8
0
 10
198.541
 20
66.629300000000001
 30
0.0
 70
    32
  0
VERTEX
  5
A96
  8
0
 10
198.542
 20
66.629499999999993
 30
0.0
 70
    32
  0
VERTEX
  5
A97
  8
0
 10
198.542
 20
66.6297
 30
0.0
 70
    32
  0
VERTEX
  5
A98
  8
0
 10
198.54300000000001
 20
66.629800000000003
 30
0.0
 70
    32
  0
VERTEX
  5
A99
  8
0
 10
198.54400000000001
 20
66.629999999999995
 30
0.0
 70
    32
  0
VERTEX
  5
A9A
  8
0
 10
198.54400000000001
 20
66.630200000000002
 30
0.0
 70
    32
  0
VERTEX
  5
A9B
  8
0
 10
198.54499999999999
 20
66.630399999999995
 30
0.0
 70
    32
  0
VERTEX
  5
A9C
  8
0
 10
198.54599999999999
 20
66.630499999999998
 30
0.0
 70
    32
  0
VERTEX
  5
A9D
  8
0
 10
198.547
 20
66.630700000000004
 30
0.0
 70
    32
  0
VERTEX
  5
A9E
  8
0
 10
198.547
 20
66.630899999999997
 30
0.0
 70
    32
  0
VERTEX
  5
A9F
  8
0
 10
198.548
 20
66.631200000000007
 30
0.0
 70
    32
  0
VERTEX
  5
AA0
  8
0
 10
198.54900000000001
 20
66.631399999999999
 30
0.0
 70
    32
  0
VERTEX
  5
AA1
  8
0
 10
198.54900000000001
 20
66.631600000000006
 30
0.0
 70
    32
  0
VERTEX
  5
AA2
  8
0
 10
198.55000000000001
 20
66.631799999999998
 30
0.0
 70
    32
  0
VERTEX
  5
AA3
  8
0
 10
198.55099999999999
 20
66.632099999999994
 30
0.0
 70
    32
  0
VERTEX
  5
AA4
  8
0
 10
198.55099999999999
 20
66.632300000000001
 30
0.0
 70
    32
  0
VERTEX
  5
AA5
  8
0
 10
198.55199999999999
 20
66.632599999999996
 30
0.0
 70
    32
  0
VERTEX
  5
AA6
  8
0
 10
198.553
 20
66.632800000000003
 30
0.0
 70
    32
  0
VERTEX
  5
AA7
  8
0
 10
198.553
 20
66.633099999999999
 30
0.0
 70
    32
  0
VERTEX
  5
AA8
  8
0
 10
198.554
 20
66.633399999999995
 30
0.0
 70
    32
  0
VERTEX
  5
AA9
  8
0
 10
198.55500000000001
 20
66.633600000000001
 30
0.0
 70
    32
  0
VERTEX
  5
AAA
  8
0
 10
198.55500000000001
 20
66.633899999999997
 30
0.0
 70
    32
  0
VERTEX
  5
AAB
  8
0
 10
198.5559999999999
 20
66.634200000000007
 30
0.0
 70
    32
  0
VERTEX
  5
AAC
  8
0
 10
198.55699999999999
 20
66.634500000000003
 30
0.0
 70
    32
  0
VERTEX
  5
AAD
  8
0
 10
198.55699999999999
 20
66.634799999999984
 30
0.0
 70
    32
  0
VERTEX
  5
AAE
  8
0
 10
198.55799999999999
 20
66.635099999999994
 30
0.0
 70
    32
  0
VERTEX
  5
AAF
  8
0
 10
198.55799999999999
 20
66.635499999999993
 30
0.0
 70
    32
  0
VERTEX
  5
AB0
  8
0
 10
198.559
 20
66.635800000000003
 30
0.0
 70
    32
  0
VERTEX
  5
AB1
  8
0
 10
198.56
 20
66.636099999999999
 30
0.0
 70
    32
  0
VERTEX
  5
AB2
  8
0
 10
198.56
 20
66.636399999999995
 30
0.0
 70
    32
  0
VERTEX
  5
AB3
  8
0
 10
198.56100000000001
 20
66.636799999999994
 30
0.0
 70
    32
  0
VERTEX
  5
AB4
  8
0
 10
198.56200000000001
 20
66.637100000000004
 30
0.0
 70
    32
  0
SEQEND
  5
AB5
  8
0
  0
LINE
  5
1C9
  8
0
  6
CONTINUOUS
 10
195.0061881709
 20
68.874579646599997
 30
0.0
 11
194.2688282659999
 21
70.151724461699999
 31
0.0
  0
ARC
  5
1CA
  8
0
  6
CONTINUOUS
 10
194.47986610710001
 20
70.288090295100005
 30
0.0
 40
0.2512620364130385
 50
170.2600357835
 51
212.86923833770001
  0
ARC
  5
1CB
  8
0
  6
CONTINUOUS
 10
195.2588897448
 20
69.013823074900003
 30
0.0
 40
0.2885252463239994
 50
208.85560973939999
 51
238.04529841109999
  0
LINE
  5
1CC
  8
0
  6
CONTINUOUS
 10
198.5952754958
 20
66.754811737200001
 30
0.0
 11
195.10618815449999
 21
68.769018985700001
 31
0.0
  0
LINE
  5
1CD
  8
0
  6
CONTINUOUS
 10
194.23222583539999
 20
70.330598021
 30
0.0
 11
194.3600864663
 21
70.807818581800007
 31
0.0
  0
POLYLINE
  5
1CE
  8
0
  6
CONTINUOUS
 66
     1
 10
0.0
 20
0.0
 30
0.0
 70
   128
  0
VERTEX
  5
F2A
  8
0
  6
CONTINUOUS
 10
238.2240175888
 20
96.129927022600015
 30
0.0
  0
VERTEX
  5
F2B
  8
0
  6
CONTINUOUS
 10
238.2248274998
 20
96.119185597000012
 30
0.0
  0
VERTEX
  5
F2C
  8
0
  6
CONTINUOUS
 10
238.23609635700001
 20
96.103211870600006
 30
0.0
  0
VERTEX
  5
F2D
  8
0
  6
CONTINUOUS
 10
238.25886383970001
 20
96.101335222999992
 30
0.0
  0
VERTEX
  5
F2E
  8
0
  6
CONTINUOUS
 10
238.289663956
 20
96.113841171600001
 30
0.0
  0
VERTEX
  5
F2F
  8
0
  6
CONTINUOUS
 10
238.3238073711
 20
96.138826325699995
 30
0.0
  0
VERTEX
  5
F30
  8
0
  6
CONTINUOUS
 10
238.3560963537
 20
96.172486394100005
 30
0.0
  0
VERTEX
  5
F31
  8
0
  6
CONTINUOUS
 10
238.38161506040001
 20
96.209697129199995
 30
0.0
  0
VERTEX
  5
F32
  8
0
  6
CONTINUOUS
 10
238.38953040320001
 20
96.225475536500014
 30
0.0
  0
SEQEND
  5
F33
  8
0
  6
CONTINUOUS
  0
POLYLINE
  5
1CF
  8
0
  6
CONTINUOUS
 66
     1
 10
0.0
 20
0.0
 30
0.0
 70
   128
  0
VERTEX
  5
F34
  8
0
  6
CONTINUOUS
 10
281.17569232549999
 20
120.8714183694
 30
0.0
  0
VERTEX
  5
F35
  8
0
  6
CONTINUOUS
 10
281.14488982810002
 20
120.85891104629999
 30
0.0
  0
VERTEX
  5
F36
  8
0
  6
CONTINUOUS
 10
281.12212447130003
 20
120.8607889211
 30
0.0
  0
VERTEX
  5
F37
  8
0
  6
CONTINUOUS
 10
281.1108522966
 20
120.8767607324
 30
0.0
  0
VERTEX
  5
F38
  8
0
  6
CONTINUOUS
 10
281.11004281369998
 20
120.88750240509999
 30
0.0
  0
SEQEND
  5
F39
  8
0
  6
CONTINUOUS
  0
LINE
  5
1D0
  8
0
  6
CONTINUOUS
 10
281.43024664640001
 20
121.018369451
 30
0.0
 11
281.17569232549999
 21
120.8714183694
 31
0.0
  0
ARC
  5
1D1
  8
0
  6
CONTINUOUS
 10
281.29406276669999
 20
121.24068908309999
 30
0.0
 40
0.2607145333879344
 50
301.48992532839998
 51
334.8785214909999
  0
ARC
  5
1D2
  8
0
  6
CONTINUOUS
 10
195.26745170679999
 20
71.57858360580002
 30
0.0
 40
0.2607145333880355
 50
301.48992532839998
 51
334.87852149090008
  0
POLYLINE
  5
1D3
  8
0
  6
CONTINUOUS
 66
     1
 10
0.0
 20
0.0
 30
0.0
 70
   128
  0
VERTEX
  5
F3A
  8
0
  6
CONTINUOUS
 10
195.08343175389999
 20
71.225396927899979
 30
0.0
  0
VERTEX
  5
F3B
  8
0
  6
CONTINUOUS
 10
195.08424123680001
 20
71.2146552552
 30
0.0
  0
VERTEX
  5
F3C
  8
0
  6
CONTINUOUS
 10
195.09551341139999
 20
71.198683443900009
 30
0.0
  0
VERTEX
  5
F3D
  8
0
  6
CONTINUOUS
 10
195.1182787681999
 20
71.196805569099993
 30
0.0
  0
VERTEX
  5
F3E
  8
0
  6
CONTINUOUS
 10
195.14908126559999
 20
71.209312892200003
 30
0.0
  0
SEQEND
  5
F3F
  8
0
  6
CONTINUOUS
  0
LINE
  5
1D4
  8
0
  6
CONTINUOUS
 10
195.14908126559999
 20
71.209312892200003
 30
0.0
 11
195.40363558659999
 21
71.356263973799997
 31
0.0
  0
LINE
  5
1D5
  8
0
  6
CONTINUOUS
 10
281.27767163039999
 20
120.98387560899999
 30
0.0
 11
281.5298783719
 21
121.12947146170001
 31
0.0
  0
ARC
  5
1D6
  8
0
  6
CONTINUOUS
 10
281.41399690819998
 20
120.7614031736
 30
0.0
 40
0.2609186959298825
 50
121.4988754953
 51
154.73258812149999
  0
LINE
  5
1D7
  8
0
  6
CONTINUOUS
 10
286.52974188860009
 20
117.4506730303
 30
0.0
 11
198.69527547929999
 21
66.744914874599999
 31
0.0
  0
ARC
  5
1D8
  8
0
  6
CONTINUOUS
 10
198.65385816450001
 20
66.83658448109999
 30
0.0
 40
0.1005918023941755
 50
234.3818757425999
 51
294.31396464490001
  0
ARC
  5
1D9
  8
0
  6
CONTINUOUS
 10
238.5287639917
 20
96.003271773500003
 30
0.0
 40
0.261874635860139
 50
122.18458477750001
 51
154.68840647900001
  0
LINE
  5
1DA
  8
0
  6
CONTINUOUS
 10
195.50326731199999
 20
71.467365984499992
 30
0.0
 11
195.25106057049999
 21
71.321770131800008
 31
0.0
  0
ARC
  5
1DB
  8
0
  6
CONTINUOUS
 10
195.38738584839999
 20
71.099297696400001
 30
0.0
 40
0.2609186959293219
 50
121.4988754952
 51
154.7325881216
  0
ARC
  5
1DC
  8
0
  6
CONTINUOUS
 10
238.59075983939999
 20
95.938113599899992
 30
0.0
 40
0.3463700115781265
 50
126.3216008118
 51
149.04847918740001
  0
ARC
  5
1DD
  8
0
  6
CONTINUOUS
 10
195.55459952780001
 20
71.105702502399993
 30
0.0
 40
0.3354013727322694
 50
121.8526534332
 51
149.30386575829999
  0
POLYLINE
  5
1DE
  8
0
  6
CONTINUOUS
 66
     1
 10
0.0
 20
0.0
 30
0.0
 70
   128
  0
VERTEX
  5
F40
  8
0
  6
CONTINUOUS
 10
195.4534239221
 20
71.396197662899979
 30
0.0
  0
VERTEX
  5
F41
  8
0
  6
CONTINUOUS
 10
195.44455569839999
 20
71.403882061099992
 30
0.0
  0
VERTEX
  5
F42
  8
0
  6
CONTINUOUS
 10
195.4160978829
 20
71.406228834300009
 30
0.0
  0
VERTEX
  5
F43
  8
0
  6
CONTINUOUS
 10
195.37759594650001
 20
71.390595136599998
 30
0.0
  0
SEQEND
  5
F44
  8
0
  6
CONTINUOUS
  0
ARC
  5
1DF
  8
0
  6
CONTINUOUS
 10
281.60948289869998
 20
120.78414860869999
 30
0.0
 40
0.3353844535986185
 50
121.85194746010001
 51
149.3045717313
  0
POLYLINE
  5
1E0
  8
0
  6
CONTINUOUS
 66
     1
 10
0.0
 20
0.0
 30
0.0
 70
   128
  0
VERTEX
  5
F45
  8
0
  6
CONTINUOUS
 10
281.5004627692
 20
121.0817544403
 30
0.0
  0
VERTEX
  5
F46
  8
0
  6
CONTINUOUS
 10
281.49945150830001
 20
121.08231597690001
 30
0.0
  0
VERTEX
  5
F47
  8
0
  6
CONTINUOUS
 10
281.47098947799998
 20
121.0846603171
 30
0.0
  0
VERTEX
  5
F48
  8
0
  6
CONTINUOUS
 10
281.4324917564
 20
121.0690290525
 30
0.0
  0
SEQEND
  5
F49
  8
0
  6
CONTINUOUS
  0
POLYLINE
  5
AB6
  8
0
 66
     1
 10
0.0
 20
0.0
 30
0.0
 70
     8
  0
VERTEX
  5
AB7
  8
0
 10
282.40699999999998
 20
121.72499999999999
 30
0.0
 70
    32
  0
VERTEX
  5
AB8
  8
0
 10
282.40699999999998
 20
121.72499999999999
 30
0.0
 70
    32
  0
VERTEX
  5
AB9
  8
0
 10
282.40699999999998
 20
121.72499999999999
 30
0.0
 70
    32
  0
VERTEX
  5
ABA
  8
0
 10
282.40600000000001
 20
121.72499999999999
 30
0.0
 70
    32
  0
VERTEX
  5
ABB
  8
0
 10
282.40600000000001
 20
121.724
 30
0.0
 70
    32
  0
VERTEX
  5
ABC
  8
0
 10
282.40600000000001
 20
121.724
 30
0.0
 70
    32
  0
VERTEX
  5
ABD
  8
0
 10
282.40600000000001
 20
121.724
 30
0.0
 70
    32
  0
VERTEX
  5
ABE
  8
0
 10
282.40600000000001
 20
121.724
 30
0.0
 70
    32
  0
VERTEX
  5
ABF
  8
0
 10
282.40600000000001
 20
121.724
 30
0.0
 70
    32
  0
VERTEX
  5
AC0
  8
0
 10
282.40600000000001
 20
121.723
 30
0.0
 70
    32
  0
VERTEX
  5
AC1
  8
0
 10
282.40600000000001
 20
121.723
 30
0.0
 70
    32
  0
VERTEX
  5
AC2
  8
0
 10
282.40600000000001
 20
121.723
 30
0.0
 70
    32
  0
VERTEX
  5
AC3
  8
0
 10
282.40600000000001
 20
121.723
 30
0.0
 70
    32
  0
VERTEX
  5
AC4
  8
0
 10
282.40600000000001
 20
121.723
 30
0.0
 70
    32
  0
VERTEX
  5
AC5
  8
0
 10
282.40499999999997
 20
121.72199999999999
 30
0.0
 70
    32
  0
VERTEX
  5
AC6
  8
0
 10
282.40499999999997
 20
121.72199999999999
 30
0.0
 70
    32
  0
VERTEX
  5
AC7
  8
0
 10
282.40499999999997
 20
121.72199999999999
 30
0.0
 70
    32
  0
VERTEX
  5
AC8
  8
0
 10
282.40499999999997
 20
121.72199999999999
 30
0.0
 70
    32
  0
VERTEX
  5
AC9
  8
0
 10
282.40499999999997
 20
121.72199999999999
 30
0.0
 70
    32
  0
VERTEX
  5
ACA
  8
0
 10
282.40499999999997
 20
121.721
 30
0.0
 70
    32
  0
VERTEX
  5
ACB
  8
0
 10
282.40499999999997
 20
121.721
 30
0.0
 70
    32
  0
VERTEX
  5
ACC
  8
0
 10
282.40499999999997
 20
121.721
 30
0.0
 70
    32
  0
VERTEX
  5
ACD
  8
0
 10
282.40499999999997
 20
121.721
 30
0.0
 70
    32
  0
VERTEX
  5
ACE
  8
0
 10
282.40499999999997
 20
121.721
 30
0.0
 70
    32
  0
VERTEX
  5
ACF
  8
0
 10
282.404
 20
121.72
 30
0.0
 70
    32
  0
VERTEX
  5
AD0
  8
0
 10
282.404
 20
121.72
 30
0.0
 70
    32
  0
VERTEX
  5
AD1
  8
0
 10
282.404
 20
121.72
 30
0.0
 70
    32
  0
VERTEX
  5
AD2
  8
0
 10
282.404
 20
121.72
 30
0.0
 70
    32
  0
VERTEX
  5
AD3
  8
0
 10
282.404
 20
121.72
 30
0.0
 70
    32
  0
VERTEX
  5
AD4
  8
0
 10
282.404
 20
121.71899999999999
 30
0.0
 70
    32
  0
VERTEX
  5
AD5
  8
0
 10
282.404
 20
121.71899999999999
 30
0.0
 70
    32
  0
VERTEX
  5
AD6
  8
0
 10
282.404
 20
121.71899999999999
 30
0.0
 70
    32
  0
VERTEX
  5
AD7
  8
0
 10
282.404
 20
121.71899999999999
 30
0.0
 70
    32
  0
VERTEX
  5
AD8
  8
0
 10
282.404
 20
121.71899999999999
 30
0.0
 70
    32
  0
VERTEX
  5
AD9
  8
0
 10
282.40300000000002
 20
121.718
 30
0.0
 70
    32
  0
VERTEX
  5
ADA
  8
0
 10
282.40300000000002
 20
121.718
 30
0.0
 70
    32
  0
VERTEX
  5
ADB
  8
0
 10
282.40300000000002
 20
121.718
 30
0.0
 70
    32
  0
VERTEX
  5
ADC
  8
0
 10
282.40300000000002
 20
121.718
 30
0.0
 70
    32
  0
VERTEX
  5
ADD
  8
0
 10
282.40300000000002
 20
121.718
 30
0.0
 70
    32
  0
VERTEX
  5
ADE
  8
0
 10
282.40300000000002
 20
121.718
 30
0.0
 70
    32
  0
VERTEX
  5
ADF
  8
0
 10
282.40300000000002
 20
121.717
 30
0.0
 70
    32
  0
VERTEX
  5
AE0
  8
0
 10
282.40300000000002
 20
121.717
 30
0.0
 70
    32
  0
VERTEX
  5
AE1
  8
0
 10
282.40300000000002
 20
121.717
 30
0.0
 70
    32
  0
VERTEX
  5
AE2
  8
0
 10
282.40199999999999
 20
121.717
 30
0.0
 70
    32
  0
VERTEX
  5
AE3
  8
0
 10
282.40199999999999
 20
121.717
 30
0.0
 70
    32
  0
VERTEX
  5
AE4
  8
0
 10
282.40199999999999
 20
121.71599999999999
 30
0.0
 70
    32
  0
VERTEX
  5
AE5
  8
0
 10
282.40199999999999
 20
121.71599999999999
 30
0.0
 70
    32
  0
VERTEX
  5
AE6
  8
0
 10
282.40199999999999
 20
121.71599999999999
 30
0.0
 70
    32
  0
VERTEX
  5
AE7
  8
0
 10
282.40199999999999
 20
121.71599999999999
 30
0.0
 70
    32
  0
VERTEX
  5
AE8
  8
0
 10
282.40199999999999
 20
121.715
 30
0.0
 70
    32
  0
VERTEX
  5
AE9
  8
0
 10
282.40199999999999
 20
121.715
 30
0.0
 70
    32
  0
VERTEX
  5
AEA
  8
0
 10
282.40199999999999
 20
121.715
 30
0.0
 70
    32
  0
VERTEX
  5
AEB
  8
0
 10
282.40199999999999
 20
121.715
 30
0.0
 70
    32
  0
VERTEX
  5
AEC
  8
0
 10
282.40100000000001
 20
121.715
 30
0.0
 70
    32
  0
VERTEX
  5
AED
  8
0
 10
282.40100000000001
 20
121.714
 30
0.0
 70
    32
  0
VERTEX
  5
AEE
  8
0
 10
282.40100000000001
 20
121.714
 30
0.0
 70
    32
  0
VERTEX
  5
AEF
  8
0
 10
282.40100000000001
 20
121.714
 30
0.0
 70
    32
  0
VERTEX
  5
AF0
  8
0
 10
282.40100000000001
 20
121.714
 30
0.0
 70
    32
  0
VERTEX
  5
AF1
  8
0
 10
282.40100000000001
 20
121.714
 30
0.0
 70
    32
  0
VERTEX
  5
AF2
  8
0
 10
282.40100000000001
 20
121.71299999999999
 30
0.0
 70
    32
  0
VERTEX
  5
AF3
  8
0
 10
282.40100000000001
 20
121.71299999999999
 30
0.0
 70
    32
  0
VERTEX
  5
AF4
  8
0
 10
282.39999999999998
 20
121.71299999999999
 30
0.0
 70
    32
  0
VERTEX
  5
AF5
  8
0
 10
282.39999999999998
 20
121.71299999999999
 30
0.0
 70
    32
  0
VERTEX
  5
AF6
  8
0
 10
282.39999999999998
 20
121.71299999999999
 30
0.0
 70
    32
  0
VERTEX
  5
AF7
  8
0
 10
282.39999999999998
 20
121.712
 30
0.0
 70
    32
  0
VERTEX
  5
AF8
  8
0
 10
282.39999999999998
 20
121.712
 30
0.0
 70
    32
  0
VERTEX
  5
AF9
  8
0
 10
282.39999999999998
 20
121.712
 30
0.0
 70
    32
  0
VERTEX
  5
AFA
  8
0
 10
282.39999999999998
 20
121.712
 30
0.0
 70
    32
  0
VERTEX
  5
AFB
  8
0
 10
282.39999999999998
 20
121.712
 30
0.0
 70
    32
  0
VERTEX
  5
AFC
  8
0
 10
282.399
 20
121.711
 30
0.0
 70
    32
  0
VERTEX
  5
AFD
  8
0
 10
282.399
 20
121.711
 30
0.0
 70
    32
  0
VERTEX
  5
AFE
  8
0
 10
282.399
 20
121.711
 30
0.0
 70
    32
  0
VERTEX
  5
AFF
  8
0
 10
282.399
 20
121.711
 30
0.0
 70
    32
  0
VERTEX
  5
B00
  8
0
 10
282.399
 20
121.711
 30
0.0
 70
    32
  0
VERTEX
  5
B01
  8
0
 10
282.399
 20
121.70999999999999
 30
0.0
 70
    32
  0
VERTEX
  5
B02
  8
0
 10
282.399
 20
121.70999999999999
 30
0.0
 70
    32
  0
VERTEX
  5
B03
  8
0
 10
282.399
 20
121.70999999999999
 30
0.0
 70
    32
  0
VERTEX
  5
B04
  8
0
 10
282.39800000000002
 20
121.70999999999999
 30
0.0
 70
    32
  0
VERTEX
  5
B05
  8
0
 10
282.39800000000002
 20
121.70999999999999
 30
0.0
 70
    32
  0
VERTEX
  5
B06
  8
0
 10
282.39800000000002
 20
121.709
 30
0.0
 70
    32
  0
VERTEX
  5
B07
  8
0
 10
282.39800000000002
 20
121.709
 30
0.0
 70
    32
  0
VERTEX
  5
B08
  8
0
 10
282.39800000000002
 20
121.709
 30
0.0
 70
    32
  0
VERTEX
  5
B09
  8
0
 10
282.39800000000002
 20
121.709
 30
0.0
 70
    32
  0
VERTEX
  5
B0A
  8
0
 10
282.39800000000002
 20
121.708
 30
0.0
 70
    32
  0
VERTEX
  5
B0B
  8
0
 10
282.39699999999999
 20
121.708
 30
0.0
 70
    32
  0
VERTEX
  5
B0C
  8
0
 10
282.39699999999999
 20
121.708
 30
0.0
 70
    32
  0
VERTEX
  5
B0D
  8
0
 10
282.39699999999999
 20
121.708
 30
0.0
 70
    32
  0
VERTEX
  5
B0E
  8
0
 10
282.39699999999999
 20
121.708
 30
0.0
 70
    32
  0
VERTEX
  5
B0F
  8
0
 10
282.39699999999999
 20
121.70699999999999
 30
0.0
 70
    32
  0
VERTEX
  5
B10
  8
0
 10
282.39699999999999
 20
121.70699999999999
 30
0.0
 70
    32
  0
VERTEX
  5
B11
  8
0
 10
282.39699999999999
 20
121.70699999999999
 30
0.0
 70
    32
  0
VERTEX
  5
B12
  8
0
 10
282.3959999999999
 20
121.70699999999999
 30
0.0
 70
    32
  0
VERTEX
  5
B13
  8
0
 10
282.3959999999999
 20
121.706
 30
0.0
 70
    32
  0
VERTEX
  5
B14
  8
0
 10
282.3959999999999
 20
121.706
 30
0.0
 70
    32
  0
VERTEX
  5
B15
  8
0
 10
282.3959999999999
 20
121.706
 30
0.0
 70
    32
  0
VERTEX
  5
B16
  8
0
 10
282.3959999999999
 20
121.706
 30
0.0
 70
    32
  0
VERTEX
  5
B17
  8
0
 10
282.3959999999999
 20
121.706
 30
0.0
 70
    32
  0
VERTEX
  5
B18
  8
0
 10
282.3959999999999
 20
121.705
 30
0.0
 70
    32
  0
VERTEX
  5
B19
  8
0
 10
282.39499999999998
 20
121.705
 30
0.0
 70
    32
  0
VERTEX
  5
B1A
  8
0
 10
282.39499999999998
 20
121.705
 30
0.0
 70
    32
  0
VERTEX
  5
B1B
  8
0
 10
282.39499999999998
 20
121.705
 30
0.0
 70
    32
  0
VERTEX
  5
B1C
  8
0
 10
282.39499999999998
 20
121.705
 30
0.0
 70
    32
  0
VERTEX
  5
B1D
  8
0
 10
282.39499999999998
 20
121.70399999999999
 30
0.0
 70
    32
  0
VERTEX
  5
B1E
  8
0
 10
282.39499999999998
 20
121.70399999999999
 30
0.0
 70
    32
  0
VERTEX
  5
B1F
  8
0
 10
282.39400000000001
 20
121.70399999999999
 30
0.0
 70
    32
  0
VERTEX
  5
B20
  8
0
 10
282.39400000000001
 20
121.70399999999999
 30
0.0
 70
    32
  0
VERTEX
  5
B21
  8
0
 10
282.39400000000001
 20
121.703
 30
0.0
 70
    32
  0
VERTEX
  5
B22
  8
0
 10
282.39400000000001
 20
121.703
 30
0.0
 70
    32
  0
VERTEX
  5
B23
  8
0
 10
282.39400000000001
 20
121.703
 30
0.0
 70
    32
  0
VERTEX
  5
B24
  8
0
 10
282.39400000000001
 20
121.703
 30
0.0
 70
    32
  0
VERTEX
  5
B25
  8
0
 10
282.39400000000001
 20
121.703
 30
0.0
 70
    32
  0
VERTEX
  5
B26
  8
0
 10
282.39299999999997
 20
121.702
 30
0.0
 70
    32
  0
VERTEX
  5
B27
  8
0
 10
282.39299999999997
 20
121.702
 30
0.0
 70
    32
  0
VERTEX
  5
B28
  8
0
 10
282.39299999999997
 20
121.702
 30
0.0
 70
    32
  0
VERTEX
  5
B29
  8
0
 10
282.39299999999997
 20
121.702
 30
0.0
 70
    32
  0
VERTEX
  5
B2A
  8
0
 10
282.39299999999997
 20
121.70099999999999
 30
0.0
 70
    32
  0
VERTEX
  5
B2B
  8
0
 10
282.392
 20
121.70099999999999
 30
0.0
 70
    32
  0
VERTEX
  5
B2C
  8
0
 10
282.392
 20
121.70099999999999
 30
0.0
 70
    32
  0
VERTEX
  5
B2D
  8
0
 10
282.392
 20
121.70099999999999
 30
0.0
 70
    32
  0
VERTEX
  5
B2E
  8
0
 10
282.392
 20
121.70099999999999
 30
0.0
 70
    32
  0
VERTEX
  5
B2F
  8
0
 10
282.392
 20
121.7
 30
0.0
 70
    32
  0
VERTEX
  5
B30
  8
0
 10
282.392
 20
121.7
 30
0.0
 70
    32
  0
VERTEX
  5
B31
  8
0
 10
282.39100000000002
 20
121.7
 30
0.0
 70
    32
  0
VERTEX
  5
B32
  8
0
 10
282.39100000000002
 20
121.7
 30
0.0
 70
    32
  0
VERTEX
  5
B33
  8
0
 10
282.39100000000002
 20
121.699
 30
0.0
 70
    32
  0
VERTEX
  5
B34
  8
0
 10
282.39100000000002
 20
121.699
 30
0.0
 70
    32
  0
VERTEX
  5
B35
  8
0
 10
282.39100000000002
 20
121.699
 30
0.0
 70
    32
  0
VERTEX
  5
B36
  8
0
 10
282.39100000000002
 20
121.699
 30
0.0
 70
    32
  0
VERTEX
  5
B37
  8
0
 10
282.38999999999999
 20
121.699
 30
0.0
 70
    32
  0
VERTEX
  5
B38
  8
0
 10
282.38999999999999
 20
121.69799999999999
 30
0.0
 70
    32
  0
VERTEX
  5
B39
  8
0
 10
282.38999999999999
 20
121.69799999999999
 30
0.0
 70
    32
  0
VERTEX
  5
B3A
  8
0
 10
282.38999999999999
 20
121.69799999999999
 30
0.0
 70
    32
  0
VERTEX
  5
B3B
  8
0
 10
282.38999999999999
 20
121.69799999999999
 30
0.0
 70
    32
  0
VERTEX
  5
B3C
  8
0
 10
282.38900000000001
 20
121.697
 30
0.0
 70
    32
  0
VERTEX
  5
B3D
  8
0
 10
282.38900000000001
 20
121.697
 30
0.0
 70
    32
  0
VERTEX
  5
B3E
  8
0
 10
282.38900000000001
 20
121.697
 30
0.0
 70
    32
  0
VERTEX
  5
B3F
  8
0
 10
282.38900000000001
 20
121.697
 30
0.0
 70
    32
  0
VERTEX
  5
B40
  8
0
 10
282.38900000000001
 20
121.697
 30
0.0
 70
    32
  0
VERTEX
  5
B41
  8
0
 10
282.38900000000001
 20
121.696
 30
0.0
 70
    32
  0
VERTEX
  5
B42
  8
0
 10
282.38799999999998
 20
121.696
 30
0.0
 70
    32
  0
VERTEX
  5
B43
  8
0
 10
282.38799999999998
 20
121.696
 30
0.0
 70
    32
  0
VERTEX
  5
B44
  8
0
 10
282.38799999999998
 20
121.696
 30
0.0
 70
    32
  0
VERTEX
  5
B45
  8
0
 10
282.38799999999998
 20
121.696
 30
0.0
 70
    32
  0
VERTEX
  5
B46
  8
0
 10
282.38799999999998
 20
121.69499999999999
 30
0.0
 70
    32
  0
VERTEX
  5
B47
  8
0
 10
282.387
 20
121.69499999999999
 30
0.0
 70
    32
  0
VERTEX
  5
B48
  8
0
 10
282.387
 20
121.69499999999999
 30
0.0
 70
    32
  0
VERTEX
  5
B49
  8
0
 10
282.387
 20
121.69499999999999
 30
0.0
 70
    32
  0
VERTEX
  5
B4A
  8
0
 10
282.387
 20
121.694
 30
0.0
 70
    32
  0
VERTEX
  5
B4B
  8
0
 10
282.387
 20
121.694
 30
0.0
 70
    32
  0
VERTEX
  5
B4C
  8
0
 10
282.38600000000002
 20
121.694
 30
0.0
 70
    32
  0
VERTEX
  5
B4D
  8
0
 10
282.38600000000002
 20
121.694
 30
0.0
 70
    32
  0
VERTEX
  5
B4E
  8
0
 10
282.38600000000002
 20
121.694
 30
0.0
 70
    32
  0
VERTEX
  5
B4F
  8
0
 10
282.38600000000002
 20
121.693
 30
0.0
 70
    32
  0
VERTEX
  5
B50
  8
0
 10
282.38600000000002
 20
121.693
 30
0.0
 70
    32
  0
VERTEX
  5
B51
  8
0
 10
282.38499999999999
 20
121.693
 30
0.0
 70
    32
  0
VERTEX
  5
B52
  8
0
 10
282.38499999999999
 20
121.693
 30
0.0
 70
    32
  0
VERTEX
  5
B53
  8
0
 10
282.38499999999999
 20
121.693
 30
0.0
 70
    32
  0
VERTEX
  5
B54
  8
0
 10
282.38499999999999
 20
121.69199999999999
 30
0.0
 70
    32
  0
VERTEX
  5
B55
  8
0
 10
282.38499999999999
 20
121.69199999999999
 30
0.0
 70
    32
  0
VERTEX
  5
B56
  8
0
 10
282.38400000000001
 20
121.69199999999999
 30
0.0
 70
    32
  0
VERTEX
  5
B57
  8
0
 10
282.38400000000001
 20
121.69199999999999
 30
0.0
 70
    32
  0
VERTEX
  5
B58
  8
0
 10
282.38400000000001
 20
121.69199999999999
 30
0.0
 70
    32
  0
VERTEX
  5
B59
  8
0
 10
282.38400000000001
 20
121.691
 30
0.0
 70
    32
  0
VERTEX
  5
B5A
  8
0
 10
282.38400000000001
 20
121.691
 30
0.0
 70
    32
  0
VERTEX
  5
B5B
  8
0
 10
282.38299999999998
 20
121.691
 30
0.0
 70
    32
  0
VERTEX
  5
B5C
  8
0
 10
282.38299999999998
 20
121.691
 30
0.0
 70
    32
  0
VERTEX
  5
B5D
  8
0
 10
282.38299999999998
 20
121.691
 30
0.0
 70
    32
  0
VERTEX
  5
B5E
  8
0
 10
282.38299999999998
 20
121.69
 30
0.0
 70
    32
  0
VERTEX
  5
B5F
  8
0
 10
282.38299999999998
 20
121.69
 30
0.0
 70
    32
  0
VERTEX
  5
B60
  8
0
 10
282.38200000000001
 20
121.69
 30
0.0
 70
    32
  0
VERTEX
  5
B61
  8
0
 10
282.38200000000001
 20
121.69
 30
0.0
 70
    32
  0
VERTEX
  5
B62
  8
0
 10
282.38200000000001
 20
121.69
 30
0.0
 70
    32
  0
VERTEX
  5
B63
  8
0
 10
282.38200000000001
 20
121.68899999999999
 30
0.0
 70
    32
  0
VERTEX
  5
B64
  8
0
 10
282.38200000000001
 20
121.68899999999999
 30
0.0
 70
    32
  0
VERTEX
  5
B65
  8
0
 10
282.38099999999997
 20
121.68899999999999
 30
0.0
 70
    32
  0
VERTEX
  5
B66
  8
0
 10
282.38099999999997
 20
121.68899999999999
 30
0.0
 70
    32
  0
VERTEX
  5
B67
  8
0
 10
282.38099999999997
 20
121.68899999999999
 30
0.0
 70
    32
  0
VERTEX
  5
B68
  8
0
 10
282.38099999999997
 20
121.688
 30
0.0
 70
    32
  0
VERTEX
  5
B69
  8
0
 10
282.38
 20
121.688
 30
0.0
 70
    32
  0
VERTEX
  5
B6A
  8
0
 10
282.38
 20
121.688
 30
0.0
 70
    32
  0
VERTEX
  5
B6B
  8
0
 10
282.38
 20
121.688
 30
0.0
 70
    32
  0
VERTEX
  5
B6C
  8
0
 10
282.38
 20
121.688
 30
0.0
 70
    32
  0
VERTEX
  5
B6D
  8
0
 10
282.38
 20
121.687
 30
0.0
 70
    32
  0
VERTEX
  5
B6E
  8
0
 10
282.37900000000002
 20
121.687
 30
0.0
 70
    32
  0
VERTEX
  5
B6F
  8
0
 10
282.37900000000002
 20
121.687
 30
0.0
 70
    32
  0
VERTEX
  5
B70
  8
0
 10
282.37900000000002
 20
121.687
 30
0.0
 70
    32
  0
VERTEX
  5
B71
  8
0
 10
282.37900000000002
 20
121.687
 30
0.0
 70
    32
  0
VERTEX
  5
B72
  8
0
 10
282.37900000000002
 20
121.68600000000001
 30
0.0
 70
    32
  0
VERTEX
  5
B73
  8
0
 10
282.37799999999999
 20
121.68600000000001
 30
0.0
 70
    32
  0
VERTEX
  5
B74
  8
0
 10
282.37799999999999
 20
121.68600000000001
 30
0.0
 70
    32
  0
VERTEX
  5
B75
  8
0
 10
282.37799999999999
 20
121.68600000000001
 30
0.0
 70
    32
  0
VERTEX
  5
B76
  8
0
 10
282.37799999999999
 20
121.68600000000001
 30
0.0
 70
    32
  0
SEQEND
  5
B77
  8
0
  0
POLYLINE
  5
B78
  8
0
 66
     1
 10
0.0
 20
0.0
 30
0.0
 70
     8
  0
VERTEX
  5
B79
  8
0
 10
276.92000000000002
 20
127.054
 30
0.0
 70
    32
  0
VERTEX
  5
B7A
  8
0
 10
276.92000000000002
 20
127.054
 30
0.0
 70
    32
  0
VERTEX
  5
B7B
  8
0
 10
276.92099999999999
 20
127.054
 30
0.0
 70
    32
  0
VERTEX
  5
B7C
  8
0
 10
276.92099999999999
 20
127.054
 30
0.0
 70
    32
  0
VERTEX
  5
B7D
  8
0
 10
276.92099999999999
 20
127.05500000000001
 30
0.0
 70
    32
  0
VERTEX
  5
B7E
  8
0
 10
276.92099999999999
 20
127.05500000000001
 30
0.0
 70
    32
  0
VERTEX
  5
B7F
  8
0
 10
276.92200000000003
 20
127.05500000000001
 30
0.0
 70
    32
  0
VERTEX
  5
B80
  8
0
 10
276.92200000000003
 20
127.05500000000001
 30
0.0
 70
    32
  0
VERTEX
  5
B81
  8
0
 10
276.92200000000003
 20
127.056
 30
0.0
 70
    32
  0
VERTEX
  5
B82
  8
0
 10
276.92200000000003
 20
127.056
 30
0.0
 70
    32
  0
VERTEX
  5
B83
  8
0
 10
276.92200000000003
 20
127.056
 30
0.0
 70
    32
  0
VERTEX
  5
B84
  8
0
 10
276.923
 20
127.056
 30
0.0
 70
    32
  0
VERTEX
  5
B85
  8
0
 10
276.923
 20
127.056
 30
0.0
 70
    32
  0
VERTEX
  5
B86
  8
0
 10
276.923
 20
127.057
 30
0.0
 70
    32
  0
VERTEX
  5
B87
  8
0
 10
276.923
 20
127.057
 30
0.0
 70
    32
  0
VERTEX
  5
B88
  8
0
 10
276.923
 20
127.057
 30
0.0
 70
    32
  0
VERTEX
  5
B89
  8
0
 10
276.92399999999998
 20
127.057
 30
0.0
 70
    32
  0
VERTEX
  5
B8A
  8
0
 10
276.92399999999998
 20
127.057
 30
0.0
 70
    32
  0
VERTEX
  5
B8B
  8
0
 10
276.92399999999998
 20
127.05800000000001
 30
0.0
 70
    32
  0
VERTEX
  5
B8C
  8
0
 10
276.92399999999998
 20
127.05800000000001
 30
0.0
 70
    32
  0
VERTEX
  5
B8D
  8
0
 10
276.92399999999998
 20
127.05800000000001
 30
0.0
 70
    32
  0
VERTEX
  5
B8E
  8
0
 10
276.92500000000001
 20
127.05800000000001
 30
0.0
 70
    32
  0
VERTEX
  5
B8F
  8
0
 10
276.92500000000001
 20
127.05800000000001
 30
0.0
 70
    32
  0
VERTEX
  5
B90
  8
0
 10
276.92500000000001
 20
127.059
 30
0.0
 70
    32
  0
VERTEX
  5
B91
  8
0
 10
276.92500000000001
 20
127.059
 30
0.0
 70
    32
  0
VERTEX
  5
B92
  8
0
 10
276.92500000000001
 20
127.059
 30
0.0
 70
    32
  0
VERTEX
  5
B93
  8
0
 10
276.92599999999999
 20
127.059
 30
0.0
 70
    32
  0
VERTEX
  5
B94
  8
0
 10
276.92599999999999
 20
127.06
 30
0.0
 70
    32
  0
VERTEX
  5
B95
  8
0
 10
276.92599999999999
 20
127.06
 30
0.0
 70
    32
  0
VERTEX
  5
B96
  8
0
 10
276.92599999999999
 20
127.06
 30
0.0
 70
    32
  0
VERTEX
  5
B97
  8
0
 10
276.92599999999999
 20
127.06
 30
0.0
 70
    32
  0
VERTEX
  5
B98
  8
0
 10
276.92700000000002
 20
127.06
 30
0.0
 70
    32
  0
VERTEX
  5
B99
  8
0
 10
276.92700000000002
 20
127.06100000000001
 30
0.0
 70
    32
  0
VERTEX
  5
B9A
  8
0
 10
276.92700000000002
 20
127.06100000000001
 30
0.0
 70
    32
  0
VERTEX
  5
B9B
  8
0
 10
276.92700000000002
 20
127.06100000000001
 30
0.0
 70
    32
  0
VERTEX
  5
B9C
  8
0
 10
276.92700000000002
 20
127.06100000000001
 30
0.0
 70
    32
  0
VERTEX
  5
B9D
  8
0
 10
276.928
 20
127.06100000000001
 30
0.0
 70
    32
  0
VERTEX
  5
B9E
  8
0
 10
276.928
 20
127.062
 30
0.0
 70
    32
  0
VERTEX
  5
B9F
  8
0
 10
276.928
 20
127.062
 30
0.0
 70
    32
  0
VERTEX
  5
BA0
  8
0
 10
276.928
 20
127.062
 30
0.0
 70
    32
  0
VERTEX
  5
BA1
  8
0
 10
276.928
 20
127.062
 30
0.0
 70
    32
  0
VERTEX
  5
BA2
  8
0
 10
276.92899999999997
 20
127.063
 30
0.0
 70
    32
  0
VERTEX
  5
BA3
  8
0
 10
276.92899999999997
 20
127.063
 30
0.0
 70
    32
  0
VERTEX
  5
BA4
  8
0
 10
276.92899999999997
 20
127.063
 30
0.0
 70
    32
  0
VERTEX
  5
BA5
  8
0
 10
276.92899999999997
 20
127.063
 30
0.0
 70
    32
  0
VERTEX
  5
BA6
  8
0
 10
276.92899999999997
 20
127.06399999999999
 30
0.0
 70
    32
  0
VERTEX
  5
BA7
  8
0
 10
276.92899999999997
 20
127.06399999999999
 30
0.0
 70
    32
  0
VERTEX
  5
BA8
  8
0
 10
276.93000000000001
 20
127.06399999999999
 30
0.0
 70
    32
  0
VERTEX
  5
BA9
  8
0
 10
276.93000000000001
 20
127.06399999999999
 30
0.0
 70
    32
  0
VERTEX
  5
BAA
  8
0
 10
276.93000000000001
 20
127.06399999999999
 30
0.0
 70
    32
  0
VERTEX
  5
BAB
  8
0
 10
276.93000000000001
 20
127.065
 30
0.0
 70
    32
  0
VERTEX
  5
BAC
  8
0
 10
276.93000000000001
 20
127.065
 30
0.0
 70
    32
  0
VERTEX
  5
BAD
  8
0
 10
276.93099999999998
 20
127.065
 30
0.0
 70
    32
  0
VERTEX
  5
BAE
  8
0
 10
276.93099999999998
 20
127.065
 30
0.0
 70
    32
  0
VERTEX
  5
BAF
  8
0
 10
276.93099999999998
 20
127.066
 30
0.0
 70
    32
  0
VERTEX
  5
BB0
  8
0
 10
276.93099999999998
 20
127.066
 30
0.0
 70
    32
  0
VERTEX
  5
BB1
  8
0
 10
276.93099999999998
 20
127.066
 30
0.0
 70
    32
  0
VERTEX
  5
BB2
  8
0
 10
276.93099999999998
 20
127.066
 30
0.0
 70
    32
  0
VERTEX
  5
BB3
  8
0
 10
276.93200000000002
 20
127.066
 30
0.0
 70
    32
  0
VERTEX
  5
BB4
  8
0
 10
276.93200000000002
 20
127.06699999999999
 30
0.0
 70
    32
  0
VERTEX
  5
BB5
  8
0
 10
276.93200000000002
 20
127.06699999999999
 30
0.0
 70
    32
  0
VERTEX
  5
BB6
  8
0
 10
276.93200000000002
 20
127.06699999999999
 30
0.0
 70
    32
  0
VERTEX
  5
BB7
  8
0
 10
276.93200000000002
 20
127.06699999999999
 30
0.0
 70
    32
  0
VERTEX
  5
BB8
  8
0
 10
276.93299999999999
 20
127.068
 30
0.0
 70
    32
  0
VERTEX
  5
BB9
  8
0
 10
276.93299999999999
 20
127.068
 30
0.0
 70
    32
  0
VERTEX
  5
BBA
  8
0
 10
276.93299999999999
 20
127.068
 30
0.0
 70
    32
  0
VERTEX
  5
BBB
  8
0
 10
276.93299999999999
 20
127.068
 30
0.0
 70
    32
  0
VERTEX
  5
BBC
  8
0
 10
276.93299999999999
 20
127.069
 30
0.0
 70
    32
  0
VERTEX
  5
BBD
  8
0
 10
276.93299999999999
 20
127.069
 30
0.0
 70
    32
  0
VERTEX
  5
BBE
  8
0
 10
276.93400000000003
 20
127.069
 30
0.0
 70
    32
  0
VERTEX
  5
BBF
  8
0
 10
276.93400000000003
 20
127.069
 30
0.0
 70
    32
  0
VERTEX
  5
BC0
  8
0
 10
276.93400000000003
 20
127.069
 30
0.0
 70
    32
  0
VERTEX
  5
BC1
  8
0
 10
276.93400000000003
 20
127.06999999999999
 30
0.0
 70
    32
  0
VERTEX
  5
BC2
  8
0
 10
276.93400000000003
 20
127.06999999999999
 30
0.0
 70
    32
  0
VERTEX
  5
BC3
  8
0
 10
276.93400000000003
 20
127.06999999999999
 30
0.0
 70
    32
  0
VERTEX
  5
BC4
  8
0
 10
276.935
 20
127.06999999999999
 30
0.0
 70
    32
  0
VERTEX
  5
BC5
  8
0
 10
276.935
 20
127.071
 30
0.0
 70
    32
  0
VERTEX
  5
BC6
  8
0
 10
276.935
 20
127.071
 30
0.0
 70
    32
  0
VERTEX
  5
BC7
  8
0
 10
276.935
 20
127.071
 30
0.0
 70
    32
  0
VERTEX
  5
BC8
  8
0
 10
276.935
 20
127.071
 30
0.0
 70
    32
  0
VERTEX
  5
BC9
  8
0
 10
276.935
 20
127.072
 30
0.0
 70
    32
  0
VERTEX
  5
BCA
  8
0
 10
276.93599999999998
 20
127.072
 30
0.0
 70
    32
  0
VERTEX
  5
BCB
  8
0
 10
276.93599999999998
 20
127.072
 30
0.0
 70
    32
  0
VERTEX
  5
BCC
  8
0
 10
276.93599999999998
 20
127.072
 30
0.0
 70
    32
  0
VERTEX
  5
BCD
  8
0
 10
276.93599999999998
 20
127.07299999999999
 30
0.0
 70
    32
  0
VERTEX
  5
BCE
  8
0
 10
276.93599999999998
 20
127.07299999999999
 30
0.0
 70
    32
  0
VERTEX
  5
BCF
  8
0
 10
276.93599999999998
 20
127.07299999999999
 30
0.0
 70
    32
  0
VERTEX
  5
BD0
  8
0
 10
276.93599999999998
 20
127.07299999999999
 30
0.0
 70
    32
  0
VERTEX
  5
BD1
  8
0
 10
276.93700000000001
 20
127.07299999999999
 30
0.0
 70
    32
  0
VERTEX
  5
BD2
  8
0
 10
276.93700000000001
 20
127.074
 30
0.0
 70
    32
  0
VERTEX
  5
BD3
  8
0
 10
276.93700000000001
 20
127.074
 30
0.0
 70
    32
  0
VERTEX
  5
BD4
  8
0
 10
276.93700000000001
 20
127.074
 30
0.0
 70
    32
  0
VERTEX
  5
BD5
  8
0
 10
276.93700000000001
 20
127.074
 30
0.0
 70
    32
  0
VERTEX
  5
BD6
  8
0
 10
276.93700000000001
 20
127.075
 30
0.0
 70
    32
  0
VERTEX
  5
BD7
  8
0
 10
276.93799999999999
 20
127.075
 30
0.0
 70
    32
  0
VERTEX
  5
BD8
  8
0
 10
276.93799999999999
 20
127.075
 30
0.0
 70
    32
  0
VERTEX
  5
BD9
  8
0
 10
276.93799999999999
 20
127.075
 30
0.0
 70
    32
  0
VERTEX
  5
BDA
  8
0
 10
276.93799999999999
 20
127.07599999999999
 30
0.0
 70
    32
  0
VERTEX
  5
BDB
  8
0
 10
276.93799999999999
 20
127.07599999999999
 30
0.0
 70
    32
  0
VERTEX
  5
BDC
  8
0
 10
276.93799999999999
 20
127.07599999999999
 30
0.0
 70
    32
  0
VERTEX
  5
BDD
  8
0
 10
276.93799999999999
 20
127.07599999999999
 30
0.0
 70
    32
  0
VERTEX
  5
BDE
  8
0
 10
276.93900000000002
 20
127.07599999999999
 30
0.0
 70
    32
  0
VERTEX
  5
BDF
  8
0
 10
276.93900000000002
 20
127.077
 30
0.0
 70
    32
  0
VERTEX
  5
BE0
  8
0
 10
276.93900000000002
 20
127.077
 30
0.0
 70
    32
  0
VERTEX
  5
BE1
  8
0
 10
276.93900000000002
 20
127.077
 30
0.0
 70
    32
  0
VERTEX
  5
BE2
  8
0
 10
276.93900000000002
 20
127.077
 30
0.0
 70
    32
  0
VERTEX
  5
BE3
  8
0
 10
276.93900000000002
 20
127.078
 30
0.0
 70
    32
  0
VERTEX
  5
BE4
  8
0
 10
276.93900000000002
 20
127.078
 30
0.0
 70
    32
  0
VERTEX
  5
BE5
  8
0
 10
276.93900000000002
 20
127.078
 30
0.0
 70
    32
  0
VERTEX
  5
BE6
  8
0
 10
276.94
 20
127.078
 30
0.0
 70
    32
  0
VERTEX
  5
BE7
  8
0
 10
276.94
 20
127.07899999999999
 30
0.0
 70
    32
  0
VERTEX
  5
BE8
  8
0
 10
276.94
 20
127.07899999999999
 30
0.0
 70
    32
  0
VERTEX
  5
BE9
  8
0
 10
276.94
 20
127.07899999999999
 30
0.0
 70
    32
  0
VERTEX
  5
BEA
  8
0
 10
276.94
 20
127.07899999999999
 30
0.0
 70
    32
  0
VERTEX
  5
BEB
  8
0
 10
276.94
 20
127.07899999999999
 30
0.0
 70
    32
  0
VERTEX
  5
BEC
  8
0
 10
276.94
 20
127.08
 30
0.0
 70
    32
  0
VERTEX
  5
BED
  8
0
 10
276.94099999999997
 20
127.08
 30
0.0
 70
    32
  0
VERTEX
  5
BEE
  8
0
 10
276.94099999999997
 20
127.08
 30
0.0
 70
    32
  0
VERTEX
  5
BEF
  8
0
 10
276.94099999999997
 20
127.08
 30
0.0
 70
    32
  0
VERTEX
  5
BF0
  8
0
 10
276.94099999999997
 20
127.081
 30
0.0
 70
    32
  0
VERTEX
  5
BF1
  8
0
 10
276.94099999999997
 20
127.081
 30
0.0
 70
    32
  0
VERTEX
  5
BF2
  8
0
 10
276.94099999999997
 20
127.081
 30
0.0
 70
    32
  0
VERTEX
  5
BF3
  8
0
 10
276.94099999999997
 20
127.081
 30
0.0
 70
    32
  0
VERTEX
  5
BF4
  8
0
 10
276.94099999999997
 20
127.081
 30
0.0
 70
    32
  0
VERTEX
  5
BF5
  8
0
 10
276.94099999999997
 20
127.08199999999999
 30
0.0
 70
    32
  0
VERTEX
  5
BF6
  8
0
 10
276.94200000000001
 20
127.08199999999999
 30
0.0
 70
    32
  0
VERTEX
  5
BF7
  8
0
 10
276.94200000000001
 20
127.08199999999999
 30
0.0
 70
    32
  0
VERTEX
  5
BF8
  8
0
 10
276.94200000000001
 20
127.08199999999999
 30
0.0
 70
    32
  0
VERTEX
  5
BF9
  8
0
 10
276.94200000000001
 20
127.083
 30
0.0
 70
    32
  0
VERTEX
  5
BFA
  8
0
 10
276.94200000000001
 20
127.083
 30
0.0
 70
    32
  0
VERTEX
  5
BFB
  8
0
 10
276.94200000000001
 20
127.083
 30
0.0
 70
    32
  0
VERTEX
  5
BFC
  8
0
 10
276.94200000000001
 20
127.083
 30
0.0
 70
    32
  0
VERTEX
  5
BFD
  8
0
 10
276.94200000000001
 20
127.083
 30
0.0
 70
    32
  0
VERTEX
  5
BFE
  8
0
 10
276.94299999999998
 20
127.084
 30
0.0
 70
    32
  0
VERTEX
  5
BFF
  8
0
 10
276.94299999999998
 20
127.084
 30
0.0
 70
    32
  0
VERTEX
  5
C00
  8
0
 10
276.94299999999998
 20
127.084
 30
0.0
 70
    32
  0
VERTEX
  5
C01
  8
0
 10
276.94299999999998
 20
127.084
 30
0.0
 70
    32
  0
VERTEX
  5
C02
  8
0
 10
276.94299999999998
 20
127.084
 30
0.0
 70
    32
  0
VERTEX
  5
C03
  8
0
 10
276.94299999999998
 20
127.08499999999999
 30
0.0
 70
    32
  0
VERTEX
  5
C04
  8
0
 10
276.94299999999998
 20
127.08499999999999
 30
0.0
 70
    32
  0
VERTEX
  5
C05
  8
0
 10
276.94299999999998
 20
127.08499999999999
 30
0.0
 70
    32
  0
VERTEX
  5
C06
  8
0
 10
276.94299999999998
 20
127.08499999999999
 30
0.0
 70
    32
  0
VERTEX
  5
C07
  8
0
 10
276.94299999999998
 20
127.086
 30
0.0
 70
    32
  0
VERTEX
  5
C08
  8
0
 10
276.94400000000002
 20
127.086
 30
0.0
 70
    32
  0
VERTEX
  5
C09
  8
0
 10
276.94400000000002
 20
127.086
 30
0.0
 70
    32
  0
VERTEX
  5
C0A
  8
0
 10
276.94400000000002
 20
127.086
 30
0.0
 70
    32
  0
VERTEX
  5
C0B
  8
0
 10
276.94400000000002
 20
127.086
 30
0.0
 70
    32
  0
VERTEX
  5
C0C
  8
0
 10
276.94400000000002
 20
127.087
 30
0.0
 70
    32
  0
VERTEX
  5
C0D
  8
0
 10
276.94400000000002
 20
127.087
 30
0.0
 70
    32
  0
VERTEX
  5
C0E
  8
0
 10
276.94400000000002
 20
127.087
 30
0.0
 70
    32
  0
VERTEX
  5
C0F
  8
0
 10
276.94400000000002
 20
127.087
 30
0.0
 70
    32
  0
VERTEX
  5
C10
  8
0
 10
276.94400000000002
 20
127.087
 30
0.0
 70
    32
  0
VERTEX
  5
C11
  8
0
 10
276.94400000000002
 20
127.08799999999999
 30
0.0
 70
    32
  0
VERTEX
  5
C12
  8
0
 10
276.94499999999999
 20
127.08799999999999
 30
0.0
 70
    32
  0
VERTEX
  5
C13
  8
0
 10
276.94499999999999
 20
127.08799999999999
 30
0.0
 70
    32
  0
VERTEX
  5
C14
  8
0
 10
276.94499999999999
 20
127.08799999999999
 30
0.0
 70
    32
  0
VERTEX
  5
C15
  8
0
 10
276.94499999999999
 20
127.089
 30
0.0
 70
    32
  0
VERTEX
  5
C16
  8
0
 10
276.94499999999999
 20
127.089
 30
0.0
 70
    32
  0
VERTEX
  5
C17
  8
0
 10
276.94499999999999
 20
127.089
 30
0.0
 70
    32
  0
VERTEX
  5
C18
  8
0
 10
276.94499999999999
 20
127.089
 30
0.0
 70
    32
  0
VERTEX
  5
C19
  8
0
 10
276.94499999999999
 20
127.089
 30
0.0
 70
    32
  0
VERTEX
  5
C1A
  8
0
 10
276.94499999999999
 20
127.09
 30
0.0
 70
    32
  0
VERTEX
  5
C1B
  8
0
 10
276.94499999999999
 20
127.09
 30
0.0
 70
    32
  0
VERTEX
  5
C1C
  8
0
 10
276.94499999999999
 20
127.09
 30
0.0
 70
    32
  0
VERTEX
  5
C1D
  8
0
 10
276.94600000000003
 20
127.09
 30
0.0
 70
    32
  0
VERTEX
  5
C1E
  8
0
 10
276.94600000000003
 20
127.09
 30
0.0
 70
    32
  0
VERTEX
  5
C1F
  8
0
 10
276.94600000000003
 20
127.09099999999999
 30
0.0
 70
    32
  0
VERTEX
  5
C20
  8
0
 10
276.94600000000003
 20
127.09099999999999
 30
0.0
 70
    32
  0
VERTEX
  5
C21
  8
0
 10
276.94600000000003
 20
127.09099999999999
 30
0.0
 70
    32
  0
VERTEX
  5
C22
  8
0
 10
276.94600000000003
 20
127.09099999999999
 30
0.0
 70
    32
  0
VERTEX
  5
C23
  8
0
 10
276.94600000000003
 20
127.09099999999999
 30
0.0
 70
    32
  0
VERTEX
  5
C24
  8
0
 10
276.94600000000003
 20
127.092
 30
0.0
 70
    32
  0
VERTEX
  5
C25
  8
0
 10
276.94600000000003
 20
127.092
 30
0.0
 70
    32
  0
VERTEX
  5
C26
  8
0
 10
276.94600000000003
 20
127.092
 30
0.0
 70
    32
  0
VERTEX
  5
C27
  8
0
 10
276.94600000000003
 20
127.092
 30
0.0
 70
    32
  0
VERTEX
  5
C28
  8
0
 10
276.947
 20
127.093
 30
0.0
 70
    32
  0
VERTEX
  5
C29
  8
0
 10
276.947
 20
127.093
 30
0.0
 70
    32
  0
VERTEX
  5
C2A
  8
0
 10
276.947
 20
127.093
 30
0.0
 70
    32
  0
VERTEX
  5
C2B
  8
0
 10
276.947
 20
127.093
 30
0.0
 70
    32
  0
VERTEX
  5
C2C
  8
0
 10
276.947
 20
127.093
 30
0.0
 70
    32
  0
VERTEX
  5
C2D
  8
0
 10
276.947
 20
127.09399999999999
 30
0.0
 70
    32
  0
VERTEX
  5
C2E
  8
0
 10
276.947
 20
127.09399999999999
 30
0.0
 70
    32
  0
VERTEX
  5
C2F
  8
0
 10
276.947
 20
127.09399999999999
 30
0.0
 70
    32
  0
VERTEX
  5
C30
  8
0
 10
276.947
 20
127.09399999999999
 30
0.0
 70
    32
  0
VERTEX
  5
C31
  8
0
 10
276.947
 20
127.09399999999999
 30
0.0
 70
    32
  0
VERTEX
  5
C32
  8
0
 10
276.947
 20
127.095
 30
0.0
 70
    32
  0
VERTEX
  5
C33
  8
0
 10
276.94799999999998
 20
127.095
 30
0.0
 70
    32
  0
VERTEX
  5
C34
  8
0
 10
276.94799999999998
 20
127.095
 30
0.0
 70
    32
  0
VERTEX
  5
C35
  8
0
 10
276.94799999999998
 20
127.095
 30
0.0
 70
    32
  0
VERTEX
  5
C36
  8
0
 10
276.94799999999998
 20
127.095
 30
0.0
 70
    32
  0
VERTEX
  5
C37
  8
0
 10
276.94799999999998
 20
127.096
 30
0.0
 70
    32
  0
VERTEX
  5
C38
  8
0
 10
276.94799999999998
 20
127.096
 30
0.0
 70
    32
  0
SEQEND
  5
C39
  8
0
  0
POLYLINE
  5
1E3
  8
0
  6
CONTINUOUS
 66
     1
 10
0.0
 20
0.0
 30
0.0
 70
   128
  0
VERTEX
  5
F4A
  8
0
  6
CONTINUOUS
 10
293.03172567159999
 20
117.8223231195
 30
0.0
  0
VERTEX
  5
F4B
  8
0
  6
CONTINUOUS
 10
293.03135583300002
 20
117.8244549664
 30
0.0
  0
VERTEX
  5
F4C
  8
0
  6
CONTINUOUS
 10
293.0313890237
 20
117.826400842
 30
0.0
  0
VERTEX
  5
F4D
  8
0
  6
CONTINUOUS
 10
293.03182313619999
 20
117.82805047879999
 30
0.0
  0
VERTEX
  5
F4E
  8
0
  6
CONTINUOUS
 10
293.03263446310001
 20
117.82930991950001
 30
0.0
  0
VERTEX
  5
F4F
  8
0
  6
CONTINUOUS
 10
293.0337766426
 20
117.83010790439999
 30
0.0
  0
VERTEX
  5
F50
  8
0
  6
CONTINUOUS
 10
293.03518434739999
 20
117.8303995599
 30
0.0
  0
VERTEX
  5
F51
  8
0
  6
CONTINUOUS
 10
293.0367785519
 20
117.8301679204
 30
0.0
  0
VERTEX
  5
F52
  8
0
  6
CONTINUOUS
 10
293.03846811369999
 20
117.82942655159999
 30
0.0
  0
SEQEND
  5
F53
  8
0
  6
CONTINUOUS
  0
LINE
  5
1E4
  8
0
  6
CONTINUOUS
 10
293.0352096355
 20
117.8088848884
 30
0.0
 11
293.03172567159999
 21
117.8223231195
 31
0.0
  0
LINE
  5
1E5
  8
0
  6
CONTINUOUS
 10
287.5764027633
 20
118.74081150790001
 30
0.0
 11
287.44830611009991
 21
119.4554777985
 31
0.0
  0
LINE
  5
1E6
  8
0
  6
CONTINUOUS
 10
287.44830611009991
 20
119.4554777985
 30
0.0
 11
287.34625884339999
 21
119.5143884316
 31
0.0
  0
LINE
  5
1E7
  8
0
  6
CONTINUOUS
 10
282.63692751460002
 20
122.23302753980001
 30
0.0
 11
282.53488024789999
 21
122.29193817300001
 31
0.0
  0
LINE
  5
1E8
  8
0
  6
CONTINUOUS
 10
282.53488024789999
 20
122.29193817300001
 30
0.0
 11
282.40678359470002
 21
121.7251691302
 31
0.0
  0
LINE
  5
1E9
  8
0
  6
CONTINUOUS
 10
276.94797672250002
 20
127.0958467705
 30
0.0
 11
276.95146068639991
 21
127.1052625025
 31
0.0
  0
ARC
  5
1EA
  8
0
  6
CONTINUOUS
 10
276.9374053029
 20
127.1078679587
 30
0.0
 40
0.0142948314270189
 50
349.49824681540002
 51
59.230909555499991
  0
LINE
  5
1EB
  8
0
  6
CONTINUOUS
 10
277.92052526179998
 20
126.98893518600001
 30
0.0
 11
276.94471824430002
 21
127.5522565866
 31
0.0
  0
LINE
  5
1EC
  8
0
  6
CONTINUOUS
 10
293.03846811369999
 20
118.2615325455
 30
0.0
 11
292.06266109619992
 21
118.82485394610001
 31
0.0
  0
POLYLINE
  5
1ED
  8
0
  6
CONTINUOUS
 66
     1
 10
0.0
 20
0.0
 30
0.0
 70
   128
  0
VERTEX
  5
F54
  8
0
  6
CONTINUOUS
 10
284.28448641360001
 20
122.4985578287
 30
0.0
  0
VERTEX
  5
F55
  8
0
  6
CONTINUOUS
 10
284.2980732405
 20
122.33141506360001
 30
0.0
  0
VERTEX
  5
F56
  8
0
  6
CONTINUOUS
 10
284.33831169289999
 20
122.1550085209
 30
0.0
  0
VERTEX
  5
F57
  8
0
  6
CONTINUOUS
 10
284.40365537650001
 20
121.976117202
 30
0.0
  0
VERTEX
  5
F58
  8
0
  6
CONTINUOUS
 10
284.4915931955
 20
121.8016161023
 30
0.0
  0
VERTEX
  5
F59
  8
0
  6
CONTINUOUS
 10
284.59874569679999
 20
121.6382109324
 30
0.0
  0
VERTEX
  5
F5A
  8
0
  6
CONTINUOUS
 10
284.72099513329999
 20
121.4921813608
 30
0.0
  0
VERTEX
  5
F5B
  8
0
  6
CONTINUOUS
 10
284.85364348979999
 20
121.3691391389
 30
0.0
  0
VERTEX
  5
F5C
  8
0
  6
CONTINUOUS
 10
284.99159317900001
 20
121.2738129122
 30
0.0
  0
VERTEX
  5
F5D
  8
0
  6
CONTINUOUS
 10
285.12954286820002
 20
121.209865818
 30
0.0
  0
VERTEX
  5
F5E
  8
0
  6
CONTINUOUS
 10
285.26219122470002
 20
121.1797555074
 30
0.0
  0
VERTEX
  5
F5F
  8
0
  6
CONTINUOUS
 10
285.38444066120002
 20
121.18463888399999
 30
0.0
  0
VERTEX
  5
F60
  8
0
  6
CONTINUOUS
 10
285.49159316250001
 20
121.2243284092
 30
0.0
  0
VERTEX
  5
F61
  8
0
  6
CONTINUOUS
 10
285.57953098140001
 20
121.2972986644
 30
0.0
  0
VERTEX
  5
F62
  8
0
  6
CONTINUOUS
 10
285.64487466510002
 20
121.40074577199999
 30
0.0
  0
VERTEX
  5
F63
  8
0
  6
CONTINUOUS
 10
285.68511311750001
 20
121.5306939864
 30
0.0
  0
VERTEX
  5
F64
  8
0
  6
CONTINUOUS
 10
285.6986999444
 20
121.6821497351
 30
0.0
  0
SEQEND
  5
F65
  8
0
  6
CONTINUOUS
  0
LINE
  5
1EE
  8
0
  6
CONTINUOUS
 10
285.6986999444
 20
121.6821497351
 30
0.0
 11
285.6986999444
 21
122.49052511550001
 31
0.0
  0
LINE
  5
1EF
  8
0
  6
CONTINUOUS
 10
285.6986999444
 20
122.49052511550001
 30
0.0
 11
284.28448641360001
 21
123.30693320909999
 31
0.0
  0
LINE
  5
1F0
  8
0
  6
CONTINUOUS
 10
284.28448641360001
 20
123.30693320909999
 30
0.0
 11
284.28448641360001
 21
122.4985578287
 31
0.0
  0
LINE
  5
1F1
  8
0
  6
CONTINUOUS
 10
276.9196919725
 20
127.0795183319
 30
0.0
 11
276.94797672250002
 21
127.0958467705
 31
0.0
  0
POLYLINE
  5
C3A
  8
0
 66
     1
 10
0.0
 20
0.0
 30
0.0
 70
     8
  0
VERTEX
  5
C3B
  8
0
 10
276.91000000000003
 20
127.063
 30
0.0
 70
    32
  0
VERTEX
  5
C3C
  8
0
 10
276.911
 20
127.06399999999999
 30
0.0
 70
    32
  0
VERTEX
  5
C3D
  8
0
 10
276.911
 20
127.06399999999999
 30
0.0
 70
    32
  0
VERTEX
  5
C3E
  8
0
 10
276.911
 20
127.06399999999999
 30
0.0
 70
    32
  0
VERTEX
  5
C3F
  8
0
 10
276.911
 20
127.06399999999999
 30
0.0
 70
    32
  0
VERTEX
  5
C40
  8
0
 10
276.911
 20
127.06399999999999
 30
0.0
 70
    32
  0
VERTEX
  5
C41
  8
0
 10
276.911
 20
127.06399999999999
 30
0.0
 70
    32
  0
VERTEX
  5
C42
  8
0
 10
276.911
 20
127.06399999999999
 30
0.0
 70
    32
  0
VERTEX
  5
C43
  8
0
 10
276.911
 20
127.06399999999999
 30
0.0
 70
    32
  0
VERTEX
  5
C44
  8
0
 10
276.911
 20
127.06399999999999
 30
0.0
 70
    32
  0
VERTEX
  5
C45
  8
0
 10
276.911
 20
127.06399999999999
 30
0.0
 70
    32
  0
VERTEX
  5
C46
  8
0
 10
276.911
 20
127.06399999999999
 30
0.0
 70
    32
  0
VERTEX
  5
C47
  8
0
 10
276.911
 20
127.06399999999999
 30
0.0
 70
    32
  0
VERTEX
  5
C48
  8
0
 10
276.911
 20
127.065
 30
0.0
 70
    32
  0
VERTEX
  5
C49
  8
0
 10
276.911
 20
127.065
 30
0.0
 70
    32
  0
VERTEX
  5
C4A
  8
0
 10
276.91199999999998
 20
127.065
 30
0.0
 70
    32
  0
VERTEX
  5
C4B
  8
0
 10
276.91199999999998
 20
127.065
 30
0.0
 70
    32
  0
VERTEX
  5
C4C
  8
0
 10
276.91199999999998
 20
127.065
 30
0.0
 70
    32
  0
VERTEX
  5
C4D
  8
0
 10
276.91199999999998
 20
127.065
 30
0.0
 70
    32
  0
VERTEX
  5
C4E
  8
0
 10
276.91199999999998
 20
127.065
 30
0.0
 70
    32
  0
VERTEX
  5
C4F
  8
0
 10
276.91199999999998
 20
127.065
 30
0.0
 70
    32
  0
VERTEX
  5
C50
  8
0
 10
276.91199999999998
 20
127.065
 30
0.0
 70
    32
  0
VERTEX
  5
C51
  8
0
 10
276.91199999999998
 20
127.065
 30
0.0
 70
    32
  0
VERTEX
  5
C52
  8
0
 10
276.91199999999998
 20
127.065
 30
0.0
 70
    32
  0
VERTEX
  5
C53
  8
0
 10
276.91199999999998
 20
127.065
 30
0.0
 70
    32
  0
VERTEX
  5
C54
  8
0
 10
276.91199999999998
 20
127.065
 30
0.0
 70
    32
  0
VERTEX
  5
C55
  8
0
 10
276.91199999999998
 20
127.066
 30
0.0
 70
    32
  0
VERTEX
  5
C56
  8
0
 10
276.91199999999998
 20
127.066
 30
0.0
 70
    32
  0
VERTEX
  5
C57
  8
0
 10
276.91199999999998
 20
127.066
 30
0.0
 70
    32
  0
VERTEX
  5
C58
  8
0
 10
276.91199999999998
 20
127.066
 30
0.0
 70
    32
  0
VERTEX
  5
C59
  8
0
 10
276.91300000000001
 20
127.066
 30
0.0
 70
    32
  0
VERTEX
  5
C5A
  8
0
 10
276.91300000000001
 20
127.066
 30
0.0
 70
    32
  0
VERTEX
  5
C5B
  8
0
 10
276.91300000000001
 20
127.066
 30
0.0
 70
    32
  0
VERTEX
  5
C5C
  8
0
 10
276.91300000000001
 20
127.066
 30
0.0
 70
    32
  0
VERTEX
  5
C5D
  8
0
 10
276.91300000000001
 20
127.066
 30
0.0
 70
    32
  0
VERTEX
  5
C5E
  8
0
 10
276.91300000000001
 20
127.066
 30
0.0
 70
    32
  0
VERTEX
  5
C5F
  8
0
 10
276.91300000000001
 20
127.066
 30
0.0
 70
    32
  0
VERTEX
  5
C60
  8
0
 10
276.91300000000001
 20
127.066
 30
0.0
 70
    32
  0
VERTEX
  5
C61
  8
0
 10
276.91300000000001
 20
127.06699999999999
 30
0.0
 70
    32
  0
VERTEX
  5
C62
  8
0
 10
276.91300000000001
 20
127.06699999999999
 30
0.0
 70
    32
  0
VERTEX
  5
C63
  8
0
 10
276.91300000000001
 20
127.06699999999999
 30
0.0
 70
    32
  0
VERTEX
  5
C64
  8
0
 10
276.91300000000001
 20
127.06699999999999
 30
0.0
 70
    32
  0
VERTEX
  5
C65
  8
0
 10
276.91300000000001
 20
127.06699999999999
 30
0.0
 70
    32
  0
VERTEX
  5
C66
  8
0
 10
276.91300000000001
 20
127.06699999999999
 30
0.0
 70
    32
  0
VERTEX
  5
C67
  8
0
 10
276.91300000000001
 20
127.06699999999999
 30
0.0
 70
    32
  0
VERTEX
  5
C68
  8
0
 10
276.91399999999999
 20
127.06699999999999
 30
0.0
 70
    32
  0
VERTEX
  5
C69
  8
0
 10
276.91399999999999
 20
127.06699999999999
 30
0.0
 70
    32
  0
VERTEX
  5
C6A
  8
0
 10
276.91399999999999
 20
127.06699999999999
 30
0.0
 70
    32
  0
VERTEX
  5
C6B
  8
0
 10
276.91399999999999
 20
127.06699999999999
 30
0.0
 70
    32
  0
VERTEX
  5
C6C
  8
0
 10
276.91399999999999
 20
127.06699999999999
 30
0.0
 70
    32
  0
VERTEX
  5
C6D
  8
0
 10
276.91399999999999
 20
127.068
 30
0.0
 70
    32
  0
VERTEX
  5
C6E
  8
0
 10
276.91399999999999
 20
127.068
 30
0.0
 70
    32
  0
VERTEX
  5
C6F
  8
0
 10
276.91399999999999
 20
127.068
 30
0.0
 70
    32
  0
VERTEX
  5
C70
  8
0
 10
276.91399999999999
 20
127.068
 30
0.0
 70
    32
  0
VERTEX
  5
C71
  8
0
 10
276.91399999999999
 20
127.068
 30
0.0
 70
    32
  0
VERTEX
  5
C72
  8
0
 10
276.91399999999999
 20
127.068
 30
0.0
 70
    32
  0
VERTEX
  5
C73
  8
0
 10
276.91399999999999
 20
127.068
 30
0.0
 70
    32
  0
VERTEX
  5
C74
  8
0
 10
276.91399999999999
 20
127.068
 30
0.0
 70
    32
  0
VERTEX
  5
C75
  8
0
 10
276.91399999999999
 20
127.068
 30
0.0
 70
    32
  0
VERTEX
  5
C76
  8
0
 10
276.91399999999999
 20
127.068
 30
0.0
 70
    32
  0
VERTEX
  5
C77
  8
0
 10
276.91399999999999
 20
127.068
 30
0.0
 70
    32
  0
VERTEX
  5
C78
  8
0
 10
276.91500000000002
 20
127.069
 30
0.0
 70
    32
  0
VERTEX
  5
C79
  8
0
 10
276.91500000000002
 20
127.069
 30
0.0
 70
    32
  0
VERTEX
  5
C7A
  8
0
 10
276.91500000000002
 20
127.069
 30
0.0
 70
    32
  0
VERTEX
  5
C7B
  8
0
 10
276.91500000000002
 20
127.069
 30
0.0
 70
    32
  0
VERTEX
  5
C7C
  8
0
 10
276.91500000000002
 20
127.069
 30
0.0
 70
    32
  0
VERTEX
  5
C7D
  8
0
 10
276.91500000000002
 20
127.069
 30
0.0
 70
    32
  0
VERTEX
  5
C7E
  8
0
 10
276.91500000000002
 20
127.069
 30
0.0
 70
    32
  0
VERTEX
  5
C7F
  8
0
 10
276.91500000000002
 20
127.069
 30
0.0
 70
    32
  0
VERTEX
  5
C80
  8
0
 10
276.91500000000002
 20
127.069
 30
0.0
 70
    32
  0
VERTEX
  5
C81
  8
0
 10
276.91500000000002
 20
127.069
 30
0.0
 70
    32
  0
VERTEX
  5
C82
  8
0
 10
276.91500000000002
 20
127.069
 30
0.0
 70
    32
  0
VERTEX
  5
C83
  8
0
 10
276.91500000000002
 20
127.069
 30
0.0
 70
    32
  0
VERTEX
  5
C84
  8
0
 10
276.91500000000002
 20
127.06999999999999
 30
0.0
 70
    32
  0
VERTEX
  5
C85
  8
0
 10
276.91500000000002
 20
127.06999999999999
 30
0.0
 70
    32
  0
VERTEX
  5
C86
  8
0
 10
276.91500000000002
 20
127.06999999999999
 30
0.0
 70
    32
  0
VERTEX
  5
C87
  8
0
 10
276.91500000000002
 20
127.06999999999999
 30
0.0
 70
    32
  0
VERTEX
  5
C88
  8
0
 10
276.91500000000002
 20
127.06999999999999
 30
0.0
 70
    32
  0
VERTEX
  5
C89
  8
0
 10
276.916
 20
127.06999999999999
 30
0.0
 70
    32
  0
VERTEX
  5
C8A
  8
0
 10
276.916
 20
127.06999999999999
 30
0.0
 70
    32
  0
VERTEX
  5
C8B
  8
0
 10
276.916
 20
127.06999999999999
 30
0.0
 70
    32
  0
VERTEX
  5
C8C
  8
0
 10
276.916
 20
127.06999999999999
 30
0.0
 70
    32
  0
VERTEX
  5
C8D
  8
0
 10
276.916
 20
127.06999999999999
 30
0.0
 70
    32
  0
VERTEX
  5
C8E
  8
0
 10
276.916
 20
127.06999999999999
 30
0.0
 70
    32
  0
VERTEX
  5
C8F
  8
0
 10
276.916
 20
127.071
 30
0.0
 70
    32
  0
VERTEX
  5
C90
  8
0
 10
276.916
 20
127.071
 30
0.0
 70
    32
  0
VERTEX
  5
C91
  8
0
 10
276.916
 20
127.071
 30
0.0
 70
    32
  0
VERTEX
  5
C92
  8
0
 10
276.916
 20
127.071
 30
0.0
 70
    32
  0
VERTEX
  5
C93
  8
0
 10
276.916
 20
127.071
 30
0.0
 70
    32
  0
VERTEX
  5
C94
  8
0
 10
276.916
 20
127.071
 30
0.0
 70
    32
  0
VERTEX
  5
C95
  8
0
 10
276.916
 20
127.071
 30
0.0
 70
    32
  0
VERTEX
  5
C96
  8
0
 10
276.916
 20
127.071
 30
0.0
 70
    32
  0
VERTEX
  5
C97
  8
0
 10
276.916
 20
127.071
 30
0.0
 70
    32
  0
VERTEX
  5
C98
  8
0
 10
276.916
 20
127.071
 30
0.0
 70
    32
  0
VERTEX
  5
C99
  8
0
 10
276.916
 20
127.071
 30
0.0
 70
    32
  0
VERTEX
  5
C9A
  8
0
 10
276.916
 20
127.072
 30
0.0
 70
    32
  0
VERTEX
  5
C9B
  8
0
 10
276.916
 20
127.072
 30
0.0
 70
    32
  0
VERTEX
  5
C9C
  8
0
 10
276.916
 20
127.072
 30
0.0
 70
    32
  0
VERTEX
  5
C9D
  8
0
 10
276.91699999999997
 20
127.072
 30
0.0
 70
    32
  0
VERTEX
  5
C9E
  8
0
 10
276.91699999999997
 20
127.072
 30
0.0
 70
    32
  0
VERTEX
  5
C9F
  8
0
 10
276.91699999999997
 20
127.072
 30
0.0
 70
    32
  0
VERTEX
  5
CA0
  8
0
 10
276.91699999999997
 20
127.072
 30
0.0
 70
    32
  0
VERTEX
  5
CA1
  8
0
 10
276.91699999999997
 20
127.072
 30
0.0
 70
    32
  0
VERTEX
  5
CA2
  8
0
 10
276.91699999999997
 20
127.072
 30
0.0
 70
    32
  0
VERTEX
  5
CA3
  8
0
 10
276.91699999999997
 20
127.072
 30
0.0
 70
    32
  0
VERTEX
  5
CA4
  8
0
 10
276.91699999999997
 20
127.072
 30
0.0
 70
    32
  0
VERTEX
  5
CA5
  8
0
 10
276.91699999999997
 20
127.072
 30
0.0
 70
    32
  0
VERTEX
  5
CA6
  8
0
 10
276.91699999999997
 20
127.07299999999999
 30
0.0
 70
    32
  0
VERTEX
  5
CA7
  8
0
 10
276.91699999999997
 20
127.07299999999999
 30
0.0
 70
    32
  0
VERTEX
  5
CA8
  8
0
 10
276.91699999999997
 20
127.07299999999999
 30
0.0
 70
    32
  0
VERTEX
  5
CA9
  8
0
 10
276.91699999999997
 20
127.07299999999999
 30
0.0
 70
    32
  0
VERTEX
  5
CAA
  8
0
 10
276.91699999999997
 20
127.07299999999999
 30
0.0
 70
    32
  0
VERTEX
  5
CAB
  8
0
 10
276.91699999999997
 20
127.07299999999999
 30
0.0
 70
    32
  0
VERTEX
  5
CAC
  8
0
 10
276.91699999999997
 20
127.07299999999999
 30
0.0
 70
    32
  0
VERTEX
  5
CAD
  8
0
 10
276.91699999999997
 20
127.07299999999999
 30
0.0
 70
    32
  0
VERTEX
  5
CAE
  8
0
 10
276.91699999999997
 20
127.07299999999999
 30
0.0
 70
    32
  0
VERTEX
  5
CAF
  8
0
 10
276.91699999999997
 20
127.07299999999999
 30
0.0
 70
    32
  0
VERTEX
  5
CB0
  8
0
 10
276.91699999999997
 20
127.07299999999999
 30
0.0
 70
    32
  0
VERTEX
  5
CB1
  8
0
 10
276.91699999999997
 20
127.074
 30
0.0
 70
    32
  0
VERTEX
  5
CB2
  8
0
 10
276.91699999999997
 20
127.074
 30
0.0
 70
    32
  0
VERTEX
  5
CB3
  8
0
 10
276.91800000000001
 20
127.074
 30
0.0
 70
    32
  0
VERTEX
  5
CB4
  8
0
 10
276.91800000000001
 20
127.074
 30
0.0
 70
    32
  0
VERTEX
  5
CB5
  8
0
 10
276.91800000000001
 20
127.074
 30
0.0
 70
    32
  0
VERTEX
  5
CB6
  8
0
 10
276.91800000000001
 20
127.074
 30
0.0
 70
    32
  0
VERTEX
  5
CB7
  8
0
 10
276.91800000000001
 20
127.074
 30
0.0
 70
    32
  0
VERTEX
  5
CB8
  8
0
 10
276.91800000000001
 20
127.074
 30
0.0
 70
    32
  0
VERTEX
  5
CB9
  8
0
 10
276.91800000000001
 20
127.074
 30
0.0
 70
    32
  0
VERTEX
  5
CBA
  8
0
 10
276.91800000000001
 20
127.074
 30
0.0
 70
    32
  0
VERTEX
  5
CBB
  8
0
 10
276.91800000000001
 20
127.074
 30
0.0
 70
    32
  0
VERTEX
  5
CBC
  8
0
 10
276.91800000000001
 20
127.074
 30
0.0
 70
    32
  0
VERTEX
  5
CBD
  8
0
 10
276.91800000000001
 20
127.075
 30
0.0
 70
    32
  0
VERTEX
  5
CBE
  8
0
 10
276.91800000000001
 20
127.075
 30
0.0
 70
    32
  0
VERTEX
  5
CBF
  8
0
 10
276.91800000000001
 20
127.075
 30
0.0
 70
    32
  0
VERTEX
  5
CC0
  8
0
 10
276.91800000000001
 20
127.075
 30
0.0
 70
    32
  0
VERTEX
  5
CC1
  8
0
 10
276.91800000000001
 20
127.075
 30
0.0
 70
    32
  0
VERTEX
  5
CC2
  8
0
 10
276.91800000000001
 20
127.075
 30
0.0
 70
    32
  0
VERTEX
  5
CC3
  8
0
 10
276.91800000000001
 20
127.075
 30
0.0
 70
    32
  0
VERTEX
  5
CC4
  8
0
 10
276.91800000000001
 20
127.075
 30
0.0
 70
    32
  0
VERTEX
  5
CC5
  8
0
 10
276.91800000000001
 20
127.075
 30
0.0
 70
    32
  0
VERTEX
  5
CC6
  8
0
 10
276.91800000000001
 20
127.075
 30
0.0
 70
    32
  0
VERTEX
  5
CC7
  8
0
 10
276.91800000000001
 20
127.075
 30
0.0
 70
    32
  0
VERTEX
  5
CC8
  8
0
 10
276.91800000000001
 20
127.075
 30
0.0
 70
    32
  0
VERTEX
  5
CC9
  8
0
 10
276.91800000000001
 20
127.07599999999999
 30
0.0
 70
    32
  0
VERTEX
  5
CCA
  8
0
 10
276.91800000000001
 20
127.07599999999999
 30
0.0
 70
    32
  0
VERTEX
  5
CCB
  8
0
 10
276.91800000000001
 20
127.07599999999999
 30
0.0
 70
    32
  0
VERTEX
  5
CCC
  8
0
 10
276.91800000000001
 20
127.07599999999999
 30
0.0
 70
    32
  0
VERTEX
  5
CCD
  8
0
 10
276.91800000000001
 20
127.07599999999999
 30
0.0
 70
    32
  0
VERTEX
  5
CCE
  8
0
 10
276.91800000000001
 20
127.07599999999999
 30
0.0
 70
    32
  0
VERTEX
  5
CCF
  8
0
 10
276.91899999999998
 20
127.07599999999999
 30
0.0
 70
    32
  0
VERTEX
  5
CD0
  8
0
 10
276.91899999999998
 20
127.07599999999999
 30
0.0
 70
    32
  0
VERTEX
  5
CD1
  8
0
 10
276.91899999999998
 20
127.07599999999999
 30
0.0
 70
    32
  0
VERTEX
  5
CD2
  8
0
 10
276.91899999999998
 20
127.07599999999999
 30
0.0
 70
    32
  0
VERTEX
  5
CD3
  8
0
 10
276.91899999999998
 20
127.07599999999999
 30
0.0
 70
    32
  0
VERTEX
  5
CD4
  8
0
 10
276.91899999999998
 20
127.07599999999999
 30
0.0
 70
    32
  0
VERTEX
  5
CD5
  8
0
 10
276.91899999999998
 20
127.077
 30
0.0
 70
    32
  0
VERTEX
  5
CD6
  8
0
 10
276.91899999999998
 20
127.077
 30
0.0
 70
    32
  0
VERTEX
  5
CD7
  8
0
 10
276.91899999999998
 20
127.077
 30
0.0
 70
    32
  0
VERTEX
  5
CD8
  8
0
 10
276.91899999999998
 20
127.077
 30
0.0
 70
    32
  0
VERTEX
  5
CD9
  8
0
 10
276.91899999999998
 20
127.077
 30
0.0
 70
    32
  0
VERTEX
  5
CDA
  8
0
 10
276.91899999999998
 20
127.077
 30
0.0
 70
    32
  0
VERTEX
  5
CDB
  8
0
 10
276.91899999999998
 20
127.077
 30
0.0
 70
    32
  0
VERTEX
  5
CDC
  8
0
 10
276.91899999999998
 20
127.077
 30
0.0
 70
    32
  0
VERTEX
  5
CDD
  8
0
 10
276.91899999999998
 20
127.077
 30
0.0
 70
    32
  0
VERTEX
  5
CDE
  8
0
 10
276.91899999999998
 20
127.077
 30
0.0
 70
    32
  0
VERTEX
  5
CDF
  8
0
 10
276.91899999999998
 20
127.077
 30
0.0
 70
    32
  0
VERTEX
  5
CE0
  8
0
 10
276.91899999999998
 20
127.077
 30
0.0
 70
    32
  0
VERTEX
  5
CE1
  8
0
 10
276.91899999999998
 20
127.078
 30
0.0
 70
    32
  0
VERTEX
  5
CE2
  8
0
 10
276.91899999999998
 20
127.078
 30
0.0
 70
    32
  0
VERTEX
  5
CE3
  8
0
 10
276.91899999999998
 20
127.078
 30
0.0
 70
    32
  0
VERTEX
  5
CE4
  8
0
 10
276.91899999999998
 20
127.078
 30
0.0
 70
    32
  0
VERTEX
  5
CE5
  8
0
 10
276.91899999999998
 20
127.078
 30
0.0
 70
    32
  0
VERTEX
  5
CE6
  8
0
 10
276.91899999999998
 20
127.078
 30
0.0
 70
    32
  0
VERTEX
  5
CE7
  8
0
 10
276.91899999999998
 20
127.078
 30
0.0
 70
    32
  0
VERTEX
  5
CE8
  8
0
 10
276.91899999999998
 20
127.078
 30
0.0
 70
    32
  0
VERTEX
  5
CE9
  8
0
 10
276.91899999999998
 20
127.078
 30
0.0
 70
    32
  0
VERTEX
  5
CEA
  8
0
 10
276.91899999999998
 20
127.078
 30
0.0
 70
    32
  0
VERTEX
  5
CEB
  8
0
 10
276.91899999999998
 20
127.078
 30
0.0
 70
    32
  0
VERTEX
  5
CEC
  8
0
 10
276.91899999999998
 20
127.078
 30
0.0
 70
    32
  0
VERTEX
  5
CED
  8
0
 10
276.91899999999998
 20
127.078
 30
0.0
 70
    32
  0
VERTEX
  5
CEE
  8
0
 10
276.91899999999998
 20
127.07899999999999
 30
0.0
 70
    32
  0
VERTEX
  5
CEF
  8
0
 10
276.91899999999998
 20
127.07899999999999
 30
0.0
 70
    32
  0
VERTEX
  5
CF0
  8
0
 10
276.91899999999998
 20
127.07899999999999
 30
0.0
 70
    32
  0
VERTEX
  5
CF1
  8
0
 10
276.91899999999998
 20
127.07899999999999
 30
0.0
 70
    32
  0
VERTEX
  5
CF2
  8
0
 10
276.91899999999998
 20
127.07899999999999
 30
0.0
 70
    32
  0
VERTEX
  5
CF3
  8
0
 10
276.92000000000002
 20
127.07899999999999
 30
0.0
 70
    32
  0
VERTEX
  5
CF4
  8
0
 10
276.92000000000002
 20
127.07899999999999
 30
0.0
 70
    32
  0
VERTEX
  5
CF5
  8
0
 10
276.92000000000002
 20
127.07899999999999
 30
0.0
 70
    32
  0
VERTEX
  5
CF6
  8
0
 10
276.92000000000002
 20
127.07899999999999
 30
0.0
 70
    32
  0
VERTEX
  5
CF7
  8
0
 10
276.92000000000002
 20
127.07899999999999
 30
0.0
 70
    32
  0
VERTEX
  5
CF8
  8
0
 10
276.92000000000002
 20
127.07899999999999
 30
0.0
 70
    32
  0
VERTEX
  5
CF9
  8
0
 10
276.92000000000002
 20
127.07899999999999
 30
0.0
 70
    32
  0
VERTEX
  5
CFA
  8
0
 10
276.92000000000002
 20
127.08
 30
0.0
 70
    32
  0
SEQEND
  5
CFB
  8
0
  0
ARC
  5
1F3
  8
0
  6
CONTINUOUS
 10
276.90243567900001
 20
127.03836994220001
 30
0.0
 40
0.0920645974470958
 50
62.659947651000003
 51
98.928120418000006
  0
ARC
  5
1F4
  8
0
  6
CONTINUOUS
 10
276.90229099909999
 20
127.0765345857
 30
0.0
 40
0.0307346962064436
 50
62.603371052299991
 51
117.3916999338
  0
ARC
  5
1F5
  8
0
  6
CONTINUOUS
 10
276.90229155589998
 20
127.4703803564
 30
0.0
 40
0.0922157305289892
 50
62.607677583300003
 51
117.39109021669999
  0
LINE
  5
1F6
  8
0
  6
CONTINUOUS
 10
276.9196919725
 20
127.0795183319
 30
0.0
 11
276.92317593630003
 21
127.0889340639
 31
0.0
  0
ARC
  5
1F7
  8
0
  6
CONTINUOUS
 10
276.90912055289999
 20
127.0915395201
 30
0.0
 40
0.0142948314272523
 50
349.49824681590002
 51
59.230909554900002
  0
LINE
  5
1F8
  8
0
  6
CONTINUOUS
 10
276.8598666283001
 20
127.55225749900001
 30
0.0
 11
276.84572214600001
 21
127.5440920631
 31
0.0
  0
ARC
  5
1F9
  8
0
  6
CONTINUOUS
 10
277.8946619157
 20
126.9931324777
 30
0.0
 40
0.0262017161347221
 50
350.78198936820002
 51
129.20400491539999
  0
POLYLINE
  5
1FA
  8
0
  6
CONTINUOUS
 66
     1
 10
0.0
 20
0.0
 30
0.0
 70
   128
  0
VERTEX
  5
F66
  8
0
  6
CONTINUOUS
 10
292.05023199060003
 20
118.85232448639999
 30
0.0
  0
VERTEX
  5
F67
  8
0
  6
CONTINUOUS
 10
292.0502362053
 20
118.8523241046
 30
0.0
  0
VERTEX
  5
F68
  8
0
  6
CONTINUOUS
 10
292.05551299069998
 20
118.8479461819
 30
0.0
  0
VERTEX
  5
F69
  8
0
  6
CONTINUOUS
 10
292.05943264759998
 20
118.84173880420001
 30
0.0
  0
VERTEX
  5
F6A
  8
0
  6
CONTINUOUS
 10
292.06184766209998
 20
118.83394231450001
 30
0.0
  0
VERTEX
  5
F6B
  8
0
  6
CONTINUOUS
 10
292.06266109619992
 20
118.82485394610001
 30
0.0
  0
SEQEND
  5
F6C
  8
0
  6
CONTINUOUS
  0
LINE
  5
1FB
  8
0
  6
CONTINUOUS
 10
277.87809181469999
 20
127.01343132949999
 30
0.0
 11
277.87810024409998
 21
127.01343619559999
 31
0.0
  0
LINE
  5
1FC
  8
0
  6
CONTINUOUS
 10
282.60864276460001
 20
122.21669910120001
 30
0.0
 11
282.63692751460002
 21
122.23302753980001
 31
0.0
  0
LINE
  5
1FD
  8
0
  6
CONTINUOUS
 10
282.60864276460001
 20
122.21669910120001
 30
0.0
 11
282.52835091079999
 21
122.2630506018
 31
0.0
  0
ARC
  5
1FE
  8
0
  6
CONTINUOUS
 10
282.54481995039998
 20
122.23721590780001
 30
0.0
 40
0.0922027429296471
 50
302.60472257499998
 51
357.39640698139999
  0
ARC
  5
1FF
  8
0
  6
CONTINUOUS
 10
282.5779435300999
 20
122.21809328729999
 30
0.0
 40
0.0307308762169686
 50
302.60457795180002
 51
357.39973553120001
  0
ARC
  5
200
  8
0
  6
CONTINUOUS
 10
287.2541512791999
 20
119.5185767996
 30
0.0
 40
0.0922027429295358
 50
302.60472257499998
 51
357.39640698139999
  0
LINE
  5
201
  8
0
  6
CONTINUOUS
 10
282.59450249690002
 20
122.1922053099
 30
0.0
 11
282.52216164610002
 21
122.15044382569999
 31
0.0
  0
LINE
  5
202
  8
0
  6
CONTINUOUS
 10
282.59450249690002
 20
122.1595435808
 30
0.0
 11
282.52839095029998
 21
122.12137819740001
 31
0.0
  0
LINE
  5
203
  8
0
  6
CONTINUOUS
 10
287.23772227910001
 20
119.4027390892
 30
0.0
 11
287.3038338257
 21
119.4409044726
 31
0.0
  0
ARC
  5
204
  8
0
  6
CONTINUOUS
 10
285.20129447009998
 20
121.6241301341
 30
0.0
 40
0.4932908542345506
 50
305.03486142179997
 51
6.277324747999999
  0
LINE
  5
205
  8
0
  6
CONTINUOUS
 10
285.69162770320008
 20
121.67806701719999
 30
0.0
 11
285.69162770320008
 21
122.4864423976
 31
0.0
  0
LINE
  5
206
  8
0
  6
CONTINUOUS
 10
285.69162770320008
 20
122.4864423976
 30
0.0
 11
284.28448522820008
 21
123.2987684575
 31
0.0
  0
LINE
  5
207
  8
0
  6
CONTINUOUS
 10
285.69162770320008
 20
122.4864423976
 30
0.0
 11
285.6986999444
 21
122.49052511550001
 31
0.0
  0
LINE
  5
208
  8
0
  6
CONTINUOUS
 10
287.42002136000002
 20
119.4391493599
 30
0.0
 11
287.44830611009991
 21
119.4554777985
 31
0.0
  0
LINE
  5
209
  8
0
  6
CONTINUOUS
 10
287.56846651180001
 20
118.7362300074
 30
0.0
 11
287.5764027633
 21
118.74081150790001
 31
0.0
  0
LINE
  5
20A
  8
0
  6
CONTINUOUS
 10
287.45902484390001
 20
119.2215448903
 30
0.0
 11
287.42002136000002
 21
119.4391493599
 31
0.0
  0
POLYLINE
  5
CFC
  8
0
 66
     1
 10
0.0
 20
0.0
 30
0.0
 70
     8
  0
VERTEX
  5
CFD
  8
0
 10
287.57600000000002
 20
118.702
 30
0.0
 70
    32
  0
VERTEX
  5
CFE
  8
0
 10
287.57600000000002
 20
118.703
 30
0.0
 70
    32
  0
VERTEX
  5
CFF
  8
0
 10
287.57600000000002
 20
118.703
 30
0.0
 70
    32
  0
VERTEX
  5
D00
  8
0
 10
287.57600000000002
 20
118.703
 30
0.0
 70
    32
  0
VERTEX
  5
D01
  8
0
 10
287.57600000000002
 20
118.703
 30
0.0
 70
    32
  0
VERTEX
  5
D02
  8
0
 10
287.57600000000002
 20
118.70399999999999
 30
0.0
 70
    32
  0
VERTEX
  5
D03
  8
0
 10
287.57600000000002
 20
118.70399999999999
 30
0.0
 70
    32
  0
VERTEX
  5
D04
  8
0
 10
287.57600000000002
 20
118.70399999999999
 30
0.0
 70
    32
  0
VERTEX
  5
D05
  8
0
 10
287.57600000000002
 20
118.70399999999999
 30
0.0
 70
    32
  0
VERTEX
  5
D06
  8
0
 10
287.57600000000002
 20
118.705
 30
0.0
 70
    32
  0
VERTEX
  5
D07
  8
0
 10
287.57600000000002
 20
118.705
 30
0.0
 70
    32
  0
VERTEX
  5
D08
  8
0
 10
287.57600000000002
 20
118.705
 30
0.0
 70
    32
  0
VERTEX
  5
D09
  8
0
 10
287.57600000000002
 20
118.705
 30
0.0
 70
    32
  0
VERTEX
  5
D0A
  8
0
 10
287.577
 20
118.705
 30
0.0
 70
    32
  0
VERTEX
  5
D0B
  8
0
 10
287.577
 20
118.706
 30
0.0
 70
    32
  0
VERTEX
  5
D0C
  8
0
 10
287.577
 20
118.706
 30
0.0
 70
    32
  0
VERTEX
  5
D0D
  8
0
 10
287.577
 20
118.706
 30
0.0
 70
    32
  0
VERTEX
  5
D0E
  8
0
 10
287.577
 20
118.706
 30
0.0
 70
    32
  0
VERTEX
  5
D0F
  8
0
 10
287.577
 20
118.70699999999999
 30
0.0
 70
    32
  0
VERTEX
  5
D10
  8
0
 10
287.577
 20
118.70699999999999
 30
0.0
 70
    32
  0
VERTEX
  5
D11
  8
0
 10
287.577
 20
118.70699999999999
 30
0.0
 70
    32
  0
VERTEX
  5
D12
  8
0
 10
287.577
 20
118.70699999999999
 30
0.0
 70
    32
  0
VERTEX
  5
D13
  8
0
 10
287.577
 20
118.708
 30
0.0
 70
    32
  0
VERTEX
  5
D14
  8
0
 10
287.577
 20
118.708
 30
0.0
 70
    32
  0
VERTEX
  5
D15
  8
0
 10
287.577
 20
118.708
 30
0.0
 70
    32
  0
VERTEX
  5
D16
  8
0
 10
287.577
 20
118.708
 30
0.0
 70
    32
  0
VERTEX
  5
D17
  8
0
 10
287.577
 20
118.709
 30
0.0
 70
    32
  0
VERTEX
  5
D18
  8
0
 10
287.577
 20
118.709
 30
0.0
 70
    32
  0
VERTEX
  5
D19
  8
0
 10
287.577
 20
118.709
 30
0.0
 70
    32
  0
VERTEX
  5
D1A
  8
0
 10
287.577
 20
118.709
 30
0.0
 70
    32
  0
VERTEX
  5
D1B
  8
0
 10
287.577
 20
118.70999999999999
 30
0.0
 70
    32
  0
VERTEX
  5
D1C
  8
0
 10
287.57799999999997
 20
118.70999999999999
 30
0.0
 70
    32
  0
VERTEX
  5
D1D
  8
0
 10
287.57799999999997
 20
118.70999999999999
 30
0.0
 70
    32
  0
VERTEX
  5
D1E
  8
0
 10
287.57799999999997
 20
118.70999999999999
 30
0.0
 70
    32
  0
VERTEX
  5
D1F
  8
0
 10
287.57799999999997
 20
118.711
 30
0.0
 70
    32
  0
VERTEX
  5
D20
  8
0
 10
287.57799999999997
 20
118.711
 30
0.0
 70
    32
  0
VERTEX
  5
D21
  8
0
 10
287.57799999999997
 20
118.711
 30
0.0
 70
    32
  0
VERTEX
  5
D22
  8
0
 10
287.57799999999997
 20
118.711
 30
0.0
 70
    32
  0
VERTEX
  5
D23
  8
0
 10
287.57799999999997
 20
118.712
 30
0.0
 70
    32
  0
VERTEX
  5
D24
  8
0
 10
287.57799999999997
 20
118.712
 30
0.0
 70
    32
  0
VERTEX
  5
D25
  8
0
 10
287.57799999999997
 20
118.712
 30
0.0
 70
    32
  0
VERTEX
  5
D26
  8
0
 10
287.57799999999997
 20
118.712
 30
0.0
 70
    32
  0
VERTEX
  5
D27
  8
0
 10
287.57799999999997
 20
118.71299999999999
 30
0.0
 70
    32
  0
VERTEX
  5
D28
  8
0
 10
287.57799999999997
 20
118.71299999999999
 30
0.0
 70
    32
  0
VERTEX
  5
D29
  8
0
 10
287.57799999999997
 20
118.71299999999999
 30
0.0
 70
    32
  0
VERTEX
  5
D2A
  8
0
 10
287.57799999999997
 20
118.71299999999999
 30
0.0
 70
    32
  0
VERTEX
  5
D2B
  8
0
 10
287.57799999999997
 20
118.714
 30
0.0
 70
    32
  0
VERTEX
  5
D2C
  8
0
 10
287.57799999999997
 20
118.714
 30
0.0
 70
    32
  0
VERTEX
  5
D2D
  8
0
 10
287.57799999999997
 20
118.714
 30
0.0
 70
    32
  0
VERTEX
  5
D2E
  8
0
 10
287.57799999999997
 20
118.714
 30
0.0
 70
    32
  0
VERTEX
  5
D2F
  8
0
 10
287.57799999999997
 20
118.715
 30
0.0
 70
    32
  0
VERTEX
  5
D30
  8
0
 10
287.57799999999997
 20
118.715
 30
0.0
 70
    32
  0
VERTEX
  5
D31
  8
0
 10
287.57799999999997
 20
118.715
 30
0.0
 70
    32
  0
VERTEX
  5
D32
  8
0
 10
287.57799999999997
 20
118.715
 30
0.0
 70
    32
  0
VERTEX
  5
D33
  8
0
 10
287.57900000000001
 20
118.715
 30
0.0
 70
    32
  0
VERTEX
  5
D34
  8
0
 10
287.57900000000001
 20
118.71599999999999
 30
0.0
 70
    32
  0
VERTEX
  5
D35
  8
0
 10
287.57900000000001
 20
118.71599999999999
 30
0.0
 70
    32
  0
VERTEX
  5
D36
  8
0
 10
287.57900000000001
 20
118.71599999999999
 30
0.0
 70
    32
  0
VERTEX
  5
D37
  8
0
 10
287.57900000000001
 20
118.71599999999999
 30
0.0
 70
    32
  0
VERTEX
  5
D38
  8
0
 10
287.57900000000001
 20
118.717
 30
0.0
 70
    32
  0
VERTEX
  5
D39
  8
0
 10
287.57900000000001
 20
118.717
 30
0.0
 70
    32
  0
VERTEX
  5
D3A
  8
0
 10
287.57900000000001
 20
118.717
 30
0.0
 70
    32
  0
VERTEX
  5
D3B
  8
0
 10
287.57900000000001
 20
118.717
 30
0.0
 70
    32
  0
VERTEX
  5
D3C
  8
0
 10
287.57900000000001
 20
118.718
 30
0.0
 70
    32
  0
VERTEX
  5
D3D
  8
0
 10
287.57900000000001
 20
118.718
 30
0.0
 70
    32
  0
VERTEX
  5
D3E
  8
0
 10
287.57900000000001
 20
118.718
 30
0.0
 70
    32
  0
VERTEX
  5
D3F
  8
0
 10
287.57900000000001
 20
118.718
 30
0.0
 70
    32
  0
VERTEX
  5
D40
  8
0
 10
287.57900000000001
 20
118.71899999999999
 30
0.0
 70
    32
  0
VERTEX
  5
D41
  8
0
 10
287.57900000000001
 20
118.71899999999999
 30
0.0
 70
    32
  0
VERTEX
  5
D42
  8
0
 10
287.57900000000001
 20
118.71899999999999
 30
0.0
 70
    32
  0
VERTEX
  5
D43
  8
0
 10
287.57900000000001
 20
118.71899999999999
 30
0.0
 70
    32
  0
VERTEX
  5
D44
  8
0
 10
287.57900000000001
 20
118.72
 30
0.0
 70
    32
  0
VERTEX
  5
D45
  8
0
 10
287.57900000000001
 20
118.72
 30
0.0
 70
    32
  0
VERTEX
  5
D46
  8
0
 10
287.57900000000001
 20
118.72
 30
0.0
 70
    32
  0
VERTEX
  5
D47
  8
0
 10
287.57900000000001
 20
118.72
 30
0.0
 70
    32
  0
VERTEX
  5
D48
  8
0
 10
287.57900000000001
 20
118.721
 30
0.0
 70
    32
  0
VERTEX
  5
D49
  8
0
 10
287.57900000000001
 20
118.721
 30
0.0
 70
    32
  0
VERTEX
  5
D4A
  8
0
 10
287.57900000000001
 20
118.721
 30
0.0
 70
    32
  0
VERTEX
  5
D4B
  8
0
 10
287.57900000000001
 20
118.721
 30
0.0
 70
    32
  0
VERTEX
  5
D4C
  8
0
 10
287.57900000000001
 20
118.72199999999999
 30
0.0
 70
    32
  0
VERTEX
  5
D4D
  8
0
 10
287.57900000000001
 20
118.72199999999999
 30
0.0
 70
    32
  0
VERTEX
  5
D4E
  8
0
 10
287.57900000000001
 20
118.72199999999999
 30
0.0
 70
    32
  0
VERTEX
  5
D4F
  8
0
 10
287.57900000000001
 20
118.72199999999999
 30
0.0
 70
    32
  0
VERTEX
  5
D50
  8
0
 10
287.57900000000001
 20
118.723
 30
0.0
 70
    32
  0
VERTEX
  5
D51
  8
0
 10
287.57900000000001
 20
118.723
 30
0.0
 70
    32
  0
VERTEX
  5
D52
  8
0
 10
287.57900000000001
 20
118.723
 30
0.0
 70
    32
  0
VERTEX
  5
D53
  8
0
 10
287.57900000000001
 20
118.723
 30
0.0
 70
    32
  0
VERTEX
  5
D54
  8
0
 10
287.57900000000001
 20
118.723
 30
0.0
 70
    32
  0
VERTEX
  5
D55
  8
0
 10
287.57900000000001
 20
118.724
 30
0.0
 70
    32
  0
VERTEX
  5
D56
  8
0
 10
287.57900000000001
 20
118.724
 30
0.0
 70
    32
  0
VERTEX
  5
D57
  8
0
 10
287.57900000000001
 20
118.724
 30
0.0
 70
    32
  0
VERTEX
  5
D58
  8
0
 10
287.57900000000001
 20
118.724
 30
0.0
 70
    32
  0
VERTEX
  5
D59
  8
0
 10
287.57900000000001
 20
118.72499999999999
 30
0.0
 70
    32
  0
VERTEX
  5
D5A
  8
0
 10
287.57900000000001
 20
118.72499999999999
 30
0.0
 70
    32
  0
VERTEX
  5
D5B
  8
0
 10
287.57900000000001
 20
118.72499999999999
 30
0.0
 70
    32
  0
VERTEX
  5
D5C
  8
0
 10
287.57900000000001
 20
118.72499999999999
 30
0.0
 70
    32
  0
VERTEX
  5
D5D
  8
0
 10
287.57900000000001
 20
118.726
 30
0.0
 70
    32
  0
VERTEX
  5
D5E
  8
0
 10
287.57900000000001
 20
118.726
 30
0.0
 70
    32
  0
VERTEX
  5
D5F
  8
0
 10
287.57900000000001
 20
118.726
 30
0.0
 70
    32
  0
VERTEX
  5
D60
  8
0
 10
287.57900000000001
 20
118.726
 30
0.0
 70
    32
  0
VERTEX
  5
D61
  8
0
 10
287.57900000000001
 20
118.727
 30
0.0
 70
    32
  0
VERTEX
  5
D62
  8
0
 10
287.57900000000001
 20
118.727
 30
0.0
 70
    32
  0
VERTEX
  5
D63
  8
0
 10
287.57900000000001
 20
118.727
 30
0.0
 70
    32
  0
VERTEX
  5
D64
  8
0
 10
287.57900000000001
 20
118.727
 30
0.0
 70
    32
  0
VERTEX
  5
D65
  8
0
 10
287.57900000000001
 20
118.72799999999999
 30
0.0
 70
    32
  0
VERTEX
  5
D66
  8
0
 10
287.57900000000001
 20
118.72799999999999
 30
0.0
 70
    32
  0
VERTEX
  5
D67
  8
0
 10
287.57900000000001
 20
118.72799999999999
 30
0.0
 70
    32
  0
VERTEX
  5
D68
  8
0
 10
287.57799999999997
 20
118.72799999999999
 30
0.0
 70
    32
  0
VERTEX
  5
D69
  8
0
 10
287.57799999999997
 20
118.729
 30
0.0
 70
    32
  0
VERTEX
  5
D6A
  8
0
 10
287.57799999999997
 20
118.729
 30
0.0
 70
    32
  0
VERTEX
  5
D6B
  8
0
 10
287.57799999999997
 20
118.729
 30
0.0
 70
    32
  0
VERTEX
  5
D6C
  8
0
 10
287.57799999999997
 20
118.729
 30
0.0
 70
    32
  0
VERTEX
  5
D6D
  8
0
 10
287.57799999999997
 20
118.73
 30
0.0
 70
    32
  0
VERTEX
  5
D6E
  8
0
 10
287.57799999999997
 20
118.73
 30
0.0
 70
    32
  0
VERTEX
  5
D6F
  8
0
 10
287.57799999999997
 20
118.73
 30
0.0
 70
    32
  0
VERTEX
  5
D70
  8
0
 10
287.57799999999997
 20
118.73
 30
0.0
 70
    32
  0
VERTEX
  5
D71
  8
0
 10
287.57799999999997
 20
118.73
 30
0.0
 70
    32
  0
VERTEX
  5
D72
  8
0
 10
287.57799999999997
 20
118.73099999999999
 30
0.0
 70
    32
  0
VERTEX
  5
D73
  8
0
 10
287.57799999999997
 20
118.73099999999999
 30
0.0
 70
    32
  0
VERTEX
  5
D74
  8
0
 10
287.57799999999997
 20
118.73099999999999
 30
0.0
 70
    32
  0
VERTEX
  5
D75
  8
0
 10
287.57799999999997
 20
118.73099999999999
 30
0.0
 70
    32
  0
VERTEX
  5
D76
  8
0
 10
287.57799999999997
 20
118.732
 30
0.0
 70
    32
  0
VERTEX
  5
D77
  8
0
 10
287.57799999999997
 20
118.732
 30
0.0
 70
    32
  0
VERTEX
  5
D78
  8
0
 10
287.57799999999997
 20
118.732
 30
0.0
 70
    32
  0
VERTEX
  5
D79
  8
0
 10
287.57799999999997
 20
118.732
 30
0.0
 70
    32
  0
VERTEX
  5
D7A
  8
0
 10
287.57799999999997
 20
118.733
 30
0.0
 70
    32
  0
VERTEX
  5
D7B
  8
0
 10
287.57799999999997
 20
118.733
 30
0.0
 70
    32
  0
VERTEX
  5
D7C
  8
0
 10
287.57799999999997
 20
118.733
 30
0.0
 70
    32
  0
VERTEX
  5
D7D
  8
0
 10
287.57799999999997
 20
118.733
 30
0.0
 70
    32
  0
VERTEX
  5
D7E
  8
0
 10
287.57799999999997
 20
118.73399999999999
 30
0.0
 70
    32
  0
VERTEX
  5
D7F
  8
0
 10
287.57799999999997
 20
118.73399999999999
 30
0.0
 70
    32
  0
VERTEX
  5
D80
  8
0
 10
287.57799999999997
 20
118.73399999999999
 30
0.0
 70
    32
  0
VERTEX
  5
D81
  8
0
 10
287.57799999999997
 20
118.73399999999999
 30
0.0
 70
    32
  0
VERTEX
  5
D82
  8
0
 10
287.57799999999997
 20
118.735
 30
0.0
 70
    32
  0
VERTEX
  5
D83
  8
0
 10
287.57799999999997
 20
118.735
 30
0.0
 70
    32
  0
VERTEX
  5
D84
  8
0
 10
287.577
 20
118.735
 30
0.0
 70
    32
  0
VERTEX
  5
D85
  8
0
 10
287.577
 20
118.735
 30
0.0
 70
    32
  0
VERTEX
  5
D86
  8
0
 10
287.577
 20
118.736
 30
0.0
 70
    32
  0
VERTEX
  5
D87
  8
0
 10
287.577
 20
118.736
 30
0.0
 70
    32
  0
VERTEX
  5
D88
  8
0
 10
287.577
 20
118.736
 30
0.0
 70
    32
  0
VERTEX
  5
D89
  8
0
 10
287.577
 20
118.736
 30
0.0
 70
    32
  0
VERTEX
  5
D8A
  8
0
 10
287.577
 20
118.736
 30
0.0
 70
    32
  0
VERTEX
  5
D8B
  8
0
 10
287.577
 20
118.73699999999999
 30
0.0
 70
    32
  0
VERTEX
  5
D8C
  8
0
 10
287.577
 20
118.73699999999999
 30
0.0
 70
    32
  0
VERTEX
  5
D8D
  8
0
 10
287.577
 20
118.73699999999999
 30
0.0
 70
    32
  0
VERTEX
  5
D8E
  8
0
 10
287.577
 20
118.73699999999999
 30
0.0
 70
    32
  0
VERTEX
  5
D8F
  8
0
 10
287.577
 20
118.738
 30
0.0
 70
    32
  0
VERTEX
  5
D90
  8
0
 10
287.577
 20
118.738
 30
0.0
 70
    32
  0
VERTEX
  5
D91
  8
0
 10
287.577
 20
118.738
 30
0.0
 70
    32
  0
VERTEX
  5
D92
  8
0
 10
287.577
 20
118.738
 30
0.0
 70
    32
  0
VERTEX
  5
D93
  8
0
 10
287.577
 20
118.739
 30
0.0
 70
    32
  0
VERTEX
  5
D94
  8
0
 10
287.577
 20
118.739
 30
0.0
 70
    32
  0
VERTEX
  5
D95
  8
0
 10
287.577
 20
118.739
 30
0.0
 70
    32
  0
VERTEX
  5
D96
  8
0
 10
287.577
 20
118.739
 30
0.0
 70
    32
  0
VERTEX
  5
D97
  8
0
 10
287.577
 20
118.73999999999999
 30
0.0
 70
    32
  0
VERTEX
  5
D98
  8
0
 10
287.577
 20
118.73999999999999
 30
0.0
 70
    32
  0
VERTEX
  5
D99
  8
0
 10
287.577
 20
118.73999999999999
 30
0.0
 70
    32
  0
VERTEX
  5
D9A
  8
0
 10
287.57600000000002
 20
118.73999999999999
 30
0.0
 70
    32
  0
VERTEX
  5
D9B
  8
0
 10
287.57600000000002
 20
118.741
 30
0.0
 70
    32
  0
VERTEX
  5
D9C
  8
0
 10
287.57600000000002
 20
118.741
 30
0.0
 70
    32
  0
SEQEND
  5
D9D
  8
0
  0
POLYLINE
  5
D9E
  8
0
 66
     1
 10
0.0
 20
0.0
 30
0.0
 70
     8
  0
VERTEX
  5
D9F
  8
0
 10
293.03500000000003
 20
117.809
 30
0.0
 70
    32
  0
VERTEX
  5
DA0
  8
0
 10
293.03500000000003
 20
117.809
 30
0.0
 70
    32
  0
VERTEX
  5
DA1
  8
0
 10
293.03500000000003
 20
117.80800000000001
 30
0.0
 70
    32
  0
VERTEX
  5
DA2
  8
0
 10
293.03500000000003
 20
117.80800000000001
 30
0.0
 70
    32
  0
VERTEX
  5
DA3
  8
0
 10
293.03500000000003
 20
117.80800000000001
 30
0.0
 70
    32
  0
VERTEX
  5
DA4
  8
0
 10
293.03500000000003
 20
117.807
 30
0.0
 70
    32
  0
VERTEX
  5
DA5
  8
0
 10
293.03500000000003
 20
117.807
 30
0.0
 70
    32
  0
VERTEX
  5
DA6
  8
0
 10
293.036
 20
117.807
 30
0.0
 70
    32
  0
VERTEX
  5
DA7
  8
0
 10
293.036
 20
117.806
 30
0.0
 70
    32
  0
VERTEX
  5
DA8
  8
0
 10
293.036
 20
117.806
 30
0.0
 70
    32
  0
VERTEX
  5
DA9
  8
0
 10
293.036
 20
117.806
 30
0.0
 70
    32
  0
VERTEX
  5
DAA
  8
0
 10
293.036
 20
117.80500000000001
 30
0.0
 70
    32
  0
VERTEX
  5
DAB
  8
0
 10
293.036
 20
117.80500000000001
 30
0.0
 70
    32
  0
VERTEX
  5
DAC
  8
0
 10
293.036
 20
117.80500000000001
 30
0.0
 70
    32
  0
VERTEX
  5
DAD
  8
0
 10
293.036
 20
117.80500000000001
 30
0.0
 70
    32
  0
VERTEX
  5
DAE
  8
0
 10
293.036
 20
117.804
 30
0.0
 70
    32
  0
VERTEX
  5
DAF
  8
0
 10
293.036
 20
117.804
 30
0.0
 70
    32
  0
VERTEX
  5
DB0
  8
0
 10
293.036
 20
117.804
 30
0.0
 70
    32
  0
VERTEX
  5
DB1
  8
0
 10
293.036
 20
117.803
 30
0.0
 70
    32
  0
VERTEX
  5
DB2
  8
0
 10
293.036
 20
117.803
 30
0.0
 70
    32
  0
VERTEX
  5
DB3
  8
0
 10
293.036
 20
117.803
 30
0.0
 70
    32
  0
VERTEX
  5
DB4
  8
0
 10
293.036
 20
117.80200000000001
 30
0.0
 70
    32
  0
VERTEX
  5
DB5
  8
0
 10
293.036
 20
117.80200000000001
 30
0.0
 70
    32
  0
VERTEX
  5
DB6
  8
0
 10
293.036
 20
117.80200000000001
 30
0.0
 70
    32
  0
VERTEX
  5
DB7
  8
0
 10
293.036
 20
117.801
 30
0.0
 70
    32
  0
VERTEX
  5
DB8
  8
0
 10
293.036
 20
117.801
 30
0.0
 70
    32
  0
VERTEX
  5
DB9
  8
0
 10
293.036
 20
117.801
 30
0.0
 70
    32
  0
VERTEX
  5
DBA
  8
0
 10
293.036
 20
117.8
 30
0.0
 70
    32
  0
VERTEX
  5
DBB
  8
0
 10
293.036
 20
117.8
 30
0.0
 70
    32
  0
VERTEX
  5
DBC
  8
0
 10
293.036
 20
117.8
 30
0.0
 70
    32
  0
VERTEX
  5
DBD
  8
0
 10
293.036
 20
117.79900000000001
 30
0.0
 70
    32
  0
VERTEX
  5
DBE
  8
0
 10
293.036
 20
117.79900000000001
 30
0.0
 70
    32
  0
VERTEX
  5
DBF
  8
0
 10
293.036
 20
117.79900000000001
 30
0.0
 70
    32
  0
VERTEX
  5
DC0
  8
0
 10
293.036
 20
117.79900000000001
 30
0.0
 70
    32
  0
VERTEX
  5
DC1
  8
0
 10
293.03699999999998
 20
117.798
 30
0.0
 70
    32
  0
VERTEX
  5
DC2
  8
0
 10
293.03699999999998
 20
117.798
 30
0.0
 70
    32
  0
VERTEX
  5
DC3
  8
0
 10
293.03699999999998
 20
117.798
 30
0.0
 70
    32
  0
VERTEX
  5
DC4
  8
0
 10
293.03699999999998
 20
117.797
 30
0.0
 70
    32
  0
VERTEX
  5
DC5
  8
0
 10
293.03699999999998
 20
117.797
 30
0.0
 70
    32
  0
VERTEX
  5
DC6
  8
0
 10
293.03699999999998
 20
117.797
 30
0.0
 70
    32
  0
VERTEX
  5
DC7
  8
0
 10
293.03699999999998
 20
117.79600000000001
 30
0.0
 70
    32
  0
VERTEX
  5
DC8
  8
0
 10
293.03699999999998
 20
117.79600000000001
 30
0.0
 70
    32
  0
VERTEX
  5
DC9
  8
0
 10
293.03699999999998
 20
117.79600000000001
 30
0.0
 70
    32
  0
VERTEX
  5
DCA
  8
0
 10
293.03699999999998
 20
117.795
 30
0.0
 70
    32
  0
VERTEX
  5
DCB
  8
0
 10
293.03699999999998
 20
117.795
 30
0.0
 70
    32
  0
VERTEX
  5
DCC
  8
0
 10
293.03699999999998
 20
117.795
 30
0.0
 70
    32
  0
VERTEX
  5
DCD
  8
0
 10
293.03699999999998
 20
117.794
 30
0.0
 70
    32
  0
VERTEX
  5
DCE
  8
0
 10
293.03699999999998
 20
117.794
 30
0.0
 70
    32
  0
VERTEX
  5
DCF
  8
0
 10
293.03699999999998
 20
117.794
 30
0.0
 70
    32
  0
VERTEX
  5
DD0
  8
0
 10
293.03699999999998
 20
117.794
 30
0.0
 70
    32
  0
VERTEX
  5
DD1
  8
0
 10
293.03699999999998
 20
117.79300000000001
 30
0.0
 70
    32
  0
VERTEX
  5
DD2
  8
0
 10
293.03699999999998
 20
117.79300000000001
 30
0.0
 70
    32
  0
VERTEX
  5
DD3
  8
0
 10
293.03699999999998
 20
117.79300000000001
 30
0.0
 70
    32
  0
VERTEX
  5
DD4
  8
0
 10
293.03699999999998
 20
117.792
 30
0.0
 70
    32
  0
VERTEX
  5
DD5
  8
0
 10
293.03699999999998
 20
117.792
 30
0.0
 70
    32
  0
VERTEX
  5
DD6
  8
0
 10
293.03699999999998
 20
117.792
 30
0.0
 70
    32
  0
VERTEX
  5
DD7
  8
0
 10
293.03699999999998
 20
117.791
 30
0.0
 70
    32
  0
VERTEX
  5
DD8
  8
0
 10
293.03699999999998
 20
117.791
 30
0.0
 70
    32
  0
VERTEX
  5
DD9
  8
0
 10
293.03699999999998
 20
117.791
 30
0.0
 70
    32
  0
VERTEX
  5
DDA
  8
0
 10
293.03699999999998
 20
117.79000000000001
 30
0.0
 70
    32
  0
VERTEX
  5
DDB
  8
0
 10
293.03699999999998
 20
117.79000000000001
 30
0.0
 70
    32
  0
VERTEX
  5
DDC
  8
0
 10
293.03699999999998
 20
117.79000000000001
 30
0.0
 70
    32
  0
VERTEX
  5
DDD
  8
0
 10
293.03699999999998
 20
117.789
 30
0.0
 70
    32
  0
VERTEX
  5
DDE
  8
0
 10
293.03699999999998
 20
117.789
 30
0.0
 70
    32
  0
VERTEX
  5
DDF
  8
0
 10
293.03699999999998
 20
117.789
 30
0.0
 70
    32
  0
VERTEX
  5
DE0
  8
0
 10
293.03699999999998
 20
117.788
 30
0.0
 70
    32
  0
VERTEX
  5
DE1
  8
0
 10
293.03699999999998
 20
117.788
 30
0.0
 70
    32
  0
VERTEX
  5
DE2
  8
0
 10
293.03699999999998
 20
117.788
 30
0.0
 70
    32
  0
VERTEX
  5
DE3
  8
0
 10
293.03699999999998
 20
117.788
 30
0.0
 70
    32
  0
VERTEX
  5
DE4
  8
0
 10
293.03699999999998
 20
117.78700000000001
 30
0.0
 70
    32
  0
VERTEX
  5
DE5
  8
0
 10
293.03699999999998
 20
117.78700000000001
 30
0.0
 70
    32
  0
VERTEX
  5
DE6
  8
0
 10
293.03699999999998
 20
117.78700000000001
 30
0.0
 70
    32
  0
VERTEX
  5
DE7
  8
0
 10
293.03699999999998
 20
117.786
 30
0.0
 70
    32
  0
VERTEX
  5
DE8
  8
0
 10
293.03699999999998
 20
117.786
 30
0.0
 70
    32
  0
VERTEX
  5
DE9
  8
0
 10
293.03699999999998
 20
117.786
 30
0.0
 70
    32
  0
VERTEX
  5
DEA
  8
0
 10
293.03699999999998
 20
117.785
 30
0.0
 70
    32
  0
VERTEX
  5
DEB
  8
0
 10
293.03699999999998
 20
117.785
 30
0.0
 70
    32
  0
VERTEX
  5
DEC
  8
0
 10
293.03699999999998
 20
117.785
 30
0.0
 70
    32
  0
VERTEX
  5
DED
  8
0
 10
293.03699999999998
 20
117.78400000000001
 30
0.0
 70
    32
  0
VERTEX
  5
DEE
  8
0
 10
293.03699999999998
 20
117.78400000000001
 30
0.0
 70
    32
  0
VERTEX
  5
DEF
  8
0
 10
293.03699999999998
 20
117.78400000000001
 30
0.0
 70
    32
  0
VERTEX
  5
DF0
  8
0
 10
293.03699999999998
 20
117.783
 30
0.0
 70
    32
  0
VERTEX
  5
DF1
  8
0
 10
293.036
 20
117.783
 30
0.0
 70
    32
  0
VERTEX
  5
DF2
  8
0
 10
293.036
 20
117.783
 30
0.0
 70
    32
  0
VERTEX
  5
DF3
  8
0
 10
293.036
 20
117.782
 30
0.0
 70
    32
  0
VERTEX
  5
DF4
  8
0
 10
293.036
 20
117.782
 30
0.0
 70
    32
  0
VERTEX
  5
DF5
  8
0
 10
293.036
 20
117.782
 30
0.0
 70
    32
  0
VERTEX
  5
DF6
  8
0
 10
293.036
 20
117.782
 30
0.0
 70
    32
  0
VERTEX
  5
DF7
  8
0
 10
293.036
 20
117.78100000000001
 30
0.0
 70
    32
  0
VERTEX
  5
DF8
  8
0
 10
293.036
 20
117.78100000000001
 30
0.0
 70
    32
  0
VERTEX
  5
DF9
  8
0
 10
293.036
 20
117.78100000000001
 30
0.0
 70
    32
  0
VERTEX
  5
DFA
  8
0
 10
293.036
 20
117.78
 30
0.0
 70
    32
  0
VERTEX
  5
DFB
  8
0
 10
293.036
 20
117.78
 30
0.0
 70
    32
  0
VERTEX
  5
DFC
  8
0
 10
293.036
 20
117.78
 30
0.0
 70
    32
  0
VERTEX
  5
DFD
  8
0
 10
293.036
 20
117.779
 30
0.0
 70
    32
  0
VERTEX
  5
DFE
  8
0
 10
293.036
 20
117.779
 30
0.0
 70
    32
  0
VERTEX
  5
DFF
  8
0
 10
293.036
 20
117.779
 30
0.0
 70
    32
  0
VERTEX
  5
E00
  8
0
 10
293.036
 20
117.77800000000001
 30
0.0
 70
    32
  0
VERTEX
  5
E01
  8
0
 10
293.036
 20
117.77800000000001
 30
0.0
 70
    32
  0
VERTEX
  5
E02
  8
0
 10
293.036
 20
117.77800000000001
 30
0.0
 70
    32
  0
VERTEX
  5
E03
  8
0
 10
293.036
 20
117.777
 30
0.0
 70
    32
  0
VERTEX
  5
E04
  8
0
 10
293.03500000000003
 20
117.777
 30
0.0
 70
    32
  0
VERTEX
  5
E05
  8
0
 10
293.03500000000003
 20
117.777
 30
0.0
 70
    32
  0
VERTEX
  5
E06
  8
0
 10
293.03500000000003
 20
117.776
 30
0.0
 70
    32
  0
VERTEX
  5
E07
  8
0
 10
293.03500000000003
 20
117.776
 30
0.0
 70
    32
  0
VERTEX
  5
E08
  8
0
 10
293.03500000000003
 20
117.776
 30
0.0
 70
    32
  0
VERTEX
  5
E09
  8
0
 10
293.03500000000003
 20
117.77500000000001
 30
0.0
 70
    32
  0
VERTEX
  5
E0A
  8
0
 10
293.03500000000003
 20
117.77500000000001
 30
0.0
 70
    32
  0
VERTEX
  5
E0B
  8
0
 10
293.03500000000003
 20
117.77500000000001
 30
0.0
 70
    32
  0
VERTEX
  5
E0C
  8
0
 10
293.03500000000003
 20
117.774
 30
0.0
 70
    32
  0
VERTEX
  5
E0D
  8
0
 10
293.03500000000003
 20
117.774
 30
0.0
 70
    32
  0
VERTEX
  5
E0E
  8
0
 10
293.03500000000003
 20
117.774
 30
0.0
 70
    32
  0
VERTEX
  5
E0F
  8
0
 10
293.03500000000003
 20
117.774
 30
0.0
 70
    32
  0
VERTEX
  5
E10
  8
0
 10
293.03500000000003
 20
117.773
 30
0.0
 70
    32
  0
VERTEX
  5
E11
  8
0
 10
293.03500000000003
 20
117.773
 30
0.0
 70
    32
  0
VERTEX
  5
E12
  8
0
 10
293.03399999999999
 20
117.773
 30
0.0
 70
    32
  0
VERTEX
  5
E13
  8
0
 10
293.03399999999999
 20
117.77200000000001
 30
0.0
 70
    32
  0
VERTEX
  5
E14
  8
0
 10
293.03399999999999
 20
117.77200000000001
 30
0.0
 70
    32
  0
VERTEX
  5
E15
  8
0
 10
293.03399999999999
 20
117.77200000000001
 30
0.0
 70
    32
  0
VERTEX
  5
E16
  8
0
 10
293.03399999999999
 20
117.771
 30
0.0
 70
    32
  0
VERTEX
  5
E17
  8
0
 10
293.03399999999999
 20
117.771
 30
0.0
 70
    32
  0
VERTEX
  5
E18
  8
0
 10
293.03399999999999
 20
117.771
 30
0.0
 70
    32
  0
VERTEX
  5
E19
  8
0
 10
293.03399999999999
 20
117.77
 30
0.0
 70
    32
  0
VERTEX
  5
E1A
  8
0
 10
293.03399999999999
 20
117.77
 30
0.0
 70
    32
  0
VERTEX
  5
E1B
  8
0
 10
293.03399999999999
 20
117.77
 30
0.0
 70
    32
  0
VERTEX
  5
E1C
  8
0
 10
293.03399999999999
 20
117.76900000000001
 30
0.0
 70
    32
  0
VERTEX
  5
E1D
  8
0
 10
293.03300000000002
 20
117.76900000000001
 30
0.0
 70
    32
  0
VERTEX
  5
E1E
  8
0
 10
293.03300000000002
 20
117.76900000000001
 30
0.0
 70
    32
  0
VERTEX
  5
E1F
  8
0
 10
293.03300000000002
 20
117.768
 30
0.0
 70
    32
  0
VERTEX
  5
E20
  8
0
 10
293.03300000000002
 20
117.768
 30
0.0
 70
    32
  0
VERTEX
  5
E21
  8
0
 10
293.03300000000002
 20
117.768
 30
0.0
 70
    32
  0
VERTEX
  5
E22
  8
0
 10
293.03300000000002
 20
117.767
 30
0.0
 70
    32
  0
VERTEX
  5
E23
  8
0
 10
293.03300000000002
 20
117.767
 30
0.0
 70
    32
  0
VERTEX
  5
E24
  8
0
 10
293.03300000000002
 20
117.767
 30
0.0
 70
    32
  0
VERTEX
  5
E25
  8
0
 10
293.03300000000002
 20
117.767
 30
0.0
 70
    32
  0
VERTEX
  5
E26
  8
0
 10
293.03300000000002
 20
117.76600000000001
 30
0.0
 70
    32
  0
VERTEX
  5
E27
  8
0
 10
293.03199999999998
 20
117.76600000000001
 30
0.0
 70
    32
  0
VERTEX
  5
E28
  8
0
 10
293.03199999999998
 20
117.76600000000001
 30
0.0
 70
    32
  0
VERTEX
  5
E29
  8
0
 10
293.03199999999998
 20
117.765
 30
0.0
 70
    32
  0
VERTEX
  5
E2A
  8
0
 10
293.03199999999998
 20
117.765
 30
0.0
 70
    32
  0
VERTEX
  5
E2B
  8
0
 10
293.03199999999998
 20
117.765
 30
0.0
 70
    32
  0
VERTEX
  5
E2C
  8
0
 10
293.03199999999998
 20
117.764
 30
0.0
 70
    32
  0
VERTEX
  5
E2D
  8
0
 10
293.03199999999998
 20
117.764
 30
0.0
 70
    32
  0
VERTEX
  5
E2E
  8
0
 10
293.03199999999998
 20
117.764
 30
0.0
 70
    32
  0
VERTEX
  5
E2F
  8
0
 10
293.03199999999998
 20
117.76300000000001
 30
0.0
 70
    32
  0
VERTEX
  5
E30
  8
0
 10
293.03100000000001
 20
117.76300000000001
 30
0.0
 70
    32
  0
VERTEX
  5
E31
  8
0
 10
293.03100000000001
 20
117.76300000000001
 30
0.0
 70
    32
  0
VERTEX
  5
E32
  8
0
 10
293.03100000000001
 20
117.762
 30
0.0
 70
    32
  0
VERTEX
  5
E33
  8
0
 10
293.03100000000001
 20
117.762
 30
0.0
 70
    32
  0
VERTEX
  5
E34
  8
0
 10
293.03100000000001
 20
117.762
 30
0.0
 70
    32
  0
VERTEX
  5
E35
  8
0
 10
293.03100000000001
 20
117.761
 30
0.0
 70
    32
  0
VERTEX
  5
E36
  8
0
 10
293.03100000000001
 20
117.761
 30
0.0
 70
    32
  0
VERTEX
  5
E37
  8
0
 10
293.03100000000001
 20
117.761
 30
0.0
 70
    32
  0
VERTEX
  5
E38
  8
0
 10
293.02999999999997
 20
117.761
 30
0.0
 70
    32
  0
VERTEX
  5
E39
  8
0
 10
293.02999999999997
 20
117.76000000000001
 30
0.0
 70
    32
  0
VERTEX
  5
E3A
  8
0
 10
293.02999999999997
 20
117.76000000000001
 30
0.0
 70
    32
  0
VERTEX
  5
E3B
  8
0
 10
293.02999999999997
 20
117.76000000000001
 30
0.0
 70
    32
  0
VERTEX
  5
E3C
  8
0
 10
293.02999999999997
 20
117.759
 30
0.0
 70
    32
  0
VERTEX
  5
E3D
  8
0
 10
293.02999999999997
 20
117.759
 30
0.0
 70
    32
  0
VERTEX
  5
E3E
  8
0
 10
293.02999999999997
 20
117.759
 30
0.0
 70
    32
  0
VERTEX
  5
E3F
  8
0
 10
293.02999999999997
 20
117.758
 30
0.0
 70
    32
  0
VERTEX
  5
E40
  8
0
 10
293.029
 20
117.758
 30
0.0
 70
    32
  0
VERTEX
  5
E41
  8
0
 10
293.029
 20
117.758
 30
0.0
 70
    32
  0
VERTEX
  5
E42
  8
0
 10
293.029
 20
117.75700000000001
 30
0.0
 70
    32
  0
VERTEX
  5
E43
  8
0
 10
293.029
 20
117.75700000000001
 30
0.0
 70
    32
  0
VERTEX
  5
E44
  8
0
 10
293.029
 20
117.75700000000001
 30
0.0
 70
    32
  0
VERTEX
  5
E45
  8
0
 10
293.029
 20
117.75700000000001
 30
0.0
 70
    32
  0
VERTEX
  5
E46
  8
0
 10
293.029
 20
117.756
 30
0.0
 70
    32
  0
VERTEX
  5
E47
  8
0
 10
293.029
 20
117.756
 30
0.0
 70
    32
  0
VERTEX
  5
E48
  8
0
 10
293.02800000000002
 20
117.756
 30
0.0
 70
    32
  0
VERTEX
  5
E49
  8
0
 10
293.02800000000002
 20
117.755
 30
0.0
 70
    32
  0
VERTEX
  5
E4A
  8
0
 10
293.02800000000002
 20
117.755
 30
0.0
 70
    32
  0
VERTEX
  5
E4B
  8
0
 10
293.02800000000002
 20
117.755
 30
0.0
 70
    32
  0
VERTEX
  5
E4C
  8
0
 10
293.02800000000002
 20
117.754
 30
0.0
 70
    32
  0
VERTEX
  5
E4D
  8
0
 10
293.02800000000002
 20
117.754
 30
0.0
 70
    32
  0
VERTEX
  5
E4E
  8
0
 10
293.02800000000002
 20
117.754
 30
0.0
 70
    32
  0
VERTEX
  5
E4F
  8
0
 10
293.02699999999999
 20
117.754
 30
0.0
 70
    32
  0
VERTEX
  5
E50
  8
0
 10
293.02699999999999
 20
117.753
 30
0.0
 70
    32
  0
VERTEX
  5
E51
  8
0
 10
293.02699999999999
 20
117.753
 30
0.0
 70
    32
  0
VERTEX
  5
E52
  8
0
 10
293.02699999999999
 20
117.753
 30
0.0
 70
    32
  0
VERTEX
  5
E53
  8
0
 10
293.02699999999999
 20
117.752
 30
0.0
 70
    32
  0
VERTEX
  5
E54
  8
0
 10
293.02699999999999
 20
117.752
 30
0.0
 70
    32
  0
VERTEX
  5
E55
  8
0
 10
293.02600000000001
 20
117.752
 30
0.0
 70
    32
  0
VERTEX
  5
E56
  8
0
 10
293.02600000000001
 20
117.752
 30
0.0
 70
    32
  0
VERTEX
  5
E57
  8
0
 10
293.02600000000001
 20
117.751
 30
0.0
 70
    32
  0
VERTEX
  5
E58
  8
0
 10
293.02600000000001
 20
117.751
 30
0.0
 70
    32
  0
VERTEX
  5
E59
  8
0
 10
293.02600000000001
 20
117.751
 30
0.0
 70
    32
  0
VERTEX
  5
E5A
  8
0
 10
293.02600000000001
 20
117.751
 30
0.0
 70
    32
  0
VERTEX
  5
E5B
  8
0
 10
293.02499999999998
 20
117.75
 30
0.0
 70
    32
  0
VERTEX
  5
E5C
  8
0
 10
293.02499999999998
 20
117.75
 30
0.0
 70
    32
  0
VERTEX
  5
E5D
  8
0
 10
293.02499999999998
 20
117.75
 30
0.0
 70
    32
  0
VERTEX
  5
E5E
  8
0
 10
293.02499999999998
 20
117.749
 30
0.0
 70
    32
  0
VERTEX
  5
E5F
  8
0
 10
293.02499999999998
 20
117.749
 30
0.0
 70
    32
  0
VERTEX
  5
E60
  8
0
 10
293.02499999999998
 20
117.749
 30
0.0
 70
    32
  0
VERTEX
  5
E61
  8
0
 10
293.024
 20
117.749
 30
0.0
 70
    32
  0
VERTEX
  5
E62
  8
0
 10
293.024
 20
117.748
 30
0.0
 70
    32
  0
VERTEX
  5
E63
  8
0
 10
293.024
 20
117.748
 30
0.0
 70
    32
  0
VERTEX
  5
E64
  8
0
 10
293.024
 20
117.748
 30
0.0
 70
    32
  0
VERTEX
  5
E65
  8
0
 10
293.024
 20
117.748
 30
0.0
 70
    32
  0
VERTEX
  5
E66
  8
0
 10
293.024
 20
117.747
 30
0.0
 70
    32
  0
VERTEX
  5
E67
  8
0
 10
293.02300000000002
 20
117.747
 30
0.0
 70
    32
  0
VERTEX
  5
E68
  8
0
 10
293.02300000000002
 20
117.747
 30
0.0
 70
    32
  0
VERTEX
  5
E69
  8
0
 10
293.02300000000002
 20
117.747
 30
0.0
 70
    32
  0
VERTEX
  5
E6A
  8
0
 10
293.02300000000002
 20
117.747
 30
0.0
 70
    32
  0
VERTEX
  5
E6B
  8
0
 10
293.02300000000002
 20
117.746
 30
0.0
 70
    32
  0
VERTEX
  5
E6C
  8
0
 10
293.02199999999999
 20
117.746
 30
0.0
 70
    32
  0
VERTEX
  5
E6D
  8
0
 10
293.02199999999999
 20
117.746
 30
0.0
 70
    32
  0
VERTEX
  5
E6E
  8
0
 10
293.02199999999999
 20
117.746
 30
0.0
 70
    32
  0
VERTEX
  5
E6F
  8
0
 10
293.02199999999999
 20
117.745
 30
0.0
 70
    32
  0
VERTEX
  5
E70
  8
0
 10
293.02199999999999
 20
117.745
 30
0.0
 70
    32
  0
VERTEX
  5
E71
  8
0
 10
293.02100000000002
 20
117.745
 30
0.0
 70
    32
  0
VERTEX
  5
E72
  8
0
 10
293.02100000000002
 20
117.745
 30
0.0
 70
    32
  0
VERTEX
  5
E73
  8
0
 10
293.02100000000002
 20
117.745
 30
0.0
 70
    32
  0
VERTEX
  5
E74
  8
0
 10
293.02100000000002
 20
117.744
 30
0.0
 70
    32
  0
VERTEX
  5
E75
  8
0
 10
293.02100000000002
 20
117.744
 30
0.0
 70
    32
  0
VERTEX
  5
E76
  8
0
 10
293.01999999999998
 20
117.744
 30
0.0
 70
    32
  0
VERTEX
  5
E77
  8
0
 10
293.01999999999998
 20
117.744
 30
0.0
 70
    32
  0
VERTEX
  5
E78
  8
0
 10
293.01999999999998
 20
117.744
 30
0.0
 70
    32
  0
VERTEX
  5
E79
  8
0
 10
293.01999999999998
 20
117.74299999999999
 30
0.0
 70
    32
  0
VERTEX
  5
E7A
  8
0
 10
293.01999999999998
 20
117.74299999999999
 30
0.0
 70
    32
  0
VERTEX
  5
E7B
  8
0
 10
293.01900000000001
 20
117.74299999999999
 30
0.0
 70
    32
  0
VERTEX
  5
E7C
  8
0
 10
293.01900000000001
 20
117.74299999999999
 30
0.0
 70
    32
  0
VERTEX
  5
E7D
  8
0
 10
293.01900000000001
 20
117.74299999999999
 30
0.0
 70
    32
  0
VERTEX
  5
E7E
  8
0
 10
293.01900000000001
 20
117.742
 30
0.0
 70
    32
  0
SEQEND
  5
E7F
  8
0
  0
LINE
  5
20D
  8
0
  6
CONTINUOUS
 10
287.42002136000002
 20
119.4391493599
 30
0.0
 11
287.34005904200001
 21
119.4853106235
 31
0.0
  0
ARC
  5
20E
  8
0
  6
CONTINUOUS
 10
293.02917460399999
 20
117.8049343541
 30
0.0
 40
0.0261961268322625
 50
290.78283522509997
 51
69.220862176099999
  0
ARC
  5
20F
  8
0
  6
CONTINUOUS
 10
293.02602343450002
 20
118.2340503745
 30
0.0
 40
0.0301685227561196
 50
5.6893107747
 51
65.637680940999999
  0
LINE
  5
210
  8
0
  6
CONTINUOUS
 10
282.37320572729999
 20
121.68912064680001
 30
0.0
 11
276.907041069
 21
127.0668687989
 31
0.0
  0
LINE
  5
211
  8
0
  6
CONTINUOUS
 10
282.36381330210008
 20
121.6637346016
 30
0.0
 11
276.89764864390003
 21
127.0414827537
 31
0.0
  0
LINE
  5
212
  8
0
  6
CONTINUOUS
 10
193.9754656538
 20
70.638227612700021
 30
0.0
 11
188.50930099550001
 21
76.01597576479999
 31
0.0
  0
ARC
  5
213
  8
0
  6
CONTINUOUS
 10
276.95064462350001
 20
127.11175128169999
 30
0.0
 40
0.0625756120422637
 50
182.90221767439991
 51
225.8280639283
  0
ARC
  5
214
  8
0
  6
CONTINUOUS
 10
276.98485400530001
 20
127.131246928
 30
0.0
 40
0.1251494388319261
 50
182.901896333
 51
225.82838526960001
  0
ARC
  5
215
  8
0
  6
CONTINUOUS
 10
188.59650635700001
 20
76.105739939000003
 30
0.0
 40
0.1251494388319935
 50
182.901896333
 51
225.82838526960001
  0
LINE
  5
216
  8
0
  6
CONTINUOUS
 10
276.81744003009999
 20
127.5440882188
 30
0.0
 11
276.81744003009999
 21
127.56041904049999
 31
0.0
  0
LINE
  5
217
  8
0
  6
CONTINUOUS
 10
276.85986504779999
 20
127.51958721859999
 30
0.0
 11
276.81744003009999
 21
127.5440882188
 31
0.0
  0
LINE
  5
218
  8
0
  6
CONTINUOUS
 10
276.85986504779999
 20
127.1249111131
 30
0.0
 11
276.85986504779999
 21
127.51958721859999
 31
0.0
  0
LINE
  5
219
  8
0
  6
CONTINUOUS
 10
188.47151739949999
 20
76.099404124200007
 30
0.0
 11
188.47151739949999
 21
76.494080229700003
 31
0.0
  0
LINE
  5
21A
  8
0
  6
CONTINUOUS
 10
188.51394241720001
 20
76.567564112699984
 30
0.0
 11
188.47151739949999
 21
76.494080229700003
 31
0.0
  0
LINE
  5
21B
  8
0
  6
CONTINUOUS
 10
188.51394241720001
 20
76.567564112699984
 30
0.0
 11
188.51394241720001
 21
76.583894934399993
 31
0.0
  0
LINE
  5
21C
  8
0
  6
CONTINUOUS
 10
276.88814927099997
 20
127.50325908409999
 30
0.0
 11
276.85986504779999
 21
127.51958721859999
 31
0.0
  0
LINE
  5
21D
  8
0
  6
CONTINUOUS
 10
276.88814927099997
 20
127.1085829786
 30
0.0
 11
276.88814927099997
 21
127.50325908409999
 31
0.0
  0
LINE
  5
21E
  8
0
  6
CONTINUOUS
 10
276.84572425329998
 20
127.5277600843
 30
0.0
 11
276.81744003009999
 21
127.5440882188
 31
0.0
  0
LINE
  5
21F
  8
0
  6
CONTINUOUS
 10
276.84572425329998
 20
127.5277600843
 30
0.0
 11
276.88814927099997
 21
127.50325908409999
 31
0.0
  0
ARC
  5
220
  8
0
  6
CONTINUOUS
 10
276.86296734619998
 20
127.546887779
 30
0.0
 40
0.0174684501847244
 50
50.7976386753
 51
189.21327914450001
  0
ARC
  5
221
  8
0
  6
CONTINUOUS
 10
276.85192608429998
 20
127.5660130145
 30
0.0
 40
0.0349368068921404
 50
50.797234937299997
 51
189.2136828825
  0
LINE
  5
222
  8
0
  6
CONTINUOUS
 10
277.24170443179997
 20
127.3808196781
 30
0.0
 11
276.87400847650002
 21
127.5930860348
 31
0.0
  0
LINE
  5
223
  8
0
  6
CONTINUOUS
 10
276.87643824230003
 20
127.5590217292
 30
0.0
 11
276.87400847650002
 21
127.5604244032
 31
0.0
  0
LINE
  5
224
  8
0
  6
CONTINUOUS
 10
276.84572425329998
 20
127.54409090599999
 30
0.0
 11
276.84572425329998
 21
127.5277600843
 31
0.0
  0
ARC
  5
225
  8
0
  6
CONTINUOUS
 10
188.55029490539999
 20
76.5895099122
 30
0.0
 40
0.0367835747745624
 50
122.5305656397
 51
188.78047431499999
  0
POLYLINE
  5
226
  8
0
  6
CONTINUOUS
 66
     1
 10
0.0
 20
0.0
 30
0.0
 70
   128
  0
VERTEX
  5
F6D
  8
0
  6
CONTINUOUS
 10
282.43771674729999
 20
121.66799282789999
 30
0.0
  0
VERTEX
  5
F6E
  8
0
  6
CONTINUOUS
 10
282.4338460861
 20
121.6572641584
 30
0.0
  0
VERTEX
  5
F6F
  8
0
  6
CONTINUOUS
 10
282.42771714409997
 20
121.6490577325
 30
0.0
  0
VERTEX
  5
F70
  8
0
  6
CONTINUOUS
 10
282.41960018790002
 20
121.6437352515
 30
0.0
  0
VERTEX
  5
F71
  8
0
  6
CONTINUOUS
 10
282.40985267550002
 20
121.64153112379999
 30
0.0
  0
VERTEX
  5
F72
  8
0
  6
CONTINUOUS
 10
282.39890424129999
 20
121.6425428809
 30
0.0
  0
VERTEX
  5
F73
  8
0
  6
CONTINUOUS
 10
282.38723720339999
 20
121.64672539670001
 30
0.0
  0
VERTEX
  5
F74
  8
0
  6
CONTINUOUS
 10
282.3753657533
 20
121.6538946874
 30
0.0
  0
VERTEX
  5
F75
  8
0
  6
CONTINUOUS
 10
282.36381330210008
 20
121.6637346016
 30
0.0
  0
SEQEND
  5
F76
  8
0
  6
CONTINUOUS
  0
ARC
  5
227
  8
0
  6
CONTINUOUS
 10
194.01717043490001
 20
70.668073055699992
 30
0.0
 40
0.0512839081798686
 50
215.58887391510001
 51
289.45020672959998
  0
POLYLINE
  5
228
  8
0
  6
CONTINUOUS
 66
     1
 10
0.0
 20
0.0
 30
0.0
 70
   128
  0
VERTEX
  5
F77
  8
0
  6
CONTINUOUS
 10
282.4101574499
 20
121.6912497599
 30
0.0
  0
VERTEX
  5
F78
  8
0
  6
CONTINUOUS
 10
282.40822211929998
 20
121.6858854252
 30
0.0
  0
VERTEX
  5
F79
  8
0
  6
CONTINUOUS
 10
282.40515778000002
 20
121.6817821362
 30
0.0
  0
VERTEX
  5
F7A
  8
0
  6
CONTINUOUS
 10
282.40109903849998
 20
121.6791210478
 30
0.0
  0
VERTEX
  5
F7B
  8
0
  6
CONTINUOUS
 10
282.39622528230001
 20
121.678019136
 30
0.0
  0
VERTEX
  5
F7C
  8
0
  6
CONTINUOUS
 10
282.3907511969
 20
121.67852463440001
 30
0.0
  0
VERTEX
  5
F7D
  8
0
  6
CONTINUOUS
 10
282.38491780959998
 20
121.6806161204
 30
0.0
  0
VERTEX
  5
F7E
  8
0
  6
CONTINUOUS
 10
282.37898195290001
 20
121.68420068970001
 30
0.0
  0
VERTEX
  5
F7F
  8
0
  6
CONTINUOUS
 10
282.37320572729999
 20
121.68912064680001
 30
0.0
  0
SEQEND
  5
F80
  8
0
  6
CONTINUOUS
  0
LINE
  5
229
  8
0
  6
CONTINUOUS
 10
282.49923349710002
 20
122.0853704451
 30
0.0
 11
282.4101574499
 21
121.6912497599
 31
0.0
  0
LINE
  5
22A
  8
0
  6
CONTINUOUS
 10
282.52679305790002
 20
122.0621135131
 30
0.0
 11
282.49923349710002
 21
122.0853704451
 31
0.0
  0
LINE
  5
22B
  8
0
  6
CONTINUOUS
 10
282.52679305790002
 20
122.0621135131
 30
0.0
 11
282.43771674729999
 21
121.66799282789999
 31
0.0
  0
LINE
  5
22C
  8
0
  6
CONTINUOUS
 10
282.49923349710002
 20
122.0853704451
 30
0.0
 11
282.48939510560001
 21
122.0906791748
 31
0.0
  0
LINE
  5
22D
  8
0
  6
CONTINUOUS
 10
282.53051225389999
 20
122.26180288499999
 30
0.0
 11
282.54463697990002
 21
122.24988319400001
 31
0.0
  0
LINE
  5
22E
  8
0
  6
CONTINUOUS
 10
282.5061379412
 20
122.0795433465
 30
0.0
 11
282.54463697990002
 21
122.24988319400001
 31
0.0
  0
LINE
  5
22F
  8
0
  6
CONTINUOUS
 10
287.28014044790001
 20
119.42722661179999
 30
0.0
 11
287.28652148079999
 21
119.4022376201
 31
0.0
  0
LINE
  5
230
  8
0
  6
CONTINUOUS
 10
287.38197987799998
 20
119.45734457979999
 30
0.0
 11
287.28652148079999
 21
119.4022376201
 31
0.0
  0
LINE
  5
231
  8
0
  6
CONTINUOUS
 10
287.38197987799998
 20
119.45734457979999
 30
0.0
 11
287.4217459564
 21
119.2354849357
 31
0.0
  0
LINE
  5
232
  8
0
  6
CONTINUOUS
 10
287.45639330009999
 20
119.21631586780001
 30
0.0
 11
287.4217459564
 21
119.2354849357
 31
0.0
  0
LINE
  5
233
  8
0
  6
CONTINUOUS
 10
287.54546961070002
 20
118.7193498635
 30
0.0
 11
287.45639330009999
 21
119.21631586780001
 31
0.0
  0
LINE
  5
234
  8
0
  6
CONTINUOUS
 10
287.48395286089999
 20
119.2077532082
 30
0.0
 11
287.45639330009999
 21
119.21631586780001
 31
0.0
  0
LINE
  5
235
  8
0
  6
CONTINUOUS
 10
287.57302890810001
 20
118.710787508
 30
0.0
 11
287.48395286089999
 21
119.2077532082
 31
0.0
  0
ARC
  5
236
  8
0
  6
CONTINUOUS
 10
287.62842146840001
 20
118.7188456188
 30
0.0
 40
0.0559756096975916
 50
188.27691697079999
 51
250.76495831029999
  0
ARC
  5
237
  8
0
  6
CONTINUOUS
 10
287.65625403929999
 20
118.7354655142
 30
0.0
 40
0.1119504525275052
 50
188.27667886399999
 51
250.765196417
  0
LINE
  5
238
  8
0
  6
CONTINUOUS
 10
293.07614528889991
 20
117.7326436174
 30
0.0
 11
287.60998063070002
 21
118.6659948441
 31
0.0
  0
LINE
  5
239
  8
0
  6
CONTINUOUS
 10
293.08553771409998
 20
117.69641330890001
 30
0.0
 11
287.61937305589998
 21
118.6297645356
 31
0.0
  0
LINE
  5
23A
  8
0
  6
CONTINUOUS
 10
204.69719006579999
 20
66.67090632
 30
0.0
 11
199.96636305409999
 21
67.478698228100001
 31
0.0
  0
LINE
  5
23B
  8
0
  6
CONTINUOUS
 10
287.4217459564
 20
119.2354849357
 30
0.0
 11
287.4493055172
 21
119.2269224282
 31
0.0
  0
LINE
  5
23C
  8
0
  6
CONTINUOUS
 10
287.4493055172
 20
119.2269224282
 30
0.0
 11
287.48395286089999
 21
119.2077532082
 31
0.0
  0
LINE
  5
23D
  8
0
  6
CONTINUOUS
 10
287.38197987799998
 20
119.45734457979999
 30
0.0
 11
287.39610460400002
 21
119.4529562092
 31
0.0
  0
LINE
  5
23E
  8
0
  6
CONTINUOUS
 10
287.41025540840002
 20
119.4447871237
 30
0.0
 11
287.4493055172
 21
119.2269224282
 31
0.0
  0
LINE
  5
23F
  8
0
  6
CONTINUOUS
 10
287.302249631
 20
119.4399899868
 30
0.0
 11
287.30863066389998
 21
119.4150009951
 31
0.0
  0
POLYLINE
  5
240
  8
0
  6
CONTINUOUS
 66
     1
 10
0.0
 20
0.0
 30
0.0
 70
   128
  0
VERTEX
  5
F81
  8
0
  6
CONTINUOUS
 10
293.09503708699998
 20
117.75254579129999
 30
0.0
  0
VERTEX
  5
F82
  8
0
  6
CONTINUOUS
 10
293.09470201950001
 20
117.7477279993
 30
0.0
  0
VERTEX
  5
F83
  8
0
  6
CONTINUOUS
 10
293.09370524650001
 20
117.743410872
 30
0.0
  0
VERTEX
  5
F84
  8
0
  6
CONTINUOUS
 10
293.09207047569998
 20
117.7396965799
 30
0.0
  0
VERTEX
  5
F85
  8
0
  6
CONTINUOUS
 10
293.089835639
 20
117.73667353019999
 30
0.0
  0
VERTEX
  5
F86
  8
0
  6
CONTINUOUS
 10
293.08705447380009
 20
117.73441283130001
 30
0.0
  0
VERTEX
  5
F87
  8
0
  6
CONTINUOUS
 10
293.08379283459999
 20
117.732968064
 30
0.0
  0
VERTEX
  5
F88
  8
0
  6
CONTINUOUS
 10
293.08012711250001
 20
117.7323738365
 30
0.0
  0
VERTEX
  5
F89
  8
0
  6
CONTINUOUS
 10
293.07614528889991
 20
117.7326436174
 30
0.0
  0
SEQEND
  5
F8A
  8
0
  6
CONTINUOUS
  0
POLYLINE
  5
241
  8
0
  6
CONTINUOUS
 66
     1
 10
0.0
 20
0.0
 30
0.0
 70
   128
  0
VERTEX
  5
F8B
  8
0
  6
CONTINUOUS
 10
293.12332131020008
 20
117.73621765679999
 30
0.0
  0
VERTEX
  5
F8C
  8
0
  6
CONTINUOUS
 10
293.12265117530001
 20
117.7265821109
 30
0.0
  0
VERTEX
  5
F8D
  8
0
  6
CONTINUOUS
 10
293.12065762930001
 20
117.7179478183
 30
0.0
  0
VERTEX
  5
F8E
  8
0
  6
CONTINUOUS
 10
293.11738808759998
 20
117.7105192339
 30
0.0
  0
VERTEX
  5
F8F
  8
0
  6
CONTINUOUS
 10
293.11291894110002
 20
117.70447283039999
 30
0.0
  0
VERTEX
  5
F90
  8
0
  6
CONTINUOUS
 10
293.10735661080008
 20
117.6999514326
 30
0.0
  0
VERTEX
  5
F91
  8
0
  6
CONTINUOUS
 10
293.10083280549998
 20
117.6970621641
 30
0.0
  0
VERTEX
  5
F92
  8
0
  6
CONTINUOUS
 10
293.09350188799999
 20
117.6958734431
 30
0.0
  0
VERTEX
  5
F93
  8
0
  6
CONTINUOUS
 10
293.08553771409998
 20
117.69641330890001
 30
0.0
  0
SEQEND
  5
F94
  8
0
  6
CONTINUOUS
  0
ARC
  5
242
  8
0
  6
CONTINUOUS
 10
204.7034582277
 20
66.701454879700009
 30
0.0
 40
0.0311850020761919
 50
258.40460178609999
 51
298.63199423819998
  0
LINE
  5
243
  8
0
  6
CONTINUOUS
 10
293.09503708699998
 20
118.14722189690001
 30
0.0
 11
293.09503708699998
 21
117.75254579129999
 31
0.0
  0
LINE
  5
244
  8
0
  6
CONTINUOUS
 10
293.12332131020008
 20
118.13089376240001
 30
0.0
 11
293.09503708699998
 21
118.14722189690001
 31
0.0
  0
LINE
  5
245
  8
0
  6
CONTINUOUS
 10
293.12332131020008
 20
118.13089376240001
 30
0.0
 11
293.12332131020008
 21
117.73621765679999
 31
0.0
  0
LINE
  5
246
  8
0
  6
CONTINUOUS
 10
293.09503708699998
 20
118.14722189690001
 30
0.0
 11
293.05604282270002
 21
118.1697409133
 31
0.0
  0
ARC
  5
247
  8
0
  6
CONTINUOUS
 10
292.9584571661
 20
118.1660088127
 30
0.0
 40
0.1225725137666356
 50
2.6732400317999989
 51
37.479440456799999
  0
LINE
  5
248
  8
0
  6
CONTINUOUS
 10
293.08089629239998
 20
118.15539476249999
 30
0.0
 11
293.05604334959997
 21
118.16974206099999
 31
0.0
  0
LINE
  5
249
  8
0
  6
CONTINUOUS
 10
293.02432784600001
 20
118.26970511650001
 30
0.0
 11
292.6566318908001
 21
118.48197147330001
 31
0.0
  0
LINE
  5
24A
  8
0
  6
CONTINUOUS
 10
293.08089629239998
 20
118.15539476249999
 30
0.0
 11
293.08089629239998
 21
118.1717255842
 31
0.0
  0
LINE
  5
24B
  8
0
  6
CONTINUOUS
 10
293.08089629239998
 20
118.15539476249999
 30
0.0
 11
293.12332131020008
 21
118.13089376240001
 31
0.0
  0
LINE
  5
24C
  8
0
  6
CONTINUOUS
 10
282.28270696049998
 20
120.9787453461
 30
0.0
 11
282.13853418209999
 21
120.89784297670001
 31
0.0
  0
LINE
  5
24D
  8
0
  6
CONTINUOUS
 10
282.89078272469999
 20
119.59491028479999
 30
0.0
 11
283.03322471640001
 21
119.67881031260001
 31
0.0
  0
LINE
  5
24E
  8
0
  6
CONTINUOUS
 10
282.1019372833
 20
121.076689312
 30
0.0
 11
282.24611006169999
 21
121.15759168140001
 31
0.0
  0
LINE
  5
24F
  8
0
  6
CONTINUOUS
 10
283.13320955339998
 20
119.57326569609999
 30
0.0
 11
282.99076756170001
 21
119.4893656683
 31
0.0
  0
LINE
  5
250
  8
0
  6
CONTINUOUS
 10
286.4974462074
 20
117.465003176
 30
0.0
 11
286.6378432866
 21
117.55008370660001
 31
0.0
  0
LINE
  5
251
  8
0
  6
CONTINUOUS
 10
286.73782812370001
 20
117.5401882875
 30
0.0
 11
286.59743104440008
 21
117.45510775690001
 31
0.0
  0
LINE
  5
252
  8
0
  6
CONTINUOUS
 10
194.24515912269999
 20
70.158077581200004
 30
0.0
 11
194.1064928301
 21
70.075700430400005
 31
0.0
  0
LINE
  5
253
  8
0
  6
CONTINUOUS
 10
194.857010586
 20
68.775765396899999
 30
0.0
 11
194.9974076652999
 21
68.855144889300007
 31
0.0
  0
LINE
  5
254
  8
0
  6
CONTINUOUS
 10
194.06989593130001
 20
70.254546765699985
 30
0.0
 11
194.2085622239
 21
70.336923916399996
 31
0.0
  0
LINE
  5
255
  8
0
  6
CONTINUOUS
 10
195.0973925022999
 20
68.749600272799995
 30
0.0
 11
194.956995423
 21
68.670220780400001
 31
0.0
  0
LINE
  5
256
  8
0
  6
CONTINUOUS
 10
198.46162915619999
 20
66.647038790899998
 30
0.0
 11
198.60407114789999
 21
66.725237780499995
 31
0.0
  0
LINE
  5
257
  8
0
  6
CONTINUOUS
 10
282.14719904729998
 20
120.88282807180001
 30
0.0
 11
194.2688282659999
 21
70.151724461699999
 31
0.0
  0
LINE
  5
258
  8
0
  6
CONTINUOUS
 10
195.0061881709
 20
68.874579646599997
 30
0.0
 11
282.88455895229998
 21
119.6056832567
 31
0.0
  0
LINE
  5
259
  8
0
  6
CONTINUOUS
 10
194.23222583539999
 20
70.330598021
 30
0.0
 11
282.09794834749999
 21
121.05439994069999
 31
0.0
  0
LINE
  5
25A
  8
0
  6
CONTINUOUS
 10
282.97884803779999
 20
119.49682576470001
 30
0.0
 11
195.10618815449999
 21
68.769018985700001
 31
0.0
  0
LINE
  5
25B
  8
0
  6
CONTINUOUS
 10
198.5952754958
 20
66.754811737200001
 30
0.0
 11
286.46743383170002
 21
117.4823289789
 31
0.0
  0
LINE
  5
25C
  8
0
  6
CONTINUOUS
 10
281.27767163039999
 20
120.98387560899999
 30
0.0
 11
281.27740057350002
 21
120.98411604189999
 31
0.0
  0
LINE
  5
25D
  8
0
  6
CONTINUOUS
 10
195.25106057049999
 20
71.321770131800008
 30
0.0
 11
195.25078951360001
 21
71.322010564700008
 31
0.0
  0
LINE
  5
25E
  8
0
  6
CONTINUOUS
 10
276.94797672250002
 20
127.0958467705
 30
0.0
 11
282.40678359470002
 21
121.7251691302
 31
0.0
  0
LINE
  5
25F
  8
0
  6
CONTINUOUS
 10
287.5764027633
 20
118.74081150790001
 30
0.0
 11
293.0352096355
 21
117.8088848884
 31
0.0
  0
LINE
  5
260
  8
0
  6
CONTINUOUS
 10
282.63692751460002
 20
122.23302753980001
 30
0.0
 11
287.34625884339999
 21
119.5143884316
 31
0.0
  0
LINE
  5
261
  8
0
  6
CONTINUOUS
 10
276.94471824430002
 20
127.5522565866
 30
0.0
 11
276.94471824430002
 21
127.1201505926
 31
0.0
  0
LINE
  5
262
  8
0
  6
CONTINUOUS
 10
292.06266109619992
 20
118.82485394610001
 30
0.0
 11
277.92052526179998
 21
126.98893518600001
 31
0.0
  0
LINE
  5
263
  8
0
  6
CONTINUOUS
 10
293.03846811369999
 20
117.82942655159999
 30
0.0
 11
293.03846811369999
 21
118.2615325455
 31
0.0
  0
LINE
  5
264
  8
0
  6
CONTINUOUS
 10
276.94471824430002
 20
127.1201505926
 30
0.0
 11
276.91643349420002
 21
127.103822154
 31
0.0
  0
LINE
  5
265
  8
0
  6
CONTINUOUS
 10
276.8598666283001
 20
127.55225749900001
 30
0.0
 11
276.8598666283001
 21
127.5195932128
 31
0.0
  0
LINE
  5
266
  8
0
  6
CONTINUOUS
 10
276.95146068639991
 20
127.1052625025
 30
0.0
 11
276.92317593630003
 21
127.0889340639
 31
0.0
  0
LINE
  5
267
  8
0
  6
CONTINUOUS
 10
277.87810024409998
 20
127.0134282336
 30
0.0
 11
277.87810024409998
 21
127.01343619559999
 31
0.0
  0
LINE
  5
268
  8
0
  6
CONTINUOUS
 10
282.59450249690002
 20
122.1922053099
 30
0.0
 11
282.59450249690002
 21
122.1595435808
 31
0.0
  0
LINE
  5
269
  8
0
  6
CONTINUOUS
 10
282.59450249690002
 20
122.1595435808
 30
0.0
 11
287.3038338257
 21
119.4409044726
 31
0.0
  0
LINE
  5
26A
  8
0
  6
CONTINUOUS
 10
285.69162770320008
 20
121.67806701719999
 30
0.0
 11
285.6986999444
 21
121.6821497351
 31
0.0
  0
LINE
  5
26B
  8
0
  6
CONTINUOUS
 10
293.03846811369999
 20
117.82942655159999
 30
0.0
 11
293.0313200082
 21
117.8253000381
 31
0.0
  0
LINE
  5
26C
  8
0
  6
CONTINUOUS
 10
276.907041069
 20
127.0668687989
 30
0.0
 11
276.89764864390003
 21
127.0414827537
 31
0.0
  0
LINE
  5
26D
  8
0
  6
CONTINUOUS
 10
282.36381330210008
 20
121.6637346016
 30
0.0
 11
282.37320572729999
 21
121.68912064680001
 31
0.0
  0
LINE
  5
26E
  8
0
  6
CONTINUOUS
 10
276.89764864390003
 20
127.0414827537
 30
0.0
 11
188.50930099550001
 21
76.01597576479999
 31
0.0
  0
LINE
  5
26F
  8
0
  6
CONTINUOUS
 10
282.36381330210008
 20
121.6637346016
 30
0.0
 11
193.9754656538
 21
70.638227612700021
 31
0.0
  0
LINE
  5
270
  8
0
  6
CONTINUOUS
 10
276.85986504779999
 20
127.1249111131
 30
0.0
 11
276.88814927099997
 21
127.1085829786
 31
0.0
  0
LINE
  5
271
  8
0
  6
CONTINUOUS
 10
276.85986504779999
 20
127.1249111131
 30
0.0
 11
188.47151739949999
 21
76.099404124200007
 31
0.0
  0
LINE
  5
272
  8
0
  6
CONTINUOUS
 10
276.81744003009999
 20
127.56041904049999
 30
0.0
 11
188.51394241720001
 21
76.583894934399993
 31
0.0
  0
LINE
  5
273
  8
0
  6
CONTINUOUS
 10
277.24170443179997
 20
127.3808117161
 30
0.0
 11
277.24170443179997
 21
127.3808196781
 31
0.0
  0
LINE
  5
274
  8
0
  6
CONTINUOUS
 10
276.87400847650002
 20
127.5604244032
 30
0.0
 11
276.84572372650001
 21
127.5440959645
 31
0.0
  0
LINE
  5
275
  8
0
  6
CONTINUOUS
 10
282.4101574499
 20
121.6912497599
 30
0.0
 11
282.43771674729999
 21
121.66799282789999
 31
0.0
  0
LINE
  5
276
  8
0
  6
CONTINUOUS
 10
282.4101574499
 20
121.6912497599
 30
0.0
 11
282.3889575851
 21
121.6790113385
 31
0.0
  0
LINE
  5
277
  8
0
  6
CONTINUOUS
 10
287.54546961070002
 20
118.7193498635
 30
0.0
 11
287.4156278145
 21
118.64439379
 31
0.0
  0
LINE
  5
278
  8
0
  6
CONTINUOUS
 10
287.54546961070002
 20
118.7193498635
 30
0.0
 11
287.57302890810001
 21
118.710787508
 31
0.0
  0
LINE
  5
279
  8
0
  6
CONTINUOUS
 10
287.60998063070002
 20
118.6659948441
 30
0.0
 11
287.61937305589998
 21
118.6297645356
 31
0.0
  0
LINE
  5
27A
  8
0
  6
CONTINUOUS
 10
287.61937305589998
 20
118.6297645356
 30
0.0
 11
287.43983169590001
 21
118.5261175147
 31
0.0
  0
LINE
  5
27B
  8
0
  6
CONTINUOUS
 10
293.08553771409998
 20
117.69641330890001
 30
0.0
 11
293.07614528889991
 21
117.7326436174
 31
0.0
  0
LINE
  5
27C
  8
0
  6
CONTINUOUS
 10
293.08553771409998
 20
117.69641330890001
 30
0.0
 11
204.69719006579999
 21
66.67090632
 31
0.0
  0
LINE
  5
27D
  8
0
  6
CONTINUOUS
 10
293.09503708699998
 20
117.75254579129999
 30
0.0
 11
293.12332131020008
 21
117.73621765679999
 31
0.0
  0
LINE
  5
27E
  8
0
  6
CONTINUOUS
 10
293.09503708699998
 20
117.75254579129999
 30
0.0
 11
293.06411815889999
 21
117.73469667409999
 31
0.0
  0
LINE
  5
27F
  8
0
  6
CONTINUOUS
 10
292.6566318908001
 20
118.48197147330001
 30
0.0
 11
292.6566318908001
 21
118.48196351129999
 31
0.0
  0
ENDSEC
  0
EOF
