  0
SECTION
  2
HEADER
  9
$ACADVER
  1
AC1009
  9
$INSBASE
 10
0.0
 20
0.0
 30
0.0
  9
$EXTMIN
 10
193.81704144597339
 20
70.033299999999997
 30
0.0
  9
$EXTMAX
 10
292.81233946299898
 20
129.37361671059429
 30
0.0
  9
$LIMMIN
 10
0.0
 20
0.0
  9
$LIMMAX
 10
420.0
 20
297.0
  9
$ORTHOMODE
 70
     0
  9
$REGENMODE
 70
     1
  9
$FILLMODE
 70
     1
  9
$QTEXTMODE
 70
     0
  9
$MIRRTEXT
 70
     1
  9
$DRAGMODE
 70
     2
  9
$LTSCALE
 40
1.0
  9
$OSMODE
 70
    37
  9
$ATTMODE
 70
     1
  9
$TEXTSIZE
 40
2.5
  9
$TRACEWID
 40
1.0
  9
$TEXTSTYLE
  7
STANDARD
  9
$CLAYER
  8
0
  9
$CELTYPE
  6
BYLAYER
  9
$CECOLOR
 62
   256
  9
$DIMSCALE
 40
1.0
  9
$DIMASZ
 40
3.302
  9
$DIMEXO
 40
1.0
  9
$DIMDLI
 40
3.75
  9
$DIMRND
 40
0.0
  9
$DIMDLE
 40
0.0
  9
$DIMEXE
 40
1.0
  9
$DIMTP
 40
0.0
  9
$DIMTM
 40
0.0
  9
$DIMTXT
 40
3.5
  9
$DIMCEN
 40
2.5
  9
$DIMTSZ
 40
0.0
  9
$DIMTOL
 70
     0
  9
$DIMLIM
 70
     0
  9
$DIMTIH
 70
     1
  9
$DIMTOH
 70
     1
  9
$DIMSE1
 70
     0
  9
$DIMSE2
 70
     0
  9
$DIMTAD
 70
     1
  9
$DIMZIN
 70
     0
  9
$DIMBLK
  1

  9
$DIMASO
 70
     1
  9
$DIMSHO
 70
     1
  9
$DIMPOST
  1

  9
$DIMAPOST
  1

  9
$DIMALT
 70
     0
  9
$DIMALTD
 70
     3
  9
$DIMALTF
 40
0.0393700787
  9
$DIMLFAC
 40
10.0
  9
$DIMTOFL
 70
     1
  9
$DIMTVP
 40
0.0
  9
$DIMTIX
 70
     0
  9
$DIMSOXD
 70
     0
  9
$DIMSAH
 70
     0
  9
$DIMBLK1
  1

  9
$DIMBLK2
  1

  9
$DIMSTYLE
  2
ISO-25
  9
$DIMCLRD
 70
     0
  9
$DIMCLRE
 70
     0
  9
$DIMCLRT
 70
     0
  9
$DIMTFAC
 40
1.0
  9
$DIMGAP
 40
1.524
  9
$LUNITS
 70
     2
  9
$LUPREC
 70
     2
  9
$SKETCHINC
 40
1.0
  9
$FILLETRAD
 40
10.0
  9
$AUNITS
 70
     0
  9
$AUPREC
 70
     2
  9
$MENU
  1
.
  9
$ELEVATION
 40
0.0
  9
$PELEVATION
 40
0.0
  9
$THICKNESS
 40
0.0
  9
$LIMCHECK
 70
     0
  9
$BLIPMODE
 70
     0
  9
$CHAMFERA
 40
10.0
  9
$CHAMFERB
 40
10.0
  9
$SKPOLY
 70
     0
  9
$TDCREATE
 40
2456888.7307687388
  9
$TDUPDATE
 40
2456889.7029192131
  9
$TDINDWG
 40
0.006521331
  9
$TDUSRTIMER
 40
0.00652125
  9
$USRTIMER
 70
     1
  9
$ANGBASE
 50
0.0
  9
$ANGDIR
 70
     0
  9
$PDMODE
 70
     0
  9
$PDSIZE
 40
-1.0
  9
$PLINEWID
 40
0.0
  9
$COORDS
 70
     1
  9
$SPLFRAME
 70
     0
  9
$SPLINETYPE
 70
     6
  9
$SPLINESEGS
 70
     8
  9
$ATTDIA
 70
     0
  9
$ATTREQ
 70
     1
  9
$HANDLING
 70
     1
  9
$HANDSEED
  5
142D
  9
$SURFTAB1
 70
     6
  9
$SURFTAB2
 70
     6
  9
$SURFTYPE
 70
     6
  9
$SURFU
 70
     6
  9
$SURFV
 70
     6
  9
$UCSNAME
  2

  9
$UCSORG
 10
0.0
 20
0.0
 30
0.0
  9
$UCSXDIR
 10
1.0
 20
0.0
 30
0.0
  9
$UCSYDIR
 10
0.0
 20
1.0
 30
0.0
  9
$PUCSNAME
  2

  9
$PUCSORG
 10
0.0
 20
0.0
 30
0.0
  9
$PUCSXDIR
 10
1.0
 20
0.0
 30
0.0
  9
$PUCSYDIR
 10
0.0
 20
1.0
 30
0.0
  9
$USERI1
 70
     0
  9
$USERI2
 70
     0
  9
$USERI3
 70
     0
  9
$USERI4
 70
     0
  9
$USERI5
 70
     0
  9
$USERR1
 40
0.0
  9
$USERR2
 40
0.0
  9
$USERR3
 40
0.0
  9
$USERR4
 40
0.0
  9
$USERR5
 40
0.0
  9
$WORLDVIEW
 70
     1
  9
$SHADEDGE
 70
     3
  9
$SHADEDIF
 70
    70
  9
$TILEMODE
 70
     1
  9
$MAXACTVP
 70
    64
  9
$PLIMCHECK
 70
     0
  9
$PEXTMIN
 10
1.0000000000000000E+020
 20
1.0000000000000000E+020
 30
1.0000000000000000E+020
  9
$PEXTMAX
 10
-1.0000000000000000E+020
 20
-1.0000000000000000E+020
 30
-1.0000000000000000E+020
  9
$PLIMMIN
 10
0.0
 20
0.0
  9
$PLIMMAX
 10
420.0
 20
297.0
  9
$UNITMODE
 70
     0
  9
$VISRETAIN
 70
     1
  9
$PLINEGEN
 70
     0
  9
$PSLTSCALE
 70
     1
  0
ENDSEC
  0
SECTION
  2
TABLES
  0
TABLE
  2
VPORT
 70
     1
  0
VPORT
  2
*ACTIVE
 70
     0
 10
0.0
 20
0.0
 11
1.0
 21
1.0
 12
280.7869176499305
 22
100.3140114436423
 13
0.0
 23
0.0
 14
10.0
 24
10.0
 15
10.0
 25
10.0
 16
0.0
 26
0.0
 36
1.0
 17
0.0
 27
0.0
 37
0.0
 40
98.033616600254732
 41
1.911550468262226
 42
50.0
 43
0.0
 44
0.0
 50
0.0
 51
0.0
 71
     0
 72
  2000
 73
     1
 74
     3
 75
     0
 76
     0
 77
     0
 78
     0
  0
ENDTAB
  0
TABLE
  2
LTYPE
 70
     7
  0
LTYPE
  2
CONTINUOUS
 70
     0
  3
Solid line
 72
    65
 73
     0
 40
0.0
  0
LTYPE
  2
PHANTOM2
 70
     0
  3
___ _ _ ___ _ _ ___ _ _ ___ _ _
 72
    65
 73
     6
 40
1.25
 49
0.625
 49
-0.125
 49
0.125
 49
-0.125
 49
0.125
 49
-0.125
  0
LTYPE
  2
HIDDEN
 70
     0
  3
Hidden __ __ __ __ __ __ __ __ __ __ __ __ __ __
 72
    65
 73
     2
 40
1.905
 49
1.27
 49
-0.635
  0
LTYPE
  2
PHANTOM
 70
     0
  3
Phantom ______  __  __  ______  __  __  ______
 72
    65
 73
     6
 40
12.699999999999999
 49
6.3499999999999979
 49
-1.27
 49
1.27
 49
-1.27
 49
1.27
 49
-1.27
  0
LTYPE
  2
CENTER
 70
     0
  3
Center ____ _ ____ _ ____ _ ____ _ ____ _ ____
 72
    65
 73
     4
 40
10.16
 49
6.3499999999999979
 49
-1.27
 49
1.27
 49
-1.27
  0
LTYPE
  2
CENTERX2
 70
     0
  3
Center (2x) ________  __  ________  __  _____
 72
    65
 73
     4
 40
20.32
 49
12.699999999999999
 49
-2.54
 49
2.54
 49
-2.54
  0
LTYPE
  2
DOT2
 70
     0
  3
Dot (.5x) ........................................
 72
    65
 73
     2
 40
0.635
 49
0.0
 49
-0.635
  0
ENDTAB
  0
TABLE
  2
LAYER
 70
     5
  0
LAYER
  2
0
 70
     0
 62
     7
  6
CONTINUOUS
  0
LAYER
  2
FORMAT
 70
     0
 62
     7
  6
CONTINUOUS
  0
LAYER
  2
図枠
 70
     0
 62
     7
  6
CONTINUOUS
  0
LAYER
  2
ﾚｲﾔｰ2
 70
     0
 62
     7
  6
CONTINUOUS
  0
LAYER
  2
DEFPOINTS
 70
     0
 62
     7
  6
CONTINUOUS
  0
ENDTAB
  0
TABLE
  2
STYLE
 70
     3
  0
STYLE
  2
STANDARD
 70
     0
 40
0.0
 41
1.0
 50
0.0
 71
     0
 42
2.5
  3
txt
  4
bigfont
  0
STYLE
  2
ANNOTATIVE
 70
     0
 40
0.0
 41
1.0
 50
0.0
 71
     0
 42
0.2
  3
txt
  4

  0
STYLE
  2
SLDTEXTSTYLE0
 70
     0
 40
0.0
 41
0.7
 50
0.0
 71
     0
 42
0.2
  3
TXT
  4
bigfont
  0
ENDTAB
  0
TABLE
  2
VIEW
 70
     0
  0
ENDTAB
  0
TABLE
  2
UCS
 70
     0
  0
ENDTAB
  0
TABLE
  2
APPID
 70
     4
  0
APPID
  2
ACAD
 70
     0
  0
APPID
  2
ACADANNOTATIVE
 70
     0
  0
APPID
  2
ACAD_NAV_VCDISPLAY
 70
     0
  0
APPID
  2
ACAD_MLEADERVER
 70
     0
  0
ENDTAB
  0
TABLE
  2
DIMSTYLE
 70
     3
  0
DIMSTYLE
  2
STANDARD
 70
     0
  3

  4

  5

  6

  7

 40
1.0
 41
0.18
 42
0.0625
 43
0.38
 44
0.18
 45
0.0
 46
0.0
 47
0.0
 48
0.0
140
0.18
141
0.09
142
0.0
143
25.399999999999999
144
1.0
145
0.0
146
1.0
147
0.09
 71
     0
 72
     0
 73
     1
 74
     1
 75
     0
 76
     0
 77
     0
 78
     0
170
     0
171
     2
172
     0
173
     0
174
     0
175
     0
176
     0
177
     0
178
     0
  0
DIMSTYLE
  2
ANNOTATIVE
 70
     0
  3

  4

  5

  6

  7

 40
1.0
 41
0.18
 42
0.0625
 43
0.38
 44
0.18
 45
0.0
 46
0.0
 47
0.0
 48
0.0
140
0.18
141
0.09
142
0.0
143
25.399999999999999
144
1.0
145
0.0
146
1.0
147
0.09
 71
     0
 72
     0
 73
     1
 74
     1
 75
     0
 76
     0
 77
     0
 78
     0
170
     0
171
     2
172
     0
173
     0
174
     0
175
     0
176
     0
177
     0
178
     0
  0
DIMSTYLE
  2
ISO-25
 70
     0
  3

  4

  5

  6

  7

 40
1.0
 41
2.5
 42
0.625
 43
3.75
 44
1.25
 45
0.0
 46
0.0
 47
0.0
 48
0.0
140
2.5
141
2.5
142
0.0
143
0.0393700787
144
1.0
145
0.0
146
1.0
147
0.625
 71
     0
 72
     0
 73
     0
 74
     0
 75
     0
 76
     0
 77
     1
 78
     8
170
     0
171
     3
172
     1
173
     0
174
     0
175
     0
176
     0
177
     0
178
     0
  0
ENDTAB
  0
ENDSEC
  0
SECTION
  2
BLOCKS
  0
BLOCK
  8
0
  2
$MODEL_SPACE
 70
     0
 10
0.0
 20
0.0
 30
0.0
  3
$MODEL_SPACE
  1

  0
ENDBLK
  5
134B
  8
0
  0
BLOCK
 67
     1
  8
0
  2
$PAPER_SPACE
 70
     0
 10
0.0
 20
0.0
 30
0.0
  3
$PAPER_SPACE
  1

  0
ENDBLK
  5
1347
 67
     1
  8
0
  0
BLOCK
  8
0
  2
三角３
 70
     0
 10
0.0
 20
0.0
 30
0.0
  3
三角３
  1

  0
LINE
  5
4A
  8
FORMAT
 10
0.0
 20
0.0
 30
0.0
 11
-1.75
 21
-3.5
 31
0.0
  0
LINE
  5
4B
  8
FORMAT
 10
-1.75
 20
-3.5
 30
0.0
 11
1.75
 21
-3.5
 31
0.0
  0
LINE
  5
4C
  8
FORMAT
 10
1.75
 20
-3.5
 30
0.0
 11
0.0
 21
0.0
 31
0.0
  0
INSERT
  5
70
  8
0
  2
*U3
 10
0.0
 20
0.0
 30
0.0
  0
ENDBLK
  5
49
  8
0
  0
BLOCK
  8
0
  2
*U3
 70
     1
 10
0.0
 20
0.0
 30
0.0
  3
*U3
  1

  0
TEXT
  5
748
  8
FORMAT
 62
     7
 10
-0.6943926639
 20
-3.0546912028999991
 30
0.0
 40
2.1166666667
  1
3
 41
0.7
  7
SLDTEXTSTYLE0
  0
ENDBLK
  5
74A
  8
0
  0
BLOCK
  8
0
  2
三角２
 70
     0
 10
0.0
 20
0.0
 30
0.0
  3
三角２
  1

  0
LINE
  5
74
  8
FORMAT
 10
0.0
 20
0.0
 30
0.0
 11
-1.75
 21
-3.5
 31
0.0
  0
LINE
  5
75
  8
FORMAT
 10
-1.75
 20
-3.5
 30
0.0
 11
1.75
 21
-3.5
 31
0.0
  0
LINE
  5
76
  8
FORMAT
 10
1.75
 20
-3.5
 30
0.0
 11
0.0
 21
0.0
 31
0.0
  0
INSERT
  5
77
  8
0
  2
*U5
 10
0.0
 20
0.0
 30
0.0
  0
ENDBLK
  5
73
  8
0
  0
BLOCK
  8
0
  2
*U5
 70
     1
 10
0.0
 20
0.0
 30
0.0
  3
*U5
  1

  0
TEXT
  5
74C
  8
FORMAT
 62
     7
 10
-0.6943926639
 20
-3.0546912028999991
 30
0.0
 40
2.1166666667
  1
2
 41
0.7
  7
SLDTEXTSTYLE0
  0
ENDBLK
  5
74E
  8
0
  0
BLOCK
  8
0
  2
三角１
 70
     0
 10
0.0
 20
0.0
 30
0.0
  3
三角１
  1

  0
LINE
  5
7B
  8
FORMAT
 10
0.0
 20
0.0
 30
0.0
 11
-1.75
 21
-3.5
 31
0.0
  0
LINE
  5
7C
  8
FORMAT
 10
-1.75
 20
-3.5
 30
0.0
 11
1.75
 21
-3.5
 31
0.0
  0
LINE
  5
7D
  8
FORMAT
 10
1.75
 20
-3.5
 30
0.0
 11
0.0
 21
0.0
 31
0.0
  0
INSERT
  5
7E
  8
0
  2
*U7
 10
0.0
 20
0.0
 30
0.0
  0
ENDBLK
  5
7A
  8
0
  0
BLOCK
  8
0
  2
*U7
 70
     1
 10
0.0
 20
0.0
 30
0.0
  3
*U7
  1

  0
TEXT
  5
750
  8
FORMAT
 62
     7
 10
-0.6943926639
 20
-3.0546912028999991
 30
0.0
 40
2.1166666667
  1
1
 41
0.7
  7
SLDTEXTSTYLE0
  0
ENDBLK
  5
752
  8
0
  0
BLOCK
  8
0
  2
*D8
 70
     1
 10
0.0
 20
0.0
 30
0.0
  3
*D8
  1

  0
LINE
  5
6F2
  8
0
 62
     0
 10
282.20538909430002
 20
128.34124722620001
 30
0.0
 11
282.20538909430002
 21
123.4872215725089
 31
0.0
  0
LINE
  5
6F3
  8
0
 62
     0
 10
193.81704144599999
 20
79.315740237299991
 30
0.0
 11
193.81704144599999
 21
125.4872215725089
 31
0.0
  0
LINE
  5
6F4
  8
0
 62
     0
 10
278.9033890943
 20
124.4872215725089
 30
0.0
 11
197.11904144600001
 21
124.4872215725089
 31
0.0
  0
SOLID
  5
6F5
  8
0
 62
     0
 10
278.9033890943
 20
125.0375549058422
 30
0.0
 11
278.9033890943
 21
123.9368882391756
 31
0.0
 12
282.20538909430002
 22
124.4872215725089
 32
0.0
 13
282.20538909430002
 23
124.4872215725089
 33
0.0
  0
SOLID
  5
6F6
  8
0
 62
     0
 10
197.11904144600001
 20
125.0375549058422
 30
0.0
 11
197.11904144600001
 21
123.9368882391756
 31
0.0
 12
193.81704144599999
 22
124.4872215725089
 32
0.0
 13
193.81704144599999
 23
124.4872215725089
 33
0.0
  0
INSERT
  5
6F7
  8
0
  2
*U9
 10
0.0
 20
0.0
 30
0.0
  0
POINT
  5
6F8
  8
DEFPOINTS
 62
     0
 10
282.20538909430002
 20
129.34124722620001
 30
0.0
  0
POINT
  5
6F9
  8
DEFPOINTS
 62
     0
 10
193.81704144599999
 20
78.315740237299991
 30
0.0
  0
POINT
  5
6FA
  8
DEFPOINTS
 62
     0
 10
193.81704144599999
 20
124.4872215725089
 30
0.0
  0
ENDBLK
  5
6F1
  8
0
  0
BLOCK
  8
0
  2
*U9
 70
     1
 10
0.0
 20
0.0
 30
0.0
  3
*U9
  1

  0
TEXT
  5
7E5
  8
0
 62
     0
 10
227.2195486034833
 20
126.5945549058422
 30
0.0
 40
3.5
  1
883,883
  0
ENDBLK
  5
7E7
  8
0
  0
BLOCK
  8
0
  2
*D10
 70
     1
 10
0.0
 20
0.0
 30
0.0
  3
*D10
  1

  0
LINE
  5
6FF
  8
0
 62
     0
 10
290.01454194640002
 20
120.8704864859
 30
0.0
 11
300.1060565032505
 21
120.8704864859
 31
0.0
  0
LINE
  5
700
  8
0
 62
     0
 10
286.50786321309999
 20
122.8948490289
 30
0.0
 11
300.1060565032505
 21
122.8948490288999
 31
0.0
  0
LINE
  5
701
  8
0
 62
     0
 10
299.10605650325061
 20
117.5684864859
 30
0.0
 11
299.10605650325061
 21
114.2664864859
 31
0.0
  0
LINE
  5
702
  8
0
 62
     0
 10
299.10605650325061
 20
126.1968490289
 30
0.0
 11
299.10605650325061
 21
129.4988490289
 31
0.0
  0
LINE
  5
703
  8
0
 62
     0
 10
299.10605650325061
 20
129.4988490289
 30
0.0
 11
318.13005650325061
 21
129.4988490289
 31
0.0
  0
LINE
  5
704
  8
0
 62
     0
 10
299.10605650325061
 20
120.8704864859
 30
0.0
 11
299.10605650325061
 21
122.8948490288999
 31
0.0
  0
SOLID
  5
705
  8
0
 62
     0
 10
298.5557231699172
 20
117.5684864859
 30
0.0
 11
299.65638983658391
 21
117.5684864859
 31
0.0
 12
299.10605650325061
 22
120.8704864859
 32
0.0
 13
299.10605650325061
 23
120.8704864859
 33
0.0
  0
SOLID
  5
706
  8
0
 62
     0
 10
298.5557231699172
 20
126.1968490289
 30
0.0
 11
299.65638983658391
 21
126.1968490289
 31
0.0
 12
299.10605650325061
 22
122.8948490288999
 32
0.0
 13
299.10605650325061
 23
122.8948490288999
 33
0.0
  0
INSERT
  5
707
  8
0
  2
*U11
 10
0.0
 20
0.0
 30
0.0
  0
POINT
  5
708
  8
DEFPOINTS
 62
     0
 10
289.01454194640002
 20
120.8704864859
 30
0.0
  0
POINT
  5
709
  8
DEFPOINTS
 62
     0
 10
285.50786321309999
 20
122.8948490289
 30
0.0
  0
POINT
  5
70A
  8
DEFPOINTS
 62
     0
 10
299.10605650325061
 20
122.8948490288999
 30
0.0
  0
ENDBLK
  5
6FE
  8
0
  0
BLOCK
  8
0
  2
*U11
 70
     1
 10
0.0
 20
0.0
 30
0.0
  3
*U11
  1

  0
TEXT
  5
7E9
  8
0
 62
     0
 10
300.63005650325061
 20
131.60618236223331
 30
0.0
 40
3.5
  1
20,244
  0
ENDBLK
  5
7EB
  8
0
  0
BLOCK
  8
0
  2
*D12
 70
     1
 10
0.0
 20
0.0
 30
0.0
  3
*D12
  1

  0
LINE
  5
72B
  8
0
 62
     0
 10
286.98287549678582
 20
111.7376157317392
 30
0.0
 11
300.58106878693638
 21
111.7376157317391
 31
0.0
  0
LINE
  5
72C
  8
0
 62
     0
 10
293.22634292398573
 20
112.7059208067392
 30
0.0
 11
300.58106878693638
 21
112.7059208067392
 31
0.0
  0
LINE
  5
72D
  8
0
 62
     0
 10
299.58106878693638
 20
108.43561573173911
 30
0.0
 11
299.58106878693638
 21
105.1336157317391
 31
0.0
  0
LINE
  5
72E
  8
0
 62
     0
 10
299.58106878693638
 20
116.00792080673919
 30
0.0
 11
299.58106878693638
 21
119.3099208067391
 31
0.0
  0
LINE
  5
72F
  8
0
 62
     0
 10
299.58106878693638
 20
119.3099208067391
 30
0.0
 11
315.6884021202697
 21
119.3099208067391
 31
0.0
  0
LINE
  5
730
  8
0
 62
     0
 10
299.58106878693638
 20
111.7376157317391
 30
0.0
 11
299.58106878693638
 21
112.7059208067392
 31
0.0
  0
SOLID
  5
731
  8
0
 62
     0
 10
299.03073545360292
 20
108.43561573173911
 30
0.0
 11
300.1314021202698
 21
108.43561573173911
 31
0.0
 12
299.58106878693638
 22
111.7376157317391
 32
0.0
 13
299.58106878693638
 23
111.7376157317391
 33
0.0
  0
SOLID
  5
732
  8
0
 62
     0
 10
299.03073545360292
 20
116.00792080673919
 30
0.0
 11
300.1314021202698
 21
116.00792080673919
 31
0.0
 12
299.58106878693638
 22
112.7059208067392
 32
0.0
 13
299.58106878693638
 23
112.7059208067392
 33
0.0
  0
INSERT
  5
733
  8
0
  2
*U13
 10
0.0
 20
0.0
 30
0.0
  0
POINT
  5
734
  8
DEFPOINTS
 62
     0
 10
285.98287549678582
 20
111.7376157317392
 30
0.0
  0
POINT
  5
735
  8
DEFPOINTS
 62
     0
 10
292.22634292398573
 20
112.7059208067392
 30
0.0
  0
POINT
  5
736
  8
DEFPOINTS
 62
     0
 10
299.58106878693638
 20
112.7059208067392
 30
0.0
  0
ENDBLK
  5
70E
  8
0
  0
BLOCK
  8
0
  2
*U13
 70
     1
 10
0.0
 20
0.0
 30
0.0
  3
*U13
  1

  0
TEXT
  5
7F1
  8
0
 62
     0
 10
301.10506878693639
 20
121.4172541400726
 30
0.0
 40
3.5
  1
9,683
  0
ENDBLK
  5
7F3
  8
0
  0
BLOCK
  8
0
  2
*D14
 70
     1
 10
0.0
 20
0.0
 30
0.0
  3
*D14
  1

  0
LINE
  5
71F
  8
0
 62
     0
 10
292.75133064030001
 20
123.8631541039
 30
0.0
 11
300.1060565032505
 21
123.8631541039
 31
0.0
  0
LINE
  5
720
  8
0
 62
     0
 10
284.26604926610003
 20
128.7616027748
 30
0.0
 11
300.10605650325061
 21
128.7616027748
 31
0.0
  0
LINE
  5
721
  8
0
 62
     0
 10
299.10605650325061
 20
120.56115410389999
 30
0.0
 11
299.10605650325061
 21
117.2591541039
 31
0.0
  0
LINE
  5
722
  8
0
 62
     0
 10
299.10605650325061
 20
132.06360277479999
 30
0.0
 11
299.10605650325061
 21
135.36560277480001
 31
0.0
  0
LINE
  5
723
  8
0
 62
     0
 10
299.10605650325061
 20
135.36560277480001
 30
0.0
 11
318.71338983658387
 21
135.36560277480001
 31
0.0
  0
LINE
  5
724
  8
0
 62
     0
 10
299.10605650325061
 20
123.8631541039
 30
0.0
 11
299.10605650325061
 21
128.7616027748
 31
0.0
  0
SOLID
  5
725
  8
0
 62
     0
 10
298.5557231699172
 20
120.56115410389999
 30
0.0
 11
299.65638983658391
 21
120.56115410389999
 31
0.0
 12
299.10605650325061
 22
123.8631541039
 32
0.0
 13
299.10605650325061
 23
123.8631541039
 33
0.0
  0
SOLID
  5
726
  8
0
 62
     0
 10
298.55572316991731
 20
132.06360277479999
 30
0.0
 11
299.65638983658403
 21
132.06360277479999
 31
0.0
 12
299.10605650325061
 22
128.7616027748
 32
0.0
 13
299.10605650325061
 23
128.7616027748
 33
0.0
  0
INSERT
  5
727
  8
0
  2
*U15
 10
0.0
 20
0.0
 30
0.0
  0
POINT
  5
728
  8
DEFPOINTS
 62
     0
 10
291.75133064030001
 20
123.8631541039
 30
0.0
  0
POINT
  5
729
  8
DEFPOINTS
 62
     0
 10
283.26604926610003
 20
128.7616027748
 30
0.0
  0
POINT
  5
72A
  8
DEFPOINTS
 62
     0
 10
299.10605650325061
 20
128.7616027748
 30
0.0
  0
ENDBLK
  5
71E
  8
0
  0
BLOCK
  8
0
  2
*U15
 70
     1
 10
0.0
 20
0.0
 30
0.0
  3
*U15
  1

  0
TEXT
  5
7ED
  8
0
 62
     0
 10
300.63005650325061
 20
137.4729361081333
 30
0.0
 40
3.5
  1
48,984
  0
ENDBLK
  5
7EF
  8
0
  0
ENDSEC
  0
SECTION
  2
ENTITIES
  0
LINE
  5
1A7
  8
0
  6
CONTINUOUS
 10
291.73890179540001
 20
123.8906247923
 30
0.0
 11
283.25362042120008
 21
128.7890734632
 31
0.0
  0
LINE
  5
1A8
  8
0
  6
CONTINUOUS
 10
292.74471159149999
 20
122.8270292878
 30
0.0
 11
292.74471159149999
 21
123.2753402634
 31
0.0
  0
LINE
  5
1A9
  8
0
  6
CONTINUOUS
 10
282.17953448060001
 20
129.36971338359999
 30
0.0
 11
193.87603964600001
 21
78.393190881400002
 31
0.0
  0
LINE
  5
1AA
  8
0
  6
CONTINUOUS
 10
196.55142230909999
 20
74.025545873499979
 30
0.0
 11
284.93976995740002
 21
125.0510528624
 31
0.0
  0
LINE
  5
1AB
  8
0
  6
CONTINUOUS
 10
204.40707137059999
 20
71.699448478699978
 30
0.0
 11
292.79541901890002
 21
122.7249554676
 31
0.0
  0
POLYLINE
  5
1AC
  8
0
  6
CONTINUOUS
 66
     1
 10
0.0
 20
0.0
 30
0.0
 70
     8
  0
VERTEX
  5
7F4
  8
0
 10
284.76299999999998
 20
124.563
 30
0.0
 70
    32
  0
VERTEX
  5
7F5
  8
0
 10
284.76299999999998
 20
124.562
 30
0.0
 70
    32
  0
VERTEX
  5
7F6
  8
0
 10
284.76299999999998
 20
124.56100000000001
 30
0.0
 70
    32
  0
VERTEX
  5
7F7
  8
0
 10
284.762
 20
124.56
 30
0.0
 70
    32
  0
VERTEX
  5
7F8
  8
0
 10
284.762
 20
124.559
 30
0.0
 70
    32
  0
VERTEX
  5
7F9
  8
0
 10
284.762
 20
124.557
 30
0.0
 70
    32
  0
VERTEX
  5
7FA
  8
0
 10
284.762
 20
124.556
 30
0.0
 70
    32
  0
VERTEX
  5
7FB
  8
0
 10
284.76099999999991
 20
124.55500000000001
 30
0.0
 70
    32
  0
VERTEX
  5
7FC
  8
0
 10
284.76099999999991
 20
124.554
 30
0.0
 70
    32
  0
VERTEX
  5
7FD
  8
0
 10
284.76099999999991
 20
124.553
 30
0.0
 70
    32
  0
VERTEX
  5
7FE
  8
0
 10
284.76099999999991
 20
124.55200000000001
 30
0.0
 70
    32
  0
VERTEX
  5
7FF
  8
0
 10
284.75999999999999
 20
124.55
 30
0.0
 70
    32
  0
VERTEX
  5
800
  8
0
 10
284.75999999999999
 20
124.54900000000001
 30
0.0
 70
    32
  0
VERTEX
  5
801
  8
0
 10
284.75999999999999
 20
124.548
 30
0.0
 70
    32
  0
VERTEX
  5
802
  8
0
 10
284.75999999999999
 20
124.547
 30
0.0
 70
    32
  0
VERTEX
  5
803
  8
0
 10
284.75999999999999
 20
124.545
 30
0.0
 70
    32
  0
VERTEX
  5
804
  8
0
 10
284.75999999999999
 20
124.544
 30
0.0
 70
    32
  0
VERTEX
  5
805
  8
0
 10
284.75900000000001
 20
124.54300000000001
 30
0.0
 70
    32
  0
VERTEX
  5
806
  8
0
 10
284.75900000000001
 20
124.542
 30
0.0
 70
    32
  0
VERTEX
  5
807
  8
0
 10
284.75900000000001
 20
124.54000000000001
 30
0.0
 70
    32
  0
VERTEX
  5
808
  8
0
 10
284.75900000000001
 20
124.539
 30
0.0
 70
    32
  0
VERTEX
  5
809
  8
0
 10
284.75900000000001
 20
124.538
 30
0.0
 70
    32
  0
VERTEX
  5
80A
  8
0
 10
284.75900000000001
 20
124.53700000000001
 30
0.0
 70
    32
  0
VERTEX
  5
80B
  8
0
 10
284.75900000000001
 20
124.535
 30
0.0
 70
    32
  0
VERTEX
  5
80C
  8
0
 10
284.75900000000001
 20
124.53400000000001
 30
0.0
 70
    32
  0
VERTEX
  5
80D
  8
0
 10
284.75900000000001
 20
124.533
 30
0.0
 70
    32
  0
VERTEX
  5
80E
  8
0
 10
284.75900000000001
 20
124.532
 30
0.0
 70
    32
  0
VERTEX
  5
80F
  8
0
 10
284.75900000000001
 20
124.53
 30
0.0
 70
    32
  0
VERTEX
  5
810
  8
0
 10
284.75799999999998
 20
124.529
 30
0.0
 70
    32
  0
VERTEX
  5
811
  8
0
 10
284.75799999999998
 20
124.52800000000001
 30
0.0
 70
    32
  0
VERTEX
  5
812
  8
0
 10
284.75799999999998
 20
124.526
 30
0.0
 70
    32
  0
VERTEX
  5
813
  8
0
 10
284.75799999999998
 20
124.52500000000001
 30
0.0
 70
    32
  0
VERTEX
  5
814
  8
0
 10
284.75799999999998
 20
124.524
 30
0.0
 70
    32
  0
VERTEX
  5
815
  8
0
 10
284.75799999999998
 20
124.52200000000001
 30
0.0
 70
    32
  0
VERTEX
  5
816
  8
0
 10
284.75799999999998
 20
124.521
 30
0.0
 70
    32
  0
VERTEX
  5
817
  8
0
 10
284.75799999999998
 20
124.52
 30
0.0
 70
    32
  0
VERTEX
  5
818
  8
0
 10
284.75799999999998
 20
124.518
 30
0.0
 70
    32
  0
VERTEX
  5
819
  8
0
 10
284.75900000000001
 20
124.517
 30
0.0
 70
    32
  0
VERTEX
  5
81A
  8
0
 10
284.75900000000001
 20
124.515
 30
0.0
 70
    32
  0
VERTEX
  5
81B
  8
0
 10
284.75900000000001
 20
124.514
 30
0.0
 70
    32
  0
VERTEX
  5
81C
  8
0
 10
284.75900000000001
 20
124.51300000000001
 30
0.0
 70
    32
  0
VERTEX
  5
81D
  8
0
 10
284.75900000000001
 20
124.511
 30
0.0
 70
    32
  0
VERTEX
  5
81E
  8
0
 10
284.75900000000001
 20
124.51000000000001
 30
0.0
 70
    32
  0
VERTEX
  5
81F
  8
0
 10
284.75900000000001
 20
124.509
 30
0.0
 70
    32
  0
VERTEX
  5
820
  8
0
 10
284.75900000000001
 20
124.50700000000001
 30
0.0
 70
    32
  0
VERTEX
  5
821
  8
0
 10
284.75900000000001
 20
124.506
 30
0.0
 70
    32
  0
VERTEX
  5
822
  8
0
 10
284.75900000000001
 20
124.504
 30
0.0
 70
    32
  0
VERTEX
  5
823
  8
0
 10
284.75900000000001
 20
124.503
 30
0.0
 70
    32
  0
VERTEX
  5
824
  8
0
 10
284.75999999999999
 20
124.502
 30
0.0
 70
    32
  0
VERTEX
  5
825
  8
0
 10
284.75999999999999
 20
124.5
 30
0.0
 70
    32
  0
VERTEX
  5
826
  8
0
 10
284.75999999999999
 20
124.499
 30
0.0
 70
    32
  0
VERTEX
  5
827
  8
0
 10
284.75999999999999
 20
124.497
 30
0.0
 70
    32
  0
VERTEX
  5
828
  8
0
 10
284.75999999999999
 20
124.496
 30
0.0
 70
    32
  0
VERTEX
  5
829
  8
0
 10
284.75999999999999
 20
124.494
 30
0.0
 70
    32
  0
VERTEX
  5
82A
  8
0
 10
284.76099999999991
 20
124.49299999999999
 30
0.0
 70
    32
  0
VERTEX
  5
82B
  8
0
 10
284.76099999999991
 20
124.492
 30
0.0
 70
    32
  0
VERTEX
  5
82C
  8
0
 10
284.76099999999991
 20
124.48999999999999
 30
0.0
 70
    32
  0
VERTEX
  5
82D
  8
0
 10
284.76099999999991
 20
124.489
 30
0.0
 70
    32
  0
VERTEX
  5
82E
  8
0
 10
284.762
 20
124.48699999999999
 30
0.0
 70
    32
  0
VERTEX
  5
82F
  8
0
 10
284.762
 20
124.486
 30
0.0
 70
    32
  0
VERTEX
  5
830
  8
0
 10
284.762
 20
124.48399999999999
 30
0.0
 70
    32
  0
VERTEX
  5
831
  8
0
 10
284.762
 20
124.483
 30
0.0
 70
    32
  0
VERTEX
  5
832
  8
0
 10
284.76299999999998
 20
124.48099999999999
 30
0.0
 70
    32
  0
VERTEX
  5
833
  8
0
 10
284.76299999999998
 20
124.48
 30
0.0
 70
    32
  0
VERTEX
  5
834
  8
0
 10
284.76299999999998
 20
124.479
 30
0.0
 70
    32
  0
VERTEX
  5
835
  8
0
 10
284.76400000000001
 20
124.477
 30
0.0
 70
    32
  0
VERTEX
  5
836
  8
0
 10
284.76400000000001
 20
124.476
 30
0.0
 70
    32
  0
VERTEX
  5
837
  8
0
 10
284.76400000000001
 20
124.474
 30
0.0
 70
    32
  0
VERTEX
  5
838
  8
0
 10
284.76400000000001
 20
124.473
 30
0.0
 70
    32
  0
VERTEX
  5
839
  8
0
 10
284.76499999999999
 20
124.471
 30
0.0
 70
    32
  0
VERTEX
  5
83A
  8
0
 10
284.76499999999999
 20
124.47
 30
0.0
 70
    32
  0
VERTEX
  5
83B
  8
0
 10
284.76600000000002
 20
124.468
 30
0.0
 70
    32
  0
VERTEX
  5
83C
  8
0
 10
284.76600000000002
 20
124.467
 30
0.0
 70
    32
  0
VERTEX
  5
83D
  8
0
 10
284.76600000000002
 20
124.465
 30
0.0
 70
    32
  0
VERTEX
  5
83E
  8
0
 10
284.767
 20
124.464
 30
0.0
 70
    32
  0
VERTEX
  5
83F
  8
0
 10
284.767
 20
124.462
 30
0.0
 70
    32
  0
VERTEX
  5
840
  8
0
 10
284.767
 20
124.461
 30
0.0
 70
    32
  0
VERTEX
  5
841
  8
0
 10
284.76799999999997
 20
124.459
 30
0.0
 70
    32
  0
VERTEX
  5
842
  8
0
 10
284.76799999999997
 20
124.458
 30
0.0
 70
    32
  0
VERTEX
  5
843
  8
0
 10
284.76900000000001
 20
124.456
 30
0.0
 70
    32
  0
VERTEX
  5
844
  8
0
 10
284.76900000000001
 20
124.455
 30
0.0
 70
    32
  0
VERTEX
  5
845
  8
0
 10
284.76999999999998
 20
124.453
 30
0.0
 70
    32
  0
VERTEX
  5
846
  8
0
 10
284.76999999999998
 20
124.452
 30
0.0
 70
    32
  0
VERTEX
  5
847
  8
0
 10
284.77100000000002
 20
124.45
 30
0.0
 70
    32
  0
VERTEX
  5
848
  8
0
 10
284.77100000000002
 20
124.449
 30
0.0
 70
    32
  0
VERTEX
  5
849
  8
0
 10
284.77100000000002
 20
124.447
 30
0.0
 70
    32
  0
VERTEX
  5
84A
  8
0
 10
284.77199999999999
 20
124.446
 30
0.0
 70
    32
  0
VERTEX
  5
84B
  8
0
 10
284.77199999999999
 20
124.444
 30
0.0
 70
    32
  0
VERTEX
  5
84C
  8
0
 10
284.77300000000002
 20
124.443
 30
0.0
 70
    32
  0
VERTEX
  5
84D
  8
0
 10
284.77300000000002
 20
124.441
 30
0.0
 70
    32
  0
VERTEX
  5
84E
  8
0
 10
284.774
 20
124.44
 30
0.0
 70
    32
  0
VERTEX
  5
84F
  8
0
 10
284.77499999999998
 20
124.438
 30
0.0
 70
    32
  0
VERTEX
  5
850
  8
0
 10
284.77499999999998
 20
124.437
 30
0.0
 70
    32
  0
VERTEX
  5
851
  8
0
 10
284.77600000000001
 20
124.435
 30
0.0
 70
    32
  0
VERTEX
  5
852
  8
0
 10
284.77600000000001
 20
124.434
 30
0.0
 70
    32
  0
VERTEX
  5
853
  8
0
 10
284.77699999999999
 20
124.43300000000001
 30
0.0
 70
    32
  0
VERTEX
  5
854
  8
0
 10
284.77699999999999
 20
124.431
 30
0.0
 70
    32
  0
VERTEX
  5
855
  8
0
 10
284.77800000000002
 20
124.43000000000001
 30
0.0
 70
    32
  0
VERTEX
  5
856
  8
0
 10
284.779
 20
124.428
 30
0.0
 70
    32
  0
VERTEX
  5
857
  8
0
 10
284.779
 20
124.42700000000001
 30
0.0
 70
    32
  0
VERTEX
  5
858
  8
0
 10
284.77999999999997
 20
124.425
 30
0.0
 70
    32
  0
VERTEX
  5
859
  8
0
 10
284.77999999999997
 20
124.42400000000001
 30
0.0
 70
    32
  0
VERTEX
  5
85A
  8
0
 10
284.78100000000001
 20
124.422
 30
0.0
 70
    32
  0
VERTEX
  5
85B
  8
0
 10
284.78199999999998
 20
124.42100000000001
 30
0.0
 70
    32
  0
VERTEX
  5
85C
  8
0
 10
284.78199999999998
 20
124.419
 30
0.0
 70
    32
  0
VERTEX
  5
85D
  8
0
 10
284.78300000000002
 20
124.41800000000001
 30
0.0
 70
    32
  0
VERTEX
  5
85E
  8
0
 10
284.78399999999999
 20
124.416
 30
0.0
 70
    32
  0
VERTEX
  5
85F
  8
0
 10
284.78399999999999
 20
124.41500000000001
 30
0.0
 70
    32
  0
VERTEX
  5
860
  8
0
 10
284.78500000000003
 20
124.413
 30
0.0
 70
    32
  0
VERTEX
  5
861
  8
0
 10
284.786
 20
124.41200000000001
 30
0.0
 70
    32
  0
VERTEX
  5
862
  8
0
 10
284.786
 20
124.41
 30
0.0
 70
    32
  0
VERTEX
  5
863
  8
0
 10
284.78699999999998
 20
124.40900000000001
 30
0.0
 70
    32
  0
VERTEX
  5
864
  8
0
 10
284.78800000000001
 20
124.407
 30
0.0
 70
    32
  0
VERTEX
  5
865
  8
0
 10
284.78800000000001
 20
124.40600000000001
 30
0.0
 70
    32
  0
VERTEX
  5
866
  8
0
 10
284.78899999999999
 20
124.404
 30
0.0
 70
    32
  0
VERTEX
  5
867
  8
0
 10
284.79000000000002
 20
124.40300000000001
 30
0.0
 70
    32
  0
VERTEX
  5
868
  8
0
 10
284.79000000000002
 20
124.401
 30
0.0
 70
    32
  0
VERTEX
  5
869
  8
0
 10
284.791
 20
124.40000000000001
 30
0.0
 70
    32
  0
VERTEX
  5
86A
  8
0
 10
284.79199999999997
 20
124.399
 30
0.0
 70
    32
  0
VERTEX
  5
86B
  8
0
 10
284.79300000000001
 20
124.39700000000001
 30
0.0
 70
    32
  0
VERTEX
  5
86C
  8
0
 10
284.79300000000001
 20
124.396
 30
0.0
 70
    32
  0
VERTEX
  5
86D
  8
0
 10
284.79399999999998
 20
124.39400000000001
 30
0.0
 70
    32
  0
VERTEX
  5
86E
  8
0
 10
284.79500000000002
 20
124.393
 30
0.0
 70
    32
  0
VERTEX
  5
86F
  8
0
 10
284.79599999999999
 20
124.39100000000001
 30
0.0
 70
    32
  0
VERTEX
  5
870
  8
0
 10
284.79700000000003
 20
124.39
 30
0.0
 70
    32
  0
VERTEX
  5
871
  8
0
 10
284.79700000000003
 20
124.38800000000001
 30
0.0
 70
    32
  0
VERTEX
  5
872
  8
0
 10
284.798
 20
124.387
 30
0.0
 70
    32
  0
VERTEX
  5
873
  8
0
 10
284.79899999999998
 20
124.386
 30
0.0
 70
    32
  0
VERTEX
  5
874
  8
0
 10
284.80000000000001
 20
124.384
 30
0.0
 70
    32
  0
SEQEND
  5
875
  8
0
  0
LINE
  5
1AD
  8
0
  6
CONTINUOUS
 10
284.88556654920001
 20
125.01976190089999
 30
0.0
 11
284.76320762929998
 21
124.5630759764
 31
0.0
  0
LINE
  5
1AE
  8
0
  6
CONTINUOUS
 10
285.03416775059998
 20
125.53339885849999
 30
0.0
 11
289.78059235789999
 21
122.7933462564
 31
0.0
  0
LINE
  5
1AF
  8
0
  6
CONTINUOUS
 10
290.04204024270001
 20
121.51567077449999
 30
0.0
 11
289.78059235789999
 21
122.7933462564
 31
0.0
  0
POLYLINE
  5
1B0
  8
0
  6
CONTINUOUS
 66
     1
 10
0.0
 20
0.0
 30
0.0
 70
     8
  0
VERTEX
  5
876
  8
0
 10
290.005
 20
121.379
 30
0.0
 70
    32
  0
VERTEX
  5
877
  8
0
 10
290.00599999999997
 20
121.38
 30
0.0
 70
    32
  0
VERTEX
  5
878
  8
0
 10
290.00700000000001
 20
121.38
 30
0.0
 70
    32
  0
VERTEX
  5
879
  8
0
 10
290.00799999999998
 20
121.381
 30
0.0
 70
    32
  0
VERTEX
  5
87A
  8
0
 10
290.00900000000001
 20
121.381
 30
0.0
 70
    32
  0
VERTEX
  5
87B
  8
0
 10
290.00900000000001
 20
121.38200000000001
 30
0.0
 70
    32
  0
VERTEX
  5
87C
  8
0
 10
290.00999999999999
 20
121.38200000000001
 30
0.0
 70
    32
  0
VERTEX
  5
87D
  8
0
 10
290.01100000000002
 20
121.383
 30
0.0
 70
    32
  0
VERTEX
  5
87E
  8
0
 10
290.012
 20
121.383
 30
0.0
 70
    32
  0
VERTEX
  5
87F
  8
0
 10
290.01299999999998
 20
121.384
 30
0.0
 70
    32
  0
VERTEX
  5
880
  8
0
 10
290.01299999999998
 20
121.384
 30
0.0
 70
    32
  0
VERTEX
  5
881
  8
0
 10
290.01400000000001
 20
121.38500000000001
 30
0.0
 70
    32
  0
VERTEX
  5
882
  8
0
 10
290.01499999999999
 20
121.386
 30
0.0
 70
    32
  0
VERTEX
  5
883
  8
0
 10
290.01499999999999
 20
121.386
 30
0.0
 70
    32
  0
VERTEX
  5
884
  8
0
 10
290.01599999999991
 20
121.387
 30
0.0
 70
    32
  0
VERTEX
  5
885
  8
0
 10
290.017
 20
121.387
 30
0.0
 70
    32
  0
VERTEX
  5
886
  8
0
 10
290.01799999999997
 20
121.38800000000001
 30
0.0
 70
    32
  0
VERTEX
  5
887
  8
0
 10
290.01799999999997
 20
121.389
 30
0.0
 70
    32
  0
VERTEX
  5
888
  8
0
 10
290.01900000000001
 20
121.389
 30
0.0
 70
    32
  0
VERTEX
  5
889
  8
0
 10
290.01999999999998
 20
121.39
 30
0.0
 70
    32
  0
VERTEX
  5
88A
  8
0
 10
290.01999999999998
 20
121.39100000000001
 30
0.0
 70
    32
  0
VERTEX
  5
88B
  8
0
 10
290.0209999999999
 20
121.39100000000001
 30
0.0
 70
    32
  0
VERTEX
  5
88C
  8
0
 10
290.02199999999999
 20
121.392
 30
0.0
 70
    32
  0
VERTEX
  5
88D
  8
0
 10
290.02199999999999
 20
121.393
 30
0.0
 70
    32
  0
VERTEX
  5
88E
  8
0
 10
290.02300000000002
 20
121.39400000000001
 30
0.0
 70
    32
  0
VERTEX
  5
88F
  8
0
 10
290.024
 20
121.39400000000001
 30
0.0
 70
    32
  0
VERTEX
  5
890
  8
0
 10
290.024
 20
121.395
 30
0.0
 70
    32
  0
VERTEX
  5
891
  8
0
 10
290.02499999999998
 20
121.396
 30
0.0
 70
    32
  0
VERTEX
  5
892
  8
0
 10
290.02600000000001
 20
121.39700000000001
 30
0.0
 70
    32
  0
VERTEX
  5
893
  8
0
 10
290.02600000000001
 20
121.398
 30
0.0
 70
    32
  0
VERTEX
  5
894
  8
0
 10
290.02699999999999
 20
121.398
 30
0.0
 70
    32
  0
VERTEX
  5
895
  8
0
 10
290.02699999999999
 20
121.399
 30
0.0
 70
    32
  0
VERTEX
  5
896
  8
0
 10
290.02800000000002
 20
121.40000000000001
 30
0.0
 70
    32
  0
VERTEX
  5
897
  8
0
 10
290.02800000000002
 20
121.401
 30
0.0
 70
    32
  0
VERTEX
  5
898
  8
0
 10
290.029
 20
121.402
 30
0.0
 70
    32
  0
VERTEX
  5
899
  8
0
 10
290.02999999999997
 20
121.402
 30
0.0
 70
    32
  0
VERTEX
  5
89A
  8
0
 10
290.02999999999997
 20
121.40300000000001
 30
0.0
 70
    32
  0
VERTEX
  5
89B
  8
0
 10
290.03100000000001
 20
121.404
 30
0.0
 70
    32
  0
VERTEX
  5
89C
  8
0
 10
290.03100000000001
 20
121.405
 30
0.0
 70
    32
  0
VERTEX
  5
89D
  8
0
 10
290.03199999999998
 20
121.40600000000001
 30
0.0
 70
    32
  0
VERTEX
  5
89E
  8
0
 10
290.03199999999998
 20
121.407
 30
0.0
 70
    32
  0
VERTEX
  5
89F
  8
0
 10
290.03300000000002
 20
121.408
 30
0.0
 70
    32
  0
VERTEX
  5
8A0
  8
0
 10
290.03300000000002
 20
121.40900000000001
 30
0.0
 70
    32
  0
VERTEX
  5
8A1
  8
0
 10
290.03399999999999
 20
121.41
 30
0.0
 70
    32
  0
VERTEX
  5
8A2
  8
0
 10
290.03399999999999
 20
121.411
 30
0.0
 70
    32
  0
VERTEX
  5
8A3
  8
0
 10
290.03500000000003
 20
121.411
 30
0.0
 70
    32
  0
VERTEX
  5
8A4
  8
0
 10
290.03500000000003
 20
121.41200000000001
 30
0.0
 70
    32
  0
VERTEX
  5
8A5
  8
0
 10
290.036
 20
121.413
 30
0.0
 70
    32
  0
VERTEX
  5
8A6
  8
0
 10
290.036
 20
121.414
 30
0.0
 70
    32
  0
VERTEX
  5
8A7
  8
0
 10
290.03699999999998
 20
121.41500000000001
 30
0.0
 70
    32
  0
VERTEX
  5
8A8
  8
0
 10
290.03699999999998
 20
121.416
 30
0.0
 70
    32
  0
VERTEX
  5
8A9
  8
0
 10
290.03699999999998
 20
121.417
 30
0.0
 70
    32
  0
VERTEX
  5
8AA
  8
0
 10
290.03800000000001
 20
121.41800000000001
 30
0.0
 70
    32
  0
VERTEX
  5
8AB
  8
0
 10
290.03800000000001
 20
121.419
 30
0.0
 70
    32
  0
VERTEX
  5
8AC
  8
0
 10
290.03899999999999
 20
121.42
 30
0.0
 70
    32
  0
VERTEX
  5
8AD
  8
0
 10
290.03899999999999
 20
121.42100000000001
 30
0.0
 70
    32
  0
VERTEX
  5
8AE
  8
0
 10
290.03899999999999
 20
121.422
 30
0.0
 70
    32
  0
VERTEX
  5
8AF
  8
0
 10
290.04000000000002
 20
121.42400000000001
 30
0.0
 70
    32
  0
VERTEX
  5
8B0
  8
0
 10
290.04000000000002
 20
121.425
 30
0.0
 70
    32
  0
VERTEX
  5
8B1
  8
0
 10
290.04000000000002
 20
121.426
 30
0.0
 70
    32
  0
VERTEX
  5
8B2
  8
0
 10
290.041
 20
121.42700000000001
 30
0.0
 70
    32
  0
VERTEX
  5
8B3
  8
0
 10
290.041
 20
121.428
 30
0.0
 70
    32
  0
VERTEX
  5
8B4
  8
0
 10
290.041
 20
121.429
 30
0.0
 70
    32
  0
VERTEX
  5
8B5
  8
0
 10
290.04199999999997
 20
121.43000000000001
 30
0.0
 70
    32
  0
VERTEX
  5
8B6
  8
0
 10
290.04199999999997
 20
121.431
 30
0.0
 70
    32
  0
VERTEX
  5
8B7
  8
0
 10
290.04199999999997
 20
121.432
 30
0.0
 70
    32
  0
VERTEX
  5
8B8
  8
0
 10
290.04300000000001
 20
121.43300000000001
 30
0.0
 70
    32
  0
VERTEX
  5
8B9
  8
0
 10
290.04300000000001
 20
121.435
 30
0.0
 70
    32
  0
VERTEX
  5
8BA
  8
0
 10
290.04300000000001
 20
121.43600000000001
 30
0.0
 70
    32
  0
VERTEX
  5
8BB
  8
0
 10
290.04300000000001
 20
121.437
 30
0.0
 70
    32
  0
VERTEX
  5
8BC
  8
0
 10
290.0440000000001
 20
121.438
 30
0.0
 70
    32
  0
VERTEX
  5
8BD
  8
0
 10
290.0440000000001
 20
121.43899999999999
 30
0.0
 70
    32
  0
VERTEX
  5
8BE
  8
0
 10
290.0440000000001
 20
121.44
 30
0.0
 70
    32
  0
VERTEX
  5
8BF
  8
0
 10
290.0440000000001
 20
121.44199999999999
 30
0.0
 70
    32
  0
VERTEX
  5
8C0
  8
0
 10
290.04500000000002
 20
121.443
 30
0.0
 70
    32
  0
VERTEX
  5
8C1
  8
0
 10
290.04500000000002
 20
121.444
 30
0.0
 70
    32
  0
VERTEX
  5
8C2
  8
0
 10
290.04500000000002
 20
121.44499999999999
 30
0.0
 70
    32
  0
VERTEX
  5
8C3
  8
0
 10
290.04500000000002
 20
121.446
 30
0.0
 70
    32
  0
VERTEX
  5
8C4
  8
0
 10
290.04500000000002
 20
121.44799999999999
 30
0.0
 70
    32
  0
VERTEX
  5
8C5
  8
0
 10
290.04500000000002
 20
121.449
 30
0.0
 70
    32
  0
VERTEX
  5
8C6
  8
0
 10
290.04599999999999
 20
121.45
 30
0.0
 70
    32
  0
VERTEX
  5
8C7
  8
0
 10
290.04599999999999
 20
121.45099999999999
 30
0.0
 70
    32
  0
VERTEX
  5
8C8
  8
0
 10
290.04599999999999
 20
121.453
 30
0.0
 70
    32
  0
VERTEX
  5
8C9
  8
0
 10
290.04599999999999
 20
121.45399999999999
 30
0.0
 70
    32
  0
VERTEX
  5
8CA
  8
0
 10
290.04599999999999
 20
121.455
 30
0.0
 70
    32
  0
VERTEX
  5
8CB
  8
0
 10
290.04599999999999
 20
121.456
 30
0.0
 70
    32
  0
VERTEX
  5
8CC
  8
0
 10
290.04599999999999
 20
121.458
 30
0.0
 70
    32
  0
VERTEX
  5
8CD
  8
0
 10
290.04599999999999
 20
121.459
 30
0.0
 70
    32
  0
VERTEX
  5
8CE
  8
0
 10
290.04700000000003
 20
121.45999999999999
 30
0.0
 70
    32
  0
VERTEX
  5
8CF
  8
0
 10
290.04700000000003
 20
121.461
 30
0.0
 70
    32
  0
VERTEX
  5
8D0
  8
0
 10
290.04700000000003
 20
121.46299999999999
 30
0.0
 70
    32
  0
VERTEX
  5
8D1
  8
0
 10
290.04700000000003
 20
121.464
 30
0.0
 70
    32
  0
VERTEX
  5
8D2
  8
0
 10
290.04700000000003
 20
121.465
 30
0.0
 70
    32
  0
VERTEX
  5
8D3
  8
0
 10
290.04700000000003
 20
121.467
 30
0.0
 70
    32
  0
VERTEX
  5
8D4
  8
0
 10
290.04700000000003
 20
121.468
 30
0.0
 70
    32
  0
VERTEX
  5
8D5
  8
0
 10
290.04700000000003
 20
121.46899999999999
 30
0.0
 70
    32
  0
VERTEX
  5
8D6
  8
0
 10
290.04700000000003
 20
121.471
 30
0.0
 70
    32
  0
VERTEX
  5
8D7
  8
0
 10
290.04700000000003
 20
121.47199999999999
 30
0.0
 70
    32
  0
VERTEX
  5
8D8
  8
0
 10
290.04700000000003
 20
121.473
 30
0.0
 70
    32
  0
VERTEX
  5
8D9
  8
0
 10
290.04700000000003
 20
121.47499999999999
 30
0.0
 70
    32
  0
VERTEX
  5
8DA
  8
0
 10
290.04700000000003
 20
121.476
 30
0.0
 70
    32
  0
VERTEX
  5
8DB
  8
0
 10
290.04700000000003
 20
121.477
 30
0.0
 70
    32
  0
VERTEX
  5
8DC
  8
0
 10
290.04700000000003
 20
121.479
 30
0.0
 70
    32
  0
VERTEX
  5
8DD
  8
0
 10
290.04700000000003
 20
121.48
 30
0.0
 70
    32
  0
VERTEX
  5
8DE
  8
0
 10
290.04700000000003
 20
121.48099999999999
 30
0.0
 70
    32
  0
VERTEX
  5
8DF
  8
0
 10
290.04599999999999
 20
121.483
 30
0.0
 70
    32
  0
VERTEX
  5
8E0
  8
0
 10
290.04599999999999
 20
121.48399999999999
 30
0.0
 70
    32
  0
VERTEX
  5
8E1
  8
0
 10
290.04599999999999
 20
121.486
 30
0.0
 70
    32
  0
VERTEX
  5
8E2
  8
0
 10
290.04599999999999
 20
121.48699999999999
 30
0.0
 70
    32
  0
VERTEX
  5
8E3
  8
0
 10
290.04599999999999
 20
121.488
 30
0.0
 70
    32
  0
VERTEX
  5
8E4
  8
0
 10
290.04599999999999
 20
121.48999999999999
 30
0.0
 70
    32
  0
VERTEX
  5
8E5
  8
0
 10
290.04599999999999
 20
121.491
 30
0.0
 70
    32
  0
VERTEX
  5
8E6
  8
0
 10
290.04599999999999
 20
121.49299999999999
 30
0.0
 70
    32
  0
VERTEX
  5
8E7
  8
0
 10
290.04500000000002
 20
121.494
 30
0.0
 70
    32
  0
VERTEX
  5
8E8
  8
0
 10
290.04500000000002
 20
121.495
 30
0.0
 70
    32
  0
VERTEX
  5
8E9
  8
0
 10
290.04500000000002
 20
121.497
 30
0.0
 70
    32
  0
VERTEX
  5
8EA
  8
0
 10
290.04500000000002
 20
121.498
 30
0.0
 70
    32
  0
VERTEX
  5
8EB
  8
0
 10
290.04500000000002
 20
121.5
 30
0.0
 70
    32
  0
VERTEX
  5
8EC
  8
0
 10
290.04500000000002
 20
121.501
 30
0.0
 70
    32
  0
VERTEX
  5
8ED
  8
0
 10
290.0440000000001
 20
121.503
 30
0.0
 70
    32
  0
VERTEX
  5
8EE
  8
0
 10
290.0440000000001
 20
121.504
 30
0.0
 70
    32
  0
VERTEX
  5
8EF
  8
0
 10
290.0440000000001
 20
121.505
 30
0.0
 70
    32
  0
VERTEX
  5
8F0
  8
0
 10
290.0440000000001
 20
121.50700000000001
 30
0.0
 70
    32
  0
VERTEX
  5
8F1
  8
0
 10
290.04300000000001
 20
121.508
 30
0.0
 70
    32
  0
VERTEX
  5
8F2
  8
0
 10
290.04300000000001
 20
121.51000000000001
 30
0.0
 70
    32
  0
VERTEX
  5
8F3
  8
0
 10
290.04300000000001
 20
121.511
 30
0.0
 70
    32
  0
VERTEX
  5
8F4
  8
0
 10
290.04300000000001
 20
121.51300000000001
 30
0.0
 70
    32
  0
VERTEX
  5
8F5
  8
0
 10
290.04199999999997
 20
121.514
 30
0.0
 70
    32
  0
VERTEX
  5
8F6
  8
0
 10
290.04199999999997
 20
121.51600000000001
 30
0.0
 70
    32
  0
SEQEND
  5
8F7
  8
0
  0
LINE
  5
1B1
  8
0
  6
CONTINUOUS
 10
289.25492557810003
 20
120.9456727144
 30
0.0
 11
290.00544327710008
 21
121.3790782065
 31
0.0
  0
POLYLINE
  5
1B2
  8
0
  6
CONTINUOUS
 66
     1
 10
0.0
 20
0.0
 30
0.0
 70
     8
  0
VERTEX
  5
8F8
  8
0
 10
289.15499999999997
 20
120.956
 30
0.0
 70
    32
  0
VERTEX
  5
8F9
  8
0
 10
289.15600000000001
 20
120.955
 30
0.0
 70
    32
  0
VERTEX
  5
8FA
  8
0
 10
289.15699999999998
 20
120.955
 30
0.0
 70
    32
  0
VERTEX
  5
8FB
  8
0
 10
289.15800000000002
 20
120.95399999999999
 30
0.0
 70
    32
  0
VERTEX
  5
8FC
  8
0
 10
289.15800000000002
 20
120.95399999999999
 30
0.0
 70
    32
  0
VERTEX
  5
8FD
  8
0
 10
289.15899999999999
 20
120.953
 30
0.0
 70
    32
  0
VERTEX
  5
8FE
  8
0
 10
289.16000000000003
 20
120.953
 30
0.0
 70
    32
  0
VERTEX
  5
8FF
  8
0
 10
289.161
 20
120.952
 30
0.0
 70
    32
  0
VERTEX
  5
900
  8
0
 10
289.16200000000009
 20
120.952
 30
0.0
 70
    32
  0
VERTEX
  5
901
  8
0
 10
289.16300000000001
 20
120.95099999999999
 30
0.0
 70
    32
  0
VERTEX
  5
902
  8
0
 10
289.16399999999999
 20
120.95099999999999
 30
0.0
 70
    32
  0
VERTEX
  5
903
  8
0
 10
289.16399999999999
 20
120.95
 30
0.0
 70
    32
  0
VERTEX
  5
904
  8
0
 10
289.16500000000002
 20
120.95
 30
0.0
 70
    32
  0
VERTEX
  5
905
  8
0
 10
289.166
 20
120.95
 30
0.0
 70
    32
  0
VERTEX
  5
906
  8
0
 10
289.16699999999997
 20
120.949
 30
0.0
 70
    32
  0
VERTEX
  5
907
  8
0
 10
289.16800000000001
 20
120.949
 30
0.0
 70
    32
  0
VERTEX
  5
908
  8
0
 10
289.16899999999998
 20
120.94799999999999
 30
0.0
 70
    32
  0
VERTEX
  5
909
  8
0
 10
289.17000000000002
 20
120.94799999999999
 30
0.0
 70
    32
  0
VERTEX
  5
90A
  8
0
 10
289.17099999999999
 20
120.94799999999999
 30
0.0
 70
    32
  0
VERTEX
  5
90B
  8
0
 10
289.17099999999999
 20
120.947
 30
0.0
 70
    32
  0
VERTEX
  5
90C
  8
0
 10
289.17200000000003
 20
120.947
 30
0.0
 70
    32
  0
VERTEX
  5
90D
  8
0
 10
289.173
 20
120.946
 30
0.0
 70
    32
  0
VERTEX
  5
90E
  8
0
 10
289.17399999999998
 20
120.946
 30
0.0
 70
    32
  0
VERTEX
  5
90F
  8
0
 10
289.17500000000001
 20
120.946
 30
0.0
 70
    32
  0
VERTEX
  5
910
  8
0
 10
289.17599999999999
 20
120.94499999999999
 30
0.0
 70
    32
  0
VERTEX
  5
911
  8
0
 10
289.17700000000002
 20
120.94499999999999
 30
0.0
 70
    32
  0
VERTEX
  5
912
  8
0
 10
289.17700000000002
 20
120.94499999999999
 30
0.0
 70
    32
  0
VERTEX
  5
913
  8
0
 10
289.178
 20
120.944
 30
0.0
 70
    32
  0
VERTEX
  5
914
  8
0
 10
289.17899999999997
 20
120.944
 30
0.0
 70
    32
  0
VERTEX
  5
915
  8
0
 10
289.18000000000001
 20
120.944
 30
0.0
 70
    32
  0
VERTEX
  5
916
  8
0
 10
289.18099999999998
 20
120.943
 30
0.0
 70
    32
  0
VERTEX
  5
917
  8
0
 10
289.18200000000002
 20
120.943
 30
0.0
 70
    32
  0
VERTEX
  5
918
  8
0
 10
289.18299999999999
 20
120.943
 30
0.0
 70
    32
  0
VERTEX
  5
919
  8
0
 10
289.18299999999999
 20
120.94199999999999
 30
0.0
 70
    32
  0
VERTEX
  5
91A
  8
0
 10
289.18400000000003
 20
120.94199999999999
 30
0.0
 70
    32
  0
VERTEX
  5
91B
  8
0
 10
289.185
 20
120.94199999999999
 30
0.0
 70
    32
  0
VERTEX
  5
91C
  8
0
 10
289.18599999999998
 20
120.94199999999999
 30
0.0
 70
    32
  0
VERTEX
  5
91D
  8
0
 10
289.18700000000001
 20
120.941
 30
0.0
 70
    32
  0
VERTEX
  5
91E
  8
0
 10
289.18799999999999
 20
120.941
 30
0.0
 70
    32
  0
VERTEX
  5
91F
  8
0
 10
289.18799999999999
 20
120.941
 30
0.0
 70
    32
  0
VERTEX
  5
920
  8
0
 10
289.18900000000002
 20
120.941
 30
0.0
 70
    32
  0
VERTEX
  5
921
  8
0
 10
289.19
 20
120.94
 30
0.0
 70
    32
  0
VERTEX
  5
922
  8
0
 10
289.19099999999997
 20
120.94
 30
0.0
 70
    32
  0
VERTEX
  5
923
  8
0
 10
289.19200000000001
 20
120.94
 30
0.0
 70
    32
  0
VERTEX
  5
924
  8
0
 10
289.19299999999998
 20
120.94
 30
0.0
 70
    32
  0
VERTEX
  5
925
  8
0
 10
289.19299999999998
 20
120.93899999999999
 30
0.0
 70
    32
  0
VERTEX
  5
926
  8
0
 10
289.19400000000002
 20
120.93899999999999
 30
0.0
 70
    32
  0
VERTEX
  5
927
  8
0
 10
289.19499999999999
 20
120.93899999999999
 30
0.0
 70
    32
  0
VERTEX
  5
928
  8
0
 10
289.19600000000003
 20
120.93899999999999
 30
0.0
 70
    32
  0
VERTEX
  5
929
  8
0
 10
289.197
 20
120.93899999999999
 30
0.0
 70
    32
  0
VERTEX
  5
92A
  8
0
 10
289.19799999999998
 20
120.93899999999999
 30
0.0
 70
    32
  0
VERTEX
  5
92B
  8
0
 10
289.19799999999998
 20
120.938
 30
0.0
 70
    32
  0
VERTEX
  5
92C
  8
0
 10
289.19900000000001
 20
120.938
 30
0.0
 70
    32
  0
VERTEX
  5
92D
  8
0
 10
289.19999999999999
 20
120.938
 30
0.0
 70
    32
  0
VERTEX
  5
92E
  8
0
 10
289.20099999999991
 20
120.938
 30
0.0
 70
    32
  0
VERTEX
  5
92F
  8
0
 10
289.202
 20
120.938
 30
0.0
 70
    32
  0
VERTEX
  5
930
  8
0
 10
289.20299999999997
 20
120.938
 30
0.0
 70
    32
  0
VERTEX
  5
931
  8
0
 10
289.20299999999997
 20
120.937
 30
0.0
 70
    32
  0
VERTEX
  5
932
  8
0
 10
289.20400000000001
 20
120.937
 30
0.0
 70
    32
  0
VERTEX
  5
933
  8
0
 10
289.20499999999998
 20
120.937
 30
0.0
 70
    32
  0
VERTEX
  5
934
  8
0
 10
289.20600000000002
 20
120.937
 30
0.0
 70
    32
  0
VERTEX
  5
935
  8
0
 10
289.20699999999999
 20
120.937
 30
0.0
 70
    32
  0
VERTEX
  5
936
  8
0
 10
289.20699999999999
 20
120.937
 30
0.0
 70
    32
  0
VERTEX
  5
937
  8
0
 10
289.20799999999991
 20
120.937
 30
0.0
 70
    32
  0
VERTEX
  5
938
  8
0
 10
289.209
 20
120.937
 30
0.0
 70
    32
  0
VERTEX
  5
939
  8
0
 10
289.20999999999998
 20
120.937
 30
0.0
 70
    32
  0
VERTEX
  5
93A
  8
0
 10
289.21100000000001
 20
120.937
 30
0.0
 70
    32
  0
VERTEX
  5
93B
  8
0
 10
289.21100000000001
 20
120.937
 30
0.0
 70
    32
  0
VERTEX
  5
93C
  8
0
 10
289.21199999999999
 20
120.93600000000001
 30
0.0
 70
    32
  0
VERTEX
  5
93D
  8
0
 10
289.21300000000002
 20
120.93600000000001
 30
0.0
 70
    32
  0
VERTEX
  5
93E
  8
0
 10
289.214
 20
120.93600000000001
 30
0.0
 70
    32
  0
VERTEX
  5
93F
  8
0
 10
289.21499999999997
 20
120.93600000000001
 30
0.0
 70
    32
  0
VERTEX
  5
940
  8
0
 10
289.21499999999997
 20
120.93600000000001
 30
0.0
 70
    32
  0
VERTEX
  5
941
  8
0
 10
289.21600000000001
 20
120.93600000000001
 30
0.0
 70
    32
  0
VERTEX
  5
942
  8
0
 10
289.21699999999998
 20
120.93600000000001
 30
0.0
 70
    32
  0
VERTEX
  5
943
  8
0
 10
289.21800000000002
 20
120.93600000000001
 30
0.0
 70
    32
  0
VERTEX
  5
944
  8
0
 10
289.21899999999999
 20
120.93600000000001
 30
0.0
 70
    32
  0
VERTEX
  5
945
  8
0
 10
289.21899999999999
 20
120.93600000000001
 30
0.0
 70
    32
  0
VERTEX
  5
946
  8
0
 10
289.22000000000003
 20
120.93600000000001
 30
0.0
 70
    32
  0
VERTEX
  5
947
  8
0
 10
289.221
 20
120.93600000000001
 30
0.0
 70
    32
  0
VERTEX
  5
948
  8
0
 10
289.22199999999998
 20
120.93600000000001
 30
0.0
 70
    32
  0
VERTEX
  5
949
  8
0
 10
289.22199999999998
 20
120.93600000000001
 30
0.0
 70
    32
  0
VERTEX
  5
94A
  8
0
 10
289.22300000000001
 20
120.93600000000001
 30
0.0
 70
    32
  0
VERTEX
  5
94B
  8
0
 10
289.22399999999999
 20
120.93600000000001
 30
0.0
 70
    32
  0
VERTEX
  5
94C
  8
0
 10
289.22500000000002
 20
120.937
 30
0.0
 70
    32
  0
VERTEX
  5
94D
  8
0
 10
289.22500000000002
 20
120.937
 30
0.0
 70
    32
  0
VERTEX
  5
94E
  8
0
 10
289.226
 20
120.937
 30
0.0
 70
    32
  0
VERTEX
  5
94F
  8
0
 10
289.22699999999998
 20
120.937
 30
0.0
 70
    32
  0
VERTEX
  5
950
  8
0
 10
289.22800000000001
 20
120.937
 30
0.0
 70
    32
  0
VERTEX
  5
951
  8
0
 10
289.22800000000001
 20
120.937
 30
0.0
 70
    32
  0
VERTEX
  5
952
  8
0
 10
289.22899999999998
 20
120.937
 30
0.0
 70
    32
  0
VERTEX
  5
953
  8
0
 10
289.23000000000002
 20
120.937
 30
0.0
 70
    32
  0
VERTEX
  5
954
  8
0
 10
289.23099999999999
 20
120.937
 30
0.0
 70
    32
  0
VERTEX
  5
955
  8
0
 10
289.23099999999999
 20
120.937
 30
0.0
 70
    32
  0
VERTEX
  5
956
  8
0
 10
289.23200000000003
 20
120.937
 30
0.0
 70
    32
  0
VERTEX
  5
957
  8
0
 10
289.233
 20
120.938
 30
0.0
 70
    32
  0
VERTEX
  5
958
  8
0
 10
289.233
 20
120.938
 30
0.0
 70
    32
  0
VERTEX
  5
959
  8
0
 10
289.23399999999998
 20
120.938
 30
0.0
 70
    32
  0
VERTEX
  5
95A
  8
0
 10
289.23500000000001
 20
120.938
 30
0.0
 70
    32
  0
VERTEX
  5
95B
  8
0
 10
289.23599999999999
 20
120.938
 30
0.0
 70
    32
  0
VERTEX
  5
95C
  8
0
 10
289.23599999999999
 20
120.938
 30
0.0
 70
    32
  0
VERTEX
  5
95D
  8
0
 10
289.23700000000002
 20
120.93899999999999
 30
0.0
 70
    32
  0
VERTEX
  5
95E
  8
0
 10
289.238
 20
120.93899999999999
 30
0.0
 70
    32
  0
VERTEX
  5
95F
  8
0
 10
289.238
 20
120.93899999999999
 30
0.0
 70
    32
  0
VERTEX
  5
960
  8
0
 10
289.23899999999998
 20
120.93899999999999
 30
0.0
 70
    32
  0
VERTEX
  5
961
  8
0
 10
289.24000000000001
 20
120.93899999999999
 30
0.0
 70
    32
  0
VERTEX
  5
962
  8
0
 10
289.24099999999999
 20
120.93899999999999
 30
0.0
 70
    32
  0
VERTEX
  5
963
  8
0
 10
289.24099999999999
 20
120.94
 30
0.0
 70
    32
  0
VERTEX
  5
964
  8
0
 10
289.24200000000002
 20
120.94
 30
0.0
 70
    32
  0
VERTEX
  5
965
  8
0
 10
289.24299999999999
 20
120.94
 30
0.0
 70
    32
  0
VERTEX
  5
966
  8
0
 10
289.24299999999999
 20
120.94
 30
0.0
 70
    32
  0
VERTEX
  5
967
  8
0
 10
289.24400000000003
 20
120.941
 30
0.0
 70
    32
  0
VERTEX
  5
968
  8
0
 10
289.245
 20
120.941
 30
0.0
 70
    32
  0
VERTEX
  5
969
  8
0
 10
289.245
 20
120.941
 30
0.0
 70
    32
  0
VERTEX
  5
96A
  8
0
 10
289.24599999999998
 20
120.941
 30
0.0
 70
    32
  0
VERTEX
  5
96B
  8
0
 10
289.24700000000001
 20
120.94199999999999
 30
0.0
 70
    32
  0
VERTEX
  5
96C
  8
0
 10
289.24700000000001
 20
120.94199999999999
 30
0.0
 70
    32
  0
VERTEX
  5
96D
  8
0
 10
289.24799999999999
 20
120.94199999999999
 30
0.0
 70
    32
  0
VERTEX
  5
96E
  8
0
 10
289.24900000000002
 20
120.94199999999999
 30
0.0
 70
    32
  0
VERTEX
  5
96F
  8
0
 10
289.24900000000002
 20
120.943
 30
0.0
 70
    32
  0
VERTEX
  5
970
  8
0
 10
289.25
 20
120.943
 30
0.0
 70
    32
  0
VERTEX
  5
971
  8
0
 10
289.25099999999998
 20
120.943
 30
0.0
 70
    32
  0
VERTEX
  5
972
  8
0
 10
289.25099999999998
 20
120.944
 30
0.0
 70
    32
  0
VERTEX
  5
973
  8
0
 10
289.25200000000001
 20
120.944
 30
0.0
 70
    32
  0
VERTEX
  5
974
  8
0
 10
289.25200000000001
 20
120.944
 30
0.0
 70
    32
  0
VERTEX
  5
975
  8
0
 10
289.25299999999999
 20
120.94499999999999
 30
0.0
 70
    32
  0
VERTEX
  5
976
  8
0
 10
289.25400000000002
 20
120.94499999999999
 30
0.0
 70
    32
  0
VERTEX
  5
977
  8
0
 10
289.25400000000002
 20
120.94499999999999
 30
0.0
 70
    32
  0
VERTEX
  5
978
  8
0
 10
289.255
 20
120.946
 30
0.0
 70
    32
  0
SEQEND
  5
979
  8
0
  0
LINE
  5
1B3
  8
0
  6
CONTINUOUS
 10
285.65030706340002
 20
122.9787501214
 30
0.0
 11
289.15494080859997
 21
120.9555681249
 31
0.0
  0
POLYLINE
  5
1B4
  8
0
  6
CONTINUOUS
 66
     1
 10
0.0
 20
0.0
 30
0.0
 70
     8
  0
VERTEX
  5
97A
  8
0
 10
285.55000000000001
 20
123.084
 30
0.0
 70
    32
  0
VERTEX
  5
97B
  8
0
 10
285.55099999999999
 20
123.083
 30
0.0
 70
    32
  0
VERTEX
  5
97C
  8
0
 10
285.55200000000002
 20
123.08199999999999
 30
0.0
 70
    32
  0
VERTEX
  5
97D
  8
0
 10
285.55200000000002
 20
123.081
 30
0.0
 70
    32
  0
VERTEX
  5
97E
  8
0
 10
285.553
 20
123.08
 30
0.0
 70
    32
  0
VERTEX
  5
97F
  8
0
 10
285.553
 20
123.07899999999999
 30
0.0
 70
    32
  0
VERTEX
  5
980
  8
0
 10
285.55399999999997
 20
123.078
 30
0.0
 70
    32
  0
VERTEX
  5
981
  8
0
 10
285.55500000000001
 20
123.077
 30
0.0
 70
    32
  0
VERTEX
  5
982
  8
0
 10
285.55500000000001
 20
123.07599999999999
 30
0.0
 70
    32
  0
VERTEX
  5
983
  8
0
 10
285.55599999999998
 20
123.075
 30
0.0
 70
    32
  0
VERTEX
  5
984
  8
0
 10
285.55700000000002
 20
123.074
 30
0.0
 70
    32
  0
VERTEX
  5
985
  8
0
 10
285.55700000000002
 20
123.07299999999999
 30
0.0
 70
    32
  0
VERTEX
  5
986
  8
0
 10
285.55799999999999
 20
123.072
 30
0.0
 70
    32
  0
VERTEX
  5
987
  8
0
 10
285.55900000000003
 20
123.071
 30
0.0
 70
    32
  0
VERTEX
  5
988
  8
0
 10
285.55900000000003
 20
123.06999999999999
 30
0.0
 70
    32
  0
VERTEX
  5
989
  8
0
 10
285.56
 20
123.069
 30
0.0
 70
    32
  0
VERTEX
  5
98A
  8
0
 10
285.56099999999998
 20
123.068
 30
0.0
 70
    32
  0
VERTEX
  5
98B
  8
0
 10
285.56099999999998
 20
123.06699999999999
 30
0.0
 70
    32
  0
VERTEX
  5
98C
  8
0
 10
285.56200000000001
 20
123.066
 30
0.0
 70
    32
  0
VERTEX
  5
98D
  8
0
 10
285.56299999999999
 20
123.065
 30
0.0
 70
    32
  0
VERTEX
  5
98E
  8
0
 10
285.56299999999999
 20
123.06399999999999
 30
0.0
 70
    32
  0
VERTEX
  5
98F
  8
0
 10
285.56400000000002
 20
123.063
 30
0.0
 70
    32
  0
VERTEX
  5
990
  8
0
 10
285.565
 20
123.062
 30
0.0
 70
    32
  0
VERTEX
  5
991
  8
0
 10
285.565
 20
123.06100000000001
 30
0.0
 70
    32
  0
VERTEX
  5
992
  8
0
 10
285.56599999999997
 20
123.06
 30
0.0
 70
    32
  0
VERTEX
  5
993
  8
0
 10
285.56700000000001
 20
123.059
 30
0.0
 70
    32
  0
VERTEX
  5
994
  8
0
 10
285.56700000000001
 20
123.05800000000001
 30
0.0
 70
    32
  0
VERTEX
  5
995
  8
0
 10
285.56799999999998
 20
123.057
 30
0.0
 70
    32
  0
VERTEX
  5
996
  8
0
 10
285.56900000000002
 20
123.056
 30
0.0
 70
    32
  0
VERTEX
  5
997
  8
0
 10
285.56999999999999
 20
123.05500000000001
 30
0.0
 70
    32
  0
VERTEX
  5
998
  8
0
 10
285.56999999999999
 20
123.054
 30
0.0
 70
    32
  0
VERTEX
  5
999
  8
0
 10
285.57100000000003
 20
123.053
 30
0.0
 70
    32
  0
VERTEX
  5
99A
  8
0
 10
285.572
 20
123.05200000000001
 30
0.0
 70
    32
  0
VERTEX
  5
99B
  8
0
 10
285.572
 20
123.051
 30
0.0
 70
    32
  0
VERTEX
  5
99C
  8
0
 10
285.57299999999998
 20
123.05
 30
0.0
 70
    32
  0
VERTEX
  5
99D
  8
0
 10
285.57400000000001
 20
123.04900000000001
 30
0.0
 70
    32
  0
VERTEX
  5
99E
  8
0
 10
285.57499999999999
 20
123.048
 30
0.0
 70
    32
  0
VERTEX
  5
99F
  8
0
 10
285.57499999999999
 20
123.047
 30
0.0
 70
    32
  0
VERTEX
  5
9A0
  8
0
 10
285.57600000000002
 20
123.04600000000001
 30
0.0
 70
    32
  0
VERTEX
  5
9A1
  8
0
 10
285.577
 20
123.045
 30
0.0
 70
    32
  0
VERTEX
  5
9A2
  8
0
 10
285.57799999999997
 20
123.044
 30
0.0
 70
    32
  0
VERTEX
  5
9A3
  8
0
 10
285.57799999999997
 20
123.04300000000001
 30
0.0
 70
    32
  0
VERTEX
  5
9A4
  8
0
 10
285.57900000000001
 20
123.042
 30
0.0
 70
    32
  0
VERTEX
  5
9A5
  8
0
 10
285.57999999999998
 20
123.041
 30
0.0
 70
    32
  0
VERTEX
  5
9A6
  8
0
 10
285.5809999999999
 20
123.04000000000001
 30
0.0
 70
    32
  0
VERTEX
  5
9A7
  8
0
 10
285.5809999999999
 20
123.039
 30
0.0
 70
    32
  0
VERTEX
  5
9A8
  8
0
 10
285.58199999999999
 20
123.038
 30
0.0
 70
    32
  0
VERTEX
  5
9A9
  8
0
 10
285.58300000000003
 20
123.03700000000001
 30
0.0
 70
    32
  0
VERTEX
  5
9AA
  8
0
 10
285.584
 20
123.03700000000001
 30
0.0
 70
    32
  0
VERTEX
  5
9AB
  8
0
 10
285.584
 20
123.036
 30
0.0
 70
    32
  0
VERTEX
  5
9AC
  8
0
 10
285.58499999999998
 20
123.035
 30
0.0
 70
    32
  0
VERTEX
  5
9AD
  8
0
 10
285.58600000000001
 20
123.03400000000001
 30
0.0
 70
    32
  0
VERTEX
  5
9AE
  8
0
 10
285.58699999999999
 20
123.033
 30
0.0
 70
    32
  0
VERTEX
  5
9AF
  8
0
 10
285.58799999999991
 20
123.032
 30
0.0
 70
    32
  0
VERTEX
  5
9B0
  8
0
 10
285.58799999999991
 20
123.03100000000001
 30
0.0
 70
    32
  0
VERTEX
  5
9B1
  8
0
 10
285.589
 20
123.03
 30
0.0
 70
    32
  0
VERTEX
  5
9B2
  8
0
 10
285.58999999999997
 20
123.029
 30
0.0
 70
    32
  0
VERTEX
  5
9B3
  8
0
 10
285.59100000000001
 20
123.02800000000001
 30
0.0
 70
    32
  0
VERTEX
  5
9B4
  8
0
 10
285.59100000000001
 20
123.02800000000001
 30
0.0
 70
    32
  0
VERTEX
  5
9B5
  8
0
 10
285.59199999999998
 20
123.027
 30
0.0
 70
    32
  0
VERTEX
  5
9B6
  8
0
 10
285.59300000000002
 20
123.026
 30
0.0
 70
    32
  0
VERTEX
  5
9B7
  8
0
 10
285.59399999999999
 20
123.02500000000001
 30
0.0
 70
    32
  0
VERTEX
  5
9B8
  8
0
 10
285.59500000000003
 20
123.024
 30
0.0
 70
    32
  0
VERTEX
  5
9B9
  8
0
 10
285.59500000000003
 20
123.023
 30
0.0
 70
    32
  0
VERTEX
  5
9BA
  8
0
 10
285.596
 20
123.02200000000001
 30
0.0
 70
    32
  0
VERTEX
  5
9BB
  8
0
 10
285.59699999999998
 20
123.02200000000001
 30
0.0
 70
    32
  0
VERTEX
  5
9BC
  8
0
 10
285.59800000000001
 20
123.021
 30
0.0
 70
    32
  0
VERTEX
  5
9BD
  8
0
 10
285.59899999999999
 20
123.02
 30
0.0
 70
    32
  0
VERTEX
  5
9BE
  8
0
 10
285.59899999999999
 20
123.01900000000001
 30
0.0
 70
    32
  0
VERTEX
  5
9BF
  8
0
 10
285.60000000000002
 20
123.018
 30
0.0
 70
    32
  0
VERTEX
  5
9C0
  8
0
 10
285.601
 20
123.017
 30
0.0
 70
    32
  0
VERTEX
  5
9C1
  8
0
 10
285.60199999999998
 20
123.017
 30
0.0
 70
    32
  0
VERTEX
  5
9C2
  8
0
 10
285.60300000000001
 20
123.01600000000001
 30
0.0
 70
    32
  0
VERTEX
  5
9C3
  8
0
 10
285.60300000000001
 20
123.015
 30
0.0
 70
    32
  0
VERTEX
  5
9C4
  8
0
 10
285.6040000000001
 20
123.014
 30
0.0
 70
    32
  0
VERTEX
  5
9C5
  8
0
 10
285.60500000000002
 20
123.01300000000001
 30
0.0
 70
    32
  0
VERTEX
  5
9C6
  8
0
 10
285.60599999999999
 20
123.01300000000001
 30
0.0
 70
    32
  0
VERTEX
  5
9C7
  8
0
 10
285.60700000000003
 20
123.012
 30
0.0
 70
    32
  0
VERTEX
  5
9C8
  8
0
 10
285.608
 20
123.011
 30
0.0
 70
    32
  0
VERTEX
  5
9C9
  8
0
 10
285.608
 20
123.01000000000001
 30
0.0
 70
    32
  0
VERTEX
  5
9CA
  8
0
 10
285.60899999999998
 20
123.009
 30
0.0
 70
    32
  0
VERTEX
  5
9CB
  8
0
 10
285.61000000000001
 20
123.009
 30
0.0
 70
    32
  0
VERTEX
  5
9CC
  8
0
 10
285.61099999999999
 20
123.008
 30
0.0
 70
    32
  0
VERTEX
  5
9CD
  8
0
 10
285.61200000000002
 20
123.00700000000001
 30
0.0
 70
    32
  0
VERTEX
  5
9CE
  8
0
 10
285.613
 20
123.006
 30
0.0
 70
    32
  0
VERTEX
  5
9CF
  8
0
 10
285.613
 20
123.006
 30
0.0
 70
    32
  0
VERTEX
  5
9D0
  8
0
 10
285.61399999999998
 20
123.005
 30
0.0
 70
    32
  0
VERTEX
  5
9D1
  8
0
 10
285.61500000000001
 20
123.004
 30
0.0
 70
    32
  0
VERTEX
  5
9D2
  8
0
 10
285.61599999999999
 20
123.003
 30
0.0
 70
    32
  0
VERTEX
  5
9D3
  8
0
 10
285.61700000000002
 20
123.003
 30
0.0
 70
    32
  0
VERTEX
  5
9D4
  8
0
 10
285.61799999999999
 20
123.002
 30
0.0
 70
    32
  0
VERTEX
  5
9D5
  8
0
 10
285.61799999999999
 20
123.001
 30
0.0
 70
    32
  0
VERTEX
  5
9D6
  8
0
 10
285.61900000000003
 20
123.001
 30
0.0
 70
    32
  0
VERTEX
  5
9D7
  8
0
 10
285.62
 20
123.0
 30
0.0
 70
    32
  0
VERTEX
  5
9D8
  8
0
 10
285.62099999999998
 20
122.999
 30
0.0
 70
    32
  0
VERTEX
  5
9D9
  8
0
 10
285.62200000000001
 20
122.999
 30
0.0
 70
    32
  0
VERTEX
  5
9DA
  8
0
 10
285.62299999999999
 20
122.998
 30
0.0
 70
    32
  0
VERTEX
  5
9DB
  8
0
 10
285.62400000000002
 20
122.997
 30
0.0
 70
    32
  0
VERTEX
  5
9DC
  8
0
 10
285.62400000000002
 20
122.996
 30
0.0
 70
    32
  0
VERTEX
  5
9DD
  8
0
 10
285.625
 20
122.996
 30
0.0
 70
    32
  0
VERTEX
  5
9DE
  8
0
 10
285.62599999999998
 20
122.995
 30
0.0
 70
    32
  0
VERTEX
  5
9DF
  8
0
 10
285.62700000000001
 20
122.994
 30
0.0
 70
    32
  0
VERTEX
  5
9E0
  8
0
 10
285.62799999999999
 20
122.994
 30
0.0
 70
    32
  0
VERTEX
  5
9E1
  8
0
 10
285.62900000000002
 20
122.99299999999999
 30
0.0
 70
    32
  0
VERTEX
  5
9E2
  8
0
 10
285.63
 20
122.992
 30
0.0
 70
    32
  0
VERTEX
  5
9E3
  8
0
 10
285.63
 20
122.992
 30
0.0
 70
    32
  0
VERTEX
  5
9E4
  8
0
 10
285.63099999999997
 20
122.991
 30
0.0
 70
    32
  0
VERTEX
  5
9E5
  8
0
 10
285.63200000000001
 20
122.991
 30
0.0
 70
    32
  0
VERTEX
  5
9E6
  8
0
 10
285.63299999999998
 20
122.98999999999999
 30
0.0
 70
    32
  0
VERTEX
  5
9E7
  8
0
 10
285.63400000000001
 20
122.989
 30
0.0
 70
    32
  0
VERTEX
  5
9E8
  8
0
 10
285.63499999999999
 20
122.989
 30
0.0
 70
    32
  0
VERTEX
  5
9E9
  8
0
 10
285.63600000000002
 20
122.988
 30
0.0
 70
    32
  0
VERTEX
  5
9EA
  8
0
 10
285.63600000000002
 20
122.988
 30
0.0
 70
    32
  0
VERTEX
  5
9EB
  8
0
 10
285.637
 20
122.98699999999999
 30
0.0
 70
    32
  0
VERTEX
  5
9EC
  8
0
 10
285.63799999999998
 20
122.986
 30
0.0
 70
    32
  0
VERTEX
  5
9ED
  8
0
 10
285.63900000000001
 20
122.986
 30
0.0
 70
    32
  0
VERTEX
  5
9EE
  8
0
 10
285.63999999999999
 20
122.985
 30
0.0
 70
    32
  0
VERTEX
  5
9EF
  8
0
 10
285.64100000000002
 20
122.985
 30
0.0
 70
    32
  0
VERTEX
  5
9F0
  8
0
 10
285.642
 20
122.98399999999999
 30
0.0
 70
    32
  0
VERTEX
  5
9F1
  8
0
 10
285.64299999999992
 20
122.98399999999999
 30
0.0
 70
    32
  0
VERTEX
  5
9F2
  8
0
 10
285.64299999999992
 20
122.983
 30
0.0
 70
    32
  0
VERTEX
  5
9F3
  8
0
 10
285.64400000000001
 20
122.982
 30
0.0
 70
    32
  0
VERTEX
  5
9F4
  8
0
 10
285.64499999999998
 20
122.982
 30
0.0
 70
    32
  0
VERTEX
  5
9F5
  8
0
 10
285.64600000000002
 20
122.98099999999999
 30
0.0
 70
    32
  0
VERTEX
  5
9F6
  8
0
 10
285.64699999999999
 20
122.98099999999999
 30
0.0
 70
    32
  0
VERTEX
  5
9F7
  8
0
 10
285.64800000000002
 20
122.98
 30
0.0
 70
    32
  0
VERTEX
  5
9F8
  8
0
 10
285.649
 20
122.98
 30
0.0
 70
    32
  0
VERTEX
  5
9F9
  8
0
 10
285.649
 20
122.979
 30
0.0
 70
    32
  0
VERTEX
  5
9FA
  8
0
 10
285.64999999999998
 20
122.979
 30
0.0
 70
    32
  0
SEQEND
  5
9FB
  8
0
  0
LINE
  5
1B5
  8
0
  6
CONTINUOUS
 10
284.79980459490002
 20
124.3842294513
 30
0.0
 11
285.55032229390002
 21
123.08429466849999
 31
0.0
  0
LINE
  5
1B6
  8
0
  6
CONTINUOUS
 10
284.65562996360001
 20
124.3033261596
 30
0.0
 11
285.4078784436
 21
123.00039357599999
 31
0.0
  0
POLYLINE
  5
1B7
  8
0
  6
CONTINUOUS
 66
     1
 10
0.0
 20
0.0
 30
0.0
 70
     8
  0
VERTEX
  5
9FC
  8
0
 10
284.61900000000003
 20
124.482
 30
0.0
 70
    32
  0
VERTEX
  5
9FD
  8
0
 10
284.61900000000003
 20
124.48099999999999
 30
0.0
 70
    32
  0
VERTEX
  5
9FE
  8
0
 10
284.61799999999999
 20
124.48
 30
0.0
 70
    32
  0
VERTEX
  5
9FF
  8
0
 10
284.61799999999999
 20
124.479
 30
0.0
 70
    32
  0
VERTEX
  5
A00
  8
0
 10
284.61799999999999
 20
124.47799999999999
 30
0.0
 70
    32
  0
VERTEX
  5
A01
  8
0
 10
284.61799999999999
 20
124.476
 30
0.0
 70
    32
  0
VERTEX
  5
A02
  8
0
 10
284.61700000000002
 20
124.47499999999999
 30
0.0
 70
    32
  0
VERTEX
  5
A03
  8
0
 10
284.61700000000002
 20
124.474
 30
0.0
 70
    32
  0
VERTEX
  5
A04
  8
0
 10
284.61700000000002
 20
124.473
 30
0.0
 70
    32
  0
VERTEX
  5
A05
  8
0
 10
284.61700000000002
 20
124.47199999999999
 30
0.0
 70
    32
  0
VERTEX
  5
A06
  8
0
 10
284.61599999999999
 20
124.471
 30
0.0
 70
    32
  0
VERTEX
  5
A07
  8
0
 10
284.61599999999999
 20
124.46899999999999
 30
0.0
 70
    32
  0
VERTEX
  5
A08
  8
0
 10
284.61599999999999
 20
124.468
 30
0.0
 70
    32
  0
VERTEX
  5
A09
  8
0
 10
284.61599999999999
 20
124.467
 30
0.0
 70
    32
  0
VERTEX
  5
A0A
  8
0
 10
284.61599999999999
 20
124.46599999999999
 30
0.0
 70
    32
  0
VERTEX
  5
A0B
  8
0
 10
284.61599999999999
 20
124.465
 30
0.0
 70
    32
  0
VERTEX
  5
A0C
  8
0
 10
284.61500000000001
 20
124.46299999999999
 30
0.0
 70
    32
  0
VERTEX
  5
A0D
  8
0
 10
284.61500000000001
 20
124.462
 30
0.0
 70
    32
  0
VERTEX
  5
A0E
  8
0
 10
284.61500000000001
 20
124.461
 30
0.0
 70
    32
  0
VERTEX
  5
A0F
  8
0
 10
284.61500000000001
 20
124.45999999999999
 30
0.0
 70
    32
  0
VERTEX
  5
A10
  8
0
 10
284.61500000000001
 20
124.458
 30
0.0
 70
    32
  0
VERTEX
  5
A11
  8
0
 10
284.61500000000001
 20
124.45699999999999
 30
0.0
 70
    32
  0
VERTEX
  5
A12
  8
0
 10
284.61500000000001
 20
124.456
 30
0.0
 70
    32
  0
VERTEX
  5
A13
  8
0
 10
284.61500000000001
 20
124.45399999999999
 30
0.0
 70
    32
  0
VERTEX
  5
A14
  8
0
 10
284.61500000000001
 20
124.453
 30
0.0
 70
    32
  0
VERTEX
  5
A15
  8
0
 10
284.61400000000009
 20
124.452
 30
0.0
 70
    32
  0
VERTEX
  5
A16
  8
0
 10
284.61400000000009
 20
124.45099999999999
 30
0.0
 70
    32
  0
VERTEX
  5
A17
  8
0
 10
284.61400000000009
 20
124.449
 30
0.0
 70
    32
  0
VERTEX
  5
A18
  8
0
 10
284.61400000000009
 20
124.44799999999999
 30
0.0
 70
    32
  0
VERTEX
  5
A19
  8
0
 10
284.61400000000009
 20
124.447
 30
0.0
 70
    32
  0
VERTEX
  5
A1A
  8
0
 10
284.61400000000009
 20
124.44499999999999
 30
0.0
 70
    32
  0
VERTEX
  5
A1B
  8
0
 10
284.61400000000009
 20
124.444
 30
0.0
 70
    32
  0
VERTEX
  5
A1C
  8
0
 10
284.61400000000009
 20
124.443
 30
0.0
 70
    32
  0
VERTEX
  5
A1D
  8
0
 10
284.61400000000009
 20
124.441
 30
0.0
 70
    32
  0
VERTEX
  5
A1E
  8
0
 10
284.61400000000009
 20
124.44
 30
0.0
 70
    32
  0
VERTEX
  5
A1F
  8
0
 10
284.61400000000009
 20
124.43899999999999
 30
0.0
 70
    32
  0
VERTEX
  5
A20
  8
0
 10
284.61400000000009
 20
124.437
 30
0.0
 70
    32
  0
VERTEX
  5
A21
  8
0
 10
284.61400000000009
 20
124.43600000000001
 30
0.0
 70
    32
  0
VERTEX
  5
A22
  8
0
 10
284.61400000000009
 20
124.435
 30
0.0
 70
    32
  0
VERTEX
  5
A23
  8
0
 10
284.61400000000009
 20
124.43300000000001
 30
0.0
 70
    32
  0
VERTEX
  5
A24
  8
0
 10
284.61500000000001
 20
124.432
 30
0.0
 70
    32
  0
VERTEX
  5
A25
  8
0
 10
284.61500000000001
 20
124.43000000000001
 30
0.0
 70
    32
  0
VERTEX
  5
A26
  8
0
 10
284.61500000000001
 20
124.429
 30
0.0
 70
    32
  0
VERTEX
  5
A27
  8
0
 10
284.61500000000001
 20
124.428
 30
0.0
 70
    32
  0
VERTEX
  5
A28
  8
0
 10
284.61500000000001
 20
124.426
 30
0.0
 70
    32
  0
VERTEX
  5
A29
  8
0
 10
284.61500000000001
 20
124.425
 30
0.0
 70
    32
  0
VERTEX
  5
A2A
  8
0
 10
284.61500000000001
 20
124.423
 30
0.0
 70
    32
  0
VERTEX
  5
A2B
  8
0
 10
284.61500000000001
 20
124.422
 30
0.0
 70
    32
  0
VERTEX
  5
A2C
  8
0
 10
284.61500000000001
 20
124.42100000000001
 30
0.0
 70
    32
  0
VERTEX
  5
A2D
  8
0
 10
284.61599999999999
 20
124.419
 30
0.0
 70
    32
  0
VERTEX
  5
A2E
  8
0
 10
284.61599999999999
 20
124.41800000000001
 30
0.0
 70
    32
  0
VERTEX
  5
A2F
  8
0
 10
284.61599999999999
 20
124.416
 30
0.0
 70
    32
  0
VERTEX
  5
A30
  8
0
 10
284.61599999999999
 20
124.41500000000001
 30
0.0
 70
    32
  0
VERTEX
  5
A31
  8
0
 10
284.61599999999999
 20
124.414
 30
0.0
 70
    32
  0
VERTEX
  5
A32
  8
0
 10
284.61599999999999
 20
124.41200000000001
 30
0.0
 70
    32
  0
VERTEX
  5
A33
  8
0
 10
284.61700000000002
 20
124.411
 30
0.0
 70
    32
  0
VERTEX
  5
A34
  8
0
 10
284.61700000000002
 20
124.40900000000001
 30
0.0
 70
    32
  0
VERTEX
  5
A35
  8
0
 10
284.61700000000002
 20
124.408
 30
0.0
 70
    32
  0
VERTEX
  5
A36
  8
0
 10
284.61700000000002
 20
124.40600000000001
 30
0.0
 70
    32
  0
VERTEX
  5
A37
  8
0
 10
284.61799999999999
 20
124.405
 30
0.0
 70
    32
  0
VERTEX
  5
A38
  8
0
 10
284.61799999999999
 20
124.40300000000001
 30
0.0
 70
    32
  0
VERTEX
  5
A39
  8
0
 10
284.61799999999999
 20
124.402
 30
0.0
 70
    32
  0
VERTEX
  5
A3A
  8
0
 10
284.61799999999999
 20
124.401
 30
0.0
 70
    32
  0
VERTEX
  5
A3B
  8
0
 10
284.61900000000003
 20
124.399
 30
0.0
 70
    32
  0
VERTEX
  5
A3C
  8
0
 10
284.61900000000003
 20
124.398
 30
0.0
 70
    32
  0
VERTEX
  5
A3D
  8
0
 10
284.61900000000003
 20
124.396
 30
0.0
 70
    32
  0
VERTEX
  5
A3E
  8
0
 10
284.62
 20
124.395
 30
0.0
 70
    32
  0
VERTEX
  5
A3F
  8
0
 10
284.62
 20
124.393
 30
0.0
 70
    32
  0
VERTEX
  5
A40
  8
0
 10
284.62
 20
124.392
 30
0.0
 70
    32
  0
VERTEX
  5
A41
  8
0
 10
284.62099999999998
 20
124.39
 30
0.0
 70
    32
  0
VERTEX
  5
A42
  8
0
 10
284.62099999999998
 20
124.389
 30
0.0
 70
    32
  0
VERTEX
  5
A43
  8
0
 10
284.62099999999998
 20
124.387
 30
0.0
 70
    32
  0
VERTEX
  5
A44
  8
0
 10
284.62200000000001
 20
124.386
 30
0.0
 70
    32
  0
VERTEX
  5
A45
  8
0
 10
284.62200000000001
 20
124.384
 30
0.0
 70
    32
  0
VERTEX
  5
A46
  8
0
 10
284.62200000000001
 20
124.383
 30
0.0
 70
    32
  0
VERTEX
  5
A47
  8
0
 10
284.62299999999999
 20
124.381
 30
0.0
 70
    32
  0
VERTEX
  5
A48
  8
0
 10
284.62299999999999
 20
124.38
 30
0.0
 70
    32
  0
VERTEX
  5
A49
  8
0
 10
284.62400000000002
 20
124.378
 30
0.0
 70
    32
  0
VERTEX
  5
A4A
  8
0
 10
284.62400000000002
 20
124.377
 30
0.0
 70
    32
  0
VERTEX
  5
A4B
  8
0
 10
284.625
 20
124.375
 30
0.0
 70
    32
  0
VERTEX
  5
A4C
  8
0
 10
284.625
 20
124.374
 30
0.0
 70
    32
  0
VERTEX
  5
A4D
  8
0
 10
284.625
 20
124.373
 30
0.0
 70
    32
  0
VERTEX
  5
A4E
  8
0
 10
284.62599999999998
 20
124.371
 30
0.0
 70
    32
  0
VERTEX
  5
A4F
  8
0
 10
284.62599999999998
 20
124.37
 30
0.0
 70
    32
  0
VERTEX
  5
A50
  8
0
 10
284.62700000000001
 20
124.36799999999999
 30
0.0
 70
    32
  0
VERTEX
  5
A51
  8
0
 10
284.62700000000001
 20
124.367
 30
0.0
 70
    32
  0
VERTEX
  5
A52
  8
0
 10
284.62799999999999
 20
124.36499999999999
 30
0.0
 70
    32
  0
VERTEX
  5
A53
  8
0
 10
284.62799999999999
 20
124.364
 30
0.0
 70
    32
  0
VERTEX
  5
A54
  8
0
 10
284.62900000000002
 20
124.36199999999999
 30
0.0
 70
    32
  0
VERTEX
  5
A55
  8
0
 10
284.62900000000002
 20
124.361
 30
0.0
 70
    32
  0
VERTEX
  5
A56
  8
0
 10
284.63
 20
124.35899999999999
 30
0.0
 70
    32
  0
VERTEX
  5
A57
  8
0
 10
284.63
 20
124.358
 30
0.0
 70
    32
  0
VERTEX
  5
A58
  8
0
 10
284.63099999999997
 20
124.35599999999999
 30
0.0
 70
    32
  0
VERTEX
  5
A59
  8
0
 10
284.63099999999997
 20
124.355
 30
0.0
 70
    32
  0
VERTEX
  5
A5A
  8
0
 10
284.63200000000001
 20
124.35299999999999
 30
0.0
 70
    32
  0
VERTEX
  5
A5B
  8
0
 10
284.63299999999998
 20
124.352
 30
0.0
 70
    32
  0
VERTEX
  5
A5C
  8
0
 10
284.63299999999998
 20
124.34999999999999
 30
0.0
 70
    32
  0
VERTEX
  5
A5D
  8
0
 10
284.63400000000001
 20
124.349
 30
0.0
 70
    32
  0
VERTEX
  5
A5E
  8
0
 10
284.63400000000001
 20
124.34699999999999
 30
0.0
 70
    32
  0
VERTEX
  5
A5F
  8
0
 10
284.63499999999999
 20
124.346
 30
0.0
 70
    32
  0
VERTEX
  5
A60
  8
0
 10
284.63600000000002
 20
124.34399999999999
 30
0.0
 70
    32
  0
VERTEX
  5
A61
  8
0
 10
284.63600000000002
 20
124.343
 30
0.0
 70
    32
  0
VERTEX
  5
A62
  8
0
 10
284.637
 20
124.34099999999999
 30
0.0
 70
    32
  0
VERTEX
  5
A63
  8
0
 10
284.637
 20
124.34
 30
0.0
 70
    32
  0
VERTEX
  5
A64
  8
0
 10
284.63799999999998
 20
124.33799999999999
 30
0.0
 70
    32
  0
VERTEX
  5
A65
  8
0
 10
284.63900000000001
 20
124.337
 30
0.0
 70
    32
  0
VERTEX
  5
A66
  8
0
 10
284.63900000000001
 20
124.33499999999999
 30
0.0
 70
    32
  0
VERTEX
  5
A67
  8
0
 10
284.63999999999999
 20
124.334
 30
0.0
 70
    32
  0
VERTEX
  5
A68
  8
0
 10
284.64100000000002
 20
124.33199999999999
 30
0.0
 70
    32
  0
VERTEX
  5
A69
  8
0
 10
284.64100000000002
 20
124.331
 30
0.0
 70
    32
  0
VERTEX
  5
A6A
  8
0
 10
284.642
 20
124.32899999999999
 30
0.0
 70
    32
  0
VERTEX
  5
A6B
  8
0
 10
284.64299999999997
 20
124.328
 30
0.0
 70
    32
  0
VERTEX
  5
A6C
  8
0
 10
284.64299999999997
 20
124.32599999999999
 30
0.0
 70
    32
  0
VERTEX
  5
A6D
  8
0
 10
284.64400000000001
 20
124.325
 30
0.0
 70
    32
  0
VERTEX
  5
A6E
  8
0
 10
284.64499999999998
 20
124.32299999999999
 30
0.0
 70
    32
  0
VERTEX
  5
A6F
  8
0
 10
284.64600000000002
 20
124.322
 30
0.0
 70
    32
  0
VERTEX
  5
A70
  8
0
 10
284.64600000000002
 20
124.321
 30
0.0
 70
    32
  0
VERTEX
  5
A71
  8
0
 10
284.64699999999999
 20
124.319
 30
0.0
 70
    32
  0
VERTEX
  5
A72
  8
0
 10
284.64800000000002
 20
124.318
 30
0.0
 70
    32
  0
VERTEX
  5
A73
  8
0
 10
284.649
 20
124.316
 30
0.0
 70
    32
  0
VERTEX
  5
A74
  8
0
 10
284.649
 20
124.315
 30
0.0
 70
    32
  0
VERTEX
  5
A75
  8
0
 10
284.64999999999998
 20
124.313
 30
0.0
 70
    32
  0
VERTEX
  5
A76
  8
0
 10
284.65100000000001
 20
124.312
 30
0.0
 70
    32
  0
VERTEX
  5
A77
  8
0
 10
284.65199999999999
 20
124.31
 30
0.0
 70
    32
  0
VERTEX
  5
A78
  8
0
 10
284.65199999999999
 20
124.309
 30
0.0
 70
    32
  0
VERTEX
  5
A79
  8
0
 10
284.65300000000002
 20
124.30800000000001
 30
0.0
 70
    32
  0
VERTEX
  5
A7A
  8
0
 10
284.654
 20
124.306
 30
0.0
 70
    32
  0
VERTEX
  5
A7B
  8
0
 10
284.65499999999997
 20
124.30500000000001
 30
0.0
 70
    32
  0
VERTEX
  5
A7C
  8
0
 10
284.65600000000001
 20
124.303
 30
0.0
 70
    32
  0
SEQEND
  5
A7D
  8
0
  0
POLYLINE
  5
1B8
  8
0
  6
CONTINUOUS
 66
     1
 10
0.0
 20
0.0
 30
0.0
 70
     8
  0
VERTEX
  5
A7E
  8
0
 10
285.40800000000002
 20
123.0
 30
0.0
 70
    32
  0
VERTEX
  5
A7F
  8
0
 10
285.40800000000002
 20
122.999
 30
0.0
 70
    32
  0
VERTEX
  5
A80
  8
0
 10
285.40899999999999
 20
122.998
 30
0.0
 70
    32
  0
VERTEX
  5
A81
  8
0
 10
285.41000000000003
 20
122.997
 30
0.0
 70
    32
  0
VERTEX
  5
A82
  8
0
 10
285.41000000000003
 20
122.996
 30
0.0
 70
    32
  0
VERTEX
  5
A83
  8
0
 10
285.411
 20
122.995
 30
0.0
 70
    32
  0
VERTEX
  5
A84
  8
0
 10
285.41199999999998
 20
122.994
 30
0.0
 70
    32
  0
VERTEX
  5
A85
  8
0
 10
285.41199999999998
 20
122.99299999999999
 30
0.0
 70
    32
  0
VERTEX
  5
A86
  8
0
 10
285.41300000000001
 20
122.992
 30
0.0
 70
    32
  0
VERTEX
  5
A87
  8
0
 10
285.41399999999999
 20
122.991
 30
0.0
 70
    32
  0
VERTEX
  5
A88
  8
0
 10
285.41399999999999
 20
122.98999999999999
 30
0.0
 70
    32
  0
VERTEX
  5
A89
  8
0
 10
285.41500000000002
 20
122.989
 30
0.0
 70
    32
  0
VERTEX
  5
A8A
  8
0
 10
285.416
 20
122.988
 30
0.0
 70
    32
  0
VERTEX
  5
A8B
  8
0
 10
285.416
 20
122.98699999999999
 30
0.0
 70
    32
  0
VERTEX
  5
A8C
  8
0
 10
285.41699999999997
 20
122.986
 30
0.0
 70
    32
  0
VERTEX
  5
A8D
  8
0
 10
285.41699999999997
 20
122.985
 30
0.0
 70
    32
  0
VERTEX
  5
A8E
  8
0
 10
285.41800000000001
 20
122.98399999999999
 30
0.0
 70
    32
  0
VERTEX
  5
A8F
  8
0
 10
285.41899999999998
 20
122.983
 30
0.0
 70
    32
  0
VERTEX
  5
A90
  8
0
 10
285.42000000000002
 20
122.982
 30
0.0
 70
    32
  0
VERTEX
  5
A91
  8
0
 10
285.42000000000002
 20
122.98099999999999
 30
0.0
 70
    32
  0
VERTEX
  5
A92
  8
0
 10
285.42099999999999
 20
122.98
 30
0.0
 70
    32
  0
VERTEX
  5
A93
  8
0
 10
285.42200000000003
 20
122.979
 30
0.0
 70
    32
  0
VERTEX
  5
A94
  8
0
 10
285.42200000000003
 20
122.97799999999999
 30
0.0
 70
    32
  0
VERTEX
  5
A95
  8
0
 10
285.423
 20
122.977
 30
0.0
 70
    32
  0
VERTEX
  5
A96
  8
0
 10
285.42399999999998
 20
122.976
 30
0.0
 70
    32
  0
VERTEX
  5
A97
  8
0
 10
285.42399999999998
 20
122.97499999999999
 30
0.0
 70
    32
  0
VERTEX
  5
A98
  8
0
 10
285.42500000000001
 20
122.974
 30
0.0
 70
    32
  0
VERTEX
  5
A99
  8
0
 10
285.42599999999999
 20
122.973
 30
0.0
 70
    32
  0
VERTEX
  5
A9A
  8
0
 10
285.42599999999999
 20
122.97199999999999
 30
0.0
 70
    32
  0
VERTEX
  5
A9B
  8
0
 10
285.42700000000002
 20
122.971
 30
0.0
 70
    32
  0
VERTEX
  5
A9C
  8
0
 10
285.428
 20
122.97
 30
0.0
 70
    32
  0
VERTEX
  5
A9D
  8
0
 10
285.42899999999997
 20
122.96899999999999
 30
0.0
 70
    32
  0
VERTEX
  5
A9E
  8
0
 10
285.42899999999997
 20
122.968
 30
0.0
 70
    32
  0
VERTEX
  5
A9F
  8
0
 10
285.43000000000001
 20
122.967
 30
0.0
 70
    32
  0
VERTEX
  5
AA0
  8
0
 10
285.43099999999998
 20
122.96599999999999
 30
0.0
 70
    32
  0
VERTEX
  5
AA1
  8
0
 10
285.43099999999998
 20
122.965
 30
0.0
 70
    32
  0
VERTEX
  5
AA2
  8
0
 10
285.43200000000002
 20
122.964
 30
0.0
 70
    32
  0
VERTEX
  5
AA3
  8
0
 10
285.43299999999999
 20
122.96299999999999
 30
0.0
 70
    32
  0
VERTEX
  5
AA4
  8
0
 10
285.43400000000003
 20
122.962
 30
0.0
 70
    32
  0
VERTEX
  5
AA5
  8
0
 10
285.43400000000003
 20
122.961
 30
0.0
 70
    32
  0
VERTEX
  5
AA6
  8
0
 10
285.435
 20
122.95999999999999
 30
0.0
 70
    32
  0
VERTEX
  5
AA7
  8
0
 10
285.43599999999998
 20
122.959
 30
0.0
 70
    32
  0
VERTEX
  5
AA8
  8
0
 10
285.43700000000001
 20
122.958
 30
0.0
 70
    32
  0
VERTEX
  5
AA9
  8
0
 10
285.43700000000001
 20
122.95699999999999
 30
0.0
 70
    32
  0
VERTEX
  5
AAA
  8
0
 10
285.43799999999999
 20
122.956
 30
0.0
 70
    32
  0
VERTEX
  5
AAB
  8
0
 10
285.43900000000002
 20
122.955
 30
0.0
 70
    32
  0
VERTEX
  5
AAC
  8
0
 10
285.44
 20
122.95399999999999
 30
0.0
 70
    32
  0
VERTEX
  5
AAD
  8
0
 10
285.44
 20
122.95399999999999
 30
0.0
 70
    32
  0
VERTEX
  5
AAE
  8
0
 10
285.44099999999997
 20
122.953
 30
0.0
 70
    32
  0
VERTEX
  5
AAF
  8
0
 10
285.44200000000001
 20
122.952
 30
0.0
 70
    32
  0
VERTEX
  5
AB0
  8
0
 10
285.44299999999998
 20
122.95099999999999
 30
0.0
 70
    32
  0
VERTEX
  5
AB1
  8
0
 10
285.44400000000002
 20
122.95
 30
0.0
 70
    32
  0
VERTEX
  5
AB2
  8
0
 10
285.44400000000002
 20
122.949
 30
0.0
 70
    32
  0
VERTEX
  5
AB3
  8
0
 10
285.44499999999999
 20
122.94799999999999
 30
0.0
 70
    32
  0
VERTEX
  5
AB4
  8
0
 10
285.44599999999991
 20
122.947
 30
0.0
 70
    32
  0
VERTEX
  5
AB5
  8
0
 10
285.447
 20
122.946
 30
0.0
 70
    32
  0
VERTEX
  5
AB6
  8
0
 10
285.447
 20
122.94499999999999
 30
0.0
 70
    32
  0
VERTEX
  5
AB7
  8
0
 10
285.44799999999998
 20
122.94499999999999
 30
0.0
 70
    32
  0
VERTEX
  5
AB8
  8
0
 10
285.44900000000001
 20
122.944
 30
0.0
 70
    32
  0
VERTEX
  5
AB9
  8
0
 10
285.44999999999999
 20
122.943
 30
0.0
 70
    32
  0
VERTEX
  5
ABA
  8
0
 10
285.45100000000002
 20
122.94199999999999
 30
0.0
 70
    32
  0
VERTEX
  5
ABB
  8
0
 10
285.45100000000002
 20
122.941
 30
0.0
 70
    32
  0
VERTEX
  5
ABC
  8
0
 10
285.452
 20
122.94
 30
0.0
 70
    32
  0
VERTEX
  5
ABD
  8
0
 10
285.45299999999997
 20
122.93899999999999
 30
0.0
 70
    32
  0
VERTEX
  5
ABE
  8
0
 10
285.45400000000001
 20
122.93899999999999
 30
0.0
 70
    32
  0
VERTEX
  5
ABF
  8
0
 10
285.45499999999998
 20
122.938
 30
0.0
 70
    32
  0
VERTEX
  5
AC0
  8
0
 10
285.45499999999998
 20
122.937
 30
0.0
 70
    32
  0
VERTEX
  5
AC1
  8
0
 10
285.45600000000002
 20
122.93600000000001
 30
0.0
 70
    32
  0
VERTEX
  5
AC2
  8
0
 10
285.45699999999999
 20
122.935
 30
0.0
 70
    32
  0
VERTEX
  5
AC3
  8
0
 10
285.45800000000003
 20
122.934
 30
0.0
 70
    32
  0
VERTEX
  5
AC4
  8
0
 10
285.459
 20
122.934
 30
0.0
 70
    32
  0
VERTEX
  5
AC5
  8
0
 10
285.459
 20
122.93300000000001
 30
0.0
 70
    32
  0
VERTEX
  5
AC6
  8
0
 10
285.45999999999998
 20
122.932
 30
0.0
 70
    32
  0
VERTEX
  5
AC7
  8
0
 10
285.46100000000001
 20
122.931
 30
0.0
 70
    32
  0
VERTEX
  5
AC8
  8
0
 10
285.46199999999999
 20
122.93000000000001
 30
0.0
 70
    32
  0
VERTEX
  5
AC9
  8
0
 10
285.46300000000002
 20
122.929
 30
0.0
 70
    32
  0
VERTEX
  5
ACA
  8
0
 10
285.464
 20
122.929
 30
0.0
 70
    32
  0
VERTEX
  5
ACB
  8
0
 10
285.464
 20
122.928
 30
0.0
 70
    32
  0
VERTEX
  5
ACC
  8
0
 10
285.46499999999997
 20
122.92700000000001
 30
0.0
 70
    32
  0
VERTEX
  5
ACD
  8
0
 10
285.46600000000001
 20
122.926
 30
0.0
 70
    32
  0
VERTEX
  5
ACE
  8
0
 10
285.46699999999998
 20
122.926
 30
0.0
 70
    32
  0
VERTEX
  5
ACF
  8
0
 10
285.46800000000002
 20
122.925
 30
0.0
 70
    32
  0
VERTEX
  5
AD0
  8
0
 10
285.46800000000002
 20
122.92400000000001
 30
0.0
 70
    32
  0
VERTEX
  5
AD1
  8
0
 10
285.46899999999999
 20
122.923
 30
0.0
 70
    32
  0
VERTEX
  5
AD2
  8
0
 10
285.47000000000003
 20
122.923
 30
0.0
 70
    32
  0
VERTEX
  5
AD3
  8
0
 10
285.471
 20
122.922
 30
0.0
 70
    32
  0
VERTEX
  5
AD4
  8
0
 10
285.47199999999998
 20
122.92100000000001
 30
0.0
 70
    32
  0
VERTEX
  5
AD5
  8
0
 10
285.47300000000001
 20
122.92
 30
0.0
 70
    32
  0
VERTEX
  5
AD6
  8
0
 10
285.47399999999999
 20
122.92
 30
0.0
 70
    32
  0
VERTEX
  5
AD7
  8
0
 10
285.47399999999999
 20
122.919
 30
0.0
 70
    32
  0
VERTEX
  5
AD8
  8
0
 10
285.47500000000002
 20
122.91800000000001
 30
0.0
 70
    32
  0
VERTEX
  5
AD9
  8
0
 10
285.476
 20
122.917
 30
0.0
 70
    32
  0
VERTEX
  5
ADA
  8
0
 10
285.47699999999998
 20
122.917
 30
0.0
 70
    32
  0
VERTEX
  5
ADB
  8
0
 10
285.47800000000001
 20
122.916
 30
0.0
 70
    32
  0
VERTEX
  5
ADC
  8
0
 10
285.47899999999998
 20
122.91500000000001
 30
0.0
 70
    32
  0
VERTEX
  5
ADD
  8
0
 10
285.47899999999998
 20
122.91500000000001
 30
0.0
 70
    32
  0
VERTEX
  5
ADE
  8
0
 10
285.48000000000002
 20
122.914
 30
0.0
 70
    32
  0
VERTEX
  5
ADF
  8
0
 10
285.48099999999999
 20
122.913
 30
0.0
 70
    32
  0
VERTEX
  5
AE0
  8
0
 10
285.48200000000003
 20
122.913
 30
0.0
 70
    32
  0
VERTEX
  5
AE1
  8
0
 10
285.483
 20
122.91200000000001
 30
0.0
 70
    32
  0
VERTEX
  5
AE2
  8
0
 10
285.48399999999998
 20
122.911
 30
0.0
 70
    32
  0
VERTEX
  5
AE3
  8
0
 10
285.48500000000001
 20
122.911
 30
0.0
 70
    32
  0
VERTEX
  5
AE4
  8
0
 10
285.48500000000001
 20
122.91
 30
0.0
 70
    32
  0
VERTEX
  5
AE5
  8
0
 10
285.48599999999999
 20
122.90900000000001
 30
0.0
 70
    32
  0
VERTEX
  5
AE6
  8
0
 10
285.48700000000002
 20
122.90900000000001
 30
0.0
 70
    32
  0
VERTEX
  5
AE7
  8
0
 10
285.488
 20
122.908
 30
0.0
 70
    32
  0
VERTEX
  5
AE8
  8
0
 10
285.48900000000009
 20
122.907
 30
0.0
 70
    32
  0
VERTEX
  5
AE9
  8
0
 10
285.49000000000001
 20
122.907
 30
0.0
 70
    32
  0
VERTEX
  5
AEA
  8
0
 10
285.49099999999999
 20
122.90600000000001
 30
0.0
 70
    32
  0
VERTEX
  5
AEB
  8
0
 10
285.49099999999999
 20
122.905
 30
0.0
 70
    32
  0
VERTEX
  5
AEC
  8
0
 10
285.49200000000002
 20
122.905
 30
0.0
 70
    32
  0
VERTEX
  5
AED
  8
0
 10
285.49299999999999
 20
122.904
 30
0.0
 70
    32
  0
VERTEX
  5
AEE
  8
0
 10
285.49400000000003
 20
122.904
 30
0.0
 70
    32
  0
VERTEX
  5
AEF
  8
0
 10
285.495
 20
122.90300000000001
 30
0.0
 70
    32
  0
VERTEX
  5
AF0
  8
0
 10
285.49599999999998
 20
122.902
 30
0.0
 70
    32
  0
VERTEX
  5
AF1
  8
0
 10
285.49700000000001
 20
122.902
 30
0.0
 70
    32
  0
VERTEX
  5
AF2
  8
0
 10
285.49700000000001
 20
122.901
 30
0.0
 70
    32
  0
VERTEX
  5
AF3
  8
0
 10
285.49799999999999
 20
122.901
 30
0.0
 70
    32
  0
VERTEX
  5
AF4
  8
0
 10
285.49900000000002
 20
122.90000000000001
 30
0.0
 70
    32
  0
VERTEX
  5
AF5
  8
0
 10
285.5
 20
122.90000000000001
 30
0.0
 70
    32
  0
VERTEX
  5
AF6
  8
0
 10
285.50099999999998
 20
122.899
 30
0.0
 70
    32
  0
VERTEX
  5
AF7
  8
0
 10
285.50200000000001
 20
122.899
 30
0.0
 70
    32
  0
VERTEX
  5
AF8
  8
0
 10
285.50299999999999
 20
122.898
 30
0.0
 70
    32
  0
VERTEX
  5
AF9
  8
0
 10
285.50400000000002
 20
122.89700000000001
 30
0.0
 70
    32
  0
VERTEX
  5
AFA
  8
0
 10
285.50400000000002
 20
122.89700000000001
 30
0.0
 70
    32
  0
VERTEX
  5
AFB
  8
0
 10
285.505
 20
122.896
 30
0.0
 70
    32
  0
VERTEX
  5
AFC
  8
0
 10
285.50599999999997
 20
122.896
 30
0.0
 70
    32
  0
VERTEX
  5
AFD
  8
0
 10
285.50700000000001
 20
122.895
 30
0.0
 70
    32
  0
VERTEX
  5
AFE
  8
0
 10
285.50799999999998
 20
122.895
 30
0.0
 70
    32
  0
SEQEND
  5
AFF
  8
0
  0
LINE
  5
1B9
  8
0
  6
CONTINUOUS
 10
285.50786321309999
 20
122.8948490289
 30
0.0
 11
289.01454194640002
 21
120.8704864859
 31
0.0
  0
LINE
  5
1BA
  8
0
  6
CONTINUOUS
 10
284.74065438759999
 20
124.93610589070001
 30
0.0
 11
284.61903299789998
 21
124.4821726847
 31
0.0
  0
POLYLINE
  5
1BB
  8
0
  6
CONTINUOUS
 66
     1
 10
0.0
 20
0.0
 30
0.0
 70
     8
  0
VERTEX
  5
B00
  8
0
 10
289.01499999999999
 20
120.87
 30
0.0
 70
    32
  0
VERTEX
  5
B01
  8
0
 10
289.01499999999999
 20
120.87
 30
0.0
 70
    32
  0
VERTEX
  5
B02
  8
0
 10
289.01600000000002
 20
120.869
 30
0.0
 70
    32
  0
VERTEX
  5
B03
  8
0
 10
289.017
 20
120.869
 30
0.0
 70
    32
  0
VERTEX
  5
B04
  8
0
 10
289.01799999999997
 20
120.869
 30
0.0
 70
    32
  0
VERTEX
  5
B05
  8
0
 10
289.01900000000001
 20
120.86799999999999
 30
0.0
 70
    32
  0
VERTEX
  5
B06
  8
0
 10
289.01999999999998
 20
120.86799999999999
 30
0.0
 70
    32
  0
VERTEX
  5
B07
  8
0
 10
289.02100000000002
 20
120.867
 30
0.0
 70
    32
  0
VERTEX
  5
B08
  8
0
 10
289.02100000000002
 20
120.867
 30
0.0
 70
    32
  0
VERTEX
  5
B09
  8
0
 10
289.02199999999999
 20
120.866
 30
0.0
 70
    32
  0
VERTEX
  5
B0A
  8
0
 10
289.02300000000002
 20
120.866
 30
0.0
 70
    32
  0
VERTEX
  5
B0B
  8
0
 10
289.024
 20
120.86499999999999
 30
0.0
 70
    32
  0
VERTEX
  5
B0C
  8
0
 10
289.02499999999998
 20
120.86499999999999
 30
0.0
 70
    32
  0
VERTEX
  5
B0D
  8
0
 10
289.02600000000001
 20
120.86499999999999
 30
0.0
 70
    32
  0
VERTEX
  5
B0E
  8
0
 10
289.02699999999999
 20
120.864
 30
0.0
 70
    32
  0
VERTEX
  5
B0F
  8
0
 10
289.02800000000002
 20
120.864
 30
0.0
 70
    32
  0
VERTEX
  5
B10
  8
0
 10
289.02800000000002
 20
120.863
 30
0.0
 70
    32
  0
VERTEX
  5
B11
  8
0
 10
289.029
 20
120.863
 30
0.0
 70
    32
  0
VERTEX
  5
B12
  8
0
 10
289.02999999999997
 20
120.86199999999999
 30
0.0
 70
    32
  0
VERTEX
  5
B13
  8
0
 10
289.03100000000001
 20
120.86199999999999
 30
0.0
 70
    32
  0
VERTEX
  5
B14
  8
0
 10
289.03199999999998
 20
120.86199999999999
 30
0.0
 70
    32
  0
VERTEX
  5
B15
  8
0
 10
289.03300000000002
 20
120.861
 30
0.0
 70
    32
  0
VERTEX
  5
B16
  8
0
 10
289.03399999999999
 20
120.861
 30
0.0
 70
    32
  0
VERTEX
  5
B17
  8
0
 10
289.03399999999999
 20
120.861
 30
0.0
 70
    32
  0
VERTEX
  5
B18
  8
0
 10
289.03500000000003
 20
120.86
 30
0.0
 70
    32
  0
VERTEX
  5
B19
  8
0
 10
289.036
 20
120.86
 30
0.0
 70
    32
  0
VERTEX
  5
B1A
  8
0
 10
289.03699999999998
 20
120.86
 30
0.0
 70
    32
  0
VERTEX
  5
B1B
  8
0
 10
289.03800000000001
 20
120.85899999999999
 30
0.0
 70
    32
  0
VERTEX
  5
B1C
  8
0
 10
289.03899999999999
 20
120.85899999999999
 30
0.0
 70
    32
  0
VERTEX
  5
B1D
  8
0
 10
289.04000000000002
 20
120.85899999999999
 30
0.0
 70
    32
  0
VERTEX
  5
B1E
  8
0
 10
289.04000000000002
 20
120.858
 30
0.0
 70
    32
  0
VERTEX
  5
B1F
  8
0
 10
289.041
 20
120.858
 30
0.0
 70
    32
  0
VERTEX
  5
B20
  8
0
 10
289.04199999999997
 20
120.858
 30
0.0
 70
    32
  0
VERTEX
  5
B21
  8
0
 10
289.04300000000001
 20
120.857
 30
0.0
 70
    32
  0
VERTEX
  5
B22
  8
0
 10
289.04399999999998
 20
120.857
 30
0.0
 70
    32
  0
VERTEX
  5
B23
  8
0
 10
289.04500000000002
 20
120.857
 30
0.0
 70
    32
  0
VERTEX
  5
B24
  8
0
 10
289.04599999999999
 20
120.857
 30
0.0
 70
    32
  0
VERTEX
  5
B25
  8
0
 10
289.04599999999999
 20
120.85599999999999
 30
0.0
 70
    32
  0
VERTEX
  5
B26
  8
0
 10
289.04700000000003
 20
120.85599999999999
 30
0.0
 70
    32
  0
VERTEX
  5
B27
  8
0
 10
289.048
 20
120.85599999999999
 30
0.0
 70
    32
  0
VERTEX
  5
B28
  8
0
 10
289.04899999999998
 20
120.85599999999999
 30
0.0
 70
    32
  0
VERTEX
  5
B29
  8
0
 10
289.05000000000001
 20
120.855
 30
0.0
 70
    32
  0
VERTEX
  5
B2A
  8
0
 10
289.05099999999999
 20
120.855
 30
0.0
 70
    32
  0
VERTEX
  5
B2B
  8
0
 10
289.05099999999999
 20
120.855
 30
0.0
 70
    32
  0
VERTEX
  5
B2C
  8
0
 10
289.05200000000002
 20
120.855
 30
0.0
 70
    32
  0
VERTEX
  5
B2D
  8
0
 10
289.053
 20
120.854
 30
0.0
 70
    32
  0
VERTEX
  5
B2E
  8
0
 10
289.05400000000009
 20
120.854
 30
0.0
 70
    32
  0
VERTEX
  5
B2F
  8
0
 10
289.05500000000001
 20
120.854
 30
0.0
 70
    32
  0
VERTEX
  5
B30
  8
0
 10
289.05599999999998
 20
120.854
 30
0.0
 70
    32
  0
VERTEX
  5
B31
  8
0
 10
289.05599999999998
 20
120.854
 30
0.0
 70
    32
  0
VERTEX
  5
B32
  8
0
 10
289.05700000000002
 20
120.85299999999999
 30
0.0
 70
    32
  0
VERTEX
  5
B33
  8
0
 10
289.05799999999999
 20
120.85299999999999
 30
0.0
 70
    32
  0
VERTEX
  5
B34
  8
0
 10
289.05900000000003
 20
120.85299999999999
 30
0.0
 70
    32
  0
VERTEX
  5
B35
  8
0
 10
289.06
 20
120.85299999999999
 30
0.0
 70
    32
  0
VERTEX
  5
B36
  8
0
 10
289.06099999999998
 20
120.85299999999999
 30
0.0
 70
    32
  0
VERTEX
  5
B37
  8
0
 10
289.06099999999998
 20
120.85299999999999
 30
0.0
 70
    32
  0
VERTEX
  5
B38
  8
0
 10
289.06200000000001
 20
120.85299999999999
 30
0.0
 70
    32
  0
VERTEX
  5
B39
  8
0
 10
289.06299999999999
 20
120.852
 30
0.0
 70
    32
  0
VERTEX
  5
B3A
  8
0
 10
289.06400000000002
 20
120.852
 30
0.0
 70
    32
  0
VERTEX
  5
B3B
  8
0
 10
289.065
 20
120.852
 30
0.0
 70
    32
  0
VERTEX
  5
B3C
  8
0
 10
289.065
 20
120.852
 30
0.0
 70
    32
  0
VERTEX
  5
B3D
  8
0
 10
289.06599999999997
 20
120.852
 30
0.0
 70
    32
  0
VERTEX
  5
B3E
  8
0
 10
289.06700000000001
 20
120.852
 30
0.0
 70
    32
  0
VERTEX
  5
B3F
  8
0
 10
289.06799999999998
 20
120.852
 30
0.0
 70
    32
  0
VERTEX
  5
B40
  8
0
 10
289.06900000000002
 20
120.852
 30
0.0
 70
    32
  0
VERTEX
  5
B41
  8
0
 10
289.06900000000002
 20
120.852
 30
0.0
 70
    32
  0
VERTEX
  5
B42
  8
0
 10
289.06999999999999
 20
120.852
 30
0.0
 70
    32
  0
VERTEX
  5
B43
  8
0
 10
289.07100000000003
 20
120.851
 30
0.0
 70
    32
  0
VERTEX
  5
B44
  8
0
 10
289.072
 20
120.851
 30
0.0
 70
    32
  0
VERTEX
  5
B45
  8
0
 10
289.07299999999998
 20
120.851
 30
0.0
 70
    32
  0
VERTEX
  5
B46
  8
0
 10
289.07299999999998
 20
120.851
 30
0.0
 70
    32
  0
VERTEX
  5
B47
  8
0
 10
289.07400000000001
 20
120.851
 30
0.0
 70
    32
  0
VERTEX
  5
B48
  8
0
 10
289.07499999999999
 20
120.851
 30
0.0
 70
    32
  0
VERTEX
  5
B49
  8
0
 10
289.07600000000002
 20
120.851
 30
0.0
 70
    32
  0
VERTEX
  5
B4A
  8
0
 10
289.077
 20
120.851
 30
0.0
 70
    32
  0
VERTEX
  5
B4B
  8
0
 10
289.077
 20
120.851
 30
0.0
 70
    32
  0
VERTEX
  5
B4C
  8
0
 10
289.07799999999997
 20
120.851
 30
0.0
 70
    32
  0
VERTEX
  5
B4D
  8
0
 10
289.07900000000001
 20
120.851
 30
0.0
 70
    32
  0
VERTEX
  5
B4E
  8
0
 10
289.07999999999998
 20
120.851
 30
0.0
 70
    32
  0
VERTEX
  5
B4F
  8
0
 10
289.07999999999998
 20
120.851
 30
0.0
 70
    32
  0
VERTEX
  5
B50
  8
0
 10
289.08100000000002
 20
120.851
 30
0.0
 70
    32
  0
VERTEX
  5
B51
  8
0
 10
289.08199999999999
 20
120.851
 30
0.0
 70
    32
  0
VERTEX
  5
B52
  8
0
 10
289.08300000000003
 20
120.851
 30
0.0
 70
    32
  0
VERTEX
  5
B53
  8
0
 10
289.08300000000003
 20
120.851
 30
0.0
 70
    32
  0
VERTEX
  5
B54
  8
0
 10
289.084
 20
120.851
 30
0.0
 70
    32
  0
VERTEX
  5
B55
  8
0
 10
289.08499999999998
 20
120.852
 30
0.0
 70
    32
  0
VERTEX
  5
B56
  8
0
 10
289.08600000000001
 20
120.852
 30
0.0
 70
    32
  0
VERTEX
  5
B57
  8
0
 10
289.08600000000001
 20
120.852
 30
0.0
 70
    32
  0
VERTEX
  5
B58
  8
0
 10
289.08699999999999
 20
120.852
 30
0.0
 70
    32
  0
VERTEX
  5
B59
  8
0
 10
289.08800000000002
 20
120.852
 30
0.0
 70
    32
  0
VERTEX
  5
B5A
  8
0
 10
289.089
 20
120.852
 30
0.0
 70
    32
  0
VERTEX
  5
B5B
  8
0
 10
289.089
 20
120.852
 30
0.0
 70
    32
  0
VERTEX
  5
B5C
  8
0
 10
289.08999999999997
 20
120.852
 30
0.0
 70
    32
  0
VERTEX
  5
B5D
  8
0
 10
289.09100000000001
 20
120.852
 30
0.0
 70
    32
  0
VERTEX
  5
B5E
  8
0
 10
289.09199999999998
 20
120.852
 30
0.0
 70
    32
  0
VERTEX
  5
B5F
  8
0
 10
289.09199999999998
 20
120.85299999999999
 30
0.0
 70
    32
  0
VERTEX
  5
B60
  8
0
 10
289.09300000000002
 20
120.85299999999999
 30
0.0
 70
    32
  0
VERTEX
  5
B61
  8
0
 10
289.09399999999999
 20
120.85299999999999
 30
0.0
 70
    32
  0
VERTEX
  5
B62
  8
0
 10
289.09500000000003
 20
120.85299999999999
 30
0.0
 70
    32
  0
VERTEX
  5
B63
  8
0
 10
289.09500000000003
 20
120.85299999999999
 30
0.0
 70
    32
  0
VERTEX
  5
B64
  8
0
 10
289.096
 20
120.85299999999999
 30
0.0
 70
    32
  0
VERTEX
  5
B65
  8
0
 10
289.09699999999998
 20
120.85299999999999
 30
0.0
 70
    32
  0
VERTEX
  5
B66
  8
0
 10
289.09699999999998
 20
120.854
 30
0.0
 70
    32
  0
VERTEX
  5
B67
  8
0
 10
289.09800000000001
 20
120.854
 30
0.0
 70
    32
  0
VERTEX
  5
B68
  8
0
 10
289.09899999999999
 20
120.854
 30
0.0
 70
    32
  0
VERTEX
  5
B69
  8
0
 10
289.09899999999999
 20
120.854
 30
0.0
 70
    32
  0
VERTEX
  5
B6A
  8
0
 10
289.10000000000002
 20
120.854
 30
0.0
 70
    32
  0
VERTEX
  5
B6B
  8
0
 10
289.101
 20
120.855
 30
0.0
 70
    32
  0
VERTEX
  5
B6C
  8
0
 10
289.10200000000009
 20
120.855
 30
0.0
 70
    32
  0
VERTEX
  5
B6D
  8
0
 10
289.10200000000009
 20
120.855
 30
0.0
 70
    32
  0
VERTEX
  5
B6E
  8
0
 10
289.10300000000001
 20
120.855
 30
0.0
 70
    32
  0
VERTEX
  5
B6F
  8
0
 10
289.10399999999998
 20
120.85599999999999
 30
0.0
 70
    32
  0
VERTEX
  5
B70
  8
0
 10
289.10399999999998
 20
120.85599999999999
 30
0.0
 70
    32
  0
VERTEX
  5
B71
  8
0
 10
289.10500000000002
 20
120.85599999999999
 30
0.0
 70
    32
  0
VERTEX
  5
B72
  8
0
 10
289.10599999999999
 20
120.85599999999999
 30
0.0
 70
    32
  0
VERTEX
  5
B73
  8
0
 10
289.10599999999999
 20
120.857
 30
0.0
 70
    32
  0
VERTEX
  5
B74
  8
0
 10
289.10700000000003
 20
120.857
 30
0.0
 70
    32
  0
VERTEX
  5
B75
  8
0
 10
289.108
 20
120.857
 30
0.0
 70
    32
  0
VERTEX
  5
B76
  8
0
 10
289.108
 20
120.857
 30
0.0
 70
    32
  0
VERTEX
  5
B77
  8
0
 10
289.10900000000009
 20
120.858
 30
0.0
 70
    32
  0
VERTEX
  5
B78
  8
0
 10
289.11000000000001
 20
120.858
 30
0.0
 70
    32
  0
VERTEX
  5
B79
  8
0
 10
289.11000000000001
 20
120.858
 30
0.0
 70
    32
  0
VERTEX
  5
B7A
  8
0
 10
289.11099999999999
 20
120.85899999999999
 30
0.0
 70
    32
  0
VERTEX
  5
B7B
  8
0
 10
289.11099999999999
 20
120.85899999999999
 30
0.0
 70
    32
  0
VERTEX
  5
B7C
  8
0
 10
289.11200000000002
 20
120.85899999999999
 30
0.0
 70
    32
  0
VERTEX
  5
B7D
  8
0
 10
289.113
 20
120.86
 30
0.0
 70
    32
  0
VERTEX
  5
B7E
  8
0
 10
289.113
 20
120.86
 30
0.0
 70
    32
  0
VERTEX
  5
B7F
  8
0
 10
289.11399999999998
 20
120.86
 30
0.0
 70
    32
  0
VERTEX
  5
B80
  8
0
 10
289.11500000000001
 20
120.861
 30
0.0
 70
    32
  0
SEQEND
  5
B81
  8
0
  0
LINE
  5
1BC
  8
0
  6
CONTINUOUS
 10
289.86677519599999
 20
121.294996051
 30
0.0
 11
290.00544327710008
 21
121.3790782065
 31
0.0
  0
LINE
  5
1BD
  8
0
  6
CONTINUOUS
 10
289.11452671590001
 20
120.8605910754
 30
0.0
 11
289.86677519599999
 21
121.294996051
 31
0.0
  0
POLYLINE
  5
1BE
  8
0
  6
CONTINUOUS
 66
     1
 10
0.0
 20
0.0
 30
0.0
 70
     8
  0
VERTEX
  5
B82
  8
0
 10
201.97300000000001
 20
70.555199999999999
 30
0.0
 70
    32
  0
VERTEX
  5
B83
  8
0
 10
201.97399999999999
 20
70.555499999999995
 30
0.0
 70
    32
  0
VERTEX
  5
B84
  8
0
 10
201.97399999999999
 20
70.555700000000002
 30
0.0
 70
    32
  0
VERTEX
  5
B85
  8
0
 10
201.97499999999999
 20
70.555999999999997
 30
0.0
 70
    32
  0
VERTEX
  5
B86
  8
0
 10
201.97499999999999
 20
70.556299999999993
 30
0.0
 70
    32
  0
VERTEX
  5
B87
  8
0
 10
201.976
 20
70.556499999999986
 30
0.0
 70
    32
  0
VERTEX
  5
B88
  8
0
 10
201.976
 20
70.556799999999996
 30
0.0
 70
    32
  0
VERTEX
  5
B89
  8
0
 10
201.976
 20
70.557100000000005
 30
0.0
 70
    32
  0
VERTEX
  5
B8A
  8
0
 10
201.977
 20
70.557299999999998
 30
0.0
 70
    32
  0
VERTEX
  5
B8B
  8
0
 10
201.977
 20
70.557599999999994
 30
0.0
 70
    32
  0
VERTEX
  5
B8C
  8
0
 10
201.97800000000001
 20
70.557900000000004
 30
0.0
 70
    32
  0
VERTEX
  5
B8D
  8
0
 10
201.97800000000001
 20
70.558199999999999
 30
0.0
 70
    32
  0
VERTEX
  5
B8E
  8
0
 10
201.97800000000001
 20
70.558499999999995
 30
0.0
 70
    32
  0
VERTEX
  5
B8F
  8
0
 10
201.97900000000001
 20
70.558800000000005
 30
0.0
 70
    32
  0
VERTEX
  5
B90
  8
0
 10
201.97900000000001
 20
70.558999999999997
 30
0.0
 70
    32
  0
VERTEX
  5
B91
  8
0
 10
201.97999999999999
 20
70.559299999999993
 30
0.0
 70
    32
  0
VERTEX
  5
B92
  8
0
 10
201.97999999999999
 20
70.559600000000003
 30
0.0
 70
    32
  0
VERTEX
  5
B93
  8
0
 10
201.97999999999999
 20
70.559899999999999
 30
0.0
 70
    32
  0
VERTEX
  5
B94
  8
0
 10
201.98099999999999
 20
70.560199999999995
 30
0.0
 70
    32
  0
VERTEX
  5
B95
  8
0
 10
201.98099999999999
 20
70.560599999999994
 30
0.0
 70
    32
  0
VERTEX
  5
B96
  8
0
 10
201.982
 20
70.560900000000004
 30
0.0
 70
    32
  0
VERTEX
  5
B97
  8
0
 10
201.982
 20
70.561199999999985
 30
0.0
 70
    32
  0
VERTEX
  5
B98
  8
0
 10
201.982
 20
70.561499999999995
 30
0.0
 70
    32
  0
VERTEX
  5
B99
  8
0
 10
201.983
 20
70.561800000000005
 30
0.0
 70
    32
  0
VERTEX
  5
B9A
  8
0
 10
201.983
 20
70.562100000000001
 30
0.0
 70
    32
  0
VERTEX
  5
B9B
  8
0
 10
201.98400000000001
 20
70.5625
 30
0.0
 70
    32
  0
VERTEX
  5
B9C
  8
0
 10
201.98400000000001
 20
70.562799999999996
 30
0.0
 70
    32
  0
VERTEX
  5
B9D
  8
0
 10
201.98400000000001
 20
70.563100000000006
 30
0.0
 70
    32
  0
VERTEX
  5
B9E
  8
0
 10
201.98500000000001
 20
70.563500000000005
 30
0.0
 70
    32
  0
VERTEX
  5
B9F
  8
0
 10
201.98500000000001
 20
70.563800000000001
 30
0.0
 70
    32
  0
VERTEX
  5
BA0
  8
0
 10
201.98500000000001
 20
70.5642
 30
0.0
 70
    32
  0
VERTEX
  5
BA1
  8
0
 10
201.98599999999999
 20
70.564499999999995
 30
0.0
 70
    32
  0
VERTEX
  5
BA2
  8
0
 10
201.98599999999999
 20
70.564899999999994
 30
0.0
 70
    32
  0
VERTEX
  5
BA3
  8
0
 10
201.98699999999999
 20
70.565200000000004
 30
0.0
 70
    32
  0
VERTEX
  5
BA4
  8
0
 10
201.98699999999999
 20
70.565600000000003
 30
0.0
 70
    32
  0
VERTEX
  5
BA5
  8
0
 10
201.98699999999999
 20
70.565899999999985
 30
0.0
 70
    32
  0
VERTEX
  5
BA6
  8
0
 10
201.988
 20
70.566299999999998
 30
0.0
 70
    32
  0
VERTEX
  5
BA7
  8
0
 10
201.988
 20
70.566599999999994
 30
0.0
 70
    32
  0
VERTEX
  5
BA8
  8
0
 10
201.988
 20
70.566999999999993
 30
0.0
 70
    32
  0
VERTEX
  5
BA9
  8
0
 10
201.989
 20
70.567400000000006
 30
0.0
 70
    32
  0
VERTEX
  5
BAA
  8
0
 10
201.989
 20
70.567800000000005
 30
0.0
 70
    32
  0
VERTEX
  5
BAB
  8
0
 10
201.989
 20
70.568100000000001
 30
0.0
 70
    32
  0
VERTEX
  5
BAC
  8
0
 10
201.99000000000001
 20
70.5685
 30
0.0
 70
    32
  0
VERTEX
  5
BAD
  8
0
 10
201.99000000000001
 20
70.568899999999999
 30
0.0
 70
    32
  0
VERTEX
  5
BAE
  8
0
 10
201.99100000000001
 20
70.569299999999998
 30
0.0
 70
    32
  0
VERTEX
  5
BAF
  8
0
 10
201.99100000000001
 20
70.569699999999983
 30
0.0
 70
    32
  0
VERTEX
  5
BB0
  8
0
 10
201.99100000000001
 20
70.570099999999996
 30
0.0
 70
    32
  0
VERTEX
  5
BB1
  8
0
 10
201.99199999999999
 20
70.570499999999996
 30
0.0
 70
    32
  0
VERTEX
  5
BB2
  8
0
 10
201.99199999999999
 20
70.570899999999995
 30
0.0
 70
    32
  0
VERTEX
  5
BB3
  8
0
 10
201.99199999999999
 20
70.571299999999994
 30
0.0
 70
    32
  0
VERTEX
  5
BB4
  8
0
 10
201.99299999999999
 20
70.571700000000007
 30
0.0
 70
    32
  0
VERTEX
  5
BB5
  8
0
 10
201.99299999999999
 20
70.572100000000006
 30
0.0
 70
    32
  0
VERTEX
  5
BB6
  8
0
 10
201.99299999999999
 20
70.572500000000005
 30
0.0
 70
    32
  0
VERTEX
  5
BB7
  8
0
 10
201.994
 20
70.572900000000004
 30
0.0
 70
    32
  0
VERTEX
  5
BB8
  8
0
 10
201.994
 20
70.573300000000003
 30
0.0
 70
    32
  0
VERTEX
  5
BB9
  8
0
 10
201.994
 20
70.573700000000002
 30
0.0
 70
    32
  0
VERTEX
  5
BBA
  8
0
 10
201.994
 20
70.574100000000001
 30
0.0
 70
    32
  0
VERTEX
  5
BBB
  8
0
 10
201.995
 20
70.574600000000004
 30
0.0
 70
    32
  0
VERTEX
  5
BBC
  8
0
 10
201.995
 20
70.575000000000003
 30
0.0
 70
    32
  0
VERTEX
  5
BBD
  8
0
 10
201.995
 20
70.575400000000002
 30
0.0
 70
    32
  0
VERTEX
  5
BBE
  8
0
 10
201.99600000000001
 20
70.575800000000001
 30
0.0
 70
    32
  0
VERTEX
  5
BBF
  8
0
 10
201.99600000000001
 20
70.576300000000003
 30
0.0
 70
    32
  0
VERTEX
  5
BC0
  8
0
 10
201.99600000000001
 20
70.576700000000002
 30
0.0
 70
    32
  0
VERTEX
  5
BC1
  8
0
 10
201.99700000000001
 20
70.577200000000005
 30
0.0
 70
    32
  0
VERTEX
  5
BC2
  8
0
 10
201.99700000000001
 20
70.577600000000004
 30
0.0
 70
    32
  0
VERTEX
  5
BC3
  8
0
 10
201.99700000000001
 20
70.578100000000006
 30
0.0
 70
    32
  0
VERTEX
  5
BC4
  8
0
 10
201.99799999999999
 20
70.578500000000005
 30
0.0
 70
    32
  0
VERTEX
  5
BC5
  8
0
 10
201.99799999999999
 20
70.578999999999994
 30
0.0
 70
    32
  0
VERTEX
  5
BC6
  8
0
 10
201.99799999999999
 20
70.579400000000007
 30
0.0
 70
    32
  0
VERTEX
  5
BC7
  8
0
 10
201.99799999999999
 20
70.579899999999995
 30
0.0
 70
    32
  0
VERTEX
  5
BC8
  8
0
 10
201.999
 20
70.580299999999994
 30
0.0
 70
    32
  0
VERTEX
  5
BC9
  8
0
 10
201.999
 20
70.580799999999996
 30
0.0
 70
    32
  0
VERTEX
  5
BCA
  8
0
 10
201.999
 20
70.581299999999999
 30
0.0
 70
    32
  0
VERTEX
  5
BCB
  8
0
 10
202.0
 20
70.581699999999998
 30
0.0
 70
    32
  0
VERTEX
  5
BCC
  8
0
 10
202.0
 20
70.5822
 30
0.0
 70
    32
  0
VERTEX
  5
BCD
  8
0
 10
202.0
 20
70.582700000000003
 30
0.0
 70
    32
  0
VERTEX
  5
BCE
  8
0
 10
202.0
 20
70.583100000000002
 30
0.0
 70
    32
  0
VERTEX
  5
BCF
  8
0
 10
202.001
 20
70.583600000000004
 30
0.0
 70
    32
  0
VERTEX
  5
BD0
  8
0
 10
202.001
 20
70.584100000000007
 30
0.0
 70
    32
  0
VERTEX
  5
BD1
  8
0
 10
202.001
 20
70.584599999999995
 30
0.0
 70
    32
  0
VERTEX
  5
BD2
  8
0
 10
202.001
 20
70.585099999999997
 30
0.0
 70
    32
  0
VERTEX
  5
BD3
  8
0
 10
202.00200000000001
 20
70.585599999999985
 30
0.0
 70
    32
  0
VERTEX
  5
BD4
  8
0
 10
202.00200000000001
 20
70.586100000000002
 30
0.0
 70
    32
  0
VERTEX
  5
BD5
  8
0
 10
202.00200000000001
 20
70.586600000000004
 30
0.0
 70
    32
  0
VERTEX
  5
BD6
  8
0
 10
202.00200000000001
 20
70.587100000000007
 30
0.0
 70
    32
  0
VERTEX
  5
BD7
  8
0
 10
202.00299999999999
 20
70.587599999999995
 30
0.0
 70
    32
  0
VERTEX
  5
BD8
  8
0
 10
202.00299999999999
 20
70.588099999999997
 30
0.0
 70
    32
  0
VERTEX
  5
BD9
  8
0
 10
202.00299999999999
 20
70.5886
 30
0.0
 70
    32
  0
VERTEX
  5
BDA
  8
0
 10
202.00299999999999
 20
70.589100000000002
 30
0.0
 70
    32
  0
VERTEX
  5
BDB
  8
0
 10
202.00399999999999
 20
70.589600000000004
 30
0.0
 70
    32
  0
VERTEX
  5
BDC
  8
0
 10
202.00399999999999
 20
70.590100000000007
 30
0.0
 70
    32
  0
VERTEX
  5
BDD
  8
0
 10
202.00399999999999
 20
70.590599999999995
 30
0.0
 70
    32
  0
VERTEX
  5
BDE
  8
0
 10
202.00399999999999
 20
70.591099999999997
 30
0.0
 70
    32
  0
VERTEX
  5
BDF
  8
0
 10
202.005
 20
70.591700000000003
 30
0.0
 70
    32
  0
VERTEX
  5
BE0
  8
0
 10
202.005
 20
70.592200000000005
 30
0.0
 70
    32
  0
VERTEX
  5
BE1
  8
0
 10
202.005
 20
70.592699999999994
 30
0.0
 70
    32
  0
VERTEX
  5
BE2
  8
0
 10
202.005
 20
70.593199999999996
 30
0.0
 70
    32
  0
VERTEX
  5
BE3
  8
0
 10
202.005
 20
70.593800000000002
 30
0.0
 70
    32
  0
VERTEX
  5
BE4
  8
0
 10
202.006
 20
70.594300000000004
 30
0.0
 70
    32
  0
VERTEX
  5
BE5
  8
0
 10
202.006
 20
70.594800000000006
 30
0.0
 70
    32
  0
VERTEX
  5
BE6
  8
0
 10
202.006
 20
70.595399999999998
 30
0.0
 70
    32
  0
VERTEX
  5
BE7
  8
0
 10
202.006
 20
70.5959
 30
0.0
 70
    32
  0
VERTEX
  5
BE8
  8
0
 10
202.00700000000001
 20
70.596500000000006
 30
0.0
 70
    32
  0
VERTEX
  5
BE9
  8
0
 10
202.00700000000001
 20
70.596999999999994
 30
0.0
 70
    32
  0
VERTEX
  5
BEA
  8
0
 10
202.00700000000001
 20
70.5976
 30
0.0
 70
    32
  0
VERTEX
  5
BEB
  8
0
 10
202.00700000000001
 20
70.598100000000002
 30
0.0
 70
    32
  0
VERTEX
  5
BEC
  8
0
 10
202.00700000000001
 20
70.598699999999994
 30
0.0
 70
    32
  0
VERTEX
  5
BED
  8
0
 10
202.00800000000001
 20
70.599199999999996
 30
0.0
 70
    32
  0
VERTEX
  5
BEE
  8
0
 10
202.00800000000001
 20
70.599800000000002
 30
0.0
 70
    32
  0
VERTEX
  5
BEF
  8
0
 10
202.00800000000001
 20
70.600300000000004
 30
0.0
 70
    32
  0
VERTEX
  5
BF0
  8
0
 10
202.00800000000001
 20
70.600899999999996
 30
0.0
 70
    32
  0
VERTEX
  5
BF1
  8
0
 10
202.00800000000001
 20
70.601500000000001
 30
0.0
 70
    32
  0
VERTEX
  5
BF2
  8
0
 10
202.00800000000001
 20
70.602000000000004
 30
0.0
 70
    32
  0
VERTEX
  5
BF3
  8
0
 10
202.00899999999999
 20
70.602599999999995
 30
0.0
 70
    32
  0
VERTEX
  5
BF4
  8
0
 10
202.00899999999999
 20
70.603200000000001
 30
0.0
 70
    32
  0
VERTEX
  5
BF5
  8
0
 10
202.00899999999999
 20
70.603800000000007
 30
0.0
 70
    32
  0
VERTEX
  5
BF6
  8
0
 10
202.00899999999999
 20
70.604299999999995
 30
0.0
 70
    32
  0
VERTEX
  5
BF7
  8
0
 10
202.00899999999999
 20
70.604900000000001
 30
0.0
 70
    32
  0
VERTEX
  5
BF8
  8
0
 10
202.00999999999999
 20
70.605500000000006
 30
0.0
 70
    32
  0
VERTEX
  5
BF9
  8
0
 10
202.00999999999999
 20
70.606099999999998
 30
0.0
 70
    32
  0
VERTEX
  5
BFA
  8
0
 10
202.00999999999999
 20
70.606700000000004
 30
0.0
 70
    32
  0
VERTEX
  5
BFB
  8
0
 10
202.00999999999999
 20
70.607299999999995
 30
0.0
 70
    32
  0
VERTEX
  5
BFC
  8
0
 10
202.00999999999999
 20
70.607900000000001
 30
0.0
 70
    32
  0
VERTEX
  5
BFD
  8
0
 10
202.00999999999999
 20
70.608500000000006
 30
0.0
 70
    32
  0
VERTEX
  5
BFE
  8
0
 10
202.00999999999999
 20
70.609099999999984
 30
0.0
 70
    32
  0
VERTEX
  5
BFF
  8
0
 10
202.011
 20
70.6096
 30
0.0
 70
    32
  0
VERTEX
  5
C00
  8
0
 10
202.011
 20
70.610200000000006
 30
0.0
 70
    32
  0
VERTEX
  5
C01
  8
0
 10
202.011
 20
70.610900000000001
 30
0.0
 70
    32
  0
VERTEX
  5
C02
  8
0
 10
202.011
 20
70.611500000000007
 30
0.0
 70
    32
  0
SEQEND
  5
C03
  8
0
  0
LINE
  5
1BF
  8
0
  6
CONTINUOUS
 10
201.9734022945
 20
70.555231901200003
 30
0.0
 11
201.2211538144
 21
70.120826925599985
 31
0.0
  0
POLYLINE
  5
1C0
  8
0
  6
CONTINUOUS
 66
     1
 10
0.0
 20
0.0
 30
0.0
 70
     8
  0
VERTEX
  5
C04
  8
0
 10
201.12100000000001
 20
70.130700000000004
 30
0.0
 70
    32
  0
VERTEX
  5
C05
  8
0
 10
201.12200000000001
 20
70.130200000000002
 30
0.0
 70
    32
  0
VERTEX
  5
C06
  8
0
 10
201.12299999999999
 20
70.1297
 30
0.0
 70
    32
  0
VERTEX
  5
C07
  8
0
 10
201.124
 20
70.129199999999997
 30
0.0
 70
    32
  0
VERTEX
  5
C08
  8
0
 10
201.125
 20
70.128799999999998
 30
0.0
 70
    32
  0
VERTEX
  5
C09
  8
0
 10
201.126
 20
70.128299999999996
 30
0.0
 70
    32
  0
VERTEX
  5
C0A
  8
0
 10
201.126
 20
70.127799999999993
 30
0.0
 70
    32
  0
VERTEX
  5
C0B
  8
0
 10
201.12700000000001
 20
70.127399999999994
 30
0.0
 70
    32
  0
VERTEX
  5
C0C
  8
0
 10
201.12799999999999
 20
70.126900000000006
 30
0.0
 70
    32
  0
VERTEX
  5
C0D
  8
0
 10
201.12899999999999
 20
70.126499999999993
 30
0.0
 70
    32
  0
VERTEX
  5
C0E
  8
0
 10
201.13
 20
70.126000000000005
 30
0.0
 70
    32
  0
VERTEX
  5
C0F
  8
0
 10
201.131
 20
70.125600000000006
 30
0.0
 70
    32
  0
VERTEX
  5
C10
  8
0
 10
201.13200000000001
 20
70.125200000000007
 30
0.0
 70
    32
  0
VERTEX
  5
C11
  8
0
 10
201.13200000000001
 20
70.124700000000004
 30
0.0
 70
    32
  0
VERTEX
  5
C12
  8
0
 10
201.13300000000001
 20
70.124300000000005
 30
0.0
 70
    32
  0
VERTEX
  5
C13
  8
0
 10
201.13399999999999
 20
70.123900000000006
 30
0.0
 70
    32
  0
VERTEX
  5
C14
  8
0
 10
201.13499999999999
 20
70.123500000000007
 30
0.0
 70
    32
  0
VERTEX
  5
C15
  8
0
 10
201.136
 20
70.123099999999994
 30
0.0
 70
    32
  0
VERTEX
  5
C16
  8
0
 10
201.137
 20
70.122699999999995
 30
0.0
 70
    32
  0
VERTEX
  5
C17
  8
0
 10
201.13800000000001
 20
70.122299999999996
 30
0.0
 70
    32
  0
VERTEX
  5
C18
  8
0
 10
201.13800000000001
 20
70.121999999999986
 30
0.0
 70
    32
  0
VERTEX
  5
C19
  8
0
 10
201.13900000000001
 20
70.121600000000001
 30
0.0
 70
    32
  0
VERTEX
  5
C1A
  8
0
 10
201.13999999999999
 20
70.121200000000002
 30
0.0
 70
    32
  0
VERTEX
  5
C1B
  8
0
 10
201.14099999999999
 20
70.120900000000006
 30
0.0
 70
    32
  0
VERTEX
  5
C1C
  8
0
 10
201.142
 20
70.120500000000007
 30
0.0
 70
    32
  0
VERTEX
  5
C1D
  8
0
 10
201.143
 20
70.120199999999997
 30
0.0
 70
    32
  0
VERTEX
  5
C1E
  8
0
 10
201.14400000000001
 20
70.119799999999998
 30
0.0
 70
    32
  0
VERTEX
  5
C1F
  8
0
 10
201.14400000000001
 20
70.119500000000002
 30
0.0
 70
    32
  0
VERTEX
  5
C20
  8
0
 10
201.14500000000001
 20
70.119200000000006
 30
0.0
 70
    32
  0
VERTEX
  5
C21
  8
0
 10
201.14599999999999
 20
70.118899999999996
 30
0.0
 70
    32
  0
VERTEX
  5
C22
  8
0
 10
201.14699999999999
 20
70.118499999999983
 30
0.0
 70
    32
  0
VERTEX
  5
C23
  8
0
 10
201.148
 20
70.118200000000002
 30
0.0
 70
    32
  0
VERTEX
  5
C24
  8
0
 10
201.149
 20
70.117900000000006
 30
0.0
 70
    32
  0
VERTEX
  5
C25
  8
0
 10
201.15000000000001
 20
70.117599999999996
 30
0.0
 70
    32
  0
VERTEX
  5
C26
  8
0
 10
201.15000000000001
 20
70.117400000000004
 30
0.0
 70
    32
  0
VERTEX
  5
C27
  8
0
 10
201.15100000000001
 20
70.117099999999994
 30
0.0
 70
    32
  0
VERTEX
  5
C28
  8
0
 10
201.15199999999999
 20
70.116799999999998
 30
0.0
 70
    32
  0
VERTEX
  5
C29
  8
0
 10
201.15299999999999
 20
70.116500000000002
 30
0.0
 70
    32
  0
VERTEX
  5
C2A
  8
0
 10
201.154
 20
70.116299999999995
 30
0.0
 70
    32
  0
VERTEX
  5
C2B
  8
0
 10
201.155
 20
70.116
 30
0.0
 70
    32
  0
VERTEX
  5
C2C
  8
0
 10
201.15600000000001
 20
70.115799999999993
 30
0.0
 70
    32
  0
VERTEX
  5
C2D
  8
0
 10
201.15600000000001
 20
70.115499999999983
 30
0.0
 70
    32
  0
VERTEX
  5
C2E
  8
0
 10
201.15700000000001
 20
70.115300000000005
 30
0.0
 70
    32
  0
VERTEX
  5
C2F
  8
0
 10
201.15799999999999
 20
70.115099999999998
 30
0.0
 70
    32
  0
VERTEX
  5
C30
  8
0
 10
201.15899999999999
 20
70.114900000000006
 30
0.0
 70
    32
  0
VERTEX
  5
C31
  8
0
 10
201.16
 20
70.114699999999999
 30
0.0
 70
    32
  0
VERTEX
  5
C32
  8
0
 10
201.161
 20
70.114400000000003
 30
0.0
 70
    32
  0
VERTEX
  5
C33
  8
0
 10
201.161
 20
70.114199999999997
 30
0.0
 70
    32
  0
VERTEX
  5
C34
  8
0
 10
201.16200000000001
 20
70.114099999999993
 30
0.0
 70
    32
  0
VERTEX
  5
C35
  8
0
 10
201.16300000000001
 20
70.113900000000001
 30
0.0
 70
    32
  0
VERTEX
  5
C36
  8
0
 10
201.16399999999999
 20
70.113699999999994
 30
0.0
 70
    32
  0
VERTEX
  5
C37
  8
0
 10
201.16499999999999
 20
70.113500000000002
 30
0.0
 70
    32
  0
VERTEX
  5
C38
  8
0
 10
201.166
 20
70.113399999999999
 30
0.0
 70
    32
  0
VERTEX
  5
C39
  8
0
 10
201.166
 20
70.113200000000006
 30
0.0
 70
    32
  0
VERTEX
  5
C3A
  8
0
 10
201.167
 20
70.113
 30
0.0
 70
    32
  0
VERTEX
  5
C3B
  8
0
 10
201.16800000000001
 20
70.112899999999996
 30
0.0
 70
    32
  0
VERTEX
  5
C3C
  8
0
 10
201.16900000000001
 20
70.112799999999993
 30
0.0
 70
    32
  0
VERTEX
  5
C3D
  8
0
 10
201.16999999999999
 20
70.1126
 30
0.0
 70
    32
  0
VERTEX
  5
C3E
  8
0
 10
201.16999999999999
 20
70.112499999999997
 30
0.0
 70
    32
  0
VERTEX
  5
C3F
  8
0
 10
201.17099999999999
 20
70.112399999999994
 30
0.0
 70
    32
  0
VERTEX
  5
C40
  8
0
 10
201.172
 20
70.112300000000005
 30
0.0
 70
    32
  0
VERTEX
  5
C41
  8
0
 10
201.173
 20
70.112200000000001
 30
0.0
 70
    32
  0
VERTEX
  5
C42
  8
0
 10
201.17400000000001
 20
70.112099999999998
 30
0.0
 70
    32
  0
VERTEX
  5
C43
  8
0
 10
201.17400000000001
 20
70.111999999999995
 30
0.0
 70
    32
  0
VERTEX
  5
C44
  8
0
 10
201.17500000000001
 20
70.111900000000006
 30
0.0
 70
    32
  0
VERTEX
  5
C45
  8
0
 10
201.17599999999999
 20
70.111800000000002
 30
0.0
 70
    32
  0
VERTEX
  5
C46
  8
0
 10
201.17699999999999
 20
70.111800000000002
 30
0.0
 70
    32
  0
VERTEX
  5
C47
  8
0
 10
201.178
 20
70.111699999999985
 30
0.0
 70
    32
  0
VERTEX
  5
C48
  8
0
 10
201.178
 20
70.111699999999985
 30
0.0
 70
    32
  0
VERTEX
  5
C49
  8
0
 10
201.179
 20
70.111599999999996
 30
0.0
 70
    32
  0
VERTEX
  5
C4A
  8
0
 10
201.18000000000001
 20
70.111599999999996
 30
0.0
 70
    32
  0
VERTEX
  5
C4B
  8
0
 10
201.18100000000001
 20
70.111500000000007
 30
0.0
 70
    32
  0
VERTEX
  5
C4C
  8
0
 10
201.18199999999999
 20
70.111500000000007
 30
0.0
 70
    32
  0
VERTEX
  5
C4D
  8
0
 10
201.18199999999999
 20
70.111500000000007
 30
0.0
 70
    32
  0
VERTEX
  5
C4E
  8
0
 10
201.18299999999999
 20
70.111500000000007
 30
0.0
 70
    32
  0
VERTEX
  5
C4F
  8
0
 10
201.184
 20
70.111500000000007
 30
0.0
 70
    32
  0
VERTEX
  5
C50
  8
0
 10
201.185
 20
70.111500000000007
 30
0.0
 70
    32
  0
VERTEX
  5
C51
  8
0
 10
201.18600000000001
 20
70.111500000000007
 30
0.0
 70
    32
  0
VERTEX
  5
C52
  8
0
 10
201.18600000000001
 20
70.111500000000007
 30
0.0
 70
    32
  0
VERTEX
  5
C53
  8
0
 10
201.18700000000001
 20
70.111500000000007
 30
0.0
 70
    32
  0
VERTEX
  5
C54
  8
0
 10
201.18799999999999
 20
70.111500000000007
 30
0.0
 70
    32
  0
VERTEX
  5
C55
  8
0
 10
201.18899999999999
 20
70.111599999999996
 30
0.0
 70
    32
  0
VERTEX
  5
C56
  8
0
 10
201.18899999999999
 20
70.111599999999996
 30
0.0
 70
    32
  0
VERTEX
  5
C57
  8
0
 10
201.19
 20
70.111599999999996
 30
0.0
 70
    32
  0
VERTEX
  5
C58
  8
0
 10
201.191
 20
70.111699999999985
 30
0.0
 70
    32
  0
VERTEX
  5
C59
  8
0
 10
201.19200000000001
 20
70.111800000000002
 30
0.0
 70
    32
  0
VERTEX
  5
C5A
  8
0
 10
201.19200000000001
 20
70.111800000000002
 30
0.0
 70
    32
  0
VERTEX
  5
C5B
  8
0
 10
201.19300000000001
 20
70.111900000000006
 30
0.0
 70
    32
  0
VERTEX
  5
C5C
  8
0
 10
201.19399999999999
 20
70.111999999999995
 30
0.0
 70
    32
  0
VERTEX
  5
C5D
  8
0
 10
201.19499999999999
 20
70.112099999999998
 30
0.0
 70
    32
  0
VERTEX
  5
C5E
  8
0
 10
201.19499999999999
 20
70.112200000000001
 30
0.0
 70
    32
  0
VERTEX
  5
C5F
  8
0
 10
201.196
 20
70.112300000000005
 30
0.0
 70
    32
  0
VERTEX
  5
C60
  8
0
 10
201.197
 20
70.112399999999994
 30
0.0
 70
    32
  0
VERTEX
  5
C61
  8
0
 10
201.19800000000001
 20
70.112499999999997
 30
0.0
 70
    32
  0
VERTEX
  5
C62
  8
0
 10
201.19800000000001
 20
70.1126
 30
0.0
 70
    32
  0
VERTEX
  5
C63
  8
0
 10
201.19900000000001
 20
70.112799999999993
 30
0.0
 70
    32
  0
VERTEX
  5
C64
  8
0
 10
201.19999999999999
 20
70.112899999999996
 30
0.0
 70
    32
  0
VERTEX
  5
C65
  8
0
 10
201.19999999999999
 20
70.113
 30
0.0
 70
    32
  0
VERTEX
  5
C66
  8
0
 10
201.20099999999999
 20
70.113200000000006
 30
0.0
 70
    32
  0
VERTEX
  5
C67
  8
0
 10
201.202
 20
70.113299999999995
 30
0.0
 70
    32
  0
VERTEX
  5
C68
  8
0
 10
201.203
 20
70.113500000000002
 30
0.0
 70
    32
  0
VERTEX
  5
C69
  8
0
 10
201.203
 20
70.113699999999994
 30
0.0
 70
    32
  0
VERTEX
  5
C6A
  8
0
 10
201.20400000000001
 20
70.113900000000001
 30
0.0
 70
    32
  0
VERTEX
  5
C6B
  8
0
 10
201.20500000000001
 20
70.114000000000004
 30
0.0
 70
    32
  0
VERTEX
  5
C6C
  8
0
 10
201.20500000000001
 20
70.114199999999997
 30
0.0
 70
    32
  0
VERTEX
  5
C6D
  8
0
 10
201.20599999999999
 20
70.114400000000003
 30
0.0
 70
    32
  0
VERTEX
  5
C6E
  8
0
 10
201.20699999999999
 20
70.114599999999996
 30
0.0
 70
    32
  0
VERTEX
  5
C6F
  8
0
 10
201.20699999999999
 20
70.114800000000002
 30
0.0
 70
    32
  0
VERTEX
  5
C70
  8
0
 10
201.208
 20
70.115099999999998
 30
0.0
 70
    32
  0
VERTEX
  5
C71
  8
0
 10
201.209
 20
70.115300000000005
 30
0.0
 70
    32
  0
VERTEX
  5
C72
  8
0
 10
201.21000000000001
 20
70.115499999999983
 30
0.0
 70
    32
  0
VERTEX
  5
C73
  8
0
 10
201.21000000000001
 20
70.115799999999993
 30
0.0
 70
    32
  0
VERTEX
  5
C74
  8
0
 10
201.21100000000001
 20
70.116
 30
0.0
 70
    32
  0
VERTEX
  5
C75
  8
0
 10
201.21199999999999
 20
70.116299999999995
 30
0.0
 70
    32
  0
VERTEX
  5
C76
  8
0
 10
201.21199999999999
 20
70.116500000000002
 30
0.0
 70
    32
  0
VERTEX
  5
C77
  8
0
 10
201.21299999999999
 20
70.116799999999998
 30
0.0
 70
    32
  0
VERTEX
  5
C78
  8
0
 10
201.214
 20
70.117000000000004
 30
0.0
 70
    32
  0
VERTEX
  5
C79
  8
0
 10
201.214
 20
70.1173
 30
0.0
 70
    32
  0
VERTEX
  5
C7A
  8
0
 10
201.215
 20
70.117599999999996
 30
0.0
 70
    32
  0
VERTEX
  5
C7B
  8
0
 10
201.215
 20
70.117900000000006
 30
0.0
 70
    32
  0
VERTEX
  5
C7C
  8
0
 10
201.21600000000001
 20
70.118200000000002
 30
0.0
 70
    32
  0
VERTEX
  5
C7D
  8
0
 10
201.21700000000001
 20
70.118499999999983
 30
0.0
 70
    32
  0
VERTEX
  5
C7E
  8
0
 10
201.21700000000001
 20
70.118799999999993
 30
0.0
 70
    32
  0
VERTEX
  5
C7F
  8
0
 10
201.21799999999999
 20
70.119100000000003
 30
0.0
 70
    32
  0
VERTEX
  5
C80
  8
0
 10
201.21899999999999
 20
70.119500000000002
 30
0.0
 70
    32
  0
VERTEX
  5
C81
  8
0
 10
201.21899999999999
 20
70.119799999999998
 30
0.0
 70
    32
  0
VERTEX
  5
C82
  8
0
 10
201.22
 20
70.120099999999994
 30
0.0
 70
    32
  0
VERTEX
  5
C83
  8
0
 10
201.221
 20
70.120500000000007
 30
0.0
 70
    32
  0
VERTEX
  5
C84
  8
0
 10
201.221
 20
70.120800000000003
 30
0.0
 70
    32
  0
SEQEND
  5
C85
  8
0
  0
LINE
  5
1C1
  8
0
  6
CONTINUOUS
 10
201.1211690449
 20
70.130722336099993
 30
0.0
 11
197.61449031160001
 21
72.155084879100002
 31
0.0
  0
POLYLINE
  5
1C2
  8
0
  6
CONTINUOUS
 66
     1
 10
0.0
 20
0.0
 30
0.0
 70
     8
  0
VERTEX
  5
C86
  8
0
 10
197.51499999999999
 20
72.260599999999997
 30
0.0
 70
    32
  0
VERTEX
  5
C87
  8
0
 10
197.51499999999999
 20
72.259600000000006
 30
0.0
 70
    32
  0
VERTEX
  5
C88
  8
0
 10
197.51599999999999
 20
72.258499999999998
 30
0.0
 70
    32
  0
VERTEX
  5
C89
  8
0
 10
197.51599999999999
 20
72.257499999999993
 30
0.0
 70
    32
  0
VERTEX
  5
C8A
  8
0
 10
197.517
 20
72.256399999999999
 30
0.0
 70
    32
  0
VERTEX
  5
C8B
  8
0
 10
197.518
 20
72.255300000000005
 30
0.0
 70
    32
  0
VERTEX
  5
C8C
  8
0
 10
197.518
 20
72.254300000000001
 30
0.0
 70
    32
  0
VERTEX
  5
C8D
  8
0
 10
197.51900000000001
 20
72.253200000000007
 30
0.0
 70
    32
  0
VERTEX
  5
C8E
  8
0
 10
197.52000000000001
 20
72.252200000000002
 30
0.0
 70
    32
  0
VERTEX
  5
C8F
  8
0
 10
197.52000000000001
 20
72.251199999999997
 30
0.0
 70
    32
  0
VERTEX
  5
C90
  8
0
 10
197.52099999999999
 20
72.250100000000003
 30
0.0
 70
    32
  0
VERTEX
  5
C91
  8
0
 10
197.52099999999999
 20
72.249099999999999
 30
0.0
 70
    32
  0
VERTEX
  5
C92
  8
0
 10
197.52199999999999
 20
72.248000000000005
 30
0.0
 70
    32
  0
VERTEX
  5
C93
  8
0
 10
197.523
 20
72.247
 30
0.0
 70
    32
  0
VERTEX
  5
C94
  8
0
 10
197.523
 20
72.245999999999995
 30
0.0
 70
    32
  0
VERTEX
  5
C95
  8
0
 10
197.524
 20
72.245000000000005
 30
0.0
 70
    32
  0
VERTEX
  5
C96
  8
0
 10
197.52500000000001
 20
72.243899999999996
 30
0.0
 70
    32
  0
VERTEX
  5
C97
  8
0
 10
197.52500000000001
 20
72.242900000000006
 30
0.0
 70
    32
  0
VERTEX
  5
C98
  8
0
 10
197.52600000000001
 20
72.241900000000001
 30
0.0
 70
    32
  0
VERTEX
  5
C99
  8
0
 10
197.52699999999999
 20
72.240899999999996
 30
0.0
 70
    32
  0
VERTEX
  5
C9A
  8
0
 10
197.52699999999999
 20
72.239900000000006
 30
0.0
 70
    32
  0
VERTEX
  5
C9B
  8
0
 10
197.52799999999999
 20
72.238900000000001
 30
0.0
 70
    32
  0
VERTEX
  5
C9C
  8
0
 10
197.529
 20
72.237799999999993
 30
0.0
 70
    32
  0
VERTEX
  5
C9D
  8
0
 10
197.53
 20
72.236800000000002
 30
0.0
 70
    32
  0
VERTEX
  5
C9E
  8
0
 10
197.53
 20
72.235799999999998
 30
0.0
 70
    32
  0
VERTEX
  5
C9F
  8
0
 10
197.53100000000001
 20
72.234800000000007
 30
0.0
 70
    32
  0
VERTEX
  5
CA0
  8
0
 10
197.53200000000001
 20
72.233900000000006
 30
0.0
 70
    32
  0
VERTEX
  5
CA1
  8
0
 10
197.53200000000001
 20
72.232900000000001
 30
0.0
 70
    32
  0
VERTEX
  5
CA2
  8
0
 10
197.5329999999999
 20
72.231899999999996
 30
0.0
 70
    32
  0
VERTEX
  5
CA3
  8
0
 10
197.53399999999999
 20
72.230900000000005
 30
0.0
 70
    32
  0
VERTEX
  5
CA4
  8
0
 10
197.53399999999999
 20
72.229900000000001
 30
0.0
 70
    32
  0
VERTEX
  5
CA5
  8
0
 10
197.535
 20
72.228899999999996
 30
0.0
 70
    32
  0
VERTEX
  5
CA6
  8
0
 10
197.536
 20
72.227999999999994
 30
0.0
 70
    32
  0
VERTEX
  5
CA7
  8
0
 10
197.53700000000001
 20
72.227000000000004
 30
0.0
 70
    32
  0
VERTEX
  5
CA8
  8
0
 10
197.53700000000001
 20
72.225999999999985
 30
0.0
 70
    32
  0
VERTEX
  5
CA9
  8
0
 10
197.53800000000001
 20
72.224999999999994
 30
0.0
 70
    32
  0
VERTEX
  5
CAA
  8
0
 10
197.53899999999999
 20
72.224100000000007
 30
0.0
 70
    32
  0
VERTEX
  5
CAB
  8
0
 10
197.53999999999999
 20
72.223100000000002
 30
0.0
 70
    32
  0
VERTEX
  5
CAC
  8
0
 10
197.53999999999999
 20
72.222200000000001
 30
0.0
 70
    32
  0
VERTEX
  5
CAD
  8
0
 10
197.541
 20
72.221199999999996
 30
0.0
 70
    32
  0
VERTEX
  5
CAE
  8
0
 10
197.542
 20
72.220299999999995
 30
0.0
 70
    32
  0
VERTEX
  5
CAF
  8
0
 10
197.54300000000001
 20
72.219300000000004
 30
0.0
 70
    32
  0
VERTEX
  5
CB0
  8
0
 10
197.54300000000001
 20
72.218400000000003
 30
0.0
 70
    32
  0
VERTEX
  5
CB1
  8
0
 10
197.54400000000001
 20
72.217500000000001
 30
0.0
 70
    32
  0
VERTEX
  5
CB2
  8
0
 10
197.54499999999999
 20
72.216499999999996
 30
0.0
 70
    32
  0
VERTEX
  5
CB3
  8
0
 10
197.54599999999999
 20
72.215599999999995
 30
0.0
 70
    32
  0
VERTEX
  5
CB4
  8
0
 10
197.54599999999999
 20
72.214699999999993
 30
0.0
 70
    32
  0
VERTEX
  5
CB5
  8
0
 10
197.547
 20
72.213800000000006
 30
0.0
 70
    32
  0
VERTEX
  5
CB6
  8
0
 10
197.548
 20
72.212800000000001
 30
0.0
 70
    32
  0
VERTEX
  5
CB7
  8
0
 10
197.54900000000001
 20
72.211899999999986
 30
0.0
 70
    32
  0
VERTEX
  5
CB8
  8
0
 10
197.54900000000001
 20
72.210999999999984
 30
0.0
 70
    32
  0
VERTEX
  5
CB9
  8
0
 10
197.55000000000001
 20
72.210099999999997
 30
0.0
 70
    32
  0
VERTEX
  5
CBA
  8
0
 10
197.55099999999999
 20
72.209199999999996
 30
0.0
 70
    32
  0
VERTEX
  5
CBB
  8
0
 10
197.55199999999999
 20
72.208299999999994
 30
0.0
 70
    32
  0
VERTEX
  5
CBC
  8
0
 10
197.55199999999999
 20
72.207400000000007
 30
0.0
 70
    32
  0
VERTEX
  5
CBD
  8
0
 10
197.553
 20
72.206500000000005
 30
0.0
 70
    32
  0
VERTEX
  5
CBE
  8
0
 10
197.554
 20
72.205699999999993
 30
0.0
 70
    32
  0
VERTEX
  5
CBF
  8
0
 10
197.55500000000001
 20
72.204800000000006
 30
0.0
 70
    32
  0
VERTEX
  5
CC0
  8
0
 10
197.55600000000001
 20
72.203900000000004
 30
0.0
 70
    32
  0
VERTEX
  5
CC1
  8
0
 10
197.55600000000001
 20
72.203000000000003
 30
0.0
 70
    32
  0
VERTEX
  5
CC2
  8
0
 10
197.55699999999999
 20
72.202200000000005
 30
0.0
 70
    32
  0
VERTEX
  5
CC3
  8
0
 10
197.55799999999999
 20
72.201300000000003
 30
0.0
 70
    32
  0
VERTEX
  5
CC4
  8
0
 10
197.559
 20
72.200500000000005
 30
0.0
 70
    32
  0
VERTEX
  5
CC5
  8
0
 10
197.56
 20
72.199600000000004
 30
0.0
 70
    32
  0
VERTEX
  5
CC6
  8
0
 10
197.56
 20
72.198800000000006
 30
0.0
 70
    32
  0
VERTEX
  5
CC7
  8
0
 10
197.56099999999989
 20
72.197900000000004
 30
0.0
 70
    32
  0
VERTEX
  5
CC8
  8
0
 10
197.56200000000001
 20
72.197100000000006
 30
0.0
 70
    32
  0
VERTEX
  5
CC9
  8
0
 10
197.56299999999999
 20
72.196200000000005
 30
0.0
 70
    32
  0
VERTEX
  5
CCA
  8
0
 10
197.56399999999999
 20
72.195400000000006
 30
0.0
 70
    32
  0
VERTEX
  5
CCB
  8
0
 10
197.56399999999999
 20
72.194599999999994
 30
0.0
 70
    32
  0
VERTEX
  5
CCC
  8
0
 10
197.565
 20
72.193799999999996
 30
0.0
 70
    32
  0
VERTEX
  5
CCD
  8
0
 10
197.56599999999989
 20
72.192899999999995
 30
0.0
 70
    32
  0
VERTEX
  5
CCE
  8
0
 10
197.56700000000001
 20
72.192099999999996
 30
0.0
 70
    32
  0
VERTEX
  5
CCF
  8
0
 10
197.56800000000001
 20
72.191299999999984
 30
0.0
 70
    32
  0
VERTEX
  5
CD0
  8
0
 10
197.56800000000001
 20
72.1905
 30
0.0
 70
    32
  0
VERTEX
  5
CD1
  8
0
 10
197.56899999999999
 20
72.189700000000002
 30
0.0
 70
    32
  0
VERTEX
  5
CD2
  8
0
 10
197.56999999999999
 20
72.188900000000004
 30
0.0
 70
    32
  0
VERTEX
  5
CD3
  8
0
 10
197.571
 20
72.188100000000006
 30
0.0
 70
    32
  0
VERTEX
  5
CD4
  8
0
 10
197.572
 20
72.187399999999997
 30
0.0
 70
    32
  0
VERTEX
  5
CD5
  8
0
 10
197.57300000000001
 20
72.186599999999984
 30
0.0
 70
    32
  0
VERTEX
  5
CD6
  8
0
 10
197.57300000000001
 20
72.1858
 30
0.0
 70
    32
  0
VERTEX
  5
CD7
  8
0
 10
197.57400000000001
 20
72.185000000000002
 30
0.0
 70
    32
  0
VERTEX
  5
CD8
  8
0
 10
197.57499999999999
 20
72.184299999999993
 30
0.0
 70
    32
  0
VERTEX
  5
CD9
  8
0
 10
197.57599999999999
 20
72.183499999999995
 30
0.0
 70
    32
  0
VERTEX
  5
CDA
  8
0
 10
197.577
 20
72.1828
 30
0.0
 70
    32
  0
VERTEX
  5
CDB
  8
0
 10
197.578
 20
72.182000000000002
 30
0.0
 70
    32
  0
VERTEX
  5
CDC
  8
0
 10
197.578
 20
72.181299999999993
 30
0.0
 70
    32
  0
VERTEX
  5
CDD
  8
0
 10
197.57900000000001
 20
72.180499999999995
 30
0.0
 70
    32
  0
VERTEX
  5
CDE
  8
0
 10
197.58000000000001
 20
72.1798
 30
0.0
 70
    32
  0
VERTEX
  5
CDF
  8
0
 10
197.58099999999999
 20
72.179100000000005
 30
0.0
 70
    32
  0
VERTEX
  5
CE0
  8
0
 10
197.58199999999999
 20
72.178399999999996
 30
0.0
 70
    32
  0
VERTEX
  5
CE1
  8
0
 10
197.583
 20
72.177599999999998
 30
0.0
 70
    32
  0
VERTEX
  5
CE2
  8
0
 10
197.584
 20
72.176900000000003
 30
0.0
 70
    32
  0
VERTEX
  5
CE3
  8
0
 10
197.584
 20
72.176199999999994
 30
0.0
 70
    32
  0
VERTEX
  5
CE4
  8
0
 10
197.58500000000001
 20
72.1755
 30
0.0
 70
    32
  0
VERTEX
  5
CE5
  8
0
 10
197.58600000000001
 20
72.174800000000005
 30
0.0
 70
    32
  0
VERTEX
  5
CE6
  8
0
 10
197.58699999999999
 20
72.174099999999996
 30
0.0
 70
    32
  0
VERTEX
  5
CE7
  8
0
 10
197.58799999999999
 20
72.173500000000004
 30
0.0
 70
    32
  0
VERTEX
  5
CE8
  8
0
 10
197.589
 20
72.172799999999995
 30
0.0
 70
    32
  0
VERTEX
  5
CE9
  8
0
 10
197.589
 20
72.1721
 30
0.0
 70
    32
  0
VERTEX
  5
CEA
  8
0
 10
197.59
 20
72.171400000000006
 30
0.0
 70
    32
  0
VERTEX
  5
CEB
  8
0
 10
197.59100000000001
 20
72.1708
 30
0.0
 70
    32
  0
VERTEX
  5
CEC
  8
0
 10
197.59200000000001
 20
72.170100000000005
 30
0.0
 70
    32
  0
VERTEX
  5
CED
  8
0
 10
197.59299999999999
 20
72.169499999999999
 30
0.0
 70
    32
  0
VERTEX
  5
CEE
  8
0
 10
197.59399999999999
 20
72.168800000000005
 30
0.0
 70
    32
  0
VERTEX
  5
CEF
  8
0
 10
197.595
 20
72.168199999999999
 30
0.0
 70
    32
  0
VERTEX
  5
CF0
  8
0
 10
197.595
 20
72.167599999999993
 30
0.0
 70
    32
  0
VERTEX
  5
CF1
  8
0
 10
197.59599999999989
 20
72.166899999999984
 30
0.0
 70
    32
  0
VERTEX
  5
CF2
  8
0
 10
197.59700000000001
 20
72.166300000000007
 30
0.0
 70
    32
  0
VERTEX
  5
CF3
  8
0
 10
197.59800000000001
 20
72.165700000000001
 30
0.0
 70
    32
  0
VERTEX
  5
CF4
  8
0
 10
197.59899999999999
 20
72.165099999999995
 30
0.0
 70
    32
  0
VERTEX
  5
CF5
  8
0
 10
197.59999999999999
 20
72.164500000000004
 30
0.0
 70
    32
  0
VERTEX
  5
CF6
  8
0
 10
197.601
 20
72.163899999999998
 30
0.0
 70
    32
  0
VERTEX
  5
CF7
  8
0
 10
197.601
 20
72.163300000000007
 30
0.0
 70
    32
  0
VERTEX
  5
CF8
  8
0
 10
197.602
 20
72.162700000000001
 30
0.0
 70
    32
  0
VERTEX
  5
CF9
  8
0
 10
197.60300000000001
 20
72.162099999999995
 30
0.0
 70
    32
  0
VERTEX
  5
CFA
  8
0
 10
197.60400000000001
 20
72.161500000000004
 30
0.0
 70
    32
  0
VERTEX
  5
CFB
  8
0
 10
197.60499999999999
 20
72.161000000000001
 30
0.0
 70
    32
  0
VERTEX
  5
CFC
  8
0
 10
197.60599999999999
 20
72.160399999999996
 30
0.0
 70
    32
  0
VERTEX
  5
CFD
  8
0
 10
197.607
 20
72.159800000000004
 30
0.0
 70
    32
  0
VERTEX
  5
CFE
  8
0
 10
197.608
 20
72.159300000000002
 30
0.0
 70
    32
  0
VERTEX
  5
CFF
  8
0
 10
197.608
 20
72.158699999999996
 30
0.0
 70
    32
  0
VERTEX
  5
D00
  8
0
 10
197.60900000000001
 20
72.158199999999994
 30
0.0
 70
    32
  0
VERTEX
  5
D01
  8
0
 10
197.61000000000001
 20
72.157700000000006
 30
0.0
 70
    32
  0
VERTEX
  5
D02
  8
0
 10
197.61099999999999
 20
72.1571
 30
0.0
 70
    32
  0
VERTEX
  5
D03
  8
0
 10
197.61199999999999
 20
72.156599999999983
 30
0.0
 70
    32
  0
VERTEX
  5
D04
  8
0
 10
197.613
 20
72.156099999999995
 30
0.0
 70
    32
  0
VERTEX
  5
D05
  8
0
 10
197.614
 20
72.155600000000007
 30
0.0
 70
    32
  0
VERTEX
  5
D06
  8
0
 10
197.614
 20
72.155100000000004
 30
0.0
 70
    32
  0
SEQEND
  5
D07
  8
0
  0
LINE
  5
1C3
  8
0
  6
CONTINUOUS
 10
197.51450554210001
 20
72.260629426199998
 30
0.0
 11
196.76225706209999
 21
73.563562009799981
 31
0.0
  0
POLYLINE
  5
1C4
  8
0
  6
CONTINUOUS
 66
     1
 10
0.0
 20
0.0
 30
0.0
 70
     8
  0
VERTEX
  5
D08
  8
0
 10
196.726
 20
73.742400000000004
 30
0.0
 70
    32
  0
VERTEX
  5
D09
  8
0
 10
196.72499999999999
 20
73.741299999999995
 30
0.0
 70
    32
  0
VERTEX
  5
D0A
  8
0
 10
196.72499999999999
 20
73.740200000000002
 30
0.0
 70
    32
  0
VERTEX
  5
D0B
  8
0
 10
196.72499999999999
 20
73.739000000000004
 30
0.0
 70
    32
  0
VERTEX
  5
D0C
  8
0
 10
196.72499999999999
 20
73.737899999999996
 30
0.0
 70
    32
  0
VERTEX
  5
D0D
  8
0
 10
196.72399999999999
 20
73.736699999999999
 30
0.0
 70
    32
  0
VERTEX
  5
D0E
  8
0
 10
196.72399999999999
 20
73.735600000000005
 30
0.0
 70
    32
  0
VERTEX
  5
D0F
  8
0
 10
196.72399999999999
 20
73.734399999999994
 30
0.0
 70
    32
  0
VERTEX
  5
D10
  8
0
 10
196.72399999999999
 20
73.733199999999997
 30
0.0
 70
    32
  0
VERTEX
  5
D11
  8
0
 10
196.7229999999999
 20
73.731999999999999
 30
0.0
 70
    32
  0
VERTEX
  5
D12
  8
0
 10
196.7229999999999
 20
73.730800000000002
 30
0.0
 70
    32
  0
VERTEX
  5
D13
  8
0
 10
196.7229999999999
 20
73.729600000000005
 30
0.0
 70
    32
  0
VERTEX
  5
D14
  8
0
 10
196.7229999999999
 20
73.728399999999993
 30
0.0
 70
    32
  0
VERTEX
  5
D15
  8
0
 10
196.7229999999999
 20
73.727199999999996
 30
0.0
 70
    32
  0
VERTEX
  5
D16
  8
0
 10
196.72200000000001
 20
73.725999999999999
 30
0.0
 70
    32
  0
VERTEX
  5
D17
  8
0
 10
196.72200000000001
 20
73.724800000000002
 30
0.0
 70
    32
  0
VERTEX
  5
D18
  8
0
 10
196.72200000000001
 20
73.723500000000001
 30
0.0
 70
    32
  0
VERTEX
  5
D19
  8
0
 10
196.72200000000001
 20
73.722300000000004
 30
0.0
 70
    32
  0
VERTEX
  5
D1A
  8
0
 10
196.72200000000001
 20
73.721100000000007
 30
0.0
 70
    32
  0
VERTEX
  5
D1B
  8
0
 10
196.72200000000001
 20
73.719800000000006
 30
0.0
 70
    32
  0
VERTEX
  5
D1C
  8
0
 10
196.72200000000001
 20
73.718500000000006
 30
0.0
 70
    32
  0
VERTEX
  5
D1D
  8
0
 10
196.721
 20
73.717299999999994
 30
0.0
 70
    32
  0
VERTEX
  5
D1E
  8
0
 10
196.721
 20
73.715999999999994
 30
0.0
 70
    32
  0
VERTEX
  5
D1F
  8
0
 10
196.721
 20
73.714699999999993
 30
0.0
 70
    32
  0
VERTEX
  5
D20
  8
0
 10
196.721
 20
73.713399999999993
 30
0.0
 70
    32
  0
VERTEX
  5
D21
  8
0
 10
196.721
 20
73.712100000000007
 30
0.0
 70
    32
  0
VERTEX
  5
D22
  8
0
 10
196.721
 20
73.710800000000006
 30
0.0
 70
    32
  0
VERTEX
  5
D23
  8
0
 10
196.721
 20
73.709500000000006
 30
0.0
 70
    32
  0
VERTEX
  5
D24
  8
0
 10
196.721
 20
73.708200000000005
 30
0.0
 70
    32
  0
VERTEX
  5
D25
  8
0
 10
196.721
 20
73.706900000000005
 30
0.0
 70
    32
  0
VERTEX
  5
D26
  8
0
 10
196.721
 20
73.705600000000004
 30
0.0
 70
    32
  0
VERTEX
  5
D27
  8
0
 10
196.721
 20
73.704300000000003
 30
0.0
 70
    32
  0
VERTEX
  5
D28
  8
0
 10
196.721
 20
73.7029
 30
0.0
 70
    32
  0
VERTEX
  5
D29
  8
0
 10
196.721
 20
73.701599999999999
 30
0.0
 70
    32
  0
VERTEX
  5
D2A
  8
0
 10
196.721
 20
73.700199999999995
 30
0.0
 70
    32
  0
VERTEX
  5
D2B
  8
0
 10
196.721
 20
73.698899999999995
 30
0.0
 70
    32
  0
VERTEX
  5
D2C
  8
0
 10
196.721
 20
73.697500000000005
 30
0.0
 70
    32
  0
VERTEX
  5
D2D
  8
0
 10
196.721
 20
73.696200000000005
 30
0.0
 70
    32
  0
VERTEX
  5
D2E
  8
0
 10
196.721
 20
73.694800000000001
 30
0.0
 70
    32
  0
VERTEX
  5
D2F
  8
0
 10
196.721
 20
73.693399999999997
 30
0.0
 70
    32
  0
VERTEX
  5
D30
  8
0
 10
196.721
 20
73.692099999999996
 30
0.0
 70
    32
  0
VERTEX
  5
D31
  8
0
 10
196.721
 20
73.690700000000007
 30
0.0
 70
    32
  0
VERTEX
  5
D32
  8
0
 10
196.721
 20
73.689300000000003
 30
0.0
 70
    32
  0
VERTEX
  5
D33
  8
0
 10
196.721
 20
73.687899999999999
 30
0.0
 70
    32
  0
VERTEX
  5
D34
  8
0
 10
196.72200000000001
 20
73.686499999999995
 30
0.0
 70
    32
  0
VERTEX
  5
D35
  8
0
 10
196.72200000000001
 20
73.685100000000006
 30
0.0
 70
    32
  0
VERTEX
  5
D36
  8
0
 10
196.72200000000001
 20
73.683700000000002
 30
0.0
 70
    32
  0
VERTEX
  5
D37
  8
0
 10
196.72200000000001
 20
73.682299999999998
 30
0.0
 70
    32
  0
VERTEX
  5
D38
  8
0
 10
196.72200000000001
 20
73.680899999999994
 30
0.0
 70
    32
  0
VERTEX
  5
D39
  8
0
 10
196.72200000000001
 20
73.679500000000004
 30
0.0
 70
    32
  0
VERTEX
  5
D3A
  8
0
 10
196.72200000000001
 20
73.678100000000001
 30
0.0
 70
    32
  0
VERTEX
  5
D3B
  8
0
 10
196.7229999999999
 20
73.676699999999997
 30
0.0
 70
    32
  0
VERTEX
  5
D3C
  8
0
 10
196.7229999999999
 20
73.675200000000004
 30
0.0
 70
    32
  0
VERTEX
  5
D3D
  8
0
 10
196.7229999999999
 20
73.6738
 30
0.0
 70
    32
  0
VERTEX
  5
D3E
  8
0
 10
196.7229999999999
 20
73.672399999999996
 30
0.0
 70
    32
  0
VERTEX
  5
D3F
  8
0
 10
196.7229999999999
 20
73.670900000000003
 30
0.0
 70
    32
  0
VERTEX
  5
D40
  8
0
 10
196.72399999999999
 20
73.669499999999999
 30
0.0
 70
    32
  0
VERTEX
  5
D41
  8
0
 10
196.72399999999999
 20
73.668099999999995
 30
0.0
 70
    32
  0
VERTEX
  5
D42
  8
0
 10
196.72399999999999
 20
73.666600000000003
 30
0.0
 70
    32
  0
VERTEX
  5
D43
  8
0
 10
196.72399999999999
 20
73.665199999999999
 30
0.0
 70
    32
  0
VERTEX
  5
D44
  8
0
 10
196.72499999999999
 20
73.663700000000006
 30
0.0
 70
    32
  0
VERTEX
  5
D45
  8
0
 10
196.72499999999999
 20
73.662300000000002
 30
0.0
 70
    32
  0
VERTEX
  5
D46
  8
0
 10
196.72499999999999
 20
73.660799999999995
 30
0.0
 70
    32
  0
VERTEX
  5
D47
  8
0
 10
196.72499999999999
 20
73.659300000000002
 30
0.0
 70
    32
  0
VERTEX
  5
D48
  8
0
 10
196.726
 20
73.657899999999998
 30
0.0
 70
    32
  0
VERTEX
  5
D49
  8
0
 10
196.726
 20
73.656400000000005
 30
0.0
 70
    32
  0
VERTEX
  5
D4A
  8
0
 10
196.726
 20
73.655000000000001
 30
0.0
 70
    32
  0
VERTEX
  5
D4B
  8
0
 10
196.727
 20
73.653499999999994
 30
0.0
 70
    32
  0
VERTEX
  5
D4C
  8
0
 10
196.727
 20
73.652000000000001
 30
0.0
 70
    32
  0
VERTEX
  5
D4D
  8
0
 10
196.727
 20
73.650499999999994
 30
0.0
 70
    32
  0
VERTEX
  5
D4E
  8
0
 10
196.72800000000001
 20
73.649100000000004
 30
0.0
 70
    32
  0
VERTEX
  5
D4F
  8
0
 10
196.72800000000001
 20
73.647599999999997
 30
0.0
 70
    32
  0
VERTEX
  5
D50
  8
0
 10
196.72800000000001
 20
73.646100000000004
 30
0.0
 70
    32
  0
VERTEX
  5
D51
  8
0
 10
196.72900000000001
 20
73.644599999999997
 30
0.0
 70
    32
  0
VERTEX
  5
D52
  8
0
 10
196.72900000000001
 20
73.643100000000004
 30
0.0
 70
    32
  0
VERTEX
  5
D53
  8
0
 10
196.72999999999999
 20
73.6417
 30
0.0
 70
    32
  0
VERTEX
  5
D54
  8
0
 10
196.72999999999999
 20
73.640199999999993
 30
0.0
 70
    32
  0
VERTEX
  5
D55
  8
0
 10
196.72999999999999
 20
73.6387
 30
0.0
 70
    32
  0
VERTEX
  5
D56
  8
0
 10
196.73099999999999
 20
73.637200000000007
 30
0.0
 70
    32
  0
VERTEX
  5
D57
  8
0
 10
196.73099999999999
 20
73.6357
 30
0.0
 70
    32
  0
VERTEX
  5
D58
  8
0
 10
196.732
 20
73.634200000000007
 30
0.0
 70
    32
  0
VERTEX
  5
D59
  8
0
 10
196.732
 20
73.632699999999986
 30
0.0
 70
    32
  0
VERTEX
  5
D5A
  8
0
 10
196.733
 20
73.631200000000007
 30
0.0
 70
    32
  0
VERTEX
  5
D5B
  8
0
 10
196.733
 20
73.629800000000003
 30
0.0
 70
    32
  0
VERTEX
  5
D5C
  8
0
 10
196.733
 20
73.628299999999996
 30
0.0
 70
    32
  0
VERTEX
  5
D5D
  8
0
 10
196.73400000000001
 20
73.626800000000003
 30
0.0
 70
    32
  0
VERTEX
  5
D5E
  8
0
 10
196.73400000000001
 20
73.625299999999996
 30
0.0
 70
    32
  0
VERTEX
  5
D5F
  8
0
 10
196.73500000000001
 20
73.623800000000003
 30
0.0
 70
    32
  0
VERTEX
  5
D60
  8
0
 10
196.73500000000001
 20
73.622299999999996
 30
0.0
 70
    32
  0
VERTEX
  5
D61
  8
0
 10
196.73599999999999
 20
73.620800000000003
 30
0.0
 70
    32
  0
VERTEX
  5
D62
  8
0
 10
196.73599999999999
 20
73.619299999999996
 30
0.0
 70
    32
  0
VERTEX
  5
D63
  8
0
 10
196.73699999999999
 20
73.617800000000003
 30
0.0
 70
    32
  0
VERTEX
  5
D64
  8
0
 10
196.738
 20
73.616299999999995
 30
0.0
 70
    32
  0
VERTEX
  5
D65
  8
0
 10
196.738
 20
73.614800000000002
 30
0.0
 70
    32
  0
VERTEX
  5
D66
  8
0
 10
196.739
 20
73.613299999999995
 30
0.0
 70
    32
  0
VERTEX
  5
D67
  8
0
 10
196.739
 20
73.611800000000002
 30
0.0
 70
    32
  0
VERTEX
  5
D68
  8
0
 10
196.74000000000001
 20
73.610399999999998
 30
0.0
 70
    32
  0
VERTEX
  5
D69
  8
0
 10
196.74000000000001
 20
73.608900000000006
 30
0.0
 70
    32
  0
VERTEX
  5
D6A
  8
0
 10
196.74100000000001
 20
73.607399999999984
 30
0.0
 70
    32
  0
VERTEX
  5
D6B
  8
0
 10
196.74199999999999
 20
73.605900000000005
 30
0.0
 70
    32
  0
VERTEX
  5
D6C
  8
0
 10
196.74199999999999
 20
73.604399999999998
 30
0.0
 70
    32
  0
VERTEX
  5
D6D
  8
0
 10
196.74299999999999
 20
73.602900000000005
 30
0.0
 70
    32
  0
VERTEX
  5
D6E
  8
0
 10
196.74299999999999
 20
73.601399999999998
 30
0.0
 70
    32
  0
VERTEX
  5
D6F
  8
0
 10
196.744
 20
73.599900000000005
 30
0.0
 70
    32
  0
VERTEX
  5
D70
  8
0
 10
196.745
 20
73.598500000000001
 30
0.0
 70
    32
  0
VERTEX
  5
D71
  8
0
 10
196.745
 20
73.596999999999994
 30
0.0
 70
    32
  0
VERTEX
  5
D72
  8
0
 10
196.7459999999999
 20
73.595500000000001
 30
0.0
 70
    32
  0
VERTEX
  5
D73
  8
0
 10
196.74700000000001
 20
73.593999999999994
 30
0.0
 70
    32
  0
VERTEX
  5
D74
  8
0
 10
196.74700000000001
 20
73.592500000000001
 30
0.0
 70
    32
  0
VERTEX
  5
D75
  8
0
 10
196.74799999999999
 20
73.591099999999997
 30
0.0
 70
    32
  0
VERTEX
  5
D76
  8
0
 10
196.749
 20
73.589600000000004
 30
0.0
 70
    32
  0
VERTEX
  5
D77
  8
0
 10
196.749
 20
73.588099999999997
 30
0.0
 70
    32
  0
VERTEX
  5
D78
  8
0
 10
196.75
 20
73.586699999999993
 30
0.0
 70
    32
  0
VERTEX
  5
D79
  8
0
 10
196.751
 20
73.5852
 30
0.0
 70
    32
  0
VERTEX
  5
D7A
  8
0
 10
196.751
 20
73.583699999999993
 30
0.0
 70
    32
  0
VERTEX
  5
D7B
  8
0
 10
196.75200000000001
 20
73.582300000000004
 30
0.0
 70
    32
  0
VERTEX
  5
D7C
  8
0
 10
196.75299999999999
 20
73.580799999999996
 30
0.0
 70
    32
  0
VERTEX
  5
D7D
  8
0
 10
196.75399999999999
 20
73.579400000000007
 30
0.0
 70
    32
  0
VERTEX
  5
D7E
  8
0
 10
196.75399999999999
 20
73.5779
 30
0.0
 70
    32
  0
VERTEX
  5
D7F
  8
0
 10
196.755
 20
73.576499999999996
 30
0.0
 70
    32
  0
VERTEX
  5
D80
  8
0
 10
196.75599999999989
 20
73.575000000000003
 30
0.0
 70
    32
  0
VERTEX
  5
D81
  8
0
 10
196.75700000000001
 20
73.573599999999985
 30
0.0
 70
    32
  0
VERTEX
  5
D82
  8
0
 10
196.75700000000001
 20
73.572100000000006
 30
0.0
 70
    32
  0
VERTEX
  5
D83
  8
0
 10
196.75800000000001
 20
73.570700000000002
 30
0.0
 70
    32
  0
VERTEX
  5
D84
  8
0
 10
196.75899999999999
 20
73.569299999999998
 30
0.0
 70
    32
  0
VERTEX
  5
D85
  8
0
 10
196.75999999999999
 20
73.567800000000005
 30
0.0
 70
    32
  0
VERTEX
  5
D86
  8
0
 10
196.761
 20
73.566400000000002
 30
0.0
 70
    32
  0
VERTEX
  5
D87
  8
0
 10
196.761
 20
73.564999999999998
 30
0.0
 70
    32
  0
VERTEX
  5
D88
  8
0
 10
196.762
 20
73.563599999999994
 30
0.0
 70
    32
  0
SEQEND
  5
D89
  8
0
  0
LINE
  5
1C5
  8
0
  6
CONTINUOUS
 10
196.72566009639999
 20
73.742408534899994
 30
0.0
 11
196.8472814861
 21
74.196341740899982
 31
0.0
  0
LINE
  5
1C6
  8
0
  6
CONTINUOUS
 10
197.3741066799
 20
72.181248896400007
 30
0.0
 11
196.62358898100001
 21
73.481183679099999
 31
0.0
  0
POLYLINE
  5
1C7
  8
0
  6
CONTINUOUS
 66
     1
 10
0.0
 20
0.0
 30
0.0
 70
     8
  0
VERTEX
  5
D8A
  8
0
 10
196.58699999999999
 20
73.659999999999997
 30
0.0
 70
    32
  0
VERTEX
  5
D8B
  8
0
 10
196.58699999999999
 20
73.658900000000003
 30
0.0
 70
    32
  0
VERTEX
  5
D8C
  8
0
 10
196.58600000000001
 20
73.657799999999995
 30
0.0
 70
    32
  0
VERTEX
  5
D8D
  8
0
 10
196.58600000000001
 20
73.656599999999997
 30
0.0
 70
    32
  0
VERTEX
  5
D8E
  8
0
 10
196.58600000000001
 20
73.655500000000004
 30
0.0
 70
    32
  0
VERTEX
  5
D8F
  8
0
 10
196.58600000000001
 20
73.654300000000006
 30
0.0
 70
    32
  0
VERTEX
  5
D90
  8
0
 10
196.58500000000001
 20
73.653199999999998
 30
0.0
 70
    32
  0
VERTEX
  5
D91
  8
0
 10
196.58500000000001
 20
73.652000000000001
 30
0.0
 70
    32
  0
VERTEX
  5
D92
  8
0
 10
196.58500000000001
 20
73.650800000000004
 30
0.0
 70
    32
  0
VERTEX
  5
D93
  8
0
 10
196.58500000000001
 20
73.649699999999996
 30
0.0
 70
    32
  0
VERTEX
  5
D94
  8
0
 10
196.584
 20
73.648499999999999
 30
0.0
 70
    32
  0
VERTEX
  5
D95
  8
0
 10
196.584
 20
73.647300000000001
 30
0.0
 70
    32
  0
VERTEX
  5
D96
  8
0
 10
196.584
 20
73.646100000000004
 30
0.0
 70
    32
  0
VERTEX
  5
D97
  8
0
 10
196.584
 20
73.644800000000004
 30
0.0
 70
    32
  0
VERTEX
  5
D98
  8
0
 10
196.584
 20
73.643600000000006
 30
0.0
 70
    32
  0
VERTEX
  5
D99
  8
0
 10
196.584
 20
73.642399999999995
 30
0.0
 70
    32
  0
VERTEX
  5
D9A
  8
0
 10
196.583
 20
73.641199999999984
 30
0.0
 70
    32
  0
VERTEX
  5
D9B
  8
0
 10
196.583
 20
73.639899999999997
 30
0.0
 70
    32
  0
VERTEX
  5
D9C
  8
0
 10
196.583
 20
73.6387
 30
0.0
 70
    32
  0
VERTEX
  5
D9D
  8
0
 10
196.583
 20
73.637399999999985
 30
0.0
 70
    32
  0
VERTEX
  5
D9E
  8
0
 10
196.583
 20
73.636200000000002
 30
0.0
 70
    32
  0
VERTEX
  5
D9F
  8
0
 10
196.583
 20
73.634900000000002
 30
0.0
 70
    32
  0
VERTEX
  5
DA0
  8
0
 10
196.583
 20
73.633600000000001
 30
0.0
 70
    32
  0
VERTEX
  5
DA1
  8
0
 10
196.583
 20
73.632300000000001
 30
0.0
 70
    32
  0
VERTEX
  5
DA2
  8
0
 10
196.58199999999999
 20
73.631100000000004
 30
0.0
 70
    32
  0
VERTEX
  5
DA3
  8
0
 10
196.58199999999999
 20
73.629800000000003
 30
0.0
 70
    32
  0
VERTEX
  5
DA4
  8
0
 10
196.58199999999999
 20
73.628500000000003
 30
0.0
 70
    32
  0
VERTEX
  5
DA5
  8
0
 10
196.58199999999999
 20
73.627200000000002
 30
0.0
 70
    32
  0
VERTEX
  5
DA6
  8
0
 10
196.58199999999999
 20
73.625799999999998
 30
0.0
 70
    32
  0
VERTEX
  5
DA7
  8
0
 10
196.58199999999999
 20
73.624499999999983
 30
0.0
 70
    32
  0
VERTEX
  5
DA8
  8
0
 10
196.58199999999999
 20
73.623199999999997
 30
0.0
 70
    32
  0
VERTEX
  5
DA9
  8
0
 10
196.58199999999999
 20
73.621899999999997
 30
0.0
 70
    32
  0
VERTEX
  5
DAA
  8
0
 10
196.58199999999999
 20
73.620599999999996
 30
0.0
 70
    32
  0
VERTEX
  5
DAB
  8
0
 10
196.58199999999999
 20
73.619200000000006
 30
0.0
 70
    32
  0
VERTEX
  5
DAC
  8
0
 10
196.58199999999999
 20
73.617900000000006
 30
0.0
 70
    32
  0
VERTEX
  5
DAD
  8
0
 10
196.58199999999999
 20
73.616500000000002
 30
0.0
 70
    32
  0
VERTEX
  5
DAE
  8
0
 10
196.58199999999999
 20
73.615200000000002
 30
0.0
 70
    32
  0
VERTEX
  5
DAF
  8
0
 10
196.58199999999999
 20
73.613799999999998
 30
0.0
 70
    32
  0
VERTEX
  5
DB0
  8
0
 10
196.58199999999999
 20
73.612399999999994
 30
0.0
 70
    32
  0
VERTEX
  5
DB1
  8
0
 10
196.58199999999999
 20
73.611099999999993
 30
0.0
 70
    32
  0
VERTEX
  5
DB2
  8
0
 10
196.58199999999999
 20
73.609700000000004
 30
0.0
 70
    32
  0
VERTEX
  5
DB3
  8
0
 10
196.583
 20
73.608299999999986
 30
0.0
 70
    32
  0
VERTEX
  5
DB4
  8
0
 10
196.583
 20
73.606899999999996
 30
0.0
 70
    32
  0
VERTEX
  5
DB5
  8
0
 10
196.583
 20
73.605500000000006
 30
0.0
 70
    32
  0
VERTEX
  5
DB6
  8
0
 10
196.583
 20
73.604200000000006
 30
0.0
 70
    32
  0
VERTEX
  5
DB7
  8
0
 10
196.583
 20
73.602800000000002
 30
0.0
 70
    32
  0
VERTEX
  5
DB8
  8
0
 10
196.583
 20
73.601399999999998
 30
0.0
 70
    32
  0
VERTEX
  5
DB9
  8
0
 10
196.583
 20
73.599900000000005
 30
0.0
 70
    32
  0
VERTEX
  5
DBA
  8
0
 10
196.583
 20
73.598500000000001
 30
0.0
 70
    32
  0
VERTEX
  5
DBB
  8
0
 10
196.584
 20
73.597099999999983
 30
0.0
 70
    32
  0
VERTEX
  5
DBC
  8
0
 10
196.584
 20
73.595699999999994
 30
0.0
 70
    32
  0
VERTEX
  5
DBD
  8
0
 10
196.584
 20
73.594300000000004
 30
0.0
 70
    32
  0
VERTEX
  5
DBE
  8
0
 10
196.584
 20
73.5929
 30
0.0
 70
    32
  0
VERTEX
  5
DBF
  8
0
 10
196.584
 20
73.591399999999993
 30
0.0
 70
    32
  0
VERTEX
  5
DC0
  8
0
 10
196.584
 20
73.590000000000003
 30
0.0
 70
    32
  0
VERTEX
  5
DC1
  8
0
 10
196.58500000000001
 20
73.588599999999985
 30
0.0
 70
    32
  0
VERTEX
  5
DC2
  8
0
 10
196.58500000000001
 20
73.587100000000007
 30
0.0
 70
    32
  0
VERTEX
  5
DC3
  8
0
 10
196.58500000000001
 20
73.585700000000003
 30
0.0
 70
    32
  0
VERTEX
  5
DC4
  8
0
 10
196.58500000000001
 20
73.584199999999996
 30
0.0
 70
    32
  0
VERTEX
  5
DC5
  8
0
 10
196.58600000000001
 20
73.582800000000006
 30
0.0
 70
    32
  0
VERTEX
  5
DC6
  8
0
 10
196.58600000000001
 20
73.581299999999999
 30
0.0
 70
    32
  0
VERTEX
  5
DC7
  8
0
 10
196.58600000000001
 20
73.579899999999995
 30
0.0
 70
    32
  0
VERTEX
  5
DC8
  8
0
 10
196.58600000000001
 20
73.578400000000002
 30
0.0
 70
    32
  0
VERTEX
  5
DC9
  8
0
 10
196.58699999999999
 20
73.576999999999998
 30
0.0
 70
    32
  0
VERTEX
  5
DCA
  8
0
 10
196.58699999999999
 20
73.575500000000005
 30
0.0
 70
    32
  0
VERTEX
  5
DCB
  8
0
 10
196.58699999999999
 20
73.573999999999998
 30
0.0
 70
    32
  0
VERTEX
  5
DCC
  8
0
 10
196.58799999999999
 20
73.572599999999994
 30
0.0
 70
    32
  0
VERTEX
  5
DCD
  8
0
 10
196.58799999999999
 20
73.571100000000001
 30
0.0
 70
    32
  0
VERTEX
  5
DCE
  8
0
 10
196.58799999999999
 20
73.569599999999994
 30
0.0
 70
    32
  0
VERTEX
  5
DCF
  8
0
 10
196.589
 20
73.568200000000004
 30
0.0
 70
    32
  0
VERTEX
  5
DD0
  8
0
 10
196.589
 20
73.566699999999997
 30
0.0
 70
    32
  0
VERTEX
  5
DD1
  8
0
 10
196.589
 20
73.565200000000004
 30
0.0
 70
    32
  0
VERTEX
  5
DD2
  8
0
 10
196.59
 20
73.563699999999997
 30
0.0
 70
    32
  0
VERTEX
  5
DD3
  8
0
 10
196.59
 20
73.562299999999993
 30
0.0
 70
    32
  0
VERTEX
  5
DD4
  8
0
 10
196.59
 20
73.5608
 30
0.0
 70
    32
  0
VERTEX
  5
DD5
  8
0
 10
196.59100000000001
 20
73.559299999999993
 30
0.0
 70
    32
  0
VERTEX
  5
DD6
  8
0
 10
196.59100000000001
 20
73.5578
 30
0.0
 70
    32
  0
VERTEX
  5
DD7
  8
0
 10
196.59200000000001
 20
73.556299999999993
 30
0.0
 70
    32
  0
VERTEX
  5
DD8
  8
0
 10
196.59200000000001
 20
73.5548
 30
0.0
 70
    32
  0
VERTEX
  5
DD9
  8
0
 10
196.59200000000001
 20
73.553299999999993
 30
0.0
 70
    32
  0
VERTEX
  5
DDA
  8
0
 10
196.59299999999999
 20
73.551900000000003
 30
0.0
 70
    32
  0
VERTEX
  5
DDB
  8
0
 10
196.59299999999999
 20
73.550399999999996
 30
0.0
 70
    32
  0
VERTEX
  5
DDC
  8
0
 10
196.59399999999999
 20
73.548900000000003
 30
0.0
 70
    32
  0
VERTEX
  5
DDD
  8
0
 10
196.59399999999999
 20
73.547399999999996
 30
0.0
 70
    32
  0
VERTEX
  5
DDE
  8
0
 10
196.595
 20
73.545900000000003
 30
0.0
 70
    32
  0
VERTEX
  5
DDF
  8
0
 10
196.595
 20
73.544399999999996
 30
0.0
 70
    32
  0
VERTEX
  5
DE0
  8
0
 10
196.59599999999989
 20
73.542900000000003
 30
0.0
 70
    32
  0
VERTEX
  5
DE1
  8
0
 10
196.59599999999989
 20
73.541399999999996
 30
0.0
 70
    32
  0
VERTEX
  5
DE2
  8
0
 10
196.59700000000001
 20
73.539900000000003
 30
0.0
 70
    32
  0
VERTEX
  5
DE3
  8
0
 10
196.59700000000001
 20
73.538399999999996
 30
0.0
 70
    32
  0
VERTEX
  5
DE4
  8
0
 10
196.59800000000001
 20
73.536900000000003
 30
0.0
 70
    32
  0
VERTEX
  5
DE5
  8
0
 10
196.59800000000001
 20
73.535399999999996
 30
0.0
 70
    32
  0
VERTEX
  5
DE6
  8
0
 10
196.59899999999999
 20
73.533900000000003
 30
0.0
 70
    32
  0
VERTEX
  5
DE7
  8
0
 10
196.59899999999999
 20
73.532399999999996
 30
0.0
 70
    32
  0
VERTEX
  5
DE8
  8
0
 10
196.59999999999999
 20
73.531000000000006
 30
0.0
 70
    32
  0
VERTEX
  5
DE9
  8
0
 10
196.601
 20
73.529499999999985
 30
0.0
 70
    32
  0
VERTEX
  5
DEA
  8
0
 10
196.601
 20
73.528000000000006
 30
0.0
 70
    32
  0
VERTEX
  5
DEB
  8
0
 10
196.602
 20
73.526499999999999
 30
0.0
 70
    32
  0
VERTEX
  5
DEC
  8
0
 10
196.602
 20
73.525000000000006
 30
0.0
 70
    32
  0
VERTEX
  5
DED
  8
0
 10
196.60300000000001
 20
73.523499999999999
 30
0.0
 70
    32
  0
VERTEX
  5
DEE
  8
0
 10
196.60300000000001
 20
73.522000000000006
 30
0.0
 70
    32
  0
VERTEX
  5
DEF
  8
0
 10
196.60400000000001
 20
73.520499999999998
 30
0.0
 70
    32
  0
VERTEX
  5
DF0
  8
0
 10
196.60499999999999
 20
73.519000000000005
 30
0.0
 70
    32
  0
VERTEX
  5
DF1
  8
0
 10
196.60499999999999
 20
73.517600000000002
 30
0.0
 70
    32
  0
VERTEX
  5
DF2
  8
0
 10
196.60599999999999
 20
73.516099999999994
 30
0.0
 70
    32
  0
VERTEX
  5
DF3
  8
0
 10
196.607
 20
73.514600000000002
 30
0.0
 70
    32
  0
VERTEX
  5
DF4
  8
0
 10
196.607
 20
73.513099999999994
 30
0.0
 70
    32
  0
VERTEX
  5
DF5
  8
0
 10
196.608
 20
73.511600000000001
 30
0.0
 70
    32
  0
VERTEX
  5
DF6
  8
0
 10
196.60900000000001
 20
73.510199999999998
 30
0.0
 70
    32
  0
VERTEX
  5
DF7
  8
0
 10
196.60900000000001
 20
73.508700000000005
 30
0.0
 70
    32
  0
VERTEX
  5
DF8
  8
0
 10
196.61000000000001
 20
73.507199999999983
 30
0.0
 70
    32
  0
VERTEX
  5
DF9
  8
0
 10
196.61099999999999
 20
73.505799999999994
 30
0.0
 70
    32
  0
VERTEX
  5
DFA
  8
0
 10
196.61099999999999
 20
73.504300000000001
 30
0.0
 70
    32
  0
VERTEX
  5
DFB
  8
0
 10
196.61199999999999
 20
73.502799999999993
 30
0.0
 70
    32
  0
VERTEX
  5
DFC
  8
0
 10
196.613
 20
73.501400000000004
 30
0.0
 70
    32
  0
VERTEX
  5
DFD
  8
0
 10
196.614
 20
73.499899999999997
 30
0.0
 70
    32
  0
VERTEX
  5
DFE
  8
0
 10
196.614
 20
73.498400000000004
 30
0.0
 70
    32
  0
VERTEX
  5
DFF
  8
0
 10
196.61500000000001
 20
73.497
 30
0.0
 70
    32
  0
VERTEX
  5
E00
  8
0
 10
196.61600000000001
 20
73.495500000000007
 30
0.0
 70
    32
  0
VERTEX
  5
E01
  8
0
 10
196.61699999999999
 20
73.494100000000003
 30
0.0
 70
    32
  0
VERTEX
  5
E02
  8
0
 10
196.61699999999999
 20
73.492599999999996
 30
0.0
 70
    32
  0
VERTEX
  5
E03
  8
0
 10
196.61799999999999
 20
73.491200000000006
 30
0.0
 70
    32
  0
VERTEX
  5
E04
  8
0
 10
196.619
 20
73.489800000000002
 30
0.0
 70
    32
  0
VERTEX
  5
E05
  8
0
 10
196.62
 20
73.488299999999995
 30
0.0
 70
    32
  0
VERTEX
  5
E06
  8
0
 10
196.62
 20
73.486900000000006
 30
0.0
 70
    32
  0
VERTEX
  5
E07
  8
0
 10
196.62100000000001
 20
73.485500000000002
 30
0.0
 70
    32
  0
VERTEX
  5
E08
  8
0
 10
196.62200000000001
 20
73.483999999999995
 30
0.0
 70
    32
  0
VERTEX
  5
E09
  8
0
 10
196.62299999999999
 20
73.482600000000005
 30
0.0
 70
    32
  0
VERTEX
  5
E0A
  8
0
 10
196.624
 20
73.481200000000001
 30
0.0
 70
    32
  0
SEQEND
  5
E0B
  8
0
  0
POLYLINE
  5
1C8
  8
0
  6
CONTINUOUS
 66
     1
 10
0.0
 20
0.0
 30
0.0
 70
     8
  0
VERTEX
  5
E0C
  8
0
 10
197.374
 20
72.181200000000004
 30
0.0
 70
    32
  0
VERTEX
  5
E0D
  8
0
 10
197.375
 20
72.180199999999999
 30
0.0
 70
    32
  0
VERTEX
  5
E0E
  8
0
 10
197.375
 20
72.179100000000005
 30
0.0
 70
    32
  0
VERTEX
  5
E0F
  8
0
 10
197.376
 20
72.178100000000001
 30
0.0
 70
    32
  0
VERTEX
  5
E10
  8
0
 10
197.37700000000001
 20
72.177000000000007
 30
0.0
 70
    32
  0
VERTEX
  5
E11
  8
0
 10
197.37700000000001
 20
72.176000000000002
 30
0.0
 70
    32
  0
VERTEX
  5
E12
  8
0
 10
197.37799999999999
 20
72.174899999999994
 30
0.0
 70
    32
  0
VERTEX
  5
E13
  8
0
 10
197.37799999999999
 20
72.173900000000003
 30
0.0
 70
    32
  0
VERTEX
  5
E14
  8
0
 10
197.37899999999999
 20
72.172799999999995
 30
0.0
 70
    32
  0
VERTEX
  5
E15
  8
0
 10
197.38
 20
72.171800000000005
 30
0.0
 70
    32
  0
VERTEX
  5
E16
  8
0
 10
197.38
 20
72.170699999999997
 30
0.0
 70
    32
  0
VERTEX
  5
E17
  8
0
 10
197.381
 20
72.169700000000006
 30
0.0
 70
    32
  0
VERTEX
  5
E18
  8
0
 10
197.38200000000001
 20
72.168700000000001
 30
0.0
 70
    32
  0
VERTEX
  5
E19
  8
0
 10
197.38200000000001
 20
72.167599999999993
 30
0.0
 70
    32
  0
VERTEX
  5
E1A
  8
0
 10
197.3829999999999
 20
72.166600000000003
 30
0.0
 70
    32
  0
VERTEX
  5
E1B
  8
0
 10
197.38399999999999
 20
72.165599999999998
 30
0.0
 70
    32
  0
VERTEX
  5
E1C
  8
0
 10
197.38399999999999
 20
72.164599999999993
 30
0.0
 70
    32
  0
VERTEX
  5
E1D
  8
0
 10
197.38499999999999
 20
72.163499999999999
 30
0.0
 70
    32
  0
VERTEX
  5
E1E
  8
0
 10
197.386
 20
72.162499999999994
 30
0.0
 70
    32
  0
VERTEX
  5
E1F
  8
0
 10
197.386
 20
72.161500000000004
 30
0.0
 70
    32
  0
VERTEX
  5
E20
  8
0
 10
197.387
 20
72.160499999999999
 30
0.0
 70
    32
  0
VERTEX
  5
E21
  8
0
 10
197.38800000000001
 20
72.159499999999994
 30
0.0
 70
    32
  0
VERTEX
  5
E22
  8
0
 10
197.38800000000001
 20
72.158500000000004
 30
0.0
 70
    32
  0
VERTEX
  5
E23
  8
0
 10
197.38900000000001
 20
72.157499999999985
 30
0.0
 70
    32
  0
VERTEX
  5
E24
  8
0
 10
197.38999999999999
 20
72.156499999999994
 30
0.0
 70
    32
  0
VERTEX
  5
E25
  8
0
 10
197.39099999999999
 20
72.155500000000004
 30
0.0
 70
    32
  0
VERTEX
  5
E26
  8
0
 10
197.39099999999999
 20
72.154499999999999
 30
0.0
 70
    32
  0
VERTEX
  5
E27
  8
0
 10
197.392
 20
72.153499999999994
 30
0.0
 70
    32
  0
VERTEX
  5
E28
  8
0
 10
197.393
 20
72.152500000000003
 30
0.0
 70
    32
  0
VERTEX
  5
E29
  8
0
 10
197.393
 20
72.151499999999999
 30
0.0
 70
    32
  0
VERTEX
  5
E2A
  8
0
 10
197.39400000000001
 20
72.150499999999994
 30
0.0
 70
    32
  0
VERTEX
  5
E2B
  8
0
 10
197.39500000000001
 20
72.149500000000003
 30
0.0
 70
    32
  0
VERTEX
  5
E2C
  8
0
 10
197.39599999999999
 20
72.148600000000002
 30
0.0
 70
    32
  0
VERTEX
  5
E2D
  8
0
 10
197.39599999999999
 20
72.147599999999997
 30
0.0
 70
    32
  0
VERTEX
  5
E2E
  8
0
 10
197.39699999999999
 20
72.146600000000007
 30
0.0
 70
    32
  0
VERTEX
  5
E2F
  8
0
 10
197.398
 20
72.145700000000005
 30
0.0
 70
    32
  0
VERTEX
  5
E30
  8
0
 10
197.398
 20
72.1447
 30
0.0
 70
    32
  0
VERTEX
  5
E31
  8
0
 10
197.399
 20
72.143799999999999
 30
0.0
 70
    32
  0
VERTEX
  5
E32
  8
0
 10
197.40000000000001
 20
72.142799999999994
 30
0.0
 70
    32
  0
VERTEX
  5
E33
  8
0
 10
197.4009999999999
 20
72.141800000000003
 30
0.0
 70
    32
  0
VERTEX
  5
E34
  8
0
 10
197.4009999999999
 20
72.140900000000002
 30
0.0
 70
    32
  0
VERTEX
  5
E35
  8
0
 10
197.40199999999999
 20
72.140000000000001
 30
0.0
 70
    32
  0
VERTEX
  5
E36
  8
0
 10
197.40299999999999
 20
72.138999999999996
 30
0.0
 70
    32
  0
VERTEX
  5
E37
  8
0
 10
197.404
 20
72.138099999999994
 30
0.0
 70
    32
  0
VERTEX
  5
E38
  8
0
 10
197.404
 20
72.137200000000007
 30
0.0
 70
    32
  0
VERTEX
  5
E39
  8
0
 10
197.405
 20
72.136200000000002
 30
0.0
 70
    32
  0
VERTEX
  5
E3A
  8
0
 10
197.40600000000001
 20
72.135300000000001
 30
0.0
 70
    32
  0
VERTEX
  5
E3B
  8
0
 10
197.40700000000001
 20
72.134399999999999
 30
0.0
 70
    32
  0
VERTEX
  5
E3C
  8
0
 10
197.40700000000001
 20
72.133499999999998
 30
0.0
 70
    32
  0
VERTEX
  5
E3D
  8
0
 10
197.40799999999999
 20
72.132599999999996
 30
0.0
 70
    32
  0
VERTEX
  5
E3E
  8
0
 10
197.40899999999999
 20
72.131600000000006
 30
0.0
 70
    32
  0
VERTEX
  5
E3F
  8
0
 10
197.41
 20
72.130700000000004
 30
0.0
 70
    32
  0
VERTEX
  5
E40
  8
0
 10
197.41099999999989
 20
72.129800000000003
 30
0.0
 70
    32
  0
VERTEX
  5
E41
  8
0
 10
197.41099999999989
 20
72.128900000000002
 30
0.0
 70
    32
  0
VERTEX
  5
E42
  8
0
 10
197.41200000000001
 20
72.128100000000003
 30
0.0
 70
    32
  0
VERTEX
  5
E43
  8
0
 10
197.41300000000001
 20
72.127200000000002
 30
0.0
 70
    32
  0
VERTEX
  5
E44
  8
0
 10
197.41399999999999
 20
72.126300000000001
 30
0.0
 70
    32
  0
VERTEX
  5
E45
  8
0
 10
197.41399999999999
 20
72.125399999999999
 30
0.0
 70
    32
  0
VERTEX
  5
E46
  8
0
 10
197.41499999999999
 20
72.124499999999998
 30
0.0
 70
    32
  0
VERTEX
  5
E47
  8
0
 10
197.416
 20
72.123699999999985
 30
0.0
 70
    32
  0
VERTEX
  5
E48
  8
0
 10
197.417
 20
72.122799999999984
 30
0.0
 70
    32
  0
VERTEX
  5
E49
  8
0
 10
197.41800000000001
 20
72.121899999999997
 30
0.0
 70
    32
  0
VERTEX
  5
E4A
  8
0
 10
197.41800000000001
 20
72.121099999999998
 30
0.0
 70
    32
  0
VERTEX
  5
E4B
  8
0
 10
197.41900000000001
 20
72.120199999999997
 30
0.0
 70
    32
  0
VERTEX
  5
E4C
  8
0
 10
197.41999999999999
 20
72.119399999999999
 30
0.0
 70
    32
  0
VERTEX
  5
E4D
  8
0
 10
197.42099999999999
 20
72.118499999999997
 30
0.0
 70
    32
  0
VERTEX
  5
E4E
  8
0
 10
197.422
 20
72.117699999999999
 30
0.0
 70
    32
  0
VERTEX
  5
E4F
  8
0
 10
197.422
 20
72.116900000000001
 30
0.0
 70
    32
  0
VERTEX
  5
E50
  8
0
 10
197.423
 20
72.116
 30
0.0
 70
    32
  0
VERTEX
  5
E51
  8
0
 10
197.42400000000001
 20
72.115200000000002
 30
0.0
 70
    32
  0
VERTEX
  5
E52
  8
0
 10
197.42500000000001
 20
72.114400000000003
 30
0.0
 70
    32
  0
VERTEX
  5
E53
  8
0
 10
197.42599999999999
 20
72.113600000000005
 30
0.0
 70
    32
  0
VERTEX
  5
E54
  8
0
 10
197.42599999999999
 20
72.112700000000004
 30
0.0
 70
    32
  0
VERTEX
  5
E55
  8
0
 10
197.42699999999999
 20
72.111900000000006
 30
0.0
 70
    32
  0
VERTEX
  5
E56
  8
0
 10
197.428
 20
72.111099999999993
 30
0.0
 70
    32
  0
VERTEX
  5
E57
  8
0
 10
197.429
 20
72.110299999999995
 30
0.0
 70
    32
  0
VERTEX
  5
E58
  8
0
 10
197.43000000000001
 20
72.1096
 30
0.0
 70
    32
  0
VERTEX
  5
E59
  8
0
 10
197.43100000000001
 20
72.108800000000002
 30
0.0
 70
    32
  0
VERTEX
  5
E5A
  8
0
 10
197.43100000000001
 20
72.108000000000004
 30
0.0
 70
    32
  0
VERTEX
  5
E5B
  8
0
 10
197.43199999999999
 20
72.107200000000006
 30
0.0
 70
    32
  0
VERTEX
  5
E5C
  8
0
 10
197.43299999999999
 20
72.106399999999994
 30
0.0
 70
    32
  0
VERTEX
  5
E5D
  8
0
 10
197.434
 20
72.105699999999999
 30
0.0
 70
    32
  0
VERTEX
  5
E5E
  8
0
 10
197.435
 20
72.104900000000001
 30
0.0
 70
    32
  0
VERTEX
  5
E5F
  8
0
 10
197.43600000000001
 20
72.104100000000003
 30
0.0
 70
    32
  0
VERTEX
  5
E60
  8
0
 10
197.43600000000001
 20
72.103399999999993
 30
0.0
 70
    32
  0
VERTEX
  5
E61
  8
0
 10
197.43700000000001
 20
72.102599999999995
 30
0.0
 70
    32
  0
VERTEX
  5
E62
  8
0
 10
197.43799999999999
 20
72.101900000000001
 30
0.0
 70
    32
  0
VERTEX
  5
E63
  8
0
 10
197.43899999999999
 20
72.101200000000006
 30
0.0
 70
    32
  0
VERTEX
  5
E64
  8
0
 10
197.44
 20
72.100399999999993
 30
0.0
 70
    32
  0
VERTEX
  5
E65
  8
0
 10
197.44099999999989
 20
72.099699999999999
 30
0.0
 70
    32
  0
VERTEX
  5
E66
  8
0
 10
197.44099999999989
 20
72.099000000000004
 30
0.0
 70
    32
  0
VERTEX
  5
E67
  8
0
 10
197.44200000000001
 20
72.098299999999995
 30
0.0
 70
    32
  0
VERTEX
  5
E68
  8
0
 10
197.44300000000001
 20
72.0976
 30
0.0
 70
    32
  0
VERTEX
  5
E69
  8
0
 10
197.44399999999999
 20
72.096900000000005
 30
0.0
 70
    32
  0
VERTEX
  5
E6A
  8
0
 10
197.44499999999999
 20
72.096199999999996
 30
0.0
 70
    32
  0
VERTEX
  5
E6B
  8
0
 10
197.446
 20
72.095500000000001
 30
0.0
 70
    32
  0
VERTEX
  5
E6C
  8
0
 10
197.447
 20
72.094800000000006
 30
0.0
 70
    32
  0
VERTEX
  5
E6D
  8
0
 10
197.447
 20
72.094099999999997
 30
0.0
 70
    32
  0
VERTEX
  5
E6E
  8
0
 10
197.44799999999989
 20
72.093400000000003
 30
0.0
 70
    32
  0
VERTEX
  5
E6F
  8
0
 10
197.44900000000001
 20
72.092699999999994
 30
0.0
 70
    32
  0
VERTEX
  5
E70
  8
0
 10
197.44999999999999
 20
72.092100000000002
 30
0.0
 70
    32
  0
VERTEX
  5
E71
  8
0
 10
197.45099999999999
 20
72.091399999999993
 30
0.0
 70
    32
  0
VERTEX
  5
E72
  8
0
 10
197.452
 20
72.090699999999998
 30
0.0
 70
    32
  0
VERTEX
  5
E73
  8
0
 10
197.452
 20
72.090100000000007
 30
0.0
 70
    32
  0
VERTEX
  5
E74
  8
0
 10
197.453
 20
72.089399999999998
 30
0.0
 70
    32
  0
VERTEX
  5
E75
  8
0
 10
197.45400000000001
 20
72.088800000000006
 30
0.0
 70
    32
  0
VERTEX
  5
E76
  8
0
 10
197.45500000000001
 20
72.088200000000001
 30
0.0
 70
    32
  0
VERTEX
  5
E77
  8
0
 10
197.45599999999999
 20
72.087500000000006
 30
0.0
 70
    32
  0
VERTEX
  5
E78
  8
0
 10
197.45699999999999
 20
72.0869
 30
0.0
 70
    32
  0
VERTEX
  5
E79
  8
0
 10
197.458
 20
72.086299999999994
 30
0.0
 70
    32
  0
VERTEX
  5
E7A
  8
0
 10
197.459
 20
72.085700000000003
 30
0.0
 70
    32
  0
VERTEX
  5
E7B
  8
0
 10
197.459
 20
72.085099999999997
 30
0.0
 70
    32
  0
VERTEX
  5
E7C
  8
0
 10
197.46000000000001
 20
72.084500000000006
 30
0.0
 70
    32
  0
VERTEX
  5
E7D
  8
0
 10
197.46100000000001
 20
72.0839
 30
0.0
 70
    32
  0
VERTEX
  5
E7E
  8
0
 10
197.46199999999999
 20
72.083299999999994
 30
0.0
 70
    32
  0
VERTEX
  5
E7F
  8
0
 10
197.46299999999999
 20
72.082700000000003
 30
0.0
 70
    32
  0
VERTEX
  5
E80
  8
0
 10
197.464
 20
72.0822
 30
0.0
 70
    32
  0
VERTEX
  5
E81
  8
0
 10
197.465
 20
72.081599999999995
 30
0.0
 70
    32
  0
VERTEX
  5
E82
  8
0
 10
197.465
 20
72.081000000000003
 30
0.0
 70
    32
  0
VERTEX
  5
E83
  8
0
 10
197.46600000000001
 20
72.080500000000001
 30
0.0
 70
    32
  0
VERTEX
  5
E84
  8
0
 10
197.46700000000001
 20
72.079899999999995
 30
0.0
 70
    32
  0
VERTEX
  5
E85
  8
0
 10
197.46799999999999
 20
72.079400000000007
 30
0.0
 70
    32
  0
VERTEX
  5
E86
  8
0
 10
197.46899999999999
 20
72.078800000000001
 30
0.0
 70
    32
  0
VERTEX
  5
E87
  8
0
 10
197.47
 20
72.078299999999999
 30
0.0
 70
    32
  0
VERTEX
  5
E88
  8
0
 10
197.47099999999989
 20
72.077799999999996
 30
0.0
 70
    32
  0
VERTEX
  5
E89
  8
0
 10
197.47099999999989
 20
72.077200000000005
 30
0.0
 70
    32
  0
VERTEX
  5
E8A
  8
0
 10
197.47200000000001
 20
72.076700000000002
 30
0.0
 70
    32
  0
VERTEX
  5
E8B
  8
0
 10
197.47300000000001
 20
72.0762
 30
0.0
 70
    32
  0
VERTEX
  5
E8C
  8
0
 10
197.47399999999999
 20
72.075699999999998
 30
0.0
 70
    32
  0
SEQEND
  5
E8D
  8
0
  0
LINE
  5
1C9
  8
0
  6
CONTINUOUS
 10
200.97872519469999
 20
70.052522352799997
 30
0.0
 11
197.47409144939999
 21
72.075704349199981
 31
0.0
  0
LINE
  5
1CA
  8
0
  6
CONTINUOUS
 10
196.58699201530001
 20
73.660030204299986
 30
0.0
 11
196.70935093520001
 21
74.116716128700006
 31
0.0
  0
LINE
  5
1CB
  8
0
  6
CONTINUOUS
 10
201.2211538144
 20
70.120826925599985
 30
0.0
 11
201.07870996419999
 21
70.042626942200002
 31
0.0
  0
POLYLINE
  5
1CC
  8
0
  6
CONTINUOUS
 66
     1
 10
0.0
 20
0.0
 30
0.0
 70
     8
  0
VERTEX
  5
E8E
  8
0
 10
200.97900000000001
 20
70.052499999999995
 30
0.0
 70
    32
  0
VERTEX
  5
E8F
  8
0
 10
200.97999999999999
 20
70.052000000000007
 30
0.0
 70
    32
  0
VERTEX
  5
E90
  8
0
 10
200.97999999999999
 20
70.051500000000004
 30
0.0
 70
    32
  0
VERTEX
  5
E91
  8
0
 10
200.98099999999999
 20
70.051000000000002
 30
0.0
 70
    32
  0
VERTEX
  5
E92
  8
0
 10
200.982
 20
70.050600000000003
 30
0.0
 70
    32
  0
VERTEX
  5
E93
  8
0
 10
200.983
 20
70.0501
 30
0.0
 70
    32
  0
VERTEX
  5
E94
  8
0
 10
200.98400000000001
 20
70.049599999999998
 30
0.0
 70
    32
  0
VERTEX
  5
E95
  8
0
 10
200.98500000000001
 20
70.049199999999999
 30
0.0
 70
    32
  0
VERTEX
  5
E96
  8
0
 10
200.98599999999999
 20
70.048699999999997
 30
0.0
 70
    32
  0
VERTEX
  5
E97
  8
0
 10
200.98699999999999
 20
70.048299999999998
 30
0.0
 70
    32
  0
VERTEX
  5
E98
  8
0
 10
200.98699999999999
 20
70.047799999999995
 30
0.0
 70
    32
  0
VERTEX
  5
E99
  8
0
 10
200.988
 20
70.047399999999996
 30
0.0
 70
    32
  0
VERTEX
  5
E9A
  8
0
 10
200.989
 20
70.046999999999997
 30
0.0
 70
    32
  0
VERTEX
  5
E9B
  8
0
 10
200.99000000000001
 20
70.046499999999995
 30
0.0
 70
    32
  0
VERTEX
  5
E9C
  8
0
 10
200.99100000000001
 20
70.046099999999996
 30
0.0
 70
    32
  0
VERTEX
  5
E9D
  8
0
 10
200.99199999999999
 20
70.045699999999997
 30
0.0
 70
    32
  0
VERTEX
  5
E9E
  8
0
 10
200.99299999999999
 20
70.045299999999983
 30
0.0
 70
    32
  0
VERTEX
  5
E9F
  8
0
 10
200.99299999999999
 20
70.044899999999998
 30
0.0
 70
    32
  0
VERTEX
  5
EA0
  8
0
 10
200.994
 20
70.044499999999999
 30
0.0
 70
    32
  0
VERTEX
  5
EA1
  8
0
 10
200.995
 20
70.0441
 30
0.0
 70
    32
  0
VERTEX
  5
EA2
  8
0
 10
200.99600000000001
 20
70.043800000000005
 30
0.0
 70
    32
  0
VERTEX
  5
EA3
  8
0
 10
200.99700000000001
 20
70.043400000000005
 30
0.0
 70
    32
  0
VERTEX
  5
EA4
  8
0
 10
200.99799999999999
 20
70.043000000000006
 30
0.0
 70
    32
  0
VERTEX
  5
EA5
  8
0
 10
200.999
 20
70.042699999999996
 30
0.0
 70
    32
  0
VERTEX
  5
EA6
  8
0
 10
200.999
 20
70.042299999999983
 30
0.0
 70
    32
  0
VERTEX
  5
EA7
  8
0
 10
201.0
 20
70.042000000000002
 30
0.0
 70
    32
  0
VERTEX
  5
EA8
  8
0
 10
201.001
 20
70.041600000000003
 30
0.0
 70
    32
  0
VERTEX
  5
EA9
  8
0
 10
201.00200000000001
 20
70.041300000000007
 30
0.0
 70
    32
  0
VERTEX
  5
EAA
  8
0
 10
201.00299999999999
 20
70.040999999999997
 30
0.0
 70
    32
  0
VERTEX
  5
EAB
  8
0
 10
201.00399999999999
 20
70.040700000000001
 30
0.0
 70
    32
  0
VERTEX
  5
EAC
  8
0
 10
201.005
 20
70.040300000000002
 30
0.0
 70
    32
  0
VERTEX
  5
EAD
  8
0
 10
201.005
 20
70.040000000000006
 30
0.0
 70
    32
  0
VERTEX
  5
EAE
  8
0
 10
201.006
 20
70.039699999999996
 30
0.0
 70
    32
  0
VERTEX
  5
EAF
  8
0
 10
201.00700000000001
 20
70.039400000000001
 30
0.0
 70
    32
  0
VERTEX
  5
EB0
  8
0
 10
201.00800000000001
 20
70.039199999999994
 30
0.0
 70
    32
  0
VERTEX
  5
EB1
  8
0
 10
201.00899999999999
 20
70.038899999999998
 30
0.0
 70
    32
  0
VERTEX
  5
EB2
  8
0
 10
201.00999999999999
 20
70.038600000000002
 30
0.0
 70
    32
  0
VERTEX
  5
EB3
  8
0
 10
201.011
 20
70.038300000000007
 30
0.0
 70
    32
  0
VERTEX
  5
EB4
  8
0
 10
201.011
 20
70.0381
 30
0.0
 70
    32
  0
VERTEX
  5
EB5
  8
0
 10
201.012
 20
70.037800000000004
 30
0.0
 70
    32
  0
VERTEX
  5
EB6
  8
0
 10
201.01300000000001
 20
70.037599999999983
 30
0.0
 70
    32
  0
VERTEX
  5
EB7
  8
0
 10
201.01400000000001
 20
70.037300000000002
 30
0.0
 70
    32
  0
VERTEX
  5
EB8
  8
0
 10
201.01499999999999
 20
70.037099999999995
 30
0.0
 70
    32
  0
VERTEX
  5
EB9
  8
0
 10
201.01599999999999
 20
70.036900000000003
 30
0.0
 70
    32
  0
VERTEX
  5
EBA
  8
0
 10
201.01599999999999
 20
70.036699999999996
 30
0.0
 70
    32
  0
VERTEX
  5
EBB
  8
0
 10
201.017
 20
70.036500000000004
 30
0.0
 70
    32
  0
VERTEX
  5
EBC
  8
0
 10
201.018
 20
70.036199999999994
 30
0.0
 70
    32
  0
VERTEX
  5
EBD
  8
0
 10
201.01900000000001
 20
70.036000000000001
 30
0.0
 70
    32
  0
VERTEX
  5
EBE
  8
0
 10
201.02000000000001
 20
70.035899999999984
 30
0.0
 70
    32
  0
VERTEX
  5
EBF
  8
0
 10
201.02099999999999
 20
70.035700000000006
 30
0.0
 70
    32
  0
VERTEX
  5
EC0
  8
0
 10
201.02099999999999
 20
70.035499999999999
 30
0.0
 70
    32
  0
VERTEX
  5
EC1
  8
0
 10
201.02199999999999
 20
70.035300000000007
 30
0.0
 70
    32
  0
VERTEX
  5
EC2
  8
0
 10
201.023
 20
70.035200000000003
 30
0.0
 70
    32
  0
VERTEX
  5
EC3
  8
0
 10
201.024
 20
70.034999999999997
 30
0.0
 70
    32
  0
VERTEX
  5
EC4
  8
0
 10
201.02500000000001
 20
70.034800000000004
 30
0.0
 70
    32
  0
VERTEX
  5
EC5
  8
0
 10
201.02600000000001
 20
70.034700000000001
 30
0.0
 70
    32
  0
VERTEX
  5
EC6
  8
0
 10
201.02600000000001
 20
70.034599999999998
 30
0.0
 70
    32
  0
VERTEX
  5
EC7
  8
0
 10
201.02699999999999
 20
70.034400000000005
 30
0.0
 70
    32
  0
VERTEX
  5
EC8
  8
0
 10
201.02799999999999
 20
70.034300000000002
 30
0.0
 70
    32
  0
VERTEX
  5
EC9
  8
0
 10
201.029
 20
70.034199999999998
 30
0.0
 70
    32
  0
VERTEX
  5
ECA
  8
0
 10
201.03
 20
70.034099999999995
 30
0.0
 70
    32
  0
VERTEX
  5
ECB
  8
0
 10
201.03
 20
70.034000000000006
 30
0.0
 70
    32
  0
VERTEX
  5
ECC
  8
0
 10
201.03100000000001
 20
70.033900000000003
 30
0.0
 70
    32
  0
VERTEX
  5
ECD
  8
0
 10
201.03200000000001
 20
70.033799999999985
 30
0.0
 70
    32
  0
VERTEX
  5
ECE
  8
0
 10
201.03299999999999
 20
70.033699999999996
 30
0.0
 70
    32
  0
VERTEX
  5
ECF
  8
0
 10
201.03399999999999
 20
70.033600000000007
 30
0.0
 70
    32
  0
VERTEX
  5
ED0
  8
0
 10
201.03399999999999
 20
70.033600000000007
 30
0.0
 70
    32
  0
VERTEX
  5
ED1
  8
0
 10
201.035
 20
70.033500000000004
 30
0.0
 70
    32
  0
VERTEX
  5
ED2
  8
0
 10
201.036
 20
70.033500000000004
 30
0.0
 70
    32
  0
VERTEX
  5
ED3
  8
0
 10
201.03700000000001
 20
70.0334
 30
0.0
 70
    32
  0
VERTEX
  5
ED4
  8
0
 10
201.03800000000001
 20
70.0334
 30
0.0
 70
    32
  0
VERTEX
  5
ED5
  8
0
 10
201.03800000000001
 20
70.033299999999997
 30
0.0
 70
    32
  0
VERTEX
  5
ED6
  8
0
 10
201.03899999999999
 20
70.033299999999997
 30
0.0
 70
    32
  0
VERTEX
  5
ED7
  8
0
 10
201.03999999999999
 20
70.033299999999997
 30
0.0
 70
    32
  0
VERTEX
  5
ED8
  8
0
 10
201.041
 20
70.033299999999997
 30
0.0
 70
    32
  0
VERTEX
  5
ED9
  8
0
 10
201.042
 20
70.033299999999997
 30
0.0
 70
    32
  0
VERTEX
  5
EDA
  8
0
 10
201.042
 20
70.033299999999997
 30
0.0
 70
    32
  0
VERTEX
  5
EDB
  8
0
 10
201.04300000000001
 20
70.033299999999997
 30
0.0
 70
    32
  0
VERTEX
  5
EDC
  8
0
 10
201.04400000000001
 20
70.033299999999997
 30
0.0
 70
    32
  0
VERTEX
  5
EDD
  8
0
 10
201.04499999999999
 20
70.033299999999997
 30
0.0
 70
    32
  0
VERTEX
  5
EDE
  8
0
 10
201.04499999999999
 20
70.033299999999997
 30
0.0
 70
    32
  0
VERTEX
  5
EDF
  8
0
 10
201.04599999999999
 20
70.0334
 30
0.0
 70
    32
  0
VERTEX
  5
EE0
  8
0
 10
201.047
 20
70.0334
 30
0.0
 70
    32
  0
VERTEX
  5
EE1
  8
0
 10
201.048
 20
70.0334
 30
0.0
 70
    32
  0
VERTEX
  5
EE2
  8
0
 10
201.048
 20
70.033500000000004
 30
0.0
 70
    32
  0
VERTEX
  5
EE3
  8
0
 10
201.04900000000001
 20
70.033600000000007
 30
0.0
 70
    32
  0
VERTEX
  5
EE4
  8
0
 10
201.05000000000001
 20
70.033600000000007
 30
0.0
 70
    32
  0
VERTEX
  5
EE5
  8
0
 10
201.05099999999999
 20
70.033699999999996
 30
0.0
 70
    32
  0
VERTEX
  5
EE6
  8
0
 10
201.05099999999999
 20
70.033799999999985
 30
0.0
 70
    32
  0
VERTEX
  5
EE7
  8
0
 10
201.05199999999999
 20
70.033900000000003
 30
0.0
 70
    32
  0
VERTEX
  5
EE8
  8
0
 10
201.053
 20
70.034000000000006
 30
0.0
 70
    32
  0
VERTEX
  5
EE9
  8
0
 10
201.054
 20
70.034099999999995
 30
0.0
 70
    32
  0
VERTEX
  5
EEA
  8
0
 10
201.054
 20
70.034199999999998
 30
0.0
 70
    32
  0
VERTEX
  5
EEB
  8
0
 10
201.05500000000001
 20
70.034300000000002
 30
0.0
 70
    32
  0
VERTEX
  5
EEC
  8
0
 10
201.05600000000001
 20
70.034400000000005
 30
0.0
 70
    32
  0
VERTEX
  5
EED
  8
0
 10
201.05699999999999
 20
70.034599999999998
 30
0.0
 70
    32
  0
VERTEX
  5
EEE
  8
0
 10
201.05699999999999
 20
70.034700000000001
 30
0.0
 70
    32
  0
VERTEX
  5
EEF
  8
0
 10
201.05799999999999
 20
70.034800000000004
 30
0.0
 70
    32
  0
VERTEX
  5
EF0
  8
0
 10
201.059
 20
70.034999999999997
 30
0.0
 70
    32
  0
VERTEX
  5
EF1
  8
0
 10
201.059
 20
70.0351
 30
0.0
 70
    32
  0
VERTEX
  5
EF2
  8
0
 10
201.06
 20
70.035300000000007
 30
0.0
 70
    32
  0
VERTEX
  5
EF3
  8
0
 10
201.06100000000001
 20
70.035499999999999
 30
0.0
 70
    32
  0
VERTEX
  5
EF4
  8
0
 10
201.06200000000001
 20
70.035700000000006
 30
0.0
 70
    32
  0
VERTEX
  5
EF5
  8
0
 10
201.06200000000001
 20
70.035799999999995
 30
0.0
 70
    32
  0
VERTEX
  5
EF6
  8
0
 10
201.06299999999999
 20
70.036000000000001
 30
0.0
 70
    32
  0
VERTEX
  5
EF7
  8
0
 10
201.06399999999999
 20
70.036199999999994
 30
0.0
 70
    32
  0
VERTEX
  5
EF8
  8
0
 10
201.06399999999999
 20
70.0364
 30
0.0
 70
    32
  0
VERTEX
  5
EF9
  8
0
 10
201.065
 20
70.036600000000007
 30
0.0
 70
    32
  0
VERTEX
  5
EFA
  8
0
 10
201.066
 20
70.036900000000003
 30
0.0
 70
    32
  0
VERTEX
  5
EFB
  8
0
 10
201.066
 20
70.037099999999995
 30
0.0
 70
    32
  0
VERTEX
  5
EFC
  8
0
 10
201.06700000000001
 20
70.037300000000002
 30
0.0
 70
    32
  0
VERTEX
  5
EFD
  8
0
 10
201.06800000000001
 20
70.037599999999983
 30
0.0
 70
    32
  0
VERTEX
  5
EFE
  8
0
 10
201.06800000000001
 20
70.037800000000004
 30
0.0
 70
    32
  0
VERTEX
  5
EFF
  8
0
 10
201.06899999999999
 20
70.0381
 30
0.0
 70
    32
  0
VERTEX
  5
F00
  8
0
 10
201.06999999999999
 20
70.038300000000007
 30
0.0
 70
    32
  0
VERTEX
  5
F01
  8
0
 10
201.06999999999999
 20
70.038600000000002
 30
0.0
 70
    32
  0
VERTEX
  5
F02
  8
0
 10
201.071
 20
70.038799999999995
 30
0.0
 70
    32
  0
VERTEX
  5
F03
  8
0
 10
201.072
 20
70.039100000000005
 30
0.0
 70
    32
  0
VERTEX
  5
F04
  8
0
 10
201.072
 20
70.039400000000001
 30
0.0
 70
    32
  0
VERTEX
  5
F05
  8
0
 10
201.07300000000001
 20
70.039699999999996
 30
0.0
 70
    32
  0
VERTEX
  5
F06
  8
0
 10
201.07400000000001
 20
70.040000000000006
 30
0.0
 70
    32
  0
VERTEX
  5
F07
  8
0
 10
201.07400000000001
 20
70.040300000000002
 30
0.0
 70
    32
  0
VERTEX
  5
F08
  8
0
 10
201.07499999999999
 20
70.040599999999984
 30
0.0
 70
    32
  0
VERTEX
  5
F09
  8
0
 10
201.07599999999999
 20
70.040899999999993
 30
0.0
 70
    32
  0
VERTEX
  5
F0A
  8
0
 10
201.07599999999999
 20
70.041300000000007
 30
0.0
 70
    32
  0
VERTEX
  5
F0B
  8
0
 10
201.077
 20
70.041600000000003
 30
0.0
 70
    32
  0
VERTEX
  5
F0C
  8
0
 10
201.077
 20
70.041899999999998
 30
0.0
 70
    32
  0
VERTEX
  5
F0D
  8
0
 10
201.078
 20
70.042299999999983
 30
0.0
 70
    32
  0
VERTEX
  5
F0E
  8
0
 10
201.07900000000001
 20
70.042599999999993
 30
0.0
 70
    32
  0
SEQEND
  5
F0F
  8
0
  0
LINE
  5
1CD
  8
0
  6
CONTINUOUS
 10
197.52328603000001
 20
72.280064067799998
 30
0.0
 11
196.78592610940001
 21
73.55720891
 31
0.0
  0
ARC
  5
1CE
  8
0
  6
CONTINUOUS
 10
196.99696593019999
 20
73.693575350299994
 30
0.0
 40
0.2512640283940912
 50
170.26020574570001
 51
212.86910956450001
  0
ARC
  5
1CF
  8
0
  6
CONTINUOUS
 10
197.775987319
 20
72.419307334300001
 30
0.0
 40
0.2885249187092405
 50
208.85560887919999
 51
238.0453283505
  0
LINE
  5
1D0
  8
0
  6
CONTINUOUS
 10
201.11237332659999
 20
70.160296220600003
 30
0.0
 11
197.62328603
 21
72.174503443299983
 31
0.0
  0
LINE
  5
1D1
  8
0
  6
CONTINUOUS
 10
196.7493235691
 20
73.736082678499983
 30
0.0
 11
196.87727970169999
 21
74.213659342100001
 31
0.0
  0
POLYLINE
  5
1D2
  8
0
  6
CONTINUOUS
 66
     1
 10
0.0
 20
0.0
 30
0.0
 70
   128
  0
VERTEX
  5
1395
  8
0
  6
CONTINUOUS
 10
240.74112709880001
 20
99.535719449300004
 30
0.0
  0
VERTEX
  5
1396
  8
0
  6
CONTINUOUS
 10
240.7419242192
 20
99.524669471399989
 30
0.0
  0
VERTEX
  5
1397
  8
0
  6
CONTINUOUS
 10
240.7531931659
 20
99.508695632199988
 30
0.0
  0
VERTEX
  5
1398
  8
0
  6
CONTINUOUS
 10
240.77596073980001
 20
99.506818909200021
 30
0.0
  0
VERTEX
  5
1399
  8
0
  6
CONTINUOUS
 10
240.8067607843
 20
99.519325016299987
 30
0.0
  0
VERTEX
  5
139A
  8
0
  6
CONTINUOUS
 10
240.84090427180001
 20
99.544310012199986
 30
0.0
  0
VERTEX
  5
139B
  8
0
  6
CONTINUOUS
 10
240.87319316590001
 20
99.577970157700008
 30
0.0
  0
VERTEX
  5
139C
  8
0
  6
CONTINUOUS
 10
240.89871177500001
 20
99.615181000799993
 30
0.0
  0
VERTEX
  5
139D
  8
0
  6
CONTINUOUS
 10
240.906805206
 20
99.631363384699995
 30
0.0
  0
SEQEND
  5
139E
  8
0
  6
CONTINUOUS
  0
POLYLINE
  5
1D3
  8
0
  6
CONTINUOUS
 66
     1
 10
0.0
 20
0.0
 30
0.0
 70
   128
  0
VERTEX
  5
139F
  8
0
  6
CONTINUOUS
 10
283.6927870633001
 20
124.2769010073
 30
0.0
  0
VERTEX
  5
13A0
  8
0
  6
CONTINUOUS
 10
283.6619870188
 20
124.2643949002
 30
0.0
  0
VERTEX
  5
13A1
  8
0
  6
CONTINUOUS
 10
283.63921944480001
 20
124.2662716233
 30
0.0
  0
VERTEX
  5
13A2
  8
0
  6
CONTINUOUS
 10
283.62795049819999
 20
124.2822454625
 30
0.0
  0
VERTEX
  5
13A3
  8
0
  6
CONTINUOUS
 10
283.62715337779991
 20
124.2932954403
 30
0.0
  0
SEQEND
  5
13A4
  8
0
  6
CONTINUOUS
  0
LINE
  5
1D4
  8
0
  6
CONTINUOUS
 10
283.94734550449999
 20
124.42385446750001
 30
0.0
 11
283.6927870633001
 21
124.2769010073
 31
0.0
  0
ARC
  5
1D5
  8
0
  6
CONTINUOUS
 10
283.81129505230001
 20
124.64602683850001
 30
0.0
 40
0.2605192661567998
 50
301.4818195501
 51
334.9917968547
  0
ARC
  5
1D6
  8
0
  6
CONTINUOUS
 10
197.78468405309999
 20
74.983921396400007
 30
0.0
 40
0.2605192661575159
 50
301.48181955019999
 51
334.99179685460001
  0
POLYLINE
  5
1D7
  8
0
  6
CONTINUOUS
 66
     1
 10
0.0
 20
0.0
 30
0.0
 70
   128
  0
VERTEX
  5
13A5
  8
0
  6
CONTINUOUS
 10
197.6005423787
 20
74.631189998099984
 30
0.0
  0
VERTEX
  5
13A6
  8
0
  6
CONTINUOUS
 10
197.60133949900001
 20
74.620140020299999
 30
0.0
  0
VERTEX
  5
13A7
  8
0
  6
CONTINUOUS
 10
197.6126084457
 20
74.604166181099998
 30
0.0
  0
VERTEX
  5
13A8
  8
0
  6
CONTINUOUS
 10
197.63537601959999
 20
74.602289458000001
 30
0.0
  0
VERTEX
  5
13A9
  8
0
  6
CONTINUOUS
 10
197.66617606419999
 20
74.614795565099982
 30
0.0
  0
SEQEND
  5
13AA
  8
0
  6
CONTINUOUS
  0
LINE
  5
1D8
  8
0
  6
CONTINUOUS
 10
197.66617606419999
 20
74.614795565099982
 30
0.0
 11
197.92073450539999
 21
74.761749025299991
 31
0.0
  0
LINE
  5
1D9
  8
0
  6
CONTINUOUS
 10
283.79476619140002
 20
124.3893584092
 30
0.0
 11
284.04697453080001
 21
124.5349551844
 31
0.0
  0
ARC
  5
1DA
  8
0
  6
CONTINUOUS
 10
283.93111581570002
 20
124.16686626809999
 30
0.0
 40
0.2609482187308008
 50
121.5011728546999
 51
154.73080295529999
  0
LINE
  5
1DB
  8
0
  6
CONTINUOUS
 10
289.04684014140008
 20
120.85615769250001
 30
0.0
 11
201.21237332659999
 21
70.150399302700009
 31
0.0
  0
ARC
  5
1DC
  8
0
  6
CONTINUOUS
 10
201.1709560452
 20
70.242068888299997
 30
0.0
 40
0.100591769556411
 50
234.38182734009999
 51
294.31395216139998
  0
ARC
  5
1DD
  8
0
  6
CONTINUOUS
 10
241.0458624913
 20
99.408753636200004
 30
0.0
 40
0.2618771820835405
 50
122.1846567794
 51
154.68817873309999
  0
LINE
  5
1DE
  8
0
  6
CONTINUOUS
 10
198.0203635316
 20
74.872849742200003
 30
0.0
 11
197.76815519229999
 21
74.727252966999998
 31
0.0
  0
ARC
  5
1DF
  8
0
  6
CONTINUOUS
 10
197.90450481650001
 20
74.504760825899979
 30
0.0
 40
0.260948218729769
 50
121.5011728546
 51
154.73080295540001
  0
ARC
  5
1E0
  8
0
  6
CONTINUOUS
 10
241.10785816820001
 20
99.343596382299992
 30
0.0
 40
0.3463717851575502
 50
126.3216995638
 51
149.0484693587
  0
ARC
  5
1E1
  8
0
  6
CONTINUOUS
 10
198.0716799633
 20
74.511205470100009
 30
0.0
 40
0.3353764349505016
 50
121.8519644651
 51
149.3049654516
  0
POLYLINE
  5
1E2
  8
0
  6
CONTINUOUS
 66
     1
 10
0.0
 20
0.0
 30
0.0
 70
   128
  0
VERTEX
  5
13AB
  8
0
  6
CONTINUOUS
 10
197.9705210525
 20
74.801681456400004
 30
0.0
  0
VERTEX
  5
13AC
  8
0
  6
CONTINUOUS
 10
197.9616524912
 20
74.809365780299999
 30
0.0
  0
VERTEX
  5
13AD
  8
0
  6
CONTINUOUS
 10
197.93319302379999
 20
74.811711684100004
 30
0.0
  0
VERTEX
  5
13AE
  8
0
  6
CONTINUOUS
 10
197.8946929681
 20
74.796079050200007
 30
0.0
  0
SEQEND
  5
13AF
  8
0
  6
CONTINUOUS
  0
ARC
  5
1E3
  8
0
  6
CONTINUOUS
 10
284.12657523370001
 20
124.18963907449999
 30
0.0
 40
0.3353764349510828
 50
121.8519644651
 51
149.3049654516
  0
POLYLINE
  5
1E4
  8
0
  6
CONTINUOUS
 66
     1
 10
0.0
 20
0.0
 30
0.0
 70
   128
  0
VERTEX
  5
13B0
  8
0
  6
CONTINUOUS
 10
284.0175619739
 20
124.4872390824
 30
0.0
  0
VERTEX
  5
13B1
  8
0
  6
CONTINUOUS
 10
284.01654776160001
 20
124.4877993847
 30
0.0
  0
VERTEX
  5
13B2
  8
0
  6
CONTINUOUS
 10
283.9880882942
 20
124.4901452885
 30
0.0
  0
VERTEX
  5
13B3
  8
0
  6
CONTINUOUS
 10
283.94958823849998
 20
124.47451265460001
 30
0.0
  0
SEQEND
  5
13B4
  8
0
  6
CONTINUOUS
  0
POLYLINE
  5
F10
  8
0
 66
     1
 10
0.0
 20
0.0
 30
0.0
 70
     8
  0
VERTEX
  5
F11
  8
0
 10
284.92399999999998
 20
125.123
 30
0.0
 70
    32
  0
VERTEX
  5
F12
  8
0
 10
284.92399999999998
 20
125.123
 30
0.0
 70
    32
  0
VERTEX
  5
F13
  8
0
 10
284.92399999999998
 20
125.122
 30
0.0
 70
    32
  0
VERTEX
  5
F14
  8
0
 10
284.92399999999998
 20
125.122
 30
0.0
 70
    32
  0
VERTEX
  5
F15
  8
0
 10
284.92399999999998
 20
125.122
 30
0.0
 70
    32
  0
VERTEX
  5
F16
  8
0
 10
284.92399999999998
 20
125.122
 30
0.0
 70
    32
  0
VERTEX
  5
F17
  8
0
 10
284.923
 20
125.122
 30
0.0
 70
    32
  0
VERTEX
  5
F18
  8
0
 10
284.923
 20
125.122
 30
0.0
 70
    32
  0
VERTEX
  5
F19
  8
0
 10
284.923
 20
125.122
 30
0.0
 70
    32
  0
VERTEX
  5
F1A
  8
0
 10
284.923
 20
125.122
 30
0.0
 70
    32
  0
VERTEX
  5
F1B
  8
0
 10
284.923
 20
125.121
 30
0.0
 70
    32
  0
VERTEX
  5
F1C
  8
0
 10
284.923
 20
125.121
 30
0.0
 70
    32
  0
VERTEX
  5
F1D
  8
0
 10
284.923
 20
125.121
 30
0.0
 70
    32
  0
VERTEX
  5
F1E
  8
0
 10
284.923
 20
125.121
 30
0.0
 70
    32
  0
VERTEX
  5
F1F
  8
0
 10
284.92200000000003
 20
125.121
 30
0.0
 70
    32
  0
VERTEX
  5
F20
  8
0
 10
284.92200000000003
 20
125.121
 30
0.0
 70
    32
  0
VERTEX
  5
F21
  8
0
 10
284.92200000000003
 20
125.121
 30
0.0
 70
    32
  0
VERTEX
  5
F22
  8
0
 10
284.92200000000003
 20
125.12
 30
0.0
 70
    32
  0
VERTEX
  5
F23
  8
0
 10
284.92200000000003
 20
125.12
 30
0.0
 70
    32
  0
VERTEX
  5
F24
  8
0
 10
284.92200000000003
 20
125.12
 30
0.0
 70
    32
  0
VERTEX
  5
F25
  8
0
 10
284.92200000000003
 20
125.12
 30
0.0
 70
    32
  0
VERTEX
  5
F26
  8
0
 10
284.92099999999999
 20
125.12
 30
0.0
 70
    32
  0
VERTEX
  5
F27
  8
0
 10
284.92099999999999
 20
125.12
 30
0.0
 70
    32
  0
VERTEX
  5
F28
  8
0
 10
284.92099999999999
 20
125.12
 30
0.0
 70
    32
  0
VERTEX
  5
F29
  8
0
 10
284.92099999999999
 20
125.119
 30
0.0
 70
    32
  0
VERTEX
  5
F2A
  8
0
 10
284.92099999999999
 20
125.119
 30
0.0
 70
    32
  0
VERTEX
  5
F2B
  8
0
 10
284.92099999999999
 20
125.119
 30
0.0
 70
    32
  0
VERTEX
  5
F2C
  8
0
 10
284.92099999999999
 20
125.119
 30
0.0
 70
    32
  0
VERTEX
  5
F2D
  8
0
 10
284.92099999999999
 20
125.119
 30
0.0
 70
    32
  0
VERTEX
  5
F2E
  8
0
 10
284.92000000000002
 20
125.119
 30
0.0
 70
    32
  0
VERTEX
  5
F2F
  8
0
 10
284.92000000000002
 20
125.119
 30
0.0
 70
    32
  0
VERTEX
  5
F30
  8
0
 10
284.92000000000002
 20
125.119
 30
0.0
 70
    32
  0
VERTEX
  5
F31
  8
0
 10
284.92000000000002
 20
125.11799999999999
 30
0.0
 70
    32
  0
VERTEX
  5
F32
  8
0
 10
284.92000000000002
 20
125.11799999999999
 30
0.0
 70
    32
  0
VERTEX
  5
F33
  8
0
 10
284.92000000000002
 20
125.11799999999999
 30
0.0
 70
    32
  0
VERTEX
  5
F34
  8
0
 10
284.92000000000002
 20
125.11799999999999
 30
0.0
 70
    32
  0
VERTEX
  5
F35
  8
0
 10
284.92000000000002
 20
125.11799999999999
 30
0.0
 70
    32
  0
VERTEX
  5
F36
  8
0
 10
284.91899999999998
 20
125.11799999999999
 30
0.0
 70
    32
  0
VERTEX
  5
F37
  8
0
 10
284.91899999999998
 20
125.11799999999999
 30
0.0
 70
    32
  0
VERTEX
  5
F38
  8
0
 10
284.91899999999998
 20
125.117
 30
0.0
 70
    32
  0
VERTEX
  5
F39
  8
0
 10
284.91899999999998
 20
125.117
 30
0.0
 70
    32
  0
VERTEX
  5
F3A
  8
0
 10
284.91899999999998
 20
125.117
 30
0.0
 70
    32
  0
VERTEX
  5
F3B
  8
0
 10
284.91899999999998
 20
125.117
 30
0.0
 70
    32
  0
VERTEX
  5
F3C
  8
0
 10
284.91899999999998
 20
125.117
 30
0.0
 70
    32
  0
VERTEX
  5
F3D
  8
0
 10
284.91800000000001
 20
125.117
 30
0.0
 70
    32
  0
VERTEX
  5
F3E
  8
0
 10
284.91800000000001
 20
125.117
 30
0.0
 70
    32
  0
VERTEX
  5
F3F
  8
0
 10
284.91800000000001
 20
125.116
 30
0.0
 70
    32
  0
VERTEX
  5
F40
  8
0
 10
284.91800000000001
 20
125.116
 30
0.0
 70
    32
  0
VERTEX
  5
F41
  8
0
 10
284.91800000000001
 20
125.116
 30
0.0
 70
    32
  0
VERTEX
  5
F42
  8
0
 10
284.91800000000001
 20
125.116
 30
0.0
 70
    32
  0
VERTEX
  5
F43
  8
0
 10
284.91800000000001
 20
125.116
 30
0.0
 70
    32
  0
VERTEX
  5
F44
  8
0
 10
284.91800000000001
 20
125.116
 30
0.0
 70
    32
  0
VERTEX
  5
F45
  8
0
 10
284.91699999999997
 20
125.116
 30
0.0
 70
    32
  0
VERTEX
  5
F46
  8
0
 10
284.91699999999997
 20
125.11499999999999
 30
0.0
 70
    32
  0
VERTEX
  5
F47
  8
0
 10
284.91699999999997
 20
125.11499999999999
 30
0.0
 70
    32
  0
VERTEX
  5
F48
  8
0
 10
284.91699999999997
 20
125.11499999999999
 30
0.0
 70
    32
  0
VERTEX
  5
F49
  8
0
 10
284.91699999999997
 20
125.11499999999999
 30
0.0
 70
    32
  0
VERTEX
  5
F4A
  8
0
 10
284.91699999999997
 20
125.11499999999999
 30
0.0
 70
    32
  0
VERTEX
  5
F4B
  8
0
 10
284.91699999999997
 20
125.11499999999999
 30
0.0
 70
    32
  0
VERTEX
  5
F4C
  8
0
 10
284.916
 20
125.11499999999999
 30
0.0
 70
    32
  0
VERTEX
  5
F4D
  8
0
 10
284.916
 20
125.114
 30
0.0
 70
    32
  0
VERTEX
  5
F4E
  8
0
 10
284.916
 20
125.114
 30
0.0
 70
    32
  0
VERTEX
  5
F4F
  8
0
 10
284.916
 20
125.114
 30
0.0
 70
    32
  0
VERTEX
  5
F50
  8
0
 10
284.916
 20
125.114
 30
0.0
 70
    32
  0
VERTEX
  5
F51
  8
0
 10
284.916
 20
125.114
 30
0.0
 70
    32
  0
VERTEX
  5
F52
  8
0
 10
284.916
 20
125.114
 30
0.0
 70
    32
  0
VERTEX
  5
F53
  8
0
 10
284.91500000000002
 20
125.114
 30
0.0
 70
    32
  0
VERTEX
  5
F54
  8
0
 10
284.91500000000002
 20
125.113
 30
0.0
 70
    32
  0
VERTEX
  5
F55
  8
0
 10
284.91500000000002
 20
125.113
 30
0.0
 70
    32
  0
VERTEX
  5
F56
  8
0
 10
284.91500000000002
 20
125.113
 30
0.0
 70
    32
  0
VERTEX
  5
F57
  8
0
 10
284.91500000000002
 20
125.113
 30
0.0
 70
    32
  0
VERTEX
  5
F58
  8
0
 10
284.91500000000002
 20
125.113
 30
0.0
 70
    32
  0
VERTEX
  5
F59
  8
0
 10
284.91500000000002
 20
125.113
 30
0.0
 70
    32
  0
VERTEX
  5
F5A
  8
0
 10
284.91399999999999
 20
125.11199999999999
 30
0.0
 70
    32
  0
VERTEX
  5
F5B
  8
0
 10
284.91399999999999
 20
125.11199999999999
 30
0.0
 70
    32
  0
VERTEX
  5
F5C
  8
0
 10
284.91399999999999
 20
125.11199999999999
 30
0.0
 70
    32
  0
VERTEX
  5
F5D
  8
0
 10
284.91399999999999
 20
125.11199999999999
 30
0.0
 70
    32
  0
VERTEX
  5
F5E
  8
0
 10
284.91399999999999
 20
125.11199999999999
 30
0.0
 70
    32
  0
VERTEX
  5
F5F
  8
0
 10
284.91399999999999
 20
125.11199999999999
 30
0.0
 70
    32
  0
VERTEX
  5
F60
  8
0
 10
284.91300000000001
 20
125.11199999999999
 30
0.0
 70
    32
  0
VERTEX
  5
F61
  8
0
 10
284.91300000000001
 20
125.111
 30
0.0
 70
    32
  0
VERTEX
  5
F62
  8
0
 10
284.91300000000001
 20
125.111
 30
0.0
 70
    32
  0
VERTEX
  5
F63
  8
0
 10
284.91300000000001
 20
125.111
 30
0.0
 70
    32
  0
VERTEX
  5
F64
  8
0
 10
284.91300000000001
 20
125.111
 30
0.0
 70
    32
  0
VERTEX
  5
F65
  8
0
 10
284.91300000000001
 20
125.111
 30
0.0
 70
    32
  0
VERTEX
  5
F66
  8
0
 10
284.91300000000001
 20
125.111
 30
0.0
 70
    32
  0
VERTEX
  5
F67
  8
0
 10
284.91199999999998
 20
125.111
 30
0.0
 70
    32
  0
VERTEX
  5
F68
  8
0
 10
284.91199999999998
 20
125.11
 30
0.0
 70
    32
  0
VERTEX
  5
F69
  8
0
 10
284.91199999999998
 20
125.11
 30
0.0
 70
    32
  0
VERTEX
  5
F6A
  8
0
 10
284.91199999999998
 20
125.11
 30
0.0
 70
    32
  0
VERTEX
  5
F6B
  8
0
 10
284.91199999999998
 20
125.11
 30
0.0
 70
    32
  0
VERTEX
  5
F6C
  8
0
 10
284.91199999999998
 20
125.11
 30
0.0
 70
    32
  0
VERTEX
  5
F6D
  8
0
 10
284.911
 20
125.11
 30
0.0
 70
    32
  0
VERTEX
  5
F6E
  8
0
 10
284.911
 20
125.10899999999999
 30
0.0
 70
    32
  0
VERTEX
  5
F6F
  8
0
 10
284.911
 20
125.10899999999999
 30
0.0
 70
    32
  0
VERTEX
  5
F70
  8
0
 10
284.911
 20
125.10899999999999
 30
0.0
 70
    32
  0
VERTEX
  5
F71
  8
0
 10
284.911
 20
125.10899999999999
 30
0.0
 70
    32
  0
VERTEX
  5
F72
  8
0
 10
284.911
 20
125.10899999999999
 30
0.0
 70
    32
  0
VERTEX
  5
F73
  8
0
 10
284.91000000000003
 20
125.10899999999999
 30
0.0
 70
    32
  0
VERTEX
  5
F74
  8
0
 10
284.91000000000003
 20
125.108
 30
0.0
 70
    32
  0
VERTEX
  5
F75
  8
0
 10
284.91000000000003
 20
125.108
 30
0.0
 70
    32
  0
VERTEX
  5
F76
  8
0
 10
284.91000000000003
 20
125.108
 30
0.0
 70
    32
  0
VERTEX
  5
F77
  8
0
 10
284.91000000000003
 20
125.108
 30
0.0
 70
    32
  0
VERTEX
  5
F78
  8
0
 10
284.91000000000003
 20
125.108
 30
0.0
 70
    32
  0
VERTEX
  5
F79
  8
0
 10
284.90899999999999
 20
125.108
 30
0.0
 70
    32
  0
VERTEX
  5
F7A
  8
0
 10
284.90899999999999
 20
125.108
 30
0.0
 70
    32
  0
VERTEX
  5
F7B
  8
0
 10
284.90899999999999
 20
125.107
 30
0.0
 70
    32
  0
VERTEX
  5
F7C
  8
0
 10
284.90899999999999
 20
125.107
 30
0.0
 70
    32
  0
VERTEX
  5
F7D
  8
0
 10
284.90899999999999
 20
125.107
 30
0.0
 70
    32
  0
VERTEX
  5
F7E
  8
0
 10
284.90899999999999
 20
125.107
 30
0.0
 70
    32
  0
VERTEX
  5
F7F
  8
0
 10
284.90800000000002
 20
125.107
 30
0.0
 70
    32
  0
VERTEX
  5
F80
  8
0
 10
284.90800000000002
 20
125.107
 30
0.0
 70
    32
  0
VERTEX
  5
F81
  8
0
 10
284.90800000000002
 20
125.10599999999999
 30
0.0
 70
    32
  0
VERTEX
  5
F82
  8
0
 10
284.90800000000002
 20
125.10599999999999
 30
0.0
 70
    32
  0
VERTEX
  5
F83
  8
0
 10
284.90800000000002
 20
125.10599999999999
 30
0.0
 70
    32
  0
VERTEX
  5
F84
  8
0
 10
284.90699999999998
 20
125.10599999999999
 30
0.0
 70
    32
  0
VERTEX
  5
F85
  8
0
 10
284.90699999999998
 20
125.10599999999999
 30
0.0
 70
    32
  0
VERTEX
  5
F86
  8
0
 10
284.90699999999998
 20
125.10599999999999
 30
0.0
 70
    32
  0
VERTEX
  5
F87
  8
0
 10
284.90699999999998
 20
125.105
 30
0.0
 70
    32
  0
VERTEX
  5
F88
  8
0
 10
284.90699999999998
 20
125.105
 30
0.0
 70
    32
  0
VERTEX
  5
F89
  8
0
 10
284.90699999999998
 20
125.105
 30
0.0
 70
    32
  0
VERTEX
  5
F8A
  8
0
 10
284.90600000000001
 20
125.105
 30
0.0
 70
    32
  0
VERTEX
  5
F8B
  8
0
 10
284.90600000000001
 20
125.105
 30
0.0
 70
    32
  0
VERTEX
  5
F8C
  8
0
 10
284.90600000000001
 20
125.105
 30
0.0
 70
    32
  0
VERTEX
  5
F8D
  8
0
 10
284.90600000000001
 20
125.104
 30
0.0
 70
    32
  0
VERTEX
  5
F8E
  8
0
 10
284.90600000000001
 20
125.104
 30
0.0
 70
    32
  0
VERTEX
  5
F8F
  8
0
 10
284.90499999999997
 20
125.104
 30
0.0
 70
    32
  0
VERTEX
  5
F90
  8
0
 10
284.90499999999997
 20
125.104
 30
0.0
 70
    32
  0
VERTEX
  5
F91
  8
0
 10
284.90499999999997
 20
125.104
 30
0.0
 70
    32
  0
VERTEX
  5
F92
  8
0
 10
284.90499999999997
 20
125.104
 30
0.0
 70
    32
  0
VERTEX
  5
F93
  8
0
 10
284.90499999999997
 20
125.10299999999999
 30
0.0
 70
    32
  0
VERTEX
  5
F94
  8
0
 10
284.904
 20
125.10299999999999
 30
0.0
 70
    32
  0
VERTEX
  5
F95
  8
0
 10
284.904
 20
125.10299999999999
 30
0.0
 70
    32
  0
VERTEX
  5
F96
  8
0
 10
284.904
 20
125.10299999999999
 30
0.0
 70
    32
  0
VERTEX
  5
F97
  8
0
 10
284.904
 20
125.10299999999999
 30
0.0
 70
    32
  0
VERTEX
  5
F98
  8
0
 10
284.904
 20
125.10299999999999
 30
0.0
 70
    32
  0
VERTEX
  5
F99
  8
0
 10
284.904
 20
125.102
 30
0.0
 70
    32
  0
VERTEX
  5
F9A
  8
0
 10
284.90300000000002
 20
125.102
 30
0.0
 70
    32
  0
VERTEX
  5
F9B
  8
0
 10
284.90300000000002
 20
125.102
 30
0.0
 70
    32
  0
VERTEX
  5
F9C
  8
0
 10
284.90300000000002
 20
125.102
 30
0.0
 70
    32
  0
VERTEX
  5
F9D
  8
0
 10
284.90300000000002
 20
125.102
 30
0.0
 70
    32
  0
VERTEX
  5
F9E
  8
0
 10
284.90300000000002
 20
125.102
 30
0.0
 70
    32
  0
VERTEX
  5
F9F
  8
0
 10
284.90199999999999
 20
125.101
 30
0.0
 70
    32
  0
VERTEX
  5
FA0
  8
0
 10
284.90199999999999
 20
125.101
 30
0.0
 70
    32
  0
VERTEX
  5
FA1
  8
0
 10
284.90199999999999
 20
125.101
 30
0.0
 70
    32
  0
VERTEX
  5
FA2
  8
0
 10
284.90199999999999
 20
125.101
 30
0.0
 70
    32
  0
VERTEX
  5
FA3
  8
0
 10
284.90199999999999
 20
125.101
 30
0.0
 70
    32
  0
VERTEX
  5
FA4
  8
0
 10
284.90100000000001
 20
125.101
 30
0.0
 70
    32
  0
VERTEX
  5
FA5
  8
0
 10
284.90100000000001
 20
125.09999999999999
 30
0.0
 70
    32
  0
VERTEX
  5
FA6
  8
0
 10
284.90100000000001
 20
125.09999999999999
 30
0.0
 70
    32
  0
VERTEX
  5
FA7
  8
0
 10
284.90100000000001
 20
125.09999999999999
 30
0.0
 70
    32
  0
VERTEX
  5
FA8
  8
0
 10
284.90100000000001
 20
125.09999999999999
 30
0.0
 70
    32
  0
VERTEX
  5
FA9
  8
0
 10
284.89999999999998
 20
125.09999999999999
 30
0.0
 70
    32
  0
VERTEX
  5
FAA
  8
0
 10
284.89999999999998
 20
125.09999999999999
 30
0.0
 70
    32
  0
VERTEX
  5
FAB
  8
0
 10
284.89999999999998
 20
125.099
 30
0.0
 70
    32
  0
VERTEX
  5
FAC
  8
0
 10
284.89999999999998
 20
125.099
 30
0.0
 70
    32
  0
VERTEX
  5
FAD
  8
0
 10
284.89999999999998
 20
125.099
 30
0.0
 70
    32
  0
VERTEX
  5
FAE
  8
0
 10
284.899
 20
125.099
 30
0.0
 70
    32
  0
VERTEX
  5
FAF
  8
0
 10
284.899
 20
125.099
 30
0.0
 70
    32
  0
VERTEX
  5
FB0
  8
0
 10
284.899
 20
125.099
 30
0.0
 70
    32
  0
VERTEX
  5
FB1
  8
0
 10
284.899
 20
125.098
 30
0.0
 70
    32
  0
VERTEX
  5
FB2
  8
0
 10
284.899
 20
125.098
 30
0.0
 70
    32
  0
VERTEX
  5
FB3
  8
0
 10
284.89800000000002
 20
125.098
 30
0.0
 70
    32
  0
VERTEX
  5
FB4
  8
0
 10
284.89800000000002
 20
125.098
 30
0.0
 70
    32
  0
VERTEX
  5
FB5
  8
0
 10
284.89800000000002
 20
125.098
 30
0.0
 70
    32
  0
VERTEX
  5
FB6
  8
0
 10
284.89800000000002
 20
125.098
 30
0.0
 70
    32
  0
VERTEX
  5
FB7
  8
0
 10
284.89800000000002
 20
125.09699999999999
 30
0.0
 70
    32
  0
VERTEX
  5
FB8
  8
0
 10
284.89699999999999
 20
125.09699999999999
 30
0.0
 70
    32
  0
VERTEX
  5
FB9
  8
0
 10
284.89699999999999
 20
125.09699999999999
 30
0.0
 70
    32
  0
VERTEX
  5
FBA
  8
0
 10
284.89699999999999
 20
125.09699999999999
 30
0.0
 70
    32
  0
VERTEX
  5
FBB
  8
0
 10
284.89699999999999
 20
125.09699999999999
 30
0.0
 70
    32
  0
VERTEX
  5
FBC
  8
0
 10
284.8959999999999
 20
125.09699999999999
 30
0.0
 70
    32
  0
VERTEX
  5
FBD
  8
0
 10
284.8959999999999
 20
125.096
 30
0.0
 70
    32
  0
VERTEX
  5
FBE
  8
0
 10
284.8959999999999
 20
125.096
 30
0.0
 70
    32
  0
VERTEX
  5
FBF
  8
0
 10
284.8959999999999
 20
125.096
 30
0.0
 70
    32
  0
VERTEX
  5
FC0
  8
0
 10
284.8959999999999
 20
125.096
 30
0.0
 70
    32
  0
VERTEX
  5
FC1
  8
0
 10
284.89499999999998
 20
125.096
 30
0.0
 70
    32
  0
VERTEX
  5
FC2
  8
0
 10
284.89499999999998
 20
125.096
 30
0.0
 70
    32
  0
VERTEX
  5
FC3
  8
0
 10
284.89499999999998
 20
125.095
 30
0.0
 70
    32
  0
VERTEX
  5
FC4
  8
0
 10
284.89499999999998
 20
125.095
 30
0.0
 70
    32
  0
VERTEX
  5
FC5
  8
0
 10
284.89499999999998
 20
125.095
 30
0.0
 70
    32
  0
VERTEX
  5
FC6
  8
0
 10
284.89400000000001
 20
125.095
 30
0.0
 70
    32
  0
VERTEX
  5
FC7
  8
0
 10
284.89400000000001
 20
125.095
 30
0.0
 70
    32
  0
VERTEX
  5
FC8
  8
0
 10
284.89400000000001
 20
125.095
 30
0.0
 70
    32
  0
VERTEX
  5
FC9
  8
0
 10
284.89400000000001
 20
125.09399999999999
 30
0.0
 70
    32
  0
VERTEX
  5
FCA
  8
0
 10
284.89400000000001
 20
125.09399999999999
 30
0.0
 70
    32
  0
VERTEX
  5
FCB
  8
0
 10
284.89299999999997
 20
125.09399999999999
 30
0.0
 70
    32
  0
VERTEX
  5
FCC
  8
0
 10
284.89299999999997
 20
125.09399999999999
 30
0.0
 70
    32
  0
VERTEX
  5
FCD
  8
0
 10
284.89299999999997
 20
125.09399999999999
 30
0.0
 70
    32
  0
VERTEX
  5
FCE
  8
0
 10
284.89299999999997
 20
125.09399999999999
 30
0.0
 70
    32
  0
VERTEX
  5
FCF
  8
0
 10
284.89299999999997
 20
125.093
 30
0.0
 70
    32
  0
VERTEX
  5
FD0
  8
0
 10
284.892
 20
125.093
 30
0.0
 70
    32
  0
SEQEND
  5
FD1
  8
0
  0
POLYLINE
  5
FD2
  8
0
 66
     1
 10
0.0
 20
0.0
 30
0.0
 70
     8
  0
VERTEX
  5
FD3
  8
0
 10
282.25999999999999
 20
128.81399999999999
 30
0.0
 70
    32
  0
VERTEX
  5
FD4
  8
0
 10
282.25999999999999
 20
128.81399999999999
 30
0.0
 70
    32
  0
VERTEX
  5
FD5
  8
0
 10
282.26100000000002
 20
128.81399999999999
 30
0.0
 70
    32
  0
VERTEX
  5
FD6
  8
0
 10
282.26100000000002
 20
128.815
 30
0.0
 70
    32
  0
VERTEX
  5
FD7
  8
0
 10
282.26100000000002
 20
128.815
 30
0.0
 70
    32
  0
VERTEX
  5
FD8
  8
0
 10
282.26100000000002
 20
128.815
 30
0.0
 70
    32
  0
VERTEX
  5
FD9
  8
0
 10
282.262
 20
128.815
 30
0.0
 70
    32
  0
VERTEX
  5
FDA
  8
0
 10
282.262
 20
128.815
 30
0.0
 70
    32
  0
VERTEX
  5
FDB
  8
0
 10
282.262
 20
128.815
 30
0.0
 70
    32
  0
VERTEX
  5
FDC
  8
0
 10
282.262
 20
128.816
 30
0.0
 70
    32
  0
VERTEX
  5
FDD
  8
0
 10
282.26299999999998
 20
128.816
 30
0.0
 70
    32
  0
VERTEX
  5
FDE
  8
0
 10
282.26299999999998
 20
128.816
 30
0.0
 70
    32
  0
VERTEX
  5
FDF
  8
0
 10
282.26299999999998
 20
128.816
 30
0.0
 70
    32
  0
VERTEX
  5
FE0
  8
0
 10
282.26299999999998
 20
128.816
 30
0.0
 70
    32
  0
VERTEX
  5
FE1
  8
0
 10
282.26299999999998
 20
128.816
 30
0.0
 70
    32
  0
VERTEX
  5
FE2
  8
0
 10
282.26400000000001
 20
128.81700000000001
 30
0.0
 70
    32
  0
VERTEX
  5
FE3
  8
0
 10
282.26400000000001
 20
128.81700000000001
 30
0.0
 70
    32
  0
VERTEX
  5
FE4
  8
0
 10
282.26400000000001
 20
128.81700000000001
 30
0.0
 70
    32
  0
VERTEX
  5
FE5
  8
0
 10
282.26400000000001
 20
128.81700000000001
 30
0.0
 70
    32
  0
VERTEX
  5
FE6
  8
0
 10
282.26499999999999
 20
128.81700000000001
 30
0.0
 70
    32
  0
VERTEX
  5
FE7
  8
0
 10
282.26499999999999
 20
128.81800000000001
 30
0.0
 70
    32
  0
VERTEX
  5
FE8
  8
0
 10
282.26499999999999
 20
128.81800000000001
 30
0.0
 70
    32
  0
VERTEX
  5
FE9
  8
0
 10
282.26499999999999
 20
128.81800000000001
 30
0.0
 70
    32
  0
VERTEX
  5
FEA
  8
0
 10
282.26499999999999
 20
128.81800000000001
 30
0.0
 70
    32
  0
VERTEX
  5
FEB
  8
0
 10
282.26599999999991
 20
128.81800000000001
 30
0.0
 70
    32
  0
VERTEX
  5
FEC
  8
0
 10
282.26599999999991
 20
128.81800000000001
 30
0.0
 70
    32
  0
VERTEX
  5
FED
  8
0
 10
282.26599999999991
 20
128.81899999999999
 30
0.0
 70
    32
  0
VERTEX
  5
FEE
  8
0
 10
282.26599999999991
 20
128.81899999999999
 30
0.0
 70
    32
  0
VERTEX
  5
FEF
  8
0
 10
282.267
 20
128.81899999999999
 30
0.0
 70
    32
  0
VERTEX
  5
FF0
  8
0
 10
282.267
 20
128.81899999999999
 30
0.0
 70
    32
  0
VERTEX
  5
FF1
  8
0
 10
282.267
 20
128.81899999999999
 30
0.0
 70
    32
  0
VERTEX
  5
FF2
  8
0
 10
282.267
 20
128.81899999999999
 30
0.0
 70
    32
  0
VERTEX
  5
FF3
  8
0
 10
282.267
 20
128.81999999999999
 30
0.0
 70
    32
  0
VERTEX
  5
FF4
  8
0
 10
282.26799999999997
 20
128.81999999999999
 30
0.0
 70
    32
  0
VERTEX
  5
FF5
  8
0
 10
282.26799999999997
 20
128.81999999999999
 30
0.0
 70
    32
  0
VERTEX
  5
FF6
  8
0
 10
282.26799999999997
 20
128.81999999999999
 30
0.0
 70
    32
  0
VERTEX
  5
FF7
  8
0
 10
282.26799999999997
 20
128.81999999999999
 30
0.0
 70
    32
  0
VERTEX
  5
FF8
  8
0
 10
282.26900000000001
 20
128.81999999999999
 30
0.0
 70
    32
  0
VERTEX
  5
FF9
  8
0
 10
282.26900000000001
 20
128.821
 30
0.0
 70
    32
  0
VERTEX
  5
FFA
  8
0
 10
282.26900000000001
 20
128.821
 30
0.0
 70
    32
  0
VERTEX
  5
FFB
  8
0
 10
282.26900000000001
 20
128.821
 30
0.0
 70
    32
  0
VERTEX
  5
FFC
  8
0
 10
282.26900000000001
 20
128.821
 30
0.0
 70
    32
  0
VERTEX
  5
FFD
  8
0
 10
282.26999999999998
 20
128.821
 30
0.0
 70
    32
  0
VERTEX
  5
FFE
  8
0
 10
282.26999999999998
 20
128.822
 30
0.0
 70
    32
  0
VERTEX
  5
FFF
  8
0
 10
282.26999999999998
 20
128.822
 30
0.0
 70
    32
  0
VERTEX
  5
1000
  8
0
 10
282.26999999999998
 20
128.822
 30
0.0
 70
    32
  0
VERTEX
  5
1001
  8
0
 10
282.27100000000002
 20
128.822
 30
0.0
 70
    32
  0
VERTEX
  5
1002
  8
0
 10
282.27100000000002
 20
128.822
 30
0.0
 70
    32
  0
VERTEX
  5
1003
  8
0
 10
282.27100000000002
 20
128.822
 30
0.0
 70
    32
  0
VERTEX
  5
1004
  8
0
 10
282.27100000000002
 20
128.82299999999989
 30
0.0
 70
    32
  0
VERTEX
  5
1005
  8
0
 10
282.27100000000002
 20
128.82299999999989
 30
0.0
 70
    32
  0
VERTEX
  5
1006
  8
0
 10
282.27199999999999
 20
128.82299999999989
 30
0.0
 70
    32
  0
VERTEX
  5
1007
  8
0
 10
282.27199999999999
 20
128.82299999999989
 30
0.0
 70
    32
  0
VERTEX
  5
1008
  8
0
 10
282.27199999999999
 20
128.82299999999989
 30
0.0
 70
    32
  0
VERTEX
  5
1009
  8
0
 10
282.27199999999999
 20
128.82299999999989
 30
0.0
 70
    32
  0
VERTEX
  5
100A
  8
0
 10
282.27299999999991
 20
128.82400000000001
 30
0.0
 70
    32
  0
VERTEX
  5
100B
  8
0
 10
282.27299999999991
 20
128.82400000000001
 30
0.0
 70
    32
  0
VERTEX
  5
100C
  8
0
 10
282.27299999999991
 20
128.82400000000001
 30
0.0
 70
    32
  0
VERTEX
  5
100D
  8
0
 10
282.27299999999991
 20
128.82400000000001
 30
0.0
 70
    32
  0
VERTEX
  5
100E
  8
0
 10
282.27299999999991
 20
128.82400000000001
 30
0.0
 70
    32
  0
VERTEX
  5
100F
  8
0
 10
282.274
 20
128.82499999999999
 30
0.0
 70
    32
  0
VERTEX
  5
1010
  8
0
 10
282.274
 20
128.82499999999999
 30
0.0
 70
    32
  0
VERTEX
  5
1011
  8
0
 10
282.274
 20
128.82499999999999
 30
0.0
 70
    32
  0
VERTEX
  5
1012
  8
0
 10
282.274
 20
128.82499999999999
 30
0.0
 70
    32
  0
VERTEX
  5
1013
  8
0
 10
282.274
 20
128.82499999999999
 30
0.0
 70
    32
  0
VERTEX
  5
1014
  8
0
 10
282.27499999999998
 20
128.82499999999999
 30
0.0
 70
    32
  0
VERTEX
  5
1015
  8
0
 10
282.27499999999998
 20
128.82599999999999
 30
0.0
 70
    32
  0
VERTEX
  5
1016
  8
0
 10
282.27499999999998
 20
128.82599999999999
 30
0.0
 70
    32
  0
VERTEX
  5
1017
  8
0
 10
282.27499999999998
 20
128.82599999999999
 30
0.0
 70
    32
  0
VERTEX
  5
1018
  8
0
 10
282.27499999999998
 20
128.82599999999999
 30
0.0
 70
    32
  0
VERTEX
  5
1019
  8
0
 10
282.27600000000001
 20
128.82599999999999
 30
0.0
 70
    32
  0
VERTEX
  5
101A
  8
0
 10
282.27600000000001
 20
128.82599999999999
 30
0.0
 70
    32
  0
VERTEX
  5
101B
  8
0
 10
282.27600000000001
 20
128.827
 30
0.0
 70
    32
  0
VERTEX
  5
101C
  8
0
 10
282.27600000000001
 20
128.827
 30
0.0
 70
    32
  0
VERTEX
  5
101D
  8
0
 10
282.27600000000001
 20
128.827
 30
0.0
 70
    32
  0
VERTEX
  5
101E
  8
0
 10
282.27699999999999
 20
128.827
 30
0.0
 70
    32
  0
VERTEX
  5
101F
  8
0
 10
282.27699999999999
 20
128.827
 30
0.0
 70
    32
  0
VERTEX
  5
1020
  8
0
 10
282.27699999999999
 20
128.827
 30
0.0
 70
    32
  0
VERTEX
  5
1021
  8
0
 10
282.27699999999999
 20
128.828
 30
0.0
 70
    32
  0
VERTEX
  5
1022
  8
0
 10
282.27699999999999
 20
128.828
 30
0.0
 70
    32
  0
VERTEX
  5
1023
  8
0
 10
282.27800000000002
 20
128.828
 30
0.0
 70
    32
  0
VERTEX
  5
1024
  8
0
 10
282.27800000000002
 20
128.828
 30
0.0
 70
    32
  0
VERTEX
  5
1025
  8
0
 10
282.27800000000002
 20
128.828
 30
0.0
 70
    32
  0
VERTEX
  5
1026
  8
0
 10
282.27800000000002
 20
128.82900000000001
 30
0.0
 70
    32
  0
VERTEX
  5
1027
  8
0
 10
282.27800000000002
 20
128.82900000000001
 30
0.0
 70
    32
  0
VERTEX
  5
1028
  8
0
 10
282.279
 20
128.82900000000001
 30
0.0
 70
    32
  0
VERTEX
  5
1029
  8
0
 10
282.279
 20
128.82900000000001
 30
0.0
 70
    32
  0
VERTEX
  5
102A
  8
0
 10
282.279
 20
128.82900000000001
 30
0.0
 70
    32
  0
VERTEX
  5
102B
  8
0
 10
282.279
 20
128.82900000000001
 30
0.0
 70
    32
  0
VERTEX
  5
102C
  8
0
 10
282.279
 20
128.83000000000001
 30
0.0
 70
    32
  0
VERTEX
  5
102D
  8
0
 10
282.27999999999997
 20
128.83000000000001
 30
0.0
 70
    32
  0
VERTEX
  5
102E
  8
0
 10
282.27999999999997
 20
128.83000000000001
 30
0.0
 70
    32
  0
VERTEX
  5
102F
  8
0
 10
282.27999999999997
 20
128.83000000000001
 30
0.0
 70
    32
  0
VERTEX
  5
1030
  8
0
 10
282.27999999999997
 20
128.83000000000001
 30
0.0
 70
    32
  0
VERTEX
  5
1031
  8
0
 10
282.27999999999997
 20
128.83000000000001
 30
0.0
 70
    32
  0
VERTEX
  5
1032
  8
0
 10
282.28100000000001
 20
128.83099999999999
 30
0.0
 70
    32
  0
VERTEX
  5
1033
  8
0
 10
282.28100000000001
 20
128.83099999999999
 30
0.0
 70
    32
  0
VERTEX
  5
1034
  8
0
 10
282.28100000000001
 20
128.83099999999999
 30
0.0
 70
    32
  0
VERTEX
  5
1035
  8
0
 10
282.28100000000001
 20
128.83099999999999
 30
0.0
 70
    32
  0
VERTEX
  5
1036
  8
0
 10
282.28100000000001
 20
128.83099999999999
 30
0.0
 70
    32
  0
VERTEX
  5
1037
  8
0
 10
282.28100000000001
 20
128.83099999999999
 30
0.0
 70
    32
  0
VERTEX
  5
1038
  8
0
 10
282.28199999999998
 20
128.83199999999999
 30
0.0
 70
    32
  0
VERTEX
  5
1039
  8
0
 10
282.28199999999998
 20
128.83199999999999
 30
0.0
 70
    32
  0
VERTEX
  5
103A
  8
0
 10
282.28199999999998
 20
128.83199999999999
 30
0.0
 70
    32
  0
VERTEX
  5
103B
  8
0
 10
282.28199999999998
 20
128.83199999999999
 30
0.0
 70
    32
  0
VERTEX
  5
103C
  8
0
 10
282.28199999999998
 20
128.83199999999999
 30
0.0
 70
    32
  0
VERTEX
  5
103D
  8
0
 10
282.28300000000002
 20
128.83199999999999
 30
0.0
 70
    32
  0
VERTEX
  5
103E
  8
0
 10
282.28300000000002
 20
128.833
 30
0.0
 70
    32
  0
VERTEX
  5
103F
  8
0
 10
282.28300000000002
 20
128.833
 30
0.0
 70
    32
  0
VERTEX
  5
1040
  8
0
 10
282.28300000000002
 20
128.833
 30
0.0
 70
    32
  0
VERTEX
  5
1041
  8
0
 10
282.28300000000002
 20
128.833
 30
0.0
 70
    32
  0
VERTEX
  5
1042
  8
0
 10
282.28300000000002
 20
128.833
 30
0.0
 70
    32
  0
VERTEX
  5
1043
  8
0
 10
282.28399999999999
 20
128.833
 30
0.0
 70
    32
  0
VERTEX
  5
1044
  8
0
 10
282.28399999999999
 20
128.834
 30
0.0
 70
    32
  0
VERTEX
  5
1045
  8
0
 10
282.28399999999999
 20
128.834
 30
0.0
 70
    32
  0
VERTEX
  5
1046
  8
0
 10
282.28399999999999
 20
128.834
 30
0.0
 70
    32
  0
VERTEX
  5
1047
  8
0
 10
282.28399999999999
 20
128.834
 30
0.0
 70
    32
  0
VERTEX
  5
1048
  8
0
 10
282.28399999999999
 20
128.834
 30
0.0
 70
    32
  0
VERTEX
  5
1049
  8
0
 10
282.28500000000003
 20
128.834
 30
0.0
 70
    32
  0
VERTEX
  5
104A
  8
0
 10
282.28500000000003
 20
128.834
 30
0.0
 70
    32
  0
VERTEX
  5
104B
  8
0
 10
282.28500000000003
 20
128.83500000000001
 30
0.0
 70
    32
  0
VERTEX
  5
104C
  8
0
 10
282.28500000000003
 20
128.83500000000001
 30
0.0
 70
    32
  0
VERTEX
  5
104D
  8
0
 10
282.28500000000003
 20
128.83500000000001
 30
0.0
 70
    32
  0
VERTEX
  5
104E
  8
0
 10
282.28500000000003
 20
128.83500000000001
 30
0.0
 70
    32
  0
VERTEX
  5
104F
  8
0
 10
282.286
 20
128.83500000000001
 30
0.0
 70
    32
  0
VERTEX
  5
1050
  8
0
 10
282.286
 20
128.83500000000001
 30
0.0
 70
    32
  0
VERTEX
  5
1051
  8
0
 10
282.286
 20
128.83600000000001
 30
0.0
 70
    32
  0
VERTEX
  5
1052
  8
0
 10
282.286
 20
128.83600000000001
 30
0.0
 70
    32
  0
VERTEX
  5
1053
  8
0
 10
282.286
 20
128.83600000000001
 30
0.0
 70
    32
  0
VERTEX
  5
1054
  8
0
 10
282.286
 20
128.83600000000001
 30
0.0
 70
    32
  0
VERTEX
  5
1055
  8
0
 10
282.28699999999998
 20
128.83600000000001
 30
0.0
 70
    32
  0
VERTEX
  5
1056
  8
0
 10
282.28699999999998
 20
128.83600000000001
 30
0.0
 70
    32
  0
VERTEX
  5
1057
  8
0
 10
282.28699999999998
 20
128.83699999999999
 30
0.0
 70
    32
  0
VERTEX
  5
1058
  8
0
 10
282.28699999999998
 20
128.83699999999999
 30
0.0
 70
    32
  0
VERTEX
  5
1059
  8
0
 10
282.28699999999998
 20
128.83699999999999
 30
0.0
 70
    32
  0
VERTEX
  5
105A
  8
0
 10
282.28699999999998
 20
128.83699999999999
 30
0.0
 70
    32
  0
VERTEX
  5
105B
  8
0
 10
282.28699999999998
 20
128.83699999999999
 30
0.0
 70
    32
  0
VERTEX
  5
105C
  8
0
 10
282.28800000000001
 20
128.83699999999999
 30
0.0
 70
    32
  0
VERTEX
  5
105D
  8
0
 10
282.28800000000001
 20
128.83699999999999
 30
0.0
 70
    32
  0
VERTEX
  5
105E
  8
0
 10
282.28800000000001
 20
128.83799999999999
 30
0.0
 70
    32
  0
VERTEX
  5
105F
  8
0
 10
282.28800000000001
 20
128.83799999999999
 30
0.0
 70
    32
  0
VERTEX
  5
1060
  8
0
 10
282.28800000000001
 20
128.83799999999999
 30
0.0
 70
    32
  0
VERTEX
  5
1061
  8
0
 10
282.28800000000001
 20
128.83799999999999
 30
0.0
 70
    32
  0
VERTEX
  5
1062
  8
0
 10
282.28899999999999
 20
128.83799999999999
 30
0.0
 70
    32
  0
VERTEX
  5
1063
  8
0
 10
282.28899999999999
 20
128.83799999999999
 30
0.0
 70
    32
  0
VERTEX
  5
1064
  8
0
 10
282.28899999999999
 20
128.83799999999999
 30
0.0
 70
    32
  0
VERTEX
  5
1065
  8
0
 10
282.28899999999999
 20
128.839
 30
0.0
 70
    32
  0
VERTEX
  5
1066
  8
0
 10
282.28899999999999
 20
128.839
 30
0.0
 70
    32
  0
VERTEX
  5
1067
  8
0
 10
282.28899999999999
 20
128.839
 30
0.0
 70
    32
  0
VERTEX
  5
1068
  8
0
 10
282.28899999999999
 20
128.839
 30
0.0
 70
    32
  0
VERTEX
  5
1069
  8
0
 10
282.29000000000002
 20
128.839
 30
0.0
 70
    32
  0
VERTEX
  5
106A
  8
0
 10
282.29000000000002
 20
128.839
 30
0.0
 70
    32
  0
VERTEX
  5
106B
  8
0
 10
282.29000000000002
 20
128.839
 30
0.0
 70
    32
  0
VERTEX
  5
106C
  8
0
 10
282.29000000000002
 20
128.84
 30
0.0
 70
    32
  0
VERTEX
  5
106D
  8
0
 10
282.29000000000002
 20
128.84
 30
0.0
 70
    32
  0
VERTEX
  5
106E
  8
0
 10
282.29000000000002
 20
128.84
 30
0.0
 70
    32
  0
VERTEX
  5
106F
  8
0
 10
282.29000000000002
 20
128.84
 30
0.0
 70
    32
  0
VERTEX
  5
1070
  8
0
 10
282.291
 20
128.84
 30
0.0
 70
    32
  0
VERTEX
  5
1071
  8
0
 10
282.291
 20
128.84
 30
0.0
 70
    32
  0
VERTEX
  5
1072
  8
0
 10
282.291
 20
128.84100000000001
 30
0.0
 70
    32
  0
VERTEX
  5
1073
  8
0
 10
282.291
 20
128.84100000000001
 30
0.0
 70
    32
  0
VERTEX
  5
1074
  8
0
 10
282.291
 20
128.84100000000001
 30
0.0
 70
    32
  0
VERTEX
  5
1075
  8
0
 10
282.291
 20
128.84100000000001
 30
0.0
 70
    32
  0
VERTEX
  5
1076
  8
0
 10
282.291
 20
128.84100000000001
 30
0.0
 70
    32
  0
VERTEX
  5
1077
  8
0
 10
282.29199999999997
 20
128.84100000000001
 30
0.0
 70
    32
  0
VERTEX
  5
1078
  8
0
 10
282.29199999999997
 20
128.84100000000001
 30
0.0
 70
    32
  0
VERTEX
  5
1079
  8
0
 10
282.29199999999997
 20
128.84200000000001
 30
0.0
 70
    32
  0
VERTEX
  5
107A
  8
0
 10
282.29199999999997
 20
128.84200000000001
 30
0.0
 70
    32
  0
VERTEX
  5
107B
  8
0
 10
282.29199999999997
 20
128.84200000000001
 30
0.0
 70
    32
  0
VERTEX
  5
107C
  8
0
 10
282.29199999999997
 20
128.84200000000001
 30
0.0
 70
    32
  0
VERTEX
  5
107D
  8
0
 10
282.29199999999997
 20
128.84200000000001
 30
0.0
 70
    32
  0
VERTEX
  5
107E
  8
0
 10
282.29300000000001
 20
128.84200000000001
 30
0.0
 70
    32
  0
VERTEX
  5
107F
  8
0
 10
282.29300000000001
 20
128.84200000000001
 30
0.0
 70
    32
  0
VERTEX
  5
1080
  8
0
 10
282.29300000000001
 20
128.84299999999999
 30
0.0
 70
    32
  0
VERTEX
  5
1081
  8
0
 10
282.29300000000001
 20
128.84299999999999
 30
0.0
 70
    32
  0
VERTEX
  5
1082
  8
0
 10
282.29300000000001
 20
128.84299999999999
 30
0.0
 70
    32
  0
VERTEX
  5
1083
  8
0
 10
282.29300000000001
 20
128.84299999999999
 30
0.0
 70
    32
  0
VERTEX
  5
1084
  8
0
 10
282.29300000000001
 20
128.84299999999999
 30
0.0
 70
    32
  0
VERTEX
  5
1085
  8
0
 10
282.29399999999998
 20
128.84299999999999
 30
0.0
 70
    32
  0
VERTEX
  5
1086
  8
0
 10
282.29399999999998
 20
128.84299999999999
 30
0.0
 70
    32
  0
VERTEX
  5
1087
  8
0
 10
282.29399999999998
 20
128.84399999999999
 30
0.0
 70
    32
  0
VERTEX
  5
1088
  8
0
 10
282.29399999999998
 20
128.84399999999999
 30
0.0
 70
    32
  0
VERTEX
  5
1089
  8
0
 10
282.29399999999998
 20
128.84399999999999
 30
0.0
 70
    32
  0
VERTEX
  5
108A
  8
0
 10
282.29399999999998
 20
128.84399999999999
 30
0.0
 70
    32
  0
VERTEX
  5
108B
  8
0
 10
282.29399999999998
 20
128.84399999999999
 30
0.0
 70
    32
  0
VERTEX
  5
108C
  8
0
 10
282.29399999999998
 20
128.84399999999999
 30
0.0
 70
    32
  0
VERTEX
  5
108D
  8
0
 10
282.29500000000002
 20
128.84399999999999
 30
0.0
 70
    32
  0
VERTEX
  5
108E
  8
0
 10
282.29500000000002
 20
128.845
 30
0.0
 70
    32
  0
VERTEX
  5
108F
  8
0
 10
282.29500000000002
 20
128.845
 30
0.0
 70
    32
  0
VERTEX
  5
1090
  8
0
 10
282.29500000000002
 20
128.845
 30
0.0
 70
    32
  0
VERTEX
  5
1091
  8
0
 10
282.29500000000002
 20
128.845
 30
0.0
 70
    32
  0
VERTEX
  5
1092
  8
0
 10
282.29500000000002
 20
128.845
 30
0.0
 70
    32
  0
SEQEND
  5
1093
  8
0
  0
POLYLINE
  5
1E7
  8
0
  6
CONTINUOUS
 66
     1
 10
0.0
 20
0.0
 30
0.0
 70
   128
  0
VERTEX
  5
13B5
  8
0
  6
CONTINUOUS
 10
292.71763486779992
 20
122.8354746421
 30
0.0
  0
VERTEX
  5
13B6
  8
0
  6
CONTINUOUS
 10
292.71611827020001
 20
122.83962787500001
 30
0.0
  0
VERTEX
  5
13B7
  8
0
  6
CONTINUOUS
 10
292.71542901250001
 20
122.8436557932
 30
0.0
  0
VERTEX
  5
13B8
  8
0
  6
CONTINUOUS
 10
292.71561884300002
 20
122.8472559885
 30
0.0
  0
VERTEX
  5
13B9
  8
0
  6
CONTINUOUS
 10
292.71667350950003
 20
122.8501581652
 30
0.0
  0
VERTEX
  5
13BA
  8
0
  6
CONTINUOUS
 10
292.71851382969999
 20
122.8521444334
 30
0.0
  0
VERTEX
  5
13BB
  8
0
  6
CONTINUOUS
 10
292.72100163580001
 20
122.8530656679
 30
0.0
  0
VERTEX
  5
13BC
  8
0
  6
CONTINUOUS
 10
292.72395014829999
 20
122.8528527042
 30
0.0
  0
VERTEX
  5
13BD
  8
0
  6
CONTINUOUS
 10
292.72713799830001
 20
122.85152153120001
 30
0.0
  0
SEQEND
  5
13BE
  8
0
  6
CONTINUOUS
  0
LINE
  5
1E8
  8
0
  6
CONTINUOUS
 10
292.72207197
 20
122.825858346
 30
0.0
 11
292.71763486779992
 21
122.8354746421
 31
0.0
  0
LINE
  5
1E9
  8
0
  6
CONTINUOUS
 10
290.09324499429999
 20
122.1386854215
 30
0.0
 11
289.9635974995
 21
122.862003857
 31
0.0
  0
LINE
  5
1EA
  8
0
  6
CONTINUOUS
 10
289.9635974995
 20
122.862003857
 30
0.0
 11
289.86335553449999
 21
122.9198723116
 31
0.0
  0
LINE
  5
1EB
  8
0
  6
CONTINUOUS
 10
285.15402437180001
 20
125.6385113239
 30
0.0
 11
285.05378240689998
 21
125.6963797786
 31
0.0
  0
LINE
  5
1EC
  8
0
  6
CONTINUOUS
 10
285.05378240689998
 20
125.6963797786
 30
0.0
 11
284.92413491209999
 21
125.1227491544
 31
0.0
  0
LINE
  5
1ED
  8
0
  6
CONTINUOUS
 10
282.29530793639998
 20
128.84510109940001
 30
0.0
 11
282.29974503860001
 21
128.84959442639999
 31
0.0
  0
ARC
  5
1EE
  8
0
  6
CONTINUOUS
 10
282.28065626040001
 20
128.85806121709999
 30
0.0
 40
0.0208822412189193
 50
336.08041227619998
 51
62.675243302799998
  0
LINE
  5
1EF
  8
0
  6
CONTINUOUS
 10
283.26604926610003
 20
128.7616027748
 30
0.0
 11
282.29024190799998
 21
129.324924372
 31
0.0
  0
LINE
  5
1F0
  8
0
  6
CONTINUOUS
 10
292.72713799830001
 20
123.2998325067
 30
0.0
 11
291.75133064030001
 21
123.8631541039
 31
0.0
  0
POLYLINE
  5
1F1
  8
0
  6
CONTINUOUS
 66
     1
 10
0.0
 20
0.0
 30
0.0
 70
   128
  0
VERTEX
  5
13BF
  8
0
  6
CONTINUOUS
 10
286.80158317199999
 20
125.9040416834
 30
0.0
  0
VERTEX
  5
13C0
  8
0
  6
CONTINUOUS
 10
286.81517003049998
 20
125.736898947
 30
0.0
  0
VERTEX
  5
13C1
  8
0
  6
CONTINUOUS
 10
286.8554084708
 20
125.5604923592
 30
0.0
  0
VERTEX
  5
13C2
  8
0
  6
CONTINUOUS
 10
286.92075215199998
 20
125.3816011264
 30
0.0
  0
VERTEX
  5
13C3
  8
0
  6
CONTINUOUS
 10
287.00868995320002
 20
125.2070999383
 30
0.0
  0
VERTEX
  5
13C4
  8
0
  6
CONTINUOUS
 10
287.11584247399998
 20
125.0436947776
 30
0.0
  0
VERTEX
  5
13C5
  8
0
  6
CONTINUOUS
 10
287.23809190309998
 20
124.8976652131
 30
0.0
  0
VERTEX
  5
13C6
  8
0
  6
CONTINUOUS
 10
287.37074026350001
 20
124.77462307899999
 30
0.0
  0
VERTEX
  5
13C7
  8
0
  6
CONTINUOUS
 10
287.50868995320002
 20
124.6792968156
 30
0.0
  0
VERTEX
  5
13C8
  8
0
  6
CONTINUOUS
 10
287.64663964279998
 20
124.6153497576
 30
0.0
  0
VERTEX
  5
13C9
  8
0
  6
CONTINUOUS
 10
287.7792880033
 20
124.58523935469999
 30
0.0
  0
VERTEX
  5
13CA
  8
0
  6
CONTINUOUS
 10
287.9015374324
 20
124.5901227327
 30
0.0
  0
VERTEX
  5
13CB
  8
0
  6
CONTINUOUS
 10
288.00868995320002
 20
124.6298122262
 30
0.0
  0
VERTEX
  5
13CC
  8
0
  6
CONTINUOUS
 10
288.0966277544
 20
124.7027825902
 30
0.0
  0
VERTEX
  5
13CD
  8
0
  6
CONTINUOUS
 10
288.16197143559998
 20
124.8062296146
 30
0.0
  0
VERTEX
  5
13CE
  8
0
  6
CONTINUOUS
 10
288.2022098759
 20
124.9361778881
 30
0.0
  0
VERTEX
  5
13CF
  8
0
  6
CONTINUOUS
 10
288.21579673439999
 20
125.08763357159999
 30
0.0
  0
SEQEND
  5
13D0
  8
0
  6
CONTINUOUS
  0
LINE
  5
1F2
  8
0
  6
CONTINUOUS
 10
288.21579673439999
 20
125.08763357159999
 30
0.0
 11
288.21579673439999
 21
125.89600897530001
 31
0.0
  0
LINE
  5
1F3
  8
0
  6
CONTINUOUS
 10
288.21579673439999
 20
125.89600897530001
 30
0.0
 11
286.80158317199999
 21
126.71241708709999
 31
0.0
  0
LINE
  5
1F4
  8
0
  6
CONTINUOUS
 10
286.80158317199999
 20
126.71241708709999
 30
0.0
 11
286.80158317199999
 21
125.9040416834
 31
0.0
  0
LINE
  5
1F5
  8
0
  6
CONTINUOUS
 10
282.2670236651
 20
128.82877293710001
 30
0.0
 11
282.29530793639998
 21
128.84510109940001
 31
0.0
  0
POLYLINE
  5
1094
  8
0
 66
     1
 10
0.0
 20
0.0
 30
0.0
 70
     8
  0
VERTEX
  5
1095
  8
0
 10
282.25700000000001
 20
128.81800000000001
 30
0.0
 70
    32
  0
VERTEX
  5
1096
  8
0
 10
282.25700000000001
 20
128.81800000000001
 30
0.0
 70
    32
  0
VERTEX
  5
1097
  8
0
 10
282.25700000000001
 20
128.81800000000001
 30
0.0
 70
    32
  0
VERTEX
  5
1098
  8
0
 10
282.25700000000001
 20
128.81800000000001
 30
0.0
 70
    32
  0
VERTEX
  5
1099
  8
0
 10
282.25799999999998
 20
128.81899999999999
 30
0.0
 70
    32
  0
VERTEX
  5
109A
  8
0
 10
282.25799999999998
 20
128.81899999999999
 30
0.0
 70
    32
  0
VERTEX
  5
109B
  8
0
 10
282.25799999999998
 20
128.81899999999999
 30
0.0
 70
    32
  0
VERTEX
  5
109C
  8
0
 10
282.25799999999998
 20
128.81899999999999
 30
0.0
 70
    32
  0
VERTEX
  5
109D
  8
0
 10
282.25799999999998
 20
128.81899999999999
 30
0.0
 70
    32
  0
VERTEX
  5
109E
  8
0
 10
282.25799999999998
 20
128.81899999999999
 30
0.0
 70
    32
  0
VERTEX
  5
109F
  8
0
 10
282.25799999999998
 20
128.81899999999999
 30
0.0
 70
    32
  0
VERTEX
  5
10A0
  8
0
 10
282.25799999999998
 20
128.81899999999999
 30
0.0
 70
    32
  0
VERTEX
  5
10A1
  8
0
 10
282.25799999999998
 20
128.81899999999999
 30
0.0
 70
    32
  0
VERTEX
  5
10A2
  8
0
 10
282.25799999999998
 20
128.81899999999999
 30
0.0
 70
    32
  0
VERTEX
  5
10A3
  8
0
 10
282.25799999999998
 20
128.81899999999999
 30
0.0
 70
    32
  0
VERTEX
  5
10A4
  8
0
 10
282.25799999999998
 20
128.81899999999999
 30
0.0
 70
    32
  0
VERTEX
  5
10A5
  8
0
 10
282.25799999999998
 20
128.81899999999999
 30
0.0
 70
    32
  0
VERTEX
  5
10A6
  8
0
 10
282.25799999999998
 20
128.81899999999999
 30
0.0
 70
    32
  0
VERTEX
  5
10A7
  8
0
 10
282.25799999999998
 20
128.81899999999999
 30
0.0
 70
    32
  0
VERTEX
  5
10A8
  8
0
 10
282.25799999999998
 20
128.81899999999999
 30
0.0
 70
    32
  0
VERTEX
  5
10A9
  8
0
 10
282.25900000000001
 20
128.81899999999999
 30
0.0
 70
    32
  0
VERTEX
  5
10AA
  8
0
 10
282.25900000000001
 20
128.81999999999999
 30
0.0
 70
    32
  0
VERTEX
  5
10AB
  8
0
 10
282.25900000000001
 20
128.81999999999999
 30
0.0
 70
    32
  0
VERTEX
  5
10AC
  8
0
 10
282.25900000000001
 20
128.81999999999999
 30
0.0
 70
    32
  0
VERTEX
  5
10AD
  8
0
 10
282.25900000000001
 20
128.81999999999999
 30
0.0
 70
    32
  0
VERTEX
  5
10AE
  8
0
 10
282.25900000000001
 20
128.81999999999999
 30
0.0
 70
    32
  0
VERTEX
  5
10AF
  8
0
 10
282.25900000000001
 20
128.81999999999999
 30
0.0
 70
    32
  0
VERTEX
  5
10B0
  8
0
 10
282.25900000000001
 20
128.81999999999999
 30
0.0
 70
    32
  0
VERTEX
  5
10B1
  8
0
 10
282.25900000000001
 20
128.81999999999999
 30
0.0
 70
    32
  0
VERTEX
  5
10B2
  8
0
 10
282.25900000000001
 20
128.81999999999999
 30
0.0
 70
    32
  0
VERTEX
  5
10B3
  8
0
 10
282.25900000000001
 20
128.81999999999999
 30
0.0
 70
    32
  0
VERTEX
  5
10B4
  8
0
 10
282.25900000000001
 20
128.81999999999999
 30
0.0
 70
    32
  0
VERTEX
  5
10B5
  8
0
 10
282.25900000000001
 20
128.81999999999999
 30
0.0
 70
    32
  0
VERTEX
  5
10B6
  8
0
 10
282.25900000000001
 20
128.81999999999999
 30
0.0
 70
    32
  0
VERTEX
  5
10B7
  8
0
 10
282.25900000000001
 20
128.81999999999999
 30
0.0
 70
    32
  0
VERTEX
  5
10B8
  8
0
 10
282.25900000000001
 20
128.81999999999999
 30
0.0
 70
    32
  0
VERTEX
  5
10B9
  8
0
 10
282.25999999999999
 20
128.81999999999999
 30
0.0
 70
    32
  0
VERTEX
  5
10BA
  8
0
 10
282.25999999999999
 20
128.81999999999999
 30
0.0
 70
    32
  0
VERTEX
  5
10BB
  8
0
 10
282.25999999999999
 20
128.821
 30
0.0
 70
    32
  0
VERTEX
  5
10BC
  8
0
 10
282.25999999999999
 20
128.821
 30
0.0
 70
    32
  0
VERTEX
  5
10BD
  8
0
 10
282.25999999999999
 20
128.821
 30
0.0
 70
    32
  0
VERTEX
  5
10BE
  8
0
 10
282.25999999999999
 20
128.821
 30
0.0
 70
    32
  0
VERTEX
  5
10BF
  8
0
 10
282.25999999999999
 20
128.821
 30
0.0
 70
    32
  0
VERTEX
  5
10C0
  8
0
 10
282.25999999999999
 20
128.821
 30
0.0
 70
    32
  0
VERTEX
  5
10C1
  8
0
 10
282.25999999999999
 20
128.821
 30
0.0
 70
    32
  0
VERTEX
  5
10C2
  8
0
 10
282.25999999999999
 20
128.821
 30
0.0
 70
    32
  0
VERTEX
  5
10C3
  8
0
 10
282.25999999999999
 20
128.821
 30
0.0
 70
    32
  0
VERTEX
  5
10C4
  8
0
 10
282.25999999999999
 20
128.821
 30
0.0
 70
    32
  0
VERTEX
  5
10C5
  8
0
 10
282.25999999999999
 20
128.821
 30
0.0
 70
    32
  0
VERTEX
  5
10C6
  8
0
 10
282.25999999999999
 20
128.821
 30
0.0
 70
    32
  0
VERTEX
  5
10C7
  8
0
 10
282.25999999999999
 20
128.821
 30
0.0
 70
    32
  0
VERTEX
  5
10C8
  8
0
 10
282.25999999999999
 20
128.821
 30
0.0
 70
    32
  0
VERTEX
  5
10C9
  8
0
 10
282.26100000000002
 20
128.821
 30
0.0
 70
    32
  0
VERTEX
  5
10CA
  8
0
 10
282.26100000000002
 20
128.821
 30
0.0
 70
    32
  0
VERTEX
  5
10CB
  8
0
 10
282.26100000000002
 20
128.821
 30
0.0
 70
    32
  0
VERTEX
  5
10CC
  8
0
 10
282.26100000000002
 20
128.822
 30
0.0
 70
    32
  0
VERTEX
  5
10CD
  8
0
 10
282.26100000000002
 20
128.822
 30
0.0
 70
    32
  0
VERTEX
  5
10CE
  8
0
 10
282.26100000000002
 20
128.822
 30
0.0
 70
    32
  0
VERTEX
  5
10CF
  8
0
 10
282.26100000000002
 20
128.822
 30
0.0
 70
    32
  0
VERTEX
  5
10D0
  8
0
 10
282.26100000000002
 20
128.822
 30
0.0
 70
    32
  0
VERTEX
  5
10D1
  8
0
 10
282.26100000000002
 20
128.822
 30
0.0
 70
    32
  0
VERTEX
  5
10D2
  8
0
 10
282.26100000000002
 20
128.822
 30
0.0
 70
    32
  0
VERTEX
  5
10D3
  8
0
 10
282.26100000000002
 20
128.822
 30
0.0
 70
    32
  0
VERTEX
  5
10D4
  8
0
 10
282.26100000000002
 20
128.822
 30
0.0
 70
    32
  0
VERTEX
  5
10D5
  8
0
 10
282.26100000000002
 20
128.822
 30
0.0
 70
    32
  0
VERTEX
  5
10D6
  8
0
 10
282.26100000000002
 20
128.822
 30
0.0
 70
    32
  0
VERTEX
  5
10D7
  8
0
 10
282.26100000000002
 20
128.822
 30
0.0
 70
    32
  0
VERTEX
  5
10D8
  8
0
 10
282.26100000000002
 20
128.822
 30
0.0
 70
    32
  0
VERTEX
  5
10D9
  8
0
 10
282.26100000000002
 20
128.822
 30
0.0
 70
    32
  0
VERTEX
  5
10DA
  8
0
 10
282.262
 20
128.822
 30
0.0
 70
    32
  0
VERTEX
  5
10DB
  8
0
 10
282.262
 20
128.822
 30
0.0
 70
    32
  0
VERTEX
  5
10DC
  8
0
 10
282.262
 20
128.822
 30
0.0
 70
    32
  0
VERTEX
  5
10DD
  8
0
 10
282.262
 20
128.82299999999989
 30
0.0
 70
    32
  0
VERTEX
  5
10DE
  8
0
 10
282.262
 20
128.82299999999989
 30
0.0
 70
    32
  0
VERTEX
  5
10DF
  8
0
 10
282.262
 20
128.82299999999989
 30
0.0
 70
    32
  0
VERTEX
  5
10E0
  8
0
 10
282.262
 20
128.82299999999989
 30
0.0
 70
    32
  0
VERTEX
  5
10E1
  8
0
 10
282.262
 20
128.82299999999989
 30
0.0
 70
    32
  0
VERTEX
  5
10E2
  8
0
 10
282.262
 20
128.82299999999989
 30
0.0
 70
    32
  0
VERTEX
  5
10E3
  8
0
 10
282.262
 20
128.82299999999989
 30
0.0
 70
    32
  0
VERTEX
  5
10E4
  8
0
 10
282.262
 20
128.82299999999989
 30
0.0
 70
    32
  0
VERTEX
  5
10E5
  8
0
 10
282.262
 20
128.82299999999989
 30
0.0
 70
    32
  0
VERTEX
  5
10E6
  8
0
 10
282.262
 20
128.82299999999989
 30
0.0
 70
    32
  0
VERTEX
  5
10E7
  8
0
 10
282.262
 20
128.82299999999989
 30
0.0
 70
    32
  0
VERTEX
  5
10E8
  8
0
 10
282.262
 20
128.82299999999989
 30
0.0
 70
    32
  0
VERTEX
  5
10E9
  8
0
 10
282.262
 20
128.82299999999989
 30
0.0
 70
    32
  0
VERTEX
  5
10EA
  8
0
 10
282.262
 20
128.82299999999989
 30
0.0
 70
    32
  0
VERTEX
  5
10EB
  8
0
 10
282.262
 20
128.82299999999989
 30
0.0
 70
    32
  0
VERTEX
  5
10EC
  8
0
 10
282.26299999999998
 20
128.82299999999989
 30
0.0
 70
    32
  0
VERTEX
  5
10ED
  8
0
 10
282.26299999999998
 20
128.82299999999989
 30
0.0
 70
    32
  0
VERTEX
  5
10EE
  8
0
 10
282.26299999999998
 20
128.82400000000001
 30
0.0
 70
    32
  0
VERTEX
  5
10EF
  8
0
 10
282.26299999999998
 20
128.82400000000001
 30
0.0
 70
    32
  0
VERTEX
  5
10F0
  8
0
 10
282.26299999999998
 20
128.82400000000001
 30
0.0
 70
    32
  0
VERTEX
  5
10F1
  8
0
 10
282.26299999999998
 20
128.82400000000001
 30
0.0
 70
    32
  0
VERTEX
  5
10F2
  8
0
 10
282.26299999999998
 20
128.82400000000001
 30
0.0
 70
    32
  0
VERTEX
  5
10F3
  8
0
 10
282.26299999999998
 20
128.82400000000001
 30
0.0
 70
    32
  0
VERTEX
  5
10F4
  8
0
 10
282.26299999999998
 20
128.82400000000001
 30
0.0
 70
    32
  0
VERTEX
  5
10F5
  8
0
 10
282.26299999999998
 20
128.82400000000001
 30
0.0
 70
    32
  0
VERTEX
  5
10F6
  8
0
 10
282.26299999999998
 20
128.82400000000001
 30
0.0
 70
    32
  0
VERTEX
  5
10F7
  8
0
 10
282.26299999999998
 20
128.82400000000001
 30
0.0
 70
    32
  0
VERTEX
  5
10F8
  8
0
 10
282.26299999999998
 20
128.82400000000001
 30
0.0
 70
    32
  0
VERTEX
  5
10F9
  8
0
 10
282.26299999999998
 20
128.82400000000001
 30
0.0
 70
    32
  0
VERTEX
  5
10FA
  8
0
 10
282.26299999999998
 20
128.82400000000001
 30
0.0
 70
    32
  0
VERTEX
  5
10FB
  8
0
 10
282.26299999999998
 20
128.82400000000001
 30
0.0
 70
    32
  0
VERTEX
  5
10FC
  8
0
 10
282.26299999999998
 20
128.82400000000001
 30
0.0
 70
    32
  0
VERTEX
  5
10FD
  8
0
 10
282.26299999999998
 20
128.82400000000001
 30
0.0
 70
    32
  0
VERTEX
  5
10FE
  8
0
 10
282.26299999999998
 20
128.82400000000001
 30
0.0
 70
    32
  0
VERTEX
  5
10FF
  8
0
 10
282.26299999999998
 20
128.82400000000001
 30
0.0
 70
    32
  0
VERTEX
  5
1100
  8
0
 10
282.26400000000001
 20
128.82499999999999
 30
0.0
 70
    32
  0
VERTEX
  5
1101
  8
0
 10
282.26400000000001
 20
128.82499999999999
 30
0.0
 70
    32
  0
VERTEX
  5
1102
  8
0
 10
282.26400000000001
 20
128.82499999999999
 30
0.0
 70
    32
  0
VERTEX
  5
1103
  8
0
 10
282.26400000000001
 20
128.82499999999999
 30
0.0
 70
    32
  0
VERTEX
  5
1104
  8
0
 10
282.26400000000001
 20
128.82499999999999
 30
0.0
 70
    32
  0
VERTEX
  5
1105
  8
0
 10
282.26400000000001
 20
128.82499999999999
 30
0.0
 70
    32
  0
VERTEX
  5
1106
  8
0
 10
282.26400000000001
 20
128.82499999999999
 30
0.0
 70
    32
  0
VERTEX
  5
1107
  8
0
 10
282.26400000000001
 20
128.82499999999999
 30
0.0
 70
    32
  0
VERTEX
  5
1108
  8
0
 10
282.26400000000001
 20
128.82499999999999
 30
0.0
 70
    32
  0
VERTEX
  5
1109
  8
0
 10
282.26400000000001
 20
128.82499999999999
 30
0.0
 70
    32
  0
VERTEX
  5
110A
  8
0
 10
282.26400000000001
 20
128.82499999999999
 30
0.0
 70
    32
  0
VERTEX
  5
110B
  8
0
 10
282.26400000000001
 20
128.82499999999999
 30
0.0
 70
    32
  0
VERTEX
  5
110C
  8
0
 10
282.26400000000001
 20
128.82499999999999
 30
0.0
 70
    32
  0
VERTEX
  5
110D
  8
0
 10
282.26400000000001
 20
128.82499999999999
 30
0.0
 70
    32
  0
VERTEX
  5
110E
  8
0
 10
282.26400000000001
 20
128.82499999999999
 30
0.0
 70
    32
  0
VERTEX
  5
110F
  8
0
 10
282.26400000000001
 20
128.82499999999999
 30
0.0
 70
    32
  0
VERTEX
  5
1110
  8
0
 10
282.26400000000001
 20
128.82499999999999
 30
0.0
 70
    32
  0
VERTEX
  5
1111
  8
0
 10
282.26400000000001
 20
128.82499999999999
 30
0.0
 70
    32
  0
VERTEX
  5
1112
  8
0
 10
282.26400000000001
 20
128.82499999999999
 30
0.0
 70
    32
  0
VERTEX
  5
1113
  8
0
 10
282.26400000000001
 20
128.82599999999999
 30
0.0
 70
    32
  0
VERTEX
  5
1114
  8
0
 10
282.26400000000001
 20
128.82599999999999
 30
0.0
 70
    32
  0
VERTEX
  5
1115
  8
0
 10
282.26499999999999
 20
128.82599999999999
 30
0.0
 70
    32
  0
VERTEX
  5
1116
  8
0
 10
282.26499999999999
 20
128.82599999999999
 30
0.0
 70
    32
  0
VERTEX
  5
1117
  8
0
 10
282.26499999999999
 20
128.82599999999999
 30
0.0
 70
    32
  0
VERTEX
  5
1118
  8
0
 10
282.26499999999999
 20
128.82599999999999
 30
0.0
 70
    32
  0
VERTEX
  5
1119
  8
0
 10
282.26499999999999
 20
128.82599999999999
 30
0.0
 70
    32
  0
VERTEX
  5
111A
  8
0
 10
282.26499999999999
 20
128.82599999999999
 30
0.0
 70
    32
  0
VERTEX
  5
111B
  8
0
 10
282.26499999999999
 20
128.82599999999999
 30
0.0
 70
    32
  0
VERTEX
  5
111C
  8
0
 10
282.26499999999999
 20
128.82599999999999
 30
0.0
 70
    32
  0
VERTEX
  5
111D
  8
0
 10
282.26499999999999
 20
128.82599999999999
 30
0.0
 70
    32
  0
VERTEX
  5
111E
  8
0
 10
282.26499999999999
 20
128.82599999999999
 30
0.0
 70
    32
  0
VERTEX
  5
111F
  8
0
 10
282.26499999999999
 20
128.82599999999999
 30
0.0
 70
    32
  0
VERTEX
  5
1120
  8
0
 10
282.26499999999999
 20
128.82599999999999
 30
0.0
 70
    32
  0
VERTEX
  5
1121
  8
0
 10
282.26499999999999
 20
128.82599999999999
 30
0.0
 70
    32
  0
VERTEX
  5
1122
  8
0
 10
282.26499999999999
 20
128.82599999999999
 30
0.0
 70
    32
  0
VERTEX
  5
1123
  8
0
 10
282.26499999999999
 20
128.82599999999999
 30
0.0
 70
    32
  0
VERTEX
  5
1124
  8
0
 10
282.26499999999999
 20
128.82599999999999
 30
0.0
 70
    32
  0
VERTEX
  5
1125
  8
0
 10
282.26499999999999
 20
128.82599999999999
 30
0.0
 70
    32
  0
VERTEX
  5
1126
  8
0
 10
282.26499999999999
 20
128.827
 30
0.0
 70
    32
  0
VERTEX
  5
1127
  8
0
 10
282.26499999999999
 20
128.827
 30
0.0
 70
    32
  0
VERTEX
  5
1128
  8
0
 10
282.26499999999999
 20
128.827
 30
0.0
 70
    32
  0
VERTEX
  5
1129
  8
0
 10
282.26499999999999
 20
128.827
 30
0.0
 70
    32
  0
VERTEX
  5
112A
  8
0
 10
282.26499999999999
 20
128.827
 30
0.0
 70
    32
  0
VERTEX
  5
112B
  8
0
 10
282.26499999999999
 20
128.827
 30
0.0
 70
    32
  0
VERTEX
  5
112C
  8
0
 10
282.26499999999999
 20
128.827
 30
0.0
 70
    32
  0
VERTEX
  5
112D
  8
0
 10
282.26599999999991
 20
128.827
 30
0.0
 70
    32
  0
VERTEX
  5
112E
  8
0
 10
282.26599999999991
 20
128.827
 30
0.0
 70
    32
  0
VERTEX
  5
112F
  8
0
 10
282.26599999999991
 20
128.827
 30
0.0
 70
    32
  0
VERTEX
  5
1130
  8
0
 10
282.26599999999991
 20
128.827
 30
0.0
 70
    32
  0
VERTEX
  5
1131
  8
0
 10
282.26599999999991
 20
128.827
 30
0.0
 70
    32
  0
VERTEX
  5
1132
  8
0
 10
282.26599999999991
 20
128.827
 30
0.0
 70
    32
  0
VERTEX
  5
1133
  8
0
 10
282.26599999999991
 20
128.827
 30
0.0
 70
    32
  0
VERTEX
  5
1134
  8
0
 10
282.26599999999991
 20
128.827
 30
0.0
 70
    32
  0
VERTEX
  5
1135
  8
0
 10
282.26599999999991
 20
128.827
 30
0.0
 70
    32
  0
VERTEX
  5
1136
  8
0
 10
282.26599999999991
 20
128.827
 30
0.0
 70
    32
  0
VERTEX
  5
1137
  8
0
 10
282.26599999999991
 20
128.827
 30
0.0
 70
    32
  0
VERTEX
  5
1138
  8
0
 10
282.26599999999991
 20
128.827
 30
0.0
 70
    32
  0
VERTEX
  5
1139
  8
0
 10
282.26599999999991
 20
128.827
 30
0.0
 70
    32
  0
VERTEX
  5
113A
  8
0
 10
282.26599999999991
 20
128.828
 30
0.0
 70
    32
  0
VERTEX
  5
113B
  8
0
 10
282.26599999999991
 20
128.828
 30
0.0
 70
    32
  0
VERTEX
  5
113C
  8
0
 10
282.26599999999991
 20
128.828
 30
0.0
 70
    32
  0
VERTEX
  5
113D
  8
0
 10
282.26599999999991
 20
128.828
 30
0.0
 70
    32
  0
VERTEX
  5
113E
  8
0
 10
282.26599999999991
 20
128.828
 30
0.0
 70
    32
  0
VERTEX
  5
113F
  8
0
 10
282.26599999999991
 20
128.828
 30
0.0
 70
    32
  0
VERTEX
  5
1140
  8
0
 10
282.26599999999991
 20
128.828
 30
0.0
 70
    32
  0
VERTEX
  5
1141
  8
0
 10
282.26599999999991
 20
128.828
 30
0.0
 70
    32
  0
VERTEX
  5
1142
  8
0
 10
282.26599999999991
 20
128.828
 30
0.0
 70
    32
  0
VERTEX
  5
1143
  8
0
 10
282.26599999999991
 20
128.828
 30
0.0
 70
    32
  0
VERTEX
  5
1144
  8
0
 10
282.26599999999991
 20
128.828
 30
0.0
 70
    32
  0
VERTEX
  5
1145
  8
0
 10
282.26599999999991
 20
128.828
 30
0.0
 70
    32
  0
VERTEX
  5
1146
  8
0
 10
282.26599999999991
 20
128.828
 30
0.0
 70
    32
  0
VERTEX
  5
1147
  8
0
 10
282.267
 20
128.828
 30
0.0
 70
    32
  0
VERTEX
  5
1148
  8
0
 10
282.267
 20
128.828
 30
0.0
 70
    32
  0
VERTEX
  5
1149
  8
0
 10
282.267
 20
128.828
 30
0.0
 70
    32
  0
VERTEX
  5
114A
  8
0
 10
282.267
 20
128.828
 30
0.0
 70
    32
  0
VERTEX
  5
114B
  8
0
 10
282.267
 20
128.828
 30
0.0
 70
    32
  0
VERTEX
  5
114C
  8
0
 10
282.267
 20
128.828
 30
0.0
 70
    32
  0
VERTEX
  5
114D
  8
0
 10
282.267
 20
128.828
 30
0.0
 70
    32
  0
VERTEX
  5
114E
  8
0
 10
282.267
 20
128.828
 30
0.0
 70
    32
  0
VERTEX
  5
114F
  8
0
 10
282.267
 20
128.82900000000001
 30
0.0
 70
    32
  0
VERTEX
  5
1150
  8
0
 10
282.267
 20
128.82900000000001
 30
0.0
 70
    32
  0
VERTEX
  5
1151
  8
0
 10
282.267
 20
128.82900000000001
 30
0.0
 70
    32
  0
VERTEX
  5
1152
  8
0
 10
282.267
 20
128.82900000000001
 30
0.0
 70
    32
  0
VERTEX
  5
1153
  8
0
 10
282.267
 20
128.82900000000001
 30
0.0
 70
    32
  0
VERTEX
  5
1154
  8
0
 10
282.267
 20
128.82900000000001
 30
0.0
 70
    32
  0
SEQEND
  5
1155
  8
0
  0
ARC
  5
1F7
  8
0
  6
CONTINUOUS
 10
282.24795412639997
 20
128.79480387710001
 30
0.0
 40
0.0920926377980845
 50
62.665313726699999
 51
98.920828000799986
  0
ARC
  5
1F8
  8
0
  6
CONTINUOUS
 10
282.24777909240009
 20
128.83280406040001
 30
0.0
 40
0.030923228064992
 50
62.709133141899997
 51
115.6843225114
  0
ARC
  5
1F9
  8
0
  6
CONTINUOUS
 10
282.24757948299998
 20
129.2422828313
 30
0.0
 40
0.0930037996504708
 50
62.695650444499989
 51
105.98937012029999
  0
LINE
  5
1FA
  8
0
  6
CONTINUOUS
 10
282.2670236651
 20
128.82877293710001
 30
0.0
 11
282.27146076730008
 21
128.83326626420001
 31
0.0
  0
ARC
  5
1FB
  8
0
  6
CONTINUOUS
 10
282.25237198910008
 20
128.8417330549
 30
0.0
 40
0.0208822412189344
 50
336.08041227630002
 51
62.6752433029
  0
ARC
  5
1FC
  8
0
  6
CONTINUOUS
 10
283.24018480400002
 20
128.7657984066
 30
0.0
 40
0.0262025518457338
 50
350.78596300949999
 51
129.2032852358
  0
ARC
  5
1FD
  8
0
  6
CONTINUOUS
 10
291.72193052630001
 20
123.8663993082
 30
0.0
 40
0.0295786757034584
 50
353.70115237070002
 51
54.986667236099997
  0
LINE
  5
1FE
  8
0
  6
CONTINUOUS
 10
285.12574010060001
 20
125.62218316169999
 30
0.0
 11
285.15402437180001
 21
125.6385113239
 31
0.0
  0
LINE
  5
1FF
  8
0
  6
CONTINUOUS
 10
285.12574010060001
 20
125.62218316169999
 30
0.0
 11
285.04725352949998
 21
125.6674924947
 31
0.0
  0
LINE
  5
200
  8
0
  6
CONTINUOUS
 10
283.22361596320002
 20
128.78609899919999
 30
0.0
 11
283.22362285920002
 21
128.78610298020001
 31
0.0
  0
ARC
  5
201
  8
0
  6
CONTINUOUS
 10
289.77124256849999
 20
122.9240639627
 30
0.0
 40
0.0922082884545901
 50
302.60547834009998
 51
357.39452151429998
  0
ARC
  5
202
  8
0
  6
CONTINUOUS
 10
285.0619114058
 20
125.64270297509999
 30
0.0
 40
0.0922082884539667
 50
302.6054783399
 51
357.39452151440003
  0
ARC
  5
203
  8
0
  6
CONTINUOUS
 10
285.09503577859999
 20
125.6235803787
 30
0.0
 40
0.0307360961516292
 50
302.60547834020002
 51
357.39452151419999
  0
LINE
  5
204
  8
0
  6
CONTINUOUS
 10
285.11159796499999
 20
125.5976882643
 30
0.0
 11
285.039259668
 21
125.5559282544
 31
0.0
  0
LINE
  5
205
  8
0
  6
CONTINUOUS
 10
285.11159796499999
 20
125.5650266319
 30
0.0
 11
285.04548943449998
 21
125.5268629895
 31
0.0
  0
LINE
  5
206
  8
0
  6
CONTINUOUS
 10
289.75482059720002
 20
122.8082239772
 30
0.0
 11
289.82092912770008
 21
122.84638761950001
 31
0.0
  0
ARC
  5
207
  8
0
  6
CONTINUOUS
 10
287.71872376430002
 20
125.0294647936
 30
0.0
 40
0.4929779299532365
 50
305.01333287160008
 51
6.2988475217999991
  0
LINE
  5
208
  8
0
  6
CONTINUOUS
 10
288.2087256666
 20
125.083551531
 30
0.0
 11
288.2087256666
 21
125.8919269348
 31
0.0
  0
LINE
  5
209
  8
0
  6
CONTINUOUS
 10
288.2087256666
 20
125.8919269348
 30
0.0
 11
286.80158317199999
 21
126.704253006
 31
0.0
  0
LINE
  5
20A
  8
0
  6
CONTINUOUS
 10
288.2087256666
 20
125.8919269348
 30
0.0
 11
288.21579673439999
 21
125.89600897530001
 31
0.0
  0
LINE
  5
20B
  8
0
  6
CONTINUOUS
 10
289.9353132283
 20
122.84567569470001
 30
0.0
 11
289.9635974995
 21
122.862003857
 31
0.0
  0
LINE
  5
20C
  8
0
  6
CONTINUOUS
 10
290.08677735060002
 20
122.1349517303
 30
0.0
 11
290.09324499429999
 21
122.1386854215
 31
0.0
  0
LINE
  5
20D
  8
0
  6
CONTINUOUS
 10
289.97424697719998
 20
122.6284597862
 30
0.0
 11
289.9353132283
 21
122.84567569470001
 31
0.0
  0
POLYLINE
  5
1156
  8
0
 66
     1
 10
0.0
 20
0.0
 30
0.0
 70
     8
  0
VERTEX
  5
1157
  8
0
 10
290.09699999999998
 20
122.098
 30
0.0
 70
    32
  0
VERTEX
  5
1158
  8
0
 10
290.09699999999998
 20
122.098
 30
0.0
 70
    32
  0
VERTEX
  5
1159
  8
0
 10
290.09699999999998
 20
122.098
 30
0.0
 70
    32
  0
VERTEX
  5
115A
  8
0
 10
290.09800000000001
 20
122.099
 30
0.0
 70
    32
  0
VERTEX
  5
115B
  8
0
 10
290.09800000000001
 20
122.099
 30
0.0
 70
    32
  0
VERTEX
  5
115C
  8
0
 10
290.09800000000001
 20
122.099
 30
0.0
 70
    32
  0
VERTEX
  5
115D
  8
0
 10
290.09800000000001
 20
122.099
 30
0.0
 70
    32
  0
VERTEX
  5
115E
  8
0
 10
290.09800000000001
 20
122.09999999999999
 30
0.0
 70
    32
  0
VERTEX
  5
115F
  8
0
 10
290.09800000000001
 20
122.09999999999999
 30
0.0
 70
    32
  0
VERTEX
  5
1160
  8
0
 10
290.09800000000001
 20
122.09999999999999
 30
0.0
 70
    32
  0
VERTEX
  5
1161
  8
0
 10
290.09800000000001
 20
122.09999999999999
 30
0.0
 70
    32
  0
VERTEX
  5
1162
  8
0
 10
290.09800000000001
 20
122.101
 30
0.0
 70
    32
  0
VERTEX
  5
1163
  8
0
 10
290.09800000000001
 20
122.101
 30
0.0
 70
    32
  0
VERTEX
  5
1164
  8
0
 10
290.09800000000001
 20
122.101
 30
0.0
 70
    32
  0
VERTEX
  5
1165
  8
0
 10
290.09800000000001
 20
122.101
 30
0.0
 70
    32
  0
VERTEX
  5
1166
  8
0
 10
290.09800000000001
 20
122.102
 30
0.0
 70
    32
  0
VERTEX
  5
1167
  8
0
 10
290.09800000000001
 20
122.102
 30
0.0
 70
    32
  0
VERTEX
  5
1168
  8
0
 10
290.09800000000001
 20
122.102
 30
0.0
 70
    32
  0
VERTEX
  5
1169
  8
0
 10
290.09800000000001
 20
122.10299999999999
 30
0.0
 70
    32
  0
VERTEX
  5
116A
  8
0
 10
290.09800000000001
 20
122.10299999999999
 30
0.0
 70
    32
  0
VERTEX
  5
116B
  8
0
 10
290.09800000000001
 20
122.10299999999999
 30
0.0
 70
    32
  0
VERTEX
  5
116C
  8
0
 10
290.09800000000001
 20
122.10299999999999
 30
0.0
 70
    32
  0
VERTEX
  5
116D
  8
0
 10
290.09800000000001
 20
122.104
 30
0.0
 70
    32
  0
VERTEX
  5
116E
  8
0
 10
290.09800000000001
 20
122.104
 30
0.0
 70
    32
  0
VERTEX
  5
116F
  8
0
 10
290.09800000000001
 20
122.104
 30
0.0
 70
    32
  0
VERTEX
  5
1170
  8
0
 10
290.09800000000001
 20
122.104
 30
0.0
 70
    32
  0
VERTEX
  5
1171
  8
0
 10
290.09800000000001
 20
122.105
 30
0.0
 70
    32
  0
VERTEX
  5
1172
  8
0
 10
290.09800000000001
 20
122.105
 30
0.0
 70
    32
  0
VERTEX
  5
1173
  8
0
 10
290.09800000000001
 20
122.105
 30
0.0
 70
    32
  0
VERTEX
  5
1174
  8
0
 10
290.09800000000001
 20
122.105
 30
0.0
 70
    32
  0
VERTEX
  5
1175
  8
0
 10
290.09800000000001
 20
122.10599999999999
 30
0.0
 70
    32
  0
VERTEX
  5
1176
  8
0
 10
290.09899999999999
 20
122.10599999999999
 30
0.0
 70
    32
  0
VERTEX
  5
1177
  8
0
 10
290.09899999999999
 20
122.10599999999999
 30
0.0
 70
    32
  0
VERTEX
  5
1178
  8
0
 10
290.09899999999999
 20
122.10599999999999
 30
0.0
 70
    32
  0
VERTEX
  5
1179
  8
0
 10
290.09899999999999
 20
122.107
 30
0.0
 70
    32
  0
VERTEX
  5
117A
  8
0
 10
290.09899999999999
 20
122.107
 30
0.0
 70
    32
  0
VERTEX
  5
117B
  8
0
 10
290.09899999999999
 20
122.107
 30
0.0
 70
    32
  0
VERTEX
  5
117C
  8
0
 10
290.09899999999999
 20
122.107
 30
0.0
 70
    32
  0
VERTEX
  5
117D
  8
0
 10
290.09899999999999
 20
122.108
 30
0.0
 70
    32
  0
VERTEX
  5
117E
  8
0
 10
290.09899999999999
 20
122.108
 30
0.0
 70
    32
  0
VERTEX
  5
117F
  8
0
 10
290.09899999999999
 20
122.108
 30
0.0
 70
    32
  0
VERTEX
  5
1180
  8
0
 10
290.09899999999999
 20
122.108
 30
0.0
 70
    32
  0
VERTEX
  5
1181
  8
0
 10
290.09899999999999
 20
122.10899999999999
 30
0.0
 70
    32
  0
VERTEX
  5
1182
  8
0
 10
290.09899999999999
 20
122.10899999999999
 30
0.0
 70
    32
  0
VERTEX
  5
1183
  8
0
 10
290.09899999999999
 20
122.10899999999999
 30
0.0
 70
    32
  0
VERTEX
  5
1184
  8
0
 10
290.09899999999999
 20
122.10899999999999
 30
0.0
 70
    32
  0
VERTEX
  5
1185
  8
0
 10
290.09899999999999
 20
122.11
 30
0.0
 70
    32
  0
VERTEX
  5
1186
  8
0
 10
290.09899999999999
 20
122.11
 30
0.0
 70
    32
  0
VERTEX
  5
1187
  8
0
 10
290.09899999999999
 20
122.11
 30
0.0
 70
    32
  0
VERTEX
  5
1188
  8
0
 10
290.09899999999999
 20
122.111
 30
0.0
 70
    32
  0
VERTEX
  5
1189
  8
0
 10
290.09899999999999
 20
122.111
 30
0.0
 70
    32
  0
VERTEX
  5
118A
  8
0
 10
290.09899999999999
 20
122.111
 30
0.0
 70
    32
  0
VERTEX
  5
118B
  8
0
 10
290.09899999999999
 20
122.111
 30
0.0
 70
    32
  0
VERTEX
  5
118C
  8
0
 10
290.09899999999999
 20
122.11199999999999
 30
0.0
 70
    32
  0
VERTEX
  5
118D
  8
0
 10
290.09899999999999
 20
122.11199999999999
 30
0.0
 70
    32
  0
VERTEX
  5
118E
  8
0
 10
290.09899999999999
 20
122.11199999999999
 30
0.0
 70
    32
  0
VERTEX
  5
118F
  8
0
 10
290.09899999999999
 20
122.11199999999999
 30
0.0
 70
    32
  0
VERTEX
  5
1190
  8
0
 10
290.09899999999999
 20
122.113
 30
0.0
 70
    32
  0
VERTEX
  5
1191
  8
0
 10
290.09899999999999
 20
122.113
 30
0.0
 70
    32
  0
VERTEX
  5
1192
  8
0
 10
290.09899999999999
 20
122.113
 30
0.0
 70
    32
  0
VERTEX
  5
1193
  8
0
 10
290.09899999999999
 20
122.113
 30
0.0
 70
    32
  0
VERTEX
  5
1194
  8
0
 10
290.09899999999999
 20
122.114
 30
0.0
 70
    32
  0
VERTEX
  5
1195
  8
0
 10
290.09899999999999
 20
122.114
 30
0.0
 70
    32
  0
VERTEX
  5
1196
  8
0
 10
290.09899999999999
 20
122.114
 30
0.0
 70
    32
  0
VERTEX
  5
1197
  8
0
 10
290.09899999999999
 20
122.114
 30
0.0
 70
    32
  0
VERTEX
  5
1198
  8
0
 10
290.09899999999999
 20
122.11499999999999
 30
0.0
 70
    32
  0
VERTEX
  5
1199
  8
0
 10
290.09899999999999
 20
122.11499999999999
 30
0.0
 70
    32
  0
VERTEX
  5
119A
  8
0
 10
290.09899999999999
 20
122.11499999999999
 30
0.0
 70
    32
  0
VERTEX
  5
119B
  8
0
 10
290.09899999999999
 20
122.11499999999999
 30
0.0
 70
    32
  0
VERTEX
  5
119C
  8
0
 10
290.09899999999999
 20
122.116
 30
0.0
 70
    32
  0
VERTEX
  5
119D
  8
0
 10
290.09899999999999
 20
122.116
 30
0.0
 70
    32
  0
VERTEX
  5
119E
  8
0
 10
290.09899999999999
 20
122.116
 30
0.0
 70
    32
  0
VERTEX
  5
119F
  8
0
 10
290.09899999999999
 20
122.116
 30
0.0
 70
    32
  0
VERTEX
  5
11A0
  8
0
 10
290.09899999999999
 20
122.117
 30
0.0
 70
    32
  0
VERTEX
  5
11A1
  8
0
 10
290.09899999999999
 20
122.117
 30
0.0
 70
    32
  0
VERTEX
  5
11A2
  8
0
 10
290.09899999999999
 20
122.117
 30
0.0
 70
    32
  0
VERTEX
  5
11A3
  8
0
 10
290.09899999999999
 20
122.117
 30
0.0
 70
    32
  0
VERTEX
  5
11A4
  8
0
 10
290.09899999999999
 20
122.11799999999999
 30
0.0
 70
    32
  0
VERTEX
  5
11A5
  8
0
 10
290.09899999999999
 20
122.11799999999999
 30
0.0
 70
    32
  0
VERTEX
  5
11A6
  8
0
 10
290.09899999999999
 20
122.11799999999999
 30
0.0
 70
    32
  0
VERTEX
  5
11A7
  8
0
 10
290.09899999999999
 20
122.119
 30
0.0
 70
    32
  0
VERTEX
  5
11A8
  8
0
 10
290.09899999999999
 20
122.119
 30
0.0
 70
    32
  0
VERTEX
  5
11A9
  8
0
 10
290.09899999999999
 20
122.119
 30
0.0
 70
    32
  0
VERTEX
  5
11AA
  8
0
 10
290.09899999999999
 20
122.119
 30
0.0
 70
    32
  0
VERTEX
  5
11AB
  8
0
 10
290.09800000000001
 20
122.12
 30
0.0
 70
    32
  0
VERTEX
  5
11AC
  8
0
 10
290.09800000000001
 20
122.12
 30
0.0
 70
    32
  0
VERTEX
  5
11AD
  8
0
 10
290.09800000000001
 20
122.12
 30
0.0
 70
    32
  0
VERTEX
  5
11AE
  8
0
 10
290.09800000000001
 20
122.12
 30
0.0
 70
    32
  0
VERTEX
  5
11AF
  8
0
 10
290.09800000000001
 20
122.121
 30
0.0
 70
    32
  0
VERTEX
  5
11B0
  8
0
 10
290.09800000000001
 20
122.121
 30
0.0
 70
    32
  0
VERTEX
  5
11B1
  8
0
 10
290.09800000000001
 20
122.121
 30
0.0
 70
    32
  0
VERTEX
  5
11B2
  8
0
 10
290.09800000000001
 20
122.121
 30
0.0
 70
    32
  0
VERTEX
  5
11B3
  8
0
 10
290.09800000000001
 20
122.122
 30
0.0
 70
    32
  0
VERTEX
  5
11B4
  8
0
 10
290.09800000000001
 20
122.122
 30
0.0
 70
    32
  0
VERTEX
  5
11B5
  8
0
 10
290.09800000000001
 20
122.122
 30
0.0
 70
    32
  0
VERTEX
  5
11B6
  8
0
 10
290.09800000000001
 20
122.122
 30
0.0
 70
    32
  0
VERTEX
  5
11B7
  8
0
 10
290.09800000000001
 20
122.123
 30
0.0
 70
    32
  0
VERTEX
  5
11B8
  8
0
 10
290.09800000000001
 20
122.123
 30
0.0
 70
    32
  0
VERTEX
  5
11B9
  8
0
 10
290.09800000000001
 20
122.123
 30
0.0
 70
    32
  0
VERTEX
  5
11BA
  8
0
 10
290.09800000000001
 20
122.123
 30
0.0
 70
    32
  0
VERTEX
  5
11BB
  8
0
 10
290.09800000000001
 20
122.124
 30
0.0
 70
    32
  0
VERTEX
  5
11BC
  8
0
 10
290.09800000000001
 20
122.124
 30
0.0
 70
    32
  0
VERTEX
  5
11BD
  8
0
 10
290.09800000000001
 20
122.124
 30
0.0
 70
    32
  0
VERTEX
  5
11BE
  8
0
 10
290.09800000000001
 20
122.124
 30
0.0
 70
    32
  0
VERTEX
  5
11BF
  8
0
 10
290.09800000000001
 20
122.125
 30
0.0
 70
    32
  0
VERTEX
  5
11C0
  8
0
 10
290.09699999999998
 20
122.125
 30
0.0
 70
    32
  0
VERTEX
  5
11C1
  8
0
 10
290.09699999999998
 20
122.125
 30
0.0
 70
    32
  0
VERTEX
  5
11C2
  8
0
 10
290.09699999999998
 20
122.125
 30
0.0
 70
    32
  0
VERTEX
  5
11C3
  8
0
 10
290.09699999999998
 20
122.126
 30
0.0
 70
    32
  0
VERTEX
  5
11C4
  8
0
 10
290.09699999999998
 20
122.126
 30
0.0
 70
    32
  0
VERTEX
  5
11C5
  8
0
 10
290.09699999999998
 20
122.126
 30
0.0
 70
    32
  0
VERTEX
  5
11C6
  8
0
 10
290.09699999999998
 20
122.126
 30
0.0
 70
    32
  0
VERTEX
  5
11C7
  8
0
 10
290.09699999999998
 20
122.127
 30
0.0
 70
    32
  0
VERTEX
  5
11C8
  8
0
 10
290.09699999999998
 20
122.127
 30
0.0
 70
    32
  0
VERTEX
  5
11C9
  8
0
 10
290.09699999999998
 20
122.127
 30
0.0
 70
    32
  0
VERTEX
  5
11CA
  8
0
 10
290.09699999999998
 20
122.127
 30
0.0
 70
    32
  0
VERTEX
  5
11CB
  8
0
 10
290.09699999999998
 20
122.128
 30
0.0
 70
    32
  0
VERTEX
  5
11CC
  8
0
 10
290.09699999999998
 20
122.128
 30
0.0
 70
    32
  0
VERTEX
  5
11CD
  8
0
 10
290.09699999999998
 20
122.128
 30
0.0
 70
    32
  0
VERTEX
  5
11CE
  8
0
 10
290.09699999999998
 20
122.128
 30
0.0
 70
    32
  0
VERTEX
  5
11CF
  8
0
 10
290.096
 20
122.129
 30
0.0
 70
    32
  0
VERTEX
  5
11D0
  8
0
 10
290.096
 20
122.129
 30
0.0
 70
    32
  0
VERTEX
  5
11D1
  8
0
 10
290.096
 20
122.129
 30
0.0
 70
    32
  0
VERTEX
  5
11D2
  8
0
 10
290.096
 20
122.13
 30
0.0
 70
    32
  0
VERTEX
  5
11D3
  8
0
 10
290.096
 20
122.13
 30
0.0
 70
    32
  0
VERTEX
  5
11D4
  8
0
 10
290.096
 20
122.13
 30
0.0
 70
    32
  0
VERTEX
  5
11D5
  8
0
 10
290.096
 20
122.13
 30
0.0
 70
    32
  0
VERTEX
  5
11D6
  8
0
 10
290.096
 20
122.131
 30
0.0
 70
    32
  0
VERTEX
  5
11D7
  8
0
 10
290.096
 20
122.131
 30
0.0
 70
    32
  0
VERTEX
  5
11D8
  8
0
 10
290.096
 20
122.131
 30
0.0
 70
    32
  0
VERTEX
  5
11D9
  8
0
 10
290.096
 20
122.131
 30
0.0
 70
    32
  0
VERTEX
  5
11DA
  8
0
 10
290.096
 20
122.13200000000001
 30
0.0
 70
    32
  0
VERTEX
  5
11DB
  8
0
 10
290.096
 20
122.13200000000001
 30
0.0
 70
    32
  0
VERTEX
  5
11DC
  8
0
 10
290.09500000000003
 20
122.13200000000001
 30
0.0
 70
    32
  0
VERTEX
  5
11DD
  8
0
 10
290.09500000000003
 20
122.13200000000001
 30
0.0
 70
    32
  0
VERTEX
  5
11DE
  8
0
 10
290.09500000000003
 20
122.133
 30
0.0
 70
    32
  0
VERTEX
  5
11DF
  8
0
 10
290.09500000000003
 20
122.133
 30
0.0
 70
    32
  0
VERTEX
  5
11E0
  8
0
 10
290.09500000000003
 20
122.133
 30
0.0
 70
    32
  0
VERTEX
  5
11E1
  8
0
 10
290.09500000000003
 20
122.133
 30
0.0
 70
    32
  0
VERTEX
  5
11E2
  8
0
 10
290.09500000000003
 20
122.134
 30
0.0
 70
    32
  0
VERTEX
  5
11E3
  8
0
 10
290.09500000000003
 20
122.134
 30
0.0
 70
    32
  0
VERTEX
  5
11E4
  8
0
 10
290.09500000000003
 20
122.134
 30
0.0
 70
    32
  0
VERTEX
  5
11E5
  8
0
 10
290.09500000000003
 20
122.134
 30
0.0
 70
    32
  0
VERTEX
  5
11E6
  8
0
 10
290.09500000000003
 20
122.13500000000001
 30
0.0
 70
    32
  0
VERTEX
  5
11E7
  8
0
 10
290.09500000000003
 20
122.13500000000001
 30
0.0
 70
    32
  0
VERTEX
  5
11E8
  8
0
 10
290.09399999999999
 20
122.13500000000001
 30
0.0
 70
    32
  0
VERTEX
  5
11E9
  8
0
 10
290.09399999999999
 20
122.13500000000001
 30
0.0
 70
    32
  0
VERTEX
  5
11EA
  8
0
 10
290.09399999999999
 20
122.136
 30
0.0
 70
    32
  0
VERTEX
  5
11EB
  8
0
 10
290.09399999999999
 20
122.136
 30
0.0
 70
    32
  0
VERTEX
  5
11EC
  8
0
 10
290.09399999999999
 20
122.136
 30
0.0
 70
    32
  0
VERTEX
  5
11ED
  8
0
 10
290.09399999999999
 20
122.136
 30
0.0
 70
    32
  0
VERTEX
  5
11EE
  8
0
 10
290.09399999999999
 20
122.137
 30
0.0
 70
    32
  0
VERTEX
  5
11EF
  8
0
 10
290.09399999999999
 20
122.137
 30
0.0
 70
    32
  0
VERTEX
  5
11F0
  8
0
 10
290.09399999999999
 20
122.137
 30
0.0
 70
    32
  0
VERTEX
  5
11F1
  8
0
 10
290.09399999999999
 20
122.137
 30
0.0
 70
    32
  0
VERTEX
  5
11F2
  8
0
 10
290.09399999999999
 20
122.13800000000001
 30
0.0
 70
    32
  0
VERTEX
  5
11F3
  8
0
 10
290.09399999999999
 20
122.13800000000001
 30
0.0
 70
    32
  0
VERTEX
  5
11F4
  8
0
 10
290.09300000000002
 20
122.13800000000001
 30
0.0
 70
    32
  0
VERTEX
  5
11F5
  8
0
 10
290.09300000000002
 20
122.13800000000001
 30
0.0
 70
    32
  0
VERTEX
  5
11F6
  8
0
 10
290.09300000000002
 20
122.139
 30
0.0
 70
    32
  0
SEQEND
  5
11F7
  8
0
  0
POLYLINE
  5
11F8
  8
0
 66
     1
 10
0.0
 20
0.0
 30
0.0
 70
     8
  0
VERTEX
  5
11F9
  8
0
 10
292.72199999999998
 20
122.82599999999999
 30
0.0
 70
    32
  0
VERTEX
  5
11FA
  8
0
 10
292.72199999999998
 20
122.825
 30
0.0
 70
    32
  0
VERTEX
  5
11FB
  8
0
 10
292.72199999999998
 20
122.825
 30
0.0
 70
    32
  0
VERTEX
  5
11FC
  8
0
 10
292.72199999999998
 20
122.825
 30
0.0
 70
    32
  0
VERTEX
  5
11FD
  8
0
 10
292.72300000000001
 20
122.824
 30
0.0
 70
    32
  0
VERTEX
  5
11FE
  8
0
 10
292.72300000000001
 20
122.824
 30
0.0
 70
    32
  0
VERTEX
  5
11FF
  8
0
 10
292.72300000000001
 20
122.82299999999999
 30
0.0
 70
    32
  0
VERTEX
  5
1200
  8
0
 10
292.72300000000001
 20
122.82299999999999
 30
0.0
 70
    32
  0
VERTEX
  5
1201
  8
0
 10
292.72300000000001
 20
122.82299999999999
 30
0.0
 70
    32
  0
VERTEX
  5
1202
  8
0
 10
292.72300000000001
 20
122.822
 30
0.0
 70
    32
  0
VERTEX
  5
1203
  8
0
 10
292.72300000000001
 20
122.822
 30
0.0
 70
    32
  0
VERTEX
  5
1204
  8
0
 10
292.72399999999999
 20
122.821
 30
0.0
 70
    32
  0
VERTEX
  5
1205
  8
0
 10
292.72399999999999
 20
122.821
 30
0.0
 70
    32
  0
VERTEX
  5
1206
  8
0
 10
292.72399999999999
 20
122.821
 30
0.0
 70
    32
  0
VERTEX
  5
1207
  8
0
 10
292.72399999999999
 20
122.81999999999999
 30
0.0
 70
    32
  0
VERTEX
  5
1208
  8
0
 10
292.72399999999999
 20
122.81999999999999
 30
0.0
 70
    32
  0
VERTEX
  5
1209
  8
0
 10
292.72399999999999
 20
122.819
 30
0.0
 70
    32
  0
VERTEX
  5
120A
  8
0
 10
292.72399999999999
 20
122.819
 30
0.0
 70
    32
  0
VERTEX
  5
120B
  8
0
 10
292.72399999999999
 20
122.819
 30
0.0
 70
    32
  0
VERTEX
  5
120C
  8
0
 10
292.72500000000002
 20
122.818
 30
0.0
 70
    32
  0
VERTEX
  5
120D
  8
0
 10
292.72500000000002
 20
122.818
 30
0.0
 70
    32
  0
VERTEX
  5
120E
  8
0
 10
292.72500000000002
 20
122.81699999999999
 30
0.0
 70
    32
  0
VERTEX
  5
120F
  8
0
 10
292.72500000000002
 20
122.81699999999999
 30
0.0
 70
    32
  0
VERTEX
  5
1210
  8
0
 10
292.72500000000002
 20
122.81699999999999
 30
0.0
 70
    32
  0
VERTEX
  5
1211
  8
0
 10
292.72500000000002
 20
122.816
 30
0.0
 70
    32
  0
VERTEX
  5
1212
  8
0
 10
292.72500000000002
 20
122.816
 30
0.0
 70
    32
  0
VERTEX
  5
1213
  8
0
 10
292.72500000000002
 20
122.815
 30
0.0
 70
    32
  0
VERTEX
  5
1214
  8
0
 10
292.72500000000002
 20
122.815
 30
0.0
 70
    32
  0
VERTEX
  5
1215
  8
0
 10
292.726
 20
122.815
 30
0.0
 70
    32
  0
VERTEX
  5
1216
  8
0
 10
292.726
 20
122.81399999999999
 30
0.0
 70
    32
  0
VERTEX
  5
1217
  8
0
 10
292.726
 20
122.81399999999999
 30
0.0
 70
    32
  0
VERTEX
  5
1218
  8
0
 10
292.726
 20
122.813
 30
0.0
 70
    32
  0
VERTEX
  5
1219
  8
0
 10
292.726
 20
122.813
 30
0.0
 70
    32
  0
VERTEX
  5
121A
  8
0
 10
292.726
 20
122.813
 30
0.0
 70
    32
  0
VERTEX
  5
121B
  8
0
 10
292.726
 20
122.812
 30
0.0
 70
    32
  0
VERTEX
  5
121C
  8
0
 10
292.726
 20
122.812
 30
0.0
 70
    32
  0
VERTEX
  5
121D
  8
0
 10
292.726
 20
122.81100000000001
 30
0.0
 70
    32
  0
VERTEX
  5
121E
  8
0
 10
292.72699999999998
 20
122.81100000000001
 30
0.0
 70
    32
  0
VERTEX
  5
121F
  8
0
 10
292.72699999999998
 20
122.81
 30
0.0
 70
    32
  0
VERTEX
  5
1220
  8
0
 10
292.72699999999998
 20
122.81
 30
0.0
 70
    32
  0
VERTEX
  5
1221
  8
0
 10
292.72699999999998
 20
122.81
 30
0.0
 70
    32
  0
VERTEX
  5
1222
  8
0
 10
292.72699999999998
 20
122.809
 30
0.0
 70
    32
  0
VERTEX
  5
1223
  8
0
 10
292.72699999999998
 20
122.809
 30
0.0
 70
    32
  0
VERTEX
  5
1224
  8
0
 10
292.72699999999998
 20
122.80800000000001
 30
0.0
 70
    32
  0
VERTEX
  5
1225
  8
0
 10
292.72699999999998
 20
122.80800000000001
 30
0.0
 70
    32
  0
VERTEX
  5
1226
  8
0
 10
292.72699999999998
 20
122.80800000000001
 30
0.0
 70
    32
  0
VERTEX
  5
1227
  8
0
 10
292.72699999999998
 20
122.807
 30
0.0
 70
    32
  0
VERTEX
  5
1228
  8
0
 10
292.72699999999998
 20
122.807
 30
0.0
 70
    32
  0
VERTEX
  5
1229
  8
0
 10
292.72699999999998
 20
122.806
 30
0.0
 70
    32
  0
VERTEX
  5
122A
  8
0
 10
292.72699999999998
 20
122.806
 30
0.0
 70
    32
  0
VERTEX
  5
122B
  8
0
 10
292.72800000000001
 20
122.806
 30
0.0
 70
    32
  0
VERTEX
  5
122C
  8
0
 10
292.72800000000001
 20
122.80500000000001
 30
0.0
 70
    32
  0
VERTEX
  5
122D
  8
0
 10
292.72800000000001
 20
122.80500000000001
 30
0.0
 70
    32
  0
VERTEX
  5
122E
  8
0
 10
292.72800000000001
 20
122.804
 30
0.0
 70
    32
  0
VERTEX
  5
122F
  8
0
 10
292.72800000000001
 20
122.804
 30
0.0
 70
    32
  0
VERTEX
  5
1230
  8
0
 10
292.72800000000001
 20
122.803
 30
0.0
 70
    32
  0
VERTEX
  5
1231
  8
0
 10
292.72800000000001
 20
122.803
 30
0.0
 70
    32
  0
VERTEX
  5
1232
  8
0
 10
292.72800000000001
 20
122.803
 30
0.0
 70
    32
  0
VERTEX
  5
1233
  8
0
 10
292.72800000000001
 20
122.80200000000001
 30
0.0
 70
    32
  0
VERTEX
  5
1234
  8
0
 10
292.72800000000001
 20
122.80200000000001
 30
0.0
 70
    32
  0
VERTEX
  5
1235
  8
0
 10
292.72800000000001
 20
122.801
 30
0.0
 70
    32
  0
VERTEX
  5
1236
  8
0
 10
292.72800000000001
 20
122.801
 30
0.0
 70
    32
  0
VERTEX
  5
1237
  8
0
 10
292.72800000000001
 20
122.801
 30
0.0
 70
    32
  0
VERTEX
  5
1238
  8
0
 10
292.72800000000001
 20
122.8
 30
0.0
 70
    32
  0
VERTEX
  5
1239
  8
0
 10
292.72800000000001
 20
122.8
 30
0.0
 70
    32
  0
VERTEX
  5
123A
  8
0
 10
292.72800000000001
 20
122.79900000000001
 30
0.0
 70
    32
  0
VERTEX
  5
123B
  8
0
 10
292.72800000000001
 20
122.79900000000001
 30
0.0
 70
    32
  0
VERTEX
  5
123C
  8
0
 10
292.72800000000001
 20
122.79900000000001
 30
0.0
 70
    32
  0
VERTEX
  5
123D
  8
0
 10
292.72800000000001
 20
122.798
 30
0.0
 70
    32
  0
VERTEX
  5
123E
  8
0
 10
292.72800000000001
 20
122.798
 30
0.0
 70
    32
  0
VERTEX
  5
123F
  8
0
 10
292.72800000000001
 20
122.797
 30
0.0
 70
    32
  0
VERTEX
  5
1240
  8
0
 10
292.72800000000001
 20
122.797
 30
0.0
 70
    32
  0
VERTEX
  5
1241
  8
0
 10
292.72800000000001
 20
122.79600000000001
 30
0.0
 70
    32
  0
VERTEX
  5
1242
  8
0
 10
292.72800000000001
 20
122.79600000000001
 30
0.0
 70
    32
  0
VERTEX
  5
1243
  8
0
 10
292.72800000000001
 20
122.79600000000001
 30
0.0
 70
    32
  0
VERTEX
  5
1244
  8
0
 10
292.72800000000001
 20
122.795
 30
0.0
 70
    32
  0
VERTEX
  5
1245
  8
0
 10
292.72800000000001
 20
122.795
 30
0.0
 70
    32
  0
VERTEX
  5
1246
  8
0
 10
292.72800000000001
 20
122.794
 30
0.0
 70
    32
  0
VERTEX
  5
1247
  8
0
 10
292.72800000000001
 20
122.794
 30
0.0
 70
    32
  0
VERTEX
  5
1248
  8
0
 10
292.72800000000001
 20
122.794
 30
0.0
 70
    32
  0
VERTEX
  5
1249
  8
0
 10
292.72800000000001
 20
122.79300000000001
 30
0.0
 70
    32
  0
VERTEX
  5
124A
  8
0
 10
292.72800000000001
 20
122.79300000000001
 30
0.0
 70
    32
  0
VERTEX
  5
124B
  8
0
 10
292.72800000000001
 20
122.792
 30
0.0
 70
    32
  0
VERTEX
  5
124C
  8
0
 10
292.72800000000001
 20
122.792
 30
0.0
 70
    32
  0
VERTEX
  5
124D
  8
0
 10
292.72800000000001
 20
122.791
 30
0.0
 70
    32
  0
VERTEX
  5
124E
  8
0
 10
292.72800000000001
 20
122.791
 30
0.0
 70
    32
  0
VERTEX
  5
124F
  8
0
 10
292.72800000000001
 20
122.791
 30
0.0
 70
    32
  0
VERTEX
  5
1250
  8
0
 10
292.72800000000001
 20
122.79000000000001
 30
0.0
 70
    32
  0
VERTEX
  5
1251
  8
0
 10
292.72800000000001
 20
122.79000000000001
 30
0.0
 70
    32
  0
VERTEX
  5
1252
  8
0
 10
292.72800000000001
 20
122.789
 30
0.0
 70
    32
  0
VERTEX
  5
1253
  8
0
 10
292.72800000000001
 20
122.789
 30
0.0
 70
    32
  0
VERTEX
  5
1254
  8
0
 10
292.72800000000001
 20
122.789
 30
0.0
 70
    32
  0
VERTEX
  5
1255
  8
0
 10
292.72800000000001
 20
122.788
 30
0.0
 70
    32
  0
VERTEX
  5
1256
  8
0
 10
292.72800000000001
 20
122.788
 30
0.0
 70
    32
  0
VERTEX
  5
1257
  8
0
 10
292.72800000000001
 20
122.78700000000001
 30
0.0
 70
    32
  0
VERTEX
  5
1258
  8
0
 10
292.72800000000001
 20
122.78700000000001
 30
0.0
 70
    32
  0
VERTEX
  5
1259
  8
0
 10
292.72800000000001
 20
122.786
 30
0.0
 70
    32
  0
VERTEX
  5
125A
  8
0
 10
292.72699999999998
 20
122.786
 30
0.0
 70
    32
  0
VERTEX
  5
125B
  8
0
 10
292.72699999999998
 20
122.786
 30
0.0
 70
    32
  0
VERTEX
  5
125C
  8
0
 10
292.72699999999998
 20
122.785
 30
0.0
 70
    32
  0
VERTEX
  5
125D
  8
0
 10
292.72699999999998
 20
122.785
 30
0.0
 70
    32
  0
VERTEX
  5
125E
  8
0
 10
292.72699999999998
 20
122.78400000000001
 30
0.0
 70
    32
  0
VERTEX
  5
125F
  8
0
 10
292.72699999999998
 20
122.78400000000001
 30
0.0
 70
    32
  0
VERTEX
  5
1260
  8
0
 10
292.72699999999998
 20
122.78400000000001
 30
0.0
 70
    32
  0
VERTEX
  5
1261
  8
0
 10
292.72699999999998
 20
122.783
 30
0.0
 70
    32
  0
VERTEX
  5
1262
  8
0
 10
292.72699999999998
 20
122.783
 30
0.0
 70
    32
  0
VERTEX
  5
1263
  8
0
 10
292.72699999999998
 20
122.782
 30
0.0
 70
    32
  0
VERTEX
  5
1264
  8
0
 10
292.72699999999998
 20
122.782
 30
0.0
 70
    32
  0
VERTEX
  5
1265
  8
0
 10
292.72699999999998
 20
122.782
 30
0.0
 70
    32
  0
VERTEX
  5
1266
  8
0
 10
292.72699999999998
 20
122.78100000000001
 30
0.0
 70
    32
  0
VERTEX
  5
1267
  8
0
 10
292.726
 20
122.78100000000001
 30
0.0
 70
    32
  0
VERTEX
  5
1268
  8
0
 10
292.726
 20
122.78
 30
0.0
 70
    32
  0
VERTEX
  5
1269
  8
0
 10
292.726
 20
122.78
 30
0.0
 70
    32
  0
VERTEX
  5
126A
  8
0
 10
292.726
 20
122.78
 30
0.0
 70
    32
  0
VERTEX
  5
126B
  8
0
 10
292.726
 20
122.779
 30
0.0
 70
    32
  0
VERTEX
  5
126C
  8
0
 10
292.726
 20
122.779
 30
0.0
 70
    32
  0
VERTEX
  5
126D
  8
0
 10
292.726
 20
122.77800000000001
 30
0.0
 70
    32
  0
VERTEX
  5
126E
  8
0
 10
292.726
 20
122.77800000000001
 30
0.0
 70
    32
  0
VERTEX
  5
126F
  8
0
 10
292.726
 20
122.77800000000001
 30
0.0
 70
    32
  0
VERTEX
  5
1270
  8
0
 10
292.72500000000002
 20
122.777
 30
0.0
 70
    32
  0
VERTEX
  5
1271
  8
0
 10
292.72500000000002
 20
122.777
 30
0.0
 70
    32
  0
VERTEX
  5
1272
  8
0
 10
292.72500000000002
 20
122.776
 30
0.0
 70
    32
  0
VERTEX
  5
1273
  8
0
 10
292.72500000000002
 20
122.776
 30
0.0
 70
    32
  0
VERTEX
  5
1274
  8
0
 10
292.72500000000002
 20
122.776
 30
0.0
 70
    32
  0
VERTEX
  5
1275
  8
0
 10
292.72500000000002
 20
122.77500000000001
 30
0.0
 70
    32
  0
VERTEX
  5
1276
  8
0
 10
292.72500000000002
 20
122.77500000000001
 30
0.0
 70
    32
  0
VERTEX
  5
1277
  8
0
 10
292.72500000000002
 20
122.77500000000001
 30
0.0
 70
    32
  0
VERTEX
  5
1278
  8
0
 10
292.72399999999999
 20
122.774
 30
0.0
 70
    32
  0
VERTEX
  5
1279
  8
0
 10
292.72399999999999
 20
122.774
 30
0.0
 70
    32
  0
VERTEX
  5
127A
  8
0
 10
292.72399999999999
 20
122.773
 30
0.0
 70
    32
  0
VERTEX
  5
127B
  8
0
 10
292.72399999999999
 20
122.773
 30
0.0
 70
    32
  0
VERTEX
  5
127C
  8
0
 10
292.72399999999999
 20
122.773
 30
0.0
 70
    32
  0
VERTEX
  5
127D
  8
0
 10
292.72399999999999
 20
122.77200000000001
 30
0.0
 70
    32
  0
VERTEX
  5
127E
  8
0
 10
292.72399999999999
 20
122.77200000000001
 30
0.0
 70
    32
  0
VERTEX
  5
127F
  8
0
 10
292.72399999999999
 20
122.77200000000001
 30
0.0
 70
    32
  0
VERTEX
  5
1280
  8
0
 10
292.72300000000001
 20
122.771
 30
0.0
 70
    32
  0
VERTEX
  5
1281
  8
0
 10
292.72300000000001
 20
122.771
 30
0.0
 70
    32
  0
VERTEX
  5
1282
  8
0
 10
292.72300000000001
 20
122.77
 30
0.0
 70
    32
  0
VERTEX
  5
1283
  8
0
 10
292.72300000000001
 20
122.77
 30
0.0
 70
    32
  0
VERTEX
  5
1284
  8
0
 10
292.72300000000001
 20
122.77
 30
0.0
 70
    32
  0
VERTEX
  5
1285
  8
0
 10
292.72300000000001
 20
122.76900000000001
 30
0.0
 70
    32
  0
VERTEX
  5
1286
  8
0
 10
292.72199999999998
 20
122.76900000000001
 30
0.0
 70
    32
  0
VERTEX
  5
1287
  8
0
 10
292.72199999999998
 20
122.76900000000001
 30
0.0
 70
    32
  0
VERTEX
  5
1288
  8
0
 10
292.72199999999998
 20
122.768
 30
0.0
 70
    32
  0
VERTEX
  5
1289
  8
0
 10
292.72199999999998
 20
122.768
 30
0.0
 70
    32
  0
VERTEX
  5
128A
  8
0
 10
292.72199999999998
 20
122.768
 30
0.0
 70
    32
  0
VERTEX
  5
128B
  8
0
 10
292.72199999999998
 20
122.767
 30
0.0
 70
    32
  0
VERTEX
  5
128C
  8
0
 10
292.721
 20
122.767
 30
0.0
 70
    32
  0
VERTEX
  5
128D
  8
0
 10
292.721
 20
122.767
 30
0.0
 70
    32
  0
VERTEX
  5
128E
  8
0
 10
292.721
 20
122.76600000000001
 30
0.0
 70
    32
  0
VERTEX
  5
128F
  8
0
 10
292.721
 20
122.76600000000001
 30
0.0
 70
    32
  0
VERTEX
  5
1290
  8
0
 10
292.721
 20
122.76600000000001
 30
0.0
 70
    32
  0
VERTEX
  5
1291
  8
0
 10
292.721
 20
122.765
 30
0.0
 70
    32
  0
VERTEX
  5
1292
  8
0
 10
292.72000000000003
 20
122.765
 30
0.0
 70
    32
  0
VERTEX
  5
1293
  8
0
 10
292.72000000000003
 20
122.765
 30
0.0
 70
    32
  0
VERTEX
  5
1294
  8
0
 10
292.72000000000003
 20
122.764
 30
0.0
 70
    32
  0
VERTEX
  5
1295
  8
0
 10
292.72000000000003
 20
122.764
 30
0.0
 70
    32
  0
VERTEX
  5
1296
  8
0
 10
292.72000000000003
 20
122.764
 30
0.0
 70
    32
  0
VERTEX
  5
1297
  8
0
 10
292.71899999999999
 20
122.76300000000001
 30
0.0
 70
    32
  0
VERTEX
  5
1298
  8
0
 10
292.71899999999999
 20
122.76300000000001
 30
0.0
 70
    32
  0
VERTEX
  5
1299
  8
0
 10
292.71899999999999
 20
122.76300000000001
 30
0.0
 70
    32
  0
VERTEX
  5
129A
  8
0
 10
292.71899999999999
 20
122.762
 30
0.0
 70
    32
  0
VERTEX
  5
129B
  8
0
 10
292.71899999999999
 20
122.762
 30
0.0
 70
    32
  0
VERTEX
  5
129C
  8
0
 10
292.71800000000002
 20
122.762
 30
0.0
 70
    32
  0
VERTEX
  5
129D
  8
0
 10
292.71800000000002
 20
122.761
 30
0.0
 70
    32
  0
VERTEX
  5
129E
  8
0
 10
292.71800000000002
 20
122.761
 30
0.0
 70
    32
  0
VERTEX
  5
129F
  8
0
 10
292.71800000000002
 20
122.761
 30
0.0
 70
    32
  0
VERTEX
  5
12A0
  8
0
 10
292.71699999999998
 20
122.76000000000001
 30
0.0
 70
    32
  0
VERTEX
  5
12A1
  8
0
 10
292.71699999999998
 20
122.76000000000001
 30
0.0
 70
    32
  0
VERTEX
  5
12A2
  8
0
 10
292.71699999999998
 20
122.76000000000001
 30
0.0
 70
    32
  0
VERTEX
  5
12A3
  8
0
 10
292.71699999999998
 20
122.76000000000001
 30
0.0
 70
    32
  0
VERTEX
  5
12A4
  8
0
 10
292.71699999999998
 20
122.759
 30
0.0
 70
    32
  0
VERTEX
  5
12A5
  8
0
 10
292.71600000000001
 20
122.759
 30
0.0
 70
    32
  0
VERTEX
  5
12A6
  8
0
 10
292.71600000000001
 20
122.759
 30
0.0
 70
    32
  0
VERTEX
  5
12A7
  8
0
 10
292.71600000000001
 20
122.758
 30
0.0
 70
    32
  0
VERTEX
  5
12A8
  8
0
 10
292.71600000000001
 20
122.758
 30
0.0
 70
    32
  0
VERTEX
  5
12A9
  8
0
 10
292.71499999999997
 20
122.758
 30
0.0
 70
    32
  0
VERTEX
  5
12AA
  8
0
 10
292.71499999999997
 20
122.758
 30
0.0
 70
    32
  0
VERTEX
  5
12AB
  8
0
 10
292.71499999999997
 20
122.75700000000001
 30
0.0
 70
    32
  0
VERTEX
  5
12AC
  8
0
 10
292.71499999999997
 20
122.75700000000001
 30
0.0
 70
    32
  0
VERTEX
  5
12AD
  8
0
 10
292.714
 20
122.75700000000001
 30
0.0
 70
    32
  0
VERTEX
  5
12AE
  8
0
 10
292.714
 20
122.75700000000001
 30
0.0
 70
    32
  0
VERTEX
  5
12AF
  8
0
 10
292.714
 20
122.756
 30
0.0
 70
    32
  0
VERTEX
  5
12B0
  8
0
 10
292.714
 20
122.756
 30
0.0
 70
    32
  0
VERTEX
  5
12B1
  8
0
 10
292.71300000000002
 20
122.756
 30
0.0
 70
    32
  0
VERTEX
  5
12B2
  8
0
 10
292.71300000000002
 20
122.756
 30
0.0
 70
    32
  0
VERTEX
  5
12B3
  8
0
 10
292.71300000000002
 20
122.755
 30
0.0
 70
    32
  0
VERTEX
  5
12B4
  8
0
 10
292.71300000000002
 20
122.755
 30
0.0
 70
    32
  0
VERTEX
  5
12B5
  8
0
 10
292.71199999999999
 20
122.755
 30
0.0
 70
    32
  0
VERTEX
  5
12B6
  8
0
 10
292.71199999999999
 20
122.755
 30
0.0
 70
    32
  0
VERTEX
  5
12B7
  8
0
 10
292.71199999999999
 20
122.754
 30
0.0
 70
    32
  0
VERTEX
  5
12B8
  8
0
 10
292.71199999999999
 20
122.754
 30
0.0
 70
    32
  0
VERTEX
  5
12B9
  8
0
 10
292.71100000000001
 20
122.754
 30
0.0
 70
    32
  0
VERTEX
  5
12BA
  8
0
 10
292.71100000000001
 20
122.754
 30
0.0
 70
    32
  0
VERTEX
  5
12BB
  8
0
 10
292.71100000000001
 20
122.753
 30
0.0
 70
    32
  0
VERTEX
  5
12BC
  8
0
 10
292.70999999999998
 20
122.753
 30
0.0
 70
    32
  0
VERTEX
  5
12BD
  8
0
 10
292.70999999999998
 20
122.753
 30
0.0
 70
    32
  0
VERTEX
  5
12BE
  8
0
 10
292.70999999999998
 20
122.753
 30
0.0
 70
    32
  0
VERTEX
  5
12BF
  8
0
 10
292.70999999999998
 20
122.752
 30
0.0
 70
    32
  0
VERTEX
  5
12C0
  8
0
 10
292.709
 20
122.752
 30
0.0
 70
    32
  0
VERTEX
  5
12C1
  8
0
 10
292.709
 20
122.752
 30
0.0
 70
    32
  0
VERTEX
  5
12C2
  8
0
 10
292.709
 20
122.752
 30
0.0
 70
    32
  0
VERTEX
  5
12C3
  8
0
 10
292.709
 20
122.751
 30
0.0
 70
    32
  0
VERTEX
  5
12C4
  8
0
 10
292.70800000000003
 20
122.751
 30
0.0
 70
    32
  0
VERTEX
  5
12C5
  8
0
 10
292.70800000000003
 20
122.751
 30
0.0
 70
    32
  0
VERTEX
  5
12C6
  8
0
 10
292.70800000000003
 20
122.751
 30
0.0
 70
    32
  0
VERTEX
  5
12C7
  8
0
 10
292.70699999999999
 20
122.751
 30
0.0
 70
    32
  0
VERTEX
  5
12C8
  8
0
 10
292.70699999999999
 20
122.75
 30
0.0
 70
    32
  0
VERTEX
  5
12C9
  8
0
 10
292.70699999999999
 20
122.75
 30
0.0
 70
    32
  0
VERTEX
  5
12CA
  8
0
 10
292.70699999999999
 20
122.75
 30
0.0
 70
    32
  0
VERTEX
  5
12CB
  8
0
 10
292.7059999999999
 20
122.75
 30
0.0
 70
    32
  0
VERTEX
  5
12CC
  8
0
 10
292.7059999999999
 20
122.749
 30
0.0
 70
    32
  0
VERTEX
  5
12CD
  8
0
 10
292.7059999999999
 20
122.749
 30
0.0
 70
    32
  0
VERTEX
  5
12CE
  8
0
 10
292.70499999999998
 20
122.749
 30
0.0
 70
    32
  0
VERTEX
  5
12CF
  8
0
 10
292.70499999999998
 20
122.749
 30
0.0
 70
    32
  0
VERTEX
  5
12D0
  8
0
 10
292.70499999999998
 20
122.749
 30
0.0
 70
    32
  0
VERTEX
  5
12D1
  8
0
 10
292.70499999999998
 20
122.748
 30
0.0
 70
    32
  0
VERTEX
  5
12D2
  8
0
 10
292.70400000000001
 20
122.748
 30
0.0
 70
    32
  0
VERTEX
  5
12D3
  8
0
 10
292.70400000000001
 20
122.748
 30
0.0
 70
    32
  0
VERTEX
  5
12D4
  8
0
 10
292.70400000000001
 20
122.748
 30
0.0
 70
    32
  0
VERTEX
  5
12D5
  8
0
 10
292.70299999999997
 20
122.747
 30
0.0
 70
    32
  0
VERTEX
  5
12D6
  8
0
 10
292.70299999999997
 20
122.747
 30
0.0
 70
    32
  0
VERTEX
  5
12D7
  8
0
 10
292.70299999999997
 20
122.747
 30
0.0
 70
    32
  0
VERTEX
  5
12D8
  8
0
 10
292.70299999999997
 20
122.747
 30
0.0
 70
    32
  0
SEQEND
  5
12D9
  8
0
  0
LINE
  5
210
  8
0
  6
CONTINUOUS
 10
292.70255974200001
 20
122.746805274
 30
0.0
 11
292.6785780889
 21
122.7339068106
 31
0.0
  0
LINE
  5
211
  8
0
  6
CONTINUOUS
 10
289.9353132283
 20
122.84567569470001
 30
0.0
 11
289.85715631419998
 21
122.8907947208
 31
0.0
  0
ARC
  5
212
  8
0
  6
CONTINUOUS
 10
292.7146841677
 20
123.2723458808
 30
0.0
 40
0.0301763567096766
 50
5.6947992514000001
 51
65.625341706400008
  0
ARC
  5
213
  8
0
  6
CONTINUOUS
 10
292.71784237669999
 20
122.8270292878
 30
0.0
 40
0.0261969190100592
 50
290.78342079949999
 51
69.216579200500007
  0
LINE
  5
214
  8
0
  6
CONTINUOUS
 10
284.88316887080009
 20
125.1034810514
 30
0.0
 11
282.24535329949998
 21
128.8351318464
 31
0.0
  0
LINE
  5
215
  8
0
  6
CONTINUOUS
 10
284.86656453350002
 20
125.0866253315
 30
0.0
 11
282.22874896209998
 21
128.81827612640001
 31
0.0
  0
LINE
  5
216
  8
0
  6
CONTINUOUS
 10
196.47821688510001
 20
74.061118342599983
 30
0.0
 11
193.84040131379999
 21
77.792769137500002
 31
0.0
  0
ARC
  5
217
  8
0
  6
CONTINUOUS
 10
282.3256886561
 20
128.8896915231999
 30
0.0
 40
0.1204054117082753
 50
182.40265622960001
 51
216.3790454528
  0
ARC
  5
218
  8
0
  6
CONTINUOUS
 10
193.9373410078
 20
77.864184534300009
 30
0.0
 40
0.1204054117083906
 50
182.40265622960001
 51
216.3790454528
  0
ARC
  5
219
  8
0
  6
CONTINUOUS
 10
282.29382314650002
 20
128.87083954479999
 30
0.0
 40
0.0602027058553281
 50
182.4026562299
 51
216.37904545250001
  0
LINE
  5
21A
  8
0
  6
CONTINUOUS
 10
282.20538909430002
 20
128.88464389079999
 30
0.0
 11
282.20538909430002
 21
129.34124722620001
 31
0.0
  0
LINE
  5
21B
  8
0
  6
CONTINUOUS
 10
282.20538909430002
 20
129.34124722620001
 30
0.0
 11
282.23367336550001
 21
129.324919064
 31
0.0
  0
LINE
  5
21C
  8
0
  6
CONTINUOUS
 10
282.23367336550001
 20
128.86831572860001
 30
0.0
 11
282.23367336550001
 21
129.324919064
 31
0.0
  0
LINE
  5
21D
  8
0
  6
CONTINUOUS
 10
282.16296268740001
 20
129.31675498289999
 30
0.0
 11
282.20538909430002
 21
129.34124722620001
 31
0.0
  0
LINE
  5
21E
  8
0
  6
CONTINUOUS
 10
193.81704144599999
 20
77.859136901900001
 30
0.0
 11
193.81704144599999
 21
78.315740237299991
 31
0.0
  0
LINE
  5
21F
  8
0
  6
CONTINUOUS
 10
193.81704144599999
 20
78.315740237299991
 30
0.0
 11
193.85946785280001
 21
78.340232480600008
 31
0.0
  0
LINE
  5
220
  8
0
  6
CONTINUOUS
 10
193.85946785280001
 20
78.340232480600008
 30
0.0
 11
193.85946785280001
 21
78.356563296899992
 31
0.0
  0
LINE
  5
221
  8
0
  6
CONTINUOUS
 10
282.16296268740001
 20
129.31675498289999
 30
0.0
 11
282.16296268740001
 21
129.33308579909999
 31
0.0
  0
LINE
  5
222
  8
0
  6
CONTINUOUS
 10
282.2195312299001
 20
129.33309110709999
 30
0.0
 11
282.21890673950008
 21
129.33344365569999
 31
0.0
  0
ARC
  5
223
  8
0
  6
CONTINUOUS
 10
282.1974486368
 20
129.33867997479999
 30
0.0
 40
0.0349367357942924
 50
50.796714764199997
 51
189.21403699050001
  0
LINE
  5
224
  8
0
  6
CONTINUOUS
 10
282.58722675609999
 20
129.1534866305
 30
0.0
 11
282.2195312299001
 21
129.3657527396
 31
0.0
  0
LINE
  5
225
  8
0
  6
CONTINUOUS
 10
282.22196074819999
 20
129.331688576
 30
0.0
 11
282.2195312299001
 21
129.33309110709999
 31
0.0
  0
ARC
  5
226
  8
0
  6
CONTINUOUS
 10
193.8975226972
 20
78.361408419200004
 30
0.0
 40
0.0383620436492382
 50
124.0563507727
 51
187.2558296204999
  0
POLYLINE
  5
227
  8
0
  6
CONTINUOUS
 66
     1
 10
0.0
 20
0.0
 30
0.0
 70
   128
  0
VERTEX
  5
13D1
  8
0
  6
CONTINUOUS
 10
284.95489190249998
 20
125.0738228891
 30
0.0
  0
VERTEX
  5
13D2
  8
0
  6
CONTINUOUS
 10
284.95012292090001
 20
125.0614940346
 30
0.0
  0
VERTEX
  5
13D3
  8
0
  6
CONTINUOUS
 10
284.94231213789999
 20
125.05272007470001
 30
0.0
  0
VERTEX
  5
13D4
  8
0
  6
CONTINUOUS
 10
284.93193143010001
 20
125.04803107479999
 30
0.0
  0
VERTEX
  5
13D5
  8
0
  6
CONTINUOUS
 10
284.91960793210001
 20
125.04771031369999
 30
0.0
  0
VERTEX
  5
13D6
  8
0
  6
CONTINUOUS
 10
284.90608614939998
 20
125.0517771698
 30
0.0
  0
VERTEX
  5
13D7
  8
0
  6
CONTINUOUS
 10
284.89218297989999
 20
125.0599859501
 30
0.0
  0
VERTEX
  5
13D8
  8
0
  6
CONTINUOUS
 10
284.87873836260002
 20
125.0718407335
 30
0.0
  0
VERTEX
  5
13D9
  8
0
  6
CONTINUOUS
 10
284.86656453350002
 20
125.0866253315
 30
0.0
  0
SEQEND
  5
13DA
  8
0
  6
CONTINUOUS
  0
POLYLINE
  5
228
  8
0
  6
CONTINUOUS
 66
     1
 10
0.0
 20
0.0
 30
0.0
 70
   128
  0
VERTEX
  5
13DB
  8
0
  6
CONTINUOUS
 10
196.55142230909999
 20
74.025545873499979
 30
0.0
  0
VERTEX
  5
13DC
  8
0
  6
CONTINUOUS
 10
196.54358378180001
 20
74.022524085900002
 30
0.0
  0
VERTEX
  5
13DD
  8
0
  6
CONTINUOUS
 10
196.53126028380001
 20
74.02220332479996
 30
0.0
  0
VERTEX
  5
13DE
  8
0
  6
CONTINUOUS
 10
196.51773850110001
 20
74.026270180899999
 30
0.0
  0
VERTEX
  5
13DF
  8
0
  6
CONTINUOUS
 10
196.50383533159999
 20
74.03447896119998
 30
0.0
  0
VERTEX
  5
13E0
  8
0
  6
CONTINUOUS
 10
196.49039071429999
 20
74.046333744600005
 30
0.0
  0
VERTEX
  5
13E1
  8
0
  6
CONTINUOUS
 10
196.47821688510001
 20
74.061118342599983
 30
0.0
  0
SEQEND
  5
13E2
  8
0
  6
CONTINUOUS
  0
POLYLINE
  5
229
  8
0
  6
CONTINUOUS
 66
     1
 10
0.0
 20
0.0
 30
0.0
 70
   128
  0
VERTEX
  5
13E3
  8
0
  6
CONTINUOUS
 10
284.92733255529998
 20
125.0970798302
 30
0.0
  0
VERTEX
  5
13E4
  8
0
  6
CONTINUOUS
 10
284.92494806449997
 20
125.090915403
 30
0.0
  0
VERTEX
  5
13E5
  8
0
  6
CONTINUOUS
 10
284.92104267299999
 20
125.086528423
 30
0.0
  0
VERTEX
  5
13E6
  8
0
  6
CONTINUOUS
 10
284.9158523191
 20
125.0841839231
 30
0.0
  0
VERTEX
  5
13E7
  8
0
  6
CONTINUOUS
 10
284.9096905701
 20
125.08402354259999
 30
0.0
  0
VERTEX
  5
13E8
  8
0
  6
CONTINUOUS
 10
284.90292967879998
 20
125.0860569706
 30
0.0
  0
VERTEX
  5
13E9
  8
0
  6
CONTINUOUS
 10
284.89597809399999
 20
125.09016136069999
 30
0.0
  0
VERTEX
  5
13EA
  8
0
  6
CONTINUOUS
 10
284.88925578530001
 20
125.09608875249999
 30
0.0
  0
VERTEX
  5
13EB
  8
0
  6
CONTINUOUS
 10
284.88316887080009
 20
125.1034810514
 30
0.0
  0
SEQEND
  5
13EC
  8
0
  6
CONTINUOUS
  0
LINE
  5
22A
  8
0
  6
CONTINUOUS
 10
285.0164086283001
 20
125.4912005452
 30
0.0
 11
284.92733255529998
 21
125.0970798302
 31
0.0
  0
LINE
  5
22B
  8
0
  6
CONTINUOUS
 10
285.04396797549998
 20
125.467943604
 30
0.0
 11
285.0164086283001
 21
125.4912005452
 31
0.0
  0
LINE
  5
22C
  8
0
  6
CONTINUOUS
 10
285.04396797549998
 20
125.467943604
 30
0.0
 11
284.95489190249998
 21
125.0738228891
 31
0.0
  0
LINE
  5
22D
  8
0
  6
CONTINUOUS
 10
285.0164086283001
 20
125.4912005452
 30
0.0
 11
285.00838720249999
 21
125.4955268468
 31
0.0
  0
LINE
  5
22E
  8
0
  6
CONTINUOUS
 10
285.0491559642
 20
125.66639424260001
 30
0.0
 11
285.06181238490001
 21
125.6557136692
 31
0.0
  0
LINE
  5
22F
  8
0
  6
CONTINUOUS
 10
285.02331346929998
 20
125.48537364809999
 30
0.0
 11
285.06181238490001
 21
125.6557136692
 31
0.0
  0
LINE
  5
230
  8
0
  6
CONTINUOUS
 10
289.83222570049998
 20
122.854677596
 30
0.0
 11
289.83889490259998
 21
122.8285679426
 31
0.0
  0
LINE
  5
231
  8
0
  6
CONTINUOUS
 10
289.898998979
 20
122.8632652873
 30
0.0
 11
289.83889490259998
 21
122.8285679426
 31
0.0
  0
LINE
  5
232
  8
0
  6
CONTINUOUS
 10
289.898998979
 20
122.8632652873
 30
0.0
 11
289.93876508300002
 21
122.6414055732
 31
0.0
  0
LINE
  5
233
  8
0
  6
CONTINUOUS
 10
289.9734119309
 20
122.62223618119999
 30
0.0
 11
289.93876508300002
 21
122.6414055732
 31
0.0
  0
LINE
  5
234
  8
0
  6
CONTINUOUS
 10
290.06248800380001
 20
122.12527042150001
 30
0.0
 11
289.9734119309
 21
122.62223618119999
 31
0.0
  0
LINE
  5
235
  8
0
  6
CONTINUOUS
 10
290.0009712781
 20
122.61367377729999
 30
0.0
 11
289.9734119309
 21
122.62223618119999
 31
0.0
  0
LINE
  5
236
  8
0
  6
CONTINUOUS
 10
290.0900473511
 20
122.11670801770001
 30
0.0
 11
290.0009712781
 21
122.61367377729999
 31
0.0
  0
ARC
  5
237
  8
0
  6
CONTINUOUS
 10
290.15942924180001
 20
122.1329553707
 30
0.0
 40
0.0972453703481762
 50
184.53260400169981
 51
264.91815376990002
  0
ARC
  5
238
  8
0
  6
CONTINUOUS
 10
290.13851797000001
 20
122.1205504923
 30
0.0
 40
0.0486226851738692
 50
184.5326040015
 51
264.91815377009999
  0
LINE
  5
239
  8
0
  6
CONTINUOUS
 10
292.7720266069
 20
122.7582126969
 30
0.0
 11
290.1342110356
 21
122.0721189341
 31
0.0
  0
LINE
  5
23A
  8
0
  6
CONTINUOUS
 10
292.7886309443
 20
122.7221860171
 30
0.0
 11
290.15081537290001
 21
122.0360922543
 31
0.0
  0
LINE
  5
23B
  8
0
  6
CONTINUOUS
 10
204.40028329590001
 20
71.696679028199995
 30
0.0
 11
203.47319567759999
 21
71.455544265200004
 31
0.0
  0
LINE
  5
23C
  8
0
  6
CONTINUOUS
 10
289.93876508300002
 20
122.6414055732
 30
0.0
 11
289.96632443020002
 21
122.6328431693
 31
0.0
  0
LINE
  5
23D
  8
0
  6
CONTINUOUS
 10
289.96632443020002
 20
122.6328431693
 30
0.0
 11
290.0009712781
 21
122.61367377729999
 31
0.0
  0
LINE
  5
23E
  8
0
  6
CONTINUOUS
 10
289.898998979
 20
122.8632652873
 30
0.0
 11
289.91165539970001
 21
122.85933306850001
 31
0.0
  0
LINE
  5
23F
  8
0
  6
CONTINUOUS
 10
289.927352654
 20
122.8502712364
 30
0.0
 11
289.96632443020002
 21
122.6328431693
 31
0.0
  0
LINE
  5
240
  8
0
  6
CONTINUOUS
 10
289.85141095189999
 20
122.87889943419999
 30
0.0
 11
289.8610066247
 21
122.841332768
 31
0.0
  0
ARC
  5
241
  8
0
  6
CONTINUOUS
 10
292.76551330080002
 20
122.7753866395
 30
0.0
 40
0.0183675654995381
 50
290.76948984329999
 51
7.9001675254999988
  0
ARC
  5
242
  8
0
  6
CONTINUOUS
 10
292.775604332
 20
122.75653390230001
 30
0.0
 40
0.0367351309990258
 50
290.76948984339998
 51
7.9001675255999979
  0
POLYLINE
  5
243
  8
0
  6
CONTINUOUS
 66
     1
 10
0.0
 20
0.0
 30
0.0
 70
   128
  0
VERTEX
  5
13ED
  8
0
  6
CONTINUOUS
 10
204.40707137059999
 20
71.699448478699978
 30
0.0
  0
VERTEX
  5
13EE
  8
0
  6
CONTINUOUS
 10
204.4054404446
 20
71.698580785700003
 30
0.0
  0
VERTEX
  5
13EF
  8
0
  6
CONTINUOUS
 10
204.40028329590001
 20
71.696679028199995
 30
0.0
  0
SEQEND
  5
13F0
  8
0
  6
CONTINUOUS
  0
LINE
  5
244
  8
0
  6
CONTINUOUS
 10
292.81199081210002
 20
123.2181863875
 30
0.0
 11
292.81199081210002
 21
122.76158305209999
 31
0.0
  0
LINE
  5
245
  8
0
  6
CONTINUOUS
 10
292.7837065408001
 20
123.2345145498
 30
0.0
 11
292.7837065408001
 21
122.77791121440001
 31
0.0
  0
LINE
  5
246
  8
0
  6
CONTINUOUS
 10
292.7837065408001
 20
123.2345145498
 30
0.0
 11
292.81199081210002
 21
123.2181863875
 31
0.0
  0
LINE
  5
247
  8
0
  6
CONTINUOUS
 10
292.7837065408001
 20
123.2345145498
 30
0.0
 11
292.74471159149999
 21
123.2120032447
 31
0.0
  0
ARC
  5
248
  8
0
  6
CONTINUOUS
 10
292.63937238599999
 20
123.20024458029999
 30
0.0
 40
0.1312061890638921
 50
11.1057238869
 51
36.827494131199998
  0
LINE
  5
249
  8
0
  6
CONTINUOUS
 10
292.71299586269998
 20
123.3080045498
 30
0.0
 11
292.34530033650009
 21
123.5202706589
 31
0.0
  0
LINE
  5
24A
  8
0
  6
CONTINUOUS
 10
284.79980459490002
 20
124.3842294513
 30
0.0
 11
284.65562996360001
 21
124.3033261596
 31
0.0
  0
LINE
  5
24B
  8
0
  6
CONTINUOUS
 10
285.4078784436
 20
123.00039357599999
 30
0.0
 11
285.55032229390002
 21
123.08429466849999
 31
0.0
  0
LINE
  5
24C
  8
0
  6
CONTINUOUS
 10
284.61903299789998
 20
124.4821726847
 30
0.0
 11
284.76320762929998
 21
124.5630759764
 31
0.0
  0
LINE
  5
24D
  8
0
  6
CONTINUOUS
 10
285.65030706340002
 20
122.9787501214
 30
0.0
 11
285.50786321309999
 21
122.8948490289
 31
0.0
  0
LINE
  5
24E
  8
0
  6
CONTINUOUS
 10
289.01454194640002
 20
120.8704864859
 30
0.0
 11
289.15494080859997
 21
120.9555681249
 31
0.0
  0
LINE
  5
24F
  8
0
  6
CONTINUOUS
 10
289.25492557810003
 20
120.9456727144
 30
0.0
 11
289.11452671590001
 21
120.8605910754
 31
0.0
  0
LINE
  5
250
  8
0
  6
CONTINUOUS
 10
196.76225706209999
 20
73.563562009799981
 30
0.0
 11
196.62358898100001
 21
73.481183679099999
 31
0.0
  0
LINE
  5
251
  8
0
  6
CONTINUOUS
 10
197.3741066799
 20
72.181248896400007
 30
0.0
 11
197.51450554210001
 21
72.260629426199998
 31
0.0
  0
LINE
  5
252
  8
0
  6
CONTINUOUS
 10
196.58699201530001
 20
73.660030204299986
 30
0.0
 11
196.72566009639999
 21
73.742408534899994
 31
0.0
  0
LINE
  5
253
  8
0
  6
CONTINUOUS
 10
197.61449031160001
 20
72.155084879100002
 30
0.0
 11
197.47409144939999
 21
72.075704349199981
 31
0.0
  0
LINE
  5
254
  8
0
  6
CONTINUOUS
 10
200.97872519469999
 20
70.052522352799997
 30
0.0
 11
201.1211690449
 21
70.130722336099993
 31
0.0
  0
LINE
  5
255
  8
0
  6
CONTINUOUS
 10
284.66429779200001
 20
124.2883130404
 30
0.0
 11
196.78592610940001
 21
73.55720891
 31
0.0
  0
LINE
  5
256
  8
0
  6
CONTINUOUS
 10
197.52328603000001
 20
72.280064067799998
 30
0.0
 11
285.4016577125999
 21
123.0111681982
 31
0.0
  0
LINE
  5
257
  8
0
  6
CONTINUOUS
 10
196.7493235691
 20
73.736082678499983
 30
0.0
 11
284.61504519729999
 21
124.459884088
 31
0.0
  0
LINE
  5
258
  8
0
  6
CONTINUOUS
 10
285.49594547300001
 20
122.902309968
 30
0.0
 11
197.62328603
 21
72.174503443299983
 31
0.0
  0
LINE
  5
259
  8
0
  6
CONTINUOUS
 10
201.11237332659999
 20
70.160296220600003
 30
0.0
 11
288.98452957659998
 21
120.8878122582
 31
0.0
  0
LINE
  5
25A
  8
0
  6
CONTINUOUS
 10
283.79476619140002
 20
124.3893584092
 30
0.0
 11
283.79428951649999
 21
124.3897810794
 31
0.0
  0
LINE
  5
25B
  8
0
  6
CONTINUOUS
 10
197.76815519229999
 20
74.727252966999998
 30
0.0
 11
197.76767851739999
 21
74.727675637299981
 31
0.0
  0
LINE
  5
25C
  8
0
  6
CONTINUOUS
 10
282.29530793639998
 20
128.84510109940001
 30
0.0
 11
284.92413491209999
 21
125.1227491544
 31
0.0
  0
LINE
  5
25D
  8
0
  6
CONTINUOUS
 10
290.09324499429999
 20
122.1386854215
 30
0.0
 11
292.72207197
 21
122.825858346
 31
0.0
  0
LINE
  5
25E
  8
0
  6
CONTINUOUS
 10
285.15402437180001
 20
125.6385113239
 30
0.0
 11
289.86335553449999
 21
122.9198723116
 31
0.0
  0
LINE
  5
25F
  8
0
  6
CONTINUOUS
 10
282.29024190799998
 20
129.324924372
 30
0.0
 11
282.29024190799998
 21
128.87661339650001
 31
0.0
  0
LINE
  5
260
  8
0
  6
CONTINUOUS
 10
291.75133064030001
 20
123.8631541039
 30
0.0
 11
283.26604926610003
 21
128.7616027748
 31
0.0
  0
LINE
  5
261
  8
0
  6
CONTINUOUS
 10
292.72713799830001
 20
122.85152153120001
 30
0.0
 11
292.72713799830001
 21
123.2998325067
 31
0.0
  0
LINE
  5
262
  8
0
  6
CONTINUOUS
 10
282.29024190799998
 20
128.87661339650001
 30
0.0
 11
282.26195763679999
 21
128.86028523420001
 31
0.0
  0
LINE
  5
263
  8
0
  6
CONTINUOUS
 10
282.29974503860001
 20
128.84959442639999
 30
0.0
 11
282.27146076730008
 21
128.83326626420001
 31
0.0
  0
LINE
  5
264
  8
0
  6
CONTINUOUS
 10
283.22362285920002
 20
128.7860950182
 30
0.0
 11
283.22362285920002
 21
128.78610298020001
 31
0.0
  0
LINE
  5
265
  8
0
  6
CONTINUOUS
 10
285.11159796499999
 20
125.5650266319
 30
0.0
 11
289.82092912770008
 21
122.84638761950001
 31
0.0
  0
LINE
  5
266
  8
0
  6
CONTINUOUS
 10
285.11159796499999
 20
125.5976882643
 30
0.0
 11
285.11159796499999
 21
125.5650266319
 31
0.0
  0
LINE
  5
267
  8
0
  6
CONTINUOUS
 10
288.2087256666
 20
125.083551531
 30
0.0
 11
288.21579673439999
 21
125.08763357159999
 31
0.0
  0
LINE
  5
268
  8
0
  6
CONTINUOUS
 10
290.12376795339998
 20
122.072711501
 30
0.0
 11
292.70255974200001
 21
122.746805274
 31
0.0
  0
LINE
  5
269
  8
0
  6
CONTINUOUS
 10
292.72713799830001
 20
122.85152153120001
 30
0.0
 11
292.71539292310001
 21
122.8447412436
 31
0.0
  0
LINE
  5
26A
  8
0
  6
CONTINUOUS
 10
282.24535329949998
 20
128.8351318464
 30
0.0
 11
282.22874896209998
 21
128.81827612640001
 31
0.0
  0
LINE
  5
26B
  8
0
  6
CONTINUOUS
 10
284.86656453350002
 20
125.0866253315
 30
0.0
 11
284.88316887080009
 21
125.1034810514
 31
0.0
  0
LINE
  5
26C
  8
0
  6
CONTINUOUS
 10
282.22874896209998
 20
128.81827612640001
 30
0.0
 11
193.84040131379999
 21
77.792769137500002
 31
0.0
  0
LINE
  5
26D
  8
0
  6
CONTINUOUS
 10
284.86656453350002
 20
125.0866253315
 30
0.0
 11
196.47821688510001
 21
74.061118342599983
 31
0.0
  0
LINE
  5
26E
  8
0
  6
CONTINUOUS
 10
282.20538909430002
 20
128.88464389079999
 30
0.0
 11
193.81704144599999
 21
77.859136901900001
 31
0.0
  0
LINE
  5
26F
  8
0
  6
CONTINUOUS
 10
282.20538909430002
 20
128.88464389079999
 30
0.0
 11
282.23367336550001
 21
128.86831572860001
 31
0.0
  0
LINE
  5
270
  8
0
  6
CONTINUOUS
 10
282.16296268740001
 20
129.33308579909999
 30
0.0
 11
193.85946785280001
 21
78.356563296899992
 31
0.0
  0
LINE
  5
271
  8
0
  6
CONTINUOUS
 10
282.58722675609999
 20
129.15347866849999
 30
0.0
 11
282.58722675609999
 21
129.1534866305
 31
0.0
  0
LINE
  5
272
  8
0
  6
CONTINUOUS
 10
282.2195312299001
 20
129.33309110709999
 30
0.0
 11
282.21952433389998
 21
129.3330871261
 31
0.0
  0
LINE
  5
273
  8
0
  6
CONTINUOUS
 10
284.92733255529998
 20
125.0970798302
 30
0.0
 11
284.95489190249998
 21
125.0738228891
 31
0.0
  0
LINE
  5
274
  8
0
  6
CONTINUOUS
 10
284.92733255529998
 20
125.0970798302
 30
0.0
 11
284.90613130549991
 21
125.0848406092
 31
0.0
  0
LINE
  5
275
  8
0
  6
CONTINUOUS
 10
290.06248800380001
 20
122.12527042150001
 30
0.0
 11
289.93263825939999
 21
122.0503097596
 31
0.0
  0
LINE
  5
276
  8
0
  6
CONTINUOUS
 10
290.06248800380001
 20
122.12527042150001
 30
0.0
 11
290.0900473511
 21
122.11670801770001
 31
0.0
  0
LINE
  5
277
  8
0
  6
CONTINUOUS
 10
290.15081537290001
 20
122.0360922543
 30
0.0
 11
289.95829036160001
 21
121.924949931
 31
0.0
  0
LINE
  5
278
  8
0
  6
CONTINUOUS
 10
290.1342110356
 20
122.0721189341
 30
0.0
 11
290.15081537290001
 21
122.0360922543
 31
0.0
  0
LINE
  5
279
  8
0
  6
CONTINUOUS
 10
292.7886309443
 20
122.7221860171
 30
0.0
 11
292.7720266069
 21
122.7582126969
 31
0.0
  0
LINE
  5
27A
  8
0
  6
CONTINUOUS
 10
292.7886309443
 20
122.7221860171
 30
0.0
 11
204.40028329590001
 21
71.696679028199995
 31
0.0
  0
LINE
  5
27B
  8
0
  6
CONTINUOUS
 10
292.7837065408001
 20
122.77791121440001
 30
0.0
 11
292.81199081210002
 21
122.76158305209999
 31
0.0
  0
LINE
  5
27C
  8
0
  6
CONTINUOUS
 10
292.7837065408001
 20
122.77791121440001
 30
0.0
 11
292.73118075230002
 21
122.74758872210001
 31
0.0
  0
LINE
  5
27D
  8
0
  6
CONTINUOUS
 10
292.34530033650009
 20
123.5202706589
 30
0.0
 11
292.34530033650009
 21
123.52026269690001
 31
0.0
  0
ENDSEC
  0
EOF
