  0
SECTION
  2
HEADER
  9
$ACADVER
  1
AC1018
  9
$ACADMAINTVER
 70
   104
  9
$DWGCODEPAGE
  3
ANSI_932
  9
$INSBASE
 10
0.0
 20
0.0
 30
0.0
  9
$EXTMIN
 10
1.717530276763227
 20
5.071575815381038
 30
-0.0015258207003583
  9
$EXTMAX
 10
51.73736627183086
 20
14.83652798379444
 30
0.0000000349246037
  9
$LIMMIN
 10
0.3059321483933104
 20
1.685907629820661
  9
$LIMMAX
 10
53.37004708049062
 20
19.20050462588983
  9
$ORTHOMODE
 70
     0
  9
$REGENMODE
 70
     1
  9
$FILLMODE
 70
     1
  9
$QTEXTMODE
 70
     0
  9
$MIRRTEXT
 70
     0
  9
$LTSCALE
 40
1.0
  9
$ATTMODE
 70
     1
  9
$TEXTSIZE
 40
2.5
  9
$TRACEWID
 40
1.0
  9
$TEXTSTYLE
  7
Standard
  9
$CLAYER
  8
0
  9
$CELTYPE
  6
ByLayer
  9
$CECOLOR
 62
   256
  9
$CELTSCALE
 40
1.0
  9
$DISPSILH
 70
     0
  9
$DIMSCALE
 40
1.0
  9
$DIMASZ
 40
2.5
  9
$DIMEXO
 40
0.625
  9
$DIMDLI
 40
3.75
  9
$DIMRND
 40
0.0
  9
$DIMDLE
 40
0.0
  9
$DIMEXE
 40
1.25
  9
$DIMTP
 40
0.0
  9
$DIMTM
 40
0.0
  9
$DIMTXT
 40
2.5
  9
$DIMCEN
 40
2.5
  9
$DIMTSZ
 40
0.0
  9
$DIMTOL
 70
     0
  9
$DIMLIM
 70
     0
  9
$DIMTIH
 70
     0
  9
$DIMTOH
 70
     0
  9
$DIMSE1
 70
     0
  9
$DIMSE2
 70
     0
  9
$DIMTAD
 70
     1
  9
$DIMZIN
 70
     8
  9
$DIMBLK
  1

  9
$DIMASO
 70
     1
  9
$DIMSHO
 70
     1
  9
$DIMPOST
  1

  9
$DIMAPOST
  1

  9
$DIMALT
 70
     0
  9
$DIMALTD
 70
     3
  9
$DIMALTF
 40
0.03937007874016
  9
$DIMLFAC
 40
1.0
  9
$DIMTOFL
 70
     1
  9
$DIMTVP
 40
0.0
  9
$DIMTIX
 70
     0
  9
$DIMSOXD
 70
     0
  9
$DIMSAH
 70
     0
  9
$DIMBLK1
  1

  9
$DIMBLK2
  1

  9
$DIMSTYLE
  2
ISO-25
  9
$DIMCLRD
 70
     0
  9
$DIMCLRE
 70
     0
  9
$DIMCLRT
 70
     0
  9
$DIMTFAC
 40
1.0
  9
$DIMGAP
 40
0.625
  9
$DIMJUST
 70
     0
  9
$DIMSD1
 70
     0
  9
$DIMSD2
 70
     0
  9
$DIMTOLJ
 70
     0
  9
$DIMTZIN
 70
     8
  9
$DIMALTZ
 70
     0
  9
$DIMALTTZ
 70
     0
  9
$DIMUPT
 70
     0
  9
$DIMDEC
 70
     2
  9
$DIMTDEC
 70
     2
  9
$DIMALTU
 70
     2
  9
$DIMALTTD
 70
     3
  9
$DIMTXSTY
  7
Standard
  9
$DIMAUNIT
 70
     0
  9
$DIMADEC
 70
     0
  9
$DIMALTRND
 40
0.0
  9
$DIMAZIN
 70
     0
  9
$DIMDSEP
 70
    44
  9
$DIMATFIT
 70
     3
  9
$DIMFRAC
 70
     0
  9
$DIMLDRBLK
  1

  9
$DIMLUNIT
 70
     2
  9
$DIMLWD
 70
    -2
  9
$DIMLWE
 70
    -2
  9
$DIMTMOVE
 70
     0
  9
$LUNITS
 70
     2
  9
$LUPREC
 70
     4
  9
$SKETCHINC
 40
1.0
  9
$FILLETRAD
 40
0.0
  9
$AUNITS
 70
     0
  9
$AUPREC
 70
     0
  9
$MENU
  1
.
  9
$ELEVATION
 40
0.0
  9
$PELEVATION
 40
0.0
  9
$THICKNESS
 40
0.0
  9
$LIMCHECK
 70
     0
  9
$CHAMFERA
 40
0.0
  9
$CHAMFERB
 40
0.0
  9
$CHAMFERC
 40
0.0
  9
$CHAMFERD
 40
0.0
  9
$SKPOLY
 70
     0
  9
$TDCREATE
 40
2458495.449259259
  9
$TDUCREATE
 40
2458495.115925926
  9
$TDUPDATE
 40
2458495.565636575
  9
$TDUUPDATE
 40
2458495.232303241
  9
$TDINDWG
 40
0.1157523148
  9
$TDUSRTIMER
 40
0.1157523148
  9
$USRTIMER
 70
     1
  9
$ANGBASE
 50
0.0
  9
$ANGDIR
 70
     0
  9
$PDMODE
 70
     0
  9
$PDSIZE
 40
0.0
  9
$PLINEWID
 40
0.0
  9
$SPLFRAME
 70
     0
  9
$SPLINETYPE
 70
     6
  9
$SPLINESEGS
 70
     8
  9
$HANDSEED
  5
1BC
  9
$SURFTAB1
 70
     6
  9
$SURFTAB2
 70
     6
  9
$SURFTYPE
 70
     6
  9
$SURFU
 70
     6
  9
$SURFV
 70
     6
  9
$UCSBASE
  2

  9
$UCSNAME
  2

  9
$UCSORG
 10
0.0
 20
0.0
 30
0.0
  9
$UCSXDIR
 10
1.0
 20
0.0
 30
0.0
  9
$UCSYDIR
 10
0.0
 20
1.0
 30
0.0
  9
$UCSORTHOREF
  2

  9
$UCSORTHOVIEW
 70
     0
  9
$UCSORGTOP
 10
0.0
 20
0.0
 30
0.0
  9
$UCSORGBOTTOM
 10
0.0
 20
0.0
 30
0.0
  9
$UCSORGLEFT
 10
0.0
 20
0.0
 30
0.0
  9
$UCSORGRIGHT
 10
0.0
 20
0.0
 30
0.0
  9
$UCSORGFRONT
 10
0.0
 20
0.0
 30
0.0
  9
$UCSORGBACK
 10
0.0
 20
0.0
 30
0.0
  9
$PUCSBASE
  2

  9
$PUCSNAME
  2

  9
$PUCSORG
 10
0.0
 20
0.0
 30
0.0
  9
$PUCSXDIR
 10
1.0
 20
0.0
 30
0.0
  9
$PUCSYDIR
 10
0.0
 20
1.0
 30
0.0
  9
$PUCSORTHOREF
  2

  9
$PUCSORTHOVIEW
 70
     0
  9
$PUCSORGTOP
 10
0.0
 20
0.0
 30
0.0
  9
$PUCSORGBOTTOM
 10
0.0
 20
0.0
 30
0.0
  9
$PUCSORGLEFT
 10
0.0
 20
0.0
 30
0.0
  9
$PUCSORGRIGHT
 10
0.0
 20
0.0
 30
0.0
  9
$PUCSORGFRONT
 10
0.0
 20
0.0
 30
0.0
  9
$PUCSORGBACK
 10
0.0
 20
0.0
 30
0.0
  9
$USERI1
 70
     0
  9
$USERI2
 70
     0
  9
$USERI3
 70
     0
  9
$USERI4
 70
     0
  9
$USERI5
 70
     0
  9
$USERR1
 40
0.0
  9
$USERR2
 40
0.0
  9
$USERR3
 40
0.0
  9
$USERR4
 40
0.0
  9
$USERR5
 40
0.0
  9
$WORLDVIEW
 70
     1
  9
$SHADEDGE
 70
     3
  9
$SHADEDIF
 70
    70
  9
$TILEMODE
 70
     1
  9
$MAXACTVP
 70
    64
  9
$PINSBASE
 10
0.0
 20
0.0
 30
0.0
  9
$PLIMCHECK
 70
     0
  9
$PEXTMIN
 10
0.0
 20
0.0
 30
0.0
  9
$PEXTMAX
 10
0.0
 20
0.0
 30
0.0
  9
$PLIMMIN
 10
0.0
 20
0.0
  9
$PLIMMAX
 10
12.0
 20
9.0
  9
$UNITMODE
 70
     0
  9
$VISRETAIN
 70
     1
  9
$PLINEGEN
 70
     0
  9
$PSLTSCALE
 70
     1
  9
$TREEDEPTH
 70
  3020
  9
$CMLSTYLE
  2
Standard
  9
$CMLJUST
 70
     0
  9
$CMLSCALE
 40
20.0
  9
$PROXYGRAPHICS
 70
     1
  9
$MEASUREMENT
 70
     1
  9
$CELWEIGHT
370
    -1
  9
$ENDCAPS
280
     0
  9
$JOINSTYLE
280
     0
  9
$LWDISPLAY
290
     0
  9
$INSUNITS
 70
     4
  9
$HYPERLINKBASE
  1

  9
$STYLESHEET
  1

  9
$XEDIT
290
     1
  9
$CEPSNTYPE
380
     0
  9
$PSTYLEMODE
290
     1
  9
$FINGERPRINTGUID
  2
{439341ED-012B-6746-947C-745AAF75531E}
  9
$VERSIONGUID
  2
{BED067A9-616D-2743-A568-FF7E2CEC49BC}
  9
$EXTNAMES
290
     1
  9
$PSVPSCALE
 40
0.0
  9
$OLESTARTUP
290
     0
  9
$SORTENTS
280
   127
  9
$INDEXCTL
280
     0
  9
$HIDETEXT
280
     1
  9
$XCLIPFRAME
290
     0
  9
$HALOGAP
280
     0
  9
$OBSCOLOR
 70
   257
  9
$OBSLTYPE
280
     0
  9
$INTERSECTIONDISPLAY
280
     0
  9
$INTERSECTIONCOLOR
 70
   257
  9
$DIMASSOC
280
     2
  9
$PROJECTNAME
  1

  0
ENDSEC
  0
SECTION
  2
CLASSES
  0
CLASS
  1
ACDBDICTIONARYWDFLT
  2
AcDbDictionaryWithDefault
  3
ObjectDBX Classes
 90
        0
 91
        1
280
     0
281
     0
  0
CLASS
  1
DICTIONARYVAR
  2
AcDbDictionaryVar
  3
ObjectDBX Classes
 90
        0
 91
       12
280
     0
281
     0
  0
CLASS
  1
TABLESTYLE
  2
AcDbTableStyle
  3
ObjectDBX Classes
 90
     4095
 91
        1
280
     0
281
     0
  0
CLASS
  1
MATERIAL
  2
AcDbMaterial
  3
ObjectDBX Classes
 90
     1153
 91
        3
280
     0
281
     0
  0
CLASS
  1
VISUALSTYLE
  2
AcDbVisualStyle
  3
ObjectDBX Classes
 90
     4095
 91
        3
280
     0
281
     0
  0
CLASS
  1
SCALE
  2
AcDbScale
  3
ObjectDBX Classes
 90
     1153
 91
       17
280
     0
281
     0
  0
CLASS
  1
MLEADERSTYLE
  2
AcDbMLeaderStyle
  3
ACDB_MLEADERSTYLE_CLASS
 90
     4095
 91
        0
280
     0
281
     0
  0
CLASS
  1
CELLSTYLEMAP
  2
AcDbCellStyleMap
  3
ObjectDBX Classes
 90
     1152
 91
        1
280
     0
281
     0
  0
CLASS
  1
EXACXREFPANELOBJECT
  2
ExAcXREFPanelObject
  3
EXAC_ESW
 90
     1025
 91
        0
280
     1
281
     0
  0
CLASS
  1
NPOCOLLECTION
  2
AcDbImpNonPersistentObjectsCollection
  3
ObjectDBX Classes
 90
     1153
 91
        0
280
     0
281
     0
  0
CLASS
  1
LAYER_INDEX
  2
AcDbLayerIndex
  3
ObjectDBX Classes
 90
        0
 91
        0
280
     0
281
     0
  0
CLASS
  1
SPATIAL_INDEX
  2
AcDbSpatialIndex
  3
ObjectDBX Classes
 90
        0
 91
        0
280
     0
281
     0
  0
CLASS
  1
IDBUFFER
  2
AcDbIdBuffer
  3
ObjectDBX Classes
 90
        0
 91
        0
280
     0
281
     0
  0
CLASS
  1
ACDBSECTIONVIEWSTYLE
  2
AcDbSectionViewStyle
  3
ObjectDBX Classes
 90
     1025
 91
        0
280
     0
281
     0
  0
CLASS
  1
ACDBDETAILVIEWSTYLE
  2
AcDbDetailViewStyle
  3
ObjectDBX Classes
 90
     1025
 91
        0
280
     0
281
     0
  0
CLASS
  1
DIMASSOC
  2
AcDbDimAssoc
  3
"AcDbDimAssoc|Product Desc:     AcDim ARX App For Dimension|Company:          Autodesk, Inc.|WEB Address:      www.autodesk.com"
 90
        0
 91
        0
280
     0
281
     0
  0
CLASS
  1
SOLID_BACKGROUND
  2
AcDbSolidBackground
  3
SCENEOE
 90
     4095
 91
        0
280
     0
281
     0
  0
ENDSEC
  0
SECTION
  2
TABLES
  0
TABLE
  2
VPORT
  5
28
330
0
100
AcDbSymbolTable
 70
     1
  0
VPORT
  5
29
330
28
100
AcDbSymbolTableRecord
100
AcDbViewportTableRecord
  2
*Active
 70
     0
 10
0.0
 20
0.0
 11
1.0
 21
1.0
 12
26.83798961444197
 22
10.44320612785524
 13
0.0
 23
0.0
 14
10.0
 24
10.0
 15
10.0
 25
10.0
 16
0.0
 26
0.0
 36
1.0
 17
0.0
 27
0.0
 37
0.0
 40
21.25869697911078
 41
2.505511811023621
 42
50.0
 43
0.0
 44
0.0
 50
0.0
 51
0.0
 71
     0
 72
  1000
 73
     1
 74
     3
 75
     0
 76
     1
 77
     0
 78
     0
281
     0
 65
     1
110
0.0
120
0.0
130
0.0
111
1.0
121
0.0
131
0.0
112
0.0
122
1.0
132
0.0
 79
     0
146
0.0
1001
ACAD_NAV_VCDISPLAY
1070
     3
  0
ENDTAB
  0
TABLE
  2
LTYPE
  5
23
330
0
100
AcDbSymbolTable
 70
     1
  0
LTYPE
  5
24
330
23
100
AcDbSymbolTableRecord
100
AcDbLinetypeTableRecord
  2
ByBlock
 70
     0
  3

 72
    65
 73
     0
 40
0.0
  0
LTYPE
  5
25
330
23
100
AcDbSymbolTableRecord
100
AcDbLinetypeTableRecord
  2
ByLayer
 70
     0
  3

 72
    65
 73
     0
 40
0.0
  0
LTYPE
  5
13
330
23
100
AcDbSymbolTableRecord
100
AcDbLinetypeTableRecord
  2
Continuous
 70
     0
  3
Solid line
 72
    65
 73
     0
 40
0.0
  0
ENDTAB
  0
TABLE
  2
LAYER
  5
1D
102
{ACAD_XDICTIONARY
360
1E
102
}
330
0
100
AcDbSymbolTable
 70
     1
  0
LAYER
  5
5
102
{ACAD_XDICTIONARY
360
6
102
}
330
1D
100
AcDbSymbolTableRecord
100
AcDbLayerTableRecord
  2
0
 70
     0
 62
     7
  6
Continuous
370
    -3
390
7
  0
ENDTAB
  0
TABLE
  2
STYLE
  5
20
330
0
100
AcDbSymbolTable
 70
     1
  0
STYLE
  5
21
330
20
100
AcDbSymbolTableRecord
100
AcDbTextStyleTableRecord
  2
Standard
 70
     0
 40
0.0
 41
1.0
 50
0.0
 71
     0
 42
2.5
  3
arial.ttf
  4

1001
ACAD
1000
Arial
1071
       34
  0
ENDTAB
  0
TABLE
  2
VIEW
  5
26
330
0
100
AcDbSymbolTable
 70
     0
  0
ENDTAB
  0
TABLE
  2
UCS
  5
27
330
0
100
AcDbSymbolTable
 70
     0
  0
ENDTAB
  0
TABLE
  2
APPID
  5
2D
330
0
100
AcDbSymbolTable
 70
     6
  0
APPID
  5
12
330
2D
100
AcDbSymbolTableRecord
100
AcDbRegAppTableRecord
  2
ACAD
 70
     0
  0
APPID
  5
18
330
2D
100
AcDbSymbolTableRecord
100
AcDbRegAppTableRecord
  2
ACAD_PSEXT
 70
     0
  0
APPID
  5
31
330
2D
100
AcDbSymbolTableRecord
100
AcDbRegAppTableRecord
  2
AcadAnnotative
 70
     0
  0
APPID
  5
32
330
2D
100
AcDbSymbolTableRecord
100
AcDbRegAppTableRecord
  2
ACAD_DSTYLE_DIMJAG
 70
     0
  0
APPID
  5
33
330
2D
100
AcDbSymbolTableRecord
100
AcDbRegAppTableRecord
  2
ACAD_DSTYLE_DIMTALN
 70
     0
  0
APPID
  5
2C
330
2D
100
AcDbSymbolTableRecord
100
AcDbRegAppTableRecord
  2
ACAD_NAV_VCDISPLAY
 70
     0
  0
ENDTAB
  0
TABLE
  2
DIMSTYLE
  5
2E
330
0
100
AcDbSymbolTable
 70
     2
100
AcDbDimStyleTable
 71
     2
340
2F
340
30
  0
DIMSTYLE
105
30
330
2E
100
AcDbSymbolTableRecord
100
AcDbDimStyleTableRecord
  2
Annotative
 70
     0
 40
0.0
 41
2.5
 42
0.625
 43
3.75
 44
1.25
 73
     0
 74
     0
 77
     1
 78
     8
140
2.5
141
2.5
143
0.03937007874016
147
0.625
171
     3
172
     1
271
     2
272
     2
274
     3
278
    44
283
     0
284
     8
340
21
1001
AcadAnnotative
1000
AnnotativeData
1002
{
1070
     1
1070
     1
1002
}
1001
ACAD_DSTYLE_DIMJAG
1070
   388
1040
1.5
1001
ACAD_DSTYLE_DIMTALN
1070
   392
1070
     0
  0
DIMSTYLE
105
2F
330
2E
100
AcDbSymbolTableRecord
100
AcDbDimStyleTableRecord
  2
ISO-25
 70
     0
 41
2.5
 42
0.625
 43
3.75
 44
1.25
 73
     0
 74
     0
 77
     1
 78
     8
140
2.5
141
2.5
143
0.03937007874016
147
0.625
171
     3
172
     1
271
     2
272
     2
274
     3
278
    44
283
     0
284
     8
340
21
  0
ENDTAB
  0
TABLE
  2
BLOCK_RECORD
  5
1
330
0
100
AcDbSymbolTable
 70
     0
  0
BLOCK_RECORD
  5
2
102
{ACAD_XDICTIONARY
360
3
102
}
330
1
100
AcDbSymbolTableRecord
100
AcDbBlockTableRecord
  2
*Model_Space
340
15
  0
BLOCK_RECORD
  5
19
330
1
100
AcDbSymbolTableRecord
100
AcDbBlockTableRecord
  2
*Paper_Space
340
1C
  0
ENDTAB
  0
ENDSEC
  0
SECTION
  2
BLOCKS
  0
BLOCK
  5
4
330
2
100
AcDbEntity
  8
0
100
AcDbBlockBegin
  2
*Model_Space
 70
     0
 10
0.0
 20
0.0
 30
0.0
  3
*Model_Space
  1

  0
ENDBLK
  5
14
330
2
100
AcDbEntity
  8
0
100
AcDbBlockEnd
  0
BLOCK
  5
1A
330
19
100
AcDbEntity
 67
     1
  8
0
100
AcDbBlockBegin
  2
*Paper_Space
 70
     0
 10
0.0
 20
0.0
 30
0.0
  3
*Paper_Space
  1

  0
ENDBLK
  5
1B
330
19
100
AcDbEntity
 67
     1
  8
0
100
AcDbBlockEnd
  0
ENDSEC
  0
SECTION
  2
ENTITIES
  0
LINE
  5
58
330
2
100
AcDbEntity
  8
0
100
AcDbLine
 10
1.772283741536071
 20
6.676510134868668
 30
0.0
 11
2.778901916247466
 21
5.102518859563424
 31
0.0
  0
SPLINE
  5
59
330
2
100
AcDbEntity
  8
0
100
AcDbSpline
210
0.0
220
0.0
230
1.0
 70
     8
 71
     3
 72
    13
 73
     9
 74
     0
 42
0.000000001
 43
0.0000000001
 40
0.0
 40
0.0
 40
0.0
 40
0.0
 40
0.106024613511106
 40
0.306842010964232
 40
0.507767333626208
 40
0.7092554935139931
 40
0.912170211412967
 40
1.0
 40
1.0
 40
1.0
 40
1.0
 10
1.728569729739609
 20
6.841018772205199
 30
0.0
 10
1.7286762414603
 20
6.834800935553112
 30
0.0
 10
1.728984493190541
 20
6.816806118698971
 30
0.0
 10
1.732419893676655
 20
6.786313865894674
 30
0.0
 10
1.739936897631695
 20
6.750870929976945
 30
0.0
 10
1.750943582415197
 20
6.717478843993993
 30
0.0
 10
1.762240003160487
 20
6.692940964874138
 30
0.0
 10
1.769953579590647
 20
6.680322111395041
 30
0.0
 10
1.772283741543835
 20
6.676510134870782
 30
0.0
  0
LINE
  5
5A
330
2
100
AcDbEntity
  8
0
100
AcDbLine
 10
1.728569729731651
 20
7.536822926464013
 30
0.0
 11
1.728569729731651
 21
6.841018772216654
 31
0.0
  0
LINE
  5
5B
330
2
100
AcDbEntity
  8
0
100
AcDbLine
 10
1.774148853163469
 20
7.562714730929807
 30
0.0
 11
1.746252920302786
 21
7.558188926220293
 31
0.0
  0
SPLINE
  5
5C
330
2
100
AcDbEntity
  8
0
100
AcDbSpline
210
0.0
220
0.0
230
1.0
 70
     8
 71
     3
 72
    12
 73
     8
 74
     0
 42
0.000000001
 43
0.0000000001
 40
0.0
 40
0.0
 40
0.0
 40
0.0
 40
0.2480430860758937
 40
0.5137027769866063
 40
0.7486563341835211
 40
0.9738075850397908
 40
1.0
 40
1.0
 40
1.0
 40
1.0
 10
1.74625292031098
 20
7.558188926218232
 30
0.0
 10
1.743822003436064
 20
7.557529010522467
 30
0.0
 10
1.738787520237859
 20
7.556162310362237
 30
0.0
 10
1.732937261848813
 20
7.550932499067926
 30
0.0
 10
1.729599985896421
 20
7.544455306947399
 30
0.0
 10
1.728312496870994
 20
7.539559354859674
 30
0.0
 10
1.72863838443564
 20
7.537073835959776
 30
0.0
 10
1.728672345038149
 20
7.536814821107724
 30
0.0
  0
SPLINE
  5
5D
330
2
100
AcDbEntity
  8
0
100
AcDbSpline
210
0.0
220
0.0
230
1.0
 70
     8
 71
     3
 72
    11
 73
     7
 74
     0
 42
0.000000001
 43
0.0000000001
 40
0.0
 40
0.0
 40
0.0
 40
0.0
 40
0.2265131385130881
 40
0.471121999933062
 40
0.7301917583665139
 40
1.0
 40
1.0
 40
1.0
 40
1.0
 10
2.778901916247466
 20
5.102518859563424
 30
0.0
 10
2.779910591432848
 20
5.101133036163155
 30
0.0
 10
2.781510548362637
 20
5.098984684357476
 30
0.0
 10
2.784624111947038
 20
5.096296704414645
 30
0.0
 10
2.78820038466943
 20
5.094113698087041
 30
0.0
 10
2.790803835152253
 20
5.093426504482409
 30
0.0
 10
2.792131990978082
 20
5.093075931196887
 30
0.0
  0
LINE
  5
5E
330
2
100
AcDbEntity
  8
0
100
AcDbLine
 10
2.798098767987716
 20
5.091968992710482
 30
0.0
 11
3.048540642707622
 21
5.097067065054339
 31
0.0
  0
LINE
  5
5F
330
2
100
AcDbEntity
  8
0
100
AcDbLine
 10
3.051229180031345
 20
5.097280355182767
 30
0.0
 11
3.079381428860084
 21
5.10118836148802
 31
0.0
  0
ARC
  5
60
330
2
100
AcDbEntity
  8
0
100
AcDbCircle
 10
3.048074261685345
 20
5.120015299289566
 30
0.0
 40
0.0229527945194073
100
AcDbArc
 50
271.1661860854
 51
277.9030948455007
  0
SPLINE
  5
61
330
2
100
AcDbEntity
  8
0
100
AcDbSpline
210
0.0
220
0.0
230
1.0
 70
     8
 71
     3
 72
     9
 73
     5
 74
     0
 42
0.000000001
 43
0.0000000001
 40
0.0
 40
0.0
 40
0.0
 40
0.0
 40
0.3191703618642653
 40
1.0
 40
1.0
 40
1.0
 40
1.0
 10
50.41924793398234
 20
14.827521275008
 30
0.0
 10
50.41807736891011
 20
14.8281222692811
 30
0.0
 10
50.41440984456536
 20
14.83000525825796
 30
0.0
 10
50.4102345892112
 20
14.82975596214819
 30
0.0
 10
50.40739195161936
 20
14.82958623396798
 30
0.0
  0
LINE
  5
62
330
2
100
AcDbEntity
  8
0
100
AcDbLine
 10
50.40739195162506
 20
14.82958623397306
 30
0.0
 11
50.37921350752938
 21
14.8257328762058
 31
0.0
  0
LINE
  5
63
330
2
100
AcDbEntity
  8
0
100
AcDbLine
 10
51.7201049375522
 20
14.24473480604752
 30
0.0
 11
50.41950719897243
 21
14.82777682184622
 31
0.0
  0
LINE
  5
64
330
2
100
AcDbEntity
  8
0
100
AcDbLine
 10
51.2139584279759
 20
14.16265626950266
 30
0.0
 11
51.23042761230765
 21
14.16494968801089
 31
0.0
  0
LINE
  5
65
330
2
100
AcDbEntity
  8
0
100
AcDbLine
 10
51.56416591705118
 20
13.75002639254043
 30
0.0
 11
51.59402639515677
 21
13.75418461687597
 31
0.0
  0
LINE
  5
66
330
2
100
AcDbEntity
  8
0
100
AcDbLine
 10
51.45729260177891
 20
14.17832375222361
 30
0.0
 11
51.44180934438402
 21
14.17585212594641
 31
0.0
  0
ARC
  5
67
330
2
100
AcDbEntity
  8
0
100
AcDbCircle
 10
51.70869155241567
 20
12.39133461985039
 30
0.0
 40
0.022952794519414
100
AcDbArc
 50
279.0986260263017
 51
0.0
  0
LINE
  5
68
330
2
100
AcDbEntity
  8
0
100
AcDbLine
 10
51.73164448986209
 20
12.39133464126535
 30
0.0
 11
51.73164448986209
 21
14.22691411090786
 31
0.0
  0
LINE
  5
69
330
2
100
AcDbEntity
  8
0
100
AcDbLine
 10
51.68445097106949
 20
12.36420725745812
 30
0.0
 11
51.71232096116691
 21
12.36867061601446
 31
0.0
  0
SPLINE
  5
6A
330
2
100
AcDbEntity
  8
0
100
AcDbSpline
210
0.0
220
0.0
230
1.0
 70
     8
 71
     3
 72
    11
 73
     7
 74
     0
 42
0.000000001
 43
0.0000000001
 40
0.0
 40
0.0
 40
0.0
 40
0.0
 40
0.1173300023098189
 40
0.4304440377816961
 40
0.7724772362611852
 40
1.0
 40
1.0
 40
1.0
 40
1.0
 10
51.73164448986209
 20
14.22691411090786
 30
0.0
 10
51.73177662907565
 20
14.22789820859207
 30
0.0
 10
51.73169441004191
 20
14.23098199285476
 30
0.0
 10
51.72951166082951
 20
14.23655880403228
 30
0.0
 10
51.72539244163186
 20
14.24195365540383
 30
0.0
 10
51.72154404570662
 20
14.24384910405205
 30
0.0
 10
51.72000671182729
 20
14.24460628638982
 30
0.0
  0
LINE
  5
6B
330
2
100
AcDbEntity
  8
0
100
AcDbLine
 10
50.29428780676017
 20
14.3690393762801
 30
0.0
 11
50.28932722234405
 21
14.34668961403547
 31
0.0
  0
LINE
  5
6C
330
2
100
AcDbEntity
  8
0
100
AcDbLine
 10
50.33689451206296
 20
14.32536080632179
 30
0.0
 11
50.3424092956047
 21
14.3413414055569
 31
0.0
  0
LINE
  5
6D
330
2
100
AcDbEntity
  8
0
100
AcDbLine
 10
50.37269325297576
 20
14.32131069814098
 30
0.0
 11
50.36886643986289
 21
14.31022131052039
 31
0.0
  0
LINE
  5
6E
330
2
100
AcDbEntity
  8
0
100
AcDbLine
 10
1.919908087731798
 20
7.140492320033896
 30
0.0
 11
1.914949872939241
 21
7.118142911882036
 31
0.0
  0
LINE
  5
6F
330
2
100
AcDbEntity
  8
0
100
AcDbLine
 10
2.046351536500627
 20
7.072797065826216
 30
0.0
 11
2.056232880535836
 21
7.093448045108385
 31
0.0
  0
LINE
  5
70
330
2
100
AcDbEntity
  8
0
100
AcDbLine
 10
1.962517162635194
 20
7.096814104168361
 30
0.0
 11
1.968031946199902
 21
7.112794703403481
 31
0.0
  0
LINE
  5
71
330
2
100
AcDbEntity
  8
0
100
AcDbLine
 10
2.000003873999819
 20
7.097655207602072
 30
0.0
 11
1.994489090458061
 21
7.081674608366952
 31
0.0
  0
LINE
  5
72
330
2
100
AcDbEntity
  8
0
100
AcDbLine
 10
2.873890019879294
 20
5.584452422544993
 30
0.0
 11
2.85980288117629
 21
5.581587096485857
 31
0.0
  0
LINE
  5
73
330
2
100
AcDbEntity
  8
0
100
AcDbLine
 10
2.862604335461221
 20
5.443969706936271
 30
0.0
 11
2.876795457484691
 21
5.441679888803415
 31
0.0
  0
LINE
  5
74
330
2
100
AcDbEntity
  8
0
100
AcDbLine
 10
2.880398765534512
 20
5.524531917400786
 30
0.0
 11
2.890933467659741
 21
5.524746375918268
 31
0.0
  0
LINE
  5
75
330
2
100
AcDbEntity
  8
0
100
AcDbLine
 10
2.8595564983514
 20
5.50138224257797
 30
0.0
 11
2.849021774834163
 21
5.501167793654764
 31
0.0
  0
LINE
  5
76
330
2
100
AcDbEntity
  8
0
100
AcDbLine
 10
2.00926082320421
 20
6.841873906050968
 30
0.0
 11
2.050274460653341
 21
6.52778912340821
 31
0.0
  0
SPLINE
  5
77
330
2
100
AcDbEntity
  8
0
100
AcDbSpline
210
0.0
220
0.0
230
1.0
 70
     8
 71
     3
 72
    10
 73
     6
 74
     0
 42
0.000000001
 43
0.0000000001
 40
0.0
 40
0.0
 40
0.0
 40
0.0
 40
0.2979342371096658
 40
0.8283790211485772
 40
1.0
 40
1.0
 40
1.0
 40
1.0
 10
2.050274460643542
 20
6.527789123405495
 30
0.0
 10
2.050782754483815
 20
6.524727573092802
 30
0.0
 10
2.052196019229589
 20
6.516215211184162
 30
0.0
 10
2.055757945682686
 20
6.506593733717321
 30
0.0
 10
2.059058236939437
 20
6.501069654918908
 30
0.0
 10
2.059864997852612
 20
6.499719285963805
 30
0.0
  0
SPLINE
  5
78
330
2
100
AcDbEntity
  8
0
100
AcDbSpline
210
0.0
220
0.0
230
1.0
 70
     8
 71
     3
 72
    11
 73
     7
 74
     0
 42
0.000000001
 43
0.0000000001
 40
0.0
 40
0.0
 40
0.0
 40
0.0
 40
0.2677851414377742
 40
0.5269590091241704
 40
0.7722645849965785
 40
1.0
 40
1.0
 40
1.0
 40
1.0
 10
2.009812631447716
 20
6.84700194588247
 30
0.0
 10
2.009680124114144
 20
6.84656820145562
 30
0.0
 10
2.009419370538254
 20
6.845714660694635
 30
0.0
 10
2.009227148984038
 20
6.844364018660998
 30
0.0
 10
2.009165127323075
 20
6.84306800079609
 30
0.0
 10
2.009229967047214
 20
6.842276410542661
 30
0.0
 10
2.009261182738412
 20
6.841895316433805
 30
0.0
  0
LINE
  5
79
330
2
100
AcDbEntity
  8
0
100
AcDbLine
 10
2.059864997854556
 20
6.499719285968476
 30
0.0
 11
2.550279155154788
 21
5.732886659610219
 31
0.0
  0
LINE
  5
7A
330
2
100
AcDbEntity
  8
0
100
AcDbLine
 10
2.040901296744976
 20
6.937096788263345
 30
0.0
 11
2.0097147580048
 21
6.846725038092453
 31
0.0
  0
LINE
  5
7B
330
2
100
AcDbEntity
  8
0
100
AcDbLine
 10
2.042899991570722
 20
6.941246581486596
 30
0.0
 11
2.041013050573331
 21
6.937388961546066
 31
0.0
  0
LINE
  5
7C
330
2
100
AcDbEntity
  8
0
100
AcDbLine
 10
2.074965074044646
 20
6.988832956454147
 30
0.0
 11
2.043097652429831
 21
6.941555517057417
 31
0.0
  0
SPLINE
  5
7D
330
2
100
AcDbEntity
  8
0
100
AcDbSpline
210
0.0
220
0.0
230
1.0
 70
     8
 71
     3
 72
    10
 73
     6
 74
     0
 42
0.000000001
 43
0.0000000001
 40
0.0
 40
0.0
 40
0.0
 40
0.0
 40
0.2802625867806677
 40
0.6736541992372889
 40
1.0
 40
1.0
 40
1.0
 40
1.0
 10
2.550279155154866
 20
5.732886659601803
 30
0.0
 10
2.551917667636319
 20
5.730618071830207
 30
0.0
 10
2.555856084198842
 20
5.725165172475212
 30
0.0
 10
2.563644389503238
 20
5.719385046420563
 30
0.0
 10
2.570476758694862
 20
5.718847174722714
 30
0.0
 10
2.57357471491331
 20
5.718603291096928
 30
0.0
  0
SPLINE
  5
7E
330
2
100
AcDbEntity
  8
0
100
AcDbSpline
210
0.0
220
0.0
230
1.0
 70
     8
 71
     3
 72
    11
 73
     7
 74
     0
 42
0.000000001
 43
0.0000000001
 40
0.0
 40
0.0
 40
0.0
 40
0.0
 40
0.2600196821207104
 40
0.5159408562688049
 40
0.7638561345784776
 40
1.0
 40
1.0
 40
1.0
 40
1.0
 10
26.88953400110375
 20
9.339857932601834
 30
0.0
 10
26.89049803183042
 20
9.340145201438101
 30
0.0
 10
26.8924108979432
 20
9.340715211093309
 30
0.0
 10
26.89484313846222
 20
9.342475337838934
 30
0.0
 10
26.89678375725459
 20
9.344643635826949
 30
0.0
 10
26.89752501299385
 20
9.346260881274375
 30
0.0
 10
26.89788662788697
 20
9.347049839806077
 30
0.0
  0
LINE
  5
7F
330
2
100
AcDbEntity
  8
0
100
AcDbLine
 10
26.89789661675879
 20
9.34706788615731
 30
0.0
 11
26.8980425752088
 21
9.347490905540563
 31
0.0
  0
LINE
  5
80
330
2
100
AcDbEntity
  8
0
100
AcDbLine
 10
26.26005754701874
 20
10.46565215990849
 30
0.0
 11
26.30107118444493
 21
10.15156737726573
 31
0.0
  0
SPLINE
  5
81
330
2
100
AcDbEntity
  8
0
100
AcDbSpline
210
0.0
220
0.0
230
1.0
 70
     8
 71
     3
 72
    10
 73
     6
 74
     0
 42
0.000000001
 43
0.0000000001
 40
0.0
 40
0.0
 40
0.0
 40
0.0
 40
0.2979343620638526
 40
0.8283791194906907
 40
1.0
 40
1.0
 40
1.0
 40
1.0
 10
26.30107118445108
 20
10.15156737725537
 30
0.0
 10
26.30157995065146
 20
10.14850589771552
 30
0.0
 10
26.30299452832612
 20
10.13999373514376
 30
0.0
 10
26.30655595688613
 20
10.13037218277975
 30
0.0
 10
26.309856249637
 20
10.12484810145718
 30
0.0
 10
26.31066301059674
 20
10.12349773241851
 30
0.0
  0
SPLINE
  5
82
330
2
100
AcDbEntity
  8
0
100
AcDbSpline
210
0.0
220
0.0
230
1.0
 70
     8
 71
     3
 72
    11
 73
     7
 74
     0
 42
0.000000001
 43
0.0000000001
 40
0.0
 40
0.0
 40
0.0
 40
0.0
 40
0.2678186193745455
 40
0.5269545691810431
 40
0.7723304110704108
 40
1.0
 40
1.0
 40
1.0
 40
1.0
 10
26.26061059096827
 20
10.47078038438405
 30
0.0
 10
26.26047766442475
 20
10.47034663171908
 30
0.0
 10
26.26021612081129
 20
10.4694931886342
 30
0.0
 10
26.26002639468445
 20
10.46814221997845
 30
0.0
 10
26.25996090898937
 20
10.46684657587985
 30
0.0
 10
26.26002746114201
 20
10.46605485189276
 30
0.0
 10
26.26005949168336
 20
10.46567380714957
 30
0.0
  0
LINE
  5
83
330
2
100
AcDbEntity
  8
0
100
AcDbLine
 10
26.31066301060623
 20
10.1234977324229
 30
0.0
 11
26.80107716790646
 21
9.356665106064641
 31
0.0
  0
LINE
  5
84
330
2
100
AcDbEntity
  8
0
100
AcDbLine
 10
26.29169913824586
 20
10.56087520912541
 30
0.0
 11
26.26051259950566
 21
10.47050345895453
 31
0.0
  0
LINE
  5
85
330
2
100
AcDbEntity
  8
0
100
AcDbLine
 10
26.29369895307615
 20
10.56502516972042
 30
0.0
 11
26.2918109615064
 21
10.56116739280573
 31
0.0
  0
LINE
  5
86
330
2
100
AcDbEntity
  8
0
100
AcDbLine
 10
26.32576284843155
 20
10.61261136728583
 30
0.0
 11
26.29389542683967
 21
10.5653339278891
 31
0.0
  0
SPLINE
  5
87
330
2
100
AcDbEntity
  8
0
100
AcDbSpline
210
0.0
220
0.0
230
1.0
 70
     8
 71
     3
 72
    10
 73
     6
 74
     0
 42
0.000000001
 43
0.0000000001
 40
0.0
 40
0.0
 40
0.0
 40
0.0
 40
0.2802559553111328
 40
0.6736385119901105
 40
1.0
 40
1.0
 40
1.0
 40
1.0
 10
26.80107716789897
 20
9.356665106056539
 30
0.0
 10
26.80271549543078
 20
9.354396492149549
 30
0.0
 10
26.80665346891462
 20
9.348943527930202
 30
0.0
 10
26.81444129477802
 20
9.343163133406907
 30
0.0
 10
26.82127491946628
 20
9.342625601674956
 30
0.0
 10
26.82437356535049
 20
9.342381862727471
 30
0.0
  0
LINE
  5
88
330
2
100
AcDbEntity
  8
0
100
AcDbLine
 10
26.82437356534666
 20
9.342381862724954
 30
0.0
 11
26.97759418530862
 21
9.353007811205888
 31
0.0
  0
LINE
  5
89
330
2
100
AcDbEntity
  8
0
100
AcDbLine
 10
2.757292376323996
 20
5.733156965237666
 30
0.0
 11
26.88953400110375
 21
9.339857932601834
 31
0.0
  0
LINE
  5
8A
330
2
100
AcDbEntity
  8
0
100
AcDbLine
 10
50.37916117795812
 20
14.82572517154946
 30
0.0
 11
1.774202123294353
 21
7.562722819196204
 31
0.0
  0
LINE
  5
8B
330
2
100
AcDbEntity
  8
0
100
AcDbLine
 10
1.961884668038623
 20
6.971935430307408
 30
0.0
 11
50.37269472305633
 21
14.20592624416465
 31
0.0
  0
LINE
  5
8C
330
2
100
AcDbEntity
  8
0
100
AcDbLine
 10
3.079436186653371
 20
5.101196355602064
 30
0.0
 11
51.68439524131716
 21
12.36419870795531
 31
0.0
  0
ARC
  5
8D
330
2
100
AcDbEntity
  8
0
100
AcDbCircle
 10
2.830184191388802
 20
5.106941481775484
 30
0.0
 40
0.0109902822117767
100
AcDbArc
 50
205.6777095909997
 51
262.3599014891007
  0
LINE
  5
8E
330
2
100
AcDbEntity
  8
0
100
AcDbLine
 10
1.81364031595364
 20
6.67620308776197
 30
0.0
 11
2.820279247198456
 21
5.102179299111752
 31
0.0
  0
ARC
  5
8F
330
2
100
AcDbEntity
  8
0
100
AcDbCircle
 10
2.105124354199999
 20
6.846163789979996
 30
0.0
 40
0.3374160411934821
100
AcDbArc
 50
179.2831769272003
 51
210.2459273129013
  0
LINE
  5
90
330
2
100
AcDbEntity
  8
0
100
AcDbLine
 10
1.76773471938633
 20
7.346524835659757
 30
0.0
 11
1.76773471938633
 21
6.85038506589456
 31
0.0
  0
ELLIPSE
  5
91
330
2
100
AcDbEntity
  8
0
100
AcDbEllipse
 10
1.787511959826859
 20
7.399115170178659
 30
0.0
 11
0.0092350590927243
 21
0.0210131674523503
 31
0.0
210
0.0
220
0.0
230
1.0
 40
0.8322877324
 41
4.09107488275694
 42
5.198223600535535
  0
LINE
  5
92
330
2
100
AcDbEntity
  8
0
100
AcDbLine
 10
1.778667264158147
 20
7.368021621288471
 30
0.0
 11
1.796356814397776
 21
7.380633557239522
 31
0.0
  0
ELLIPSE
  5
93
330
2
100
AcDbEntity
  8
0
100
AcDbEllipse
 10
1.787511959826859
 20
7.349539984570233
 30
0.0
 11
0.0092350590927243
 21
0.0210131674523503
 31
0.0
210
0.0
220
0.0
230
1.0
 40
0.8322877324
 41
0.9494822291509926
 42
2.056630946960659
  0
LINE
  5
94
330
2
100
AcDbEntity
  8
0
100
AcDbLine
 10
1.76773471938633
 20
7.548678681888101
 30
0.0
 11
1.76773471938633
 21
7.484782809242916
 31
0.0
  0
ELLIPSE
  5
95
330
2
100
AcDbEntity
  8
0
100
AcDbEllipse
 10
1.787511959826859
 20
7.487797958245191
 30
0.0
 11
0.0092350590927243
 21
0.0210131674523503
 31
0.0
210
0.0
220
0.0
230
1.0
 40
0.8322877324
 41
2.056630946953149
 42
3.163779664755943
  0
LINE
  5
96
330
2
100
AcDbEntity
  8
0
100
AcDbLine
 10
1.778667264158147
 20
7.466619441551007
 30
0.0
 11
1.796356814397776
 21
7.459401311181995
 31
0.0
  0
ELLIPSE
  5
97
330
2
100
AcDbEntity
  8
0
100
AcDbEllipse
 10
1.787511959826859
 20
7.438222772613802
 30
0.0
 11
0.0092350590927243
 21
0.0210131674523633
 31
0.0
210
0.0
220
0.0
230
0.9999999999999998
 40
0.8322877323999998
 41
5.198223600536287
 42
6.305372318312977
  0
LINE
  5
98
330
2
100
AcDbEntity
  8
0
100
AcDbLine
 10
1.807289359192543
 20
7.402130342868237
 30
0.0
 11
1.807289359192543
 21
7.4412379434901
 31
0.0
  0
ELLIPSE
  5
99
330
2
100
AcDbEntity
  8
0
100
AcDbEllipse
 10
1.776915877086038
 20
7.544561331315222
 30
0.0
 11
-0.0027146053495046
 21
0.0181615746844491
 31
0.0
210
0.0
220
0.0
230
0.9999999999999998
 40
0.4829421416
 41
5.983113679992232
 42
7.553833854366255
  0
LINE
  5
9A
330
2
100
AcDbEntity
  8
0
100
AcDbLine
 10
2.828723032694376
 20
5.096048763177845
 30
0.0
 11
2.800688126561743
 21
5.092144200296726
 31
0.0
  0
LINE
  5
9B
330
2
100
AcDbEntity
  8
0
100
AcDbLine
 10
3.050607198618005
 20
5.09723166996441
 30
0.0
 11
2.800688126561743
 21
5.092144200296726
 31
0.0
  0
LINE
  5
9C
330
2
100
AcDbEntity
  8
0
100
AcDbLine
 10
3.07874993094269
 20
5.101138442166757
 30
0.0
 11
3.050607198618005
 21
5.09723166996441
 31
0.0
  0
SPLINE
  5
9D
330
2
100
AcDbEntity
  8
0
100
AcDbSpline
210
0.0
220
0.0
230
1.0
 70
     8
 71
     3
 72
     9
 73
     5
 74
     0
 42
0.000000001
 43
0.0000000001
 40
0.0
 40
0.0
 40
0.0
 40
0.0
 40
0.2819671536007806
 40
1.0
 40
1.0
 40
1.0
 40
1.0
 10
2.792131990978082
 20
5.093075931196887
 30
0.0
 10
2.792874853961243
 20
5.092946051338793
 30
0.0
 10
2.795629533931972
 20
5.09166923971412
 30
0.0
 10
2.798573943657964
 20
5.091945695766422
 30
0.0
 10
2.800688126554489
 20
5.092144200292525
 30
0.0
  0
LINE
  5
9E
330
2
100
AcDbEntity
  8
0
100
AcDbLine
 10
50.47211524726458
 20
13.96316608787113
 30
0.0
 11
51.47870537604817
 21
12.38921860507475
 31
0.0
  0
ARC
  5
9F
330
2
100
AcDbEntity
  8
0
100
AcDbCircle
 10
50.72671605507938
 20
14.11162107389536
 30
0.0
 40
0.2947209768959256
100
AcDbArc
 50
179.2831223221992
 51
210.2460003373007
  0
LINE
  5
A0
330
2
100
AcDbEntity
  8
0
100
AcDbLine
 10
50.43201814673614
 20
14.80889557440468
 30
0.0
 11
50.43201814673614
 21
14.11530848993589
 31
0.0
  0
LINE
  5
A1
330
2
100
AcDbEntity
  8
0
100
AcDbLine
 10
51.47870537604817
 20
12.38921860507475
 30
0.0
 11
51.72856972974403
 21
12.39430500071232
 31
0.0
  0
LINE
  5
A2
330
2
100
AcDbEntity
  8
0
100
AcDbLine
 10
51.44180044303784
 20
14.17469455158535
 30
0.0
 11
51.44180044303784
 21
14.0239337995971
 31
0.0
  0
ARC
  5
A3
330
2
100
AcDbEntity
  8
0
100
AcDbCircle
 10
51.92391152217476
 20
14.02422682351037
 30
0.0
 40
0.4821111681750751
100
AcDbArc
 50
180.0348239924994
 51
200.5113748006002
  0
LINE
  5
A4
330
2
100
AcDbEntity
  8
0
100
AcDbLine
 10
51.47236492691575
 20
13.85529828599109
 30
0.0
 11
51.48049464953081
 21
13.8673592491072
 31
0.0
  0
ARC
  5
A5
330
2
100
AcDbEntity
  8
0
100
AcDbCircle
 10
51.88987643699294
 20
14.01910197939422
 30
0.0
 40
0.4365997069425197
100
AcDbArc
 50
180.0410635976991
 51
200.3378853801007
  0
LINE
  5
A6
330
2
100
AcDbEntity
  8
0
100
AcDbLine
 10
51.45327684217965
 20
14.01878907060286
 30
0.0
 11
51.45327684217965
 21
14.16954982259111
 31
0.0
  0
LWPOLYLINE
  5
A7
330
2
100
AcDbEntity
  8
0
100
AcDbPolyline
 90
        9
 70
   128
 43
0.0
 10
51.45327684217965
 20
14.16954982259111
 10
51.45338710194176
 20
14.17166305277962
 10
51.45371364868689
 20
14.17359619502099
 10
51.45424391302859
 20
14.17527499661179
 10
51.45495752326004
 20
14.17663491769088
 10
51.45582707473158
 20
14.17762371817991
 10
51.45681913465516
 20
14.17820338193914
 10
51.45789556746762
 20
14.17835164953208
 10
51.45901505244657
 20
14.17806280364713
  0
LINE
  5
A8
330
2
100
AcDbEntity
  8
0
100
AcDbLine
 10
51.45901505244657
 20
14.17806280364713
 30
0.0
 11
51.66559019421544
 21
14.08545770098524
 31
0.0
  0
ARC
  5
A9
330
2
100
AcDbEntity
  8
0
100
AcDbCircle
 10
51.65563086454911
 20
14.07323906284384
 30
0.0
 40
0.0157633551659627
100
AcDbArc
 50
354.7620299461999
 51
50.81675512739944
  0
LINE
  5
AA
330
2
100
AcDbEntity
  8
0
100
AcDbLine
 10
51.67132839378638
 20
14.07179998618376
 30
0.0
 11
51.67132839378638
 21
13.92103923417255
 31
0.0
  0
ARC
  5
AB
330
2
100
AcDbEntity
  8
0
100
AcDbCircle
 10
51.40828348253354
 20
13.91097183434887
 30
0.0
 40
0.2632374932995236
100
AcDbArc
 50
333.6206633804992
 51
2.191785905199755
  0
LINE
  5
AC
330
2
100
AcDbEntity
  8
0
100
AcDbLine
 10
51.64411059713122
 20
13.79401222637164
 30
0.0
 11
51.65224031974632
 21
13.77466235335404
 31
0.0
  0
ARC
  5
AD
330
2
100
AcDbEntity
  8
0
100
AcDbCircle
 10
51.39357391965781
 20
13.90456447462997
 30
0.0
 40
0.2894527036433864
100
AcDbArc
 50
333.3342226403995
 51
2.243298509099389
  0
LINE
  5
AE
330
2
100
AcDbEntity
  8
0
100
AcDbLine
 10
51.6828047929282
 20
13.91589450517831
 30
0.0
 11
51.6828047929282
 21
14.06665525718952
 31
0.0
  0
ARC
  5
AF
330
2
100
AcDbEntity
  8
0
100
AcDbCircle
 10
51.6357122227064
 20
14.07097249451465
 30
0.0
 40
0.0472900487384119
100
AcDbArc
 50
354.7620191370995
 51
50.81676593639953
  0
LINE
  5
B0
330
2
100
AcDbEntity
  8
0
100
AcDbLine
 10
51.66559019421544
 20
14.1076284016399
 30
0.0
 11
51.45901505244657
 21
14.20023350427882
 31
0.0
  0
LWPOLYLINE
  5
B1
330
2
100
AcDbEntity
  8
0
100
AcDbPolyline
 90
        9
 70
   128
 43
0.0
 10
51.45901505244657
 20
14.20023350427882
 10
51.45565664024781
 20
14.2011000331198
 10
51.45242729907228
 20
14.20065523922371
 10
51.44945111927862
 20
14.19891624787716
 10
51.44684248627901
 20
14.19594983688467
 10
51.44470163423852
 20
14.19187006258418
 10
51.4431108411445
 20
14.18683365776584
 10
51.44213122232416
 20
14.1810342008129
 10
51.44180044303784
 20
14.17469455158535
  0
LINE
  5
B2
330
2
100
AcDbEntity
  8
0
100
AcDbLine
 10
51.49023269392184
 20
13.84418134608843
 30
0.0
 11
51.48210297130675
 21
13.83212038297232
 31
0.0
  0
LWPOLYLINE
  5
B3
330
2
100
AcDbEntity
  8
0
100
AcDbPolyline
 90
        9
 70
   128
 43
0.0
 10
51.48210297130675
 20
13.83212038297232
 10
51.49971178392109
 20
13.79904690683834
 10
51.51938940992199
 20
13.77162109607592
 10
51.54048544926084
 20
13.75074945783131
 10
51.56230262333102
 20
13.73712185514524
 10
51.58411978672816
 20
13.73118871948737
 10
51.60521582606701
 20
13.73314616628218
 10
51.62489345206793
 20
13.74292950023219
 10
51.64250227535529
 20
13.76021534207795
  0
LINE
  5
B4
330
2
100
AcDbEntity
  8
0
100
AcDbLine
 10
51.64250227535529
 20
13.76021534207795
 30
0.0
 11
51.63437255274022
 21
13.77956521509552
 31
0.0
  0
LWPOLYLINE
  5
B5
330
2
100
AcDbEntity
  8
0
100
AcDbPolyline
 90
        9
 70
   128
 43
0.0
 10
51.63437255274022
 20
13.77956521509552
 10
51.61851078441449
 20
13.76424353961291
 10
51.60082171388826
 20
13.75560808797695
 10
51.58188039990158
 20
13.75393969396358
 10
51.56230262333102
 20
13.75929255579988
 10
51.54272484676048
 20
13.77149264822105
 10
51.5237835327738
 20
13.79014335976838
 10
51.50609445157451
 20
13.8146384029788
 10
51.49023269392184
 20
13.84418134608843
  0
LINE
  5
B6
330
2
100
AcDbEntity
  8
0
100
AcDbLine
 10
51.23235619612402
 20
14.24761346965421
 30
0.0
 11
51.23235619612402
 21
14.25938163101715
 31
0.0
  0
LWPOLYLINE
  5
B7
330
2
100
AcDbEntity
  8
0
100
AcDbPolyline
 90
       15
 70
   128
 43
0.0
 10
51.23235619612402
 20
14.24761346965421
 10
51.23986305157743
 20
14.23471909187741
 10
51.24490203796544
 20
14.21809510687587
 10
51.24670142249834
 20
14.20028746294763
 10
51.24498561992399
 20
14.1840234233025
 10
51.24001743234879
 20
14.17179381292196
 10
51.23255769060477
 20
14.16547161199566
 10
51.22374888073512
 20
14.16602504208792
 10
51.21494011362653
 20
14.17336935567433
 10
51.20748037190547
 20
14.18637977807491
 10
51.20251218433028
 20
14.20306374359453
 10
51.20079638173296
 20
14.22086612974906
 10
51.20259576626588
 20
14.23706048964487
 10
51.2076347526539
 20
14.24916664304916
 10
51.2151416081073
 20
14.25533055833696
  0
LINE
  5
B8
330
2
100
AcDbEntity
  8
0
100
AcDbLine
 10
51.2151416081073
 20
14.26709871972285
 30
0.0
 11
51.2151416081073
 21
14.25533055833696
 31
0.0
  0
LWPOLYLINE
  5
B9
330
2
100
AcDbEntity
  8
0
100
AcDbPolyline
 90
       16
 70
   128
 43
0.0
 10
51.2151416081073
 20
14.26709871972285
 10
51.20564255250496
 20
14.26147874508462
 10
51.19870337020209
 20
14.24863262514513
 10
51.19530502677423
 20
14.23037650998476
 10
51.19592802221908
 20
14.20929142755256
 10
51.20048428547051
 20
14.18835832115042
 10
51.20832965846949
 20
14.17053666304921
 10
51.21835495967759
 20
14.15834606098885
 10
51.22914284455374
 20
14.15350998448862
 10
51.23916814576184
 20
14.15671214739789
 10
51.24701351876079
 20
14.16749983650966
 10
51.25156978203521
 20
14.18434790900142
 10
51.2521927774571
 20
14.20487442902763
 10
51.24879443402924
 20
14.22617741553606
 10
51.24185525174929
 20
14.24524503613436
 10
51.23235619612402
 20
14.25938163101715
  0
LINE
  5
BA
330
2
100
AcDbEntity
  8
0
100
AcDbLine
 10
50.41859937061741
 20
13.93920544011522
 30
0.0
 11
51.42523830186224
 21
12.36518165148795
 31
0.0
  0
ARC
  5
BB
330
2
100
AcDbEntity
  8
0
100
AcDbCircle
 10
50.71008340886377
 20
14.10916614233324
 30
0.0
 40
0.3374160411935989
100
AcDbArc
 50
179.2831769272003
 51
210.2459273129013
  0
ELLIPSE
  5
BC
330
2
100
AcDbEntity
  8
0
100
AcDbEllipse
 10
50.35271627548108
 20
14.6952846043164
 30
0.0
 11
0.0095503391802632
 21
0.0208717743633981
 31
0.0
210
0.0
220
0.0
230
1.0
 40
0.8407164281
 41
0.96207658968761
 42
2.069225307503575
  0
LINE
  5
BD
330
2
100
AcDbEntity
  8
0
100
AcDbLine
 10
50.36165058471258
 20
14.72633797654326
 30
0.0
 11
50.34378181427916
 21
14.71380639313849
 31
0.0
  0
ELLIPSE
  5
BE
330
2
100
AcDbEntity
  8
0
100
AcDbEllipse
 10
50.35271627548108
 20
14.74485978994779
 30
0.0
 11
0.0095503391802632
 21
0.0208717743634111
 31
0.0
210
0.0
220
0.0
230
1.0
 40
0.8407164281000001
 41
4.103669243299017
 42
5.210817961086224
  0
LINE
  5
BF
330
2
100
AcDbEntity
  8
0
100
AcDbLine
 10
50.37269377405009
 20
14.8116810342643
 30
0.0
 11
50.37269377405009
 21
14.74778516159616
 31
0.0
  0
ELLIPSE
  5
C0
330
2
100
AcDbEntity
  8
0
100
AcDbEllipse
 10
50.35271627548108
 20
14.60660181627283
 30
0.0
 11
0.0095503391802632
 21
0.0208717743633981
 31
0.0
210
0.0
220
0.0
230
1.0
 40
0.8407164281
 41
5.210817961080275
 42
6.317966678866039
  0
LINE
  5
C1
330
2
100
AcDbEntity
  8
0
100
AcDbLine
 10
50.36165058471258
 20
14.62774015628071
 30
0.0
 11
50.34378181427916
 21
14.63503863919601
 31
0.0
  0
ELLIPSE
  5
C2
330
2
100
AcDbEntity
  8
0
100
AcDbEllipse
 10
50.35271627548108
 20
14.65617700190422
 30
0.0
 11
0.0095503391802632
 21
0.0208717743633981
 31
0.0
210
0.0
220
0.0
230
1.0
 40
0.8407164281
 41
2.069225307503693
 42
3.17637402530594
  0
LINE
  5
C3
330
2
100
AcDbEntity
  8
0
100
AcDbLine
 10
50.33273862496461
 20
14.65325160746372
 30
0.0
 11
50.33273862496461
 21
14.69235920808559
 31
0.0
  0
LINE
  5
C4
330
2
100
AcDbEntity
  8
0
100
AcDbLine
 10
50.37269377405009
 20
14.60952718801302
 30
0.0
 11
50.37269377405009
 21
14.11338741824781
 31
0.0
  0
ELLIPSE
  5
C5
330
2
100
AcDbEntity
  8
0
100
AcDbEllipse
 10
50.38187559903345
 20
14.80756378337541
 30
0.0
 11
-0.0027146053495177
 21
0.0181615746844621
 31
0.0
210
0.0
220
0.0
230
1.0
 40
0.4829421416
 41
6.277164596626787
 42
7.553833854365786
  0
LINE
  5
C6
330
2
100
AcDbEntity
  8
0
100
AcDbLine
 10
51.2151416081073
 20
14.25533055833696
 30
0.0
 11
51.20128795567365
 21
14.25312692962306
 31
0.0
  0
SPLINE
  5
C7
330
2
100
AcDbEntity
  8
0
100
AcDbSpline
210
0.0
220
0.0
230
1.0
 70
     8
 71
     3
 72
    13
 73
     9
 74
     0
 42
0.000000001
 43
0.0000000001
 40
0.0
 40
0.0
 40
0.0
 40
0.0
 40
0.1550951813502756
 40
0.3016555757349482
 40
0.4396562073050491
 40
0.5691462771037616
 40
0.8014953704178692
 40
1.0
 40
1.0
 40
1.0
 40
1.0
 10
51.47870537605726
 20
12.38921860507112
 30
0.0
 10
51.47880680641447
 20
12.3873651060063
 30
0.0
 10
51.47900408548229
 20
12.38376010472482
 30
0.0
 10
51.47791838690757
 20
12.37860492649889
 30
0.0
 10
51.47606203937121
 20
12.37412180343204
 30
0.0
 10
51.4728714940229
 20
12.36940038544079
 30
0.0
 10
51.46807541983239
 20
12.36522854933166
 30
0.0
 10
51.46367695025048
 20
12.36405552310374
 30
0.0
 10
51.46165046996568
 20
12.36351508182519
 30
0.0
  0
LINE
  5
C8
330
2
100
AcDbEntity
  8
0
100
AcDbLine
 10
51.43368208735815
 20
12.35905111553109
 30
0.0
 11
51.46165046995727
 21
12.36351508183153
 31
0.0
  0
ARC
  5
C9
330
2
100
AcDbEntity
  8
0
100
AcDbCircle
 10
51.43514324605259
 20
12.36994383412875
 30
0.0
 40
0.0109902822116909
100
AcDbArc
 50
205.6777095906996
 51
262.3599014893997
  0
LINE
  5
CA
330
2
100
AcDbEntity
  8
0
100
AcDbLine
 10
51.68370898560646
 20
12.36414079452
 30
0.0
 11
51.71156954203649
 21
12.36860255149921
 31
0.0
  0
LINE
  5
CB
330
2
100
AcDbEntity
  8
0
100
AcDbLine
 10
51.43368208735815
 20
12.35905111553109
 30
0.0
 11
51.68370898560646
 21
12.36414079452
 31
0.0
  0
LINE
  5
CC
330
2
100
AcDbEntity
  8
0
100
AcDbLine
 10
51.61290413981824
 20
13.75564990296486
 30
0.0
 11
51.64250227535529
 21
13.76021534207795
 31
0.0
  0
LWPOLYLINE
  5
CD
330
2
100
AcDbEntity
  8
0
100
AcDbPolyline
 90
        3
 70
   128
 43
0.0
 10
51.5964192916273
 20
13.75457620998156
 10
51.58571775693147
 20
13.74240672674155
 10
51.5752294951495
 20
13.73389161456446
  0
LINE
  5
CE
330
2
100
AcDbEntity
  8
0
100
AcDbLine
 10
51.46950033119158
 20
13.86566603490585
 30
0.0
 11
51.48049464953081
 21
13.8673592491072
 31
0.0
  0
LWPOLYLINE
  5
CF
330
2
100
AcDbEntity
  8
0
100
AcDbPolyline
 90
        3
 70
   128
 43
0.0
 10
51.53774653101221
 20
13.75301466512864
 10
51.5520713428727
 20
13.74977848810594
 10
51.56416591705118
 20
13.75002639254043
  0
LINE
  5
D0
330
2
100
AcDbEntity
  8
0
100
AcDbLine
 10
51.4420118294615
 20
14.1798047346499
 30
0.0
 11
51.44846050760754
 21
14.17691387133454
 31
0.0
  0
LINE
  5
D1
330
2
100
AcDbEntity
  8
0
100
AcDbLine
 10
51.5752295916201
 20
13.75156706717475
 30
0.0
 11
51.5752295916201
 21
13.73389165799114
 31
0.0
  0
LINE
  5
D2
330
2
100
AcDbEntity
  8
0
100
AcDbLine
 10
51.61118707603373
 20
13.7597367541398
 30
0.0
 11
51.61290413981824
 21
13.75564990296486
 31
0.0
  0
ARC
  5
D3
330
2
100
AcDbEntity
  8
0
100
AcDbCircle
 10
50.32949357060433
 20
14.47851602112518
 30
0.0
 40
0.1695198708789941
100
AcDbArc
 50
269.7086575401006
 51
273.2459100398011
  0
SPLINE
  5
D4
330
2
100
AcDbEntity
  8
0
100
AcDbSpline
210
0.0
220
0.0
230
1.0
 70
     8
 71
     3
 72
    12
 73
     8
 74
     0
 42
0.000000001
 43
0.0000000001
 40
0.0
 40
0.0
 40
0.0
 40
0.0
 40
0.2133766285073219
 40
0.4270355812816883
 40
0.6392303957074132
 40
0.8508930994416735
 40
1.0
 40
1.0
 40
1.0
 40
1.0
 10
50.35400197141811
 20
14.3029831324289
 30
0.0
 10
50.35330745361841
 20
14.30373782282078
 30
0.0
 10
50.3519174990841
 20
14.3052482021554
 30
0.0
 10
50.34870098862157
 20
14.30719562544928
 30
0.0
 10
50.34509635312371
 20
14.30860102685378
 30
0.0
 10
50.34174013710321
 20
14.30928682387175
 30
0.0
 10
50.33986644458657
 20
14.30927358153304
 30
0.0
 10
50.33909204319455
 20
14.30926810844423
 30
0.0
  0
ARC
  5
D5
330
2
100
AcDbEntity
  8
0
100
AcDbCircle
 10
50.47055221534601
 20
14.39325846339003
 30
0.0
 40
0.147423182518169
100
AcDbArc
 50
217.7599842343997
 51
221.382626557602
  0
ARC
  5
D6
330
2
100
AcDbEntity
  8
0
100
AcDbCircle
 10
50.33788244069054
 20
14.497802701286
 30
0.0
 40
0.2032039899550583
100
AcDbArc
 50
276.2313570643786
 51
279.8641249859749
  0
ARC
  5
D7
330
2
100
AcDbEntity
  8
0
100
AcDbCircle
 10
50.49076620550856
 20
14.39908534250564
 30
0.0
 40
0.1529448386817205
100
AcDbArc
 50
217.7928656511999
 51
219.4674570823
  0
SPLINE
  5
D8
330
2
100
AcDbEntity
  8
0
100
AcDbSpline
210
0.0
220
0.0
230
1.0
 70
     8
 71
     3
 72
    12
 73
     8
 74
     0
 42
0.000000001
 43
0.0000000001
 40
0.0
 40
0.0
 40
0.0
 40
0.0
 40
0.0733571255678894
 40
0.3250837949370284
 40
0.5751399065443982
 40
0.8243561243738001
 40
1.0
 40
1.0
 40
1.0
 40
1.0
 10
50.37269493222703
 20
14.31378210840524
 30
0.0
 10
50.3723872685317
 20
14.31367416686363
 30
0.0
 10
50.37102384976532
 20
14.31319582143085
 30
0.0
 10
50.36947896526423
 20
14.31167004914827
 30
0.0
 10
50.36844985408454
 20
14.30944118026282
 30
0.0
 10
50.36868668349223
 20
14.30721393699798
 30
0.0
 10
50.36954822729708
 20
14.30590185586798
 30
0.0
 10
50.36990440311877
 20
14.30535942079733
 30
0.0
  0
ARC
  5
D9
330
2
100
AcDbEntity
  8
0
100
AcDbCircle
 10
50.31227420826859
 20
14.55790809493465
 30
0.0
 40
0.2372403451578898
100
AcDbArc
 50
283.317550564299
 51
284.7546477825996
  0
SPLINE
  5
DA
330
2
100
AcDbEntity
  8
0
100
AcDbSpline
210
0.0
220
0.0
230
1.0
 70
     8
 71
     3
 72
    12
 73
     8
 74
     0
 42
0.000000001
 43
0.0000000001
 40
0.0
 40
0.0
 40
0.0
 40
0.0
 40
0.213371046640955
 40
0.4271239074935734
 40
0.6393377233042732
 40
0.8508796290614091
 40
1.0
 40
1.0
 40
1.0
 40
1.0
 10
50.35201444735481
 20
14.33333286198014
 30
0.0
 10
50.35264233136626
 20
14.33238799895475
 30
0.0
 10
50.35389922294865
 20
14.33049658213038
 30
0.0
 10
50.35703551636422
 20
14.32830907096454
 30
0.0
 10
50.36065512709904
 20
14.32695046882994
 30
0.0
 10
50.36411371803613
 20
14.32656212983198
 30
0.0
 10
50.36610053246592
 20
14.32690554325965
 30
0.0
 10
50.36692200597149
 20
14.32704753187622
 30
0.0
  0
ARC
  5
DB
330
2
100
AcDbEntity
  8
0
100
AcDbCircle
 10
50.57183981589496
 20
14.4503522811635
 30
0.0
 40
0.2490315986341092
100
AcDbArc
 50
205.4738674107004
 51
208.0276676339999
  0
ARC
  5
DC
330
2
100
AcDbEntity
  8
0
100
AcDbCircle
 10
50.30904813637435
 20
14.5429490847146
 30
0.0
 40
0.203282821807903
100
AcDbArc
 50
276.2322368166987
 51
280.7653245902999
  0
ARC
  5
DD
330
2
100
AcDbEntity
  8
0
100
AcDbCircle
 10
50.55593738426078
 20
14.44797599283011
 30
0.0
 40
0.2490315987065498
100
AcDbArc
 50
205.4738674108999
 51
208.0276676333981
  0
SPLINE
  5
DE
330
2
100
AcDbEntity
  8
0
100
AcDbSpline
210
0.0
220
0.0
230
1.0
 70
     8
 71
     3
 72
    12
 73
     8
 74
     0
 42
0.000000001
 43
0.0000000001
 40
0.0
 40
0.0
 40
0.0
 40
0.0
 40
0.2134557309184213
 40
0.4271458458370001
 40
0.6393172779235387
 40
0.8508774491921922
 40
1.0
 40
1.0
 40
1.0
 40
1.0
 10
50.33114094224326
 20
14.3217007945251
 30
0.0
 10
50.3321622456171
 20
14.32185551356902
 30
0.0
 10
50.33420597380185
 20
14.32216512154533
 30
0.0
 10
50.33628730951192
 20
14.32381028564814
 30
0.0
 10
50.33729191945411
 20
14.32611643585836
 30
0.0
 10
50.33716681221338
 20
14.32863413343281
 30
0.0
 10
50.33642055297586
 20
14.33027723932073
 30
0.0
 10
50.33611201565413
 20
14.3309565736117
 30
0.0
  0
ARC
  5
DF
330
2
100
AcDbEntity
  8
0
100
AcDbCircle
 10
50.32153954116481
 20
14.49101247924878
 30
0.0
 40
0.1695837064200031
100
AcDbArc
 50
269.7097855386
 51
273.2456779059992
  0
ARC
  5
E0
330
2
100
AcDbEntity
  8
0
100
AcDbCircle
 10
50.48761646870999
 20
14.41943258132954
 30
0.0
 40
0.1935766370990819
100
AcDbArc
 50
210.4155530739992
 51
214.7846556620998
  0
LWPOLYLINE
  5
E1
330
2
100
AcDbEntity
  8
0
100
AcDbPolyline
 90
       12
 70
   128
 43
0.0
 10
50.3726937864905
 20
14.36873267973142
 10
50.36014284226585
 20
14.37249411359942
 10
50.33686218036641
 20
14.37515577418774
 10
50.31590063799962
 20
14.37202350671518
 10
50.29978895530909
 20
14.36347547782072
 10
50.2904691609172
 20
14.35054246052922
 10
50.28906466179281
 20
14.33478429186799
 10
50.29574609699795
 20
14.31810181263364
 10
50.30970696448256
 20
14.3025071347768
 10
50.32926392224876
 20
14.28988127189632
 10
50.35205704014442
 20
14.28174686287147
 10
50.37269501588809
 20
14.27909720124669
  0
LWPOLYLINE
  5
E2
330
2
100
AcDbEntity
  8
0
100
AcDbPolyline
 90
        7
 70
   128
 43
0.0
 10
50.37269381093523
 20
14.39453204952941
 10
50.36775388756894
 20
14.39581014906041
 10
50.34360203380765
 20
14.39857164920937
 10
50.32185615155334
 20
14.39532217843304
 10
50.30513939564852
 20
14.38645371278145
 10
50.29547004878788
 20
14.37303616709317
 10
50.29428780676017
 20
14.3690393762801
  0
LWPOLYLINE
  5
E3
330
2
100
AcDbEntity
  8
0
100
AcDbPolyline
 90
        3
 70
   128
 43
0.0
 10
50.3424092956047
 20
14.3413414055569
 10
50.34258583603678
 20
14.34200306461687
 10
50.34265185346115
 20
14.34246408251213
  0
LINE
  5
E4
330
2
100
AcDbEntity
  8
0
100
AcDbLine
 10
50.36856731243431
 20
14.31060403427598
 30
0.0
 11
50.36485650809293
 21
14.31004953157667
 31
0.0
  0
LINE
  5
E5
330
2
100
AcDbEntity
  8
0
100
AcDbLine
 10
50.36485650809293
 20
14.31004953157667
 30
0.0
 11
50.35939020633892
 21
14.3185969699187
 31
0.0
  0
ARC
  5
E6
330
2
100
AcDbEntity
  8
0
100
AcDbCircle
 10
50.34659132210291
 20
14.30906211245569
 30
0.0
 40
0.0159601047731677
100
AcDbArc
 50
36.68521450839957
 51
97.60079006000069
  0
LINE
  5
E7
330
2
100
AcDbEntity
  8
0
100
AcDbLine
 10
50.34448027812218
 20
14.32488198722607
 30
0.0
 11
50.33562505724297
 21
14.32355875825478
 31
0.0
  0
LINE
  5
E8
330
2
100
AcDbEntity
  8
0
100
AcDbLine
 10
50.33317510815875
 20
14.32216450411023
 30
0.0
 11
50.32863158524606
 21
14.30899834178856
 31
0.0
  0
LINE
  5
E9
330
2
100
AcDbEntity
  8
0
100
AcDbLine
 10
50.36485650809293
 20
14.31004953157667
 30
0.0
 11
50.35993889720703
 21
14.29579929968055
 31
0.0
  0
ARC
  5
EA
330
2
100
AcDbEntity
  8
0
100
AcDbCircle
 10
1.955109673363996
 20
7.249993157491661
 30
0.0
 40
0.1695440419674295
100
AcDbArc
 50
269.7101110895999
 51
273.2476631287994
  0
SPLINE
  5
EB
330
2
100
AcDbEntity
  8
0
100
AcDbSpline
210
0.0
220
0.0
230
1.0
 70
     8
 71
     3
 72
    12
 73
     8
 74
     0
 42
0.000000001
 43
0.0000000001
 40
0.0
 40
0.0
 40
0.0
 40
0.0
 40
0.2133710221320118
 40
0.4271228255717296
 40
0.6393371304467911
 40
0.8508794037229588
 40
1.0
 40
1.0
 40
1.0
 40
1.0
 10
1.979622252400977
 20
7.074436076193112
 30
0.0
 10
1.978928838045914
 20
7.0751910408028
 30
0.0
 10
1.977540771870461
 20
7.076702317329842
 30
0.0
 10
1.974321041611138
 20
7.078648055845595
 30
0.0
 10
1.970717604219656
 20
7.080053511582101
 30
0.0
 10
1.967362012633894
 20
7.080740323776709
 30
0.0
 10
1.965489080934626
 20
7.080726939991307
 30
0.0
 10
1.964714693784328
 20
7.080721406297032
 30
0.0
  0
ARC
  5
EC
330
2
100
AcDbEntity
  8
0
100
AcDbCircle
 10
2.096172496340601
 20
7.164711407166796
 30
0.0
 40
0.1474231825237266
100
AcDbArc
 50
217.7599842344994
 51
221.382626557602
  0
ARC
  5
ED
330
2
100
AcDbEntity
  8
0
100
AcDbCircle
 10
1.963502537121258
 20
7.269256879995261
 30
0.0
 40
0.2032052376344099
100
AcDbArc
 50
276.2313709935996
 51
280.7661904132995
  0
ARC
  5
EE
330
2
100
AcDbEntity
  8
0
100
AcDbCircle
 10
2.11207492804366
 20
7.167087695546078
 30
0.0
 40
0.1474231825237922
100
AcDbArc
 50
217.7599842344994
 51
221.382626557602
  0
SPLINE
  5
EF
330
2
100
AcDbEntity
  8
0
100
AcDbSpline
210
0.0
220
0.0
230
1.0
 70
     8
 71
     3
 72
    12
 73
     8
 74
     0
 42
0.000000001
 43
0.0000000001
 40
0.0
 40
0.0
 40
0.0
 40
0.0
 40
0.2134558047370512
 40
0.4271468989951022
 40
0.6393181129933748
 40
0.8508780817018259
 40
1.0
 40
1.0
 40
1.0
 40
1.0
 10
2.000495757512502
 20
7.086068143648154
 30
0.0
 10
1.999408925635326
 20
7.085723540155078
 30
0.0
 10
1.997234063880557
 20
7.085033953317084
 30
0.0
 10
1.995069255394811
 20
7.083146795135217
 30
0.0
 10
1.994080824316486
 20
7.08088759224494
 30
0.0
 10
1.994308910086071
 20
7.078668304206415
 30
0.0
 10
1.995169059934988
 20
7.077355242580909
 30
0.0
 10
1.995524684101623
 20
7.076812364561538
 30
0.0
  0
ARC
  5
F0
330
2
100
AcDbEntity
  8
0
100
AcDbCircle
 10
1.944592647300598
 20
7.321923028971633
 30
0.0
 40
0.2423895308435127
100
AcDbArc
 50
283.3343627407015
 51
286.1212768242986
  0
ARC
  5
F1
330
2
100
AcDbEntity
  8
0
100
AcDbCircle
 10
2.170882176013593
 20
7.199499437633301
 30
0.0
 40
0.1935766370905682
100
AcDbArc
 50
210.4155530739014
 51
214.7846556621982
  0
ARC
  5
F2
330
2
100
AcDbEntity
  8
0
100
AcDbCircle
 10
1.936606293394659
 20
7.334497937635237
 30
0.0
 40
0.2425360497302916
100
AcDbArc
 50
283.3347173975006
 51
286.1199622997985
  0
SPLINE
  5
F3
330
2
100
AcDbEntity
  8
0
100
AcDbSpline
210
0.0
220
0.0
230
1.0
 70
     8
 71
     3
 72
    12
 73
     8
 74
     0
 42
0.000000001
 43
0.0000000001
 40
0.0
 40
0.0
 40
0.0
 40
0.0
 40
0.2133766528752952
 40
0.4270366633200289
 40
0.6392309886238821
 40
0.8508933248314026
 40
1.0
 40
1.0
 40
1.0
 40
1.0
 10
1.977634728337668
 20
7.104785805744351
 30
0.0
 10
1.978263719468386
 20
7.103841227583767
 30
0.0
 10
1.979522537010483
 20
7.101950816892087
 30
0.0
 10
1.9826555456291
 20
7.099761432622748
 30
0.0
 10
1.986276421346113
 20
7.098403078595095
 30
0.0
 10
1.989735535765271
 20
7.09801546224008
 30
0.0
 10
1.991723164826876
 20
7.098358890165271
 30
0.0
 10
1.992544656561203
 20
7.098500829728987
 30
0.0
  0
ARC
  5
F4
330
2
100
AcDbEntity
  8
0
100
AcDbCircle
 10
2.197460096958416
 20
7.221805224986165
 30
0.0
 40
0.2490315987238574
100
AcDbArc
 50
205.4738674110005
 51
208.0276676333981
  0
ARC
  5
F5
330
2
100
AcDbEntity
  8
0
100
AcDbCircle
 10
1.934668232530089
 20
7.314403265325649
 30
0.0
 40
0.2032840714085528
100
AcDbArc
 50
276.232250756601
 51
280.765310650501
  0
ARC
  5
F6
330
2
100
AcDbEntity
  8
0
100
AcDbCircle
 10
2.181557665209457
 20
7.219428936583921
 30
0.0
 40
0.2490315986912982
100
AcDbArc
 50
205.4738674107994
 51
208.0276676335016
  0
SPLINE
  5
F7
330
2
100
AcDbEntity
  8
0
100
AcDbSpline
210
0.0
220
0.0
230
1.0
 70
     8
 71
     3
 72
    12
 73
     8
 74
     0
 42
0.000000001
 43
0.0000000001
 40
0.0
 40
0.0
 40
0.0
 40
0.0
 40
0.2133203182160695
 40
0.4270243626952874
 40
0.6393113733456928
 40
0.8508853353329092
 40
1.0
 40
1.0
 40
1.0
 40
1.0
 10
1.956763592833041
 20
7.093154092377864
 30
0.0
 10
1.957784076115124
 20
7.093308744860308
 30
0.0
 10
1.959826878351748
 20
7.093618328018186
 30
0.0
 10
1.961907259647166
 20
7.095263809557704
 30
0.0
 10
1.962914924690313
 20
7.097569026699205
 30
0.0
 10
1.962790346454459
 20
7.100087439118431
 30
0.0
 10
1.96204177040154
 20
7.101730322230288
 30
0.0
 10
1.961732296637022
 20
7.1024095173759
 30
0.0
  0
ARC
  5
F8
330
2
100
AcDbEntity
  8
0
100
AcDbCircle
 10
1.947155643603158
 20
7.262489561148282
 30
0.0
 40
0.169607823143128
100
AcDbArc
 50
269.7112383911996
 51
273.2474315138011
  0
ARC
  5
F9
330
2
100
AcDbEntity
  8
0
100
AcDbCircle
 10
2.11323674968164
 20
7.190885525083354
 30
0.0
 40
0.1935766370773451
100
AcDbArc
 50
210.4155530737992
 51
214.7846556623997
  0
LWPOLYLINE
  5
FA
330
2
100
AcDbEntity
  8
0
100
AcDbPolyline
 90
       19
 70
   128
 43
0.0
 10
2.042076521506651
 20
7.107592382060578
 10
2.028115654022045
 20
7.123187101209504
 10
2.008558610756677
 20
7.135813002421143
 10
1.98576549286103
 20
7.143947411445988
 10
1.962484830961599
 20
7.146609072034304
 10
1.941523288594789
 20
7.143476804584715
 10
1.925411605904281
 20
7.13492877566729
 10
1.916091811489444
 20
7.121995758375791
 10
1.914687312388002
 20
7.106237589714575
 10
1.921368747593141
 20
7.08955511048022
 10
1.935329615077734
 20
7.073960432623367
 10
1.954886572820996
 20
7.061334569742894
 10
1.977679690716643
 20
7.053200160718036
 10
2.000960352616087
 20
7.050538458837659
 10
2.021921894982897
 20
7.053670726287236
 10
2.038033577696355
 20
7.062218796496734
 10
2.047353372088243
 20
7.075151813788234
 10
2.04875795671179
 20
7.090909944118296
 10
2.042076521506651
 20
7.107592382060578
  0
LWPOLYLINE
  5
FB
330
2
100
AcDbEntity
  8
0
100
AcDbPolyline
 90
        9
 70
   128
 43
0.0
 10
2.051796739954094
 20
7.129546632078811
 10
2.037311863429924
 20
7.145725323800305
 10
2.017023863886551
 20
7.158824386473352
 10
1.993376538164128
 20
7.16726344690699
 10
1.969222314779285
 20
7.170024592963179
 10
1.947476432547942
 20
7.166775122186847
 10
1.930762046243724
 20
7.157907010628034
 10
1.921092699383077
 20
7.144489464939753
 10
1.919908087731798
 20
7.140492320033896
  0
ARC
  5
FC
330
2
100
AcDbEntity
  8
0
100
AcDbCircle
 10
2.023702913791376
 20
7.107772322031035
 30
0.0
 40
0.0355441084511967
100
AcDbArc
 50
336.2341404192006
 51
37.77771622910175
  0
LWPOLYLINE
  5
FD
330
2
100
AcDbEntity
  8
0
100
AcDbPolyline
 90
        3
 70
   128
 43
0.0
 10
1.968031946199902
 20
7.112794703403481
 10
1.968206117008423
 20
7.113456008393629
 10
1.968272134432795
 20
7.113917026288903
  0
ARC
  5
FE
330
2
100
AcDbEntity
  8
0
100
AcDbCircle
 10
2.005705858123635
 20
7.095309450708715
 30
0.0
 40
0.0061656466279797
100
AcDbArc
 50
105.2125024369983
 51
157.6380724369003
  0
LINE
  5
FF
330
2
100
AcDbEntity
  8
0
100
AcDbLine
 10
1.994189963029493
 20
7.082057332145512
 30
0.0
 11
1.990476789064563
 21
7.081502475353433
 31
0.0
  0
LINE
  5
100
330
2
100
AcDbEntity
  8
0
100
AcDbLine
 10
1.990476789064563
 20
7.081502475353433
 30
0.0
 11
1.985010487333513
 21
7.090049913672514
 31
0.0
  0
ARC
  5
101
330
2
100
AcDbEntity
  8
0
100
AcDbCircle
 10
1.972214957143477
 20
7.080523107131697
 30
0.0
 40
0.0159526059190107
100
AcDbArc
 50
36.66922283850003
 51
97.60795124830089
  0
LINE
  5
102
330
2
100
AcDbEntity
  8
0
100
AcDbLine
 10
1.970102928717386
 20
7.096335285072642
 30
0.0
 11
1.961247707838159
 21
7.095012056101362
 31
0.0
  0
LINE
  5
103
330
2
100
AcDbEntity
  8
0
100
AcDbLine
 10
1.958795389130374
 20
7.093617447886983
 30
0.0
 11
1.954251866240666
 21
7.080451285565318
 31
0.0
  0
LINE
  5
104
330
2
100
AcDbEntity
  8
0
100
AcDbLine
 10
1.990476789064563
 20
7.081502475353433
 30
0.0
 11
1.985559178201621
 21
7.067252243457315
 31
0.0
  0
ARC
  5
105
330
2
100
AcDbEntity
  8
0
100
AcDbCircle
 10
3.110054546753642
 20
3.843419231903532
 30
0.0
 40
1.678246519555993
100
AcDbArc
 50
98.98461686290069
 51
99.33107636290174
  0
SPLINE
  5
106
330
2
100
AcDbEntity
  8
0
100
AcDbSpline
210
0.0
220
0.0
230
1.0
 70
     8
 71
     3
 72
    12
 73
     8
 74
     0
 42
0.000000001
 43
0.0000000001
 40
0.0
 40
0.0
 40
0.0
 40
0.0
 40
0.2133729330087178
 40
0.4271235902819967
 40
0.6393370853825889
 40
0.8508801335661463
 40
1.0
 40
1.0
 40
1.0
 40
1.0
 10
2.85925491744441
 20
5.491179946970158
 30
0.0
 10
2.858933604018631
 20
5.492430742180625
 30
0.0
 10
2.858290408360749
 20
5.494934546826648
 30
0.0
 10
2.856111016120383
 20
5.498076890264776
 30
0.0
 10
2.853331627119802
 20
5.500273961898161
 30
0.0
 10
2.850469347783826
 20
5.501257351240684
 30
0.0
 10
2.848696854541872
 20
5.501127760180906
 30
0.0
 10
2.847963998612435
 20
5.501074179397462
 30
0.0
  0
ARC
  5
107
330
2
100
AcDbEntity
  8
0
100
AcDbCircle
 10
3.229148948748495
 20
5.555806302682851
 30
0.0
 40
0.3754972173644827
100
AcDbArc
 50
189.9104487733003
 51
191.8525783863013
  0
ARC
  5
108
330
2
100
AcDbEntity
  8
0
100
AcDbCircle
 10
3.19893019730578
 20
3.27600776543821
 30
0.0
 40
2.228345502363205
100
AcDbArc
 50
98.29206667499976
 51
98.70549473199965
  0
ARC
  5
109
330
2
100
AcDbEntity
  8
0
100
AcDbCircle
 10
3.245051380405641
 20
5.558182591062132
 30
0.0
 40
0.3754972173310058
100
AcDbArc
 50
189.9104487732012
 51
191.852578386401
  0
SPLINE
  5
10A
330
2
100
AcDbEntity
  8
0
100
AcDbSpline
210
0.0
220
0.0
230
1.0
 70
     8
 71
     3
 72
    12
 73
     8
 74
     0
 42
0.000000001
 43
0.0000000001
 40
0.0
 40
0.0
 40
0.0
 40
0.0
 40
0.2134550738662214
 40
0.4271476068150456
 40
0.6393125443176197
 40
0.8508757519170776
 40
1.0
 40
1.0
 40
1.0
 40
1.0
 10
2.883745062340596
 20
5.506420916748598
 30
0.0
 10
2.882588149692416
 20
5.506130912408409
 30
0.0
 10
2.880273037383145
 20
5.505550581111323
 30
0.0
 10
2.877453420682549
 20
5.503168518840682
 30
0.0
 10
2.875565939989069
 20
5.499981585245824
 30
0.0
 10
2.874825248511672
 20
5.496599865871287
 30
0.0
 10
2.875060206892613
 20
5.494446523088515
 30
0.0
 10
2.875157349145095
 20
5.493556235338584
 30
0.0
  0
ARC
  5
10B
330
2
100
AcDbEntity
  8
0
100
AcDbCircle
 10
3.268796832033067
 20
2.78880566829224
 30
0.0
 40
2.744758186802328
100
AcDbArc
 50
97.8147432961016
 51
98.06440929529934
  0
ARC
  5
10C
330
2
100
AcDbEntity
  8
0
100
AcDbCircle
 10
3.26297508614929
 20
5.560979901656127
 30
0.0
 40
0.3711744214251131
100
AcDbArc
 50
185.3642392265987
 51
188.1948094815994
  0
ARC
  5
10D
330
2
100
AcDbEntity
  8
0
100
AcDbCircle
 10
3.270952646770778
 20
2.776035347661386
 30
0.0
 40
2.776035223474052
100
AcDbArc
 50
97.81614976680083
 51
98.06300282449848
  0
SPLINE
  5
10E
330
2
100
AcDbEntity
  8
0
100
AcDbSpline
210
0.0
220
0.0
230
1.0
 70
     8
 71
     3
 72
    12
 73
     8
 74
     0
 42
0.000000001
 43
0.0000000001
 40
0.0
 40
0.0
 40
0.0
 40
0.0
 40
0.2133762182334209
 40
0.4270391719712929
 40
0.6392311299226538
 40
0.8508923432646241
 40
1.0
 40
1.0
 40
1.0
 40
1.0
 10
2.870287322257702
 20
5.534521771200886
 30
0.0
 10
2.870482424979881
 20
5.53326873224
 30
0.0
 10
2.870872892603808
 20
5.530760970481323
 30
0.0
 10
2.8728862102542
 20
5.527612950324879
 30
0.0
 10
2.875698308364472
 20
5.525416666228343
 30
0.0
 10
2.87876163379014
 20
5.524438772885917
 30
0.0
 10
2.880756232599509
 20
5.524572586851717
 30
0.0
 10
2.881580610696562
 20
5.524627892862137
 30
0.0
  0
ARC
  5
10F
330
2
100
AcDbEntity
  8
0
100
AcDbCircle
 10
3.229644515672076
 20
5.557241348648596
 30
0.0
 40
0.3600746751047687
100
AcDbArc
 50
181.6206629423985
 51
183.6175862665009
  0
ARC
  5
110
330
2
100
AcDbEntity
  8
0
100
AcDbCircle
 10
3.189856240334473
 20
3.350224502701956
 30
0.0
 40
2.220037633176927
100
AcDbArc
 50
98.29129310230063
 51
98.70626830469909
  0
ARC
  5
111
330
2
100
AcDbEntity
  8
0
100
AcDbCircle
 10
3.213742083946066
 20
5.554865060292252
 30
0.0
 40
0.3600746750856529
100
AcDbArc
 50
181.6206629423008
 51
183.6175862665009
  0
SPLINE
  5
112
330
2
100
AcDbEntity
  8
0
100
AcDbSpline
210
0.0
220
0.0
230
1.0
 70
     8
 71
     3
 72
    12
 73
     8
 74
     0
 42
0.000000001
 43
0.0000000001
 40
0.0
 40
0.0
 40
0.0
 40
0.0
 40
0.2133212886485193
 40
0.4270308754244241
 40
0.6393147291200387
 40
0.8508902679490313
 40
1.0
 40
1.0
 40
1.0
 40
1.0
 10
2.845799546968362
 20
5.519281155510989
 30
0.0
 10
2.846828300465968
 20
5.519568549931988
 30
0.0
 10
2.848887680049998
 20
5.520143861903688
 30
0.0
 10
2.851544208651454
 20
5.522523087101776
 30
0.0
 10
2.853465621942942
 20
5.525709209863991
 30
0.0
 10
2.854407268746387
 20
5.529095912454377
 30
0.0
 10
2.854391435944495
 20
5.531253515238953
 30
0.0
 10
2.85438489055703
 20
5.532145482832435
 30
0.0
  0
ARC
  5
113
330
2
100
AcDbEntity
  8
0
100
AcDbCircle
 10
3.110428235233497
 20
3.845881872483019
 30
0.0
 40
1.694194057105284
100
AcDbArc
 50
98.98624748850066
 51
99.32944573729979
  0
ARC
  5
114
330
2
100
AcDbEntity
  8
0
100
AcDbCircle
 10
3.205329659817324
 20
5.552365989106179
 30
0.0
 40
0.3711744214102888
100
AcDbArc
 50
185.3642392267001
 51
188.1948094817016
  0
LWPOLYLINE
  5
115
330
2
100
AcDbEntity
  8
0
100
AcDbPolyline
 90
       19
 70
   128
 43
0.0
 10
2.931137699851645
 20
5.521992009245381
 10
2.924688347880405
 20
5.545082234195779
 10
2.911736843191722
 20
5.564299494252598
 10
2.893846522287713
 20
5.577326256609861
 10
2.873174578932936
 20
5.582591110959304
 10
2.852213036566139
 20
5.579458843486765
 10
2.833492635330964
 20
5.568307620831164
 10
2.819270043947426
 20
5.550482250230208
 10
2.811260006246375
 20
5.52813272270085
 10
2.810429925938147
 20
5.503954737687973
 10
2.816879277909374
 20
5.480864677928832
 10
2.829830803967127
 20
5.46164740827775
 10
2.847721103502079
 20
5.44862065551475
 10
2.868393068248851
 20
5.443355791571031
 10
2.889354610615648
 20
5.446488059043583
 10
2.908074990458841
 20
5.457639291293448
 10
2.922297603234373
 20
5.47546465230014
 10
2.930307619543416
 20
5.497814189423761
 10
2.931137699851645
 20
5.521992009245381
  0
ARC
  5
116
330
2
100
AcDbEntity
  8
0
100
AcDbCircle
 10
2.883132272776598
 20
5.52030860398961
 30
0.0
 40
0.0648062396539577
100
AcDbArc
 50
2.048422614501145
 51
98.19911393670013
  0
ARC
  5
117
330
2
100
AcDbEntity
  8
0
100
AcDbCircle
 10
2.882268715358507
 20
5.508572381784542
 30
0.0
 40
0.0671160350946605
100
AcDbArc
 50
265.3223815863007
 51
12.08594056760074
  0
LINE
  5
118
330
2
100
AcDbEntity
  8
0
100
AcDbLine
 10
2.892053299730851
 20
5.524841078597591
 30
0.0
 11
2.893543782456518
 21
5.525063800304718
 31
0.0
  0
LINE
  5
119
330
2
100
AcDbEntity
  8
0
100
AcDbLine
 10
2.892053299730851
 20
5.524841078597591
 30
0.0
 11
2.881580610685459
 21
5.524627892858471
 31
0.0
  0
LINE
  5
11A
330
2
100
AcDbEntity
  8
0
100
AcDbLine
 10
2.890933467659741
 20
5.524746375918268
 30
0.0
 11
2.892053299730851
 21
5.524841078597591
 31
0.0
  0
LINE
  5
11B
330
2
100
AcDbEntity
  8
0
100
AcDbLine
 10
2.863369521769623
 20
5.54487592215299
 30
0.0
 11
2.869750873057324
 21
5.545829482665718
 31
0.0
  0
LINE
  5
11C
330
2
100
AcDbEntity
  8
0
100
AcDbLine
 10
2.863369521769623
 20
5.54487592215299
 30
0.0
 11
2.853811445764628
 21
5.544681380555701
 31
0.0
  0
ARC
  5
11D
330
2
100
AcDbEntity
  8
0
100
AcDbCircle
 10
2.853816487506613
 20
5.53043023878785
 30
0.0
 40
0.0112082360765348
100
AcDbArc
 50
282.6563028020993
 51
9.907305582700894
  0
LINE
  5
11E
330
2
100
AcDbEntity
  8
0
100
AcDbLine
 10
2.864857579601392
 20
5.53235866856802
 30
0.0
 11
2.863369521769623
 21
5.54487592215299
 31
0.0
  0
LINE
  5
11F
330
2
100
AcDbEntity
  8
0
100
AcDbLine
 10
2.871069898270193
 20
5.480101976191588
 30
0.0
 11
2.869727585106092
 21
5.49139314228786
 31
0.0
  0
ARC
  5
120
330
2
100
AcDbEntity
  8
0
100
AcDbCircle
 10
2.859164962627789
 20
5.490810829156422
 30
0.0
 40
0.0105786616403517
100
AcDbArc
 50
3.155499116998714
 51
87.87889340040129
  0
LINE
  5
121
330
2
100
AcDbEntity
  8
0
100
AcDbLine
 10
2.84734607634641
 20
5.500976355780253
 30
0.0
 11
2.845338869912911
 21
5.517860576605148
 31
0.0
  0
LINE
  5
122
330
2
100
AcDbEntity
  8
0
100
AcDbLine
 10
2.845338869912911
 20
5.517860576605148
 30
0.0
 11
2.856272236004582
 21
5.519494341255446
 31
0.0
  0
LINE
  5
123
330
2
100
AcDbEntity
  8
0
100
AcDbLine
 10
2.845338869912911
 20
5.517860576605148
 30
0.0
 11
2.835780793907928
 21
5.517666035007872
 31
0.0
  0
ARC
  5
124
330
2
100
AcDbEntity
  8
0
100
AcDbCircle
 10
2.606158115897626
 20
5.743890462617968
 30
0.0
 40
0.0214462849488671
100
AcDbArc
 50
205.1535492230993
 51
264.6609697992011
  0
LINE
  5
125
330
2
100
AcDbEntity
  8
0
100
AcDbLine
 10
2.58674554050483
 20
5.73477481375461
 30
0.0
 11
2.096331383181648
 21
6.501607440112853
 31
0.0
  0
ARC
  5
126
330
2
100
AcDbEntity
  8
0
100
AcDbCircle
 10
2.164519130061535
 20
6.542259909693842
 30
0.0
 40
0.0793863471026975
100
AcDbArc
 50
186.461599186799
 51
210.8027366935999
  0
LINE
  5
127
330
2
100
AcDbEntity
  8
0
100
AcDbLine
 10
2.085637084446105
 20
6.533325986436548
 30
0.0
 11
2.044606089313366
 21
6.847543760233282
 31
0.0
  0
ARC
  5
128
330
2
100
AcDbEntity
  8
0
100
AcDbCircle
 10
2.062896327612964
 20
6.85035562149887
 30
0.0
 40
0.0185051176772003
100
AcDbArc
 50
163.2181915640014
 51
188.7399759017986
  0
LINE
  5
129
330
2
100
AcDbEntity
  8
0
100
AcDbLine
 10
2.045179320345361
 20
6.855698563986647
 30
0.0
 11
2.076337214640657
 21
6.945987141585017
 31
0.0
  0
ARC
  5
12A
330
2
100
AcDbEntity
  8
0
100
AcDbCircle
 10
2.091746435340871
 20
6.940868381290685
 30
0.0
 40
0.0162371730805662
100
AcDbArc
 50
146.7915879803998
 51
161.624124935999
  0
LINE
  5
12B
330
2
100
AcDbEntity
  8
0
100
AcDbLine
 10
2.078161053838309
 20
6.949761254783297
 30
0.0
 11
2.107805153034956
 21
6.993740211980208
 31
0.0
  0
LINE
  5
12C
330
2
100
AcDbEntity
  8
0
100
AcDbLine
 10
2.040901296744976
 20
6.937096788263345
 30
0.0
 11
2.04101513911697
 21
6.937393707426528
 31
0.0
  0
LINE
  5
12D
330
2
100
AcDbEntity
  8
0
100
AcDbLine
 10
2.042899161069767
 20
6.941242688004046
 30
0.0
 11
2.043097652429831
 21
6.941555517057417
 31
0.0
  0
LINE
  5
12E
330
2
100
AcDbEntity
  8
0
100
AcDbLine
 10
2.574092254336999
 20
5.718654681635453
 30
0.0
 11
2.5735747149098
 21
5.718603291085981
 31
0.0
  0
LINE
  5
12F
330
2
100
AcDbEntity
  8
0
100
AcDbLine
 10
2.727222024360965
 20
5.729274279422456
 30
0.0
 11
2.757292376323996
 21
5.733156965237666
 31
0.0
  0
LINE
  5
130
330
2
100
AcDbEntity
  8
0
100
AcDbLine
 10
2.574092254336999
 20
5.718654681635453
 30
0.0
 11
2.727222024360965
 21
5.729274279422456
 31
0.0
  0
LINE
  5
131
330
2
100
AcDbEntity
  8
0
100
AcDbLine
 10
26.19194145782229
 20
10.4551424580359
 30
0.0
 11
26.23294013172495
 21
10.14117208368924
 31
0.0
  0
ARC
  5
132
330
2
100
AcDbEntity
  8
0
100
AcDbCircle
 10
26.7455387745085
 20
9.357683551350195
 30
0.0
 40
0.0158025282625793
100
AcDbArc
 50
205.1527590533011
 51
264.6623949612989
  0
LINE
  5
133
330
2
100
AcDbEntity
  8
0
100
AcDbLine
 10
26.24082043387347
 20
10.11779970093098
 30
0.0
 11
26.73123467667283
 21
9.350966953634443
 31
0.0
  0
ARC
  5
134
330
2
100
AcDbEntity
  8
0
100
AcDbCircle
 10
26.29106656349812
 20
10.14775549997235
 30
0.0
 40
0.0584980635506887
100
AcDbArc
 50
186.4617998417982
 51
210.8026032691001
  0
LINE
  5
135
330
2
100
AcDbEntity
  8
0
100
AcDbLine
 10
26.22303693284214
 20
10.54525022412324
 30
0.0
 11
26.19194145782229
 21
10.4551424580359
 31
0.0
  0
ARC
  5
136
330
2
100
AcDbEntity
  8
0
100
AcDbCircle
 10
26.23033834536032
 20
10.54282449797233
 30
0.0
 40
0.0076938138786727
100
AcDbArc
 50
146.7927556543003
 51
161.6221211438003
  0
LINE
  5
137
330
2
100
AcDbEntity
  8
0
100
AcDbLine
 10
26.14632001281143
 20
10.44904468372735
 30
0.0
 11
26.18735100792122
 21
10.13482690995358
 31
0.0
  0
ARC
  5
138
330
2
100
AcDbEntity
  8
0
100
AcDbCircle
 10
26.26623305355961
 20
10.14376083321088
 30
0.0
 40
0.0793863471031209
100
AcDbArc
 50
186.4615991869009
 51
210.8027366935004
  0
ARC
  5
139
330
2
100
AcDbEntity
  8
0
100
AcDbCircle
 10
26.16461025108808
 20
10.45185654499297
 30
0.0
 40
0.018505117676813
100
AcDbArc
 50
163.2181915635996
 51
188.7399759019994
  0
LINE
  5
13A
330
2
100
AcDbEntity
  8
0
100
AcDbLine
 10
26.19804530667971
 20
10.10310836360694
 30
0.0
 11
26.68845946397994
 21
9.336275737248683
 31
0.0
  0
LINE
  5
13B
330
2
100
AcDbEntity
  8
0
100
AcDbLine
 10
26.17805113813874
 20
10.5474880650791
 30
0.0
 11
26.14689324384342
 21
10.45719948748074
 31
0.0
  0
ARC
  5
13C
330
2
100
AcDbEntity
  8
0
100
AcDbCircle
 10
26.19346035883893
 20
10.54236930478477
 30
0.0
 40
0.0162371730798417
100
AcDbArc
 50
146.791587980099
 51
161.6241249363997
  0
LINE
  5
13D
330
2
100
AcDbEntity
  8
0
100
AcDbLine
 10
26.20951907653303
 20
10.59524113547429
 30
0.0
 11
26.17987497733637
 21
10.55126217827738
 31
0.0
  0
ARC
  5
13E
330
2
100
AcDbEntity
  8
0
100
AcDbCircle
 10
26.73316100732815
 20
9.339901571469429
 30
0.0
 40
0.0110983437930556
100
AcDbArc
 50
283.6935270544991
 51
10.63371185240089
  0
LINE
  5
13F
330
2
100
AcDbEntity
  8
0
100
AcDbLine
 10
26.73578830030703
 20
9.329118688443292
 30
0.0
 11
26.70587648703704
 21
9.324038144942031
 31
0.0
  0
ARC
  5
140
330
2
100
AcDbEntity
  8
0
100
AcDbCircle
 10
26.70787203939569
 20
9.345391386112055
 30
0.0
 40
0.0214462849487867
100
AcDbArc
 50
205.1535492229012
 51
264.6609697992011
  0
LINE
  5
141
330
2
100
AcDbEntity
  8
0
100
AcDbLine
 10
26.88891807035396
 20
9.339738286230282
 30
0.0
 11
26.73578830030703
 21
9.329118688443292
 31
0.0
  0
ARC
  5
142
330
2
100
AcDbEntity
  8
0
100
AcDbCircle
 10
50.99633732873951
 20
12.98146207871322
 30
0.0
 40
0.0158025282624953
100
AcDbArc
 50
205.1527590529995
 51
264.6623949615017
  0
LINE
  5
143
330
2
100
AcDbEntity
  8
0
100
AcDbLine
 10
50.49161898810449
 20
13.741578228294
 30
0.0
 11
50.98203323090389
 21
12.97474548102042
 31
0.0
  0
ARC
  5
144
330
2
100
AcDbEntity
  8
0
100
AcDbCircle
 10
50.54186511772917
 20
13.77153402733538
 30
0.0
 40
0.0584980635512024
100
AcDbArc
 50
186.4617998418999
 51
210.8026032690007
  0
LINE
  5
145
330
2
100
AcDbEntity
  8
0
100
AcDbLine
 10
50.41345661274031
 20
13.9476910473242
 30
0.0
 11
50.43814770164464
 21
13.75860515931237
 31
0.0
  0
ARC
  5
146
330
2
100
AcDbEntity
  8
0
100
AcDbCircle
 10
50.517029747283
 20
13.76753908256967
 30
0.0
 40
0.0793863471025434
100
AcDbArc
 50
186.461599186799
 51
210.8027366935999
  0
LINE
  5
147
330
2
100
AcDbEntity
  8
0
100
AcDbLine
 10
50.44884200040314
 20
13.72688661296573
 30
0.0
 11
50.93925615770338
 21
12.96005398660746
 31
0.0
  0
ARC
  5
148
330
2
100
AcDbEntity
  8
0
100
AcDbCircle
 10
50.98395629959986
 20
12.96368218446108
 30
0.0
 40
0.0111011651801041
100
AcDbArc
 50
283.7086107716993
 51
10.62002557069858
  0
LINE
  5
149
330
2
100
AcDbEntity
  8
0
100
AcDbLine
 10
50.98658709983458
 20
12.95289725246194
 30
0.0
 11
50.95667318076048
 21
12.94781639430082
 31
0.0
  0
ARC
  5
14A
330
2
100
AcDbEntity
  8
0
100
AcDbCircle
 10
50.95866873311912
 20
12.96916963547083
 30
0.0
 40
0.0214462849487707
100
AcDbArc
 50
205.1535492229012
 51
264.6609697992993
  0
LINE
  5
14B
330
2
100
AcDbEntity
  8
0
100
AcDbLine
 10
50.95667318076048
 20
12.94781639430082
 30
0.0
 11
51.04854884528808
 21
12.9541881139303
 31
0.0
  0
ARC
  5
14C
330
2
100
AcDbEntity
  8
0
100
AcDbCircle
 10
26.85695480962106
 20
9.367668711976746
 30
0.0
 40
0.0214462849487992
100
AcDbArc
 50
205.1535492229988
 51
264.6609697992011
  0
LINE
  5
14D
330
2
100
AcDbEntity
  8
0
100
AcDbLine
 10
26.83754223422824
 20
9.358553063113374
 30
0.0
 11
26.34712807690507
 21
10.12538568947164
 31
0.0
  0
ARC
  5
14E
330
2
100
AcDbEntity
  8
0
100
AcDbCircle
 10
26.41531582378494
 20
10.16603815905263
 30
0.0
 40
0.0793863471029022
100
AcDbArc
 50
186.4615991869009
 51
210.8027366935999
  0
LINE
  5
14F
330
2
100
AcDbEntity
  8
0
100
AcDbLine
 10
26.33643377816954
 20
10.15710423579534
 30
0.0
 11
26.29540278303679
 21
10.47132200959206
 31
0.0
  0
ARC
  5
150
330
2
100
AcDbEntity
  8
0
100
AcDbCircle
 10
26.31369302133638
 20
10.47413387085766
 30
0.0
 40
0.0185051176769667
100
AcDbArc
 50
163.2181915636985
 51
188.7399759019994
  0
LINE
  5
151
330
2
100
AcDbEntity
  8
0
100
AcDbLine
 10
26.29597601409175
 20
10.47947681334544
 30
0.0
 11
26.32713390836409
 21
10.56976539094381
 31
0.0
  0
ARC
  5
152
330
2
100
AcDbEntity
  8
0
100
AcDbCircle
 10
26.34254312906429
 20
10.56464663062652
 30
0.0
 40
0.0162371730790845
100
AcDbArc
 50
146.7915879796988
 51
161.6241249366983
  0
LINE
  5
153
330
2
100
AcDbEntity
  8
0
100
AcDbLine
 10
26.32895774756173
 20
10.57353950414207
 30
0.0
 11
26.35860184675838
 21
10.61751846133898
 31
0.0
  0
LINE
  5
154
330
2
100
AcDbEntity
  8
0
100
AcDbLine
 10
26.29169913824586
 20
10.56087520912541
 30
0.0
 11
26.29181287184455
 21
10.56117211203801
 31
0.0
  0
LINE
  5
155
330
2
100
AcDbEntity
  8
0
100
AcDbLine
 10
26.29369657909157
 20
10.56502104560821
 30
0.0
 11
26.29389542683967
 21
10.5653339278891
 31
0.0
  0
LINE
  5
156
330
2
100
AcDbEntity
  8
0
100
AcDbLine
 10
26.82489105386455
 20
9.342433245654104
 30
0.0
 11
26.85495925728535
 21
9.346315470783784
 31
0.0
  0
LINE
  5
157
330
2
100
AcDbEntity
  8
0
100
AcDbLine
 10
26.82489105386455
 20
9.342433245654104
 30
0.0
 11
26.82437356534666
 21
9.342381862724954
 31
0.0
  0
LINE
  5
158
330
2
100
AcDbEntity
  8
0
100
AcDbLine
 10
26.18735100792122
 20
10.13482690995358
 30
0.0
 11
26.14690376106636
 21
10.44457376346467
 31
0.0
  0
LINE
  5
159
330
2
100
AcDbEntity
  8
0
100
AcDbLine
 10
26.17562747558176
 20
10.54046490965613
 30
0.0
 11
26.17805113813874
 21
10.5474880650791
 31
0.0
  0
LINE
  5
15A
330
2
100
AcDbEntity
  8
0
100
AcDbLine
 10
26.17987497733637
 20
10.55126213698531
 30
0.0
 11
26.20951907653303
 21
10.59524113547429
 31
0.0
  0
LINE
  5
15B
330
2
100
AcDbEntity
  8
0
100
AcDbLine
 10
26.14690376106636
 20
10.44457376346467
 30
0.0
 11
2.045189837568291
 21
6.843072839970586
 31
0.0
  0
LINE
  5
15C
330
2
100
AcDbEntity
  8
0
100
AcDbLine
 10
26.19804530667971
 20
10.10310836360694
 30
0.0
 11
2.096331383181648
 21
6.501607440112853
 31
0.0
  0
LINE
  5
15D
330
2
100
AcDbEntity
  8
0
100
AcDbLine
 10
26.17562747558176
 20
10.54046490965613
 30
0.0
 11
2.073913552083684
 21
6.9389639861391
 31
0.0
  0
LINE
  5
15E
330
2
100
AcDbEntity
  8
0
100
AcDbLine
 10
2.073913552083684
 20
6.9389639861391
 30
0.0
 11
2.076337214640657
 21
6.945987141585017
 31
0.0
  0
LINE
  5
15F
330
2
100
AcDbEntity
  8
0
100
AcDbLine
 10
2.078161053838309
 20
6.949761213491223
 30
0.0
 11
2.107805153034956
 21
6.993740211980208
 31
0.0
  0
LINE
  5
160
330
2
100
AcDbEntity
  8
0
100
AcDbLine
 10
26.70587648703704
 20
9.324038144942031
 30
0.0
 11
2.604162563561926
 21
5.722537221447957
 31
0.0
  0
LINE
  5
161
330
2
100
AcDbEntity
  8
0
100
AcDbLine
 10
50.43814770164464
 20
13.75860515931237
 30
0.0
 11
50.41345652724114
 21
13.94769116826248
 31
0.0
  0
LINE
  5
162
330
2
100
AcDbEntity
  8
0
100
AcDbLine
 10
26.33643377816954
 20
10.15710423579534
 30
0.0
 11
26.29598653129172
 21
10.46685108932937
 31
0.0
  0
LINE
  5
163
330
2
100
AcDbEntity
  8
0
100
AcDbLine
 10
26.34712807690507
 20
10.12538568947164
 30
0.0
 11
50.44884200040314
 21
13.72688661296573
 31
0.0
  0
LINE
  5
164
330
2
100
AcDbEntity
  8
0
100
AcDbLine
 10
26.32471024580712
 20
10.56274223549787
 30
0.0
 11
26.32713390836409
 21
10.56976539094381
 31
0.0
  0
LINE
  5
165
330
2
100
AcDbEntity
  8
0
100
AcDbLine
 10
26.32895774756173
 20
10.57353946282705
 30
0.0
 11
26.35860184675838
 21
10.61751846133898
 31
0.0
  0
LINE
  5
166
330
2
100
AcDbEntity
  8
0
100
AcDbLine
 10
26.85495925728535
 20
9.346315470783784
 30
0.0
 11
50.95667318076048
 21
12.94781639430082
 31
0.0
  0
LINE
  5
167
330
2
100
AcDbEntity
  8
0
100
AcDbLine
 10
1.954580418646859
 20
6.976793625336937
 30
0.0
 11
1.772325270486259
 21
7.261775513367697
 31
0.0
  0
ARC
  5
168
330
2
100
AcDbEntity
  8
0
100
AcDbCircle
 10
1.801474314767306
 20
7.278771735727502
 30
0.0
 40
0.0337422340321485
100
AcDbArc
 50
179.2834551769004
 51
210.2456026781016
  0
LINE
  5
169
330
2
100
AcDbEntity
  8
0
100
AcDbLine
 10
50.37269377405009
 20
14.54219605971485
 30
0.0
 11
1.76773471938633
 21
7.279193707338654
 31
0.0
  0
ARC
  5
16A
330
2
100
AcDbEntity
  8
0
100
AcDbCircle
 10
50.36098970875606
 20
14.69154212612852
 30
0.0
 40
0.0320273062770535
100
AcDbArc
 50
126.0331518446
 51
179.7617990508993
  0
LINE
  5
16B
330
2
100
AcDbEntity
  8
0
100
AcDbLine
 10
50.32896267926112
 20
14.69167527577153
 30
0.0
 11
50.32896267926112
 21
14.65256767517261
 31
0.0
  0
ARC
  5
16C
330
2
100
AcDbEntity
  8
0
100
AcDbCircle
 10
50.35169142228026
 20
14.6514037148162
 30
0.0
 40
0.0227585272466052
100
AcDbArc
 50
177.0683901001997
 51
245.2117329695
  0
LINE
  5
16D
330
2
100
AcDbEntity
  8
0
100
AcDbLine
 10
50.34214954149163
 20
14.63074208192559
 30
0.0
 11
50.36390253254776
 21
14.62186051068739
 31
0.0
  0
ARC
  5
16E
330
2
100
AcDbEntity
  8
0
100
AcDbCircle
 10
50.35754553123707
 20
14.60808865847869
 30
0.0
 40
0.015168235862624
100
AcDbArc
 50
357.0579005103007
 51
65.22224655120132
  0
LINE
  5
16F
330
2
100
AcDbEntity
  8
0
100
AcDbLine
 10
50.37269377405009
 20
14.54219605971485
 30
0.0
 11
50.37269377405009
 21
14.60731012206756
 31
0.0
  0
LINE
  5
170
330
2
100
AcDbEntity
  8
0
100
AcDbLine
 10
1.76773471938633
 20
7.279193707338654
 30
0.0
 11
1.76773471938633
 21
7.344307769714316
 31
0.0
  0
ARC
  5
171
330
2
100
AcDbEntity
  8
0
100
AcDbCircle
 10
1.789079737052078
 20
7.344222245605046
 30
0.0
 40
0.0213451890089375
100
AcDbArc
 50
126.0245194741997
 51
179.7704314212984
  0
LINE
  5
172
330
2
100
AcDbEntity
  8
0
100
AcDbLine
 10
1.798278951921808
 20
7.376868132798661
 30
0.0
 11
1.776525960865712
 21
7.36148549549715
 31
0.0
  0
ARC
  5
173
330
2
100
AcDbEntity
  8
0
100
AcDbCircle
 10
1.779438775843549
 20
7.402767875580247
 30
0.0
 40
0.0320273150728557
100
AcDbArc
 50
306.0331599105016
 51
359.7618096056005
  0
LINE
  5
174
330
2
100
AcDbEntity
  8
0
100
AcDbLine
 10
1.811465814152356
 20
7.441742332412059
 30
0.0
 11
1.811465814152356
 21
7.402634731790196
 31
0.0
  0
ARC
  5
175
330
2
100
AcDbEntity
  8
0
100
AcDbCircle
 10
1.78873707877648
 20
7.442906287581148
 30
0.0
 40
0.0227585193768546
100
AcDbArc
 50
357.0684021244989
 51
65.21174493699864
  0
LINE
  5
176
330
2
100
AcDbEntity
  8
0
100
AcDbLine
 10
1.776525960865712
 20
7.472449486545564
 30
0.0
 11
1.798278951921808
 21
7.463567915330327
 31
0.0
  0
ARC
  5
177
330
2
100
AcDbEntity
  8
0
100
AcDbCircle
 10
1.782882970462336
 20
7.486221344033416
 30
0.0
 40
0.0151682441169768
100
AcDbArc
 50
177.0579025343006
 51
245.2222265334014
  0
LINE
  5
178
330
2
100
AcDbEntity
  8
0
100
AcDbLine
 10
1.76773471938633
 20
7.486999880329783
 30
0.0
 11
1.76773471938633
 21
7.548678006961178
 31
0.0
  0
LINE
  5
179
330
2
100
AcDbEntity
  8
0
100
AcDbLine
 10
50.37269377405009
 20
14.75000223268303
 30
0.0
 11
50.37269377405009
 21
14.81168035931443
 31
0.0
  0
ARC
  5
17A
330
2
100
AcDbEntity
  8
0
100
AcDbCircle
 10
50.35134874467844
 20
14.75008775759565
 30
0.0
 40
0.0213452006966309
100
AcDbArc
 50
306.0245354406997
 51
359.7704294202992
  0
LINE
  5
17B
330
2
100
AcDbEntity
  8
0
100
AcDbLine
 10
50.36390253254776
 20
14.73282450175877
 30
0.0
 11
50.34214954149163
 21
14.71744186445726
 31
0.0
  0
LWPOLYLINE
  5
17C
330
2
100
AcDbEntity
  8
0
100
AcDbPolyline
 90
        8
 70
   128
 43
0.0
 10
50.37269377405009
 20
14.81168035931443
 10
50.37287017256505
 20
14.81506151279771
 10
50.37339269864754
 20
14.8181545266765
 10
50.37424108741297
 20
14.82084062097364
 10
50.37538284665595
 20
14.82301652076076
 10
50.37677419740969
 20
14.8245985638134
 10
50.37836144200168
 20
14.82552605536841
 10
50.37916117795812
 20
14.82572517154946
  0
LWPOLYLINE
  5
17D
330
2
100
AcDbEntity
  8
0
100
AcDbPolyline
 90
        8
 70
   128
 43
0.0
 10
1.774202123294353
 20
7.562722819196204
 10
1.773402387337918
 20
7.562523703015165
 10
1.771815142745932
 20
7.561596211460152
 10
1.77042379199216
 20
7.560014168384557
 10
1.769282032749204
 20
7.557838268620388
 10
1.76843364398375
 20
7.555152174323247
 10
1.767911117901264
 20
7.552059160444466
 10
1.76773471938633
 20
7.548678006961178
  0
ARC
  5
17E
330
2
100
AcDbEntity
  8
0
100
AcDbCircle
 10
1.962005886474754
 20
6.980037712856648
 30
0.0
 40
0.0081031892809371
100
AcDbArc
 50
203.5998729086999
 51
269.1428604327005
  0
LINE
  5
17F
330
2
100
AcDbEntity
  8
0
100
AcDbLine
 10
2.814864526846419
 20
5.118580274945355
 30
0.0
 11
2.742037913647295
 21
5.731182631268573
 31
0.0
  0
LWPOLYLINE
  5
180
330
2
100
AcDbEntity
  8
0
100
AcDbPolyline
 90
        9
 70
   128
 43
0.0
 10
2.814864526846419
 20
5.118580274945355
 10
2.815606674631601
 20
5.114144724961983
 10
2.816748882785319
 20
5.109888283346373
 10
2.818247265449698
 20
5.105974499317772
 10
2.820044277191589
 20
5.102554049318999
 10
2.82207082931909
 20
5.099758006821002
 10
2.82424902601531
 20
5.097694303139633
 10
2.826495199868456
 20
5.096441741530489
 10
2.828723032694376
 20
5.096048763177845
  0
ARC
  5
181
330
2
100
AcDbEntity
  8
0
100
AcDbCircle
 10
51.43520649784882
 20
12.37003095288342
 30
0.0
 40
0.0110851547231767
100
AcDbArc
 50
205.9418713876012
 51
262.0957396923999
  0
LINE
  5
182
330
2
100
AcDbEntity
  8
0
100
AcDbLine
 10
51.43368208735815
 20
12.35905111553109
 30
0.0
 11
2.828723032694376
 21
5.096048763177845
 31
0.0
  0
LINE
  5
183
330
2
100
AcDbEntity
  8
0
100
AcDbLine
 10
51.68370865159741
 20
12.36414077907278
 30
0.0
 11
51.43368208735815
 21
12.35905111553109
 31
0.0
  0
LINE
  5
184
330
2
100
AcDbEntity
  8
0
100
AcDbLine
 10
51.68439524131716
 20
12.36419870795531
 30
0.0
 11
51.68370865159741
 21
12.36414077907278
 31
0.0
  0
LINE
  5
185
330
2
100
AcDbEntity
  8
0
100
AcDbLine
 10
3.078749596933626
 20
5.101138426719527
 30
0.0
 11
3.079436186653371
 21
5.101196355602064
 31
0.0
  0
LINE
  5
186
330
2
100
AcDbEntity
  8
0
100
AcDbLine
 10
1.76773471938633
 20
7.346524835659757
 30
0.0
 11
1.767851691348898
 21
7.346472398554659
 31
0.0
  0
LINE
  5
187
330
2
100
AcDbEntity
  8
0
100
AcDbLine
 10
1.767868707012921
 20
7.48472274421265
 30
0.0
 11
1.76773471938633
 21
7.484782809242916
 31
0.0
  0
LINE
  5
188
330
2
100
AcDbEntity
  8
0
100
AcDbLine
 10
3.048540642707622
 20
5.097067065054339
 30
0.0
 11
3.050607198618005
 21
5.09723166996441
 31
0.0
  0
LINE
  5
189
330
2
100
AcDbEntity
  8
0
100
AcDbLine
 10
3.051229180031345
 20
5.097280355182767
 30
0.0
 11
3.050607198618005
 21
5.09723166996441
 31
0.0
  0
LINE
  5
18A
330
2
100
AcDbEntity
  8
0
100
AcDbLine
 10
50.36264724058898
 20
14.62729336767203
 30
0.0
 11
50.36165058471258
 21
14.62774015628071
 31
0.0
  0
ELLIPSE
  5
18B
330
2
100
AcDbEntity
  8
0
100
AcDbEllipse
 10
50.41213996449587
 20
14.80592519521832
 30
0.0
 11
0.0009219712960707
 21
0.0233757272666885
 31
0.0
210
0.0
220
0.0
230
0.9999999999999998
 40
0.8550977025999999
 41
4.873442247915221
 42
5.961121024638372
  0
LINE
  5
18C
330
2
100
AcDbEntity
  8
0
100
AcDbLine
 10
51.67126871769122
 20
13.91413576481125
 30
0.0
 11
51.6828047929282
 21
13.91589450517831
 31
0.0
  0
LINE
  5
18D
330
2
100
AcDbEntity
  8
0
100
AcDbLine
 10
51.44185157199434
 20
14.0170472263387
 30
0.0
 11
51.45327684217965
 21
14.01878907060286
 31
0.0
  0
LINE
  5
18E
330
2
100
AcDbEntity
  8
0
100
AcDbLine
 10
51.44179971853289
 20
14.16780006381321
 30
0.0
 11
51.45327684217965
 21
14.16954982259111
 31
0.0
  0
LINE
  5
18F
330
2
100
AcDbEntity
  8
0
100
AcDbLine
 10
51.44942288382958
 20
14.19889350370058
 30
0.0
 11
51.45901505244657
 21
14.20023350427882
 31
0.0
  0
ARC
  5
190
330
2
100
AcDbEntity
  8
0
100
AcDbCircle
 10
51.72774724754528
 20
12.39037701551431
 30
0.0
 40
0.0040131714007127
100
AcDbArc
 50
13.80514706449921
 51
78.17368000510024
  0
LINE
  5
191
330
2
100
AcDbEntity
  8
0
100
AcDbLine
 10
51.71232096116691
 20
12.36867061601446
 30
0.0
 11
51.71156954203649
 21
12.36860255149921
 31
0.0
  0
LINE
  5
192
330
2
100
AcDbEntity
  8
0
100
AcDbLine
 10
51.62788264010536
 20
14.10236080973362
 30
0.0
 11
51.66559019421544
 21
14.1076284016399
 31
0.0
  0
LINE
  5
193
330
2
100
AcDbEntity
  8
0
100
AcDbLine
 10
51.67132766393341
 20
14.06490550079871
 30
0.0
 11
51.6828047929282
 21
14.06665525718952
 31
0.0
  0
LINE
  5
194
330
2
100
AcDbEntity
  8
0
100
AcDbLine
 10
26.74406875865198
 20
9.341949545095758
 30
0.0
 11
26.81025627120018
 21
9.346539757743441
 31
0.0
  0
LINE
  5
195
330
2
100
AcDbEntity
  8
0
100
AcDbLine
 10
26.26164229877657
 20
10.60302987752534
 30
0.0
 11
26.22390096919325
 21
10.54703816147782
 31
0.0
  0
LINE
  5
196
330
2
100
AcDbEntity
  8
0
100
AcDbLine
 10
50.47185867796656
 20
13.85592876468962
 30
0.0
 11
50.48373868597894
 21
13.76495061105228
 31
0.0
  0
LINE
  5
197
330
2
100
AcDbEntity
  8
0
100
AcDbLine
 10
50.99486731288303
 20
12.96572807245878
 30
0.0
 11
51.03920426238306
 21
12.96880294001889
 31
0.0
  0
LINE
  5
198
330
2
100
AcDbEntity
  8
0
100
AcDbLine
 10
26.29598653129172
 20
10.46685108932937
 30
0.0
 11
50.37595220293487
 21
14.06510218795437
 31
0.0
  0
LINE
  5
199
330
2
100
AcDbEntity
  8
0
100
AcDbLine
 10
26.32713390836409
 20
10.56976539094381
 30
0.0
 11
50.37269525787941
 21
14.16287547768783
 31
0.0
  0
LINE
  5
19A
330
2
100
AcDbEntity
  8
0
100
AcDbLine
 10
26.97802082388852
 20
9.353052843441096
 30
0.0
 11
51.05131046968049
 21
12.94987007989073
 31
0.0
  0
ENDSEC
  0
SECTION
  2
OBJECTS
  0
DICTIONARY
  5
9
330
0
100
AcDbDictionary
281
     1
  3
ACAD_COLOR
350
3E
  3
ACAD_GROUP
350
35
  3
ACAD_LAYOUT
350
16
  3
ACAD_MATERIAL
350
B
  3
ACAD_MLEADERSTYLE
350
41
  3
ACAD_MLINESTYLE
350
36
  3
ACAD_PLOTSETTINGS
350
37
  3
ACAD_PLOTSTYLENAME
350
8
  3
ACAD_SCALELIST
350
3F
  3
ACAD_TABLESTYLE
350
40
  3
ACAD_VISUALSTYLE
350
2B
  3
ACDB_RECOMPOSE_DATA
350
1A9
  3
AcDbVariableDictionary
350
19B
  3
AcDsDecomposeData
350
1AF
  0
DICTIONARY
  5
1E
330
1D
100
AcDbDictionary
280
     1
281
     1
  3
ACAD_LAYERSTATES
360
1F
  0
DICTIONARY
  5
6
330
5
100
AcDbDictionary
280
     1
281
     1
  0
DICTIONARY
  5
3
330
2
100
AcDbDictionary
280
     1
281
     1
  0
DICTIONARY
  5
3E
102
{ACAD_REACTORS
330
9
102
}
330
9
100
AcDbDictionary
281
     1
  0
DICTIONARY
  5
35
102
{ACAD_REACTORS
330
9
102
}
330
9
100
AcDbDictionary
281
     1
  0
DICTIONARY
  5
16
102
{ACAD_REACTORS
330
9
102
}
330
9
100
AcDbDictionary
281
     1
  3
Model
350
15
  3
レイアウト1
350
1C
  0
DICTIONARY
  5
B
102
{ACAD_REACTORS
330
9
102
}
330
9
100
AcDbDictionary
281
     1
  3
ByBlock
350
3B
  3
ByLayer
350
38
  3
Global
350
A
  0
DICTIONARY
  5
41
102
{ACAD_REACTORS
330
9
102
}
330
9
100
AcDbDictionary
281
     1
  0
DICTIONARY
  5
36
102
{ACAD_REACTORS
330
9
102
}
330
9
100
AcDbDictionary
281
     1
  3
Standard
350
42
  0
DICTIONARY
  5
37
102
{ACAD_REACTORS
330
9
102
}
330
9
100
AcDbDictionary
281
     1
  0
ACDBDICTIONARYWDFLT
  5
8
102
{ACAD_REACTORS
330
9
102
}
330
9
100
AcDbDictionary
281
     1
  3
Normal
350
7
100
AcDbDictionaryWithDefault
340
7
  0
DICTIONARY
  5
3F
102
{ACAD_REACTORS
330
9
102
}
330
9
100
AcDbDictionary
281
     1
  3
A0
350
47
  3
A1
350
48
  3
A2
350
49
  3
A3
350
4A
  3
A4
350
4B
  3
A5
350
4C
  3
A6
350
4D
  3
A7
350
4E
  3
A8
350
4F
  3
A9
350
50
  3
B0
350
51
  3
B1
350
52
  3
B2
350
53
  3
B3
350
54
  3
B4
350
55
  3
B5
350
56
  3
B6
350
57
  0
DICTIONARY
  5
40
102
{ACAD_REACTORS
330
9
102
}
330
9
100
AcDbDictionary
281
     1
  3
Standard
350
43
  0
DICTIONARY
  5
2B
102
{ACAD_REACTORS
330
9
102
}
330
9
100
AcDbDictionary
281
     1
  3
2dWireframe
350
2A
  3
Realistic
350
45
  3
Wireframe
350
46
  0
XRECORD
  5
1A9
102
{ACAD_REACTORS
330
9
102
}
330
9
100
AcDbXrecord
280
     1
 90
        1
330
43
  0
DICTIONARY
  5
19B
102
{ACAD_REACTORS
330
9
102
}
330
9
100
AcDbDictionary
281
     1
  3
CANNOSCALE
350
1A1
  3
CMLEADERSTYLE
350
19D
  3
CTABLESTYLE
350
19C
  3
CVIEWDETAILSTYLE
350
19E
  3
CVIEWSECTIONSTYLE
350
19F
  3
LAYEREVAL
350
1A3
  3
LAYERNOTIFY
350
1A4
  3
LIGHTINGUNITS
350
1A2
  3
MSLTSCALE
350
1A0
  3
PSOLHEIGHT
350
1A6
  3
PSOLWIDTH
350
1A5
  3
XCLIPFRAME
350
1A7
  0
DICTIONARY
  5
1AF
102
{ACAD_REACTORS
330
9
102
}
330
9
100
AcDbDictionary
281
     1
  3
AcDsRecords
350
1B1
  3
AcDsSchemas
350
1B0
1001
ACAD
1070
     2
  0
DICTIONARY
  5
1F
102
{ACAD_REACTORS
330
1E
102
}
330
1E
100
AcDbDictionary
281
     1
  0
LAYOUT
  5
15
102
{ACAD_XDICTIONARY
360
17
102
}
102
{ACAD_REACTORS
330
16
102
}
330
16
100
AcDbPlotSettings
  1

  2
none_device
  4
ISO_A4_(210.00_x_297.00_MM)
  6

 40
7.5
 41
20.0
 42
7.5
 43
20.0
 44
210.0
 45
297.0
 46
11.54999923706054
 47
-13.65000009536743
 48
0.0
 49
0.0
140
0.0
141
0.0
142
1.0
143
8.704084754739808
 70
 11952
 72
     1
 73
     0
 74
     0
  7

 75
     0
147
0.1148885871608098
 76
     0
 77
     2
 78
   300
148
0.0
149
0.0
100
AcDbLayout
  1
Model
 70
     1
 71
     0
 10
0.0
 20
0.0
 11
12.0
 21
9.0
 12
0.0
 22
0.0
 32
0.0
 14
0.0
 24
0.0
 34
0.0
 15
0.0
 25
0.0
 35
0.0
146
0.0
 13
0.0
 23
0.0
 33
0.0
 16
1.0
 26
0.0
 36
0.0
 17
0.0
 27
1.0
 37
0.0
 76
     0
330
2
331
29
1001
ACAD_PSEXT
1000
None
1000
None
1000
Not applicable
1000
The layout will not be plotted unless a new plotter configuration name is selected.
1070
     0
  0
LAYOUT
  5
1C
102
{ACAD_REACTORS
330
16
102
}
330
16
100
AcDbPlotSettings
  1

  2
C:\Documents and Settings\basas\Application Data\Autodesk\AutoCAD 2005\R16.1\enu\plotters\Default Windows System Printer.pc3
  4

  6

 40
0.0
 41
0.0
 42
0.0
 43
0.0
 44
0.0
 45
0.0
 46
0.0
 47
0.0
 48
0.0
 49
0.0
140
0.0
141
0.0
142
1.0
143
1.0
 70
   688
 72
     0
 73
     0
 74
     5
  7

 75
    16
147
1.0
 76
     0
 77
     2
 78
   300
148
0.0
149
0.0
100
AcDbLayout
  1
レイアウト1
 70
     1
 71
     1
 10
0.0
 20
0.0
 11
12.0
 21
9.0
 12
0.0
 22
0.0
 32
0.0
 14
0.0
 24
0.0
 34
0.0
 15
0.0
 25
0.0
 35
0.0
146
0.0
 13
0.0
 23
0.0
 33
0.0
 16
1.0
 26
0.0
 36
0.0
 17
0.0
 27
1.0
 37
0.0
 76
     0
330
19
  0
MATERIAL
  5
3B
102
{ACAD_XDICTIONARY
360
3C
102
}
102
{ACAD_REACTORS
330
B
102
}
330
B
100
AcDbMaterial
  1
ByBlock
  0
MATERIAL
  5
38
102
{ACAD_XDICTIONARY
360
39
102
}
102
{ACAD_REACTORS
330
B
102
}
330
B
100
AcDbMaterial
  1
ByLayer
  0
MATERIAL
  5
A
102
{ACAD_XDICTIONARY
360
C
102
}
102
{ACAD_REACTORS
330
B
102
}
330
B
100
AcDbMaterial
  1
Global
 43
0.0007999999797903
 43
0.0
 43
0.0
 43
0.0
 43
0.0
 43
0.0007999999797903
 43
0.0
 43
0.0
 43
0.0
 43
0.0
 43
1.0
 43
0.0
 43
0.0
 43
0.0
 43
0.0
 43
1.0
 49
0.0007999999797903
 49
0.0
 49
0.0
 49
0.0
 49
0.0
 49
0.0007999999797903
 49
0.0
 49
0.0
 49
0.0
 49
0.0
 49
1.0
 49
0.0
 49
0.0
 49
0.0
 49
0.0
 49
1.0
142
0.0007999999797903
142
0.0
142
0.0
142
0.0
142
0.0
142
0.0007999999797903
142
0.0
142
0.0
142
0.0
142
0.0
142
1.0
142
0.0
142
0.0
142
0.0
142
0.0
142
1.0
144
0.0007999999797903
144
0.0
144
0.0
144
0.0
144
0.0
144
0.0007999999797903
144
0.0
144
0.0
144
0.0
144
0.0
144
1.0
144
0.0
144
0.0
144
0.0
144
0.0
144
1.0
1001
ACAD
1070
    -1
1070
     3
1070
     0
1000

1071
        0
1070
     0
  0
MLINESTYLE
  5
42
102
{ACAD_REACTORS
330
36
102
}
330
36
100
AcDbMlineStyle
  2
STANDARD
 70
     0
  3

 62
   256
 51
90.0
 52
90.0
 71
     2
 49
0.5
 62
   256
  6
BYLAYER
 49
-0.5
 62
   256
  6
BYLAYER
  0
ACDBPLACEHOLDER
  5
7
102
{ACAD_REACTORS
330
8
102
}
330
8
  0
SCALE
  5
47
102
{ACAD_REACTORS
330
3F
102
}
330
3F
100
AcDbScale
 70
     0
300
1:1
140
1.0
141
1.0
290
     1
  0
SCALE
  5
48
102
{ACAD_REACTORS
330
3F
102
}
330
3F
100
AcDbScale
 70
     0
300
1:2
140
1.0
141
2.0
290
     0
  0
SCALE
  5
49
102
{ACAD_REACTORS
330
3F
102
}
330
3F
100
AcDbScale
 70
     0
300
1:4
140
1.0
141
4.0
290
     0
  0
SCALE
  5
4A
102
{ACAD_REACTORS
330
3F
102
}
330
3F
100
AcDbScale
 70
     0
300
1:5
140
1.0
141
5.0
290
     0
  0
SCALE
  5
4B
102
{ACAD_REACTORS
330
3F
102
}
330
3F
100
AcDbScale
 70
     0
300
1:8
140
1.0
141
8.0
290
     0
  0
SCALE
  5
4C
102
{ACAD_REACTORS
330
3F
102
}
330
3F
100
AcDbScale
 70
     0
300
1:10
140
1.0
141
10.0
290
     0
  0
SCALE
  5
4D
102
{ACAD_REACTORS
330
3F
102
}
330
3F
100
AcDbScale
 70
     0
300
1:16
140
1.0
141
16.0
290
     0
  0
SCALE
  5
4E
102
{ACAD_REACTORS
330
3F
102
}
330
3F
100
AcDbScale
 70
     0
300
1:20
140
1.0
141
20.0
290
     0
  0
SCALE
  5
4F
102
{ACAD_REACTORS
330
3F
102
}
330
3F
100
AcDbScale
 70
     0
300
1:30
140
1.0
141
30.0
290
     0
  0
SCALE
  5
50
102
{ACAD_REACTORS
330
3F
102
}
330
3F
100
AcDbScale
 70
     0
300
1:40
140
1.0
141
40.0
290
     0
  0
SCALE
  5
51
102
{ACAD_REACTORS
330
3F
102
}
330
3F
100
AcDbScale
 70
     0
300
1:50
140
1.0
141
50.0
290
     0
  0
SCALE
  5
52
102
{ACAD_REACTORS
330
3F
102
}
330
3F
100
AcDbScale
 70
     0
300
1:100
140
1.0
141
100.0
290
     0
  0
SCALE
  5
53
102
{ACAD_REACTORS
330
3F
102
}
330
3F
100
AcDbScale
 70
     0
300
2:1
140
2.0
141
1.0
290
     0
  0
SCALE
  5
54
102
{ACAD_REACTORS
330
3F
102
}
330
3F
100
AcDbScale
 70
     0
300
4:1
140
4.0
141
1.0
290
     0
  0
SCALE
  5
55
102
{ACAD_REACTORS
330
3F
102
}
330
3F
100
AcDbScale
 70
     0
300
8:1
140
8.0
141
1.0
290
     0
  0
SCALE
  5
56
102
{ACAD_REACTORS
330
3F
102
}
330
3F
100
AcDbScale
 70
     0
300
10:1
140
10.0
141
1.0
290
     0
  0
SCALE
  5
57
102
{ACAD_REACTORS
330
3F
102
}
330
3F
100
AcDbScale
 70
     0
300
100:1
140
100.0
141
1.0
290
     0
  0
TABLESTYLE
  5
43
102
{ACAD_XDICTIONARY
360
44
102
}
102
{ACAD_REACTORS
330
40
102
}
330
40
100
AcDbTableStyle
  3
Standard
 70
     0
 71
     0
 40
1.5
 41
1.5
280
     0
281
     0
  7
Standard
140
4.5
170
     2
 62
     0
 63
     7
283
     0
274
    -2
284
     1
 64
     0
275
    -2
285
     1
 65
     0
276
    -2
286
     1
 66
     0
277
    -2
287
     1
 67
     0
278
    -2
288
     1
 68
     0
279
    -2
289
     1
 69
     0
  7
Standard
140
6.0
170
     5
 62
     0
 63
     7
283
     0
274
    -2
284
     1
 64
     0
275
    -2
285
     1
 65
     0
276
    -2
286
     1
 66
     0
277
    -2
287
     1
 67
     0
278
    -2
288
     1
 68
     0
279
    -2
289
     1
 69
     0
  7
Standard
140
4.5
170
     5
 62
     0
 63
     7
283
     0
274
    -2
284
     1
 64
     0
275
    -2
285
     1
 65
     0
276
    -2
286
     1
 66
     0
277
    -2
287
     1
 67
     0
278
    -2
288
     1
 68
     0
279
    -2
289
     1
 69
     0
  0
VISUALSTYLE
  5
2A
102
{ACAD_XDICTIONARY
360
1B3
102
}
102
{ACAD_REACTORS
330
2B
102
}
330
2B
100
AcDbVisualStyle
  2
2dWireframe
 70
     4
 71
     0
 72
     2
 73
     1
 90
        0
 40
-0.6
 41
-30.0
 62
     5
 63
     7
421
 16777215
 74
     1
 91
        4
 64
     7
 65
   257
 75
     1
175
     1
 42
1.0
 92
        0
 66
   257
 43
1.0
 76
     1
 77
     6
 78
     2
 67
     7
 79
     5
170
     0
171
     0
290
     0
174
     0
 93
        1
 44
0.0
173
     0
291
     0
 45
0.0
1001
ACAD
1000
AcDbSavedByObjectVersion
1070
     0
  0
VISUALSTYLE
  5
45
102
{ACAD_XDICTIONARY
360
1B8
102
}
102
{ACAD_REACTORS
330
2B
102
}
330
2B
100
AcDbVisualStyle
  2
Realistic
 70
     8
 71
     2
 72
     3
 73
     0
 90
        2
 40
-0.6
 41
30.0
 62
     5
 63
     7
421
 16777215
 74
     0
 91
        0
 64
     7
 65
   257
 75
     1
175
     1
 42
1.0
 92
        8
 66
   257
 43
1.0
 76
     1
 77
     6
 78
     2
 67
     7
 79
     3
170
     0
171
     0
290
     0
174
     0
 93
       13
 44
0.0
173
     0
291
     0
 45
0.0
1001
ACAD
1000
AcDbSavedByObjectVersion
1070
     0
  0
VISUALSTYLE
  5
46
102
{ACAD_XDICTIONARY
360
1BA
102
}
102
{ACAD_REACTORS
330
2B
102
}
330
2B
100
AcDbVisualStyle
  2
Wireframe
 70
     5
 71
     0
 72
     2
 73
     0
 90
        0
 40
-0.6
 41
-30.0
 62
     5
 63
     7
421
 16777215
 74
     1
 91
        4
 64
     7
 65
   257
 75
     1
175
     1
 42
1.0
 92
        0
 66
   257
 43
1.0
 76
     1
 77
     6
 78
     2
 67
     7
 79
     3
170
     0
171
     0
290
     0
174
     0
 93
        1
 44
0.0
173
     0
291
     0
 45
0.0
1001
ACAD
1000
AcDbSavedByObjectVersion
1070
     0
  0
DICTIONARYVAR
  5
1A1
102
{ACAD_REACTORS
330
19B
102
}
330
19B
100
DictionaryVariables
280
     0
  1
1:1
  0
DICTIONARYVAR
  5
19D
102
{ACAD_REACTORS
330
19B
102
}
330
19B
100
DictionaryVariables
280
     0
  1
STANDARD
  0
DICTIONARYVAR
  5
19C
102
{ACAD_REACTORS
330
19B
102
}
330
19B
100
DictionaryVariables
280
     0
  1
STANDARD
  0
DICTIONARYVAR
  5
19E
102
{ACAD_REACTORS
330
19B
102
}
330
19B
100
DictionaryVariables
280
     0
  1

  0
DICTIONARYVAR
  5
19F
102
{ACAD_REACTORS
330
19B
102
}
330
19B
100
DictionaryVariables
280
     0
  1

  0
DICTIONARYVAR
  5
1A3
102
{ACAD_REACTORS
330
19B
102
}
330
19B
100
DictionaryVariables
280
     0
  1
0
  0
DICTIONARYVAR
  5
1A4
102
{ACAD_REACTORS
330
19B
102
}
330
19B
100
DictionaryVariables
280
     0
  1
0
  0
DICTIONARYVAR
  5
1A2
102
{ACAD_REACTORS
330
19B
102
}
330
19B
100
DictionaryVariables
280
     0
  1
2
  0
DICTIONARYVAR
  5
1A0
102
{ACAD_REACTORS
330
19B
102
}
330
19B
100
DictionaryVariables
280
     0
  1
1
  0
DICTIONARYVAR
  5
1A6
102
{ACAD_REACTORS
330
19B
102
}
330
19B
100
DictionaryVariables
280
     0
  1
80.000000
  0
DICTIONARYVAR
  5
1A5
102
{ACAD_REACTORS
330
19B
102
}
330
19B
100
DictionaryVariables
280
     0
  1
5.000000
  0
DICTIONARYVAR
  5
1A7
102
{ACAD_REACTORS
330
19B
102
}
330
19B
100
DictionaryVariables
280
     0
  1
2
  0
DICTIONARY
  5
1B1
102
{ACAD_REACTORS
330
1AF
102
}
330
1AF
100
AcDbDictionary
281
     1
  0
DICTIONARY
  5
1B0
102
{ACAD_REACTORS
330
1AF
102
}
330
1AF
100
AcDbDictionary
281
     1
  3
2770882317344
350
1AA
  3
2770882317360
350
1AB
  3
2770882317376
350
1AC
  3
2770882317392
350
1AD
  3
2770882317408
350
1AE
  0
DICTIONARY
  5
17
330
15
100
AcDbDictionary
280
     1
281
     1
  0
DICTIONARY
  5
3C
330
3B
100
AcDbDictionary
280
     1
281
     1
  3
ACAD_XREC_ROUNDTRIP
360
1B6
  3
FBXASSET
360
3D
  0
DICTIONARY
  5
39
330
38
100
AcDbDictionary
280
     1
281
     1
  3
ACAD_XREC_ROUNDTRIP
360
1B5
  3
FBXASSET
360
3A
  0
DICTIONARY
  5
C
330
A
100
AcDbDictionary
280
     1
281
     1
  3
ACAD_XREC_ROUNDTRIP
360
1B2
  3
BUMPTILE
360
D
  3
DIFFUSETILE
360
E
  3
FBXASSET
360
F
  3
OPACITYTILE
360
10
  3
REFLECTIONTILE
360
11
  0
DICTIONARY
  5
44
330
43
100
AcDbDictionary
280
     1
281
     1
  3
ACAD_ROUNDTRIP_2008_TABLESTYLE_CELLSTYLEMAP
360
1A8
  3
ACAD_XREC_ROUNDTRIP
360
1B7
  0
DICTIONARY
  5
1B3
330
2A
100
AcDbDictionary
280
     1
281
     1
  3
ACAD_XREC_ROUNDTRIP
360
1B4
  0
DICTIONARY
  5
1B8
330
45
100
AcDbDictionary
280
     1
281
     1
  3
ACAD_XREC_ROUNDTRIP
360
1B9
  0
DICTIONARY
  5
1BA
330
46
100
AcDbDictionary
280
     1
281
     1
  3
ACAD_XREC_ROUNDTRIP
360
1BB
  0
XRECORD
  5
1AA
102
{ACAD_REACTORS
330
1B0
102
}
330
1B0
100
AcDbXrecord
280
     1
  1
AcDb_Thumbnail_Schema
102
{ATTRRECORD
341
1AB
  2
AcDbDs::TreatedAsObjectData
280
     1
291
     1
102
ATTRRECORD}
102
{ATTRRECORD
341
1AC
  2
AcDbDs::Legacy
280
     1
291
     1
102
ATTRRECORD}
  2
AcDbDs::ID
280
    10
 91
        8
102
{ATTRRECORD
341
1AD
  2
AcDs:Indexable
280
     1
291
     1
102
ATTRRECORD}
102
{ATTRRECORD
341
1AE
  2
AcDbDs::HandleAttribute
280
     7
282
     1
102
ATTRRECORD}
  2
Thumbnail_Data
280
    15
 91
        0
  0
XRECORD
  5
1AB
102
{ACAD_REACTORS
330
1B0
102
}
330
1B0
100
AcDbXrecord
280
     1
  1
AcDbDs::TreatedAsObjectDataSchema
  2
AcDbDs::TreatedAsObjectData
280
     1
 91
        0
  0
XRECORD
  5
1AC
102
{ACAD_REACTORS
330
1B0
102
}
330
1B0
100
AcDbXrecord
280
     1
  1
AcDbDs::LegacySchema
  2
AcDbDs::Legacy
280
     1
 91
        0
  0
XRECORD
  5
1AD
102
{ACAD_REACTORS
330
1B0
102
}
330
1B0
100
AcDbXrecord
280
     1
  1
AcDbDs::IndexedPropertySchema
  2
AcDs:Indexable
280
     1
 91
        0
  0
XRECORD
  5
1AE
102
{ACAD_REACTORS
330
1B0
102
}
330
1B0
100
AcDbXrecord
280
     1
  1
AcDbDs::HandleAttributeSchema
  2
AcDbDs::HandleAttribute
280
     7
 91
        1
284
     1
  0
XRECORD
  5
1B6
102
{ACAD_REACTORS
330
3C
102
}
330
3C
100
AcDbXrecord
280
     1
102
MATERIAL
148
0.0
149
0.0
149
0.0
 93
        0
 94
       63
282
     0
 72
     1
 77
     1
171
     1
175
     1
179
     1
273
     0
  0
XRECORD
  5
3D
102
{ACAD_REACTORS
330
3C
102
}
330
3C
100
AcDbXrecord
280
     1
 70
     1
 90
429727718
  1
D62C5603-E3A1-4AEA-B7FB-FE5D8D0755AF
310
504B03040A0000080000CC70623B3DEE336E79000000790000001B0000006175746F6465736B2D64657369676E2D7061636B6167652E786D6C3C3F786D6C2076657273696F6E3D22312E302220656E636F64696E673D227574662D3822203F3E3C666F726D6174733E3C666F726D61743E687474703A2F2F736368656D612E
310
6175746F6465736B2E636F6D2F64657369676E2D7061636B6167652F323030393C2F666F726D61743E3C2F666F726D6174733E504B0304140006080800CC70623BD486FD9CA0000000F4000000130000005B436F6E74656E745F54797065735D2E786D6C7D8EC10E82300C865F65E91D8A1E8C310C0EEA1BF002731658846E
310
D98AC1B77784ABF1D8FE5FBFBF75BBCE937A534CCEB38643598122B6FEE978D0B0485F9C41B54DDD7D022595594E1A469170414C76A4D9A4D207E29CF43ECE46F218070CC6BECC4078ACAA135ACF422C856C0E68EA1BF5669944DDD7BCDE7B1F8E415D77AECB980613C2E4AC91FC167A2B244592486606FC29C8FD7F045B9A
310
EF7053A7E60B504B0304140006080800CC70623B853B8169EB0000007C01000008000000636F72652E786D6C8D90416EC3201045AF62CDB6C206821CC7C244919D9CA01740401C94182C03558F5F9C3852BBEB6A467FFE9B197D7EFC9E1EC5975982F5AE035262288C535E5B377690E21535501C055FBC8FBF6C503839990E
310
5619041F179FE64D52DE45E362569DD7661365082642A11EB9E920A89B99642953CC8E702F67A9EE7234257977194EC9EAE275C4EABCCF5EAD5940D4AC6F0E35A568B8F43562CD7046CD199FD07E60174276A7BE677B5EADB0E0D14EEFFB6A31321A0D82627C4084204C3F096B71DD52F6819B16635EADF63F509AF53FA164
310
5DDCD1EDDD17164090FCC8732078B56691CB33A85CD7DCC40F504B0304140006080800CC70623B55019EA25F0000007C00000007000000636E782E786D6C4DCB3B0E80201045D1AD90E915ED2CF8AC45050C11660C8261F98AB1B07AC9C97D42D718D865D3E909258CFD00CCE24AC6E326A164D74DC0B4128928FF32603847
310
2BA13128B1252AC747C6BAB984FC68F0B87FE8960A5C09FE86CFB69FBA01504B0304140006080800CC70623BDBABAAF470010000D40300000C0000006662782F636F72652E786D6CC553D16E823014FD95A6AF4B694182CC941A83FA05FB810A9511A125A5257EFE2E82712ECEB8A7F100CD39F7F69E734AF9FADC366850B6
310
AF8DCE7018308C942E4C59EB2AC3DE1D498AD15A706B8CFB56869196ADCAF00863C12B6B7C374385D14E6907A836A59A41D9F7CA615434B0C8705F7CAA5606D23BA8E84F41278B93AC54100640439DE0BDB320004D43C63716C7C399D30917DCFBBA9CD9BA8469F5B156168B24CED3F7248AC8769F27244EB73B92EED8862C
310
B7F13E0C179B3C8F979C8ECD82BBBABDAA2BAC924E9558448CBD9330242CFA08E3154B5651FCC6D215639C8EE5774DBE2B5F6CF2B5768B68963BB5F5588420E442FC700B1139D4CB01F450C1E918227C2E09DF070D8140C84E1E9AAB8F1340832A9CB13130A5F1376A908D57309505ECF2A0DF179C4E9D30F5B239B87E3823
310
7A79C6F31DE1A8A5AEC08474B03C7837EAE4938639B44E5932B833D2C6B6B279CDC613877FA26EE21F4A2A4C63EC7F29A2F301D1F9F7A0E37D145F504B0304140006080800CC70623B9C113CC27E0000009D0000000B0000006662782F636E782E786D6C4DCCDF0A83201C86E15B91DFB94BFB330DD428C8FB886521330DA7
310
6397BF1A1DECE883878F57749FCDA1B7892F1BBC047A23808C7F84D9FA55424E0BE6803A256208E9EF06C84F9B91703228B1C690F78B66B34CD9A5439DF5CF0BFBF65E35BCA1B8D6A5C6F540381E886698B5741C695F9503EBA150A2F8958E3DC3EA0B504B0304140006080800CC70623B7DF2F77C2A010000120200003100
310
00006662782F41393633353835312D344632462D344230382D423046372D3739314545314133324237412F636F72652E786D6C8D51DB8EC22014FC15C2939B0D2DB4B45643319AE817EC0F6041255A68B86CFCFC856D4D76DF7CE190393373060EDB3DC707F856CE6B6B7A480A0C81328395DA5C7B18C3057510EC3873D686
310
3F34088C18550F330C39BB3A1BA7051AAC09CA84841A2BD5020AEF55806078A44B0FFD7053A328440C89E1EFC52486BBB8AA8214A99D789CF9E05200300FC927E4FB4D5B375D43103D5527440FB843077C5AA3F5861C8F645F5787F59E95B390B318B55CE45AA638FAA2957BD7248B390B7A7CC51F9C124149C82B8C378810
310
84AB2F42B7B8DD56F413775B8C5999E9FF4471926F8AA236A1AE96B8B3CC434E5839373893369E1FAF30EA395917409EB7F26AF8801C171837A4A6AC9C89E9F9C9B1A58BA30FD6A5EF5DDDCF894B9AD9B6A59C957943A9FCAE2FD5BC4DFE03504B0304140006080800CC70623BAD7543B64E01000033030000300000006662
310
782F41393633353835312D344632462D344230382D423046372D3739314545314133324237412F636E782E786D6CD593CD6EC32010845F0571AD6CE3D48AD20813A9873E410FBD12D82434182C7EAAE6EDBB2424CD25871E7B41D6EC30B3FA84F9E67BB2E40B4234DE8DB46F1925E094D7C6ED479AD3AE5951B2113C789FEE
310
6C943839C1488B4C05DF079FE72A69D8C96C13AAD6B8631503449F83828872B949AC57D26200B826A308D316B4064D6E46FCDA41C05550DC9E483A00797BFD207EFB092A45DE9514C1BBD22178396BD39D891265658C238DEA00936C654E5E433CB65A26D9F6EDB5EBC14EBF49A45CB856E66048291F6939A9A81BB5C89177
310
38143CA680F4AA299D66A042CEB3354A2684DC9D8D178FE0D9B8B41CAAD720F880EE7EF93C0C18769E099ECC04D5A102C8049A8A05632F4DDF376CF1DE0F6BB65C2F8627B65A33C6BB62177CEBBDAD973006829F89F22E814B54F4BC2BE347F8AA8F681390B50FA73F804400B5F542E796F19FF974E7F78DB802FE05E20750
310
4B0304140006080800CC70623BE75B7789680500003C100000340000006662782F41393633353835312D344632462D344230382D423046372D3739314545314133324237412F6F626A656374732E786D6CAD575B8F9B3818FD2B887D06C22499CB8AA1CA655245D5B455A356FB305264C061D8018C6C3393D95FBFC7600890
310
A4CD5EF210B0B1BFEBF98E3F7B1FF6596ABC522E1296DF9BAE3D320D9A872C4AF2F8DE2CE5CEBA358D0FBEC719939D65A691938CDE9B6ADAF4BD98B3B2D05311DD91329583D9D5FC0F438434A7A611A644887B5384CF34233629258BA878B12322891DEFF6B66BD70BFB62634E8AE781D082709A4B588AF91C528CDA28B73F
310
1C998EEF39EABBEFA97FBD6A7C7E9553F9D3D79FE442923C3C523610337627CB87ABE99D359D4CC6D6E4FACAB5E6ABF9D2726FC6A3C5F56271377BB88362213924694B38DD99FE47C48627A1E7D49F5A8BB5E1A74C0A599ED3B0F21F1E56366B89112D681E218F0915D0D6F17AD41FBA2A369DCF6335D62ABBD39779D5DDD1
310
11D4D8DE3CBB96B2E04FB8202E41051754A1AA8E8F76B4C6DFE810B580B1547F4B84911149794252234D024EF8BBE963A95AE27B3D310A9D5C215C7960FAEE415ED75694C6AFB17BCACA5D99A60A9AA65F217B0BFC53292ACB92BF283FAD0D3621576592CB5BED907C2FA8E9DF794E35E97BEA31BED21FEB401ABB94C44839
310
DCACBF0E1C5DA8DA5B2F4DFFD32AD86F543D9E565E7056502E157C00AD2671CD534549AB752FCA9CDA00677A313F04E51B22FF19E57B300579E3C97EB29F682D92935CEC18CF901B7B54FD8C51F362B56FC72FE0B3C1EAE335EDCCBF5AEC39ADB17DC238973F804BA5E6F6BFE7AF1FB32E523BE9F3BD571418E3631DCA4D48
310
5250CF639223210A9446CA30052EDF057BD35F8329C1ECD84552BF0DC8D18BE7BCE23BFE6BD960AB4A7DE79923A103BEBD80F911CBAA2C60DB19B01CF164A5583B772EE6D3FFA56666CBCDA74DC97724A48F9A58967497E489C4D979006FD7A05E227A1EBDD0F737C623387A9C844D3709995625106D157315F8B8392CD4E0
310
A0B9A720C4BE9829CEF37EA1E13111214D53925356365ADA634861B52519DD27A00AEB808EAF0628E6F435519D446F45CF2C9CF5214F0A15B2F6D06B79DA3EE3CBF7F56780D2F4E7EF73A0F5E5B02A38D07DC852C6B7C1FBB6664213E0C39E3EBA7FF4E1AD23EA2829407C85E586727488B751B2DB9502BC7B228A3FD68B6E
310
A65A22397E690AA8D158D7E404EC8CDA235CC3B7D1898680131CEC2CDF2638C65196279577750F15884AEE19F94199155B92B13297978469D4F8D358DF0AEF7631E28DC8F0D9F437D5D39A83B2231A1D52D543813A824EF8D44BCFF2FA6A31BD1E8DAD87F1CCB526B3879935BF59CDADD5C37479BB1CDD4CA7B3556B516589
310
EF352754B706114D9C885EC9131DE6EFEB43D99AFE2391C2F958179413D7CFEF6B1B6DB1E7600F00DE6E5C67454A339A4BA2E0FBA85ED26F045D454F463DBFCE484C2F90F2E5E3666003662ED8F755951A7D1BECD5B30B550B2785C8E7320B7292A4838DDA71BBC863ED7613CAF659337A3354231D4FF4A182A54904C2898C
310
98B28C4AD0CE056CCF332A80986E571EE9DBC305BB5FEB7E509220A58D25CF042D712A806AC0AD0C657FDEF80D2D9CEAA2EE4D1C76F60BFE74219A06527D6F82DF6412526107381E55E353090704D085B52408A8913C4ED159D79BDA71BB4BC506F4831350EB6F975CD22D69BF7AC49B91A2C0A9DDA3D5CA36AD20FC478E37
310
E61844E2352865EBCB61A275A65283CAAA9DD27703B4102F5AF51EF5F573B75CBB5AD38BC845F7A49F82A0966A49C2E3EA5EA0ECD326CD965F1DB402C6FA8B51A4658C5C5E2EC9E214602E55810345408596591009A82E7E7FFACA19EEA299B14A0081A705CB3296EBC14CDF658DCD336EA6D1136881AAEB87B81AB9EE53D5
310
F5EB8BC8362082DA24122F98680A4E7930C01A0079749CEA14382A0783E5EBA5A10F8C098456A03D6A4AEB6BB881E2513747552A5DB22C7EDAF83BD5528081A365F7FF06504B0304140006080000CC70623B000000000000000000000000350000006662782F41393633353835312D344632462D344230382D423046372D37
310
39314545314133324237412F76657274696365732E62696E504B0304140006080800CC70623BF270F1330600000004000000360000006662782F41393633353835312D344632462D344230382D423046372D3739314545314133324237412F747269616E676C65732E62696E636660600000504B0304140006080000CC7062
310
3B000000000000000000000000370000006662782F41393633353835312D344632462D344230382D423046372D3739314545314133324237412F617474726962757465732E62696E504B0304140006080800CC70623B08DA0BD19000000041010000360000006662782F41393633353835312D344632462D344230382D4230
310
46372D3739314545314133324237412F6469726563746F72792E786D6C858F410AC3201045AF22B36F53E9A60B35CBEEBAE80D244E44489C6234F4F835464A48035D0DF398FF9F8AF63D0E6CC63039F212F8F9020C7D47C6792B21C5FE7403D62A1188E2E60C98D7234A5830286103A55745067B9D86B8A3CF9C7F90C11DE6
310
07FB144396D7B6A82D282E9A152AD114D5EF2CB866EEE831B8EEA07A7BB5A8D7D61A2BAAEB7FD5F70921FF497D00504B0304140006080800CC70623BEDD1DC58FD000000A00100003B0000006662782F41393633353835312D344632462D344230382D423046372D3739314545314133324237412F7265736F75726365732F
310
636F72652E786D6C8D504B6E833010BD0A9A6D65B00922041947112427E8052C33A156828DFCA97AFC9A40A576D7CDCCE87D344F8F9FBFE667F689CE6B6B3A6039850C8DB2A336530731DC4903D95970676DF82583CCC8193B5861107C72362E3BA4AC096842428D1D7107A5F7182053CF7474E0D507CE32973124857FE48B
310
540F3961CEF244279DE03EB81420DB9EAC1384436FA353E879B1B182C7A8C75DA3C7F453DF353A1075D537A7BA6464B8F535A99AE14A9A2BBD90E350DD183B5CFABE3AF262350B1EF4FC9351399401471025A527C218A1E53BAB5A5AB765F5469B96525EACF23FA6B88CFF34456DC2A1DCE36E360F82A5202F42F062ED2BAD
310
579969AFDD8A6F504B010214000A0000080000CC70623B3DEE336E79000000790000001B00000000000000000000000000000000006175746F6465736B2D64657369676E2D7061636B6167652E786D6C504B01021400140006080800CC70623BD486FD9CA0000000F40000001300000000000000000000000000B20000005B
310
436F6E74656E745F54797065735D2E786D6C504B01021400140006080800CC70623B853B8169EB0000007C010000080000000000000000000000000083010000636F72652E786D6C504B01021400140006080800CC70623B55019EA25F0000007C000000070000000000000000000000000094020000636E782E786D6C504B
310
01021400140006080800CC70623BDBABAAF470010000D40300000C00000000000000000000000000180300006662782F636F72652E786D6C504B01021400140006080800CC70623B9C113CC27E0000009D0000000B00000000000000000000000000B20400006662782F636E782E786D6C504B01021400140006080800CC70
310
623B7DF2F77C2A010000120200003100000000000000000000000000590500006662782F41393633353835312D344632462D344230382D423046372D3739314545314133324237412F636F72652E786D6C504B01021400140006080800CC70623BAD7543B64E010000330300003000000000000000000000000000D2060000
310
6662782F41393633353835312D344632462D344230382D423046372D3739314545314133324237412F636E782E786D6C504B01021400140006080800CC70623BE75B7789680500003C10000034000000000000000000000000006E0800006662782F41393633353835312D344632462D344230382D423046372D3739314545
310
314133324237412F6F626A656374732E786D6C504B01021400140006080000CC70623B0000000000000000000000003500000000000000000000000000280E00006662782F41393633353835312D344632462D344230382D423046372D3739314545314133324237412F76657274696365732E62696E504B01021400140006
310
080800CC70623BF270F133060000000400000036000000000000000000000000007B0E00006662782F41393633353835312D344632462D344230382D423046372D3739314545314133324237412F747269616E676C65732E62696E504B01021400140006080000CC70623B0000000000000000000000003700000000000000
310
000000000000D50E00006662782F41393633353835312D344632462D344230382D423046372D3739314545314133324237412F617474726962757465732E62696E504B01021400140006080800CC70623B08DA0BD1900000004101000036000000000000000000000000002A0F00006662782F41393633353835312D344632
310
462D344230382D423046372D3739314545314133324237412F6469726563746F72792E786D6C504B01021400140006080800CC70623BEDD1DC58FD000000A00100003B000000000000000000000000000E1000006662782F41393633353835312D344632462D344230382D423046372D3739314545314133324237412F7265
310
736F75726365732F636F72652E786D6C504B0506000000000E000E0080040000641100000000
  0
XRECORD
  5
1B5
102
{ACAD_REACTORS
330
39
102
}
330
39
100
AcDbXrecord
280
     1
102
MATERIAL
148
0.0
149
0.0
149
0.0
 93
        0
 94
       63
282
     0
 72
     1
 77
     1
171
     1
175
     1
179
     1
273
     0
  0
XRECORD
  5
3A
102
{ACAD_REACTORS
330
39
102
}
330
39
100
AcDbXrecord
280
     1
 70
     1
 90
429727718
  1
30362254-06B7-45E0-A893-8CFA70E3D6BC
310
504B03040A0000080000CC70623B3DEE336E79000000790000001B0000006175746F6465736B2D64657369676E2D7061636B6167652E786D6C3C3F786D6C2076657273696F6E3D22312E302220656E636F64696E673D227574662D3822203F3E3C666F726D6174733E3C666F726D61743E687474703A2F2F736368656D612E
310
6175746F6465736B2E636F6D2F64657369676E2D7061636B6167652F323030393C2F666F726D61743E3C2F666F726D6174733E504B0304140006080800CC70623BD486FD9CA0000000F4000000130000005B436F6E74656E745F54797065735D2E786D6C7D8EC10E82300C865F65E91D8A1E8C310C0EEA1BF002731658846E
310
D98AC1B77784ABF1D8FE5FBFBF75BBCE937A534CCEB38643598122B6FEE978D0B0485F9C41B54DDD7D022595594E1A469170414C76A4D9A4D207E29CF43ECE46F218070CC6BECC4078ACAA135ACF422C856C0E68EA1BF5669944DDD7BCDE7B1F8E415D77AECB980613C2E4AC91FC167A2B244592486606FC29C8FD7F045B9A
310
EF7053A7E60B504B0304140006080800CC70623B1EC5D7A3EB0000007C01000008000000636F72652E786D6C8D90416EC3201045AF82665B6103C6756C6122AB4D4ED00B204C5C94182C03558F5F9C3852BBEB6A467FFE9B197D71FC9E6FE8CBACC17AD7032D0820E3B41FAD9B7A48F1820F808E52ACDEC75F36404ECDA687
310
4D0629A6D5A76597B477D1B89855E747B38B2A041301E95B6E7A08FAD3CCAA50296647B8168BD2573599823EBB0CA76447F43862C7BCCF5EAC59410E4DDD9C7973C2755553CCCFA4C603E3040F1565ED3B1FDE4E432BCA0D9622DAF9795FAF464533826484B498524CD807E51D79ED187F21878E10516EF63F505AC67F42C9
310
BA58B1FDDD071640D2FCC87D2045B96591CB3DA85CB7DCE40F504B0304140006080800CC70623B55019EA25F0000007C00000007000000636E782E786D6C4DCB3B0E80201045D1AD90E915ED2CF8AC45050C11660C8261F98AB1B07AC9C97D42D718D865D3E909258CFD00CCE24AC6E326A164D74DC0B4128928FF32603847
310
2BA13128B1252AC747C6BAB984FC68F0B87FE8960A5C09FE86CFB69FBA01504B0304140006080800CC70623B8C9102E971010000D40300000C0000006662782F636F72652E786D6CC5535B6E833010BC8AE5DF0A6C08340F1947A84D4ED00B38C6A128602363A31CBFCB234A53A551FA553EC09AD9F5CE8C31DB9E9B1AF5CA
310
7695D1198E428A91D2D214952E33ECDD315861B4E5CC1AE3BE9561A445A3323CC098B3D21ADFCE9034DA29ED00D5A6503328BA4E398C640D8B0C77F253352214DE4145770A5B214FA2546114020D759C75CE8200340D19DE981F0F6746269C33EFAB6266AB02A655C74A59CCF365BADC27CB5D902ED22848F6340DF238A141
310
BE88E2F57B92BFEDF23523433367AE6A2EEAA455C2A902F398D2751045018D3FA264435F3771F242571B4A1919CA6F9A7C5B3CD9E42BED16F12C776AEB308F40C848FC700B1139D4891EF410CEC810227CC6846F8386402064270EF5C5C709A05E49676C024C61FC95EA45ED154CA5211D1FF4FB8291A913A68E9B83EBBB33
310
E2A7673CDE118E5AE8124C0807CB8377834E366998436B950D7A7746DAD846D4CFD978E0F04FD455FC5D49D2D4C6FE9722321F10997F0F32DC47FE05504B0304140006080800CC70623BFFEA85907E0000009D0000000B0000006662782F636E782E786D6C4DCCD10A83201886E15B91FFDC95D95A811AB6F23E625948A6C3
310
E9D8E5AF46073BFAE0E1E365ED67B3E8ADC3CB78C7815C7240DA3DFC64DCC221C519D7805AC182F7F1EF06C88D9BE6703008B6049F9E274D7A1E938DBB5AE3D6131B2589BA0D3D965551E0B2EA732C9B9A624AAEB41E3A557677029960D9AFB4EF11165F504B0304140006080800CC70623B4FEEA4082C0100001202000031
310
0000006662782F39464131463745442D413632322D343644302D413938332D3331353338454246344243312F636F72652E786D6C8D515B6EC32010BC0AE2AB55850DD871ED0813254D72825EC00192A2C460F1A872FC42ED48ED5F7E00CDCECCCEB26C731F6FE05B39AFADE921293004CA082BB5B9F43086336A21D870E6AC
310
0D7F68109861543DCC30E4ECE26C9C164858139409093556AA051CBC570102714B8F1E7AF1A5C6A11862480C7F2DA6415C878B2A4891CA89C7990F2E050073937C42DE1DB7E4F87ED8A36D4329AA9B3D46DBAEAD504556557BD81DEBDD0761E52CE42C462D17B996298E3E6BE59E35C962CE821E1FF18553435012728A7187
310
0841987E927A8D9B35ADDF70BBC6989599FE4F1427F9A4286A132ABAC49D651EF234CD5CE04CDA78BA3DC2A8FB645D00B9DF8B57E215725C60BCA2A463E54C4CE327C7A65E1C7DB02E7DEFCBF594B864C5CA6CDBD49C957943E9FA5D5FBAF336F90F504B0304140006080800CC70623BAD7543B64E01000033030000300000
310
006662782F39464131463745442D413632322D343644302D413938332D3331353338454246344243312F636E782E786D6CD593CD6EC32010845F0571AD6CE3D48AD20813A9873E410FBD12D82434182C7EAAE6EDBB2424CD25871E7B41D6EC30B3FA84F9E67BB2E40B4234DE8DB46F1925E094D7C6ED479AD3AE5951B2113C
310
789FEE6C943839C1488B4C05DF079FE72A69D8C96C13AAD6B8631503449F83828872B949AC57D26200B826A308D316B4064D6E46FCDA41C05550DC9E483A00797BFD207EFB092A45DE9514C1BBD22178396BD39D891265658C238DEA00936C654E5E433CB65A26D9F6EDB5EBC14EBF49A45CB856E66048291F6939A9A81BB5
310
C8917738143CA680F4AA299D66A042CEB3354A2684DC9D8D178FE0D9B8B41CAAD720F880EE7EF93C0C18769E099ECC04D5A102C8049A8A05632F4DDF376CF1DE0F6BB65C2F8627B65A33C6BB62177CEBBDAD973006829F89F22E814B54F4BC2BE347F8AA8F681390B50FA73F804400B5F542E796F19FF974E7F78DB802FE05
310
E207504B0304140006080800CC70623B16AB87BA640500003C100000340000006662782F39464131463745442D413632322D343644302D413938332D3331353338454246344243312F6F626A656374732E786D6CAD575B6FA33818FD2B887DE6924B3BED8A326A92B68A663B534DD4D13E548A0C38942D60649B369D5FBFC7
310
600890A493BDE42160637FD7F31D7FF63E6FB3D478A55C242CBF3247B66B1A340F5994E4F19559CA8D75611A9F7D8F33263BCB4C232719BD32D5B4E97B316765A1A722BA21652A07B3B7B33F0D11D29C9A46981221AE4C113ED38CD8A4942CA2E2C58E882476BCD9DA23BB5ED8171B73523C0F841684D35CC252CCE79062D4
310
468DFA43D7747CCF51DF7D4FFDEB5593E3AB9CCA9FBEFE241792E4E19EB28198C968BAB8199F5D5A67D3E9C49A9E8F47D6EC76B6B0469F26EEFC7C3EBFBCBEB98462213924694B38DD98FE1D62C393D073EA4FADC5DAF04326852CCF6958F90F0F2B9BB5C48816348F90C7840A68EB78EDF68723159BCEE7891A6B95DDE9D3
310
BCEAEEE8086A6C6F9E5D4B59F0175C10A7A0820BAA5055C7473B5AE3CFDD452D602CD5DF12616444529E90D448938013FE6EFA58AA96F85E4F8C42275708571E98FE6827AF6B2B4AE3D7D83D64E5A64C53054DD3AF90BD06FEA9149565C94FCA0F6B834DC85599E4F2423B24DF0B6AFA979E534DFA9E7A4CC6FA631D486393
310
921829879BF5D781A373557BCB85E97FB90DB62B558F8795179C15944B051F40AB495CF35451D26A4727654E6D8033BD98EF82F21D91FF8AF2DD9982BCF1643BDD4EB516C9492E368C67C88DED563FC36D5EACF66DFF057C3658BDBFA69DF9578B3DA735B64F18C7F20770A9D45CFCF7FCF563D6456A277DBEF78A02637CA2
310
43B90A490AEAB94F72244481D24819A6C0E59B606BFA4B3025981DBB48EAB701D97BF19C577CC77F2D1B6C55A9EF3C732474C0B727303F625995056C3B02963D9EAC146BE78EC5FCEC7FA999EBC5EACBAAE41B12D27B4D2C0BBA49F244E2ECDC81B76B502F113D8F5EE8FB1BE3111CDD4FC2AA9B844CAB1288B68AB90A7CDC
310
1C166AB0D3DC5310625FCC14E779BFD0709F8890A629C9292B1B2DED31A4B0DA928CEE135085754027E3018A397D4D5427D15BD1330B677DC8934285AC3DF45A9EB68FF8F2B8FC0A509AFEECFD0FF2DE25CC6047F7214B195F07EFEB9A094D800F7BFAE8FED187B78EA8A3A400F115961BCAD1215E47C966530AF0EE8128FE
310
58CEBB996A8964FFA529A046635D9353B0336A8F700DDF46271A024E70B0B37C9DE01847591E54DED53D54202AB947E4076556AC49C6CA5C9E1226B7F1A7B1BE15DEED62C41B91E1B3E9AFAAA735036547343A925075041DF0A9979E893B391F8FCFA6967B3EFB644DCF6E5CEBFAE272625DCC6FAF3FB93793C5F90CE1EF57
310
407342756B10D1C489E8953CD1617E5CEECAD6F4EF8914CE5D5D504E5C3F1F9736DA62CFC11E00BCDDB8CC8A9466349744C1F75EBDA4DF09BA8A9E8C7A7E9991989E20E5DBDD6A6003664ED8F7A04A8DBE0DF6EAD9B9AA858342E47399053949D2C146EDB85DE4B176BB0965FBAC19BD19AA918E27FA50C1D22402E144464C
310
59462568E704B6E71915404CB72B8FF4EDE184DDAF753F284990D2C6926782963815403548A70C657FDEF80D2D9CEAA2AE4C1C76F60BFE74219A06527D6582DF6412526107381E55E353090704D085B52408D0933C4ED159D79BDA71BB4BC506F4831350EB6F979CD22D69BF7AC49B91A2C0A9DDA3D5CA36AD20FC478E37E6
310
1844E2352865EBCB6EA275A652E3836BE04EFB400BF1A2556F515F1FBB35B2AB35BD889C744FFA1004B5544B121E57F70215746DD2F5E2C1412B602CBF19455AC6C8E5E9922C4E01E65215385004546899059180EAFCF7A707CE7017CD8CDB0410789AB32C63B91E5CEBBBACB17AC6CD347A022D5075FD106377347AAABA7E
310
7D11590744509B44E205134DC1290F06580320F78E537D3D73540E06CB970B431F185308AD40BBD794D6D77003C5A36E8EAA54BA64597CD8F83BD552A080A365F7FF06504B0304140006080000CC70623B000000000000000000000000350000006662782F39464131463745442D413632322D343644302D413938332D3331
310
353338454246344243312F76657274696365732E62696E504B0304140006080800CC70623BF270F1330600000004000000360000006662782F39464131463745442D413632322D343644302D413938332D3331353338454246344243312F747269616E676C65732E62696E636660600000504B0304140006080000CC70623B
310
000000000000000000000000370000006662782F39464131463745442D413632322D343644302D413938332D3331353338454246344243312F617474726962757465732E62696E504B0304140006080800CC70623B08DA0BD19000000041010000360000006662782F39464131463745442D413632322D343644302D413938
310
332D3331353338454246344243312F6469726563746F72792E786D6C858F410AC3201045AF22B36F53E9A60B35CBEEBAE80D244E44489C6234F4F835464A48035D0DF398FF9F8AF63D0E6CC63039F212F8F9020C7D47C6792B21C5FE7403D62A1188E2E60C98D7234A5830286103A55745067B9D86B8A3CF9C7F90C11DE607
310
FB144396D7B6A82D282E9A152AD114D5EF2CB866EEE831B8EEA07A7BB5A8D7D61A2BAAEB7FD5F70921FF497D00504B0304140006080800CC70623B0D6EF93BFE000000A00100003B0000006662782F39464131463745442D413632322D343644302D413938332D3331353338454246344243312F7265736F75726365732F63
310
6F72652E786D6C8D50596E833010BD0A9ADFCA60B334011947A8694ED00B586642AC041B79A97AFC9A40A5F6AF3F33A3B7689E1E3F7DCD8FEC139DD7D6F4C0720A191A65476DA61E62B892236427C19DB5E1970C322367EC618541F0C9D9B8EC90B226A009093576C41D94DE63804C3DD2D18357379C652E63480A7FCF17A9
310
EE72C29CE5894E3AC17D702940B63D59270887DE46A7D0F36263058F518FBB468FE9A7BE6A7420864373B8D4873369AA8691FA421B3294352543C5CAF65C0F6FEF43CB8BD52C78D0F34F46E550061C419494B6843142CB0F5677F4B52BEB177AEC28E5C52AFF638ACBF84F53D42654E51E77B379102C05791282176B5F693D
310
CB4C7BED567C03504B010214000A0000080000CC70623B3DEE336E79000000790000001B00000000000000000000000000000000006175746F6465736B2D64657369676E2D7061636B6167652E786D6C504B01021400140006080800CC70623BD486FD9CA0000000F40000001300000000000000000000000000B20000005B
310
436F6E74656E745F54797065735D2E786D6C504B01021400140006080800CC70623B1EC5D7A3EB0000007C010000080000000000000000000000000083010000636F72652E786D6C504B01021400140006080800CC70623B55019EA25F0000007C000000070000000000000000000000000094020000636E782E786D6C504B
310
01021400140006080800CC70623B8C9102E971010000D40300000C00000000000000000000000000180300006662782F636F72652E786D6C504B01021400140006080800CC70623BFFEA85907E0000009D0000000B00000000000000000000000000B30400006662782F636E782E786D6C504B01021400140006080800CC70
310
623B4FEEA4082C0100001202000031000000000000000000000000005A0500006662782F39464131463745442D413632322D343644302D413938332D3331353338454246344243312F636F72652E786D6C504B01021400140006080800CC70623BAD7543B64E010000330300003000000000000000000000000000D5060000
310
6662782F39464131463745442D413632322D343644302D413938332D3331353338454246344243312F636E782E786D6C504B01021400140006080800CC70623B16AB87BA640500003C1000003400000000000000000000000000710800006662782F39464131463745442D413632322D343644302D413938332D3331353338
310
454246344243312F6F626A656374732E786D6C504B01021400140006080000CC70623B0000000000000000000000003500000000000000000000000000270E00006662782F39464131463745442D413632322D343644302D413938332D3331353338454246344243312F76657274696365732E62696E504B01021400140006
310
080800CC70623BF270F133060000000400000036000000000000000000000000007A0E00006662782F39464131463745442D413632322D343644302D413938332D3331353338454246344243312F747269616E676C65732E62696E504B01021400140006080000CC70623B0000000000000000000000003700000000000000
310
000000000000D40E00006662782F39464131463745442D413632322D343644302D413938332D3331353338454246344243312F617474726962757465732E62696E504B01021400140006080800CC70623B08DA0BD190000000410100003600000000000000000000000000290F00006662782F39464131463745442D413632
310
322D343644302D413938332D3331353338454246344243312F6469726563746F72792E786D6C504B01021400140006080800CC70623B0D6EF93BFE000000A00100003B000000000000000000000000000D1000006662782F39464131463745442D413632322D343644302D413938332D3331353338454246344243312F7265
310
736F75726365732F636F72652E786D6C504B0506000000000E000E0080040000641100000000
  0
XRECORD
  5
1B2
102
{ACAD_REACTORS
330
C
102
}
330
C
100
AcDbXrecord
280
     1
102
MATERIAL
148
0.0
149
0.0
149
0.0
 93
        0
 94
       63
282
     0
 72
     1
 77
     1
171
     1
175
     1
179
     1
273
     0
  0
XRECORD
  5
D
102
{ACAD_REACTORS
330
C
102
}
330
C
100
AcDbXrecord
280
     1
270
     1
271
     1
  0
XRECORD
  5
E
102
{ACAD_REACTORS
330
C
102
}
330
C
100
AcDbXrecord
280
     1
270
     1
271
     1
  0
XRECORD
  5
F
102
{ACAD_REACTORS
330
C
102
}
330
C
100
AcDbXrecord
280
     1
 70
     0
 90
1673772943
  1
ECE7A1D2-D628-4531-984C-D00F80459256
310
504B03040A0000080000CC70623B3DEE336E79000000790000001B0000006175746F6465736B2D64657369676E2D7061636B6167652E786D6C3C3F786D6C2076657273696F6E3D22312E302220656E636F64696E673D227574662D3822203F3E3C666F726D6174733E3C666F726D61743E687474703A2F2F736368656D612E
310
6175746F6465736B2E636F6D2F64657369676E2D7061636B6167652F323030393C2F666F726D61743E3C2F666F726D6174733E504B0304140006080800CC70623BD486FD9CA0000000F4000000130000005B436F6E74656E745F54797065735D2E786D6C7D8EC10E82300C865F65E91D8A1E8C310C0EEA1BF002731658846E
310
D98AC1B77784ABF1D8FE5FBFBF75BBCE937A534CCEB38643598122B6FEE978D0B0485F9C41B54DDD7D022595594E1A469170414C76A4D9A4D207E29CF43ECE46F218070CC6BECC4078ACAA135ACF422C856C0E68EA1BF5669944DDD7BCDE7B1F8E415D77AECB980613C2E4AC91FC167A2B244592486606FC29C8FD7F045B9A
310
EF7053A7E60B504B0304140006080800CC70623BD9DDAED0EC0000007C01000008000000636F72652E786D6C8D90416EC3201045AF82665B61836D9CD8C2444DD39CA01740405C94182C03558F5F9C3852BBEB6A467FFE9B197D7EF89E6EE8CB2CC17A37002D0820E394D7D68D03A478C17B4007C117EFE32F1B20272733C0
310
2A83E0E3E2D3BC49CABB685CCCAAF3DA6CA20CC14440EA969B0182FA34932C648AD911AEC52CD5558EA6A0CF2EC329598D1E47ACCEFBECC59A050463A7EA5833865FEBDD0E37353BE3EE8DBDE3F6786A48D375FBF6CC78B9C282473B3DEFABC5C86834888A900E538A49F5419B9EB47DD5BC907D4F082F57FB1F28CDFA9F50
310
B22ED6D5F6EE030B20687EE43E10BC5CB3C8E51E54AE6B6EE207504B0304140006080800CC70623B55019EA25F0000007C00000007000000636E782E786D6C4DCB3B0E80201045D1AD90E915ED2CF8AC45050C11660C8261F98AB1B07AC9C97D42D718D865D3E909258CFD00CCE24AC6E326A164D74DC0B4128928FF326038
310
472BA13128B1252AC747C6BAB984FC68F0B87FE8960A5C09FE86CFB69FBA01504B0304140006080800CC70623BA24EB22D72010000D40300000C0000006662782F636F72652E786D6CC5535B6E833010BC8AE5DF0A6C5E49888CA3A6694ED00B38E05014B091B1518EDFE511A5A9D228FD2A1F60CDEC7A67C6986DCE4D8D7A
310
69BA4AAB0C073EC548AA5C17952A33ECECD15B61B4E1CC686DBF9561A44423333CC098B3D268D7CE50AE9595CA02AA74216750749DB418E5352C32DCE59FB211BE70162ABA93DF8AFC244AE9073ED050C759670D0840D390E18DF9F1706664C23973AE2A66B62A605A75ACA4C13C4976E1364A12EF355A2EBD384AF65EFA96
310
BC7B8BED2EA6719AAE16FB8491A199335B351775B991C2CA02F390D2D40B028F861F41BCA68B7518BFD0D59A524686F29B26D7164F36B94AD9289CE54E6D1DE6010819891F6E21228B3AD1831EC219194284CF98F06DD01008846CC5A1BEF83801D4CBDC6A1303536877A57A513B0953A94FC707FDBE6064EA84A9E3E6E0FA
310
EE8CF0E9198F7784A316AA0413C2C2F2E0ECA0934D1AE6D05A69BCDE9E91D2A611F573361E38FC1375157F5752AE6B6DFE4B11990F88CCBF0719EE23FF02504B0304140006080800CC70623B408A7D3B7C0000009D0000000B0000006662782F636E782E786D6C4DCCD10A83201886E15B91FFDC552A92A0064DBC8F581632
310
D3703A76F9ABD1C18E3E78F878E5F0D9027ABBFCF2292AE86E2D20171F69F6715550CB827B40839639A5F2770314A7CD293819B45C73AAFB45B35BA61ACAA1C1C7E7855C58C15BC331339661262CC762340413D68D77DA5B42298546CBE6573AF60CEB2F504B0304140006080800CC70623B449FB9BD290100001202000031
310
0000006662782F36394639363044362D344446342D343946362D394244322D3234314243333846323333332F636F72652E786D6C8D515B6EC32010BC0AE22B55850D98B871848994463E412FE002495162B07854397EA176A4F62F3F2C9A9D991D587EB84F37F0AD7D30CEF6905418026DA553C65E7A98E219ED203808EE9D
310
8B7F6810D871D23D2C3014FCE25D9A57483A1BB58D19B54EE9151C43D0110279CB971E06F9A5A7B11A53CC8C70ADE6515EC78BAE4895DB992778883E0700CB907242D17643D7E2538BD869608875438BBAE38922CAC8F1BDD90DB4691A5E2F42C153326A951B95E398B3D1FE599322163C9AE9115F7A3D46ADA0A018778810
310
84E907617BDCEE297BC5BB3DC6BC2EF47FA234AB2745C9D8D8D035EE220B50105E2F0DC1954B9FB747187D9F9D8FA0CCDB042D5FA0C015C65B42DF78BD10F3F3B363CB56C7109DCFDFBBB97E662ED92EB62D13BC2E1BCAE5777DB9966D8A1F504B0304140006080800CC70623BAD7543B64E01000033030000300000006662
310
782F36394639363044362D344446342D343946362D394244322D3234314243333846323333332F636E782E786D6CD593CD6EC32010845F0571AD6CE3D48AD20813A9873E410FBD12D82434182C7EAAE6EDBB2424CD25871E7B41D6EC30B3FA84F9E67BB2E40B4234DE8DB46F1925E094D7C6ED479AD3AE5951B2113C789FEE
310
6C943839C1488B4C05DF079FE72A69D8C96C13AAD6B8631503449F83828872B949AC57D26200B826A308D316B4064D6E46FCDA41C05550DC9E483A00797BFD207EFB092A45DE9514C1BBD22178396BD39D891265658C238DEA00936C654E5E433CB65A26D9F6EDB5EBC14EBF49A45CB856E66048291F6939A9A81BB5C89177
310
38143CA680F4AA299D66A042CEB3354A2684DC9D8D178FE0D9B8B41CAAD720F880EE7EF93C0C18769E099ECC04D5A102C8049A8A05632F4DDF376CF1DE0F6BB65C2F8627B65A33C6BB62177CEBBDAD973006829F89F22E814B54F4BC2BE347F8AA8F681390B50FA73F804400B5F542E796F19FF974E7F78DB802FE05E20750
310
4B0304140006080800CC70623B8D05915C650500003B100000340000006662782F36394639363044362D344446342D343946362D394244322D3234314243333846323333332F6F626A656374732E786D6CAD575B6FA33814FE2B887D06429276DA1565D4266D158D3A339A6846FB502932E050B66023DB74D2FDF5FB190C01
310
9276B2973C046C8ECFF53B17071F77456EBD502133CEAE6CDF9DD81665314F32965ED995DA3A17B6F5310C04E7AA47665B8C14F4CAD6DB7618A48257A5D94AE89654B91AEDDEDDFC61C998326A5B714EA4BCB265FC440BE2924AF184CA6737218AB8E976E7FA6E4338649B0A523E8D98964450A6A029F619B8588D52FE7039
310
B1BD30F0F4F730D0FF866AF6369557DB33949F31A9088B0F848DD8CCFCF9F2767A76E99CCDE733677E3EF59D9BBB9BA5E37F984D16E78BC5E5F5ED25044B25C0C96822E8D60EEFE11B91C581D77CEA34368A1F5329E68CD1B8B61F16D63A1B8E092D294B10C78C4A48EB593D192E7DED9BDEE7995E1B91FDEDD3ACEA9FE831
310
6A756F9F7D4D79F4274C90A7A04248AA51D5F8C718DAE06FB2F75AC4796EBE65D22A88A22223B995679120E2D50E41AA49C260C046A35368846B0BECD0DFF3EBEB8AD4F835768F69B9ADF25C43D30E6B646F807FAA64AD59F61715C7A54127C4AACA98BA3006A9D792DAE165E0D59B61A01FB3A9F9D838D2DAE62445C86166
310
F37564E842E7DE6A69879FEEA2DD5AE7E371E1A5E025154AC307D06A03D73EB5978C58FFA4C8E9033066E0F3BD53BEC1F39F91BE7B55103791EDE6BBB991A2046172CB4581D8B893FA674DDA17A77B3B7C413D1B511FD2743BFF8A38F03A658705E3ADF8015C3A3417FF3D7E439FF591DA0B5F18BC20C1B8981957AE6392A3
310
F43C640C01D1A0B4728E2DD4F26DB4B3C3152A252A3B4E913CEC1C72F012782FF88EFF8637AA552DBEF76408E8A8DE9E50F9E1CB3A2DA0DB1B6039A893B56063DC5B3E3FFB5F72E67AB9FEB4AEC496C4F4C1149625DD662C53E89D7BF0F6151A046260D1337DFDC94502430F83B0EE07A130A224BCAD7DAE1D9FB6CD422FF6
310
920702629C4BB9AE79C12F243C6432A6794E18E5552BA56B431AAB5D91317302B2B071E86C3A42B1A02F999E24061403B5D0EB639195DA655DD3EBEAB4FB862DDF579F014AD0E73C22F99E28DA57FB98E75C6CA2D74D53086D600F4786E0FE3144B771A8A7B900F03594DB8A633CBC49B2EDB69228BB479CF863B5E807AAAB
310
23872F6DFEB4129B949CA33823F58830E86D65621E10047D9DB34D862E8EAC3C2ABC2F7B2C40D67CDFE01F5545B92105AF983AC54D93D69E56FB8E797F88913F898A9FEC705D3F9D1B54EC8426FB500D40A03BD0119B06E1B95DDC7EB8F6975367793EBD70E66733DFB9BC982F9CE564727731999F5D4ECFCE3B8D6A4DC2A0
310
6D50FD148437D110834A64C6CDDF57FBACB5C307A2A477DFE4939736CFEF2B175371E0E10CF0DD1D5C15654E0BCA14D1E87DD02FF93782A162C0A3D95F1524A52770F972BF1EE9809D13CE7DD599467F8ECE9ADD85CE85A34CD45355448C64F9E8A031DC2D596ACC6E5DD93D9B82DE2EF5CAF81363A8E47996A0DE24564A79
310
4115AACE09C55E14540231FDA13C319787134EBF34E3A022514E5B4D9E0826E25C02D5805B15ABE1BEF51B26383D445DD9E875EE33FE4C22DA16427D65A3BCA92CA6D28DD01DF5DC53330704308475351050232CCD31583787BA75774AFB06E5070DD0C8EF484E19968C5D83BA5B90B244D31E54D55A372320FE4786B7EA58
310
44E135AA5467CB7EA333A61683CC6A8C3257034C10CF46F40EF9F5BE59BE5BD30C3C72D235E95D10345C1D45445A5F0BB47E46A5EBE5570F9380B5FA629579952296A773720405982B9DE04011506178964401AA8BDF1FBF0A8EAB6861DD6580C0E38217056766716DAEB2D6FA0917D3E4116581EADB879C4E7CFFB11EFACD
310
3D641311495D92C8676CB409A72D18610D803CE8A626049E8EC1887CB5B44CC39883690DDA8399B4B9855B481E7D71D4A9D22F96E5BB73BF5793020C02137BF837504B0304140006080000CC70623B000000000000000000000000350000006662782F36394639363044362D344446342D343946362D394244322D32343142
310
43333846323333332F76657274696365732E62696E504B0304140006080800CC70623BF270F1330600000004000000360000006662782F36394639363044362D344446342D343946362D394244322D3234314243333846323333332F747269616E676C65732E62696E636660600000504B0304140006080000CC70623B0000
310
00000000000000000000370000006662782F36394639363044362D344446342D343946362D394244322D3234314243333846323333332F617474726962757465732E62696E504B0304140006080800CC70623B08DA0BD19000000041010000360000006662782F36394639363044362D344446342D343946362D394244322D
310
3234314243333846323333332F6469726563746F72792E786D6C858F410AC3201045AF22B36F53E9A60B35CBEEBAE80D244E44489C6234F4F835464A48035D0DF398FF9F8AF63D0E6CC63039F212F8F9020C7D47C6792B21C5FE7403D62A1188E2E60C98D7234A5830286103A55745067B9D86B8A3CF9C7F90C11DE607FB14
310
4396D7B6A82D282E9A152AD114D5EF2CB866EEE831B8EEA07A7BB5A8D7D61A2BAAEB7FD5F70921FF497D00504B0304140006080800CC70623BCA768048FE000000A00100003B0000006662782F36394639363044362D344446342D343946362D394244322D3234314243333846323333332F7265736F75726365732F636F72
310
652E786D6C8D50596E833010BD0A9ADFCA60D600328E9AA639412F609909B1126CE4A5EAF16B0295DABFFECC8CDEA2797AECF8353F924FB44E193D409E5248504B332A3D0D10FC95B4901C39B3C6F85F3248B49871801506CE266BC2B243D2688FDA47549B11775038871E12F988C7004EDE7016A9083E2ADC3D5D84BC8B09
310
D33C8D74D471E6BC8D0192EDC93A815B742658898E651BCB59086ADC356A8C3FD555A1055ED7E7E254D615792D0F075295F585746FF53B694EE78A565DD736979A65AB9933AFE69F8CD2A2F038022F28ED489E135A7CE4554F9BBEA85E68DB53CAB255FEC71496F19FA6A0B42F8B3DEE6673C0F318E4497096AD7DC5F52C33
310
EEB55BFE0D504B010214000A0000080000CC70623B3DEE336E79000000790000001B00000000000000000000000000000000006175746F6465736B2D64657369676E2D7061636B6167652E786D6C504B01021400140006080800CC70623BD486FD9CA0000000F40000001300000000000000000000000000B20000005B436F
310
6E74656E745F54797065735D2E786D6C504B01021400140006080800CC70623BD9DDAED0EC0000007C010000080000000000000000000000000083010000636F72652E786D6C504B01021400140006080800CC70623B55019EA25F0000007C000000070000000000000000000000000095020000636E782E786D6C504B0102
310
1400140006080800CC70623BA24EB22D72010000D40300000C00000000000000000000000000190300006662782F636F72652E786D6C504B01021400140006080800CC70623B408A7D3B7C0000009D0000000B00000000000000000000000000B50400006662782F636E782E786D6C504B01021400140006080800CC70623B
310
449FB9BD290100001202000031000000000000000000000000005A0500006662782F36394639363044362D344446342D343946362D394244322D3234314243333846323333332F636F72652E786D6C504B01021400140006080800CC70623BAD7543B64E010000330300003000000000000000000000000000D20600006662
310
782F36394639363044362D344446342D343946362D394244322D3234314243333846323333332F636E782E786D6C504B01021400140006080800CC70623B8D05915C650500003B10000034000000000000000000000000006E0800006662782F36394639363044362D344446342D343946362D394244322D32343142433338
310
46323333332F6F626A656374732E786D6C504B01021400140006080000CC70623B0000000000000000000000003500000000000000000000000000250E00006662782F36394639363044362D344446342D343946362D394244322D3234314243333846323333332F76657274696365732E62696E504B010214001400060808
310
00CC70623BF270F13306000000040000003600000000000000000000000000780E00006662782F36394639363044362D344446342D343946362D394244322D3234314243333846323333332F747269616E676C65732E62696E504B01021400140006080000CC70623B00000000000000000000000037000000000000000000
310
00000000D20E00006662782F36394639363044362D344446342D343946362D394244322D3234314243333846323333332F617474726962757465732E62696E504B01021400140006080800CC70623B08DA0BD190000000410100003600000000000000000000000000270F00006662782F36394639363044362D344446342D
310
343946362D394244322D3234314243333846323333332F6469726563746F72792E786D6C504B01021400140006080800CC70623BCA768048FE000000A00100003B000000000000000000000000000B1000006662782F36394639363044362D344446342D343946362D394244322D3234314243333846323333332F7265736F
310
75726365732F636F72652E786D6C504B0506000000000E000E0080040000621100000000
  0
XRECORD
  5
10
102
{ACAD_REACTORS
330
C
102
}
330
C
100
AcDbXrecord
280
     1
270
     1
271
     1
  0
XRECORD
  5
11
102
{ACAD_REACTORS
330
C
102
}
330
C
100
AcDbXrecord
280
     1
270
     1
271
     1
  0
CELLSTYLEMAP
  5
1A8
102
{ACAD_REACTORS
330
44
102
}
330
44
100
AcDbCellStyleMap
 90
        3
300
CELLSTYLE
  1
TABLEFORMAT_BEGIN
 90
        5
170
     1
 91
        0
 92
    32768
 62
   257
 93
        1
300
CONTENTFORMAT
  1
CONTENTFORMAT_BEGIN
 90
        0
 91
        0
 92
      512
 93
        0
300

 40
0.0
140
1.0
 94
        5
 62
     0
340
21
144
6.0
309
CONTENTFORMAT_END
171
     1
301
MARGIN
  1
CELLMARGIN_BEGIN
 40
1.5
 40
1.5
 40
1.5
 40
1.5
 40
4.5
 40
4.5
309
CELLMARGIN_END
 94
        6
 95
        1
302
GRIDFORMAT
  1
GRIDFORMAT_BEGIN
 90
        0
 91
        1
 62
     0
 92
       -2
340
24
 93
        0
 40
1.125
309
GRIDFORMAT_END
 95
        2
302
GRIDFORMAT
  1
GRIDFORMAT_BEGIN
 90
        0
 91
        1
 62
     0
 92
       -2
340
24
 93
        0
 40
1.125
309
GRIDFORMAT_END
 95
        4
302
GRIDFORMAT
  1
GRIDFORMAT_BEGIN
 90
        0
 91
        1
 62
     0
 92
       -2
340
24
 93
        0
 40
1.125
309
GRIDFORMAT_END
 95
        8
302
GRIDFORMAT
  1
GRIDFORMAT_BEGIN
 90
        0
 91
        1
 62
     0
 92
       -2
340
24
 93
        0
 40
1.125
309
GRIDFORMAT_END
 95
       16
302
GRIDFORMAT
  1
GRIDFORMAT_BEGIN
 90
        0
 91
        1
 62
     0
 92
       -2
340
24
 93
        0
 40
1.125
309
GRIDFORMAT_END
 95
       32
302
GRIDFORMAT
  1
GRIDFORMAT_BEGIN
 90
        0
 91
        1
 62
     0
 92
       -2
340
24
 93
        0
 40
1.125
309
GRIDFORMAT_END
309
TABLEFORMAT_END
  1
CELLSTYLE_BEGIN
 90
        1
 91
        1
300
_TITLE
309
CELLSTYLE_END
300
CELLSTYLE
  1
TABLEFORMAT_BEGIN
 90
        5
170
     1
 91
        0
 92
        0
 62
   257
 93
        1
300
CONTENTFORMAT
  1
CONTENTFORMAT_BEGIN
 90
        0
 91
        0
 92
      512
 93
        0
300

 40
0.0
140
1.0
 94
        5
 62
     0
340
21
144
4.5
309
CONTENTFORMAT_END
171
     1
301
MARGIN
  1
CELLMARGIN_BEGIN
 40
1.5
 40
1.5
 40
1.5
 40
1.5
 40
4.5
 40
4.5
309
CELLMARGIN_END
 94
        6
 95
        1
302
GRIDFORMAT
  1
GRIDFORMAT_BEGIN
 90
        0
 91
        1
 62
     0
 92
       -2
340
24
 93
        0
 40
1.125
309
GRIDFORMAT_END
 95
        2
302
GRIDFORMAT
  1
GRIDFORMAT_BEGIN
 90
        0
 91
        1
 62
     0
 92
       -2
340
24
 93
        0
 40
1.125
309
GRIDFORMAT_END
 95
        4
302
GRIDFORMAT
  1
GRIDFORMAT_BEGIN
 90
        0
 91
        1
 62
     0
 92
       -2
340
24
 93
        0
 40
1.125
309
GRIDFORMAT_END
 95
        8
302
GRIDFORMAT
  1
GRIDFORMAT_BEGIN
 90
        0
 91
        1
 62
     0
 92
       -2
340
24
 93
        0
 40
1.125
309
GRIDFORMAT_END
 95
       16
302
GRIDFORMAT
  1
GRIDFORMAT_BEGIN
 90
        0
 91
        1
 62
     0
 92
       -2
340
24
 93
        0
 40
1.125
309
GRIDFORMAT_END
 95
       32
302
GRIDFORMAT
  1
GRIDFORMAT_BEGIN
 90
        0
 91
        1
 62
     0
 92
       -2
340
24
 93
        0
 40
1.125
309
GRIDFORMAT_END
309
TABLEFORMAT_END
  1
CELLSTYLE_BEGIN
 90
        2
 91
        1
300
_HEADER
309
CELLSTYLE_END
300
CELLSTYLE
  1
TABLEFORMAT_BEGIN
 90
        5
170
     1
 91
        0
 92
        0
 62
   257
 93
        1
300
CONTENTFORMAT
  1
CONTENTFORMAT_BEGIN
 90
        0
 91
        0
 92
      512
 93
        0
300

 40
0.0
140
1.0
 94
        2
 62
     0
340
21
144
4.5
309
CONTENTFORMAT_END
171
     1
301
MARGIN
  1
CELLMARGIN_BEGIN
 40
1.5
 40
1.5
 40
1.5
 40
1.5
 40
4.5
 40
4.5
309
CELLMARGIN_END
 94
        6
 95
        1
302
GRIDFORMAT
  1
GRIDFORMAT_BEGIN
 90
        0
 91
        1
 62
     0
 92
       -2
340
24
 93
        0
 40
1.125
309
GRIDFORMAT_END
 95
        2
302
GRIDFORMAT
  1
GRIDFORMAT_BEGIN
 90
        0
 91
        1
 62
     0
 92
       -2
340
24
 93
        0
 40
1.125
309
GRIDFORMAT_END
 95
        4
302
GRIDFORMAT
  1
GRIDFORMAT_BEGIN
 90
        0
 91
        1
 62
     0
 92
       -2
340
24
 93
        0
 40
1.125
309
GRIDFORMAT_END
 95
        8
302
GRIDFORMAT
  1
GRIDFORMAT_BEGIN
 90
        0
 91
        1
 62
     0
 92
       -2
340
24
 93
        0
 40
1.125
309
GRIDFORMAT_END
 95
       16
302
GRIDFORMAT
  1
GRIDFORMAT_BEGIN
 90
        0
 91
        1
 62
     0
 92
       -2
340
24
 93
        0
 40
1.125
309
GRIDFORMAT_END
 95
       32
302
GRIDFORMAT
  1
GRIDFORMAT_BEGIN
 90
        0
 91
        1
 62
     0
 92
       -2
340
24
 93
        0
 40
1.125
309
GRIDFORMAT_END
309
TABLEFORMAT_END
  1
CELLSTYLE_BEGIN
 90
        3
 91
        2
300
_DATA
309
CELLSTYLE_END
  0
XRECORD
  5
1B7
102
{ACAD_REACTORS
330
44
102
}
330
44
100
AcDbXrecord
280
     1
102
ACAD_ROUNDTRIP_PRE2007_TABLESTYLE
 90
      512
 91
        0
  1

 92
      512
 93
        0
  2

 94
      512
 95
        0
  3

  0
XRECORD
  5
1B4
102
{ACAD_REACTORS
330
1B3
102
}
330
1B3
100
AcDbXrecord
280
     1
102
RTVSPost2010Prop28
280
     1
102
RTVSPost2010PropOp28
 70
     1
102
RTVSPost2010Prop29
280
     1
102
RTVSPost2010PropOp29
 70
     1
102
RTVSPost2010Prop30
280
     0
102
RTVSPost2010PropOp30
 70
     1
102
RTVSPost2010Prop31
280
     0
102
RTVSPost2010PropOp31
 70
     1
102
RTVSPost2010Prop32
280
     0
102
RTVSPost2010PropOp32
 70
     1
102
RTVSPost2010Prop33
280
     0
102
RTVSPost2010PropOp33
 70
     1
102
RTVSPost2010Prop34
280
     0
102
RTVSPost2010PropOp34
 70
     1
102
RTVSPost2010Prop35
280
     0
102
RTVSPost2010PropOp35
 70
     1
102
RTVSPost2010Prop36
280
     0
102
RTVSPost2010PropOp36
 70
     1
102
RTVSPost2010Prop37
 90
       50
102
RTVSPost2010PropOp37
 70
     1
102
RTVSPost2010Prop38
140
0.0
102
RTVSPost2010PropOp38
 70
     1
102
RTVSPost2010Prop39
140
1.0
102
RTVSPost2010PropOp39
 70
     1
102
RTVSPost2010Prop40
 90
        0
102
RTVSPost2010PropOp40
 70
     1
102
RTVSPost2010Prop41ColorIndex
 90
       18
102
RTVSPost2010Prop41ColorRGB
 90
        0
102
RTVSPost2010PropOp41
 70
     1
102
RTVSPost2010Prop42
 90
       50
102
RTVSPost2010PropOp42
 70
     1
102
RTVSPost2010Prop43
 90
        3
102
RTVSPost2010PropOp43
 70
     1
102
RTVSPost2010Prop44ColorIndex
 90
        5
102
RTVSPost2010Prop44ColorRGB
 90
      255
102
RTVSPost2010PropOp44
 70
     1
102
RTVSPost2010Prop45
280
     0
102
RTVSPost2010PropOp45
 70
     1
102
RTVSPost2010Prop46
 90
       50
102
RTVSPost2010PropOp46
 70
     1
102
RTVSPost2010Prop47
 90
       50
102
RTVSPost2010PropOp47
 70
     1
102
RTVSPost2010Prop48
 90
       50
102
RTVSPost2010PropOp48
 70
     1
102
RTVSPost2010Prop49
280
     0
102
RTVSPost2010PropOp49
 70
     1
102
RTVSPost2010Prop50
 90
       50
102
RTVSPost2010PropOp50
 70
     1
102
RTVSPost2010Prop51ColorIndex
 90
      256
102
RTVSPost2010Prop51ColorRGB
 90
-16777216
102
RTVSPost2010PropOp51
 70
     0
102
RTVSPost2010Prop52
140
1.0
102
RTVSPost2010PropOp52
 70
     0
102
RTVSPost2010Prop53
 90
        2
102
RTVSPost2010PropOp53
 70
     1
102
RTVSPost2010Prop54
  1
strokes_ogs.tif
102
RTVSPost2010PropOp54
 70
     1
102
RTVSPost2010Prop55
280
     0
102
RTVSPost2010PropOp55
 70
     1
102
RTVSPost2010Prop56
140
1.0
102
RTVSPost2010PropOp56
 70
     1
102
RTVSPost2010Prop57
140
1.0
102
RTVSPost2010PropOp57
 70
     1
102
RTVSPropertyOp0
 70
     1
102
RTVSPropertyOp1
 70
     1
102
RTVSPropertyOp2
 70
     1
102
RTVSPropertyOp3
 70
     1
102
RTVSPropertyOp4
 70
     1
102
RTVSPropertyOp5
 70
     1
102
RTVSPropertyOp6
 70
     1
102
RTVSPropertyOp7
 70
     1
102
RTVSPropertyOp8
 70
     1
102
RTVSPropertyOp9
 70
     1
102
RTVSPropertyOp10
 70
     1
102
RTVSPropertyOp11
 70
     1
102
RTVSPropertyOp12
 70
     1
102
RTVSPropertyOp13
 70
     1
102
RTVSPropertyOp14
 70
     1
102
RTVSPropertyOp15
 70
     1
102
RTVSPropertyOp16
 70
     1
102
RTVSPropertyOp17
 70
     1
102
RTVSPropertyOp18
 70
     1
102
RTVSPropertyOp19
 70
     1
102
RTVSPropertyOp20
 70
     1
102
RTVSPropertyOp21
 70
     1
102
RTVSPropertyOp22
 70
     1
102
RTVSPropertyOp23
 70
     1
102
RTVSPropertyOp24
 70
     1
102
RTVSPropertyOp25
 70
     1
102
RTVSPropertyOp26
 70
     1
102
RTVSPropertyOp27
 70
     1
102
RTVSPropertyOp28
 70
     1
102
RTVSPropertyOp29
 70
     1
102
RTVSPropertyOp30
 70
     1
102
RTVSPropertyOp31
 70
     1
102
RTVSPropertyOp32
 70
     1
102
RTVSPropertyOp33
 70
     1
102
RTVSPropertyOp34
 70
     1
102
RTVSPropertyOp35
 70
     1
102
RTVSPropertyOp36
 70
     1
102
RTVSPropertyOp37
 70
     1
102
RTVSPropertyOp38
 70
     1
102
RTVSPropertyOp39
 70
     1
102
RTVSPropertyOp40
 70
     1
102
RTVSPropertyOp41
 70
     1
102
RTVSPropertyOp42
 70
     1
102
RTVSPropertyOp43
 70
     1
102
RTVSPropertyOp44
 70
     1
102
RTVSPropertyOp45
 70
     1
102
RTVSPropertyOp46
 70
     1
102
RTVSPropertyOp47
 70
     1
102
RTVSPropertyOp48
 70
     1
102
RTVSPropertyOp49
 70
     1
102
RTVSPropertyOp50
 70
     1
102
RTVSPropertyOp51
 70
     0
102
RTVSPropertyOp52
 70
     0
102
RTVSPropertyOp53
 70
     1
102
RTVSPropertyOp54
 70
     1
102
RTVSPropertyOp55
 70
     1
102
RTVSPropertyOp56
 70
     1
102
RTVSPropertyOp57
 70
     1
102
RTVSPropertyOp58
 70
     1
102
RTVSPropertyOp59
 70
     1
102
RTVSPropertyOp60
 70
     1
102
RTVSPropertyOp61
 70
     1
102
RTVSPropertyOp62
 70
     1
  0
XRECORD
  5
1B9
102
{ACAD_REACTORS
330
1B8
102
}
330
1B8
100
AcDbXrecord
280
     1
102
RTVSPost2010Prop28
280
     0
102
RTVSPost2010PropOp28
 70
     1
102
RTVSPost2010Prop29
280
     1
102
RTVSPost2010PropOp29
 70
     1
102
RTVSPost2010Prop30
280
     1
102
RTVSPost2010PropOp30
 70
     1
102
RTVSPost2010Prop31
280
     0
102
RTVSPost2010PropOp31
 70
     1
102
RTVSPost2010Prop32
280
     0
102
RTVSPost2010PropOp32
 70
     1
102
RTVSPost2010Prop33
280
     0
102
RTVSPost2010PropOp33
 70
     1
102
RTVSPost2010Prop34
280
     0
102
RTVSPost2010PropOp34
 70
     1
102
RTVSPost2010Prop35
280
     0
102
RTVSPost2010PropOp35
 70
     1
102
RTVSPost2010Prop36
280
     0
102
RTVSPost2010PropOp36
 70
     1
102
RTVSPost2010Prop37
 90
       50
102
RTVSPost2010PropOp37
 70
     1
102
RTVSPost2010Prop38
140
0.0
102
RTVSPost2010PropOp38
 70
     1
102
RTVSPost2010Prop39
140
1.0
102
RTVSPost2010PropOp39
 70
     1
102
RTVSPost2010Prop40
 90
        0
102
RTVSPost2010PropOp40
 70
     1
102
RTVSPost2010Prop41ColorIndex
 90
       18
102
RTVSPost2010Prop41ColorRGB
 90
        0
102
RTVSPost2010PropOp41
 70
     1
102
RTVSPost2010Prop42
 90
       50
102
RTVSPost2010PropOp42
 70
     1
102
RTVSPost2010Prop43
 90
        3
102
RTVSPost2010PropOp43
 70
     1
102
RTVSPost2010Prop44ColorIndex
 90
        5
102
RTVSPost2010Prop44ColorRGB
 90
      255
102
RTVSPost2010PropOp44
 70
     1
102
RTVSPost2010Prop45
280
     0
102
RTVSPost2010PropOp45
 70
     1
102
RTVSPost2010Prop46
 90
       50
102
RTVSPost2010PropOp46
 70
     1
102
RTVSPost2010Prop47
 90
       50
102
RTVSPost2010PropOp47
 70
     1
102
RTVSPost2010Prop48
 90
       50
102
RTVSPost2010PropOp48
 70
     1
102
RTVSPost2010Prop49
280
     0
102
RTVSPost2010PropOp49
 70
     1
102
RTVSPost2010Prop50
 90
       50
102
RTVSPost2010PropOp50
 70
     1
102
RTVSPost2010Prop51ColorIndex
 90
      256
102
RTVSPost2010Prop51ColorRGB
 90
-16777216
102
RTVSPost2010PropOp51
 70
     0
102
RTVSPost2010Prop52
140
1.0
102
RTVSPost2010PropOp52
 70
     0
102
RTVSPost2010Prop53
 90
        2
102
RTVSPost2010PropOp53
 70
     1
102
RTVSPost2010Prop54
  1
strokes_ogs.tif
102
RTVSPost2010PropOp54
 70
     1
102
RTVSPost2010Prop55
280
     0
102
RTVSPost2010PropOp55
 70
     1
102
RTVSPost2010Prop56
140
1.0
102
RTVSPost2010PropOp56
 70
     1
102
RTVSPost2010Prop57
140
1.0
102
RTVSPost2010PropOp57
 70
     1
102
RTVSPropertyOp0
 70
     1
102
RTVSPropertyOp1
 70
     1
102
RTVSPropertyOp2
 70
     1
102
RTVSPropertyOp3
 70
     1
102
RTVSPropertyOp4
 70
     1
102
RTVSPropertyOp5
 70
     1
102
RTVSPropertyOp6
 70
     1
102
RTVSPropertyOp7
 70
     1
102
RTVSPropertyOp8
 70
     1
102
RTVSPropertyOp9
 70
     1
102
RTVSPropertyOp10
 70
     1
102
RTVSPropertyOp11
 70
     1
102
RTVSPropertyOp12
 70
     1
102
RTVSPropertyOp13
 70
     1
102
RTVSPropertyOp14
 70
     1
102
RTVSPropertyOp15
 70
     1
102
RTVSPropertyOp16
 70
     1
102
RTVSPropertyOp17
 70
     1
102
RTVSPropertyOp18
 70
     1
102
RTVSPropertyOp19
 70
     1
102
RTVSPropertyOp20
 70
     1
102
RTVSPropertyOp21
 70
     1
102
RTVSPropertyOp22
 70
     1
102
RTVSPropertyOp23
 70
     1
102
RTVSPropertyOp24
 70
     1
102
RTVSPropertyOp25
 70
     1
102
RTVSPropertyOp26
 70
     1
102
RTVSPropertyOp27
 70
     1
102
RTVSPropertyOp28
 70
     1
102
RTVSPropertyOp29
 70
     1
102
RTVSPropertyOp30
 70
     1
102
RTVSPropertyOp31
 70
     1
102
RTVSPropertyOp32
 70
     1
102
RTVSPropertyOp33
 70
     1
102
RTVSPropertyOp34
 70
     1
102
RTVSPropertyOp35
 70
     1
102
RTVSPropertyOp36
 70
     1
102
RTVSPropertyOp37
 70
     1
102
RTVSPropertyOp38
 70
     1
102
RTVSPropertyOp39
 70
     1
102
RTVSPropertyOp40
 70
     1
102
RTVSPropertyOp41
 70
     1
102
RTVSPropertyOp42
 70
     1
102
RTVSPropertyOp43
 70
     1
102
RTVSPropertyOp44
 70
     1
102
RTVSPropertyOp45
 70
     1
102
RTVSPropertyOp46
 70
     1
102
RTVSPropertyOp47
 70
     1
102
RTVSPropertyOp48
 70
     1
102
RTVSPropertyOp49
 70
     1
102
RTVSPropertyOp50
 70
     1
102
RTVSPropertyOp51
 70
     0
102
RTVSPropertyOp52
 70
     0
102
RTVSPropertyOp53
 70
     1
102
RTVSPropertyOp54
 70
     1
102
RTVSPropertyOp55
 70
     1
102
RTVSPropertyOp56
 70
     1
102
RTVSPropertyOp57
 70
     1
102
RTVSPropertyOp58
 70
     1
102
RTVSPropertyOp59
 70
     1
102
RTVSPropertyOp60
 70
     1
102
RTVSPropertyOp61
 70
     1
102
RTVSPropertyOp62
 70
     1
  0
XRECORD
  5
1BB
102
{ACAD_REACTORS
330
1BA
102
}
330
1BA
100
AcDbXrecord
280
     1
102
RTVSPost2010Prop28
280
     0
102
RTVSPost2010PropOp28
 70
     1
102
RTVSPost2010Prop29
280
     1
102
RTVSPost2010PropOp29
 70
     1
102
RTVSPost2010Prop30
280
     1
102
RTVSPost2010PropOp30
 70
     1
102
RTVSPost2010Prop31
280
     0
102
RTVSPost2010PropOp31
 70
     1
102
RTVSPost2010Prop32
280
     0
102
RTVSPost2010PropOp32
 70
     1
102
RTVSPost2010Prop33
280
     0
102
RTVSPost2010PropOp33
 70
     1
102
RTVSPost2010Prop34
280
     0
102
RTVSPost2010PropOp34
 70
     1
102
RTVSPost2010Prop35
280
     0
102
RTVSPost2010PropOp35
 70
     1
102
RTVSPost2010Prop36
280
     0
102
RTVSPost2010PropOp36
 70
     1
102
RTVSPost2010Prop37
 90
       50
102
RTVSPost2010PropOp37
 70
     1
102
RTVSPost2010Prop38
140
0.0
102
RTVSPost2010PropOp38
 70
     1
102
RTVSPost2010Prop39
140
1.0
102
RTVSPost2010PropOp39
 70
     1
102
RTVSPost2010Prop40
 90
        0
102
RTVSPost2010PropOp40
 70
     1
102
RTVSPost2010Prop41ColorIndex
 90
       18
102
RTVSPost2010Prop41ColorRGB
 90
        0
102
RTVSPost2010PropOp41
 70
     1
102
RTVSPost2010Prop42
 90
       50
102
RTVSPost2010PropOp42
 70
     1
102
RTVSPost2010Prop43
 90
        3
102
RTVSPost2010PropOp43
 70
     1
102
RTVSPost2010Prop44ColorIndex
 90
        5
102
RTVSPost2010Prop44ColorRGB
 90
      255
102
RTVSPost2010PropOp44
 70
     1
102
RTVSPost2010Prop45
280
     0
102
RTVSPost2010PropOp45
 70
     1
102
RTVSPost2010Prop46
 90
       50
102
RTVSPost2010PropOp46
 70
     1
102
RTVSPost2010Prop47
 90
       50
102
RTVSPost2010PropOp47
 70
     1
102
RTVSPost2010Prop48
 90
       50
102
RTVSPost2010PropOp48
 70
     1
102
RTVSPost2010Prop49
280
     0
102
RTVSPost2010PropOp49
 70
     1
102
RTVSPost2010Prop50
 90
       50
102
RTVSPost2010PropOp50
 70
     1
102
RTVSPost2010Prop51ColorIndex
 90
      256
102
RTVSPost2010Prop51ColorRGB
 90
-16777216
102
RTVSPost2010PropOp51
 70
     0
102
RTVSPost2010Prop52
140
1.0
102
RTVSPost2010PropOp52
 70
     0
102
RTVSPost2010Prop53
 90
        2
102
RTVSPost2010PropOp53
 70
     1
102
RTVSPost2010Prop54
  1
strokes_ogs.tif
102
RTVSPost2010PropOp54
 70
     1
102
RTVSPost2010Prop55
280
     0
102
RTVSPost2010PropOp55
 70
     1
102
RTVSPost2010Prop56
140
1.0
102
RTVSPost2010PropOp56
 70
     1
102
RTVSPost2010Prop57
140
1.0
102
RTVSPost2010PropOp57
 70
     1
102
RTVSPropertyOp0
 70
     1
102
RTVSPropertyOp1
 70
     1
102
RTVSPropertyOp2
 70
     1
102
RTVSPropertyOp3
 70
     1
102
RTVSPropertyOp4
 70
     1
102
RTVSPropertyOp5
 70
     1
102
RTVSPropertyOp6
 70
     1
102
RTVSPropertyOp7
 70
     1
102
RTVSPropertyOp8
 70
     1
102
RTVSPropertyOp9
 70
     1
102
RTVSPropertyOp10
 70
     1
102
RTVSPropertyOp11
 70
     1
102
RTVSPropertyOp12
 70
     1
102
RTVSPropertyOp13
 70
     1
102
RTVSPropertyOp14
 70
     1
102
RTVSPropertyOp15
 70
     1
102
RTVSPropertyOp16
 70
     1
102
RTVSPropertyOp17
 70
     1
102
RTVSPropertyOp18
 70
     1
102
RTVSPropertyOp19
 70
     1
102
RTVSPropertyOp20
 70
     1
102
RTVSPropertyOp21
 70
     1
102
RTVSPropertyOp22
 70
     1
102
RTVSPropertyOp23
 70
     1
102
RTVSPropertyOp24
 70
     1
102
RTVSPropertyOp25
 70
     1
102
RTVSPropertyOp26
 70
     1
102
RTVSPropertyOp27
 70
     1
102
RTVSPropertyOp28
 70
     1
102
RTVSPropertyOp29
 70
     1
102
RTVSPropertyOp30
 70
     1
102
RTVSPropertyOp31
 70
     1
102
RTVSPropertyOp32
 70
     1
102
RTVSPropertyOp33
 70
     1
102
RTVSPropertyOp34
 70
     1
102
RTVSPropertyOp35
 70
     1
102
RTVSPropertyOp36
 70
     1
102
RTVSPropertyOp37
 70
     1
102
RTVSPropertyOp38
 70
     1
102
RTVSPropertyOp39
 70
     1
102
RTVSPropertyOp40
 70
     1
102
RTVSPropertyOp41
 70
     1
102
RTVSPropertyOp42
 70
     1
102
RTVSPropertyOp43
 70
     1
102
RTVSPropertyOp44
 70
     1
102
RTVSPropertyOp45
 70
     1
102
RTVSPropertyOp46
 70
     1
102
RTVSPropertyOp47
 70
     1
102
RTVSPropertyOp48
 70
     1
102
RTVSPropertyOp49
 70
     1
102
RTVSPropertyOp50
 70
     1
102
RTVSPropertyOp51
 70
     0
102
RTVSPropertyOp52
 70
     0
102
RTVSPropertyOp53
 70
     1
102
RTVSPropertyOp54
 70
     1
102
RTVSPropertyOp55
 70
     1
102
RTVSPropertyOp56
 70
     1
102
RTVSPropertyOp57
 70
     1
102
RTVSPropertyOp58
 70
     1
102
RTVSPropertyOp59
 70
     1
102
RTVSPropertyOp60
 70
     1
102
RTVSPropertyOp61
 70
     1
102
RTVSPropertyOp62
 70
     1
  0
ENDSEC
  0
EOF
