  0
SECTION
  2
HEADER
  9
$ACADVER
  1
AC1018
  9
$ACADMAINTVER
 70
   104
  9
$DWGCODEPAGE
  3
ANSI_932
  9
$INSBASE
 10
0.0
 20
0.0
 30
0.0
  9
$EXTMIN
 10
-0.012985505537813
 20
-0.0137574449213389
 30
-0.0015258207003583
  9
$EXTMAX
 10
50.00687062792542
 20
29.98763195499634
 30
0.0000000349246037
  9
$LIMMIN
 10
-9.442526318168802
 20
-5.680910862676789
  9
$LIMMAX
 10
56.5452643127696
 20
36.46491837898466
  9
$ORTHOMODE
 70
     0
  9
$REGENMODE
 70
     1
  9
$FILLMODE
 70
     1
  9
$QTEXTMODE
 70
     0
  9
$MIRRTEXT
 70
     0
  9
$LTSCALE
 40
1.0
  9
$ATTMODE
 70
     1
  9
$TEXTSIZE
 40
2.5
  9
$TRACEWID
 40
1.0
  9
$TEXTSTYLE
  7
Standard
  9
$CLAYER
  8
0
  9
$CELTYPE
  6
ByLayer
  9
$CECOLOR
 62
   256
  9
$CELTSCALE
 40
1.0
  9
$DISPSILH
 70
     0
  9
$DIMSCALE
 40
1.0
  9
$DIMASZ
 40
2.5
  9
$DIMEXO
 40
0.625
  9
$DIMDLI
 40
3.75
  9
$DIMRND
 40
0.0
  9
$DIMDLE
 40
0.0
  9
$DIMEXE
 40
1.25
  9
$DIMTP
 40
0.0
  9
$DIMTM
 40
0.0
  9
$DIMTXT
 40
2.5
  9
$DIMCEN
 40
2.5
  9
$DIMTSZ
 40
0.0
  9
$DIMTOL
 70
     0
  9
$DIMLIM
 70
     0
  9
$DIMTIH
 70
     0
  9
$DIMTOH
 70
     0
  9
$DIMSE1
 70
     0
  9
$DIMSE2
 70
     0
  9
$DIMTAD
 70
     1
  9
$DIMZIN
 70
     8
  9
$DIMBLK
  1

  9
$DIMASO
 70
     1
  9
$DIMSHO
 70
     1
  9
$DIMPOST
  1

  9
$DIMAPOST
  1

  9
$DIMALT
 70
     0
  9
$DIMALTD
 70
     3
  9
$DIMALTF
 40
0.03937007874016
  9
$DIMLFAC
 40
1.0
  9
$DIMTOFL
 70
     1
  9
$DIMTVP
 40
0.0
  9
$DIMTIX
 70
     0
  9
$DIMSOXD
 70
     0
  9
$DIMSAH
 70
     0
  9
$DIMBLK1
  1

  9
$DIMBLK2
  1

  9
$DIMSTYLE
  2
ISO-25
  9
$DIMCLRD
 70
     0
  9
$DIMCLRE
 70
     0
  9
$DIMCLRT
 70
     0
  9
$DIMTFAC
 40
1.0
  9
$DIMGAP
 40
0.625
  9
$DIMJUST
 70
     0
  9
$DIMSD1
 70
     0
  9
$DIMSD2
 70
     0
  9
$DIMTOLJ
 70
     0
  9
$DIMTZIN
 70
     8
  9
$DIMALTZ
 70
     0
  9
$DIMALTTZ
 70
     0
  9
$DIMUPT
 70
     0
  9
$DIMDEC
 70
     2
  9
$DIMTDEC
 70
     2
  9
$DIMALTU
 70
     2
  9
$DIMALTTD
 70
     3
  9
$DIMTXSTY
  7
Standard
  9
$DIMAUNIT
 70
     0
  9
$DIMADEC
 70
     0
  9
$DIMALTRND
 40
0.0
  9
$DIMAZIN
 70
     0
  9
$DIMDSEP
 70
    44
  9
$DIMATFIT
 70
     3
  9
$DIMFRAC
 70
     0
  9
$DIMLDRBLK
  1

  9
$DIMLUNIT
 70
     2
  9
$DIMLWD
 70
    -2
  9
$DIMLWE
 70
    -2
  9
$DIMTMOVE
 70
     0
  9
$LUNITS
 70
     2
  9
$LUPREC
 70
     4
  9
$SKETCHINC
 40
1.0
  9
$FILLETRAD
 40
0.0
  9
$AUNITS
 70
     0
  9
$AUPREC
 70
     0
  9
$MENU
  1
.
  9
$ELEVATION
 40
0.0
  9
$PELEVATION
 40
0.0
  9
$THICKNESS
 40
0.0
  9
$LIMCHECK
 70
     0
  9
$CHAMFERA
 40
0.0
  9
$CHAMFERB
 40
0.0
  9
$CHAMFERC
 40
0.0
  9
$CHAMFERD
 40
0.0
  9
$SKPOLY
 70
     0
  9
$TDCREATE
 40
2458842.725335649
  9
$TDUCREATE
 40
2458842.392002315
  9
$TDUPDATE
 40
2458842.738333333
  9
$TDUUPDATE
 40
2458842.405000000
  9
$TDINDWG
 40
0.0131018519
  9
$TDUSRTIMER
 40
0.0131018519
  9
$USRTIMER
 70
     1
  9
$ANGBASE
 50
0.0
  9
$ANGDIR
 70
     0
  9
$PDMODE
 70
     0
  9
$PDSIZE
 40
0.0
  9
$PLINEWID
 40
0.0
  9
$SPLFRAME
 70
     0
  9
$SPLINETYPE
 70
     6
  9
$SPLINESEGS
 70
     8
  9
$HANDSEED
  5
427
  9
$SURFTAB1
 70
     6
  9
$SURFTAB2
 70
     6
  9
$SURFTYPE
 70
     6
  9
$SURFU
 70
     6
  9
$SURFV
 70
     6
  9
$UCSBASE
  2

  9
$UCSNAME
  2

  9
$UCSORG
 10
0.0
 20
0.0
 30
0.0
  9
$UCSXDIR
 10
1.0
 20
0.0
 30
0.0
  9
$UCSYDIR
 10
0.0
 20
1.0
 30
0.0
  9
$UCSORTHOREF
  2

  9
$UCSORTHOVIEW
 70
     0
  9
$UCSORGTOP
 10
0.0
 20
0.0
 30
0.0
  9
$UCSORGBOTTOM
 10
0.0
 20
0.0
 30
0.0
  9
$UCSORGLEFT
 10
0.0
 20
0.0
 30
0.0
  9
$UCSORGRIGHT
 10
0.0
 20
0.0
 30
0.0
  9
$UCSORGFRONT
 10
0.0
 20
0.0
 30
0.0
  9
$UCSORGBACK
 10
0.0
 20
0.0
 30
0.0
  9
$PUCSBASE
  2

  9
$PUCSNAME
  2

  9
$PUCSORG
 10
0.0
 20
0.0
 30
0.0
  9
$PUCSXDIR
 10
1.0
 20
0.0
 30
0.0
  9
$PUCSYDIR
 10
0.0
 20
1.0
 30
0.0
  9
$PUCSORTHOREF
  2

  9
$PUCSORTHOVIEW
 70
     0
  9
$PUCSORGTOP
 10
0.0
 20
0.0
 30
0.0
  9
$PUCSORGBOTTOM
 10
0.0
 20
0.0
 30
0.0
  9
$PUCSORGLEFT
 10
0.0
 20
0.0
 30
0.0
  9
$PUCSORGRIGHT
 10
0.0
 20
0.0
 30
0.0
  9
$PUCSORGFRONT
 10
0.0
 20
0.0
 30
0.0
  9
$PUCSORGBACK
 10
0.0
 20
0.0
 30
0.0
  9
$USERI1
 70
     0
  9
$USERI2
 70
     0
  9
$USERI3
 70
     0
  9
$USERI4
 70
     0
  9
$USERI5
 70
     0
  9
$USERR1
 40
0.0
  9
$USERR2
 40
0.0
  9
$USERR3
 40
0.0
  9
$USERR4
 40
0.0
  9
$USERR5
 40
0.0
  9
$WORLDVIEW
 70
     1
  9
$SHADEDGE
 70
     3
  9
$SHADEDIF
 70
    70
  9
$TILEMODE
 70
     1
  9
$MAXACTVP
 70
    64
  9
$PINSBASE
 10
0.0
 20
0.0
 30
0.0
  9
$PLIMCHECK
 70
     0
  9
$PEXTMIN
 10
0.0
 20
0.0
 30
0.0
  9
$PEXTMAX
 10
0.0
 20
0.0
 30
0.0
  9
$PLIMMIN
 10
0.0
 20
0.0
  9
$PLIMMAX
 10
12.0
 20
9.0
  9
$UNITMODE
 70
     0
  9
$VISRETAIN
 70
     1
  9
$PLINEGEN
 70
     0
  9
$PSLTSCALE
 70
     1
  9
$TREEDEPTH
 70
  3020
  9
$CMLSTYLE
  2
Standard
  9
$CMLJUST
 70
     0
  9
$CMLSCALE
 40
20.0
  9
$PROXYGRAPHICS
 70
     1
  9
$MEASUREMENT
 70
     1
  9
$CELWEIGHT
370
    -1
  9
$ENDCAPS
280
     0
  9
$JOINSTYLE
280
     0
  9
$LWDISPLAY
290
     0
  9
$INSUNITS
 70
     4
  9
$HYPERLINKBASE
  1

  9
$STYLESHEET
  1

  9
$XEDIT
290
     1
  9
$CEPSNTYPE
380
     0
  9
$PSTYLEMODE
290
     1
  9
$FINGERPRINTGUID
  2
{5E22C9F4-ADA2-2B4E-9E64-036A4EA63670}
  9
$VERSIONGUID
  2
{D3A4BE14-A37B-1D48-9549-E9F71E395ACB}
  9
$EXTNAMES
290
     1
  9
$PSVPSCALE
 40
0.0
  9
$OLESTARTUP
290
     0
  9
$SORTENTS
280
   127
  9
$INDEXCTL
280
     0
  9
$HIDETEXT
280
     1
  9
$XCLIPFRAME
290
     0
  9
$HALOGAP
280
     0
  9
$OBSCOLOR
 70
   257
  9
$OBSLTYPE
280
     0
  9
$INTERSECTIONDISPLAY
280
     0
  9
$INTERSECTIONCOLOR
 70
   257
  9
$DIMASSOC
280
     2
  9
$PROJECTNAME
  1

  0
ENDSEC
  0
SECTION
  2
CLASSES
  0
CLASS
  1
ACDBDICTIONARYWDFLT
  2
AcDbDictionaryWithDefault
  3
ObjectDBX Classes
 90
        0
 91
        1
280
     0
281
     0
  0
CLASS
  1
DICTIONARYVAR
  2
AcDbDictionaryVar
  3
ObjectDBX Classes
 90
        0
 91
       12
280
     0
281
     0
  0
CLASS
  1
TABLESTYLE
  2
AcDbTableStyle
  3
ObjectDBX Classes
 90
     4095
 91
        1
280
     0
281
     0
  0
CLASS
  1
MATERIAL
  2
AcDbMaterial
  3
ObjectDBX Classes
 90
     1153
 91
        3
280
     0
281
     0
  0
CLASS
  1
VISUALSTYLE
  2
AcDbVisualStyle
  3
ObjectDBX Classes
 90
     4095
 91
        3
280
     0
281
     0
  0
CLASS
  1
SCALE
  2
AcDbScale
  3
ObjectDBX Classes
 90
     1153
 91
       17
280
     0
281
     0
  0
CLASS
  1
MLEADERSTYLE
  2
AcDbMLeaderStyle
  3
ACDB_MLEADERSTYLE_CLASS
 90
     4095
 91
        0
280
     0
281
     0
  0
CLASS
  1
CELLSTYLEMAP
  2
AcDbCellStyleMap
  3
ObjectDBX Classes
 90
     1152
 91
        1
280
     0
281
     0
  0
CLASS
  1
EXACXREFPANELOBJECT
  2
ExAcXREFPanelObject
  3
EXAC_ESW
 90
     1025
 91
        0
280
     1
281
     0
  0
CLASS
  1
NPOCOLLECTION
  2
AcDbImpNonPersistentObjectsCollection
  3
ObjectDBX Classes
 90
     1153
 91
        0
280
     0
281
     0
  0
CLASS
  1
LAYER_INDEX
  2
AcDbLayerIndex
  3
ObjectDBX Classes
 90
        0
 91
        0
280
     0
281
     0
  0
CLASS
  1
SPATIAL_INDEX
  2
AcDbSpatialIndex
  3
ObjectDBX Classes
 90
        0
 91
        0
280
     0
281
     0
  0
CLASS
  1
IDBUFFER
  2
AcDbIdBuffer
  3
ObjectDBX Classes
 90
        0
 91
        0
280
     0
281
     0
  0
CLASS
  1
ACDBSECTIONVIEWSTYLE
  2
AcDbSectionViewStyle
  3
ObjectDBX Classes
 90
     1025
 91
        0
280
     0
281
     0
  0
CLASS
  1
ACDBDETAILVIEWSTYLE
  2
AcDbDetailViewStyle
  3
ObjectDBX Classes
 90
     1025
 91
        0
280
     0
281
     0
  0
CLASS
  1
SORTENTSTABLE
  2
AcDbSortentsTable
  3
ObjectDBX Classes
 90
        0
 91
        2
280
     0
281
     0
  0
CLASS
  1
DIMASSOC
  2
AcDbDimAssoc
  3
"AcDbDimAssoc|Product Desc:     AcDim ARX App For Dimension|Company:          Autodesk, Inc.|WEB Address:      www.autodesk.com"
 90
        0
 91
        0
280
     0
281
     0
  0
ENDSEC
  0
SECTION
  2
TABLES
  0
TABLE
  2
VPORT
  5
29
330
0
100
AcDbSymbolTable
 70
     1
  0
VPORT
  5
2A
330
29
100
AcDbSymbolTableRecord
100
AcDbViewportTableRecord
  2
*Active
 70
     0
 10
0.0
 20
0.0
 11
1.0
 21
1.0
 12
23.5513689973004
 22
15.39200375815393
 13
0.0
 23
0.0
 14
10.0
 24
10.0
 15
10.0
 25
10.0
 16
0.0
 26
0.0
 36
1.0
 17
0.0
 27
0.0
 37
0.0
 40
42.54094639080202
 41
2.469483568075117
 42
50.0
 43
0.0
 44
0.0
 50
0.0
 51
0.0
 71
     0
 72
  1000
 73
     1
 74
     3
 75
     0
 76
     1
 77
     0
 78
     0
281
     0
 65
     1
110
0.0
120
0.0
130
0.0
111
1.0
121
0.0
131
0.0
112
0.0
122
1.0
132
0.0
 79
     0
146
0.0
1001
ACAD_NAV_VCDISPLAY
1070
     3
  0
ENDTAB
  0
TABLE
  2
LTYPE
  5
24
330
0
100
AcDbSymbolTable
 70
     1
  0
LTYPE
  5
25
330
24
100
AcDbSymbolTableRecord
100
AcDbLinetypeTableRecord
  2
ByBlock
 70
     0
  3

 72
    65
 73
     0
 40
0.0
  0
LTYPE
  5
26
330
24
100
AcDbSymbolTableRecord
100
AcDbLinetypeTableRecord
  2
ByLayer
 70
     0
  3

 72
    65
 73
     0
 40
0.0
  0
LTYPE
  5
14
330
24
100
AcDbSymbolTableRecord
100
AcDbLinetypeTableRecord
  2
Continuous
 70
     0
  3
Solid line
 72
    65
 73
     0
 40
0.0
  0
ENDTAB
  0
TABLE
  2
LAYER
  5
1E
102
{ACAD_XDICTIONARY
360
1F
102
}
330
0
100
AcDbSymbolTable
 70
     1
  0
LAYER
  5
6
102
{ACAD_XDICTIONARY
360
7
102
}
330
1E
100
AcDbSymbolTableRecord
100
AcDbLayerTableRecord
  2
0
 70
     0
 62
     7
  6
Continuous
370
    -3
390
8
  0
ENDTAB
  0
TABLE
  2
STYLE
  5
21
330
0
100
AcDbSymbolTable
 70
     1
  0
STYLE
  5
22
330
21
100
AcDbSymbolTableRecord
100
AcDbTextStyleTableRecord
  2
Standard
 70
     0
 40
0.0
 41
1.0
 50
0.0
 71
     0
 42
2.5
  3
arial.ttf
  4

1001
ACAD
1000
Arial
1071
       34
  0
ENDTAB
  0
TABLE
  2
VIEW
  5
27
330
0
100
AcDbSymbolTable
 70
     0
  0
ENDTAB
  0
TABLE
  2
UCS
  5
28
330
0
100
AcDbSymbolTable
 70
     0
  0
ENDTAB
  0
TABLE
  2
APPID
  5
2E
330
0
100
AcDbSymbolTable
 70
     6
  0
APPID
  5
13
330
2E
100
AcDbSymbolTableRecord
100
AcDbRegAppTableRecord
  2
ACAD
 70
     0
  0
APPID
  5
19
330
2E
100
AcDbSymbolTableRecord
100
AcDbRegAppTableRecord
  2
ACAD_PSEXT
 70
     0
  0
APPID
  5
32
330
2E
100
AcDbSymbolTableRecord
100
AcDbRegAppTableRecord
  2
AcadAnnotative
 70
     0
  0
APPID
  5
33
330
2E
100
AcDbSymbolTableRecord
100
AcDbRegAppTableRecord
  2
ACAD_DSTYLE_DIMJAG
 70
     0
  0
APPID
  5
34
330
2E
100
AcDbSymbolTableRecord
100
AcDbRegAppTableRecord
  2
ACAD_DSTYLE_DIMTALN
 70
     0
  0
APPID
  5
2D
330
2E
100
AcDbSymbolTableRecord
100
AcDbRegAppTableRecord
  2
ACAD_NAV_VCDISPLAY
 70
     0
  0
ENDTAB
  0
TABLE
  2
DIMSTYLE
  5
2F
330
0
100
AcDbSymbolTable
 70
     2
100
AcDbDimStyleTable
 71
     2
340
30
340
31
  0
DIMSTYLE
105
31
330
2F
100
AcDbSymbolTableRecord
100
AcDbDimStyleTableRecord
  2
Annotative
 70
     0
 40
0.0
 41
2.5
 42
0.625
 43
3.75
 44
1.25
 73
     0
 74
     0
 77
     1
 78
     8
140
2.5
141
2.5
143
0.03937007874016
147
0.625
171
     3
172
     1
271
     2
272
     2
274
     3
278
    44
283
     0
284
     8
340
22
1001
AcadAnnotative
1000
AnnotativeData
1002
{
1070
     1
1070
     1
1002
}
1001
ACAD_DSTYLE_DIMJAG
1070
   388
1040
1.5
1001
ACAD_DSTYLE_DIMTALN
1070
   392
1070
     0
  0
DIMSTYLE
105
30
330
2F
100
AcDbSymbolTableRecord
100
AcDbDimStyleTableRecord
  2
ISO-25
 70
     0
 41
2.5
 42
0.625
 43
3.75
 44
1.25
 73
     0
 74
     0
 77
     1
 78
     8
140
2.5
141
2.5
143
0.03937007874016
147
0.625
171
     3
172
     1
271
     2
272
     2
274
     3
278
    44
283
     0
284
     8
340
22
  0
ENDTAB
  0
TABLE
  2
BLOCK_RECORD
  5
1
330
0
100
AcDbSymbolTable
 70
     0
  0
BLOCK_RECORD
  5
2
102
{ACAD_XDICTIONARY
360
3
102
}
330
1
100
AcDbSymbolTableRecord
100
AcDbBlockTableRecord
  2
*Model_Space
340
16
  0
BLOCK_RECORD
  5
1A
330
1
100
AcDbSymbolTableRecord
100
AcDbBlockTableRecord
  2
*Paper_Space
340
1D
  0
ENDTAB
  0
ENDSEC
  0
SECTION
  2
BLOCKS
  0
BLOCK
  5
5
330
2
100
AcDbEntity
  8
0
100
AcDbBlockBegin
  2
*Model_Space
 70
     0
 10
0.0
 20
0.0
 30
0.0
  3
*Model_Space
  1

  0
ENDBLK
  5
15
330
2
100
AcDbEntity
  8
0
100
AcDbBlockEnd
  0
BLOCK
  5
1B
330
1A
100
AcDbEntity
 67
     1
  8
0
100
AcDbBlockBegin
  2
*Paper_Space
 70
     0
 10
0.0
 20
0.0
 30
0.0
  3
*Paper_Space
  1

  0
ENDBLK
  5
1C
330
1A
100
AcDbEntity
 67
     1
  8
0
100
AcDbBlockEnd
  0
ENDSEC
  0
SECTION
  2
ENTITIES
  0
LINE
  5
59
330
2
100
AcDbEntity
  8
0
100
AcDbLine
 10
49.45788496972238
 20
27.21461510659484
 30
0.0
 11
45.1721312816297
 21
29.68861627397966
 31
0.0
  0
LINE
  5
5A
330
2
100
AcDbEntity
  8
0
100
AcDbLine
 10
49.96590481476776
 20
26.67733458654308
 30
0.0
 11
49.96590481476776
 21
26.90368477023258
 31
0.0
  0
LINE
  5
5B
330
2
100
AcDbEntity
  8
0
100
AcDbLine
 10
44.65437901271982
 20
29.70361118110641
 30
0.0
 11
45.98648471560948
 21
27.81862771861665
 31
0.0
  0
LINE
  5
5C
330
2
100
AcDbEntity
  8
0
100
AcDbLine
 10
44.64277618817774
 20
29.9675912902916
 30
0.0
 11
44.62121902782636
 21
29.95522762479594
 31
0.0
  0
LINE
  5
5D
330
2
100
AcDbEntity
  8
0
100
AcDbLine
 10
44.62121902782636
 20
29.95522762479594
 30
0.0
 11
44.62115562433118
 21
29.96337496332952
 31
0.0
  0
ARC
  5
5E
330
2
100
AcDbEntity
  8
0
100
AcDbCircle
 10
44.64779299428047
 20
29.96210733835623
 30
0.0
 40
0.0266675148989993
100
AcDbArc
 50
132.2182214110942
 51
177.2754514081716
  0
LINE
  5
5F
330
2
100
AcDbEntity
  8
0
100
AcDbLine
 10
44.62987359367332
 20
29.98185705817117
 30
0.0
 11
0.0296939119887924
 21
4.234999189088085
 31
0.0
  0
ARC
  5
60
330
2
100
AcDbEntity
  8
0
100
AcDbCircle
 10
0.0401599383365362
 20
4.219387155439257
 30
0.0
 40
0.0187955660240341
100
AcDbArc
 50
123.8371884988735
 51
189.2726155369098
  0
LINE
  5
61
330
2
100
AcDbEntity
  8
0
100
AcDbLine
 10
1.344110062707767
 20
2.047010816835854
 30
0.0
 11
1.350133386923598
 21
2.039402407300083
 31
0.0
  0
LINE
  5
62
330
2
100
AcDbEntity
  8
0
100
AcDbLine
 10
1.350133386923598
 20
2.039402407300083
 30
0.0
 11
1.357107762331392
 21
2.033379083084253
 31
0.0
  0
LINE
  5
63
330
2
100
AcDbEntity
  8
0
100
AcDbLine
 10
1.357107762331392
 20
2.033379083084253
 30
0.0
 11
1.363765120675198
 21
2.02925786125237
 31
0.0
  0
LINE
  5
64
330
2
100
AcDbEntity
  8
0
100
AcDbLine
 10
1.363765120675198
 20
2.02925786125237
 30
0.0
 11
1.370739496082993
 21
2.027355758868422
 31
0.0
  0
LINE
  5
65
330
2
100
AcDbEntity
  8
0
100
AcDbLine
 10
1.370739496082993
 20
2.027355758868422
 30
0.0
 11
1.376762820298823
 21
2.027355758868422
 31
0.0
  0
LINE
  5
66
330
2
100
AcDbEntity
  8
0
100
AcDbLine
 10
1.376762820298823
 20
2.027355758868422
 30
0.0
 11
1.380884042130706
 21
2.028940844188382
 31
0.0
  0
LINE
  5
67
330
2
100
AcDbEntity
  8
0
100
AcDbLine
 10
1.380884042130706
 20
2.028940844188382
 30
0.0
 11
46.02354401039002
 21
27.80052604426274
 31
0.0
  0
LINE
  5
68
330
2
100
AcDbEntity
  8
0
100
AcDbLine
 10
5.545156791302069
 20
1.007480162303357
 30
0.0
 11
49.99120277647421
 21
26.62566080511257
 31
0.0
  0
ARC
  5
69
330
2
100
AcDbEntity
  8
0
100
AcDbCircle
 10
49.98365131398188
 20
26.64058821273947
 30
0.0
 40
0.0167287801178924
100
AcDbArc
 50
296.8338918806955
 51
12.49059802808248
  0
LINE
  5
6A
330
2
100
AcDbEntity
  8
0
100
AcDbLine
 10
49.99998414914678
 20
26.644206303356
 30
0.0
 11
50.00001585085322
 21
26.87496302423499
 31
0.0
  0
LINE
  5
6B
330
2
100
AcDbEntity
  8
0
100
AcDbLine
 10
50.00001585085322
 20
26.87496302423499
 30
0.0
 11
49.98543306590963
 21
26.88320546789875
 31
0.0
  0
LINE
  5
6C
330
2
100
AcDbEntity
  8
0
100
AcDbLine
 10
45.93446221540859
 20
27.55423548724823
 30
0.0
 11
45.93446221540859
 21
27.55360145312025
 31
0.0
  0
LINE
  5
6D
330
2
100
AcDbEntity
  8
0
100
AcDbLine
 10
45.93446221540859
 20
27.55360145312025
 30
0.0
 11
45.93446221540859
 21
27.55328443605627
 31
0.0
  0
LINE
  5
6E
330
2
100
AcDbEntity
  8
0
100
AcDbLine
 10
45.93446221540859
 20
27.55328443605627
 30
0.0
 11
45.93382818128062
 21
27.5526504019283
 31
0.0
  0
LINE
  5
6F
330
2
100
AcDbEntity
  8
0
100
AcDbLine
 10
45.93382818128062
 20
27.5526504019283
 30
0.0
 11
45.93382818128062
 21
27.55201636780028
 31
0.0
  0
LINE
  5
70
330
2
100
AcDbEntity
  8
0
100
AcDbLine
 10
45.93382818128062
 20
27.55201636780028
 30
0.0
 11
45.93382818128062
 21
27.55106531660831
 31
0.0
  0
LINE
  5
71
330
2
100
AcDbEntity
  8
0
100
AcDbLine
 10
45.93382818128062
 20
27.55106531660831
 30
0.0
 11
45.93382818128062
 21
27.55074829954433
 31
0.0
  0
LINE
  5
72
330
2
100
AcDbEntity
  8
0
100
AcDbLine
 10
45.93382818128062
 20
27.55074829954433
 30
0.0
 11
45.93351116421663
 21
27.55011426541635
 31
0.0
  0
LINE
  5
73
330
2
100
AcDbEntity
  8
0
100
AcDbLine
 10
45.93351116421663
 20
27.55011426541635
 30
0.0
 11
45.93351116421663
 21
27.54979724835236
 31
0.0
  0
LINE
  5
74
330
2
100
AcDbEntity
  8
0
100
AcDbLine
 10
45.93351116421663
 20
27.54979724835236
 30
0.0
 11
45.93351116421663
 21
27.54916321422439
 31
0.0
  0
LINE
  5
75
330
2
100
AcDbEntity
  8
0
100
AcDbLine
 10
45.93351116421663
 20
27.54916321422439
 30
0.0
 11
45.93351116421663
 21
27.54852918009641
 31
0.0
  0
LINE
  5
76
330
2
100
AcDbEntity
  8
0
100
AcDbLine
 10
45.93351116421663
 20
27.54852918009641
 30
0.0
 11
45.93256011302464
 21
27.54757812890441
 31
0.0
  0
LINE
  5
77
330
2
100
AcDbEntity
  8
0
100
AcDbLine
 10
45.93256011302464
 20
27.54757812890441
 30
0.0
 11
45.93256011302464
 21
27.54726111184042
 31
0.0
  0
LINE
  5
78
330
2
100
AcDbEntity
  8
0
100
AcDbLine
 10
45.93256011302464
 20
27.54726111184042
 30
0.0
 11
45.93256011302464
 21
27.54662707771244
 31
0.0
  0
LINE
  5
79
330
2
100
AcDbEntity
  8
0
100
AcDbLine
 10
45.93256011302464
 20
27.54662707771244
 30
0.0
 11
45.93256011302464
 21
27.54631006064845
 31
0.0
  0
LINE
  5
7A
330
2
100
AcDbEntity
  8
0
100
AcDbLine
 10
45.93256011302464
 20
27.54631006064845
 30
0.0
 11
45.93256011302464
 21
27.5450419923925
 31
0.0
  0
LINE
  5
7B
330
2
100
AcDbEntity
  8
0
100
AcDbLine
 10
45.93256011302464
 20
27.5450419923925
 30
0.0
 11
45.93256011302464
 21
27.54472497532852
 31
0.0
  0
LINE
  5
7C
330
2
100
AcDbEntity
  8
0
100
AcDbLine
 10
45.93256011302464
 20
27.54472497532852
 30
0.0
 11
45.93224309596066
 21
27.54409094120054
 31
0.0
  0
LINE
  5
7D
330
2
100
AcDbEntity
  8
0
100
AcDbLine
 10
45.93224309596066
 20
27.54409094120054
 30
0.0
 11
45.93224309596066
 21
27.54377392413655
 31
0.0
  0
LINE
  5
7E
330
2
100
AcDbEntity
  8
0
100
AcDbLine
 10
45.93224309596066
 20
27.54377392413655
 30
0.0
 11
45.93224309596066
 21
27.54250585588056
 31
0.0
  0
LINE
  5
7F
330
2
100
AcDbEntity
  8
0
100
AcDbLine
 10
45.93224309596066
 20
27.54250585588056
 30
0.0
 11
45.93224309596066
 21
27.54187182175258
 31
0.0
  0
LINE
  5
80
330
2
100
AcDbEntity
  8
0
100
AcDbLine
 10
45.93224309596066
 20
27.54187182175258
 30
0.0
 11
45.93224309596066
 21
27.5415548046886
 31
0.0
  0
LINE
  5
81
330
2
100
AcDbEntity
  8
0
100
AcDbLine
 10
45.93224309596066
 20
27.5415548046886
 30
0.0
 11
45.93224309596066
 21
27.54092077056062
 31
0.0
  0
LINE
  5
82
330
2
100
AcDbEntity
  8
0
100
AcDbLine
 10
45.93224309596066
 20
27.54092077056062
 30
0.0
 11
45.93224309596066
 21
27.53996971936866
 31
0.0
  0
LINE
  5
83
330
2
100
AcDbEntity
  8
0
100
AcDbLine
 10
45.93224309596066
 20
27.53996971936866
 30
0.0
 11
45.93224309596066
 21
27.53965270230467
 31
0.0
  0
LINE
  5
84
330
2
100
AcDbEntity
  8
0
100
AcDbLine
 10
45.93224309596066
 20
27.53965270230467
 30
0.0
 11
45.93224309596066
 21
27.53901866817666
 31
0.0
  0
LINE
  5
85
330
2
100
AcDbEntity
  8
0
100
AcDbLine
 10
45.93224309596066
 20
27.53901866817666
 30
0.0
 11
45.93224309596066
 21
27.53870165111266
 31
0.0
  0
LINE
  5
86
330
2
100
AcDbEntity
  8
0
100
AcDbLine
 10
45.93224309596066
 20
27.53870165111266
 30
0.0
 11
45.93224309596066
 21
27.53743358285671
 31
0.0
  0
LINE
  5
87
330
2
100
AcDbEntity
  8
0
100
AcDbLine
 10
45.93224309596066
 20
27.53743358285671
 30
0.0
 11
45.93192607889667
 21
27.53711656579272
 31
0.0
  0
LINE
  5
88
330
2
100
AcDbEntity
  8
0
100
AcDbLine
 10
45.93192607889667
 20
27.53711656579272
 30
0.0
 11
45.93192607889667
 21
27.53648253166475
 31
0.0
  0
LINE
  5
89
330
2
100
AcDbEntity
  8
0
100
AcDbLine
 10
45.93192607889667
 20
27.53648253166475
 30
0.0
 11
45.93192607889667
 21
27.53553148047279
 31
0.0
  0
LINE
  5
8A
330
2
100
AcDbEntity
  8
0
100
AcDbLine
 10
45.93192607889667
 20
27.53553148047279
 30
0.0
 11
45.93192607889667
 21
27.53489744634477
 31
0.0
  0
LINE
  5
8B
330
2
100
AcDbEntity
  8
0
100
AcDbLine
 10
45.93192607889667
 20
27.53489744634477
 30
0.0
 11
45.93192607889667
 21
27.53458042928078
 31
0.0
  0
LINE
  5
8C
330
2
100
AcDbEntity
  8
0
100
AcDbLine
 10
45.93192607889667
 20
27.53458042928078
 30
0.0
 11
45.93192607889667
 21
27.53362937808882
 31
0.0
  0
LINE
  5
8D
330
2
100
AcDbEntity
  8
0
100
AcDbLine
 10
45.93192607889667
 20
27.53362937808882
 30
0.0
 11
45.93192607889667
 21
27.53299534396084
 31
0.0
  0
LINE
  5
8E
330
2
100
AcDbEntity
  8
0
100
AcDbLine
 10
45.93192607889667
 20
27.53299534396084
 30
0.0
 11
45.93192607889667
 21
27.53267832689685
 31
0.0
  0
LINE
  5
8F
330
2
100
AcDbEntity
  8
0
100
AcDbLine
 10
45.93192607889667
 20
27.53267832689685
 30
0.0
 11
45.93192607889667
 21
27.5314102586409
 31
0.0
  0
LINE
  5
90
330
2
100
AcDbEntity
  8
0
100
AcDbLine
 10
45.93192607889667
 20
27.5314102586409
 30
0.0
 11
45.93224309596066
 21
27.53109324157691
 31
0.0
  0
LINE
  5
91
330
2
100
AcDbEntity
  8
0
100
AcDbLine
 10
45.93224309596066
 20
27.53109324157691
 30
0.0
 11
45.93224309596066
 21
27.52982517332092
 31
0.0
  0
LINE
  5
92
330
2
100
AcDbEntity
  8
0
100
AcDbLine
 10
45.93224309596066
 20
27.52982517332092
 30
0.0
 11
45.93224309596066
 21
27.52950815625693
 31
0.0
  0
LINE
  5
93
330
2
100
AcDbEntity
  8
0
100
AcDbLine
 10
45.93224309596066
 20
27.52950815625693
 30
0.0
 11
45.93224309596066
 21
27.52887412212896
 31
0.0
  0
LINE
  5
94
330
2
100
AcDbEntity
  8
0
100
AcDbLine
 10
45.93224309596066
 20
27.52887412212896
 30
0.0
 11
45.93224309596066
 21
27.52792307093699
 31
0.0
  0
LINE
  5
95
330
2
100
AcDbEntity
  8
0
100
AcDbLine
 10
45.93224309596066
 20
27.52792307093699
 30
0.0
 11
45.93224309596066
 21
27.52760605387301
 31
0.0
  0
LINE
  5
96
330
2
100
AcDbEntity
  8
0
100
AcDbLine
 10
45.93224309596066
 20
27.52760605387301
 30
0.0
 11
45.93224309596066
 21
27.52697201974503
 31
0.0
  0
LINE
  5
97
330
2
100
AcDbEntity
  8
0
100
AcDbLine
 10
45.93224309596066
 20
27.52697201974503
 30
0.0
 11
45.93224309596066
 21
27.52602096855303
 31
0.0
  0
LINE
  5
98
330
2
100
AcDbEntity
  8
0
100
AcDbLine
 10
45.93224309596066
 20
27.52602096855303
 30
0.0
 11
45.93224309596066
 21
27.52538693442505
 31
0.0
  0
LINE
  5
99
330
2
100
AcDbEntity
  8
0
100
AcDbLine
 10
45.93224309596066
 20
27.52538693442505
 30
0.0
 11
45.93224309596066
 21
27.52443588323309
 31
0.0
  0
LINE
  5
9A
330
2
100
AcDbEntity
  8
0
100
AcDbLine
 10
45.93224309596066
 20
27.52443588323309
 30
0.0
 11
45.93224309596066
 21
27.52380184910511
 31
0.0
  0
LINE
  5
9B
330
2
100
AcDbEntity
  8
0
100
AcDbLine
 10
45.93224309596066
 20
27.52380184910511
 30
0.0
 11
45.93256011302464
 21
27.52348483204113
 31
0.0
  0
LINE
  5
9C
330
2
100
AcDbEntity
  8
0
100
AcDbLine
 10
45.93256011302464
 20
27.52348483204113
 30
0.0
 11
45.93256011302464
 21
27.52221676378517
 31
0.0
  0
LINE
  5
9D
330
2
100
AcDbEntity
  8
0
100
AcDbLine
 10
45.93256011302464
 20
27.52221676378517
 30
0.0
 11
45.93256011302464
 21
27.52189974672115
 31
0.0
  0
LINE
  5
9E
330
2
100
AcDbEntity
  8
0
100
AcDbLine
 10
45.93256011302464
 20
27.52189974672115
 30
0.0
 11
45.93256011302464
 21
27.52094869552918
 31
0.0
  0
LINE
  5
9F
330
2
100
AcDbEntity
  8
0
100
AcDbLine
 10
45.93256011302464
 20
27.52094869552918
 30
0.0
 11
45.93256011302464
 21
27.52031466140121
 31
0.0
  0
LINE
  5
A0
330
2
100
AcDbEntity
  8
0
100
AcDbLine
 10
45.93256011302464
 20
27.52031466140121
 30
0.0
 11
45.93256011302464
 21
27.51936361020924
 31
0.0
  0
LINE
  5
A1
330
2
100
AcDbEntity
  8
0
100
AcDbLine
 10
45.93256011302464
 20
27.51936361020924
 30
0.0
 11
45.93351116421663
 21
27.51872957608127
 31
0.0
  0
LINE
  5
A2
330
2
100
AcDbEntity
  8
0
100
AcDbLine
 10
45.93351116421663
 20
27.51872957608127
 30
0.0
 11
45.93351116421663
 21
27.51841255901728
 31
0.0
  0
LINE
  5
A3
330
2
100
AcDbEntity
  8
0
100
AcDbLine
 10
45.93351116421663
 20
27.51841255901728
 30
0.0
 11
45.93351116421663
 21
27.51746150782527
 31
0.0
  0
LINE
  5
A4
330
2
100
AcDbEntity
  8
0
100
AcDbLine
 10
45.93351116421663
 20
27.51746150782527
 30
0.0
 11
45.93351116421663
 21
27.5168274736973
 31
0.0
  0
LINE
  5
A5
330
2
100
AcDbEntity
  8
0
100
AcDbLine
 10
45.93351116421663
 20
27.5168274736973
 30
0.0
 11
45.93382818128062
 21
27.51587642250533
 31
0.0
  0
LINE
  5
A6
330
2
100
AcDbEntity
  8
0
100
AcDbLine
 10
45.93382818128062
 20
27.51587642250533
 30
0.0
 11
45.93382818128062
 21
27.51524238837736
 31
0.0
  0
LINE
  5
A7
330
2
100
AcDbEntity
  8
0
100
AcDbLine
 10
45.93382818128062
 20
27.51524238837736
 30
0.0
 11
45.93382818128062
 21
27.5142913371854
 31
0.0
  0
LINE
  5
A8
330
2
100
AcDbEntity
  8
0
100
AcDbLine
 10
45.93382818128062
 20
27.5142913371854
 30
0.0
 11
45.93382818128062
 21
27.51397432012141
 31
0.0
  0
LINE
  5
A9
330
2
100
AcDbEntity
  8
0
100
AcDbLine
 10
45.93382818128062
 20
27.51397432012141
 30
0.0
 11
45.93446221540859
 21
27.51270625186541
 31
0.0
  0
LINE
  5
AA
330
2
100
AcDbEntity
  8
0
100
AcDbLine
 10
45.93446221540859
 20
27.51270625186541
 30
0.0
 11
45.93446221540859
 21
27.51238923480143
 31
0.0
  0
LINE
  5
AB
330
2
100
AcDbEntity
  8
0
100
AcDbLine
 10
45.93446221540859
 20
27.51238923480143
 30
0.0
 11
45.93446221540859
 21
27.51175520067345
 31
0.0
  0
LINE
  5
AC
330
2
100
AcDbEntity
  8
0
100
AcDbLine
 10
45.93446221540859
 20
27.51175520067345
 30
0.0
 11
45.93477923247259
 21
27.51080414948149
 31
0.0
  0
LINE
  5
AD
330
2
100
AcDbEntity
  8
0
100
AcDbLine
 10
45.93477923247259
 20
27.51080414948149
 30
0.0
 11
45.93477923247259
 21
27.51017011535351
 31
0.0
  0
LINE
  5
AE
330
2
100
AcDbEntity
  8
0
100
AcDbLine
 10
45.93477923247259
 20
27.51017011535351
 30
0.0
 11
45.93477923247259
 21
27.50921906416154
 31
0.0
  0
LINE
  5
AF
330
2
100
AcDbEntity
  8
0
100
AcDbLine
 10
45.93477923247259
 20
27.50921906416154
 30
0.0
 11
45.93477923247259
 21
27.50858503003353
 31
0.0
  0
LINE
  5
B0
330
2
100
AcDbEntity
  8
0
100
AcDbLine
 10
45.93477923247259
 20
27.50858503003353
 30
0.0
 11
45.93573028366456
 21
27.50763397884157
 31
0.0
  0
LINE
  5
B1
330
2
100
AcDbEntity
  8
0
100
AcDbLine
 10
45.93573028366456
 20
27.50763397884157
 30
0.0
 11
45.93573028366456
 21
27.50731696177758
 31
0.0
  0
LINE
  5
B2
330
2
100
AcDbEntity
  8
0
100
AcDbLine
 10
45.93573028366456
 20
27.50731696177758
 30
0.0
 11
45.93604730072855
 21
27.50636591058562
 31
0.0
  0
LINE
  5
B3
330
2
100
AcDbEntity
  8
0
100
AcDbLine
 10
45.93604730072855
 20
27.50636591058562
 30
0.0
 11
45.93604730072855
 21
27.50573187645764
 31
0.0
  0
LINE
  5
B4
330
2
100
AcDbEntity
  8
0
100
AcDbLine
 10
45.93604730072855
 20
27.50573187645764
 30
0.0
 11
45.93604730072855
 21
27.50478082526564
 31
0.0
  0
LINE
  5
B5
330
2
100
AcDbEntity
  8
0
100
AcDbLine
 10
45.93604730072855
 20
27.50478082526564
 30
0.0
 11
45.93636431779255
 21
27.50414679113766
 31
0.0
  0
LINE
  5
B6
330
2
100
AcDbEntity
  8
0
100
AcDbLine
 10
45.93636431779255
 20
27.50414679113766
 30
0.0
 11
45.93636431779255
 21
27.5031957399457
 31
0.0
  0
LINE
  5
B7
330
2
100
AcDbEntity
  8
0
100
AcDbLine
 10
45.93636431779255
 20
27.5031957399457
 30
0.0
 11
45.93636431779255
 21
27.50256170581772
 31
0.0
  0
LINE
  5
B8
330
2
100
AcDbEntity
  8
0
100
AcDbLine
 10
45.93636431779255
 20
27.50256170581772
 30
0.0
 11
45.93699835192052
 21
27.50161065462576
 31
0.0
  0
LINE
  5
B9
330
2
100
AcDbEntity
  8
0
100
AcDbLine
 10
45.93699835192052
 20
27.50161065462576
 30
0.0
 11
45.93699835192052
 21
27.50129363756177
 31
0.0
  0
LINE
  5
BA
330
2
100
AcDbEntity
  8
0
100
AcDbLine
 10
45.93699835192052
 20
27.50129363756177
 30
0.0
 11
45.93763238604849
 21
27.50002556930578
 31
0.0
  0
LINE
  5
BB
330
2
100
AcDbEntity
  8
0
100
AcDbLine
 10
45.93763238604849
 20
27.50002556930578
 30
0.0
 11
45.93763238604849
 21
27.49970855224179
 31
0.0
  0
LINE
  5
BC
330
2
100
AcDbEntity
  8
0
100
AcDbLine
 10
45.93763238604849
 20
27.49970855224179
 30
0.0
 11
45.93794940311251
 21
27.49875750104982
 31
0.0
  0
LINE
  5
BD
330
2
100
AcDbEntity
  8
0
100
AcDbLine
 10
45.93794940311251
 20
27.49875750104982
 30
0.0
 11
45.93794940311251
 21
27.49812346692185
 31
0.0
  0
LINE
  5
BE
330
2
100
AcDbEntity
  8
0
100
AcDbLine
 10
45.93794940311251
 20
27.49812346692185
 30
0.0
 11
45.93826642017648
 21
27.49717241572989
 31
0.0
  0
LINE
  5
BF
330
2
100
AcDbEntity
  8
0
100
AcDbLine
 10
45.93826642017648
 20
27.49717241572989
 30
0.0
 11
45.93826642017648
 21
27.49653838160191
 31
0.0
  0
LINE
  5
C0
330
2
100
AcDbEntity
  8
0
100
AcDbLine
 10
45.93826642017648
 20
27.49653838160191
 30
0.0
 11
45.93826642017648
 21
27.4955873304099
 31
0.0
  0
LINE
  5
C1
330
2
100
AcDbEntity
  8
0
100
AcDbLine
 10
45.93826642017648
 20
27.4955873304099
 30
0.0
 11
45.93921747136845
 21
27.49495329628193
 31
0.0
  0
LINE
  5
C2
330
2
100
AcDbEntity
  8
0
100
AcDbLine
 10
45.93921747136845
 20
27.49495329628193
 30
0.0
 11
45.93921747136845
 21
27.49431926215395
 31
0.0
  0
LINE
  5
C3
330
2
100
AcDbEntity
  8
0
100
AcDbLine
 10
45.93921747136845
 20
27.49431926215395
 30
0.0
 11
45.93953448843244
 21
27.49368522802598
 31
0.0
  0
LINE
  5
C4
330
2
100
AcDbEntity
  8
0
100
AcDbLine
 10
45.93953448843244
 20
27.49368522802598
 30
0.0
 11
45.93953448843244
 21
27.49273417683401
 31
0.0
  0
LINE
  5
C5
330
2
100
AcDbEntity
  8
0
100
AcDbLine
 10
45.93953448843244
 20
27.49273417683401
 30
0.0
 11
45.94016852256044
 21
27.49210014270604
 31
0.0
  0
LINE
  5
C6
330
2
100
AcDbEntity
  8
0
100
AcDbLine
 10
45.94016852256044
 20
27.49210014270604
 30
0.0
 11
45.94048553962442
 21
27.49114909151403
 31
0.0
  0
LINE
  5
C7
330
2
100
AcDbEntity
  8
0
100
AcDbLine
 10
45.94048553962442
 20
27.49114909151403
 30
0.0
 11
45.94048553962442
 21
27.49051505738606
 31
0.0
  0
LINE
  5
C8
330
2
100
AcDbEntity
  8
0
100
AcDbLine
 10
45.94048553962442
 20
27.49051505738606
 30
0.0
 11
45.9411195737524
 21
27.48956400619409
 31
0.0
  0
LINE
  5
C9
330
2
100
AcDbEntity
  8
0
100
AcDbLine
 10
45.9411195737524
 20
27.48956400619409
 30
0.0
 11
45.9411195737524
 21
27.48892997206612
 31
0.0
  0
LINE
  5
CA
330
2
100
AcDbEntity
  8
0
100
AcDbLine
 10
45.9411195737524
 20
27.48892997206612
 30
0.0
 11
45.94143659081638
 21
27.48861295500213
 31
0.0
  0
LINE
  5
CB
330
2
100
AcDbEntity
  8
0
100
AcDbLine
 10
45.94143659081638
 20
27.48861295500213
 30
0.0
 11
45.94143659081638
 21
27.48766190381017
 31
0.0
  0
LINE
  5
CC
330
2
100
AcDbEntity
  8
0
100
AcDbLine
 10
45.94143659081638
 20
27.48766190381017
 30
0.0
 11
45.94175360788038
 21
27.48702786968215
 31
0.0
  0
LINE
  5
CD
330
2
100
AcDbEntity
  8
0
100
AcDbLine
 10
45.94175360788038
 20
27.48702786968215
 30
0.0
 11
45.94238764200837
 21
27.48607681849019
 31
0.0
  0
LINE
  5
CE
330
2
100
AcDbEntity
  8
0
100
AcDbLine
 10
45.94238764200837
 20
27.48607681849019
 30
0.0
 11
45.94238764200837
 21
27.48544278436221
 31
0.0
  0
LINE
  5
CF
330
2
100
AcDbEntity
  8
0
100
AcDbLine
 10
45.94238764200837
 20
27.48544278436221
 30
0.0
 11
45.94302167613634
 21
27.48449173317025
 31
0.0
  0
LINE
  5
D0
330
2
100
AcDbEntity
  8
0
100
AcDbLine
 10
45.94302167613634
 20
27.48449173317025
 30
0.0
 11
45.94302167613634
 21
27.48385769904227
 31
0.0
  0
LINE
  5
D1
330
2
100
AcDbEntity
  8
0
100
AcDbLine
 10
45.94302167613634
 20
27.48385769904227
 30
0.0
 11
45.94333869320034
 21
27.48290664785027
 31
0.0
  0
LINE
  5
D2
330
2
100
AcDbEntity
  8
0
100
AcDbLine
 10
45.94333869320034
 20
27.48290664785027
 30
0.0
 11
45.94365571026432
 21
27.48227261372229
 31
0.0
  0
LINE
  5
D3
330
2
100
AcDbEntity
  8
0
100
AcDbLine
 10
45.94365571026432
 20
27.48227261372229
 30
0.0
 11
45.94365571026432
 21
27.48163857959432
 31
0.0
  0
LINE
  5
D4
330
2
100
AcDbEntity
  8
0
100
AcDbLine
 10
45.94365571026432
 20
27.48163857959432
 30
0.0
 11
45.9446067614563
 21
27.48100454546634
 31
0.0
  0
LINE
  5
D5
330
2
100
AcDbEntity
  8
0
100
AcDbLine
 10
45.9446067614563
 20
27.48100454546634
 30
0.0
 11
45.9449237785203
 21
27.48005349427438
 31
0.0
  0
LINE
  5
D6
330
2
100
AcDbEntity
  8
0
100
AcDbLine
 10
45.9449237785203
 20
27.48005349427438
 30
0.0
 11
45.9449237785203
 21
27.4794194601464
 31
0.0
  0
LINE
  5
D7
330
2
100
AcDbEntity
  8
0
100
AcDbLine
 10
45.9449237785203
 20
27.4794194601464
 30
0.0
 11
45.94555781264827
 21
27.4784684089544
 31
0.0
  0
LINE
  5
D8
330
2
100
AcDbEntity
  8
0
100
AcDbLine
 10
45.94555781264827
 20
27.4784684089544
 30
0.0
 11
45.94587482971226
 21
27.47783437482642
 31
0.0
  0
LINE
  5
D9
330
2
100
AcDbEntity
  8
0
100
AcDbLine
 10
45.94587482971226
 20
27.47783437482642
 30
0.0
 11
45.94587482971226
 21
27.47688332363446
 31
0.0
  0
LINE
  5
DA
330
2
100
AcDbEntity
  8
0
100
AcDbLine
 10
45.94587482971226
 20
27.47688332363446
 30
0.0
 11
45.94650886384026
 21
27.47656630657047
 31
0.0
  0
LINE
  5
DB
330
2
100
AcDbEntity
  8
0
100
AcDbLine
 10
45.94650886384026
 20
27.47656630657047
 30
0.0
 11
45.94714289796823
 21
27.47529823831452
 31
0.0
  0
LINE
  5
DC
330
2
100
AcDbEntity
  8
0
100
AcDbLine
 10
45.94714289796823
 20
27.47529823831452
 30
0.0
 11
45.94714289796823
 21
27.47498122125053
 31
0.0
  0
LINE
  5
DD
330
2
100
AcDbEntity
  8
0
100
AcDbLine
 10
45.94714289796823
 20
27.47498122125053
 30
0.0
 11
45.94745991503222
 21
27.47403017005853
 31
0.0
  0
LINE
  5
DE
330
2
100
AcDbEntity
  8
0
100
AcDbLine
 10
45.94745991503222
 20
27.47403017005853
 30
0.0
 11
45.94809394916019
 21
27.47339613593055
 31
0.0
  0
LINE
  5
DF
330
2
100
AcDbEntity
  8
0
100
AcDbLine
 10
45.94809394916019
 20
27.47339613593055
 30
0.0
 11
45.94809394916019
 21
27.47244508473859
 31
0.0
  0
LINE
  5
E0
330
2
100
AcDbEntity
  8
0
100
AcDbLine
 10
45.94809394916019
 20
27.47244508473859
 30
0.0
 11
45.94872798328819
 21
27.47181105061061
 31
0.0
  0
LINE
  5
E1
330
2
100
AcDbEntity
  8
0
100
AcDbLine
 10
45.94872798328819
 20
27.47181105061061
 30
0.0
 11
45.94904500035218
 21
27.47117701648264
 31
0.0
  0
LINE
  5
E2
330
2
100
AcDbEntity
  8
0
100
AcDbLine
 10
45.94904500035218
 20
27.47117701648264
 30
0.0
 11
45.94936201741616
 21
27.47022596529063
 31
0.0
  0
LINE
  5
E3
330
2
100
AcDbEntity
  8
0
100
AcDbLine
 10
45.94936201741616
 20
27.47022596529063
 30
0.0
 11
45.94936201741616
 21
27.46990894822664
 31
0.0
  0
LINE
  5
E4
330
2
100
AcDbEntity
  8
0
100
AcDbLine
 10
45.94936201741616
 20
27.46990894822664
 30
0.0
 11
45.94999605154414
 21
27.46895789703468
 31
0.0
  0
LINE
  5
E5
330
2
100
AcDbEntity
  8
0
100
AcDbLine
 10
45.94999605154414
 20
27.46895789703468
 30
0.0
 11
45.95063008567214
 21
27.4683238629067
 31
0.0
  0
LINE
  5
E6
330
2
100
AcDbEntity
  8
0
100
AcDbLine
 10
45.95063008567214
 20
27.4683238629067
 30
0.0
 11
45.95126411980011
 21
27.46737281171474
 31
0.0
  0
LINE
  5
E7
330
2
100
AcDbEntity
  8
0
100
AcDbLine
 10
45.95126411980011
 20
27.46737281171474
 30
0.0
 11
45.95158113686411
 21
27.46673877758677
 31
0.0
  0
LINE
  5
E8
330
2
100
AcDbEntity
  8
0
100
AcDbLine
 10
45.95158113686411
 20
27.46673877758677
 30
0.0
 11
45.95158113686411
 21
27.46578772639476
 31
0.0
  0
LINE
  5
E9
330
2
100
AcDbEntity
  8
0
100
AcDbLine
 10
45.95158113686411
 20
27.46578772639476
 30
0.0
 11
45.95221517099207
 21
27.46547070933078
 31
0.0
  0
LINE
  5
EA
330
2
100
AcDbEntity
  8
0
100
AcDbLine
 10
45.95221517099207
 20
27.46547070933078
 30
0.0
 11
45.95284920512007
 21
27.4648366752028
 31
0.0
  0
LINE
  5
EB
330
2
100
AcDbEntity
  8
0
100
AcDbLine
 10
45.95284920512007
 20
27.4648366752028
 30
0.0
 11
45.95316622218406
 21
27.46388562401083
 31
0.0
  0
LINE
  5
EC
330
2
100
AcDbEntity
  8
0
100
AcDbLine
 10
45.99640734971238
 20
27.78489710300802
 30
0.0
 11
45.93458902223416
 21
27.55410868042265
 31
0.0
  0
LINE
  5
ED
330
2
100
AcDbEntity
  8
0
100
AcDbLine
 10
46.07131848193342
 20
28.0443121664717
 30
0.0
 11
48.46860151983243
 21
26.66053268215152
 31
0.0
  0
LINE
  5
EE
330
2
100
AcDbEntity
  8
0
100
AcDbLine
 10
48.60063912698464
 20
26.01495913304052
 30
0.0
 11
48.46876002836445
 21
26.66040587532594
 31
0.0
  0
LINE
  5
EF
330
2
100
AcDbEntity
  8
0
100
AcDbLine
 10
48.58206192703478
 20
25.94610302674173
 30
0.0
 11
48.58269596116276
 21
25.94642004380571
 31
0.0
  0
LINE
  5
F0
330
2
100
AcDbEntity
  8
0
100
AcDbLine
 10
48.58269596116276
 20
25.94642004380571
 30
0.0
 11
48.58301297822674
 21
25.94642004380571
 31
0.0
  0
LINE
  5
F1
330
2
100
AcDbEntity
  8
0
100
AcDbLine
 10
48.58301297822674
 20
25.94642004380571
 30
0.0
 11
48.58332999529076
 21
25.94705407793369
 31
0.0
  0
LINE
  5
F2
330
2
100
AcDbEntity
  8
0
100
AcDbLine
 10
48.58332999529076
 20
25.94705407793369
 30
0.0
 11
48.58396402941873
 21
25.94705407793369
 31
0.0
  0
LINE
  5
F3
330
2
100
AcDbEntity
  8
0
100
AcDbLine
 10
48.58396402941873
 20
25.94705407793369
 30
0.0
 11
48.58396402941873
 21
25.94768811206166
 31
0.0
  0
LINE
  5
F4
330
2
100
AcDbEntity
  8
0
100
AcDbLine
 10
48.58396402941873
 20
25.94768811206166
 30
0.0
 11
48.5845980635467
 21
25.94768811206166
 31
0.0
  0
LINE
  5
F5
330
2
100
AcDbEntity
  8
0
100
AcDbLine
 10
48.5845980635467
 20
25.94768811206166
 30
0.0
 11
48.58523209767469
 21
25.94800512912565
 31
0.0
  0
LINE
  5
F6
330
2
100
AcDbEntity
  8
0
100
AcDbLine
 10
48.58523209767469
 20
25.94800512912565
 30
0.0
 11
48.5855491147387
 21
25.94800512912565
 31
0.0
  0
LINE
  5
F7
330
2
100
AcDbEntity
  8
0
100
AcDbLine
 10
48.5855491147387
 20
25.94800512912565
 30
0.0
 11
48.58618314886666
 21
25.94863916325367
 31
0.0
  0
LINE
  5
F8
330
2
100
AcDbEntity
  8
0
100
AcDbLine
 10
48.58618314886666
 20
25.94863916325367
 30
0.0
 11
48.58681718299465
 21
25.94895618031765
 31
0.0
  0
LINE
  5
F9
330
2
100
AcDbEntity
  8
0
100
AcDbLine
 10
48.58681718299465
 20
25.94895618031765
 30
0.0
 11
48.58713420005863
 21
25.94959021444563
 31
0.0
  0
LINE
  5
FA
330
2
100
AcDbEntity
  8
0
100
AcDbLine
 10
48.58713420005863
 20
25.94959021444563
 30
0.0
 11
48.58776823418662
 21
25.95022424857361
 31
0.0
  0
LINE
  5
FB
330
2
100
AcDbEntity
  8
0
100
AcDbLine
 10
48.58776823418662
 20
25.95022424857361
 30
0.0
 11
48.5884022683146
 21
25.95022424857361
 31
0.0
  0
LINE
  5
FC
330
2
100
AcDbEntity
  8
0
100
AcDbLine
 10
48.5884022683146
 20
25.95022424857361
 30
0.0
 11
48.58871928537859
 21
25.9505412656376
 31
0.0
  0
LINE
  5
FD
330
2
100
AcDbEntity
  8
0
100
AcDbLine
 10
48.58871928537859
 20
25.9505412656376
 30
0.0
 11
48.58871928537859
 21
25.95117529976557
 31
0.0
  0
LINE
  5
FE
330
2
100
AcDbEntity
  8
0
100
AcDbLine
 10
48.58871928537859
 20
25.95117529976557
 30
0.0
 11
48.58935331950657
 21
25.95149231682956
 31
0.0
  0
LINE
  5
FF
330
2
100
AcDbEntity
  8
0
100
AcDbLine
 10
48.58935331950657
 20
25.95149231682956
 30
0.0
 11
48.58935331950657
 21
25.95212635095754
 31
0.0
  0
LINE
  5
100
330
2
100
AcDbEntity
  8
0
100
AcDbLine
 10
48.58935331950657
 20
25.95212635095754
 30
0.0
 11
48.58998735363456
 21
25.95212635095754
 31
0.0
  0
LINE
  5
101
330
2
100
AcDbEntity
  8
0
100
AcDbLine
 10
48.58998735363456
 20
25.95212635095754
 30
0.0
 11
48.59062138776254
 21
25.95276038508555
 31
0.0
  0
LINE
  5
102
330
2
100
AcDbEntity
  8
0
100
AcDbLine
 10
48.59062138776254
 20
25.95276038508555
 30
0.0
 11
48.59062138776254
 21
25.95307740214954
 31
0.0
  0
LINE
  5
103
330
2
100
AcDbEntity
  8
0
100
AcDbLine
 10
48.59062138776254
 20
25.95307740214954
 30
0.0
 11
48.59093840482653
 21
25.95371143627752
 31
0.0
  0
LINE
  5
104
330
2
100
AcDbEntity
  8
0
100
AcDbLine
 10
48.59093840482653
 20
25.95371143627752
 30
0.0
 11
48.5915724389545
 21
25.95371143627752
 31
0.0
  0
LINE
  5
105
330
2
100
AcDbEntity
  8
0
100
AcDbLine
 10
48.5915724389545
 20
25.95371143627752
 30
0.0
 11
48.5915724389545
 21
25.9540284533415
 31
0.0
  0
LINE
  5
106
330
2
100
AcDbEntity
  8
0
100
AcDbLine
 10
48.5915724389545
 20
25.9540284533415
 30
0.0
 11
48.5922064730825
 21
25.95466248746948
 31
0.0
  0
LINE
  5
107
330
2
100
AcDbEntity
  8
0
100
AcDbLine
 10
48.5922064730825
 20
25.95466248746948
 30
0.0
 11
48.59252349014649
 21
25.95529652159746
 31
0.0
  0
LINE
  5
108
330
2
100
AcDbEntity
  8
0
100
AcDbLine
 10
48.59252349014649
 20
25.95529652159746
 30
0.0
 11
48.59252349014649
 21
25.95561353866144
 31
0.0
  0
LINE
  5
109
330
2
100
AcDbEntity
  8
0
100
AcDbLine
 10
48.59252349014649
 20
25.95561353866144
 30
0.0
 11
48.59315752427447
 21
25.95561353866144
 31
0.0
  0
LINE
  5
10A
330
2
100
AcDbEntity
  8
0
100
AcDbLine
 10
48.59315752427447
 20
25.95561353866144
 30
0.0
 11
48.59315752427447
 21
25.95624757278942
 31
0.0
  0
LINE
  5
10B
330
2
100
AcDbEntity
  8
0
100
AcDbLine
 10
48.59315752427447
 20
25.95624757278942
 30
0.0
 11
48.59379155840244
 21
25.9565645898534
 31
0.0
  0
LINE
  5
10C
330
2
100
AcDbEntity
  8
0
100
AcDbLine
 10
48.59379155840244
 20
25.9565645898534
 30
0.0
 11
48.59379155840244
 21
25.95719862398142
 31
0.0
  0
LINE
  5
10D
330
2
100
AcDbEntity
  8
0
100
AcDbLine
 10
48.59379155840244
 20
25.95719862398142
 30
0.0
 11
48.59410857546645
 21
25.9578326581094
 31
0.0
  0
LINE
  5
10E
330
2
100
AcDbEntity
  8
0
100
AcDbLine
 10
48.59410857546645
 20
25.9578326581094
 30
0.0
 11
48.59442559253043
 21
25.9578326581094
 31
0.0
  0
LINE
  5
10F
330
2
100
AcDbEntity
  8
0
100
AcDbLine
 10
48.59442559253043
 20
25.9578326581094
 30
0.0
 11
48.59442559253043
 21
25.95814967517338
 31
0.0
  0
LINE
  5
110
330
2
100
AcDbEntity
  8
0
100
AcDbLine
 10
48.59442559253043
 20
25.95814967517338
 30
0.0
 11
48.59505962665841
 21
25.95878370930136
 31
0.0
  0
LINE
  5
111
330
2
100
AcDbEntity
  8
0
100
AcDbLine
 10
48.59505962665841
 20
25.95878370930136
 30
0.0
 11
48.59505962665841
 21
25.95941774342934
 31
0.0
  0
LINE
  5
112
330
2
100
AcDbEntity
  8
0
100
AcDbLine
 10
48.59505962665841
 20
25.95941774342934
 30
0.0
 11
48.59569366078638
 21
25.95973476049332
 31
0.0
  0
LINE
  5
113
330
2
100
AcDbEntity
  8
0
100
AcDbLine
 10
48.59569366078638
 20
25.95973476049332
 30
0.0
 11
48.59569366078638
 21
25.96005177755731
 31
0.0
  0
LINE
  5
114
330
2
100
AcDbEntity
  8
0
100
AcDbLine
 10
48.59569366078638
 20
25.96005177755731
 30
0.0
 11
48.59632769491438
 21
25.96068581168529
 31
0.0
  0
LINE
  5
115
330
2
100
AcDbEntity
  8
0
100
AcDbLine
 10
48.59632769491438
 20
25.96068581168529
 30
0.0
 11
48.59632769491438
 21
25.96100282874928
 31
0.0
  0
LINE
  5
116
330
2
100
AcDbEntity
  8
0
100
AcDbLine
 10
48.59632769491438
 20
25.96100282874928
 30
0.0
 11
48.59664471197837
 21
25.96163686287729
 31
0.0
  0
LINE
  5
117
330
2
100
AcDbEntity
  8
0
100
AcDbLine
 10
48.59664471197837
 20
25.96163686287729
 30
0.0
 11
48.59664471197837
 21
25.96227089700527
 31
0.0
  0
LINE
  5
118
330
2
100
AcDbEntity
  8
0
100
AcDbLine
 10
48.59664471197837
 20
25.96227089700527
 30
0.0
 11
48.59727874610634
 21
25.96227089700527
 31
0.0
  0
LINE
  5
119
330
2
100
AcDbEntity
  8
0
100
AcDbLine
 10
48.59727874610634
 20
25.96227089700527
 30
0.0
 11
48.59727874610634
 21
25.96258791406926
 31
0.0
  0
LINE
  5
11A
330
2
100
AcDbEntity
  8
0
100
AcDbLine
 10
48.59727874610634
 20
25.96258791406926
 30
0.0
 11
48.59759576317033
 21
25.96322194819723
 31
0.0
  0
LINE
  5
11B
330
2
100
AcDbEntity
  8
0
100
AcDbLine
 10
48.59759576317033
 20
25.96322194819723
 30
0.0
 11
48.59759576317033
 21
25.96385598232521
 31
0.0
  0
LINE
  5
11C
330
2
100
AcDbEntity
  8
0
100
AcDbLine
 10
48.59759576317033
 20
25.96385598232521
 30
0.0
 11
48.59822979729833
 21
25.9641729993892
 31
0.0
  0
LINE
  5
11D
330
2
100
AcDbEntity
  8
0
100
AcDbLine
 10
48.59822979729833
 20
25.9641729993892
 30
0.0
 11
48.59822979729833
 21
25.96480703351717
 31
0.0
  0
LINE
  5
11E
330
2
100
AcDbEntity
  8
0
100
AcDbLine
 10
48.59822979729833
 20
25.96480703351717
 30
0.0
 11
48.59822979729833
 21
25.96544106764519
 31
0.0
  0
LINE
  5
11F
330
2
100
AcDbEntity
  8
0
100
AcDbLine
 10
48.59822979729833
 20
25.96544106764519
 30
0.0
 11
48.5988638314263
 21
25.96575808470918
 31
0.0
  0
LINE
  5
120
330
2
100
AcDbEntity
  8
0
100
AcDbLine
 10
48.5988638314263
 20
25.96575808470918
 30
0.0
 11
48.5988638314263
 21
25.96639211883716
 31
0.0
  0
LINE
  5
121
330
2
100
AcDbEntity
  8
0
100
AcDbLine
 10
48.5988638314263
 20
25.96639211883716
 30
0.0
 11
48.59949786555429
 21
25.96670913590114
 31
0.0
  0
LINE
  5
122
330
2
100
AcDbEntity
  8
0
100
AcDbLine
 10
48.59949786555429
 20
25.96670913590114
 30
0.0
 11
48.59949786555429
 21
25.96734317002912
 31
0.0
  0
LINE
  5
123
330
2
100
AcDbEntity
  8
0
100
AcDbLine
 10
48.59949786555429
 20
25.96734317002912
 30
0.0
 11
48.59949786555429
 21
25.9676601870931
 31
0.0
  0
LINE
  5
124
330
2
100
AcDbEntity
  8
0
100
AcDbLine
 10
48.59949786555429
 20
25.9676601870931
 30
0.0
 11
48.59981488261826
 21
25.96861123828507
 31
0.0
  0
LINE
  5
125
330
2
100
AcDbEntity
  8
0
100
AcDbLine
 10
48.59981488261826
 20
25.96861123828507
 30
0.0
 11
48.59981488261826
 21
25.96924527241304
 31
0.0
  0
LINE
  5
126
330
2
100
AcDbEntity
  8
0
100
AcDbLine
 10
48.59981488261826
 20
25.96924527241304
 30
0.0
 11
48.59981488261826
 21
25.96987930654106
 31
0.0
  0
LINE
  5
127
330
2
100
AcDbEntity
  8
0
100
AcDbLine
 10
48.59981488261826
 20
25.96987930654106
 30
0.0
 11
48.60013189968226
 21
25.97051334066903
 31
0.0
  0
LINE
  5
128
330
2
100
AcDbEntity
  8
0
100
AcDbLine
 10
48.60013189968226
 20
25.97051334066903
 30
0.0
 11
48.60013189968226
 21
25.97083035773302
 31
0.0
  0
LINE
  5
129
330
2
100
AcDbEntity
  8
0
100
AcDbLine
 10
48.60013189968226
 20
25.97083035773302
 30
0.0
 11
48.60013189968226
 21
25.971464391861
 31
0.0
  0
LINE
  5
12A
330
2
100
AcDbEntity
  8
0
100
AcDbLine
 10
48.60013189968226
 20
25.971464391861
 30
0.0
 11
48.60076593381025
 21
25.97178140892499
 31
0.0
  0
LINE
  5
12B
330
2
100
AcDbEntity
  8
0
100
AcDbLine
 10
48.60076593381025
 20
25.97178140892499
 30
0.0
 11
48.60076593381025
 21
25.97241544305296
 31
0.0
  0
LINE
  5
12C
330
2
100
AcDbEntity
  8
0
100
AcDbLine
 10
48.60076593381025
 20
25.97241544305296
 30
0.0
 11
48.60076593381025
 21
25.97273246011695
 31
0.0
  0
LINE
  5
12D
330
2
100
AcDbEntity
  8
0
100
AcDbLine
 10
48.60076593381025
 20
25.97273246011695
 30
0.0
 11
48.60139996793822
 21
25.97336649424493
 31
0.0
  0
LINE
  5
12E
330
2
100
AcDbEntity
  8
0
100
AcDbLine
 10
48.60139996793822
 20
25.97336649424493
 30
0.0
 11
48.60139996793822
 21
25.97431754543693
 31
0.0
  0
LINE
  5
12F
330
2
100
AcDbEntity
  8
0
100
AcDbLine
 10
48.60139996793822
 20
25.97431754543693
 30
0.0
 11
48.60139996793822
 21
25.97495157956491
 31
0.0
  0
LINE
  5
130
330
2
100
AcDbEntity
  8
0
100
AcDbLine
 10
48.60139996793822
 20
25.97495157956491
 30
0.0
 11
48.60139996793822
 21
25.97526859662889
 31
0.0
  0
LINE
  5
131
330
2
100
AcDbEntity
  8
0
100
AcDbLine
 10
48.60139996793822
 20
25.97526859662889
 30
0.0
 11
48.60171698500222
 21
25.97590263075687
 31
0.0
  0
LINE
  5
132
330
2
100
AcDbEntity
  8
0
100
AcDbLine
 10
48.60171698500222
 20
25.97590263075687
 30
0.0
 11
48.60171698500222
 21
25.97653666488485
 31
0.0
  0
LINE
  5
133
330
2
100
AcDbEntity
  8
0
100
AcDbLine
 10
48.60171698500222
 20
25.97653666488485
 30
0.0
 11
48.60171698500222
 21
25.97685368194883
 31
0.0
  0
LINE
  5
134
330
2
100
AcDbEntity
  8
0
100
AcDbLine
 10
48.60171698500222
 20
25.97685368194883
 30
0.0
 11
48.60171698500222
 21
25.9778047331408
 31
0.0
  0
LINE
  5
135
330
2
100
AcDbEntity
  8
0
100
AcDbLine
 10
48.60171698500222
 20
25.9778047331408
 30
0.0
 11
48.60203400206621
 21
25.97843876726881
 31
0.0
  0
LINE
  5
136
330
2
100
AcDbEntity
  8
0
100
AcDbLine
 10
48.60203400206621
 20
25.97843876726881
 30
0.0
 11
48.60203400206621
 21
25.97907280139679
 31
0.0
  0
LINE
  5
137
330
2
100
AcDbEntity
  8
0
100
AcDbLine
 10
48.60203400206621
 20
25.97907280139679
 30
0.0
 11
48.60203400206621
 21
25.97938981846077
 31
0.0
  0
LINE
  5
138
330
2
100
AcDbEntity
  8
0
100
AcDbLine
 10
48.60203400206621
 20
25.97938981846077
 30
0.0
 11
48.60203400206621
 21
25.97970683552476
 31
0.0
  0
LINE
  5
139
330
2
100
AcDbEntity
  8
0
100
AcDbLine
 10
48.60203400206621
 20
25.97970683552476
 30
0.0
 11
48.60203400206621
 21
25.98097490378072
 31
0.0
  0
LINE
  5
13A
330
2
100
AcDbEntity
  8
0
100
AcDbLine
 10
48.60203400206621
 20
25.98097490378072
 30
0.0
 11
48.60203400206621
 21
25.98129192084471
 31
0.0
  0
LINE
  5
13B
330
2
100
AcDbEntity
  8
0
100
AcDbLine
 10
48.60203400206621
 20
25.98129192084471
 30
0.0
 11
48.6026680361942
 21
25.98192595497268
 31
0.0
  0
LINE
  5
13C
330
2
100
AcDbEntity
  8
0
100
AcDbLine
 10
48.6026680361942
 20
25.98192595497268
 30
0.0
 11
48.6026680361942
 21
25.98255998910066
 31
0.0
  0
LINE
  5
13D
330
2
100
AcDbEntity
  8
0
100
AcDbLine
 10
48.6026680361942
 20
25.98255998910066
 30
0.0
 11
48.6026680361942
 21
25.98351104029266
 31
0.0
  0
LINE
  5
13E
330
2
100
AcDbEntity
  8
0
100
AcDbLine
 10
48.6026680361942
 20
25.98351104029266
 30
0.0
 11
48.6026680361942
 21
25.98414507442063
 31
0.0
  0
LINE
  5
13F
330
2
100
AcDbEntity
  8
0
100
AcDbLine
 10
48.6026680361942
 20
25.98414507442063
 30
0.0
 11
48.6026680361942
 21
25.98446209148463
 31
0.0
  0
LINE
  5
140
330
2
100
AcDbEntity
  8
0
100
AcDbLine
 10
48.6026680361942
 20
25.98446209148463
 30
0.0
 11
48.6026680361942
 21
25.9850961256126
 31
0.0
  0
LINE
  5
141
330
2
100
AcDbEntity
  8
0
100
AcDbLine
 10
48.6026680361942
 20
25.9850961256126
 30
0.0
 11
48.6026680361942
 21
25.98573015974058
 31
0.0
  0
LINE
  5
142
330
2
100
AcDbEntity
  8
0
100
AcDbLine
 10
48.6026680361942
 20
25.98573015974058
 30
0.0
 11
48.6026680361942
 21
25.98636419386855
 31
0.0
  0
LINE
  5
143
330
2
100
AcDbEntity
  8
0
100
AcDbLine
 10
48.6026680361942
 20
25.98636419386855
 30
0.0
 11
48.60298505325818
 21
25.98699822799657
 31
0.0
  0
LINE
  5
144
330
2
100
AcDbEntity
  8
0
100
AcDbLine
 10
48.60298505325818
 20
25.98699822799657
 30
0.0
 11
48.60298505325818
 21
25.98763226212454
 31
0.0
  0
LINE
  5
145
330
2
100
AcDbEntity
  8
0
100
AcDbLine
 10
48.60298505325818
 20
25.98763226212454
 30
0.0
 11
48.60298505325818
 21
25.98858331331651
 31
0.0
  0
LINE
  5
146
330
2
100
AcDbEntity
  8
0
100
AcDbLine
 10
48.60298505325818
 20
25.98858331331651
 30
0.0
 11
48.60298505325818
 21
25.98890033038049
 31
0.0
  0
LINE
  5
147
330
2
100
AcDbEntity
  8
0
100
AcDbLine
 10
48.60298505325818
 20
25.98890033038049
 30
0.0
 11
48.60298505325818
 21
25.98953436450847
 31
0.0
  0
LINE
  5
148
330
2
100
AcDbEntity
  8
0
100
AcDbLine
 10
48.60298505325818
 20
25.98953436450847
 30
0.0
 11
48.60298505325818
 21
25.99048541570044
 31
0.0
  0
LINE
  5
149
330
2
100
AcDbEntity
  8
0
100
AcDbLine
 10
48.60298505325818
 20
25.99048541570044
 30
0.0
 11
48.60298505325818
 21
25.99111944982841
 31
0.0
  0
LINE
  5
14A
330
2
100
AcDbEntity
  8
0
100
AcDbLine
 10
48.60298505325818
 20
25.99111944982841
 30
0.0
 11
48.60298505325818
 21
25.99143646689244
 31
0.0
  0
LINE
  5
14B
330
2
100
AcDbEntity
  8
0
100
AcDbLine
 10
48.60298505325818
 20
25.99143646689244
 30
0.0
 11
48.60298505325818
 21
25.9923875180844
 31
0.0
  0
LINE
  5
14C
330
2
100
AcDbEntity
  8
0
100
AcDbLine
 10
48.60298505325818
 20
25.9923875180844
 30
0.0
 11
48.60298505325818
 21
25.99302155221238
 31
0.0
  0
LINE
  5
14D
330
2
100
AcDbEntity
  8
0
100
AcDbLine
 10
48.60298505325818
 20
25.99302155221238
 30
0.0
 11
48.60298505325818
 21
25.99365558634036
 31
0.0
  0
LINE
  5
14E
330
2
100
AcDbEntity
  8
0
100
AcDbLine
 10
48.60298505325818
 20
25.99365558634036
 30
0.0
 11
48.60298505325818
 21
25.99460663753232
 31
0.0
  0
LINE
  5
14F
330
2
100
AcDbEntity
  8
0
100
AcDbLine
 10
48.60298505325818
 20
25.99460663753232
 30
0.0
 11
48.60298505325818
 21
25.99524067166029
 31
0.0
  0
LINE
  5
150
330
2
100
AcDbEntity
  8
0
100
AcDbLine
 10
48.60298505325818
 20
25.99524067166029
 30
0.0
 11
48.60298505325818
 21
25.99555768872432
 31
0.0
  0
LINE
  5
151
330
2
100
AcDbEntity
  8
0
100
AcDbLine
 10
48.60298505325818
 20
25.99555768872432
 30
0.0
 11
48.60298505325818
 21
25.99650873991628
 31
0.0
  0
LINE
  5
152
330
2
100
AcDbEntity
  8
0
100
AcDbLine
 10
48.60298505325818
 20
25.99650873991628
 30
0.0
 11
48.60298505325818
 21
25.99714277404426
 31
0.0
  0
LINE
  5
153
330
2
100
AcDbEntity
  8
0
100
AcDbLine
 10
48.60298505325818
 20
25.99714277404426
 30
0.0
 11
48.60298505325818
 21
25.99745979110825
 31
0.0
  0
LINE
  5
154
330
2
100
AcDbEntity
  8
0
100
AcDbLine
 10
48.60298505325818
 20
25.99745979110825
 30
0.0
 11
48.6026680361942
 21
25.9987278593642
 31
0.0
  0
LINE
  5
155
330
2
100
AcDbEntity
  8
0
100
AcDbLine
 10
48.6026680361942
 20
25.9987278593642
 30
0.0
 11
48.6026680361942
 21
25.99904487642819
 31
0.0
  0
LINE
  5
156
330
2
100
AcDbEntity
  8
0
100
AcDbLine
 10
48.6026680361942
 20
25.99904487642819
 30
0.0
 11
48.6026680361942
 21
25.99999592762019
 31
0.0
  0
LINE
  5
157
330
2
100
AcDbEntity
  8
0
100
AcDbLine
 10
48.6026680361942
 20
25.99999592762019
 30
0.0
 11
48.6026680361942
 21
26.00062996174817
 31
0.0
  0
LINE
  5
158
330
2
100
AcDbEntity
  8
0
100
AcDbLine
 10
48.6026680361942
 20
26.00062996174817
 30
0.0
 11
48.6026680361942
 21
26.00094697881216
 31
0.0
  0
LINE
  5
159
330
2
100
AcDbEntity
  8
0
100
AcDbLine
 10
48.6026680361942
 20
26.00094697881216
 30
0.0
 11
48.6026680361942
 21
26.00221504706811
 31
0.0
  0
LINE
  5
15A
330
2
100
AcDbEntity
  8
0
100
AcDbLine
 10
48.6026680361942
 20
26.00221504706811
 30
0.0
 11
48.6026680361942
 21
26.0025320641321
 31
0.0
  0
LINE
  5
15B
330
2
100
AcDbEntity
  8
0
100
AcDbLine
 10
48.6026680361942
 20
26.0025320641321
 30
0.0
 11
48.6026680361942
 21
26.00348311532406
 31
0.0
  0
LINE
  5
15C
330
2
100
AcDbEntity
  8
0
100
AcDbLine
 10
48.6026680361942
 20
26.00348311532406
 30
0.0
 11
48.60203400206621
 21
26.00411714945208
 31
0.0
  0
LINE
  5
15D
330
2
100
AcDbEntity
  8
0
100
AcDbLine
 10
48.60203400206621
 20
26.00411714945208
 30
0.0
 11
48.60203400206621
 21
26.00475118358005
 31
0.0
  0
LINE
  5
15E
330
2
100
AcDbEntity
  8
0
100
AcDbLine
 10
48.60203400206621
 20
26.00475118358005
 30
0.0
 11
48.60203400206621
 21
26.00570223477201
 31
0.0
  0
LINE
  5
15F
330
2
100
AcDbEntity
  8
0
100
AcDbLine
 10
48.60203400206621
 20
26.00570223477201
 30
0.0
 11
48.60203400206621
 21
26.006019251836
 31
0.0
  0
LINE
  5
160
330
2
100
AcDbEntity
  8
0
100
AcDbLine
 10
48.60203400206621
 20
26.006019251836
 30
0.0
 11
48.60203400206621
 21
26.00728732009196
 31
0.0
  0
LINE
  5
161
330
2
100
AcDbEntity
  8
0
100
AcDbLine
 10
48.60203400206621
 20
26.00728732009196
 30
0.0
 11
48.60203400206621
 21
26.00760433715594
 31
0.0
  0
LINE
  5
162
330
2
100
AcDbEntity
  8
0
100
AcDbLine
 10
48.60203400206621
 20
26.00760433715594
 30
0.0
 11
48.60171698500222
 21
26.00855538834795
 31
0.0
  0
LINE
  5
163
330
2
100
AcDbEntity
  8
0
100
AcDbLine
 10
48.60171698500222
 20
26.00855538834795
 30
0.0
 11
48.60171698500222
 21
26.00918942247592
 31
0.0
  0
LINE
  5
164
330
2
100
AcDbEntity
  8
0
100
AcDbLine
 10
48.60171698500222
 20
26.00918942247592
 30
0.0
 11
48.60171698500222
 21
26.0098234566039
 31
0.0
  0
LINE
  5
165
330
2
100
AcDbEntity
  8
0
100
AcDbLine
 10
48.60171698500222
 20
26.0098234566039
 30
0.0
 11
48.60171698500222
 21
26.01077450779586
 31
0.0
  0
LINE
  5
166
330
2
100
AcDbEntity
  8
0
100
AcDbLine
 10
48.60171698500222
 20
26.01077450779586
 30
0.0
 11
48.60139996793822
 21
26.01140854192383
 31
0.0
  0
LINE
  5
167
330
2
100
AcDbEntity
  8
0
100
AcDbLine
 10
48.60139996793822
 20
26.01140854192383
 30
0.0
 11
48.60139996793822
 21
26.01204257605181
 31
0.0
  0
LINE
  5
168
330
2
100
AcDbEntity
  8
0
100
AcDbLine
 10
48.60139996793822
 20
26.01204257605181
 30
0.0
 11
48.60139996793822
 21
26.01267661017979
 31
0.0
  0
LINE
  5
169
330
2
100
AcDbEntity
  8
0
100
AcDbLine
 10
48.60139996793822
 20
26.01267661017979
 30
0.0
 11
48.60139996793822
 21
26.01362766137179
 31
0.0
  0
LINE
  5
16A
330
2
100
AcDbEntity
  8
0
100
AcDbLine
 10
48.60139996793822
 20
26.01362766137179
 30
0.0
 11
48.60076593381025
 21
26.01426169549977
 31
0.0
  0
LINE
  5
16B
330
2
100
AcDbEntity
  8
0
100
AcDbLine
 10
48.60076593381025
 20
26.01426169549977
 30
0.0
 11
48.60076593381025
 21
26.01521274669173
 31
0.0
  0
LINE
  5
16C
330
2
100
AcDbEntity
  8
0
100
AcDbLine
 10
46.38243902853408
 20
26.75395761090968
 30
0.0
 11
48.18403988285288
 21
25.71410095735138
 31
0.0
  0
LINE
  5
16D
330
2
100
AcDbEntity
  8
0
100
AcDbLine
 10
45.95303941535843
 20
27.46385392230445
 30
0.0
 11
46.33187480682752
 21
26.80731158277933
 31
0.0
  0
LINE
  5
16E
330
2
100
AcDbEntity
  8
0
100
AcDbLine
 10
48.51209626101201
 20
25.90352763504774
 30
0.0
 11
48.58247404921799
 21
25.94600792162252
 31
0.0
  0
LINE
  5
16F
330
2
100
AcDbEntity
  8
0
100
AcDbLine
 10
48.13224641493812
 20
25.68418352847241
 30
0.0
 11
48.5120328575992
 21
25.90355933675409
 31
0.0
  0
LINE
  5
170
330
2
100
AcDbEntity
  8
0
100
AcDbLine
 10
1.79358890722259
 20
1.102227781765801
 30
0.0
 11
46.33226942319287
 21
26.80657098333033
 31
0.0
  0
LINE
  5
171
330
2
100
AcDbEntity
  8
0
100
AcDbLine
 10
1.84677231937167
 20
1.044476053671064
 30
0.0
 11
1.846138285243694
 21
1.044476053671064
 31
0.0
  0
LINE
  5
172
330
2
100
AcDbEntity
  8
0
100
AcDbLine
 10
1.846138285243694
 20
1.044476053671064
 30
0.0
 11
1.845821268179706
 21
1.044793070735072
 31
0.0
  0
LINE
  5
173
330
2
100
AcDbEntity
  8
0
100
AcDbLine
 10
1.845821268179706
 20
1.044793070735072
 30
0.0
 11
1.845504251115718
 21
1.044793070735072
 31
0.0
  0
LINE
  5
174
330
2
100
AcDbEntity
  8
0
100
AcDbLine
 10
1.845504251115718
 20
1.044793070735072
 30
0.0
 11
1.845504251115718
 21
1.04511008779906
 31
0.0
  0
LINE
  5
175
330
2
100
AcDbEntity
  8
0
100
AcDbLine
 10
1.845504251115718
 20
1.04511008779906
 30
0.0
 11
1.844870216987743
 21
1.045427104863048
 31
0.0
  0
LINE
  5
176
330
2
100
AcDbEntity
  8
0
100
AcDbLine
 10
1.844870216987743
 20
1.045427104863048
 30
0.0
 11
1.844236182859747
 21
1.045744121927036
 31
0.0
  0
LINE
  5
177
330
2
100
AcDbEntity
  8
0
100
AcDbLine
 10
1.844236182859747
 20
1.045744121927036
 30
0.0
 11
1.843602148731771
 21
1.046061138991023
 31
0.0
  0
LINE
  5
178
330
2
100
AcDbEntity
  8
0
100
AcDbLine
 10
1.843602148731771
 20
1.046061138991023
 30
0.0
 11
1.843285131667783
 21
1.046378156055011
 31
0.0
  0
LINE
  5
179
330
2
100
AcDbEntity
  8
0
100
AcDbLine
 10
1.843285131667783
 20
1.046378156055011
 30
0.0
 11
1.842651097539807
 21
1.046695173118999
 31
0.0
  0
LINE
  5
17A
330
2
100
AcDbEntity
  8
0
100
AcDbLine
 10
1.842651097539807
 20
1.046695173118999
 30
0.0
 11
1.842651097539807
 21
1.047012190183007
 31
0.0
  0
LINE
  5
17B
330
2
100
AcDbEntity
  8
0
100
AcDbLine
 10
1.842651097539807
 20
1.047012190183007
 30
0.0
 11
1.842017063411811
 21
1.047646224310983
 31
0.0
  0
LINE
  5
17C
330
2
100
AcDbEntity
  8
0
100
AcDbLine
 10
1.842017063411811
 20
1.047646224310983
 30
0.0
 11
1.841383029283836
 21
1.047646224310983
 31
0.0
  0
LINE
  5
17D
330
2
100
AcDbEntity
  8
0
100
AcDbLine
 10
1.841383029283836
 20
1.047646224310983
 30
0.0
 11
1.84074899515586
 21
1.047963241374971
 31
0.0
  0
LINE
  5
17E
330
2
100
AcDbEntity
  8
0
100
AcDbLine
 10
1.84074899515586
 20
1.047963241374971
 30
0.0
 11
1.840431978091872
 21
1.048280258438959
 31
0.0
  0
LINE
  5
17F
330
2
100
AcDbEntity
  8
0
100
AcDbLine
 10
1.840431978091872
 20
1.048280258438959
 30
0.0
 11
1.840114961027864
 21
1.048597275502947
 31
0.0
  0
LINE
  5
180
330
2
100
AcDbEntity
  8
0
100
AcDbLine
 10
1.840114961027864
 20
1.048597275502947
 30
0.0
 11
1.839480926899888
 21
1.048914292566935
 31
0.0
  0
LINE
  5
181
330
2
100
AcDbEntity
  8
0
100
AcDbLine
 10
1.839480926899888
 20
1.048914292566935
 30
0.0
 11
1.839480926899888
 21
1.049231309630943
 31
0.0
  0
LINE
  5
182
330
2
100
AcDbEntity
  8
0
100
AcDbLine
 10
1.839480926899888
 20
1.049231309630943
 30
0.0
 11
1.838846892771912
 21
1.049548326694931
 31
0.0
  0
LINE
  5
183
330
2
100
AcDbEntity
  8
0
100
AcDbLine
 10
1.838846892771912
 20
1.049548326694931
 30
0.0
 11
1.838212858643916
 21
1.049865343758919
 31
0.0
  0
LINE
  5
184
330
2
100
AcDbEntity
  8
0
100
AcDbLine
 10
1.838212858643916
 20
1.049865343758919
 30
0.0
 11
1.837895841579928
 21
1.050182360822907
 31
0.0
  0
LINE
  5
185
330
2
100
AcDbEntity
  8
0
100
AcDbLine
 10
1.837895841579928
 20
1.050182360822907
 30
0.0
 11
1.837261807451952
 21
1.050499377886894
 31
0.0
  0
LINE
  5
186
330
2
100
AcDbEntity
  8
0
100
AcDbLine
 10
1.837261807451952
 20
1.050499377886894
 30
0.0
 11
1.836944790387964
 21
1.050816394950882
 31
0.0
  0
LINE
  5
187
330
2
100
AcDbEntity
  8
0
100
AcDbLine
 10
1.836944790387964
 20
1.050816394950882
 30
0.0
 11
1.836310756259989
 21
1.05113341201487
 31
0.0
  0
LINE
  5
188
330
2
100
AcDbEntity
  8
0
100
AcDbLine
 10
1.836310756259989
 20
1.05113341201487
 30
0.0
 11
1.835676722131993
 21
1.051450429078878
 31
0.0
  0
LINE
  5
189
330
2
100
AcDbEntity
  8
0
100
AcDbLine
 10
1.835676722131993
 20
1.051450429078878
 30
0.0
 11
1.835676722131993
 21
1.051767446142866
 31
0.0
  0
LINE
  5
18A
330
2
100
AcDbEntity
  8
0
100
AcDbLine
 10
1.835676722131993
 20
1.051767446142866
 30
0.0
 11
1.835042688004017
 21
1.052084463206854
 31
0.0
  0
LINE
  5
18B
330
2
100
AcDbEntity
  8
0
100
AcDbLine
 10
1.835042688004017
 20
1.052084463206854
 30
0.0
 11
1.834725670940029
 21
1.052401480270842
 31
0.0
  0
LINE
  5
18C
330
2
100
AcDbEntity
  8
0
100
AcDbLine
 10
1.834725670940029
 20
1.052401480270842
 30
0.0
 11
1.834408653876041
 21
1.05271849733483
 31
0.0
  0
LINE
  5
18D
330
2
100
AcDbEntity
  8
0
100
AcDbLine
 10
1.834408653876041
 20
1.05271849733483
 30
0.0
 11
1.833774619748045
 21
1.053035514398818
 31
0.0
  0
LINE
  5
18E
330
2
100
AcDbEntity
  8
0
100
AcDbLine
 10
1.833774619748045
 20
1.053035514398818
 30
0.0
 11
1.833140585620069
 21
1.053669548526814
 31
0.0
  0
LINE
  5
18F
330
2
100
AcDbEntity
  8
0
100
AcDbLine
 10
1.833140585620069
 20
1.053669548526814
 30
0.0
 11
1.832506551492094
 21
1.053986565590802
 31
0.0
  0
LINE
  5
190
330
2
100
AcDbEntity
  8
0
100
AcDbLine
 10
1.832506551492094
 20
1.053986565590802
 30
0.0
 11
1.832189534428106
 21
1.054620599718777
 31
0.0
  0
LINE
  5
191
330
2
100
AcDbEntity
  8
0
100
AcDbLine
 10
1.832189534428106
 20
1.054620599718777
 30
0.0
 11
1.83155550030011
 21
1.054937616782765
 31
0.0
  0
LINE
  5
192
330
2
100
AcDbEntity
  8
0
100
AcDbLine
 10
1.83155550030011
 20
1.054937616782765
 30
0.0
 11
1.831238483236122
 21
1.055254633846753
 31
0.0
  0
LINE
  5
193
330
2
100
AcDbEntity
  8
0
100
AcDbLine
 10
1.831238483236122
 20
1.055254633846753
 30
0.0
 11
1.830604449108146
 21
1.055571650910761
 31
0.0
  0
LINE
  5
194
330
2
100
AcDbEntity
  8
0
100
AcDbLine
 10
1.830604449108146
 20
1.055571650910761
 30
0.0
 11
1.82997041498017
 21
1.055888667974749
 31
0.0
  0
LINE
  5
195
330
2
100
AcDbEntity
  8
0
100
AcDbLine
 10
1.82997041498017
 20
1.055888667974749
 30
0.0
 11
1.82997041498017
 21
1.056522702102725
 31
0.0
  0
LINE
  5
196
330
2
100
AcDbEntity
  8
0
100
AcDbLine
 10
1.82997041498017
 20
1.056522702102725
 30
0.0
 11
1.829336380852174
 21
1.056522702102725
 31
0.0
  0
LINE
  5
197
330
2
100
AcDbEntity
  8
0
100
AcDbLine
 10
1.829336380852174
 20
1.056522702102725
 30
0.0
 11
1.829336380852174
 21
1.057156736230701
 31
0.0
  0
LINE
  5
198
330
2
100
AcDbEntity
  8
0
100
AcDbLine
 10
1.829336380852174
 20
1.057156736230701
 30
0.0
 11
1.829019363788186
 21
1.057473753294689
 31
0.0
  0
LINE
  5
199
330
2
100
AcDbEntity
  8
0
100
AcDbLine
 10
1.829019363788186
 20
1.057473753294689
 30
0.0
 11
1.828385329660211
 21
1.057790770358697
 31
0.0
  0
LINE
  5
19A
330
2
100
AcDbEntity
  8
0
100
AcDbLine
 10
1.828385329660211
 20
1.057790770358697
 30
0.0
 11
1.827751295532235
 21
1.058107787422685
 31
0.0
  0
LINE
  5
19B
330
2
100
AcDbEntity
  8
0
100
AcDbLine
 10
1.827751295532235
 20
1.058107787422685
 30
0.0
 11
1.827751295532235
 21
1.058424804486673
 31
0.0
  0
LINE
  5
19C
330
2
100
AcDbEntity
  8
0
100
AcDbLine
 10
1.827751295532235
 20
1.058424804486673
 30
0.0
 11
1.827117261404239
 21
1.05874182155066
 31
0.0
  0
LINE
  5
19D
330
2
100
AcDbEntity
  8
0
100
AcDbLine
 10
1.827117261404239
 20
1.05874182155066
 30
0.0
 11
1.826800244340251
 21
1.059375855678636
 31
0.0
  0
LINE
  5
19E
330
2
100
AcDbEntity
  8
0
100
AcDbLine
 10
1.826800244340251
 20
1.059375855678636
 30
0.0
 11
1.826166210212275
 21
1.059692872742624
 31
0.0
  0
LINE
  5
19F
330
2
100
AcDbEntity
  8
0
100
AcDbLine
 10
1.826166210212275
 20
1.059692872742624
 30
0.0
 11
1.825849193148287
 21
1.060009889806632
 31
0.0
  0
LINE
  5
1A0
330
2
100
AcDbEntity
  8
0
100
AcDbLine
 10
1.825849193148287
 20
1.060009889806632
 30
0.0
 11
1.825215159020291
 21
1.060643923934608
 31
0.0
  0
LINE
  5
1A1
330
2
100
AcDbEntity
  8
0
100
AcDbLine
 10
1.825215159020291
 20
1.060643923934608
 30
0.0
 11
1.825215159020291
 21
1.060960940998596
 31
0.0
  0
LINE
  5
1A2
330
2
100
AcDbEntity
  8
0
100
AcDbLine
 10
1.825215159020291
 20
1.060960940998596
 30
0.0
 11
1.824581124892315
 21
1.061277958062584
 31
0.0
  0
LINE
  5
1A3
330
2
100
AcDbEntity
  8
0
100
AcDbLine
 10
1.824581124892315
 20
1.061277958062584
 30
0.0
 11
1.82394709076434
 21
1.061594975126572
 31
0.0
  0
LINE
  5
1A4
330
2
100
AcDbEntity
  8
0
100
AcDbLine
 10
1.82394709076434
 20
1.061594975126572
 30
0.0
 11
1.823630073700352
 21
1.06191199219056
 31
0.0
  0
LINE
  5
1A5
330
2
100
AcDbEntity
  8
0
100
AcDbLine
 10
1.823630073700352
 20
1.06191199219056
 30
0.0
 11
1.823313056636364
 21
1.062546026318556
 31
0.0
  0
LINE
  5
1A6
330
2
100
AcDbEntity
  8
0
100
AcDbLine
 10
1.823313056636364
 20
1.062546026318556
 30
0.0
 11
1.822679022508368
 21
1.062863043382544
 31
0.0
  0
LINE
  5
1A7
330
2
100
AcDbEntity
  8
0
100
AcDbLine
 10
1.822679022508368
 20
1.062863043382544
 30
0.0
 11
1.822679022508368
 21
1.063497077510519
 31
0.0
  0
LINE
  5
1A8
330
2
100
AcDbEntity
  8
0
100
AcDbLine
 10
1.822679022508368
 20
1.063497077510519
 30
0.0
 11
1.822044988380392
 21
1.063814094574507
 31
0.0
  0
LINE
  5
1A9
330
2
100
AcDbEntity
  8
0
100
AcDbLine
 10
1.822044988380392
 20
1.063814094574507
 30
0.0
 11
1.821727971316404
 21
1.064448128702503
 31
0.0
  0
LINE
  5
1AA
330
2
100
AcDbEntity
  8
0
100
AcDbLine
 10
1.821727971316404
 20
1.064448128702503
 30
0.0
 11
1.821093937188428
 21
1.064448128702503
 31
0.0
  0
LINE
  5
1AB
330
2
100
AcDbEntity
  8
0
100
AcDbLine
 10
1.821093937188428
 20
1.064448128702503
 30
0.0
 11
1.820459903060432
 21
1.064765145766491
 31
0.0
  0
LINE
  5
1AC
330
2
100
AcDbEntity
  8
0
100
AcDbLine
 10
1.820459903060432
 20
1.064765145766491
 30
0.0
 11
1.820459903060432
 21
1.065399179894467
 31
0.0
  0
LINE
  5
1AD
330
2
100
AcDbEntity
  8
0
100
AcDbLine
 10
1.820459903060432
 20
1.065399179894467
 30
0.0
 11
1.820142885996444
 21
1.065716196958455
 31
0.0
  0
LINE
  5
1AE
330
2
100
AcDbEntity
  8
0
100
AcDbLine
 10
1.820142885996444
 20
1.065716196958455
 30
0.0
 11
1.819508851868469
 21
1.066033214022443
 31
0.0
  0
LINE
  5
1AF
330
2
100
AcDbEntity
  8
0
100
AcDbLine
 10
1.819508851868469
 20
1.066033214022443
 30
0.0
 11
1.819191834804481
 21
1.066667248150439
 31
0.0
  0
LINE
  5
1B0
330
2
100
AcDbEntity
  8
0
100
AcDbLine
 10
1.819191834804481
 20
1.066667248150439
 30
0.0
 11
1.818240783612497
 21
1.066984265214427
 31
0.0
  0
LINE
  5
1B1
330
2
100
AcDbEntity
  8
0
100
AcDbLine
 10
1.818240783612497
 20
1.066984265214427
 30
0.0
 11
1.818240783612497
 21
1.067618299342402
 31
0.0
  0
LINE
  5
1B2
330
2
100
AcDbEntity
  8
0
100
AcDbLine
 10
1.818240783612497
 20
1.067618299342402
 30
0.0
 11
1.817923766548509
 21
1.06793531640639
 31
0.0
  0
LINE
  5
1B3
330
2
100
AcDbEntity
  8
0
100
AcDbLine
 10
1.817923766548509
 20
1.06793531640639
 30
0.0
 11
1.817606749484521
 21
1.068569350534386
 31
0.0
  0
LINE
  5
1B4
330
2
100
AcDbEntity
  8
0
100
AcDbLine
 10
1.817606749484521
 20
1.068569350534386
 30
0.0
 11
1.816972715356545
 21
1.068886367598374
 31
0.0
  0
LINE
  5
1B5
330
2
100
AcDbEntity
  8
0
100
AcDbLine
 10
1.816972715356545
 20
1.068886367598374
 30
0.0
 11
1.816338681228549
 21
1.06952040172635
 31
0.0
  0
LINE
  5
1B6
330
2
100
AcDbEntity
  8
0
100
AcDbLine
 10
1.816338681228549
 20
1.06952040172635
 30
0.0
 11
1.816338681228549
 21
1.069837418790338
 31
0.0
  0
LINE
  5
1B7
330
2
100
AcDbEntity
  8
0
100
AcDbLine
 10
1.816338681228549
 20
1.069837418790338
 30
0.0
 11
1.816021664164561
 21
1.070471452918314
 31
0.0
  0
LINE
  5
1B8
330
2
100
AcDbEntity
  8
0
100
AcDbLine
 10
1.816021664164561
 20
1.070471452918314
 30
0.0
 11
1.815704647100573
 21
1.070788469982322
 31
0.0
  0
LINE
  5
1B9
330
2
100
AcDbEntity
  8
0
100
AcDbLine
 10
1.815704647100573
 20
1.070788469982322
 30
0.0
 11
1.815070612972598
 21
1.07110548704631
 31
0.0
  0
LINE
  5
1BA
330
2
100
AcDbEntity
  8
0
100
AcDbLine
 10
1.815070612972598
 20
1.07110548704631
 30
0.0
 11
1.815070612972598
 21
1.071422504110298
 31
0.0
  0
LINE
  5
1BB
330
2
100
AcDbEntity
  8
0
100
AcDbLine
 10
1.815070612972598
 20
1.071422504110298
 30
0.0
 11
1.81475359590861
 21
1.071739521174285
 31
0.0
  0
LINE
  5
1BC
330
2
100
AcDbEntity
  8
0
100
AcDbLine
 10
1.81475359590861
 20
1.071739521174285
 30
0.0
 11
1.814119561780614
 21
1.072373555302261
 31
0.0
  0
LINE
  5
1BD
330
2
100
AcDbEntity
  8
0
100
AcDbLine
 10
1.814119561780614
 20
1.072373555302261
 30
0.0
 11
1.813802544716626
 21
1.072690572366249
 31
0.0
  0
LINE
  5
1BE
330
2
100
AcDbEntity
  8
0
100
AcDbLine
 10
1.813802544716626
 20
1.072690572366249
 30
0.0
 11
1.812851493524662
 21
1.073324606494245
 31
0.0
  0
LINE
  5
1BF
330
2
100
AcDbEntity
  8
0
100
AcDbLine
 10
1.812851493524662
 20
1.073324606494245
 30
0.0
 11
1.812851493524662
 21
1.073641623558233
 31
0.0
  0
LINE
  5
1C0
330
2
100
AcDbEntity
  8
0
100
AcDbLine
 10
1.812851493524662
 20
1.073641623558233
 30
0.0
 11
1.812534476460674
 21
1.074275657686209
 31
0.0
  0
LINE
  5
1C1
330
2
100
AcDbEntity
  8
0
100
AcDbLine
 10
1.812534476460674
 20
1.074275657686209
 30
0.0
 11
1.812217459396666
 21
1.074592674750197
 31
0.0
  0
LINE
  5
1C2
330
2
100
AcDbEntity
  8
0
100
AcDbLine
 10
1.812217459396666
 20
1.074592674750197
 30
0.0
 11
1.81158342526869
 21
1.075226708878193
 31
0.0
  0
LINE
  5
1C3
330
2
100
AcDbEntity
  8
0
100
AcDbLine
 10
1.81158342526869
 20
1.075226708878193
 30
0.0
 11
1.81158342526869
 21
1.075543725942181
 31
0.0
  0
LINE
  5
1C4
330
2
100
AcDbEntity
  8
0
100
AcDbLine
 10
1.81158342526869
 20
1.075543725942181
 30
0.0
 11
1.810949391140715
 21
1.076177760070156
 31
0.0
  0
LINE
  5
1C5
330
2
100
AcDbEntity
  8
0
100
AcDbLine
 10
1.810949391140715
 20
1.076177760070156
 30
0.0
 11
1.810632374076727
 21
1.076811794198132
 31
0.0
  0
LINE
  5
1C6
330
2
100
AcDbEntity
  8
0
100
AcDbLine
 10
1.810632374076727
 20
1.076811794198132
 30
0.0
 11
1.810315357012719
 21
1.07712881126214
 31
0.0
  0
LINE
  5
1C7
330
2
100
AcDbEntity
  8
0
100
AcDbLine
 10
1.810315357012719
 20
1.07712881126214
 30
0.0
 11
1.810315357012719
 21
1.077445828326128
 31
0.0
  0
LINE
  5
1C8
330
2
100
AcDbEntity
  8
0
100
AcDbLine
 10
1.810315357012719
 20
1.077445828326128
 30
0.0
 11
1.809364305820755
 21
1.078079862454104
 31
0.0
  0
LINE
  5
1C9
330
2
100
AcDbEntity
  8
0
100
AcDbLine
 10
1.809364305820755
 20
1.078079862454104
 30
0.0
 11
1.809047288756767
 21
1.07871389658208
 31
0.0
  0
LINE
  5
1CA
330
2
100
AcDbEntity
  8
0
100
AcDbLine
 10
1.809047288756767
 20
1.07871389658208
 30
0.0
 11
1.808413254628791
 21
1.079030913646068
 31
0.0
  0
LINE
  5
1CB
330
2
100
AcDbEntity
  8
0
100
AcDbLine
 10
1.808413254628791
 20
1.079030913646068
 30
0.0
 11
1.808413254628791
 21
1.079664947774064
 31
0.0
  0
LINE
  5
1CC
330
2
100
AcDbEntity
  8
0
100
AcDbLine
 10
1.808413254628791
 20
1.079664947774064
 30
0.0
 11
1.808096237564783
 21
1.079981964838051
 31
0.0
  0
LINE
  5
1CD
330
2
100
AcDbEntity
  8
0
100
AcDbLine
 10
1.808096237564783
 20
1.079981964838051
 30
0.0
 11
1.807462203436807
 21
1.080615998966027
 31
0.0
  0
LINE
  5
1CE
330
2
100
AcDbEntity
  8
0
100
AcDbLine
 10
1.807462203436807
 20
1.080615998966027
 30
0.0
 11
1.807462203436807
 21
1.080933016030015
 31
0.0
  0
LINE
  5
1CF
330
2
100
AcDbEntity
  8
0
100
AcDbLine
 10
1.807462203436807
 20
1.080933016030015
 30
0.0
 11
1.806828169308831
 21
1.081567050158011
 31
0.0
  0
LINE
  5
1D0
330
2
100
AcDbEntity
  8
0
100
AcDbLine
 10
1.806828169308831
 20
1.081567050158011
 30
0.0
 11
1.806511152244843
 21
1.081884067221999
 31
0.0
  0
LINE
  5
1D1
330
2
100
AcDbEntity
  8
0
100
AcDbLine
 10
1.806511152244843
 20
1.081884067221999
 30
0.0
 11
1.805877118116848
 21
1.082518101349975
 31
0.0
  0
LINE
  5
1D2
330
2
100
AcDbEntity
  8
0
100
AcDbLine
 10
1.805877118116848
 20
1.082518101349975
 30
0.0
 11
1.805877118116848
 21
1.082835118413963
 31
0.0
  0
LINE
  5
1D3
330
2
100
AcDbEntity
  8
0
100
AcDbLine
 10
1.805877118116848
 20
1.082835118413963
 30
0.0
 11
1.805243083988872
 21
1.083469152541959
 31
0.0
  0
LINE
  5
1D4
330
2
100
AcDbEntity
  8
0
100
AcDbLine
 10
1.805243083988872
 20
1.083469152541959
 30
0.0
 11
1.804926066924884
 21
1.084103186669935
 31
0.0
  0
LINE
  5
1D5
330
2
100
AcDbEntity
  8
0
100
AcDbLine
 10
1.804926066924884
 20
1.084103186669935
 30
0.0
 11
1.804926066924884
 21
1.084420203733922
 31
0.0
  0
LINE
  5
1D6
330
2
100
AcDbEntity
  8
0
100
AcDbLine
 10
1.804926066924884
 20
1.084420203733922
 30
0.0
 11
1.804609049860896
 21
1.08473722079791
 31
0.0
  0
LINE
  5
1D7
330
2
100
AcDbEntity
  8
0
100
AcDbLine
 10
1.804609049860896
 20
1.08473722079791
 30
0.0
 11
1.803657998668912
 21
1.085688271989894
 31
0.0
  0
LINE
  5
1D8
330
2
100
AcDbEntity
  8
0
100
AcDbLine
 10
1.803657998668912
 20
1.085688271989894
 30
0.0
 11
1.803340981604924
 21
1.086005289053882
 31
0.0
  0
LINE
  5
1D9
330
2
100
AcDbEntity
  8
0
100
AcDbLine
 10
1.803340981604924
 20
1.086005289053882
 30
0.0
 11
1.803340981604924
 21
1.086639323181858
 31
0.0
  0
LINE
  5
1DA
330
2
100
AcDbEntity
  8
0
100
AcDbLine
 10
1.803340981604924
 20
1.086639323181858
 30
0.0
 11
1.803023964540936
 21
1.086956340245846
 31
0.0
  0
LINE
  5
1DB
330
2
100
AcDbEntity
  8
0
100
AcDbLine
 10
1.803023964540936
 20
1.086956340245846
 30
0.0
 11
1.802706947476948
 21
1.087590374373822
 31
0.0
  0
LINE
  5
1DC
330
2
100
AcDbEntity
  8
0
100
AcDbLine
 10
1.802706947476948
 20
1.087590374373822
 30
0.0
 11
1.802706947476948
 21
1.08790739143783
 31
0.0
  0
LINE
  5
1DD
330
2
100
AcDbEntity
  8
0
100
AcDbLine
 10
1.802706947476948
 20
1.08790739143783
 30
0.0
 11
1.802072913348973
 21
1.088541425565806
 31
0.0
  0
LINE
  5
1DE
330
2
100
AcDbEntity
  8
0
100
AcDbLine
 10
1.802072913348973
 20
1.088541425565806
 30
0.0
 11
1.801438879220977
 21
1.089175459693781
 31
0.0
  0
LINE
  5
1DF
330
2
100
AcDbEntity
  8
0
100
AcDbLine
 10
1.801438879220977
 20
1.089175459693781
 30
0.0
 11
1.801438879220977
 21
1.089492476757769
 31
0.0
  0
LINE
  5
1E0
330
2
100
AcDbEntity
  8
0
100
AcDbLine
 10
1.801438879220977
 20
1.089492476757769
 30
0.0
 11
1.801121862156989
 21
1.090126510885765
 31
0.0
  0
LINE
  5
1E1
330
2
100
AcDbEntity
  8
0
100
AcDbLine
 10
1.801121862156989
 20
1.090126510885765
 30
0.0
 11
1.800487828029013
 21
1.090760545013741
 31
0.0
  0
LINE
  5
1E2
330
2
100
AcDbEntity
  8
0
100
AcDbLine
 10
1.800487828029013
 20
1.090760545013741
 30
0.0
 11
1.800487828029013
 21
1.091077562077729
 31
0.0
  0
LINE
  5
1E3
330
2
100
AcDbEntity
  8
0
100
AcDbLine
 10
1.800487828029013
 20
1.091077562077729
 30
0.0
 11
1.799853793901037
 21
1.091711596205705
 31
0.0
  0
LINE
  5
1E4
330
2
100
AcDbEntity
  8
0
100
AcDbLine
 10
1.799853793901037
 20
1.091711596205705
 30
0.0
 11
1.799536776837029
 21
1.092028613269693
 31
0.0
  0
LINE
  5
1E5
330
2
100
AcDbEntity
  8
0
100
AcDbLine
 10
1.799536776837029
 20
1.092028613269693
 30
0.0
 11
1.799536776837029
 21
1.092662647397689
 31
0.0
  0
LINE
  5
1E6
330
2
100
AcDbEntity
  8
0
100
AcDbLine
 10
1.799536776837029
 20
1.092662647397689
 30
0.0
 11
1.799219759773041
 21
1.093296681525664
 31
0.0
  0
LINE
  5
1E7
330
2
100
AcDbEntity
  8
0
100
AcDbLine
 10
1.799219759773041
 20
1.093296681525664
 30
0.0
 11
1.798585725645065
 21
1.093613698589652
 31
0.0
  0
LINE
  5
1E8
330
2
100
AcDbEntity
  8
0
100
AcDbLine
 10
1.798585725645065
 20
1.093613698589652
 30
0.0
 11
1.798585725645065
 21
1.094247732717648
 31
0.0
  0
LINE
  5
1E9
330
2
100
AcDbEntity
  8
0
100
AcDbLine
 10
1.798585725645065
 20
1.094247732717648
 30
0.0
 11
1.79795169151709
 21
1.094881766845624
 31
0.0
  0
LINE
  5
1EA
330
2
100
AcDbEntity
  8
0
100
AcDbLine
 10
1.79795169151709
 20
1.094881766845624
 30
0.0
 11
1.79795169151709
 21
1.0955158009736
 31
0.0
  0
LINE
  5
1EB
330
2
100
AcDbEntity
  8
0
100
AcDbLine
 10
1.79795169151709
 20
1.0955158009736
 30
0.0
 11
1.797317657389094
 21
1.095832818037588
 31
0.0
  0
LINE
  5
1EC
330
2
100
AcDbEntity
  8
0
100
AcDbLine
 10
1.797317657389094
 20
1.095832818037588
 30
0.0
 11
1.797000640325106
 21
1.096466852165584
 31
0.0
  0
LINE
  5
1ED
330
2
100
AcDbEntity
  8
0
100
AcDbLine
 10
1.797000640325106
 20
1.096466852165584
 30
0.0
 11
1.797000640325106
 21
1.09710088629356
 31
0.0
  0
LINE
  5
1EE
330
2
100
AcDbEntity
  8
0
100
AcDbLine
 10
1.797000640325106
 20
1.09710088629356
 30
0.0
 11
1.79636660619713
 21
1.097417903357547
 31
0.0
  0
LINE
  5
1EF
330
2
100
AcDbEntity
  8
0
100
AcDbLine
 10
1.79636660619713
 20
1.097417903357547
 30
0.0
 11
1.41721419766405
 21
1.753960242882662
 31
0.0
  0
LINE
  5
1F0
330
2
100
AcDbEntity
  8
0
100
AcDbLine
 10
1.460645535430796
 20
2.074908318467011
 30
0.0
 11
1.398827207952571
 21
1.844436912945648
 31
0.0
  0
LINE
  5
1F1
330
2
100
AcDbEntity
  8
0
100
AcDbLine
 10
1.398827207952571
 20
1.844436912945648
 30
0.0
 11
1.398827207952571
 21
1.844119895881661
 31
0.0
  0
LINE
  5
1F2
330
2
100
AcDbEntity
  8
0
100
AcDbLine
 10
1.398827207952571
 20
1.844119895881661
 30
0.0
 11
1.398510190888583
 21
1.843168844689676
 31
0.0
  0
LINE
  5
1F3
330
2
100
AcDbEntity
  8
0
100
AcDbLine
 10
1.398510190888583
 20
1.843168844689676
 30
0.0
 11
1.398510190888583
 21
1.842534810561701
 31
0.0
  0
LINE
  5
1F4
330
2
100
AcDbEntity
  8
0
100
AcDbLine
 10
1.398510190888583
 20
1.842534810561701
 30
0.0
 11
1.398510190888583
 21
1.842217793497713
 31
0.0
  0
LINE
  5
1F5
330
2
100
AcDbEntity
  8
0
100
AcDbLine
 10
1.398510190888583
 20
1.842217793497713
 30
0.0
 11
1.398510190888583
 21
1.841583759369737
 31
0.0
  0
LINE
  5
1F6
330
2
100
AcDbEntity
  8
0
100
AcDbLine
 10
1.398510190888583
 20
1.841583759369737
 30
0.0
 11
1.397876156760607
 21
1.840949725241741
 31
0.0
  0
LINE
  5
1F7
330
2
100
AcDbEntity
  8
0
100
AcDbLine
 10
1.397876156760607
 20
1.840949725241741
 30
0.0
 11
1.397876156760607
 21
1.840315691113765
 31
0.0
  0
LINE
  5
1F8
330
2
100
AcDbEntity
  8
0
100
AcDbLine
 10
1.397876156760607
 20
1.840315691113765
 30
0.0
 11
1.397876156760607
 21
1.83968165698579
 31
0.0
  0
LINE
  5
1F9
330
2
100
AcDbEntity
  8
0
100
AcDbLine
 10
1.397876156760607
 20
1.83968165698579
 30
0.0
 11
1.397876156760607
 21
1.839364639921802
 31
0.0
  0
LINE
  5
1FA
330
2
100
AcDbEntity
  8
0
100
AcDbLine
 10
1.397876156760607
 20
1.839364639921802
 30
0.0
 11
1.397242122632611
 21
1.838413588729818
 31
0.0
  0
LINE
  5
1FB
330
2
100
AcDbEntity
  8
0
100
AcDbLine
 10
1.397242122632611
 20
1.838413588729818
 30
0.0
 11
1.397242122632611
 21
1.837779554601842
 31
0.0
  0
LINE
  5
1FC
330
2
100
AcDbEntity
  8
0
100
AcDbLine
 10
1.397242122632611
 20
1.837779554601842
 30
0.0
 11
1.397242122632611
 21
1.837462537537854
 31
0.0
  0
LINE
  5
1FD
330
2
100
AcDbEntity
  8
0
100
AcDbLine
 10
1.397242122632611
 20
1.837462537537854
 30
0.0
 11
1.397242122632611
 21
1.836828503409858
 31
0.0
  0
LINE
  5
1FE
330
2
100
AcDbEntity
  8
0
100
AcDbLine
 10
1.397242122632611
 20
1.836828503409858
 30
0.0
 11
1.397242122632611
 21
1.836194469281882
 31
0.0
  0
LINE
  5
1FF
330
2
100
AcDbEntity
  8
0
100
AcDbLine
 10
1.397242122632611
 20
1.836194469281882
 30
0.0
 11
1.397242122632611
 21
1.835560435153906
 31
0.0
  0
LINE
  5
200
330
2
100
AcDbEntity
  8
0
100
AcDbLine
 10
1.397242122632611
 20
1.835560435153906
 30
0.0
 11
1.396608088504635
 21
1.834926401025931
 31
0.0
  0
LINE
  5
201
330
2
100
AcDbEntity
  8
0
100
AcDbLine
 10
1.396608088504635
 20
1.834926401025931
 30
0.0
 11
1.396608088504635
 21
1.834292366897935
 31
0.0
  0
LINE
  5
202
330
2
100
AcDbEntity
  8
0
100
AcDbLine
 10
1.396608088504635
 20
1.834292366897935
 30
0.0
 11
1.396608088504635
 21
1.833658332769959
 31
0.0
  0
LINE
  5
203
330
2
100
AcDbEntity
  8
0
100
AcDbLine
 10
1.396608088504635
 20
1.833658332769959
 30
0.0
 11
1.396608088504635
 21
1.832707281577995
 31
0.0
  0
LINE
  5
204
330
2
100
AcDbEntity
  8
0
100
AcDbLine
 10
1.396608088504635
 20
1.832707281577995
 30
0.0
 11
1.396608088504635
 21
1.832390264513987
 31
0.0
  0
LINE
  5
205
330
2
100
AcDbEntity
  8
0
100
AcDbLine
 10
1.396608088504635
 20
1.832390264513987
 30
0.0
 11
1.396608088504635
 21
1.831439213322023
 31
0.0
  0
LINE
  5
206
330
2
100
AcDbEntity
  8
0
100
AcDbLine
 10
1.396608088504635
 20
1.831439213322023
 30
0.0
 11
1.396608088504635
 21
1.831122196258036
 31
0.0
  0
LINE
  5
207
330
2
100
AcDbEntity
  8
0
100
AcDbLine
 10
1.396608088504635
 20
1.831122196258036
 30
0.0
 11
1.396608088504635
 21
1.83048816213006
 31
0.0
  0
LINE
  5
208
330
2
100
AcDbEntity
  8
0
100
AcDbLine
 10
1.396608088504635
 20
1.83048816213006
 30
0.0
 11
1.396291071440647
 21
1.829854128002064
 31
0.0
  0
LINE
  5
209
330
2
100
AcDbEntity
  8
0
100
AcDbLine
 10
1.396291071440647
 20
1.829854128002064
 30
0.0
 11
1.396291071440647
 21
1.829220093874088
 31
0.0
  0
LINE
  5
20A
330
2
100
AcDbEntity
  8
0
100
AcDbLine
 10
1.396291071440647
 20
1.829220093874088
 30
0.0
 11
1.396291071440647
 21
1.828269042682104
 31
0.0
  0
LINE
  5
20B
330
2
100
AcDbEntity
  8
0
100
AcDbLine
 10
1.396291071440647
 20
1.828269042682104
 30
0.0
 11
1.396291071440647
 21
1.827635008554128
 31
0.0
  0
LINE
  5
20C
330
2
100
AcDbEntity
  8
0
100
AcDbLine
 10
1.396291071440647
 20
1.827635008554128
 30
0.0
 11
1.396291071440647
 21
1.82731799149014
 31
0.0
  0
LINE
  5
20D
330
2
100
AcDbEntity
  8
0
100
AcDbLine
 10
1.396291071440647
 20
1.82731799149014
 30
0.0
 11
1.396291071440647
 21
1.826366940298177
 31
0.0
  0
LINE
  5
20E
330
2
100
AcDbEntity
  8
0
100
AcDbLine
 10
1.396291071440647
 20
1.826366940298177
 30
0.0
 11
1.396291071440647
 21
1.825732906170181
 31
0.0
  0
LINE
  5
20F
330
2
100
AcDbEntity
  8
0
100
AcDbLine
 10
1.396291071440647
 20
1.825732906170181
 30
0.0
 11
1.396291071440647
 21
1.825098872042205
 31
0.0
  0
LINE
  5
210
330
2
100
AcDbEntity
  8
0
100
AcDbLine
 10
1.396291071440647
 20
1.825098872042205
 30
0.0
 11
1.396291071440647
 21
1.824464837914229
 31
0.0
  0
LINE
  5
211
330
2
100
AcDbEntity
  8
0
100
AcDbLine
 10
1.396291071440647
 20
1.824464837914229
 30
0.0
 11
1.396291071440647
 21
1.823830803786233
 31
0.0
  0
LINE
  5
212
330
2
100
AcDbEntity
  8
0
100
AcDbLine
 10
1.396291071440647
 20
1.823830803786233
 30
0.0
 11
1.396291071440647
 21
1.823196769658257
 31
0.0
  0
LINE
  5
213
330
2
100
AcDbEntity
  8
0
100
AcDbLine
 10
1.396291071440647
 20
1.823196769658257
 30
0.0
 11
1.396291071440647
 21
1.822245718466294
 31
0.0
  0
LINE
  5
214
330
2
100
AcDbEntity
  8
0
100
AcDbLine
 10
1.396291071440647
 20
1.822245718466294
 30
0.0
 11
1.396291071440647
 21
1.821611684338298
 31
0.0
  0
LINE
  5
215
330
2
100
AcDbEntity
  8
0
100
AcDbLine
 10
1.396291071440647
 20
1.821611684338298
 30
0.0
 11
1.396291071440647
 21
1.820977650210322
 31
0.0
  0
LINE
  5
216
330
2
100
AcDbEntity
  8
0
100
AcDbLine
 10
1.396291071440647
 20
1.820977650210322
 30
0.0
 11
1.396291071440647
 21
1.820343616082346
 31
0.0
  0
LINE
  5
217
330
2
100
AcDbEntity
  8
0
100
AcDbLine
 10
1.396291071440647
 20
1.820343616082346
 30
0.0
 11
1.396291071440647
 21
1.81970958195435
 31
0.0
  0
LINE
  5
218
330
2
100
AcDbEntity
  8
0
100
AcDbLine
 10
1.396291071440647
 20
1.81970958195435
 30
0.0
 11
1.396291071440647
 21
1.818758530762386
 31
0.0
  0
LINE
  5
219
330
2
100
AcDbEntity
  8
0
100
AcDbLine
 10
1.396291071440647
 20
1.818758530762386
 30
0.0
 11
1.396608088504635
 21
1.818124496634411
 31
0.0
  0
LINE
  5
21A
330
2
100
AcDbEntity
  8
0
100
AcDbLine
 10
1.396608088504635
 20
1.818124496634411
 30
0.0
 11
1.396608088504635
 21
1.817490462506414
 31
0.0
  0
LINE
  5
21B
330
2
100
AcDbEntity
  8
0
100
AcDbLine
 10
1.396608088504635
 20
1.817490462506414
 30
0.0
 11
1.396608088504635
 21
1.816856428378439
 31
0.0
  0
LINE
  5
21C
330
2
100
AcDbEntity
  8
0
100
AcDbLine
 10
1.396608088504635
 20
1.816856428378439
 30
0.0
 11
1.396608088504635
 21
1.816222394250463
 31
0.0
  0
LINE
  5
21D
330
2
100
AcDbEntity
  8
0
100
AcDbLine
 10
1.396608088504635
 20
1.816222394250463
 30
0.0
 11
1.396608088504635
 21
1.815271343058479
 31
0.0
  0
LINE
  5
21E
330
2
100
AcDbEntity
  8
0
100
AcDbLine
 10
1.396608088504635
 20
1.815271343058479
 30
0.0
 11
1.396608088504635
 21
1.814637308930503
 31
0.0
  0
LINE
  5
21F
330
2
100
AcDbEntity
  8
0
100
AcDbLine
 10
1.396608088504635
 20
1.814637308930503
 30
0.0
 11
1.396608088504635
 21
1.814003274802528
 31
0.0
  0
LINE
  5
220
330
2
100
AcDbEntity
  8
0
100
AcDbLine
 10
1.396608088504635
 20
1.814003274802528
 30
0.0
 11
1.396608088504635
 21
1.813369240674552
 31
0.0
  0
LINE
  5
221
330
2
100
AcDbEntity
  8
0
100
AcDbLine
 10
1.396608088504635
 20
1.813369240674552
 30
0.0
 11
1.397242122632611
 21
1.812418189482568
 31
0.0
  0
LINE
  5
222
330
2
100
AcDbEntity
  8
0
100
AcDbLine
 10
1.397242122632611
 20
1.812418189482568
 30
0.0
 11
1.397242122632611
 21
1.811784155354592
 31
0.0
  0
LINE
  5
223
330
2
100
AcDbEntity
  8
0
100
AcDbLine
 10
1.397242122632611
 20
1.811784155354592
 30
0.0
 11
1.397242122632611
 21
1.811150121226616
 31
0.0
  0
LINE
  5
224
330
2
100
AcDbEntity
  8
0
100
AcDbLine
 10
1.397242122632611
 20
1.811150121226616
 30
0.0
 11
1.397242122632611
 21
1.81051608709862
 31
0.0
  0
LINE
  5
225
330
2
100
AcDbEntity
  8
0
100
AcDbLine
 10
1.397242122632611
 20
1.81051608709862
 30
0.0
 11
1.397242122632611
 21
1.809565035906657
 31
0.0
  0
LINE
  5
226
330
2
100
AcDbEntity
  8
0
100
AcDbLine
 10
1.397242122632611
 20
1.809565035906657
 30
0.0
 11
1.397242122632611
 21
1.809248018842669
 31
0.0
  0
LINE
  5
227
330
2
100
AcDbEntity
  8
0
100
AcDbLine
 10
1.397242122632611
 20
1.809248018842669
 30
0.0
 11
1.397876156760607
 21
1.808296967650685
 31
0.0
  0
LINE
  5
228
330
2
100
AcDbEntity
  8
0
100
AcDbLine
 10
1.397876156760607
 20
1.808296967650685
 30
0.0
 11
1.397876156760607
 21
1.807345916458721
 31
0.0
  0
LINE
  5
229
330
2
100
AcDbEntity
  8
0
100
AcDbLine
 10
1.397876156760607
 20
1.807345916458721
 30
0.0
 11
1.397876156760607
 21
1.806711882330725
 31
0.0
  0
LINE
  5
22A
330
2
100
AcDbEntity
  8
0
100
AcDbLine
 10
1.397876156760607
 20
1.806711882330725
 30
0.0
 11
1.397876156760607
 21
1.806077848202749
 31
0.0
  0
LINE
  5
22B
330
2
100
AcDbEntity
  8
0
100
AcDbLine
 10
1.397876156760607
 20
1.806077848202749
 30
0.0
 11
1.398510190888583
 21
1.805443814074773
 31
0.0
  0
LINE
  5
22C
330
2
100
AcDbEntity
  8
0
100
AcDbLine
 10
1.398510190888583
 20
1.805443814074773
 30
0.0
 11
1.398510190888583
 21
1.804492762882789
 31
0.0
  0
LINE
  5
22D
330
2
100
AcDbEntity
  8
0
100
AcDbLine
 10
1.398510190888583
 20
1.804492762882789
 30
0.0
 11
1.398510190888583
 21
1.804175745818802
 31
0.0
  0
LINE
  5
22E
330
2
100
AcDbEntity
  8
0
100
AcDbLine
 10
1.398510190888583
 20
1.804175745818802
 30
0.0
 11
1.398510190888583
 21
1.803224694626838
 31
0.0
  0
LINE
  5
22F
330
2
100
AcDbEntity
  8
0
100
AcDbLine
 10
1.398510190888583
 20
1.803224694626838
 30
0.0
 11
1.398827207952571
 21
1.802273643434854
 31
0.0
  0
LINE
  5
230
330
2
100
AcDbEntity
  8
0
100
AcDbLine
 10
1.398827207952571
 20
1.802273643434854
 30
0.0
 11
1.398827207952571
 21
1.801639609306878
 31
0.0
  0
LINE
  5
231
330
2
100
AcDbEntity
  8
0
100
AcDbLine
 10
1.398827207952571
 20
1.801639609306878
 30
0.0
 11
1.398827207952571
 21
1.801005575178903
 31
0.0
  0
LINE
  5
232
330
2
100
AcDbEntity
  8
0
100
AcDbLine
 10
1.398827207952571
 20
1.801005575178903
 30
0.0
 11
1.399461242080546
 21
1.800371541050907
 31
0.0
  0
LINE
  5
233
330
2
100
AcDbEntity
  8
0
100
AcDbLine
 10
1.399461242080546
 20
1.800371541050907
 30
0.0
 11
1.399461242080546
 21
1.799420489858943
 31
0.0
  0
LINE
  5
234
330
2
100
AcDbEntity
  8
0
100
AcDbLine
 10
1.399461242080546
 20
1.799420489858943
 30
0.0
 11
1.399461242080546
 21
1.798469438666979
 31
0.0
  0
LINE
  5
235
330
2
100
AcDbEntity
  8
0
100
AcDbLine
 10
1.399461242080546
 20
1.798469438666979
 30
0.0
 11
1.399778259144534
 21
1.798152421602971
 31
0.0
  0
LINE
  5
236
330
2
100
AcDbEntity
  8
0
100
AcDbLine
 10
1.399778259144534
 20
1.798152421602971
 30
0.0
 11
1.399778259144534
 21
1.797201370411007
 31
0.0
  0
LINE
  5
237
330
2
100
AcDbEntity
  8
0
100
AcDbLine
 10
1.399778259144534
 20
1.797201370411007
 30
0.0
 11
1.399778259144534
 21
1.796567336283032
 31
0.0
  0
LINE
  5
238
330
2
100
AcDbEntity
  8
0
100
AcDbLine
 10
1.399778259144534
 20
1.796567336283032
 30
0.0
 11
1.40041229327253
 21
1.795616285091048
 31
0.0
  0
LINE
  5
239
330
2
100
AcDbEntity
  8
0
100
AcDbLine
 10
1.40041229327253
 20
1.795616285091048
 30
0.0
 11
1.40041229327253
 21
1.794982250963072
 31
0.0
  0
LINE
  5
23A
330
2
100
AcDbEntity
  8
0
100
AcDbLine
 10
1.40041229327253
 20
1.794982250963072
 30
0.0
 11
1.40041229327253
 21
1.794348216835096
 31
0.0
  0
LINE
  5
23B
330
2
100
AcDbEntity
  8
0
100
AcDbLine
 10
1.40041229327253
 20
1.794348216835096
 30
0.0
 11
1.401046327400506
 21
1.793397165643112
 31
0.0
  0
LINE
  5
23C
330
2
100
AcDbEntity
  8
0
100
AcDbLine
 10
1.401046327400506
 20
1.793397165643112
 30
0.0
 11
1.401046327400506
 21
1.792763131515136
 31
0.0
  0
LINE
  5
23D
330
2
100
AcDbEntity
  8
0
100
AcDbLine
 10
1.401046327400506
 20
1.792763131515136
 30
0.0
 11
1.401680361528482
 21
1.791812080323173
 31
0.0
  0
LINE
  5
23E
330
2
100
AcDbEntity
  8
0
100
AcDbLine
 10
1.401680361528482
 20
1.791812080323173
 30
0.0
 11
1.401680361528482
 21
1.791178046195177
 31
0.0
  0
LINE
  5
23F
330
2
100
AcDbEntity
  8
0
100
AcDbLine
 10
1.401680361528482
 20
1.791178046195177
 30
0.0
 11
1.401680361528482
 21
1.790544012067201
 31
0.0
  0
LINE
  5
240
330
2
100
AcDbEntity
  8
0
100
AcDbLine
 10
1.401680361528482
 20
1.790544012067201
 30
0.0
 11
1.40199737859247
 21
1.789909977939225
 31
0.0
  0
LINE
  5
241
330
2
100
AcDbEntity
  8
0
100
AcDbLine
 10
1.40199737859247
 20
1.789909977939225
 30
0.0
 11
1.40199737859247
 21
1.788958926747241
 31
0.0
  0
LINE
  5
242
330
2
100
AcDbEntity
  8
0
100
AcDbLine
 10
1.40199737859247
 20
1.788958926747241
 30
0.0
 11
1.402314395656478
 21
1.788324892619266
 31
0.0
  0
LINE
  5
243
330
2
100
AcDbEntity
  8
0
100
AcDbLine
 10
1.402314395656478
 20
1.788324892619266
 30
0.0
 11
1.402314395656478
 21
1.787373841427282
 31
0.0
  0
LINE
  5
244
330
2
100
AcDbEntity
  8
0
100
AcDbLine
 10
1.402314395656478
 20
1.787373841427282
 30
0.0
 11
1.402948429784454
 21
1.786739807299306
 31
0.0
  0
LINE
  5
245
330
2
100
AcDbEntity
  8
0
100
AcDbLine
 10
1.402948429784454
 20
1.786739807299306
 30
0.0
 11
1.402948429784454
 21
1.785788756107342
 31
0.0
  0
LINE
  5
246
330
2
100
AcDbEntity
  8
0
100
AcDbLine
 10
1.402948429784454
 20
1.785788756107342
 30
0.0
 11
1.403582463912429
 21
1.785154721979346
 31
0.0
  0
LINE
  5
247
330
2
100
AcDbEntity
  8
0
100
AcDbLine
 10
1.403582463912429
 20
1.785154721979346
 30
0.0
 11
1.403582463912429
 21
1.78452068785137
 31
0.0
  0
LINE
  5
248
330
2
100
AcDbEntity
  8
0
100
AcDbLine
 10
1.403582463912429
 20
1.78452068785137
 30
0.0
 11
1.404216498040425
 21
1.783569636659407
 31
0.0
  0
LINE
  5
249
330
2
100
AcDbEntity
  8
0
100
AcDbLine
 10
1.404216498040425
 20
1.783569636659407
 30
0.0
 11
1.404216498040425
 21
1.782935602531411
 31
0.0
  0
LINE
  5
24A
330
2
100
AcDbEntity
  8
0
100
AcDbLine
 10
1.404216498040425
 20
1.782935602531411
 30
0.0
 11
1.404533515104413
 21
1.782301568403435
 31
0.0
  0
LINE
  5
24B
330
2
100
AcDbEntity
  8
0
100
AcDbLine
 10
1.404533515104413
 20
1.782301568403435
 30
0.0
 11
1.404533515104413
 21
1.781350517211471
 31
0.0
  0
LINE
  5
24C
330
2
100
AcDbEntity
  8
0
100
AcDbLine
 10
1.404533515104413
 20
1.781350517211471
 30
0.0
 11
1.405167549232389
 21
1.780716483083475
 31
0.0
  0
LINE
  5
24D
330
2
100
AcDbEntity
  8
0
100
AcDbLine
 10
1.405167549232389
 20
1.780716483083475
 30
0.0
 11
1.405167549232389
 21
1.779765431891511
 31
0.0
  0
LINE
  5
24E
330
2
100
AcDbEntity
  8
0
100
AcDbLine
 10
1.405167549232389
 20
1.779765431891511
 30
0.0
 11
1.405484566296377
 21
1.779131397763536
 31
0.0
  0
LINE
  5
24F
330
2
100
AcDbEntity
  8
0
100
AcDbLine
 10
1.405484566296377
 20
1.779131397763536
 30
0.0
 11
1.405801583360365
 21
1.77849736363554
 31
0.0
  0
LINE
  5
250
330
2
100
AcDbEntity
  8
0
100
AcDbLine
 10
1.405801583360365
 20
1.77849736363554
 30
0.0
 11
1.405801583360365
 21
1.777863329507564
 31
0.0
  0
LINE
  5
251
330
2
100
AcDbEntity
  8
0
100
AcDbLine
 10
1.405801583360365
 20
1.777863329507564
 30
0.0
 11
1.406435617488361
 21
1.777229295379588
 31
0.0
  0
LINE
  5
252
330
2
100
AcDbEntity
  8
0
100
AcDbLine
 10
1.406435617488361
 20
1.777229295379588
 30
0.0
 11
1.406435617488361
 21
1.776278244187604
 31
0.0
  0
LINE
  5
253
330
2
100
AcDbEntity
  8
0
100
AcDbLine
 10
1.406435617488361
 20
1.776278244187604
 30
0.0
 11
1.407069651616337
 21
1.775327192995641
 31
0.0
  0
LINE
  5
254
330
2
100
AcDbEntity
  8
0
100
AcDbLine
 10
1.407069651616337
 20
1.775327192995641
 30
0.0
 11
1.407069651616337
 21
1.774693158867665
 31
0.0
  0
LINE
  5
255
330
2
100
AcDbEntity
  8
0
100
AcDbLine
 10
1.407069651616337
 20
1.774693158867665
 30
0.0
 11
1.407386668680325
 21
1.773742107675681
 31
0.0
  0
LINE
  5
256
330
2
100
AcDbEntity
  8
0
100
AcDbLine
 10
1.407386668680325
 20
1.773742107675681
 30
0.0
 11
1.407703685744313
 21
1.773108073547705
 31
0.0
  0
LINE
  5
257
330
2
100
AcDbEntity
  8
0
100
AcDbLine
 10
1.407703685744313
 20
1.773108073547705
 30
0.0
 11
1.407703685744313
 21
1.772474039419729
 31
0.0
  0
LINE
  5
258
330
2
100
AcDbEntity
  8
0
100
AcDbLine
 10
1.407703685744313
 20
1.772474039419729
 30
0.0
 11
1.408337719872288
 21
1.771840005291733
 31
0.0
  0
LINE
  5
259
330
2
100
AcDbEntity
  8
0
100
AcDbLine
 10
1.408337719872288
 20
1.771840005291733
 30
0.0
 11
1.408971754000284
 21
1.771205971163757
 31
0.0
  0
LINE
  5
25A
330
2
100
AcDbEntity
  8
0
100
AcDbLine
 10
1.408971754000284
 20
1.771205971163757
 30
0.0
 11
1.408971754000284
 21
1.770254919971774
 31
0.0
  0
LINE
  5
25B
330
2
100
AcDbEntity
  8
0
100
AcDbLine
 10
1.408971754000284
 20
1.770254919971774
 30
0.0
 11
1.409288771064272
 21
1.76930386877981
 31
0.0
  0
LINE
  5
25C
330
2
100
AcDbEntity
  8
0
100
AcDbLine
 10
1.409288771064272
 20
1.76930386877981
 30
0.0
 11
1.409922805192248
 21
1.768669834651834
 31
0.0
  0
LINE
  5
25D
330
2
100
AcDbEntity
  8
0
100
AcDbLine
 10
1.409922805192248
 20
1.768669834651834
 30
0.0
 11
1.409922805192248
 21
1.768035800523838
 31
0.0
  0
LINE
  5
25E
330
2
100
AcDbEntity
  8
0
100
AcDbLine
 10
1.409922805192248
 20
1.768035800523838
 30
0.0
 11
1.410556839320224
 21
1.767401766395862
 31
0.0
  0
LINE
  5
25F
330
2
100
AcDbEntity
  8
0
100
AcDbLine
 10
1.410556839320224
 20
1.767401766395862
 30
0.0
 11
1.410873856384232
 21
1.766450715203899
 31
0.0
  0
LINE
  5
260
330
2
100
AcDbEntity
  8
0
100
AcDbLine
 10
1.410873856384232
 20
1.766450715203899
 30
0.0
 11
1.410873856384232
 21
1.765499664011915
 31
0.0
  0
LINE
  5
261
330
2
100
AcDbEntity
  8
0
100
AcDbLine
 10
1.410873856384232
 20
1.765499664011915
 30
0.0
 11
1.411507890512208
 21
1.765182646947927
 31
0.0
  0
LINE
  5
262
330
2
100
AcDbEntity
  8
0
100
AcDbLine
 10
1.411507890512208
 20
1.765182646947927
 30
0.0
 11
1.411824907576196
 21
1.764231595755963
 31
0.0
  0
LINE
  5
263
330
2
100
AcDbEntity
  8
0
100
AcDbLine
 10
1.411824907576196
 20
1.764231595755963
 30
0.0
 11
1.412775958768159
 21
1.763597561627967
 31
0.0
  0
LINE
  5
264
330
2
100
AcDbEntity
  8
0
100
AcDbLine
 10
1.412775958768159
 20
1.763597561627967
 30
0.0
 11
1.412775958768159
 21
1.762646510436004
 31
0.0
  0
LINE
  5
265
330
2
100
AcDbEntity
  8
0
100
AcDbLine
 10
1.412775958768159
 20
1.762646510436004
 30
0.0
 11
1.413092975832167
 21
1.762012476308028
 31
0.0
  0
LINE
  5
266
330
2
100
AcDbEntity
  8
0
100
AcDbLine
 10
1.413092975832167
 20
1.762012476308028
 30
0.0
 11
1.413409992896155
 21
1.761378442180032
 31
0.0
  0
LINE
  5
267
330
2
100
AcDbEntity
  8
0
100
AcDbLine
 10
1.413409992896155
 20
1.761378442180032
 30
0.0
 11
1.414044027024131
 21
1.760427390988068
 31
0.0
  0
LINE
  5
268
330
2
100
AcDbEntity
  8
0
100
AcDbLine
 10
1.414044027024131
 20
1.760427390988068
 30
0.0
 11
1.414044027024131
 21
1.759793356860092
 31
0.0
  0
LINE
  5
269
330
2
100
AcDbEntity
  8
0
100
AcDbLine
 10
1.414044027024131
 20
1.759793356860092
 30
0.0
 11
1.414678061152107
 21
1.758842305668108
 31
0.0
  0
LINE
  5
26A
330
2
100
AcDbEntity
  8
0
100
AcDbLine
 10
1.414678061152107
 20
1.758842305668108
 30
0.0
 11
1.414995078216115
 21
1.75852528860412
 31
0.0
  0
LINE
  5
26B
330
2
100
AcDbEntity
  8
0
100
AcDbLine
 10
1.414995078216115
 20
1.75852528860412
 30
0.0
 11
1.415629112344091
 21
1.757574237412157
 31
0.0
  0
LINE
  5
26C
330
2
100
AcDbEntity
  8
0
100
AcDbLine
 10
1.415629112344091
 20
1.757574237412157
 30
0.0
 11
1.415629112344091
 21
1.756940203284161
 31
0.0
  0
LINE
  5
26D
330
2
100
AcDbEntity
  8
0
100
AcDbLine
 10
1.415629112344091
 20
1.756940203284161
 30
0.0
 11
1.416263146472067
 21
1.756306169156185
 31
0.0
  0
LINE
  5
26E
330
2
100
AcDbEntity
  8
0
100
AcDbLine
 10
1.416263146472067
 20
1.756306169156185
 30
0.0
 11
1.416580163536054
 21
1.755355117964221
 31
0.0
  0
LINE
  5
26F
330
2
100
AcDbEntity
  8
0
100
AcDbLine
 10
1.416580163536054
 20
1.755355117964221
 30
0.0
 11
1.41721419766405
 21
1.754721083836225
 31
0.0
  0
LINE
  5
270
330
2
100
AcDbEntity
  8
0
100
AcDbLine
 10
1.41721419766405
 20
1.754721083836225
 30
0.0
 11
1.417531214728038
 21
1.754087049708249
 31
0.0
  0
LINE
  5
271
330
2
100
AcDbEntity
  8
0
100
AcDbLine
 10
3.617027306403136
 20
0.0222228291261102
 30
0.0
 11
1.846804021078077
 21
1.044285843432703
 31
0.0
  0
LINE
  5
272
330
2
100
AcDbEntity
  8
0
100
AcDbLine
 10
3.617344323467144
 20
0.0222228291261102
 30
0.0
 11
3.617661340531132
 21
0.0222228291261102
 31
0.0
  0
LINE
  5
273
330
2
100
AcDbEntity
  8
0
100
AcDbLine
 10
3.617661340531132
 20
0.0222228291261102
 30
0.0
 11
3.617661340531132
 21
0.0219058120621224
 31
0.0
  0
LINE
  5
274
330
2
100
AcDbEntity
  8
0
100
AcDbLine
 10
3.617661340531132
 20
0.0219058120621224
 30
0.0
 11
3.618295374659108
 21
0.0215887949981345
 31
0.0
  0
LINE
  5
275
330
2
100
AcDbEntity
  8
0
100
AcDbLine
 10
3.618295374659108
 20
0.0215887949981345
 30
0.0
 11
3.618612391723116
 21
0.0212717779341466
 31
0.0
  0
LINE
  5
276
330
2
100
AcDbEntity
  8
0
100
AcDbLine
 10
3.618612391723116
 20
0.0212717779341466
 30
0.0
 11
3.619246425851092
 21
0.0209547608701384
 31
0.0
  0
LINE
  5
277
330
2
100
AcDbEntity
  8
0
100
AcDbLine
 10
3.619246425851092
 20
0.0209547608701384
 30
0.0
 11
3.619880459979067
 21
0.0209547608701384
 31
0.0
  0
LINE
  5
278
330
2
100
AcDbEntity
  8
0
100
AcDbLine
 10
3.619880459979067
 20
0.0209547608701384
 30
0.0
 11
3.620197477043055
 21
0.0206377438061505
 31
0.0
  0
LINE
  5
279
330
2
100
AcDbEntity
  8
0
100
AcDbLine
 10
3.620197477043055
 20
0.0206377438061505
 30
0.0
 11
3.620831511171052
 21
0.0203207267421626
 31
0.0
  0
LINE
  5
27A
330
2
100
AcDbEntity
  8
0
100
AcDbLine
 10
3.620831511171052
 20
0.0203207267421626
 30
0.0
 11
3.621465545299027
 21
0.0200037096781748
 31
0.0
  0
LINE
  5
27B
330
2
100
AcDbEntity
  8
0
100
AcDbLine
 10
3.621465545299027
 20
0.0200037096781748
 30
0.0
 11
3.621782562363015
 21
0.0200037096781748
 31
0.0
  0
LINE
  5
27C
330
2
100
AcDbEntity
  8
0
100
AcDbLine
 10
3.621782562363015
 20
0.0200037096781748
 30
0.0
 11
3.622099579427003
 21
0.019369675550199
 31
0.0
  0
LINE
  5
27D
330
2
100
AcDbEntity
  8
0
100
AcDbLine
 10
3.622099579427003
 20
0.019369675550199
 30
0.0
 11
3.622733613554999
 21
0.019369675550199
 31
0.0
  0
LINE
  5
27E
330
2
100
AcDbEntity
  8
0
100
AcDbLine
 10
3.622733613554999
 20
0.019369675550199
 30
0.0
 11
3.623367647682975
 21
0.0190526584862111
 31
0.0
  0
LINE
  5
27F
330
2
100
AcDbEntity
  8
0
100
AcDbLine
 10
3.623367647682975
 20
0.0190526584862111
 30
0.0
 11
3.624001681810951
 21
0.0190526584862111
 31
0.0
  0
LINE
  5
280
330
2
100
AcDbEntity
  8
0
100
AcDbLine
 10
3.624001681810951
 20
0.0190526584862111
 30
0.0
 11
3.624001681810951
 21
0.0187356414222029
 31
0.0
  0
LINE
  5
281
330
2
100
AcDbEntity
  8
0
100
AcDbLine
 10
3.624001681810951
 20
0.0187356414222029
 30
0.0
 11
3.624001681810951
 21
0.0184186243582151
 31
0.0
  0
LINE
  5
282
330
2
100
AcDbEntity
  8
0
100
AcDbLine
 10
3.624001681810951
 20
0.0184186243582151
 30
0.0
 11
3.624635715938926
 21
0.0181016072942272
 31
0.0
  0
LINE
  5
283
330
2
100
AcDbEntity
  8
0
100
AcDbLine
 10
3.624635715938926
 20
0.0181016072942272
 30
0.0
 11
3.624952733002935
 21
0.0181016072942272
 31
0.0
  0
LINE
  5
284
330
2
100
AcDbEntity
  8
0
100
AcDbLine
 10
3.624952733002935
 20
0.0181016072942272
 30
0.0
 11
3.62558676713091
 21
0.0181016072942272
 31
0.0
  0
LINE
  5
285
330
2
100
AcDbEntity
  8
0
100
AcDbLine
 10
3.62558676713091
 20
0.0181016072942272
 30
0.0
 11
3.626220801258886
 21
0.0177845902302393
 31
0.0
  0
LINE
  5
286
330
2
100
AcDbEntity
  8
0
100
AcDbLine
 10
3.626220801258886
 20
0.0177845902302393
 30
0.0
 11
3.626854835386862
 21
0.0174675731662514
 31
0.0
  0
LINE
  5
287
330
2
100
AcDbEntity
  8
0
100
AcDbLine
 10
3.626854835386862
 20
0.0174675731662514
 30
0.0
 11
3.62717185245087
 21
0.0171505561022635
 31
0.0
  0
LINE
  5
288
330
2
100
AcDbEntity
  8
0
100
AcDbLine
 10
3.62717185245087
 20
0.0171505561022635
 30
0.0
 11
3.627488869514858
 21
0.0171505561022635
 31
0.0
  0
LINE
  5
289
330
2
100
AcDbEntity
  8
0
100
AcDbLine
 10
3.627488869514858
 20
0.0171505561022635
 30
0.0
 11
3.628122903642834
 21
0.0168335390382554
 31
0.0
  0
LINE
  5
28A
330
2
100
AcDbEntity
  8
0
100
AcDbLine
 10
3.628122903642834
 20
0.0168335390382554
 30
0.0
 11
3.628756937770809
 21
0.0165165219742675
 31
0.0
  0
LINE
  5
28B
330
2
100
AcDbEntity
  8
0
100
AcDbLine
 10
3.628756937770809
 20
0.0165165219742675
 30
0.0
 11
3.629390971898805
 21
0.0165165219742675
 31
0.0
  0
LINE
  5
28C
330
2
100
AcDbEntity
  8
0
100
AcDbLine
 10
3.629390971898805
 20
0.0165165219742675
 30
0.0
 11
3.629707988962793
 21
0.0161995049102796
 31
0.0
  0
LINE
  5
28D
330
2
100
AcDbEntity
  8
0
100
AcDbLine
 10
3.629707988962793
 20
0.0161995049102796
 30
0.0
 11
3.630342023090769
 21
0.0161995049102796
 31
0.0
  0
LINE
  5
28E
330
2
100
AcDbEntity
  8
0
100
AcDbLine
 10
3.630342023090769
 20
0.0161995049102796
 30
0.0
 11
3.630342023090769
 21
0.0158824878462917
 31
0.0
  0
LINE
  5
28F
330
2
100
AcDbEntity
  8
0
100
AcDbLine
 10
3.630342023090769
 20
0.0158824878462917
 30
0.0
 11
3.630659040154757
 21
0.0158824878462917
 31
0.0
  0
LINE
  5
290
330
2
100
AcDbEntity
  8
0
100
AcDbLine
 10
3.630659040154757
 20
0.0158824878462917
 30
0.0
 11
3.631293074282733
 21
0.0155654707823038
 31
0.0
  0
LINE
  5
291
330
2
100
AcDbEntity
  8
0
100
AcDbLine
 10
3.631293074282733
 20
0.0155654707823038
 30
0.0
 11
3.631927108410729
 21
0.0155654707823038
 31
0.0
  0
LINE
  5
292
330
2
100
AcDbEntity
  8
0
100
AcDbLine
 10
3.631927108410729
 20
0.0155654707823038
 30
0.0
 11
3.632561142538705
 21
0.0155654707823038
 31
0.0
  0
LINE
  5
293
330
2
100
AcDbEntity
  8
0
100
AcDbLine
 10
3.632561142538705
 20
0.0155654707823038
 30
0.0
 11
3.632878159602693
 21
0.0152484537183159
 31
0.0
  0
LINE
  5
294
330
2
100
AcDbEntity
  8
0
100
AcDbLine
 10
3.632878159602693
 20
0.0152484537183159
 30
0.0
 11
3.633195176666681
 21
0.0152484537183159
 31
0.0
  0
LINE
  5
295
330
2
100
AcDbEntity
  8
0
100
AcDbLine
 10
3.633195176666681
 20
0.0152484537183159
 30
0.0
 11
3.633195176666681
 21
0.014931436654328
 31
0.0
  0
LINE
  5
296
330
2
100
AcDbEntity
  8
0
100
AcDbLine
 10
3.633195176666681
 20
0.014931436654328
 30
0.0
 11
3.633829210794676
 21
0.014931436654328
 31
0.0
  0
LINE
  5
297
330
2
100
AcDbEntity
  8
0
100
AcDbLine
 10
3.633829210794676
 20
0.014931436654328
 30
0.0
 11
3.634463244922652
 21
0.014931436654328
 31
0.0
  0
LINE
  5
298
330
2
100
AcDbEntity
  8
0
100
AcDbLine
 10
3.634463244922652
 20
0.014931436654328
 30
0.0
 11
3.635097279050628
 21
0.014931436654328
 31
0.0
  0
LINE
  5
299
330
2
100
AcDbEntity
  8
0
100
AcDbLine
 10
3.635097279050628
 20
0.014931436654328
 30
0.0
 11
3.635414296114616
 21
0.0146144195903199
 31
0.0
  0
LINE
  5
29A
330
2
100
AcDbEntity
  8
0
100
AcDbLine
 10
3.635414296114616
 20
0.0146144195903199
 30
0.0
 11
3.636048330242612
 21
0.014297402526332
 31
0.0
  0
LINE
  5
29B
330
2
100
AcDbEntity
  8
0
100
AcDbLine
 10
3.636048330242612
 20
0.014297402526332
 30
0.0
 11
3.6363653473066
 21
0.014297402526332
 31
0.0
  0
LINE
  5
29C
330
2
100
AcDbEntity
  8
0
100
AcDbLine
 10
3.6363653473066
 20
0.014297402526332
 30
0.0
 11
3.636999381434576
 21
0.0139803854623441
 31
0.0
  0
LINE
  5
29D
330
2
100
AcDbEntity
  8
0
100
AcDbLine
 10
3.636999381434576
 20
0.0139803854623441
 30
0.0
 11
3.637316398498564
 21
0.0139803854623441
 31
0.0
  0
LINE
  5
29E
330
2
100
AcDbEntity
  8
0
100
AcDbLine
 10
3.637316398498564
 20
0.0139803854623441
 30
0.0
 11
3.637950432626559
 21
0.0139803854623441
 31
0.0
  0
LINE
  5
29F
330
2
100
AcDbEntity
  8
0
100
AcDbLine
 10
3.637950432626559
 20
0.0139803854623441
 30
0.0
 11
3.638267449690547
 21
0.0139803854623441
 31
0.0
  0
LINE
  5
2A0
330
2
100
AcDbEntity
  8
0
100
AcDbLine
 10
3.638267449690547
 20
0.0139803854623441
 30
0.0
 11
3.638584466754535
 21
0.0136633683983562
 31
0.0
  0
LINE
  5
2A1
330
2
100
AcDbEntity
  8
0
100
AcDbLine
 10
3.638584466754535
 20
0.0136633683983562
 30
0.0
 11
3.639218500882511
 21
0.0136633683983562
 31
0.0
  0
LINE
  5
2A2
330
2
100
AcDbEntity
  8
0
100
AcDbLine
 10
3.639218500882511
 20
0.0136633683983562
 30
0.0
 11
3.639852535010487
 21
0.0133463513343683
 31
0.0
  0
LINE
  5
2A3
330
2
100
AcDbEntity
  8
0
100
AcDbLine
 10
3.639852535010487
 20
0.0133463513343683
 30
0.0
 11
3.640486569138483
 21
0.0133463513343683
 31
0.0
  0
LINE
  5
2A4
330
2
100
AcDbEntity
  8
0
100
AcDbLine
 10
3.640486569138483
 20
0.0133463513343683
 30
0.0
 11
3.640803586202471
 21
0.0133463513343683
 31
0.0
  0
LINE
  5
2A5
330
2
100
AcDbEntity
  8
0
100
AcDbLine
 10
3.640803586202471
 20
0.0133463513343683
 30
0.0
 11
3.641437620330446
 21
0.0130293342703805
 31
0.0
  0
LINE
  5
2A6
330
2
100
AcDbEntity
  8
0
100
AcDbLine
 10
3.641437620330446
 20
0.0130293342703805
 30
0.0
 11
3.641754637394434
 21
0.0130293342703805
 31
0.0
  0
LINE
  5
2A7
330
2
100
AcDbEntity
  8
0
100
AcDbLine
 10
3.641754637394434
 20
0.0130293342703805
 30
0.0
 11
3.64238867152243
 21
0.0130293342703805
 31
0.0
  0
LINE
  5
2A8
330
2
100
AcDbEntity
  8
0
100
AcDbLine
 10
3.64238867152243
 20
0.0130293342703805
 30
0.0
 11
3.643022705650406
 21
0.0130293342703805
 31
0.0
  0
LINE
  5
2A9
330
2
100
AcDbEntity
  8
0
100
AcDbLine
 10
3.643022705650406
 20
0.0130293342703805
 30
0.0
 11
3.643656739778382
 21
0.0130293342703805
 31
0.0
  0
LINE
  5
2AA
330
2
100
AcDbEntity
  8
0
100
AcDbLine
 10
3.643656739778382
 20
0.0130293342703805
 30
0.0
 11
3.64397375684237
 21
0.0130293342703805
 31
0.0
  0
LINE
  5
2AB
330
2
100
AcDbEntity
  8
0
100
AcDbLine
 10
3.64397375684237
 20
0.0130293342703805
 30
0.0
 11
3.644290773906378
 21
0.0130293342703805
 31
0.0
  0
LINE
  5
2AC
330
2
100
AcDbEntity
  8
0
100
AcDbLine
 10
3.644290773906378
 20
0.0130293342703805
 30
0.0
 11
3.644924808034354
 21
0.0130293342703805
 31
0.0
  0
LINE
  5
2AD
330
2
100
AcDbEntity
  8
0
100
AcDbLine
 10
3.644924808034354
 20
0.0130293342703805
 30
0.0
 11
3.645558842162329
 21
0.0127123172063926
 31
0.0
  0
LINE
  5
2AE
330
2
100
AcDbEntity
  8
0
100
AcDbLine
 10
3.645558842162329
 20
0.0127123172063926
 30
0.0
 11
3.646192876290305
 21
0.0127123172063926
 31
0.0
  0
LINE
  5
2AF
330
2
100
AcDbEntity
  8
0
100
AcDbLine
 10
3.646192876290305
 20
0.0127123172063926
 30
0.0
 11
3.646509893354314
 21
0.0127123172063926
 31
0.0
  0
LINE
  5
2B0
330
2
100
AcDbEntity
  8
0
100
AcDbLine
 10
3.646509893354314
 20
0.0127123172063926
 30
0.0
 11
3.647143927482289
 21
0.0127123172063926
 31
0.0
  0
LINE
  5
2B1
330
2
100
AcDbEntity
  8
0
100
AcDbLine
 10
3.647143927482289
 20
0.0127123172063926
 30
0.0
 11
3.647460944546277
 21
0.0127123172063926
 31
0.0
  0
LINE
  5
2B2
330
2
100
AcDbEntity
  8
0
100
AcDbLine
 10
3.647460944546277
 20
0.0127123172063926
 30
0.0
 11
3.648094978674253
 21
0.0127123172063926
 31
0.0
  0
LINE
  5
2B3
330
2
100
AcDbEntity
  8
0
100
AcDbLine
 10
3.648094978674253
 20
0.0127123172063926
 30
0.0
 11
3.648729012802249
 21
0.0127123172063926
 31
0.0
  0
LINE
  5
2B4
330
2
100
AcDbEntity
  8
0
100
AcDbLine
 10
3.648729012802249
 20
0.0127123172063926
 30
0.0
 11
3.649363046930225
 21
0.0127123172063926
 31
0.0
  0
LINE
  5
2B5
330
2
100
AcDbEntity
  8
0
100
AcDbLine
 10
3.649363046930225
 20
0.0127123172063926
 30
0.0
 11
3.649680063994213
 21
0.0127123172063926
 31
0.0
  0
LINE
  5
2B6
330
2
100
AcDbEntity
  8
0
100
AcDbLine
 10
3.649680063994213
 20
0.0127123172063926
 30
0.0
 11
3.6499970810582
 21
0.0127123172063926
 31
0.0
  0
LINE
  5
2B7
330
2
100
AcDbEntity
  8
0
100
AcDbLine
 10
3.6499970810582
 20
0.0127123172063926
 30
0.0
 11
3.650314098122188
 21
0.0127123172063926
 31
0.0
  0
LINE
  5
2B8
330
2
100
AcDbEntity
  8
0
100
AcDbLine
 10
3.650314098122188
 20
0.0127123172063926
 30
0.0
 11
3.650948132250185
 21
0.0127123172063926
 31
0.0
  0
LINE
  5
2B9
330
2
100
AcDbEntity
  8
0
100
AcDbLine
 10
3.650948132250185
 20
0.0127123172063926
 30
0.0
 11
3.651265149314173
 21
0.0127123172063926
 31
0.0
  0
LINE
  5
2BA
330
2
100
AcDbEntity
  8
0
100
AcDbLine
 10
3.651265149314173
 20
0.0127123172063926
 30
0.0
 11
3.651899183442148
 21
0.0127123172063926
 31
0.0
  0
LINE
  5
2BB
330
2
100
AcDbEntity
  8
0
100
AcDbLine
 10
3.651899183442148
 20
0.0127123172063926
 30
0.0
 11
3.652533217570124
 21
0.0130293342703805
 31
0.0
  0
LINE
  5
2BC
330
2
100
AcDbEntity
  8
0
100
AcDbLine
 10
3.652533217570124
 20
0.0130293342703805
 30
0.0
 11
3.652850234634132
 21
0.0130293342703805
 31
0.0
  0
LINE
  5
2BD
330
2
100
AcDbEntity
  8
0
100
AcDbLine
 10
3.652850234634132
 20
0.0130293342703805
 30
0.0
 11
3.653484268762108
 21
0.0130293342703805
 31
0.0
  0
LINE
  5
2BE
330
2
100
AcDbEntity
  8
0
100
AcDbLine
 10
3.653484268762108
 20
0.0130293342703805
 30
0.0
 11
3.653801285826096
 21
0.0130293342703805
 31
0.0
  0
LINE
  5
2BF
330
2
100
AcDbEntity
  8
0
100
AcDbLine
 10
3.653801285826096
 20
0.0130293342703805
 30
0.0
 11
3.654752337018059
 21
0.0130293342703805
 31
0.0
  0
LINE
  5
2C0
330
2
100
AcDbEntity
  8
0
100
AcDbLine
 10
3.654752337018059
 20
0.0130293342703805
 30
0.0
 11
3.655069354082068
 21
0.0130293342703805
 31
0.0
  0
LINE
  5
2C1
330
2
100
AcDbEntity
  8
0
100
AcDbLine
 10
3.655069354082068
 20
0.0130293342703805
 30
0.0
 11
3.655386371146055
 21
0.0130293342703805
 31
0.0
  0
LINE
  5
2C2
330
2
100
AcDbEntity
  8
0
100
AcDbLine
 10
3.655386371146055
 20
0.0130293342703805
 30
0.0
 11
3.656020405274031
 21
0.0130293342703805
 31
0.0
  0
LINE
  5
2C3
330
2
100
AcDbEntity
  8
0
100
AcDbLine
 10
3.656020405274031
 20
0.0130293342703805
 30
0.0
 11
3.656654439402007
 21
0.0133463513343683
 31
0.0
  0
LINE
  5
2C4
330
2
100
AcDbEntity
  8
0
100
AcDbLine
 10
3.656654439402007
 20
0.0133463513343683
 30
0.0
 11
3.656971456465995
 21
0.0133463513343683
 31
0.0
  0
LINE
  5
2C5
330
2
100
AcDbEntity
  8
0
100
AcDbLine
 10
3.656971456465995
 20
0.0133463513343683
 30
0.0
 11
3.657605490593991
 21
0.0133463513343683
 31
0.0
  0
LINE
  5
2C6
330
2
100
AcDbEntity
  8
0
100
AcDbLine
 10
3.657605490593991
 20
0.0133463513343683
 30
0.0
 11
3.657605490593991
 21
0.0136633683983562
 31
0.0
  0
LINE
  5
2C7
330
2
100
AcDbEntity
  8
0
100
AcDbLine
 10
3.657605490593991
 20
0.0136633683983562
 30
0.0
 11
3.658239524721967
 21
0.0136633683983562
 31
0.0
  0
LINE
  5
2C8
330
2
100
AcDbEntity
  8
0
100
AcDbLine
 10
3.658239524721967
 20
0.0136633683983562
 30
0.0
 11
3.658556541785955
 21
0.0139803854623441
 31
0.0
  0
LINE
  5
2C9
330
2
100
AcDbEntity
  8
0
100
AcDbLine
 10
3.658556541785955
 20
0.0139803854623441
 30
0.0
 11
3.65919057591393
 21
0.0139803854623441
 31
0.0
  0
LINE
  5
2CA
330
2
100
AcDbEntity
  8
0
100
AcDbLine
 10
3.65919057591393
 20
0.0139803854623441
 30
0.0
 11
3.659507592977938
 21
0.0139803854623441
 31
0.0
  0
LINE
  5
2CB
330
2
100
AcDbEntity
  8
0
100
AcDbLine
 10
3.659507592977938
 20
0.0139803854623441
 30
0.0
 11
3.660458644169902
 21
0.0139803854623441
 31
0.0
  0
LINE
  5
2CC
330
2
100
AcDbEntity
  8
0
100
AcDbLine
 10
3.660458644169902
 20
0.0139803854623441
 30
0.0
 11
3.660458644169902
 21
0.014297402526332
 31
0.0
  0
LINE
  5
2CD
330
2
100
AcDbEntity
  8
0
100
AcDbLine
 10
3.660458644169902
 20
0.014297402526332
 30
0.0
 11
3.66077566123389
 21
0.014297402526332
 31
0.0
  0
LINE
  5
2CE
330
2
100
AcDbEntity
  8
0
100
AcDbLine
 10
3.66077566123389
 20
0.014297402526332
 30
0.0
 11
3.661092678297878
 21
0.014297402526332
 31
0.0
  0
LINE
  5
2CF
330
2
100
AcDbEntity
  8
0
100
AcDbLine
 10
3.661092678297878
 20
0.014297402526332
 30
0.0
 11
3.661092678297878
 21
0.0146144195903199
 31
0.0
  0
LINE
  5
2D0
330
2
100
AcDbEntity
  8
0
100
AcDbLine
 10
3.661092678297878
 20
0.0146144195903199
 30
0.0
 11
3.661726712425874
 21
0.014931436654328
 31
0.0
  0
LINE
  5
2D1
330
2
100
AcDbEntity
  8
0
100
AcDbLine
 10
3.661726712425874
 20
0.014931436654328
 30
0.0
 11
3.66236074655385
 21
0.014931436654328
 31
0.0
  0
LINE
  5
2D2
330
2
100
AcDbEntity
  8
0
100
AcDbLine
 10
3.66236074655385
 20
0.014931436654328
 30
0.0
 11
3.662677763617838
 21
0.014931436654328
 31
0.0
  0
LINE
  5
2D3
330
2
100
AcDbEntity
  8
0
100
AcDbLine
 10
3.662677763617838
 20
0.014931436654328
 30
0.0
 11
3.662994780681826
 21
0.0152484537183159
 31
0.0
  0
LINE
  5
2D4
330
2
100
AcDbEntity
  8
0
100
AcDbLine
 10
3.662994780681826
 20
0.0152484537183159
 30
0.0
 11
3.663628814809821
 21
0.0155654707823038
 31
0.0
  0
LINE
  5
2D5
330
2
100
AcDbEntity
  8
0
100
AcDbLine
 10
3.663628814809821
 20
0.0155654707823038
 30
0.0
 11
3.663945831873809
 21
0.0155654707823038
 31
0.0
  0
LINE
  5
2D6
330
2
100
AcDbEntity
  8
0
100
AcDbLine
 10
3.663945831873809
 20
0.0155654707823038
 30
0.0
 11
3.664579866001785
 21
0.0158824878462917
 31
0.0
  0
LINE
  5
2D7
330
2
100
AcDbEntity
  8
0
100
AcDbLine
 10
3.664579866001785
 20
0.0158824878462917
 30
0.0
 11
3.664896883065773
 21
0.0158824878462917
 31
0.0
  0
LINE
  5
2D8
330
2
100
AcDbEntity
  8
0
100
AcDbLine
 10
3.664896883065773
 20
0.0158824878462917
 30
0.0
 11
3.664896883065773
 21
0.0161995049102796
 31
0.0
  0
LINE
  5
2D9
330
2
100
AcDbEntity
  8
0
100
AcDbLine
 10
3.664896883065773
 20
0.0161995049102796
 30
0.0
 11
3.665530917193749
 21
0.0161995049102796
 31
0.0
  0
LINE
  5
2DA
330
2
100
AcDbEntity
  8
0
100
AcDbLine
 10
3.665530917193749
 20
0.0161995049102796
 30
0.0
 11
3.666164951321745
 21
0.0161995049102796
 31
0.0
  0
LINE
  5
2DB
330
2
100
AcDbEntity
  8
0
100
AcDbLine
 10
3.666164951321745
 20
0.0161995049102796
 30
0.0
 11
3.666164951321745
 21
0.0165165219742675
 31
0.0
  0
LINE
  5
2DC
330
2
100
AcDbEntity
  8
0
100
AcDbLine
 10
3.666164951321745
 20
0.0165165219742675
 30
0.0
 11
3.666481968385733
 21
0.0168335390382554
 31
0.0
  0
LINE
  5
2DD
330
2
100
AcDbEntity
  8
0
100
AcDbLine
 10
3.666481968385733
 20
0.0168335390382554
 30
0.0
 11
3.666481968385733
 21
0.0171505561022635
 31
0.0
  0
LINE
  5
2DE
330
2
100
AcDbEntity
  8
0
100
AcDbLine
 10
3.666481968385733
 20
0.0171505561022635
 30
0.0
 11
3.667116002513708
 21
0.0171505561022635
 31
0.0
  0
LINE
  5
2DF
330
2
100
AcDbEntity
  8
0
100
AcDbLine
 10
3.667116002513708
 20
0.0171505561022635
 30
0.0
 11
3.667750036641684
 21
0.0171505561022635
 31
0.0
  0
LINE
  5
2E0
330
2
100
AcDbEntity
  8
0
100
AcDbLine
 10
23.69993150339963
 20
14.91349707767598
 30
0.0
 11
23.7005655375276
 21
14.90779077052416
 31
0.0
  0
LINE
  5
2E1
330
2
100
AcDbEntity
  8
0
100
AcDbLine
 10
23.7005655375276
 20
14.90779077052416
 30
0.0
 11
23.70627184467945
 21
14.89986534392438
 31
0.0
  0
LINE
  5
2E2
330
2
100
AcDbEntity
  8
0
100
AcDbLine
 10
23.70627184467945
 20
14.89986534392438
 30
0.0
 11
23.7180014760471
 21
14.89891429273242
 31
0.0
  0
LINE
  5
2E3
330
2
100
AcDbEntity
  8
0
100
AcDbLine
 10
23.7180014760471
 20
14.89891429273242
 30
0.0
 11
23.73290127805467
 21
14.90525463401222
 31
0.0
  0
LINE
  5
2E4
330
2
100
AcDbEntity
  8
0
100
AcDbLine
 10
23.73290127805467
 20
14.90525463401222
 30
0.0
 11
23.75033721657417
 21
14.91793531657186
 31
0.0
  0
LINE
  5
2E5
330
2
100
AcDbEntity
  8
0
100
AcDbLine
 10
23.75033721657417
 20
14.91793531657186
 30
0.0
 11
23.7668221039017
 21
14.93473722096338
 31
0.0
  0
LINE
  5
2E6
330
2
100
AcDbEntity
  8
0
100
AcDbLine
 10
23.7668221039017
 20
14.93473722096338
 30
0.0
 11
23.77950278646133
 21
14.95344122773883
 31
0.0
  0
LINE
  5
2E7
330
2
100
AcDbEntity
  8
0
100
AcDbLine
 10
23.77950278646133
 20
14.95344122773883
 30
0.0
 11
23.78362400829322
 21
14.96168367140259
 31
0.0
  0
ARC
  5
2E8
330
2
100
AcDbEntity
  8
0
100
AcDbCircle
 10
23.85506531756631
 20
14.84942144417555
 30
0.0
 40
0.1330664057252243
100
AcDbArc
 50
122.4718135191106
 51
154.7544890765659
  0
ARC
  5
2E9
330
2
100
AcDbEntity
  8
0
100
AcDbCircle
 10
23.88507750740791
 20
14.81567097955653
 30
0.0
 40
0.175504130077619
100
AcDbArc
 50
126.1050954791579
 51
148.957450058184
  0
LINE
  5
2EA
330
2
100
AcDbEntity
  8
0
100
AcDbLine
 10
48.09816708055912
 20
25.68202781243726
 30
0.0
 11
5.428963416720669
 21
1.049640715322163
 31
0.0
  0
LINE
  5
2EB
330
2
100
AcDbEntity
  8
0
100
AcDbLine
 10
49.95198776565856
 20
26.68167772031975
 30
0.0
 11
49.95135373153058
 21
26.68357982270368
 31
0.0
  0
LINE
  5
2EC
330
2
100
AcDbEntity
  8
0
100
AcDbLine
 10
49.95135373153058
 20
26.68357982270368
 30
0.0
 11
49.95103671446659
 21
26.68579894215163
 31
0.0
  0
LINE
  5
2ED
330
2
100
AcDbEntity
  8
0
100
AcDbLine
 10
49.95103671446659
 20
26.68579894215163
 30
0.0
 11
49.95103671446659
 21
26.68770104453556
 31
0.0
  0
LINE
  5
2EE
330
2
100
AcDbEntity
  8
0
100
AcDbLine
 10
49.95103671446659
 20
26.68770104453556
 30
0.0
 11
49.95167074859456
 21
26.68896911279155
 31
0.0
  0
LINE
  5
2EF
330
2
100
AcDbEntity
  8
0
100
AcDbLine
 10
49.95167074859456
 20
26.68896911279155
 30
0.0
 11
49.95230478272254
 21
26.69023718104751
 31
0.0
  0
LINE
  5
2F0
330
2
100
AcDbEntity
  8
0
100
AcDbLine
 10
49.95230478272254
 20
26.69023718104751
 30
0.0
 11
49.9538898680425
 21
26.6905541981115
 31
0.0
  0
LINE
  5
2F1
330
2
100
AcDbEntity
  8
0
100
AcDbLine
 10
49.9538898680425
 20
26.6905541981115
 30
0.0
 11
49.95547495336246
 21
26.6905541981115
 31
0.0
  0
LINE
  5
2F2
330
2
100
AcDbEntity
  8
0
100
AcDbLine
 10
49.95547495336246
 20
26.6905541981115
 30
0.0
 11
49.9570600386824
 21
26.68992016398352
 31
0.0
  0
LINE
  5
2F3
330
2
100
AcDbEntity
  8
0
100
AcDbLine
 10
49.944949986838
 20
26.63691491088424
 30
0.0
 11
49.94526700390199
 21
26.63723192794823
 31
0.0
  0
LINE
  5
2F4
330
2
100
AcDbEntity
  8
0
100
AcDbLine
 10
49.94526700390199
 20
26.63723192794823
 30
0.0
 11
49.94590103802997
 21
26.63723192794823
 31
0.0
  0
LINE
  5
2F5
330
2
100
AcDbEntity
  8
0
100
AcDbLine
 10
49.94590103802997
 20
26.63723192794823
 30
0.0
 11
49.94590103802997
 21
26.63786596207621
 31
0.0
  0
LINE
  5
2F6
330
2
100
AcDbEntity
  8
0
100
AcDbLine
 10
49.94590103802997
 20
26.63786596207621
 30
0.0
 11
49.94621805509396
 21
26.63786596207621
 31
0.0
  0
LINE
  5
2F7
330
2
100
AcDbEntity
  8
0
100
AcDbLine
 10
49.94621805509396
 20
26.63786596207621
 30
0.0
 11
49.94621805509396
 21
26.63849999620418
 31
0.0
  0
LINE
  5
2F8
330
2
100
AcDbEntity
  8
0
100
AcDbLine
 10
49.94621805509396
 20
26.63849999620418
 30
0.0
 11
49.94685208922195
 21
26.63849999620418
 31
0.0
  0
LINE
  5
2F9
330
2
100
AcDbEntity
  8
0
100
AcDbLine
 10
49.94685208922195
 20
26.63849999620418
 30
0.0
 11
49.94685208922195
 21
26.63913403033216
 31
0.0
  0
LINE
  5
2FA
330
2
100
AcDbEntity
  8
0
100
AcDbLine
 10
49.94685208922195
 20
26.63913403033216
 30
0.0
 11
49.94748612334993
 21
26.63913403033216
 31
0.0
  0
LINE
  5
2FB
330
2
100
AcDbEntity
  8
0
100
AcDbLine
 10
49.94748612334993
 20
26.63913403033216
 30
0.0
 11
49.94780314041392
 21
26.63913403033216
 31
0.0
  0
LINE
  5
2FC
330
2
100
AcDbEntity
  8
0
100
AcDbLine
 10
49.94780314041392
 20
26.63913403033216
 30
0.0
 11
49.94780314041392
 21
26.63945104739614
 31
0.0
  0
LINE
  5
2FD
330
2
100
AcDbEntity
  8
0
100
AcDbLine
 10
49.94780314041392
 20
26.63945104739614
 30
0.0
 11
49.94812015747791
 21
26.63945104739614
 31
0.0
  0
LINE
  5
2FE
330
2
100
AcDbEntity
  8
0
100
AcDbLine
 10
49.94812015747791
 20
26.63945104739614
 30
0.0
 11
49.94812015747791
 21
26.64008508152412
 31
0.0
  0
LINE
  5
2FF
330
2
100
AcDbEntity
  8
0
100
AcDbLine
 10
49.94812015747791
 20
26.64008508152412
 30
0.0
 11
49.94843717454189
 21
26.64008508152412
 31
0.0
  0
LINE
  5
300
330
2
100
AcDbEntity
  8
0
100
AcDbLine
 10
49.94843717454189
 20
26.64008508152412
 30
0.0
 11
49.94843717454189
 21
26.64071911565214
 31
0.0
  0
LINE
  5
301
330
2
100
AcDbEntity
  8
0
100
AcDbLine
 10
49.94843717454189
 20
26.64071911565214
 30
0.0
 11
49.94907120866989
 21
26.64071911565214
 31
0.0
  0
LINE
  5
302
330
2
100
AcDbEntity
  8
0
100
AcDbLine
 10
49.94907120866989
 20
26.64071911565214
 30
0.0
 11
49.94907120866989
 21
26.64103613271612
 31
0.0
  0
LINE
  5
303
330
2
100
AcDbEntity
  8
0
100
AcDbLine
 10
49.94907120866989
 20
26.64103613271612
 30
0.0
 11
49.94970524279787
 21
26.64103613271612
 31
0.0
  0
LINE
  5
304
330
2
100
AcDbEntity
  8
0
100
AcDbLine
 10
49.94970524279787
 20
26.64103613271612
 30
0.0
 11
49.94970524279787
 21
26.6416701668441
 31
0.0
  0
LINE
  5
305
330
2
100
AcDbEntity
  8
0
100
AcDbLine
 10
49.94970524279787
 20
26.6416701668441
 30
0.0
 11
49.95033927692585
 21
26.6416701668441
 31
0.0
  0
LINE
  5
306
330
2
100
AcDbEntity
  8
0
100
AcDbLine
 10
49.95033927692585
 20
26.6416701668441
 30
0.0
 11
49.95033927692585
 21
26.64198718390809
 31
0.0
  0
LINE
  5
307
330
2
100
AcDbEntity
  8
0
100
AcDbLine
 10
49.95033927692585
 20
26.64198718390809
 30
0.0
 11
49.95065629398983
 21
26.64198718390809
 31
0.0
  0
LINE
  5
308
330
2
100
AcDbEntity
  8
0
100
AcDbLine
 10
49.95065629398983
 20
26.64198718390809
 30
0.0
 11
49.95065629398983
 21
26.64262121803606
 31
0.0
  0
LINE
  5
309
330
2
100
AcDbEntity
  8
0
100
AcDbLine
 10
49.95065629398983
 20
26.64262121803606
 30
0.0
 11
49.95129032811782
 21
26.64262121803606
 31
0.0
  0
LINE
  5
30A
330
2
100
AcDbEntity
  8
0
100
AcDbLine
 10
49.95129032811782
 20
26.64262121803606
 30
0.0
 11
49.95129032811782
 21
26.64293823510005
 31
0.0
  0
LINE
  5
30B
330
2
100
AcDbEntity
  8
0
100
AcDbLine
 10
49.95129032811782
 20
26.64293823510005
 30
0.0
 11
49.95160734518181
 21
26.64293823510005
 31
0.0
  0
LINE
  5
30C
330
2
100
AcDbEntity
  8
0
100
AcDbLine
 10
49.95160734518181
 20
26.64293823510005
 30
0.0
 11
49.95160734518181
 21
26.64357226922803
 31
0.0
  0
LINE
  5
30D
330
2
100
AcDbEntity
  8
0
100
AcDbLine
 10
49.95160734518181
 20
26.64357226922803
 30
0.0
 11
49.95224137930978
 21
26.64388928629202
 31
0.0
  0
LINE
  5
30E
330
2
100
AcDbEntity
  8
0
100
AcDbLine
 10
49.95224137930978
 20
26.64388928629202
 30
0.0
 11
49.95224137930978
 21
26.64452332041999
 31
0.0
  0
LINE
  5
30F
330
2
100
AcDbEntity
  8
0
100
AcDbLine
 10
49.95224137930978
 20
26.64452332041999
 30
0.0
 11
49.95287541343777
 21
26.64452332041999
 31
0.0
  0
LINE
  5
310
330
2
100
AcDbEntity
  8
0
100
AcDbLine
 10
49.95287541343777
 20
26.64452332041999
 30
0.0
 11
49.95287541343777
 21
26.64515735454801
 31
0.0
  0
LINE
  5
311
330
2
100
AcDbEntity
  8
0
100
AcDbLine
 10
49.95287541343777
 20
26.64515735454801
 30
0.0
 11
49.95350944756577
 21
26.645474371612
 31
0.0
  0
LINE
  5
312
330
2
100
AcDbEntity
  8
0
100
AcDbLine
 10
49.95350944756577
 20
26.645474371612
 30
0.0
 11
49.95350944756577
 21
26.64610840573997
 31
0.0
  0
LINE
  5
313
330
2
100
AcDbEntity
  8
0
100
AcDbLine
 10
49.95350944756577
 20
26.64610840573997
 30
0.0
 11
49.95382646462974
 21
26.64610840573997
 31
0.0
  0
LINE
  5
314
330
2
100
AcDbEntity
  8
0
100
AcDbLine
 10
49.95382646462974
 20
26.64610840573997
 30
0.0
 11
49.95382646462974
 21
26.64642542280396
 31
0.0
  0
LINE
  5
315
330
2
100
AcDbEntity
  8
0
100
AcDbLine
 10
49.95382646462974
 20
26.64642542280396
 30
0.0
 11
49.95382646462974
 21
26.64705945693194
 31
0.0
  0
LINE
  5
316
330
2
100
AcDbEntity
  8
0
100
AcDbLine
 10
49.95382646462974
 20
26.64705945693194
 30
0.0
 11
49.95414348169374
 21
26.64705945693194
 31
0.0
  0
LINE
  5
317
330
2
100
AcDbEntity
  8
0
100
AcDbLine
 10
49.95414348169374
 20
26.64705945693194
 30
0.0
 11
49.95414348169374
 21
26.64769349105991
 31
0.0
  0
LINE
  5
318
330
2
100
AcDbEntity
  8
0
100
AcDbLine
 10
49.95414348169374
 20
26.64769349105991
 30
0.0
 11
49.95414348169374
 21
26.6480105081239
 31
0.0
  0
LINE
  5
319
330
2
100
AcDbEntity
  8
0
100
AcDbLine
 10
49.95414348169374
 20
26.6480105081239
 30
0.0
 11
49.95477751582171
 21
26.6480105081239
 31
0.0
  0
LINE
  5
31A
330
2
100
AcDbEntity
  8
0
100
AcDbLine
 10
49.95477751582171
 20
26.6480105081239
 30
0.0
 11
49.95477751582171
 21
26.64864454225187
 31
0.0
  0
LINE
  5
31B
330
2
100
AcDbEntity
  8
0
100
AcDbLine
 10
49.95477751582171
 20
26.64864454225187
 30
0.0
 11
49.95477751582171
 21
26.6489615593159
 31
0.0
  0
LINE
  5
31C
330
2
100
AcDbEntity
  8
0
100
AcDbLine
 10
49.95477751582171
 20
26.6489615593159
 30
0.0
 11
49.9554115499497
 21
26.64959559344388
 31
0.0
  0
LINE
  5
31D
330
2
100
AcDbEntity
  8
0
100
AcDbLine
 10
49.9554115499497
 20
26.64959559344388
 30
0.0
 11
49.9554115499497
 21
26.65022962757185
 31
0.0
  0
LINE
  5
31E
330
2
100
AcDbEntity
  8
0
100
AcDbLine
 10
49.9554115499497
 20
26.65022962757185
 30
0.0
 11
49.9554115499497
 21
26.65054664463584
 31
0.0
  0
LINE
  5
31F
330
2
100
AcDbEntity
  8
0
100
AcDbLine
 10
49.9554115499497
 20
26.65054664463584
 30
0.0
 11
49.9557285670137
 21
26.65118067876382
 31
0.0
  0
LINE
  5
320
330
2
100
AcDbEntity
  8
0
100
AcDbLine
 10
49.9557285670137
 20
26.65118067876382
 30
0.0
 11
49.9557285670137
 21
26.65149769582781
 31
0.0
  0
LINE
  5
321
330
2
100
AcDbEntity
  8
0
100
AcDbLine
 10
49.9557285670137
 20
26.65149769582781
 30
0.0
 11
49.9557285670137
 21
26.65213172995578
 31
0.0
  0
LINE
  5
322
330
2
100
AcDbEntity
  8
0
100
AcDbLine
 10
49.9557285670137
 20
26.65213172995578
 30
0.0
 11
49.95636260114167
 21
26.65276576408376
 31
0.0
  0
LINE
  5
323
330
2
100
AcDbEntity
  8
0
100
AcDbLine
 10
49.95636260114167
 20
26.65276576408376
 30
0.0
 11
49.95636260114167
 21
26.65308278114775
 31
0.0
  0
LINE
  5
324
330
2
100
AcDbEntity
  8
0
100
AcDbLine
 10
49.95636260114167
 20
26.65308278114775
 30
0.0
 11
49.95636260114167
 21
26.65371681527576
 31
0.0
  0
LINE
  5
325
330
2
100
AcDbEntity
  8
0
100
AcDbLine
 10
49.95636260114167
 20
26.65371681527576
 30
0.0
 11
49.95636260114167
 21
26.65403383233975
 31
0.0
  0
LINE
  5
326
330
2
100
AcDbEntity
  8
0
100
AcDbLine
 10
49.95636260114167
 20
26.65403383233975
 30
0.0
 11
49.95699663526965
 21
26.65403383233975
 31
0.0
  0
LINE
  5
327
330
2
100
AcDbEntity
  8
0
100
AcDbLine
 10
49.95699663526965
 20
26.65403383233975
 30
0.0
 11
49.95699663526965
 21
26.65466786646773
 31
0.0
  0
LINE
  5
328
330
2
100
AcDbEntity
  8
0
100
AcDbLine
 10
49.95699663526965
 20
26.65466786646773
 30
0.0
 11
49.95699663526965
 21
26.6553019005957
 31
0.0
  0
LINE
  5
329
330
2
100
AcDbEntity
  8
0
100
AcDbLine
 10
49.95699663526965
 20
26.6553019005957
 30
0.0
 11
49.95699663526965
 21
26.65561891765969
 31
0.0
  0
LINE
  5
32A
330
2
100
AcDbEntity
  8
0
100
AcDbLine
 10
49.95699663526965
 20
26.65561891765969
 30
0.0
 11
49.95699663526965
 21
26.65625295178767
 31
0.0
  0
LINE
  5
32B
330
2
100
AcDbEntity
  8
0
100
AcDbLine
 10
49.95699663526965
 20
26.65625295178767
 30
0.0
 11
49.95699663526965
 21
26.65688698591564
 31
0.0
  0
LINE
  5
32C
330
2
100
AcDbEntity
  8
0
100
AcDbLine
 10
49.95699663526965
 20
26.65688698591564
 30
0.0
 11
49.95731365233364
 21
26.65688698591564
 31
0.0
  0
LINE
  5
32D
330
2
100
AcDbEntity
  8
0
100
AcDbLine
 10
49.95731365233364
 20
26.65688698591564
 30
0.0
 11
49.95731365233364
 21
26.65720400297963
 31
0.0
  0
LINE
  5
32E
330
2
100
AcDbEntity
  8
0
100
AcDbLine
 10
49.95731365233364
 20
26.65720400297963
 30
0.0
 11
49.95731365233364
 21
26.65752102004362
 31
0.0
  0
LINE
  5
32F
330
2
100
AcDbEntity
  8
0
100
AcDbLine
 10
49.95731365233364
 20
26.65752102004362
 30
0.0
 11
49.95731365233364
 21
26.65815505417163
 31
0.0
  0
LINE
  5
330
330
2
100
AcDbEntity
  8
0
100
AcDbLine
 10
49.95731365233364
 20
26.65815505417163
 30
0.0
 11
49.95731365233364
 21
26.65847207123562
 31
0.0
  0
LINE
  5
331
330
2
100
AcDbEntity
  8
0
100
AcDbLine
 10
49.95731365233364
 20
26.65847207123562
 30
0.0
 11
49.95731365233364
 21
26.65910610536359
 31
0.0
  0
LINE
  5
332
330
2
100
AcDbEntity
  8
0
100
AcDbLine
 10
49.95731365233364
 20
26.65910610536359
 30
0.0
 11
49.95731365233364
 21
26.65974013949157
 31
0.0
  0
LINE
  5
333
330
2
100
AcDbEntity
  8
0
100
AcDbLine
 10
49.95731365233364
 20
26.65974013949157
 30
0.0
 11
49.95731365233364
 21
26.66005715655556
 31
0.0
  0
LINE
  5
334
330
2
100
AcDbEntity
  8
0
100
AcDbLine
 10
49.95731365233364
 20
26.66005715655556
 30
0.0
 11
49.95731365233364
 21
26.66069119068354
 31
0.0
  0
LINE
  5
335
330
2
100
AcDbEntity
  8
0
100
AcDbLine
 10
49.95731365233364
 20
26.66069119068354
 30
0.0
 11
49.95731365233364
 21
26.66132522481151
 31
0.0
  0
LINE
  5
336
330
2
100
AcDbEntity
  8
0
100
AcDbLine
 10
49.95731365233364
 20
26.66132522481151
 30
0.0
 11
49.95731365233364
 21
26.66195925893953
 31
0.0
  0
LINE
  5
337
330
2
100
AcDbEntity
  8
0
100
AcDbLine
 10
49.95731365233364
 20
26.66195925893953
 30
0.0
 11
49.95731365233364
 21
26.66227627600351
 31
0.0
  0
LINE
  5
338
330
2
100
AcDbEntity
  8
0
100
AcDbLine
 10
49.95731365233364
 20
26.66227627600351
 30
0.0
 11
49.95731365233364
 21
26.66291031013149
 31
0.0
  0
LINE
  5
339
330
2
100
AcDbEntity
  8
0
100
AcDbLine
 10
49.95731365233364
 20
26.66291031013149
 30
0.0
 11
49.95731365233364
 21
26.66322732719548
 31
0.0
  0
LINE
  5
33A
330
2
100
AcDbEntity
  8
0
100
AcDbLine
 10
49.95731365233364
 20
26.66322732719548
 30
0.0
 11
49.95731365233364
 21
26.66386136132345
 31
0.0
  0
LINE
  5
33B
330
2
100
AcDbEntity
  8
0
100
AcDbLine
 10
49.95731365233364
 20
26.66386136132345
 30
0.0
 11
49.95731365233364
 21
26.66417837838745
 31
0.0
  0
LINE
  5
33C
330
2
100
AcDbEntity
  8
0
100
AcDbLine
 10
49.95731365233364
 20
26.66417837838745
 30
0.0
 11
49.95731365233364
 21
26.66481241251542
 31
0.0
  0
LINE
  5
33D
330
2
100
AcDbEntity
  8
0
100
AcDbLine
 10
49.95731365233364
 20
26.66481241251542
 30
0.0
 11
49.95731365233364
 21
26.66512942957941
 31
0.0
  0
LINE
  5
33E
330
2
100
AcDbEntity
  8
0
100
AcDbLine
 10
49.95731365233364
 20
26.66512942957941
 30
0.0
 11
49.95731365233364
 21
26.66576346370738
 31
0.0
  0
LINE
  5
33F
330
2
100
AcDbEntity
  8
0
100
AcDbLine
 10
49.95731365233364
 20
26.66576346370738
 30
0.0
 11
49.95731365233364
 21
26.66608048077137
 31
0.0
  0
LINE
  5
340
330
2
100
AcDbEntity
  8
0
100
AcDbLine
 10
49.95731365233364
 20
26.66608048077137
 30
0.0
 11
49.95731365233364
 21
26.66671451489939
 31
0.0
  0
LINE
  5
341
330
2
100
AcDbEntity
  8
0
100
AcDbLine
 10
49.95731365233364
 20
26.66671451489939
 30
0.0
 11
49.95699663526965
 21
26.66671451489939
 31
0.0
  0
LINE
  5
342
330
2
100
AcDbEntity
  8
0
100
AcDbLine
 10
49.95699663526965
 20
26.66671451489939
 30
0.0
 11
49.95699663526965
 21
26.66734854902736
 31
0.0
  0
LINE
  5
343
330
2
100
AcDbEntity
  8
0
100
AcDbLine
 10
49.95699663526965
 20
26.66734854902736
 30
0.0
 11
49.95699663526965
 21
26.66798258315534
 31
0.0
  0
LINE
  5
344
330
2
100
AcDbEntity
  8
0
100
AcDbLine
 10
49.95699663526965
 20
26.66798258315534
 30
0.0
 11
49.95699663526965
 21
26.66829960021932
 31
0.0
  0
LINE
  5
345
330
2
100
AcDbEntity
  8
0
100
AcDbLine
 10
49.95699663526965
 20
26.66829960021932
 30
0.0
 11
49.95699663526965
 21
26.6689336343473
 31
0.0
  0
LINE
  5
346
330
2
100
AcDbEntity
  8
0
100
AcDbLine
 10
49.95699663526965
 20
26.6689336343473
 30
0.0
 11
49.95699663526965
 21
26.66925065141129
 31
0.0
  0
LINE
  5
347
330
2
100
AcDbEntity
  8
0
100
AcDbLine
 10
49.95699663526965
 20
26.66925065141129
 30
0.0
 11
49.95636260114167
 21
26.66925065141129
 31
0.0
  0
LINE
  5
348
330
2
100
AcDbEntity
  8
0
100
AcDbLine
 10
49.95636260114167
 20
26.66925065141129
 30
0.0
 11
49.95636260114167
 21
26.66988468553927
 31
0.0
  0
LINE
  5
349
330
2
100
AcDbEntity
  8
0
100
AcDbLine
 10
49.95636260114167
 20
26.66988468553927
 30
0.0
 11
49.95636260114167
 21
26.67020170260326
 31
0.0
  0
LINE
  5
34A
330
2
100
AcDbEntity
  8
0
100
AcDbLine
 10
49.95636260114167
 20
26.67020170260326
 30
0.0
 11
49.95636260114167
 21
26.67083573673127
 31
0.0
  0
LINE
  5
34B
330
2
100
AcDbEntity
  8
0
100
AcDbLine
 10
49.95636260114167
 20
26.67083573673127
 30
0.0
 11
49.95636260114167
 21
26.67115275379526
 31
0.0
  0
LINE
  5
34C
330
2
100
AcDbEntity
  8
0
100
AcDbLine
 10
49.95636260114167
 20
26.67115275379526
 30
0.0
 11
49.9557285670137
 21
26.67115275379526
 31
0.0
  0
LINE
  5
34D
330
2
100
AcDbEntity
  8
0
100
AcDbLine
 10
49.9557285670137
 20
26.67115275379526
 30
0.0
 11
49.9557285670137
 21
26.67178678792323
 31
0.0
  0
LINE
  5
34E
330
2
100
AcDbEntity
  8
0
100
AcDbLine
 10
49.9557285670137
 20
26.67178678792323
 30
0.0
 11
49.9557285670137
 21
26.67242082205121
 31
0.0
  0
LINE
  5
34F
330
2
100
AcDbEntity
  8
0
100
AcDbLine
 10
49.9557285670137
 20
26.67242082205121
 30
0.0
 11
49.9557285670137
 21
26.6727378391152
 31
0.0
  0
LINE
  5
350
330
2
100
AcDbEntity
  8
0
100
AcDbLine
 10
49.9557285670137
 20
26.6727378391152
 30
0.0
 11
49.9554115499497
 21
26.67337187324318
 31
0.0
  0
LINE
  5
351
330
2
100
AcDbEntity
  8
0
100
AcDbLine
 10
49.9554115499497
 20
26.67337187324318
 30
0.0
 11
49.9554115499497
 21
26.67400590737115
 31
0.0
  0
LINE
  5
352
330
2
100
AcDbEntity
  8
0
100
AcDbLine
 10
49.9554115499497
 20
26.67400590737115
 30
0.0
 11
49.9554115499497
 21
26.67432292443514
 31
0.0
  0
LINE
  5
353
330
2
100
AcDbEntity
  8
0
100
AcDbLine
 10
49.9554115499497
 20
26.67432292443514
 30
0.0
 11
49.95477751582171
 21
26.67495695856315
 31
0.0
  0
LINE
  5
354
330
2
100
AcDbEntity
  8
0
100
AcDbLine
 10
49.95477751582171
 20
26.67495695856315
 30
0.0
 11
49.95477751582171
 21
26.67527397562714
 31
0.0
  0
LINE
  5
355
330
2
100
AcDbEntity
  8
0
100
AcDbLine
 10
49.95477751582171
 20
26.67527397562714
 30
0.0
 11
49.95477751582171
 21
26.67590800975512
 31
0.0
  0
LINE
  5
356
330
2
100
AcDbEntity
  8
0
100
AcDbLine
 10
49.95477751582171
 20
26.67590800975512
 30
0.0
 11
49.95414348169374
 21
26.6765420438831
 31
0.0
  0
LINE
  5
357
330
2
100
AcDbEntity
  8
0
100
AcDbLine
 10
49.95414348169374
 20
26.6765420438831
 30
0.0
 11
49.95414348169374
 21
26.67685906094708
 31
0.0
  0
LINE
  5
358
330
2
100
AcDbEntity
  8
0
100
AcDbLine
 10
49.95414348169374
 20
26.67685906094708
 30
0.0
 11
49.95192436224581
 21
26.68161431690694
 31
0.0
  0
LINE
  5
359
330
2
100
AcDbEntity
  8
0
100
AcDbLine
 10
45.17847162290953
 20
29.67492113681516
 30
0.0
 11
44.68551008840372
 21
29.95928544321497
 31
0.0
  0
ARC
  5
35A
330
2
100
AcDbEntity
  8
0
100
AcDbCircle
 10
44.65312080341959
 20
29.90797750696867
 30
0.0
 40
0.0606759433683406
100
AcDbArc
 50
57.73691223873226
 51
99.7251558457239
  0
LINE
  5
35B
330
2
100
AcDbEntity
  8
0
100
AcDbLine
 10
44.64287129329695
 20
29.96778150053
 30
0.0
 11
44.64287129329695
 21
29.73699307794462
 31
0.0
  0
LINE
  5
35C
330
2
100
AcDbEntity
  8
0
100
AcDbLine
 10
44.64287129329695
 20
29.73699307794462
 30
0.0
 11
-0.0001690954391463
 21
3.965249369338207
 31
0.0
  0
LINE
  5
35D
330
2
100
AcDbEntity
  8
0
100
AcDbLine
 10
-0.0001690954391463
 20
3.965249369338207
 30
0.0
 11
-0.0001690954391463
 21
4.195752476566037
 31
0.0
  0
LINE
  5
35E
330
2
100
AcDbEntity
  8
0
100
AcDbLine
 10
-0.0001690954391463
 20
4.195752476566037
 30
0.0
 11
0.0214831700314129
 21
4.208147843768113
 31
0.0
  0
LINE
  5
35F
330
2
100
AcDbEntity
  8
0
100
AcDbLine
 10
0.0214831700314129
 20
4.208147843768113
 30
0.0
 11
0.0213563632058258
 21
4.216580497670199
 31
0.0
  0
LINE
  5
360
330
2
100
AcDbEntity
  8
0
100
AcDbLine
 10
49.95693323185683
 20
26.91617524255382
 30
0.0
 11
49.46365468028702
 21
27.20053954895363
 31
0.0
  0
ARC
  5
361
330
2
100
AcDbEntity
  8
0
100
AcDbCircle
 10
47.42717827741352
 20
27.79392837452213
 30
0.0
 40
0.2524690300222732
100
AcDbArc
 50
304.542792431918
 51
5.758894528505959
  0
LINE
  5
362
330
2
100
AcDbEntity
  8
0
100
AcDbLine
 10
47.67837308442239
 20
27.81926175274462
 30
0.0
 11
47.67837308442239
 21
28.22745292433928
 31
0.0
  0
LINE
  5
363
330
2
100
AcDbEntity
  8
0
100
AcDbLine
 10
47.67837308442239
 20
28.22745292433928
 30
0.0
 11
46.96416534095734
 21
28.63979701947221
 31
0.0
  0
LINE
  5
364
330
2
100
AcDbEntity
  8
0
100
AcDbLine
 10
46.96416534095734
 20
28.63979701947221
 30
0.0
 11
46.96416534095734
 21
28.23147904105196
 31
0.0
  0
LINE
  5
365
330
2
100
AcDbEntity
  8
0
100
AcDbLine
 10
46.06605599867116
 20
28.02015546619565
 30
0.0
 11
46.08539403957461
 21
28.10609879224356
 31
0.0
  0
LINE
  5
366
330
2
100
AcDbEntity
  8
0
100
AcDbLine
 10
46.08539403957461
 20
28.10609879224356
 30
0.0
 11
46.11776148180811
 21
28.0892017827328
 31
0.0
  0
LINE
  5
367
330
2
100
AcDbEntity
  8
0
100
AcDbLine
 10
46.11062859786829
 20
28.07683811723719
 30
0.0
 11
46.07385461844535
 21
28.0555979739498
 31
0.0
  0
LINE
  5
368
330
2
100
AcDbEntity
  8
0
100
AcDbLine
 10
45.15678765573254
 20
29.68728480231085
 30
0.0
 11
45.15678765573254
 21
29.68728480231085
 31
0.0
  0
LINE
  5
369
330
2
100
AcDbEntity
  8
0
100
AcDbLine
 10
48.45576232874083
 20
26.66788747803614
 30
0.0
 11
48.48904912045985
 21
26.68722551893961
 31
0.0
  0
LINE
  5
36A
330
2
100
AcDbEntity
  8
0
100
AcDbLine
 10
47.6784681895416
 20
27.81913494591903
 30
0.0
 11
47.67466398477369
 21
27.8172328435351
 31
0.0
  0
LINE
  5
36B
330
2
100
AcDbEntity
  8
0
100
AcDbLine
 10
47.67466398477369
 20
27.8172328435351
 30
0.0
 11
47.67466398477369
 21
28.22555082195535
 31
0.0
  0
LINE
  5
36C
330
2
100
AcDbEntity
  8
0
100
AcDbLine
 10
47.6784681895416
 20
28.22732611751365
 30
0.0
 11
47.67466398477369
 21
28.22542401512972
 31
0.0
  0
LINE
  5
36D
330
2
100
AcDbEntity
  8
0
100
AcDbLine
 10
48.50715079481375
 20
26.70976543218933
 30
0.0
 11
48.5467779278126
 21
26.686940203582
 31
0.0
  0
LINE
  5
36E
330
2
100
AcDbEntity
  8
0
100
AcDbLine
 10
48.56659149431203
 20
26.57703038749639
 30
0.0
 11
48.5469364363446
 21
26.68703530870124
 31
0.0
  0
LINE
  5
36F
330
2
100
AcDbEntity
  8
0
100
AcDbLine
 10
49.94456956636117
 20
26.63694661259059
 30
0.0
 11
49.9325229179295
 21
26.63028925424676
 31
0.0
  0
LINE
  5
370
330
2
100
AcDbEntity
  8
0
100
AcDbLine
 10
1.344046659294973
 20
2.046915711716653
 30
0.0
 11
0.0116239393413207
 21
3.931899174206401
 31
0.0
  0
ARC
  5
371
330
2
100
AcDbEntity
  8
0
100
AcDbCircle
 10
0.0620209554759164
 20
3.968480350167047
 30
0.0
 40
0.0622739244783434
100
AcDbArc
 50
182.9740332215727
 51
215.9743948830967
  0
LINE
  5
372
330
2
100
AcDbEntity
  8
0
100
AcDbLine
 10
44.83545915967141
 20
29.87273978474551
 30
0.0
 11
44.64968716017277
 21
29.97989155237443
 31
0.0
  0
LINE
  5
373
330
2
100
AcDbEntity
  8
0
100
AcDbLine
 10
46.03105731480659
 20
27.81212886880483
 30
0.0
 11
46.02883819535866
 21
27.80610554458902
 31
0.0
  0
LINE
  5
374
330
2
100
AcDbEntity
  8
0
100
AcDbLine
 10
46.02883819535866
 20
27.80610554458902
 30
0.0
 11
46.02471697352677
 21
27.80166730569315
 31
0.0
  0
LINE
  5
375
330
2
100
AcDbEntity
  8
0
100
AcDbLine
 10
46.02471697352677
 20
27.80166730569315
 30
0.0
 11
46.01964470050293
 21
27.79913116918121
 31
0.0
  0
LINE
  5
376
330
2
100
AcDbEntity
  8
0
100
AcDbLine
 10
46.01964470050293
 20
27.79913116918121
 30
0.0
 11
46.0136213762871
 21
27.79913116918121
 31
0.0
  0
LINE
  5
377
330
2
100
AcDbEntity
  8
0
100
AcDbLine
 10
46.0136213762871
 20
27.79913116918121
 30
0.0
 11
46.0066470008793
 21
27.80103327156513
 31
0.0
  0
LINE
  5
378
330
2
100
AcDbEntity
  8
0
100
AcDbLine
 10
46.0066470008793
 20
27.80103327156513
 30
0.0
 11
45.9993556084075
 21
27.805471510461
 31
0.0
  0
LINE
  5
379
330
2
100
AcDbEntity
  8
0
100
AcDbLine
 10
45.9993556084075
 20
27.805471510461
 30
0.0
 11
45.99301526712768
 21
27.81117781761287
 31
0.0
  0
LINE
  5
37A
330
2
100
AcDbEntity
  8
0
100
AcDbLine
 10
45.99301526712768
 20
27.81117781761287
 30
0.0
 11
45.98635790878387
 21
27.81878622714866
 31
0.0
  0
LINE
  5
37B
330
2
100
AcDbEntity
  8
0
100
AcDbLine
 10
46.03093050798098
 20
27.81225567563046
 30
0.0
 11
46.07626394813167
 21
28.01134239181672
 31
0.0
  0
LINE
  5
37C
330
2
100
AcDbEntity
  8
0
100
AcDbLine
 10
46.07626394813167
 20
28.01134239181672
 30
0.0
 11
46.06605599867116
 21
28.02015546619565
 31
0.0
  0
LINE
  5
37D
330
2
100
AcDbEntity
  8
0
100
AcDbLine
 10
48.4947554276117
 20
26.69141014418426
 30
0.0
 11
48.4979255982516
 21
26.67809542749664
 31
0.0
  0
LINE
  5
37E
330
2
100
AcDbEntity
  8
0
100
AcDbLine
 10
48.52851774492672
 20
26.69575327796097
 30
0.0
 11
48.4977670897196
 21
26.67800032237749
 31
0.0
  0
LINE
  5
37F
330
2
100
AcDbEntity
  8
0
100
AcDbLine
 10
48.62511284432475
 20
26.31869318205018
 30
0.0
 11
48.57977940417406
 21
26.56977069673093
 31
0.0
  0
LINE
  5
380
330
2
100
AcDbEntity
  8
0
100
AcDbLine
 10
49.9325229179295
 20
26.63028925424676
 30
0.0
 11
48.64743084562975
 21
26.29615326880041
 31
0.0
  0
LINE
  5
381
330
2
100
AcDbEntity
  8
0
100
AcDbLine
 10
48.56659149431203
 20
26.57703038749639
 30
0.0
 11
48.58000131611884
 21
26.5695170830798
 31
0.0
  0
LINE
  5
382
330
2
100
AcDbEntity
  8
0
100
AcDbLine
 10
48.52851774492672
 20
26.69575327796097
 30
0.0
 11
48.53517510327051
 21
26.69385117557704
 31
0.0
  0
LINE
  5
383
330
2
100
AcDbEntity
  8
0
100
AcDbLine
 10
49.98543306590963
 20
26.88320546789875
 30
0.0
 11
49.96577800794221
 21
26.87179285359507
 31
0.0
  0
LINE
  5
384
330
2
100
AcDbEntity
  8
0
100
AcDbLine
 10
49.94983204962345
 20
26.92035986779843
 30
0.0
 11
49.76406005012481
 21
27.02751163542735
 31
0.0
  0
LINE
  5
385
330
2
100
AcDbEntity
  8
0
100
AcDbLine
 10
45.95677749817026
 20
27.45737562146488
 30
0.0
 11
1.421145846827883
 21
1.747152178151645
 31
0.0
  0
ARC
  5
386
330
2
100
AcDbEntity
  8
0
100
AcDbCircle
 10
44.70215040835545
 20
29.73871750185093
 30
0.0
 40
0.0593041914195605
100
AcDbArc
 50
181.6662589583282
 51
216.1830297203653
  0
LINE
  5
387
330
2
100
AcDbEntity
  8
0
100
AcDbLine
 10
45.15678765573254
 20
29.68728480231085
 30
0.0
 11
45.15678765573254
 21
29.68728480231085
 31
0.0
  0
LINE
  5
388
330
2
100
AcDbEntity
  8
0
100
AcDbLine
 10
44.83545915967141
 20
29.87273978474551
 30
0.0
 11
44.83545915967141
 21
29.87273978474551
 31
0.0
  0
LINE
  5
389
330
2
100
AcDbEntity
  8
0
100
AcDbLine
 10
49.76406005012481
 20
27.02747993372101
 30
0.0
 11
49.76406005012481
 21
27.02747993372101
 31
0.0
  0
LINE
  5
38A
330
2
100
AcDbEntity
  8
0
100
AcDbLine
 10
4.267641426831641
 20
0.526248259165206
 30
0.0
 11
4.267641426831641
 21
0.5287843956771496
 31
0.0
  0
LINE
  5
38B
330
2
100
AcDbEntity
  8
0
100
AcDbLine
 10
4.625395183545315
 20
0.9210930123658478
 30
0.0
 11
4.625395183545315
 21
0.9217270464938236
 31
0.0
  0
LINE
  5
38C
330
2
100
AcDbEntity
  8
0
100
AcDbLine
 10
4.464667532101957
 20
0.9249606205465163
 30
0.0
 11
4.464667532101957
 21
0.9217904499066172
 31
0.0
  0
LINE
  5
38D
330
2
100
AcDbEntity
  8
0
100
AcDbLine
 10
4.625363481838928
 20
0.9217270464938236
 30
0.0
 11
4.625363481838928
 21
0.9248972171337227
 31
0.0
  0
LINE
  5
38E
330
2
100
AcDbEntity
  8
0
100
AcDbLine
 10
4.431570950621305
 20
0.9678530293044866
 30
0.0
 11
4.438862343093088
 21
0.9783145924161884
 31
0.0
  0
LINE
  5
38F
330
2
100
AcDbEntity
  8
0
100
AcDbLine
 10
4.438862343093088
 20
0.9783145924161884
 30
0.0
 11
4.467393878852282
 21
1.032207493294635
 31
0.0
  0
LINE
  5
390
330
2
100
AcDbEntity
  8
0
100
AcDbLine
 10
4.467393878852282
 20
1.032207493294635
 30
0.0
 11
4.476904390771998
 21
1.088319513621018
 31
0.0
  0
LINE
  5
391
330
2
100
AcDbEntity
  8
0
100
AcDbLine
 10
4.476904390771998
 20
1.088319513621018
 30
0.0
 11
4.467393878852282
 21
1.144748551011389
 31
0.0
  0
LINE
  5
392
330
2
100
AcDbEntity
  8
0
100
AcDbLine
 10
4.467393878852282
 20
1.144748551011389
 30
0.0
 11
4.438862343093088
 21
1.198958468953844
 31
0.0
  0
LINE
  5
393
330
2
100
AcDbEntity
  8
0
100
AcDbLine
 10
4.438862343093088
 20
1.198958468953844
 30
0.0
 11
4.393211885878407
 21
1.249047165064397
 31
0.0
  0
LINE
  5
394
330
2
100
AcDbEntity
  8
0
100
AcDbLine
 10
4.393211885878407
 20
1.249047165064397
 30
0.0
 11
4.331076541336193
 21
1.292478502831142
 31
0.0
  0
LINE
  5
395
330
2
100
AcDbEntity
  8
0
100
AcDbLine
 10
4.331076541336193
 20
1.292478502831142
 30
0.0
 11
4.255309463042379
 21
1.328301431062118
 31
0.0
  0
LINE
  5
396
330
2
100
AcDbEntity
  8
0
100
AcDbLine
 10
4.255309463042379
 20
1.328301431062118
 30
0.0
 11
4.168446787508887
 21
1.354930864437344
 31
0.0
  0
LINE
  5
397
330
2
100
AcDbEntity
  8
0
100
AcDbLine
 10
4.168446787508887
 20
1.354930864437344
 30
0.0
 11
4.075243770695556
 21
1.371098734700888
 31
0.0
  0
LINE
  5
398
330
2
100
AcDbEntity
  8
0
100
AcDbLine
 10
4.075243770695556
 20
1.371098734700888
 30
0.0
 11
3.977602514986375
 21
1.377122058916699
 31
0.0
  0
LINE
  5
399
330
2
100
AcDbEntity
  8
0
100
AcDbLine
 10
3.977602514986375
 20
1.377122058916699
 30
0.0
 11
3.880278276341162
 21
1.371098734700888
 31
0.0
  0
LINE
  5
39A
330
2
100
AcDbEntity
  8
0
100
AcDbLine
 10
3.880278276341162
 20
1.371098734700888
 30
0.0
 11
3.786441225399876
 21
1.354930864437344
 31
0.0
  0
LINE
  5
39B
330
2
100
AcDbEntity
  8
0
100
AcDbLine
 10
3.786441225399876
 20
1.354930864437344
 30
0.0
 11
3.700529601058348
 21
1.328301431062118
 31
0.0
  0
LINE
  5
39C
330
2
100
AcDbEntity
  8
0
100
AcDbLine
 10
3.700529601058348
 20
1.328301431062118
 30
0.0
 11
3.624445505700526
 21
1.292478502831142
 31
0.0
  0
LINE
  5
39D
330
2
100
AcDbEntity
  8
0
100
AcDbLine
 10
3.624445505700526
 20
1.292478502831142
 30
0.0
 11
3.561676127030336
 21
1.249047165064397
 31
0.0
  0
LINE
  5
39E
330
2
100
AcDbEntity
  8
0
100
AcDbLine
 10
3.561676127030336
 20
1.249047165064397
 30
0.0
 11
3.516342686879643
 21
1.198958468953844
 31
0.0
  0
LINE
  5
39F
330
2
100
AcDbEntity
  8
0
100
AcDbLine
 10
3.516342686879643
 20
1.198958468953844
 30
0.0
 11
3.487177116992473
 21
1.144748551011389
 31
0.0
  0
LINE
  5
3A0
330
2
100
AcDbEntity
  8
0
100
AcDbLine
 10
3.487177116992473
 20
1.144748551011389
 30
0.0
 11
3.477666605072756
 21
1.088319513621018
 31
0.0
  0
LINE
  5
3A1
330
2
100
AcDbEntity
  8
0
100
AcDbLine
 10
3.477666605072756
 20
1.088319513621018
 30
0.0
 11
3.487177116992473
 21
1.032207493294635
 31
0.0
  0
LINE
  5
3A2
330
2
100
AcDbEntity
  8
0
100
AcDbLine
 10
3.487177116992473
 20
1.032207493294635
 30
0.0
 11
3.516342686879643
 21
0.9783145924161884
 31
0.0
  0
LINE
  5
3A3
330
2
100
AcDbEntity
  8
0
100
AcDbLine
 10
3.516342686879643
 20
0.9783145924161884
 30
0.0
 11
3.524585130543409
 21
0.9678530293044866
 31
0.0
  0
ARC
  5
3A4
330
2
100
AcDbEntity
  8
0
100
AcDbCircle
 10
3.978089741774689
 20
1.329394823268692
 30
0.0
 40
0.5799818110862542
100
AcDbArc
 50
218.5624641235917
 51
308.6672398775123
  0
ARC
  5
3A5
330
2
100
AcDbEntity
  8
0
100
AcDbCircle
 10
3.960404415644182
 20
1.346927064999804
 30
0.0
 40
0.6047272345617351
100
AcDbArc
 50
308.9376858380204
 51
321.1818047964166
  0
LINE
  5
3A6
330
2
100
AcDbEntity
  8
0
100
AcDbLine
 10
3.626632923442075
 20
2.115486502657865
 30
0.0
 11
3.237847579870947
 21
2.795926064464846
 31
0.0
  0
LINE
  5
3A7
330
2
100
AcDbEntity
  8
0
100
AcDbLine
 10
5.428963416720669
 20
1.049640715322163
 30
0.0
 11
3.678211599753366
 21
2.060642550587475
 31
0.0
  0
LINE
  5
3A8
330
2
100
AcDbEntity
  8
0
100
AcDbLine
 10
3.587005790443203
 20
1.411486708653363
 30
0.0
 11
3.664991988184953
 21
1.448894722204278
 31
0.0
  0
LINE
  5
3A9
330
2
100
AcDbEntity
  8
0
100
AcDbLine
 10
3.664991988184953
 20
1.448894722204278
 30
0.0
 11
3.754073783166401
 21
1.477743275027459
 31
0.0
  0
LINE
  5
3AA
330
2
100
AcDbEntity
  8
0
100
AcDbLine
 10
3.754073783166401
 20
1.477743275027459
 30
0.0
 11
3.850763987683618
 21
1.496130264738919
 31
0.0
  0
LINE
  5
3AB
330
2
100
AcDbEntity
  8
0
100
AcDbLine
 10
3.850763987683618
 20
1.496130264738919
 30
0.0
 11
3.952526465224682
 21
1.504689725466673
 31
0.0
  0
LINE
  5
3AC
330
2
100
AcDbEntity
  8
0
100
AcDbLine
 10
3.952526465224682
 20
1.504689725466673
 30
0.0
 11
4.053971925701758
 21
1.502153588954749
 31
0.0
  0
LINE
  5
3AD
330
2
100
AcDbEntity
  8
0
100
AcDbLine
 10
4.053971925701758
 20
1.502153588954749
 30
0.0
 11
4.153198266730919
 21
1.488521855203149
 31
0.0
  0
LINE
  5
3AE
330
2
100
AcDbEntity
  8
0
100
AcDbLine
 10
4.153198266730919
 20
1.488521855203149
 30
0.0
 11
4.24640128354423
 21
1.464428558339846
 31
0.0
  0
LINE
  5
3AF
330
2
100
AcDbEntity
  8
0
100
AcDbLine
 10
4.24640128354423
 20
1.464428558339846
 30
0.0
 11
4.331044839629786
 21
1.431141766620794
 31
0.0
  0
LINE
  5
3B0
330
2
100
AcDbEntity
  8
0
100
AcDbLine
 10
4.331044839629786
 20
1.431141766620794
 30
0.0
 11
4.402690696091737
 21
1.389929548301983
 31
0.0
  0
LINE
  5
3B1
330
2
100
AcDbEntity
  8
0
100
AcDbLine
 10
4.402690696091737
 20
1.389929548301983
 30
0.0
 11
4.501600020056891
 21
1.287216019568935
 31
0.0
  0
LINE
  5
3B2
330
2
100
AcDbEntity
  8
0
100
AcDbLine
 10
4.501600020056891
 20
1.287216019568935
 30
0.0
 11
4.525376299856205
 21
1.229835930986581
 31
0.0
  0
LINE
  5
3B3
330
2
100
AcDbEntity
  8
0
100
AcDbLine
 10
4.525376299856205
 20
1.229835930986581
 30
0.0
 11
4.530131555816064
 21
1.171187774148275
 31
0.0
  0
LINE
  5
3B4
330
2
100
AcDbEntity
  8
0
100
AcDbLine
 10
4.530131555816064
 20
1.171187774148275
 30
0.0
 11
4.516182805000455
 21
1.112856634373956
 31
0.0
  0
LINE
  5
3B5
330
2
100
AcDbEntity
  8
0
100
AcDbLine
 10
4.516182805000455
 20
1.112856634373956
 30
0.0
 11
4.48321303034541
 21
1.057061631111561
 31
0.0
  0
LINE
  5
3B6
330
2
100
AcDbEntity
  8
0
100
AcDbLine
 10
4.48321303034541
 20
1.057061631111561
 30
0.0
 11
4.471483398977757
 21
1.042478846167977
 31
0.0
  0
LINE
  5
3B7
330
2
100
AcDbEntity
  8
0
100
AcDbLine
 10
3.484831190718951
 20
1.041052269380031
 30
0.0
 11
3.453446501383846
 21
1.084166590082789
 31
0.0
  0
LINE
  5
3B8
330
2
100
AcDbEntity
  8
0
100
AcDbLine
 10
3.453446501383846
 20
1.084166590082789
 30
0.0
 11
3.429670221584532
 21
1.141863695729131
 31
0.0
  0
LINE
  5
3B9
330
2
100
AcDbEntity
  8
0
100
AcDbLine
 10
3.429670221584532
 20
1.141863695729131
 30
0.0
 11
3.425548999752649
 21
1.200511852567438
 31
0.0
  0
LINE
  5
3BA
330
2
100
AcDbEntity
  8
0
100
AcDbLine
 10
3.425548999752649
 20
1.200511852567438
 30
0.0
 11
3.439497750568258
 21
1.258842992341756
 31
0.0
  0
LINE
  5
3BB
330
2
100
AcDbEntity
  8
0
100
AcDbLine
 10
3.439497750568258
 20
1.258842992341756
 30
0.0
 11
3.472150508159314
 21
1.314637995604151
 31
0.0
  0
LINE
  5
3BC
330
2
100
AcDbEntity
  8
0
100
AcDbLine
 10
3.472150508159314
 20
1.314637995604151
 30
0.0
 11
3.521922187205878
 21
1.365994759970675
 31
0.0
  0
LINE
  5
3BD
330
2
100
AcDbEntity
  8
0
100
AcDbLine
 10
3.521922187205878
 20
1.365994759970675
 30
0.0
 11
3.586910685324023
 21
1.411328200121369
 31
0.0
  0
LINE
  5
3BE
330
2
100
AcDbEntity
  8
0
100
AcDbLine
 10
3.594138674382992
 20
1.415512825366005
 30
0.0
 11
3.530418244520819
 21
1.371130436407275
 31
0.0
  0
LINE
  5
3BF
330
2
100
AcDbEntity
  8
0
100
AcDbLine
 10
3.530418244520819
 20
1.371130436407275
 30
0.0
 11
3.481914633730226
 21
1.320724723232735
 31
0.0
  0
LINE
  5
3C0
330
2
100
AcDbEntity
  8
0
100
AcDbLine
 10
5.545156791302069
 20
1.007480162303357
 30
0.0
 11
3.799660836968309
 21
-0.0000000670596514
 31
0.0
  0
LINE
  5
3C1
330
2
100
AcDbEntity
  8
0
100
AcDbLine
 10
4.643306647660813
 20
0.9173839127171936
 30
0.0
 11
4.639819459956906
 21
0.919603032165129
 31
0.0
  0
LINE
  5
3C2
330
2
100
AcDbEntity
  8
0
100
AcDbLine
 10
4.446724366280093
 20
0.9173839127171936
 30
0.0
 11
4.430556496016548
 21
0.9062883154775162
 31
0.0
  0
LINE
  5
3C3
330
2
100
AcDbEntity
  8
0
100
AcDbLine
 10
4.430556496016548
 20
0.9062883154775162
 30
0.0
 11
4.409950386857153
 21
0.8799758991662784
 31
0.0
  0
ARC
  5
3C4
330
2
100
AcDbEntity
  8
0
100
AcDbCircle
 10
4.521470508287869
 20
0.8865356304913371
 30
0.0
 40
0.0375305587856106
100
AcDbArc
 50
221.8542714615864
 51
237.6315982757616
  0
LINE
  5
3C5
330
2
100
AcDbEntity
  8
0
100
AcDbLine
 10
4.625363481838928
 20
0.9251191290785508
 30
0.0
 11
4.625363481838928
 21
0.9216319413746434
 31
0.0
  0
LINE
  5
3C6
330
2
100
AcDbEntity
  8
0
100
AcDbLine
 10
4.464667532101957
 20
0.9217270464938236
 30
0.0
 11
4.464667532101957
 21
0.9252142341977307
 31
0.0
  0
LINE
  5
3C7
330
2
100
AcDbEntity
  8
0
100
AcDbLine
 10
4.643306647660813
 20
0.8036064884508547
 30
0.0
 11
4.67278923461197
 21
0.8283338194421531
 31
0.0
  0
LINE
  5
3C8
330
2
100
AcDbEntity
  8
0
100
AcDbLine
 10
4.67278923461197
 20
0.8283338194421531
 30
0.0
 11
4.684518865979623
 21
0.8568653552013264
 31
0.0
  0
LINE
  5
3C9
330
2
100
AcDbEntity
  8
0
100
AcDbLine
 10
4.684518865979623
 20
0.8568653552013264
 30
0.0
 11
4.677227473507842
 21
0.8860309250884753
 31
0.0
  0
LINE
  5
3CA
330
2
100
AcDbEntity
  8
0
100
AcDbLine
 10
4.677227473507842
 20
0.8860309250884753
 30
0.0
 11
4.652817159580531
 21
0.9120263243357253
 31
0.0
  0
LINE
  5
3CB
330
2
100
AcDbEntity
  8
0
100
AcDbLine
 10
4.652817159580531
 20
0.9120263243357253
 30
0.0
 11
4.643306647660813
 21
0.9174156144235801
 31
0.0
  0
LINE
  5
3CC
330
2
100
AcDbEntity
  8
0
100
AcDbLine
 10
4.409886983444319
 20
0.8799124957534443
 30
0.0
 11
4.409886983444319
 21
0.8789614445614807
 31
0.0
  0
LINE
  5
3CD
330
2
100
AcDbEntity
  8
0
100
AcDbLine
 10
4.409886983444319
 20
0.8789614445614807
 30
0.0
 11
4.407033829868407
 21
0.8494788576103234
 31
0.0
  0
LINE
  5
3CE
330
2
100
AcDbEntity
  8
0
100
AcDbLine
 10
4.407033829868407
 20
0.8494788576103234
 30
0.0
 11
4.423835734259908
 21
0.8215813559791261
 31
0.0
  0
LINE
  5
3CF
330
2
100
AcDbEntity
  8
0
100
AcDbLine
 10
4.423835734259908
 20
0.8215813559791261
 30
0.0
 11
4.456171474786996
 21
0.7987561273717753
 31
0.0
  0
LINE
  5
3D0
330
2
100
AcDbEntity
  8
0
100
AcDbLine
 10
4.456171474786996
 20
0.7987561273717753
 30
0.0
 11
4.500870880809694
 21
0.7844903594921988
 31
0.0
  0
LINE
  5
3D1
330
2
100
AcDbEntity
  8
0
100
AcDbLine
 10
4.500870880809694
 20
0.7844903594921988
 30
0.0
 11
4.551593611048242
 21
0.7803691376603157
 31
0.0
  0
LINE
  5
3D2
330
2
100
AcDbEntity
  8
0
100
AcDbLine
 10
4.551593611048242
 20
0.7803691376603157
 30
0.0
 11
4.601365290094807
 21
0.7870264960041222
 31
0.0
  0
LINE
  5
3D3
330
2
100
AcDbEntity
  8
0
100
AcDbLine
 10
4.601365290094807
 20
0.7870264960041222
 30
0.0
 11
4.643211542541613
 21
0.8035113833316341
 31
0.0
  0
ARC
  5
3D4
330
2
100
AcDbEntity
  8
0
100
AcDbCircle
 10
46.10155044889263
 20
28.0901080885602
 30
0.0
 40
0.0160780884354425
100
AcDbArc
 50
304.3765063833325
 51
356.7685811699162
  0
ARC
  5
3D5
330
2
100
AcDbEntity
  8
0
100
AcDbCircle
 10
3.962929768197975
 20
0.8573956308506465
 30
0.0
 40
0.5074283028454194
100
AcDbArc
 50
282.0143914082349
 51
289.4195593952702
  0
ARC
  5
3D6
330
2
100
AcDbEntity
  8
0
100
AcDbCircle
 10
4.544690086060827
 20
0.92368466640981
 30
0.0
 40
0.08104265016241
100
AcDbArc
 50
262.0350566894189
 51
280.7256515003795
  0
ELLIPSE
  5
3D7
330
2
100
AcDbEntity
  8
0
100
AcDbEllipse
 10
47.32128507925502
 20
28.02502340671966
 30
0.0
 11
-0.2529354817100596
 21
0.4369515069034035
 31
0.0
210
0.0
220
0.0
230
0.9999999999999998
 40
0.5770800798594161
 41
0.7833518130476911
 42
3.926706530616185
  0
ELLIPSE
  5
3D8
330
2
100
AcDbEntity
  8
0
100
AcDbEllipse
 10
3.977967162309793
 20
0.5092912574359186
 30
0.0
 11
-0.264099772134764
 21
0.0003946961266526
 31
0.0
210
0.0
220
0.0
230
0.9999999999999998
 40
0.5773445066805891
 41
0.7837475398511878
 42
7.066932847030773
  0
ELLIPSE
  5
3D9
330
2
100
AcDbEntity
  8
0
100
AcDbEllipse
 10
3.97785362934388
 20
0.5300156881500594
 30
0.0
 11
0.2898505379421188
 21
0.0001852436873604
 31
0.0
210
0.0
220
0.0
230
1.0
 40
0.579178128733505
 41
6.27701454988892
 42
9.432517820669193
  0
SPLINE
  5
3DA
330
2
100
AcDbEntity
  8
0
100
AcDbSpline
210
0.0
220
0.0
230
1.0
 70
     8
 71
     3
 72
     8
 73
     4
 74
     0
 42
0.000000001
 43
0.0000000001
 40
0.0
 40
0.0
 40
0.0
 40
0.0
 40
1.0
 40
1.0
 40
1.0
 40
1.0
 10
45.17847162290953
 20
29.67492113681516
 30
0.0
 10
45.1797396911655
 20
29.68189551222298
 30
0.0
 10
45.17466741814163
 20
29.68886988763075
 30
0.0
 10
45.16737602566985
 20
29.69013795588674
 30
0.0
  0
SPLINE
  5
3DB
330
2
100
AcDbEntity
  8
0
100
AcDbSpline
210
0.0
220
0.0
230
1.0
 70
     8
 71
     3
 72
     8
 73
     4
 74
     0
 42
0.000000001
 43
0.0000000001
 40
0.0
 40
0.0
 40
0.0
 40
0.0
 40
1.0
 40
1.0
 40
1.0
 40
1.0
 10
45.16737602566985
 20
29.69013795588674
 30
0.0
 10
45.16357182090195
 20
29.69077199001472
 30
0.0
 10
45.15976761613406
 20
29.68950392175873
 30
0.0
 10
45.15691446255815
 20
29.68728480231082
 30
0.0
  0
SPLINE
  5
3DC
330
2
100
AcDbEntity
  8
0
100
AcDbSpline
210
0.0
220
0.0
230
1.0
 70
     8
 71
     3
 72
     8
 73
     4
 74
     0
 42
0.000000001
 43
0.0000000001
 40
0.0
 40
0.0
 40
0.0
 40
0.0
 40
1.0
 40
1.0
 40
1.0
 40
1.0
 10
49.46378148711263
 20
27.2006980574856
 30
0.0
 10
49.46473253830459
 20
27.20640436463742
 30
0.0
 10
49.46219640179267
 20
27.21147663766131
 30
0.0
 10
49.4577581628968
 20
27.21464680830119
 30
0.0
  0
SPLINE
  5
3DD
330
2
100
AcDbEntity
  8
0
100
AcDbSpline
210
0.0
220
0.0
230
1.0
 70
     8
 71
     2
 72
     6
 73
     3
 74
     0
 42
0.000000001
 43
0.0000000001
 40
0.0
 40
0.0
 40
0.0
 40
1.0
 40
1.0
 40
1.0
 10
48.48917592728547
 20
26.68709871211397
 30
0.0
 10
48.50153959278111
 20
26.69534115577774
 30
0.0
 10
48.50715079481375
 20
26.70976543218933
 30
0.0
  0
SPLINE
  5
3DE
330
2
100
AcDbEntity
  8
0
100
AcDbSpline
210
0.0
220
0.0
230
1.0
 70
     8
 71
     3
 72
     8
 73
     4
 74
     0
 42
0.000000001
 43
0.0000000001
 40
0.0
 40
0.0
 40
0.0
 40
0.0
 40
1.0
 40
1.0
 40
1.0
 40
1.0
 10
49.96590481476776
 20
26.90381157705817
 30
0.0
 10
49.96527078063978
 20
26.90951788420999
 30
0.0
 10
49.96146657587189
 20
26.91395612310586
 30
0.0
 10
49.95702833697602
 20
26.91617524255382
 30
0.0
  0
SPLINE
  5
3DF
330
2
100
AcDbEntity
  8
0
100
AcDbSpline
210
0.0
220
0.0
230
1.0
 70
     8
 71
     3
 72
     8
 73
     4
 74
     0
 42
0.000000001
 43
0.0000000001
 40
0.0
 40
0.0
 40
0.0
 40
0.0
 40
1.0
 40
1.0
 40
1.0
 40
1.0
 10
49.95693323185683
 20
26.66509772787298
 30
0.0
 10
49.96359059020064
 20
26.66763386438492
 30
0.0
 10
49.96707777790454
 20
26.67524227392068
 30
0.0
 10
49.96454164139263
 20
26.68221664932849
 30
0.0
  0
SPLINE
  5
3E0
330
2
100
AcDbEntity
  8
0
100
AcDbSpline
210
0.0
220
0.0
230
1.0
 70
     8
 71
     3
 72
     8
 73
     4
 74
     0
 42
0.000000001
 43
0.0000000001
 40
0.0
 40
0.0
 40
0.0
 40
0.0
 40
1.0
 40
1.0
 40
1.0
 40
1.0
 10
49.96454164139263
 20
26.68221664932849
 30
0.0
 10
49.96327357313665
 20
26.68538681996841
 30
0.0
 10
49.96042041956074
 20
26.6882399735443
 30
0.0
 10
49.95693323185683
 20
26.68982505886428
 30
0.0
  0
SPLINE
  5
3E1
330
2
100
AcDbEntity
  8
0
100
AcDbSpline
210
0.0
220
0.0
230
1.0
 70
     8
 71
     3
 72
     8
 73
     4
 74
     0
 42
0.000000001
 43
0.0000000001
 40
0.0
 40
0.0
 40
0.0
 40
0.0
 40
1.0
 40
1.0
 40
1.0
 40
1.0
 10
48.62511284432475
 20
26.31869318205018
 30
0.0
 10
48.62606389551672
 20
26.30664653361852
 30
0.0
 10
48.63525739037246
 20
26.2971360216988
 30
0.0
 10
48.64730403880411
 20
26.29618497050683
 30
0.0
  0
SPLINE
  5
3E2
330
2
100
AcDbEntity
  8
0
100
AcDbSpline
210
0.0
220
0.0
230
1.0
 70
     8
 71
     3
 72
     8
 73
     4
 74
     0
 42
0.000000001
 43
0.0000000001
 40
0.0
 40
0.0
 40
0.0
 40
0.0
 40
1.0
 40
1.0
 40
1.0
 40
1.0
 10
49.97769784954822
 20
26.8787355272965
 30
0.0
 10
49.97579574716428
 20
26.8885630562802
 30
0.0
 10
49.9713575082684
 20
26.89775655113593
 30
0.0
 10
49.96565120111656
 20
26.90568197773571
 30
0.0
  0
SPLINE
  5
3E3
330
2
100
AcDbEntity
  8
0
100
AcDbSpline
210
0.0
220
0.0
230
1.0
 70
     8
 71
     3
 72
     8
 73
     4
 74
     0
 42
0.000000001
 43
0.0000000001
 40
0.0
 40
0.0
 40
0.0
 40
0.0
 40
1.0
 40
1.0
 40
1.0
 40
1.0
 10
3.689782722589066
 20
0.5285307820259754
 30
0.0
 10
3.689782722589066
 20
0.5187032530422497
 30
0.0
 10
3.689782722589066
 20
0.5091927411225319
 30
0.0
 10
3.691367807909025
 20
0.4999992462668022
 30
0.0
  0
SPLINE
  5
3E4
330
2
100
AcDbEntity
  8
0
100
AcDbSpline
210
0.0
220
0.0
230
1.0
 70
     8
 71
     3
 72
     8
 73
     4
 74
     0
 42
0.000000001
 43
0.0000000001
 40
0.0
 40
0.0
 40
0.0
 40
0.0
 40
1.0
 40
1.0
 40
1.0
 40
1.0
 10
3.691367807909025
 20
0.4999992462668022
 30
0.0
 10
3.694854995612912
 20
0.4860504954511934
 30
0.0
 10
3.702146388084714
 20
0.4724187616995926
 30
0.0
 10
3.710705848812469
 20
0.4600550962039434
 30
0.0
  0
SPLINE
  5
3E5
330
2
100
AcDbEntity
  8
0
100
AcDbSpline
210
0.0
220
0.0
230
1.0
 70
     8
 71
     3
 72
     8
 73
     4
 74
     0
 42
0.000000001
 43
0.0000000001
 40
0.0
 40
0.0
 40
0.0
 40
0.0
 40
1.0
 40
1.0
 40
1.0
 40
1.0
 10
3.982643086303836
 20
0.3534739592901863
 30
0.0
 10
3.988983427583654
 20
0.3534739592901863
 30
0.0
 10
3.995323768863472
 20
0.3531569422261984
 30
0.0
 10
4.001664110143291
 20
0.3531569422261984
 30
0.0
  0
SPLINE
  5
3E6
330
2
100
AcDbEntity
  8
0
100
AcDbSpline
210
0.0
220
0.0
230
1.0
 70
     8
 71
     3
 72
     8
 73
     4
 74
     0
 42
0.000000001
 43
0.0000000001
 40
0.0
 40
0.0
 40
0.0
 40
0.0
 40
1.0
 40
1.0
 40
1.0
 40
1.0
 10
4.001664110143291
 20
0.3531569422261984
 30
0.0
 10
4.02480635581463
 20
0.3531569422261984
 30
0.0
 10
4.047314567357973
 20
0.3566441299300854
 30
0.0
 10
4.068554710645363
 20
0.3610823688259766
 30
0.0
  0
SPLINE
  5
3E7
330
2
100
AcDbEntity
  8
0
100
AcDbSpline
210
0.0
220
0.0
230
1.0
 70
     8
 71
     3
 72
     8
 73
     4
 74
     0
 42
0.000000001
 43
0.0000000001
 40
0.0
 40
0.0
 40
0.0
 40
0.0
 40
1.0
 40
1.0
 40
1.0
 40
1.0
 10
4.13164110637954
 20
0.3788353244094604
 30
0.0
 10
4.150979147282984
 20
0.3864437339452305
 30
0.0
 10
4.169366136994464
 20
0.3950031946729845
 30
0.0
 10
4.185851024321996
 20
0.4054647577846862
 30
0.0
  0
SPLINE
  5
3E8
330
2
100
AcDbEntity
  8
0
100
AcDbSpline
210
0.0
220
0.0
230
1.0
 70
     8
 71
     3
 72
     8
 73
     4
 74
     0
 42
0.000000001
 43
0.0000000001
 40
0.0
 40
0.0
 40
0.0
 40
0.0
 40
1.0
 40
1.0
 40
1.0
 40
1.0
 10
4.185851024321996
 20
0.4054647577846862
 30
0.0
 10
4.202018894585521
 20
0.4159263208963877
 30
0.0
 10
4.216918696593093
 20
0.4276559522640612
 30
0.0
 10
4.228648327960766
 20
0.44001961775969
 30
0.0
  0
SPLINE
  5
3E9
330
2
100
AcDbEntity
  8
0
100
AcDbSpline
210
0.0
220
0.0
230
1.0
 70
     8
 71
     3
 72
     8
 73
     4
 74
     0
 42
0.000000001
 43
0.0000000001
 40
0.0
 40
0.0
 40
0.0
 40
0.0
 40
1.0
 40
1.0
 40
1.0
 40
1.0
 10
4.228648327960766
 20
0.44001961775969
 30
0.0
 10
4.240377959328419
 20
0.453017317383315
 30
0.0
 10
4.248937420056173
 20
0.466649051134936
 30
0.0
 10
4.256862846655952
 20
0.4815488531425086
 30
0.0
  0
SPLINE
  5
3EA
330
2
100
AcDbEntity
  8
0
100
AcDbSpline
210
0.0
220
0.0
230
1.0
 70
     8
 71
     3
 72
     8
 73
     4
 74
     0
 42
0.000000001
 43
0.0000000001
 40
0.0
 40
0.0
 40
0.0
 40
0.0
 40
1.0
 40
1.0
 40
1.0
 40
1.0
 10
4.256862846655952
 20
0.4815488531425086
 30
0.0
 10
4.264154239127734
 20
0.4961316380860729
 30
0.0
 10
4.269543529215589
 20
0.5116654742216415
 30
0.0
 10
4.267641426831641
 20
0.526248259165206
 30
0.0
  0
SPLINE
  5
3EB
330
2
100
AcDbEntity
  8
0
100
AcDbSpline
210
0.0
220
0.0
230
1.0
 70
     8
 71
     3
 72
     8
 73
     4
 74
     0
 42
0.000000001
 43
0.0000000001
 40
0.0
 40
0.0
 40
0.0
 40
0.0
 40
1.0
 40
1.0
 40
1.0
 40
1.0
 10
3.778008571497688
 20
0.4003607830544528
 30
0.0
 10
3.786568032225443
 20
0.3956055270945939
 30
0.0
 10
3.796712578273156
 20
0.3908502711347351
 30
0.0
 10
3.806540107256862
 20
0.3864120322388642
 30
0.0
  0
SPLINE
  5
3EC
330
2
100
AcDbEntity
  8
0
100
AcDbSpline
210
0.0
220
0.0
230
1.0
 70
     8
 71
     3
 72
     8
 73
     4
 74
     0
 42
0.000000001
 43
0.0000000001
 40
0.0
 40
0.0
 40
0.0
 40
0.0
 40
1.0
 40
1.0
 40
1.0
 40
1.0
 10
3.806540107256862
 20
0.3864120322388642
 30
0.0
 10
3.824293062840366
 20
0.3778525715111101
 30
0.0
 10
3.845216189063749
 20
0.3711952131672834
 30
0.0
 10
3.866773349415128
 20
0.3658059230794488
 30
0.0
  0
SPLINE
  5
3ED
330
2
100
AcDbEntity
  8
0
100
AcDbSpline
210
0.0
220
0.0
230
1.0
 70
     8
 71
     3
 72
     8
 73
     4
 74
     0
 42
0.000000001
 43
0.0000000001
 40
0.0
 40
0.0
 40
0.0
 40
0.0
 40
1.0
 40
1.0
 40
1.0
 40
1.0
 10
4.465935600357909
 20
0.9217270464938236
 30
0.0
 10
4.46561858329392
 20
0.915386705214005
 30
0.0
 10
4.46561858329392
 20
0.9096803980621622
 30
0.0
 10
4.467520685677868
 20
0.9033400567823438
 30
0.0
  0
SPLINE
  5
3EE
330
2
100
AcDbEntity
  8
0
100
AcDbSpline
210
0.0
220
0.0
230
1.0
 70
     8
 71
     3
 72
     8
 73
     4
 74
     0
 42
0.000000001
 43
0.0000000001
 40
0.0
 40
0.0
 40
0.0
 40
0.0
 40
1.0
 40
1.0
 40
1.0
 40
1.0
 10
4.467520685677868
 20
0.9033400567823438
 30
0.0
 10
4.468471736869831
 20
0.8950976131185978
 30
0.0
 10
4.472592958701715
 20
0.8865381523908439
 30
0.0
 10
4.477348214661573
 20
0.8789297428550534
 30
0.0
  0
SPLINE
  5
3EF
330
2
100
AcDbEntity
  8
0
100
AcDbSpline
210
0.0
220
0.0
230
1.0
 70
     8
 71
     3
 72
     8
 73
     4
 74
     0
 42
0.000000001
 43
0.0000000001
 40
0.0
 40
0.0
 40
0.0
 40
0.0
 40
1.0
 40
1.0
 40
1.0
 40
1.0
 10
4.477348214661573
 20
0.8789297428550534
 30
0.0
 10
4.481786453557445
 20
0.872589401575235
 30
0.0
 10
4.487492760709288
 20
0.8662490602954164
 30
0.0
 10
4.493516084925119
 20
0.8614938043355577
 30
0.0
  0
SPLINE
  5
3F0
330
2
100
AcDbEntity
  8
0
100
AcDbSpline
210
0.0
220
0.0
230
1.0
 70
     8
 71
     3
 72
     8
 73
     4
 74
     0
 42
0.000000001
 43
0.0000000001
 40
0.0
 40
0.0
 40
0.0
 40
0.0
 40
1.0
 40
1.0
 40
1.0
 40
1.0
 10
4.511903074636578
 20
0.8494471559038963
 30
0.0
 10
4.518877450044392
 20
0.846594002327985
 30
0.0
 10
4.525534808388199
 20
0.8443748828800497
 30
0.0
 10
4.533460234987956
 20
0.8434238316880859
 30
0.0
  0
SPLINE
  5
3F1
330
2
100
AcDbEntity
  8
0
100
AcDbSpline
210
0.0
220
0.0
230
1.0
 70
     8
 71
     3
 72
     8
 73
     4
 74
     0
 42
0.000000001
 43
0.0000000001
 40
0.0
 40
0.0
 40
0.0
 40
0.0
 40
1.0
 40
1.0
 40
1.0
 40
1.0
 10
4.559772651299215
 20
0.8440578658160617
 30
0.0
 10
4.569283163218933
 20
0.8453259340720132
 30
0.0
 10
4.578159641010675
 20
0.8488131217759205
 30
0.0
 10
4.585768050546464
 20
0.8532513606717914
 30
0.0
  0
SPLINE
  5
3F2
330
2
100
AcDbEntity
  8
0
100
AcDbSpline
210
0.0
220
0.0
230
1.0
 70
     8
 71
     3
 72
     8
 73
     4
 74
     0
 42
0.000000001
 43
0.0000000001
 40
0.0
 40
0.0
 40
0.0
 40
0.0
 40
1.0
 40
1.0
 40
1.0
 40
1.0
 10
4.585768050546464
 20
0.8532513606717914
 30
0.0
 10
4.593693477146223
 20
0.8576895995676624
 30
0.0
 10
4.600667852554037
 20
0.8630788896555174
 30
0.0
 10
4.605740125577884
 20
0.8694192309353358
 30
0.0
  0
SPLINE
  5
3F3
330
2
100
AcDbEntity
  8
0
100
AcDbSpline
210
0.0
220
0.0
230
1.0
 70
     8
 71
     3
 72
     8
 73
     4
 74
     0
 42
0.000000001
 43
0.0000000001
 40
0.0
 40
0.0
 40
0.0
 40
0.0
 40
1.0
 40
1.0
 40
1.0
 40
1.0
 10
4.605740125577884
 20
0.8694192309353358
 30
0.0
 10
4.611446432729726
 20
0.8767106234071182
 30
0.0
 10
4.616835722817561
 20
0.8849530670708841
 30
0.0
 10
4.620005893457481
 20
0.8931955107346503
 30
0.0
  0
SPLINE
  5
3F4
330
2
100
AcDbEntity
  8
0
100
AcDbSpline
210
0.0
220
0.0
230
1.0
 70
     8
 71
     3
 72
     8
 73
     4
 74
     0
 42
0.000000001
 43
0.0000000001
 40
0.0
 40
0.0
 40
0.0
 40
0.0
 40
1.0
 40
1.0
 40
1.0
 40
1.0
 10
4.620005893457481
 20
0.8931955107346503
 30
0.0
 10
4.624127115289364
 20
0.9020719885263922
 30
0.0
 10
4.626980268865275
 20
0.9115825004461099
 30
0.0
 10
4.625395183545315
 20
0.9210930123658478
 30
0.0
  0
SPLINE
  5
3F5
330
2
100
AcDbEntity
  8
0
100
AcDbSpline
210
0.0
220
0.0
230
1.0
 70
     8
 71
     3
 72
     8
 73
     4
 74
     0
 42
0.000000001
 43
0.0000000001
 40
0.0
 40
0.0
 40
0.0
 40
0.0
 40
1.0
 40
1.0
 40
1.0
 40
1.0
 10
4.446724366280093
 20
0.9173839127171936
 30
0.0
 10
4.452430673431935
 20
0.9205540833570927
 30
0.0
 10
4.458453997647746
 20
0.924041271061
 30
0.0
 10
4.464794338927564
 20
0.9262603905089354
 30
0.0
  0
SPLINE
  5
3F6
330
2
100
AcDbEntity
  8
0
100
AcDbSpline
210
0.0
220
0.0
230
1.0
 70
     8
 71
     3
 72
     8
 73
     4
 74
     0
 42
0.000000001
 43
0.0000000001
 40
0.0
 40
0.0
 40
0.0
 40
0.0
 40
1.0
 40
1.0
 40
1.0
 40
1.0
 10
4.464794338927564
 20
0.9262603905089354
 30
0.0
 10
4.476840987359225
 20
0.9313326635327822
 30
0.0
 10
4.492057806430786
 20
0.9354538853646653
 30
0.0
 10
4.50664059137437
 20
0.9379900218766088
 30
0.0
  0
SPLINE
  5
3F7
330
2
100
AcDbEntity
  8
0
100
AcDbSpline
210
0.0
220
0.0
230
1.0
 70
     8
 71
     3
 72
     8
 73
     4
 74
     0
 42
0.000000001
 43
0.0000000001
 40
0.0
 40
0.0
 40
0.0
 40
0.0
 40
1.0
 40
1.0
 40
1.0
 40
1.0
 10
4.599526591123693
 20
0.9348198512366895
 30
0.0
 10
4.614426393131266
 20
0.9310156464687942
 30
0.0
 10
4.629326195138838
 20
0.9268944246369112
 30
0.0
 10
4.638836707058556
 20
0.9202370662931048
 30
0.0
  0
SPLINE
  5
3F8
330
2
100
AcDbEntity
  8
0
100
AcDbSpline
210
0.0
220
0.0
230
1.0
 70
     8
 71
     3
 72
     8
 73
     4
 74
     0
 42
0.000000001
 43
0.0000000001
 40
0.0
 40
0.0
 40
0.0
 40
0.0
 40
1.0
 40
1.0
 40
1.0
 40
1.0
 10
4.638836707058556
 20
0.9202370662931048
 30
0.0
 10
4.638836707058556
 20
0.9199200492291168
 30
0.0
 10
4.639153724122563
 20
0.919603032165129
 30
0.0
 10
4.639787758250539
 20
0.919603032165129
 30
0.0
  0
SPLINE
  5
3F9
330
2
100
AcDbEntity
  8
0
100
AcDbSpline
210
0.0
220
0.0
230
1.0
 70
     8
 71
     3
 72
     8
 73
     4
 74
     0
 42
0.000000001
 43
0.0000000001
 40
0.0
 40
0.0
 40
0.0
 40
0.0
 40
1.0
 40
1.0
 40
1.0
 40
1.0
 10
3.626632923442075
 20
2.115486502657865
 30
0.0
 10
3.639947640129687
 20
2.091393205794563
 30
0.0
 10
3.658334629841167
 20
2.07205516489112
 30
0.0
 10
3.678306704872587
 20
2.060642550587434
 30
0.0
  0
ARC
  5
3FA
330
2
100
AcDbEntity
  8
0
100
AcDbCircle
 10
3.853213063499275
 20
0.5571580223743339
 30
0.0
 40
0.1724450187991633
100
AcDbArc
 50
214.2701083348373
 51
230.4285123219952
  0
ARC
  5
3FB
330
2
100
AcDbEntity
  8
0
100
AcDbCircle
 10
4.175899326046234
 20
1.01586000863656
 30
0.0
 40
0.73288128368958
100
AcDbArc
 50
233.8293609628982
 51
237.1089875169279
  0
ARC
  5
3FC
330
2
100
AcDbEntity
  8
0
100
AcDbCircle
 10
3.968830157948318
 20
0.7582614847962512
 30
0.0
 40
0.4055082737632257
100
AcDbArc
 50
255.4232727822183
 51
264.8451133321135
  0
ARC
  5
3FD
330
2
100
AcDbEntity
  8
0
100
AcDbCircle
 10
3.974297859856444
 20
1.238971223253881
 30
0.0
 40
0.8855697954190782
100
AcDbArc
 50
267.2879571347486
 51
270.5501944793734
  0
ARC
  5
3FE
330
2
100
AcDbEntity
  8
0
100
AcDbCircle
 10
4.536990075857201
 20
0.6368617616709578
 30
0.0
 40
0.3044500597472103
100
AcDbArc
 50
78.14660879169686
 51
86.82050778320407
  0
ARC
  5
3FF
330
2
100
AcDbEntity
  8
0
100
AcDbCircle
 10
4.545713900434563
 20
0.6835415839320083
 30
0.0
 40
0.2574310219327902
100
AcDbArc
 50
88.18304756655155
 51
98.7301907732125
  0
LINE
  5
400
330
2
100
AcDbEntity
  8
0
100
AcDbLine
 10
3.667750036641684
 20
0.0171505561022635
 30
0.0
 11
3.695345347077012
 21
0.0310849553933657
 31
0.0
  0
ARC
  5
401
330
2
100
AcDbEntity
  8
0
100
AcDbCircle
 10
44.6382159076045
 20
29.96510344520679
 30
0.0
 40
0.0187157086183426
100
AcDbArc
 50
52.19898202641521
 51
116.470604460853
  0
ARC
  5
402
330
2
100
AcDbEntity
  8
0
100
AcDbCircle
 10
48.11273676378601
 20
25.72215321104007
 30
0.0
 40
0.0426886786205267
100
AcDbArc
 50
250.0438499674351
 51
297.1950876027156
  0
ARC
  5
403
330
2
100
AcDbEntity
  8
0
100
AcDbCircle
 10
46.45278177395229
 20
26.87125946063124
 30
0.0
 40
0.136776554208207
100
AcDbArc
 50
207.8744311000551
 51
239.0500241305704
  0
LINE
  5
404
330
2
100
AcDbEntity
  8
0
100
AcDbLine
 10
3.695345347077012
 20
0.0310849553933657
 30
0.0
 11
3.799660836968309
 21
-0.0000000670596514
 31
0.0
  0
ENDSEC
  0
SECTION
  2
OBJECTS
  0
DICTIONARY
  5
A
330
0
100
AcDbDictionary
281
     1
  3
ACAD_COLOR
350
3F
  3
ACAD_GROUP
350
36
  3
ACAD_LAYOUT
350
17
  3
ACAD_MATERIAL
350
C
  3
ACAD_MLEADERSTYLE
350
42
  3
ACAD_MLINESTYLE
350
37
  3
ACAD_PLOTSETTINGS
350
38
  3
ACAD_PLOTSTYLENAME
350
9
  3
ACAD_SCALELIST
350
40
  3
ACAD_TABLESTYLE
350
41
  3
ACAD_VISUALSTYLE
350
2C
  3
ACDB_RECOMPOSE_DATA
350
414
  3
AcDbVariableDictionary
350
406
  3
AcDsDecomposeData
350
41A
  0
DICTIONARY
  5
1F
330
1E
100
AcDbDictionary
280
     1
281
     1
  3
ACAD_LAYERSTATES
360
20
  0
DICTIONARY
  5
7
330
6
100
AcDbDictionary
280
     1
281
     1
  0
DICTIONARY
  5
3
330
2
100
AcDbDictionary
280
     1
281
     1
  3
ACAD_SORTENTS
360
405
  0
DICTIONARY
  5
3F
102
{ACAD_REACTORS
330
A
102
}
330
A
100
AcDbDictionary
281
     1
  0
DICTIONARY
  5
36
102
{ACAD_REACTORS
330
A
102
}
330
A
100
AcDbDictionary
281
     1
  0
DICTIONARY
  5
17
102
{ACAD_REACTORS
330
A
102
}
330
A
100
AcDbDictionary
281
     1
  3
Model
350
16
  3
レイアウト1
350
1D
  0
DICTIONARY
  5
C
102
{ACAD_REACTORS
330
A
102
}
330
A
100
AcDbDictionary
281
     1
  3
ByBlock
350
3C
  3
ByLayer
350
39
  3
Global
350
B
  0
DICTIONARY
  5
42
102
{ACAD_REACTORS
330
A
102
}
330
A
100
AcDbDictionary
281
     1
  0
DICTIONARY
  5
37
102
{ACAD_REACTORS
330
A
102
}
330
A
100
AcDbDictionary
281
     1
  3
Standard
350
43
  0
DICTIONARY
  5
38
102
{ACAD_REACTORS
330
A
102
}
330
A
100
AcDbDictionary
281
     1
  0
ACDBDICTIONARYWDFLT
  5
9
102
{ACAD_REACTORS
330
A
102
}
330
A
100
AcDbDictionary
281
     1
  3
Normal
350
8
100
AcDbDictionaryWithDefault
340
8
  0
DICTIONARY
  5
40
102
{ACAD_REACTORS
330
A
102
}
330
A
100
AcDbDictionary
281
     1
  3
A0
350
48
  3
A1
350
49
  3
A2
350
4A
  3
A3
350
4B
  3
A4
350
4C
  3
A5
350
4D
  3
A6
350
4E
  3
A7
350
4F
  3
A8
350
50
  3
A9
350
51
  3
B0
350
52
  3
B1
350
53
  3
B2
350
54
  3
B3
350
55
  3
B4
350
56
  3
B5
350
57
  3
B6
350
58
  0
DICTIONARY
  5
41
102
{ACAD_REACTORS
330
A
102
}
330
A
100
AcDbDictionary
281
     1
  3
Standard
350
44
  0
DICTIONARY
  5
2C
102
{ACAD_REACTORS
330
A
102
}
330
A
100
AcDbDictionary
281
     1
  3
2dWireframe
350
2B
  3
Realistic
350
46
  3
Wireframe
350
47
  0
XRECORD
  5
414
102
{ACAD_REACTORS
330
A
102
}
330
A
100
AcDbXrecord
280
     1
 90
        1
330
44
  0
DICTIONARY
  5
406
102
{ACAD_REACTORS
330
A
102
}
330
A
100
AcDbDictionary
281
     1
  3
CANNOSCALE
350
40C
  3
CMLEADERSTYLE
350
408
  3
CTABLESTYLE
350
407
  3
CVIEWDETAILSTYLE
350
409
  3
CVIEWSECTIONSTYLE
350
40A
  3
LAYEREVAL
350
40E
  3
LAYERNOTIFY
350
40F
  3
LIGHTINGUNITS
350
40D
  3
MSLTSCALE
350
40B
  3
PSOLHEIGHT
350
411
  3
PSOLWIDTH
350
410
  3
XCLIPFRAME
350
412
  0
DICTIONARY
  5
41A
102
{ACAD_REACTORS
330
A
102
}
330
A
100
AcDbDictionary
281
     1
  3
AcDsRecords
350
41C
  3
AcDsSchemas
350
41B
1001
ACAD
1070
     2
  0
DICTIONARY
  5
20
102
{ACAD_REACTORS
330
1F
102
}
330
1F
100
AcDbDictionary
281
     1
  0
SORTENTSTABLE
  5
405
102
{ACAD_REACTORS
330
3
102
}
330
3
100
AcDbSortentsTable
330
2
  0
LAYOUT
  5
16
102
{ACAD_XDICTIONARY
360
18
102
}
102
{ACAD_REACTORS
330
17
102
}
330
17
100
AcDbPlotSettings
  1

  2
none_device
  4
ISO_A4_(210.00_x_297.00_MM)
  6

 40
7.5
 41
20.0
 42
7.5
 43
20.0
 44
210.0
 45
297.0
 46
11.54999923706054
 47
-13.65000009536743
 48
0.0
 49
0.0
140
0.0
141
0.0
142
1.0
143
8.704084754739808
 70
 11952
 72
     1
 73
     0
 74
     0
  7

 75
     0
147
0.1148885871608098
 76
     0
 77
     2
 78
   300
148
0.0
149
0.0
100
AcDbLayout
  1
Model
 70
     1
 71
     0
 10
0.0
 20
0.0
 11
12.0
 21
9.0
 12
0.0
 22
0.0
 32
0.0
 14
0.0
 24
0.0
 34
0.0
 15
0.0
 25
0.0
 35
0.0
146
0.0
 13
0.0
 23
0.0
 33
0.0
 16
1.0
 26
0.0
 36
0.0
 17
0.0
 27
1.0
 37
0.0
 76
     0
330
2
331
2A
1001
ACAD_PSEXT
1000
None
1000
None
1000
Not applicable
1000
The layout will not be plotted unless a new plotter configuration name is selected.
1070
     0
  0
LAYOUT
  5
1D
102
{ACAD_REACTORS
330
17
102
}
330
17
100
AcDbPlotSettings
  1

  2
C:\Documents and Settings\basas\Application Data\Autodesk\AutoCAD 2005\R16.1\enu\plotters\Default Windows System Printer.pc3
  4

  6

 40
0.0
 41
0.0
 42
0.0
 43
0.0
 44
0.0
 45
0.0
 46
0.0
 47
0.0
 48
0.0
 49
0.0
140
0.0
141
0.0
142
1.0
143
1.0
 70
   688
 72
     0
 73
     0
 74
     5
  7

 75
    16
147
1.0
 76
     0
 77
     2
 78
   300
148
0.0
149
0.0
100
AcDbLayout
  1
レイアウト1
 70
     1
 71
     1
 10
0.0
 20
0.0
 11
12.0
 21
9.0
 12
0.0
 22
0.0
 32
0.0
 14
0.0
 24
0.0
 34
0.0
 15
0.0
 25
0.0
 35
0.0
146
0.0
 13
0.0
 23
0.0
 33
0.0
 16
1.0
 26
0.0
 36
0.0
 17
0.0
 27
1.0
 37
0.0
 76
     0
330
1A
  0
MATERIAL
  5
3C
102
{ACAD_XDICTIONARY
360
3D
102
}
102
{ACAD_REACTORS
330
C
102
}
330
C
100
AcDbMaterial
  1
ByBlock
  0
MATERIAL
  5
39
102
{ACAD_XDICTIONARY
360
3A
102
}
102
{ACAD_REACTORS
330
C
102
}
330
C
100
AcDbMaterial
  1
ByLayer
  0
MATERIAL
  5
B
102
{ACAD_XDICTIONARY
360
D
102
}
102
{ACAD_REACTORS
330
C
102
}
330
C
100
AcDbMaterial
  1
Global
 43
0.0007999999797903
 43
0.0
 43
0.0
 43
0.0
 43
0.0
 43
0.0007999999797903
 43
0.0
 43
0.0
 43
0.0
 43
0.0
 43
1.0
 43
0.0
 43
0.0
 43
0.0
 43
0.0
 43
1.0
 49
0.0007999999797903
 49
0.0
 49
0.0
 49
0.0
 49
0.0
 49
0.0007999999797903
 49
0.0
 49
0.0
 49
0.0
 49
0.0
 49
1.0
 49
0.0
 49
0.0
 49
0.0
 49
0.0
 49
1.0
142
0.0007999999797903
142
0.0
142
0.0
142
0.0
142
0.0
142
0.0007999999797903
142
0.0
142
0.0
142
0.0
142
0.0
142
1.0
142
0.0
142
0.0
142
0.0
142
0.0
142
1.0
144
0.0007999999797903
144
0.0
144
0.0
144
0.0
144
0.0
144
0.0007999999797903
144
0.0
144
0.0
144
0.0
144
0.0
144
1.0
144
0.0
144
0.0
144
0.0
144
0.0
144
1.0
1001
ACAD
1070
    -1
1070
     3
1070
     0
1000

1071
        0
1070
     0
  0
MLINESTYLE
  5
43
102
{ACAD_REACTORS
330
37
102
}
330
37
100
AcDbMlineStyle
  2
STANDARD
 70
     0
  3

 62
   256
 51
90.0
 52
90.0
 71
     2
 49
0.5
 62
   256
  6
BYLAYER
 49
-0.5
 62
   256
  6
BYLAYER
  0
ACDBPLACEHOLDER
  5
8
102
{ACAD_REACTORS
330
9
102
}
330
9
  0
SCALE
  5
48
102
{ACAD_REACTORS
330
40
102
}
330
40
100
AcDbScale
 70
     0
300
1:1
140
1.0
141
1.0
290
     1
  0
SCALE
  5
49
102
{ACAD_REACTORS
330
40
102
}
330
40
100
AcDbScale
 70
     0
300
1:2
140
1.0
141
2.0
290
     0
  0
SCALE
  5
4A
102
{ACAD_REACTORS
330
40
102
}
330
40
100
AcDbScale
 70
     0
300
1:4
140
1.0
141
4.0
290
     0
  0
SCALE
  5
4B
102
{ACAD_REACTORS
330
40
102
}
330
40
100
AcDbScale
 70
     0
300
1:5
140
1.0
141
5.0
290
     0
  0
SCALE
  5
4C
102
{ACAD_REACTORS
330
40
102
}
330
40
100
AcDbScale
 70
     0
300
1:8
140
1.0
141
8.0
290
     0
  0
SCALE
  5
4D
102
{ACAD_REACTORS
330
40
102
}
330
40
100
AcDbScale
 70
     0
300
1:10
140
1.0
141
10.0
290
     0
  0
SCALE
  5
4E
102
{ACAD_REACTORS
330
40
102
}
330
40
100
AcDbScale
 70
     0
300
1:16
140
1.0
141
16.0
290
     0
  0
SCALE
  5
4F
102
{ACAD_REACTORS
330
40
102
}
330
40
100
AcDbScale
 70
     0
300
1:20
140
1.0
141
20.0
290
     0
  0
SCALE
  5
50
102
{ACAD_REACTORS
330
40
102
}
330
40
100
AcDbScale
 70
     0
300
1:30
140
1.0
141
30.0
290
     0
  0
SCALE
  5
51
102
{ACAD_REACTORS
330
40
102
}
330
40
100
AcDbScale
 70
     0
300
1:40
140
1.0
141
40.0
290
     0
  0
SCALE
  5
52
102
{ACAD_REACTORS
330
40
102
}
330
40
100
AcDbScale
 70
     0
300
1:50
140
1.0
141
50.0
290
     0
  0
SCALE
  5
53
102
{ACAD_REACTORS
330
40
102
}
330
40
100
AcDbScale
 70
     0
300
1:100
140
1.0
141
100.0
290
     0
  0
SCALE
  5
54
102
{ACAD_REACTORS
330
40
102
}
330
40
100
AcDbScale
 70
     0
300
2:1
140
2.0
141
1.0
290
     0
  0
SCALE
  5
55
102
{ACAD_REACTORS
330
40
102
}
330
40
100
AcDbScale
 70
     0
300
4:1
140
4.0
141
1.0
290
     0
  0
SCALE
  5
56
102
{ACAD_REACTORS
330
40
102
}
330
40
100
AcDbScale
 70
     0
300
8:1
140
8.0
141
1.0
290
     0
  0
SCALE
  5
57
102
{ACAD_REACTORS
330
40
102
}
330
40
100
AcDbScale
 70
     0
300
10:1
140
10.0
141
1.0
290
     0
  0
SCALE
  5
58
102
{ACAD_REACTORS
330
40
102
}
330
40
100
AcDbScale
 70
     0
300
100:1
140
100.0
141
1.0
290
     0
  0
TABLESTYLE
  5
44
102
{ACAD_XDICTIONARY
360
45
102
}
102
{ACAD_REACTORS
330
41
102
}
330
41
100
AcDbTableStyle
  3
Standard
 70
     0
 71
     0
 40
1.5
 41
1.5
280
     0
281
     0
  7
Standard
140
4.5
170
     2
 62
     0
 63
     7
283
     0
274
    -2
284
     1
 64
     0
275
    -2
285
     1
 65
     0
276
    -2
286
     1
 66
     0
277
    -2
287
     1
 67
     0
278
    -2
288
     1
 68
     0
279
    -2
289
     1
 69
     0
  7
Standard
140
6.0
170
     5
 62
     0
 63
     7
283
     0
274
    -2
284
     1
 64
     0
275
    -2
285
     1
 65
     0
276
    -2
286
     1
 66
     0
277
    -2
287
     1
 67
     0
278
    -2
288
     1
 68
     0
279
    -2
289
     1
 69
     0
  7
Standard
140
4.5
170
     5
 62
     0
 63
     7
283
     0
274
    -2
284
     1
 64
     0
275
    -2
285
     1
 65
     0
276
    -2
286
     1
 66
     0
277
    -2
287
     1
 67
     0
278
    -2
288
     1
 68
     0
279
    -2
289
     1
 69
     0
  0
VISUALSTYLE
  5
2B
102
{ACAD_XDICTIONARY
360
41E
102
}
102
{ACAD_REACTORS
330
2C
102
}
330
2C
100
AcDbVisualStyle
  2
2dWireframe
 70
     4
 71
     0
 72
     2
 73
     1
 90
        0
 40
-0.6
 41
-30.0
 62
     5
 63
     7
421
 16777215
 74
     1
 91
        4
 64
     7
 65
   257
 75
     1
175
     1
 42
1.0
 92
        0
 66
   257
 43
1.0
 76
     1
 77
     6
 78
     2
 67
     7
 79
     5
170
     0
171
     0
290
     0
174
     0
 93
        1
 44
0.0
173
     0
291
     0
 45
0.0
1001
ACAD
1000
AcDbSavedByObjectVersion
1070
     0
  0
VISUALSTYLE
  5
46
102
{ACAD_XDICTIONARY
360
423
102
}
102
{ACAD_REACTORS
330
2C
102
}
330
2C
100
AcDbVisualStyle
  2
Realistic
 70
     8
 71
     2
 72
     3
 73
     0
 90
        2
 40
-0.6
 41
30.0
 62
     5
 63
     7
421
 16777215
 74
     0
 91
        0
 64
     7
 65
   257
 75
     1
175
     1
 42
1.0
 92
        8
 66
   257
 43
1.0
 76
     1
 77
     6
 78
     2
 67
     7
 79
     3
170
     0
171
     0
290
     0
174
     0
 93
       13
 44
0.0
173
     0
291
     0
 45
0.0
1001
ACAD
1000
AcDbSavedByObjectVersion
1070
     0
  0
VISUALSTYLE
  5
47
102
{ACAD_XDICTIONARY
360
425
102
}
102
{ACAD_REACTORS
330
2C
102
}
330
2C
100
AcDbVisualStyle
  2
Wireframe
 70
     5
 71
     0
 72
     2
 73
     0
 90
        0
 40
-0.6
 41
-30.0
 62
     5
 63
     7
421
 16777215
 74
     1
 91
        4
 64
     7
 65
   257
 75
     1
175
     1
 42
1.0
 92
        0
 66
   257
 43
1.0
 76
     1
 77
     6
 78
     2
 67
     7
 79
     3
170
     0
171
     0
290
     0
174
     0
 93
        1
 44
0.0
173
     0
291
     0
 45
0.0
1001
ACAD
1000
AcDbSavedByObjectVersion
1070
     0
  0
DICTIONARYVAR
  5
40C
102
{ACAD_REACTORS
330
406
102
}
330
406
100
DictionaryVariables
280
     0
  1
1:1
  0
DICTIONARYVAR
  5
408
102
{ACAD_REACTORS
330
406
102
}
330
406
100
DictionaryVariables
280
     0
  1
STANDARD
  0
DICTIONARYVAR
  5
407
102
{ACAD_REACTORS
330
406
102
}
330
406
100
DictionaryVariables
280
     0
  1
STANDARD
  0
DICTIONARYVAR
  5
409
102
{ACAD_REACTORS
330
406
102
}
330
406
100
DictionaryVariables
280
     0
  1

  0
DICTIONARYVAR
  5
40A
102
{ACAD_REACTORS
330
406
102
}
330
406
100
DictionaryVariables
280
     0
  1

  0
DICTIONARYVAR
  5
40E
102
{ACAD_REACTORS
330
406
102
}
330
406
100
DictionaryVariables
280
     0
  1
0
  0
DICTIONARYVAR
  5
40F
102
{ACAD_REACTORS
330
406
102
}
330
406
100
DictionaryVariables
280
     0
  1
0
  0
DICTIONARYVAR
  5
40D
102
{ACAD_REACTORS
330
406
102
}
330
406
100
DictionaryVariables
280
     0
  1
2
  0
DICTIONARYVAR
  5
40B
102
{ACAD_REACTORS
330
406
102
}
330
406
100
DictionaryVariables
280
     0
  1
1
  0
DICTIONARYVAR
  5
411
102
{ACAD_REACTORS
330
406
102
}
330
406
100
DictionaryVariables
280
     0
  1
80.000000
  0
DICTIONARYVAR
  5
410
102
{ACAD_REACTORS
330
406
102
}
330
406
100
DictionaryVariables
280
     0
  1
5.000000
  0
DICTIONARYVAR
  5
412
102
{ACAD_REACTORS
330
406
102
}
330
406
100
DictionaryVariables
280
     0
  1
2
  0
DICTIONARY
  5
41C
102
{ACAD_REACTORS
330
41A
102
}
330
41A
100
AcDbDictionary
281
     1
  0
DICTIONARY
  5
41B
102
{ACAD_REACTORS
330
41A
102
}
330
41A
100
AcDbDictionary
281
     1
  3
3027948608848
350
415
  3
3027948608864
350
416
  3
3027948608880
350
417
  3
3027948608896
350
418
  3
3027948608912
350
419
  0
DICTIONARY
  5
18
330
16
100
AcDbDictionary
280
     1
281
     1
  0
DICTIONARY
  5
3D
330
3C
100
AcDbDictionary
280
     1
281
     1
  3
ACAD_XREC_ROUNDTRIP
360
421
  3
FBXASSET
360
3E
  0
DICTIONARY
  5
3A
330
39
100
AcDbDictionary
280
     1
281
     1
  3
ACAD_XREC_ROUNDTRIP
360
420
  3
FBXASSET
360
3B
  0
DICTIONARY
  5
D
330
B
100
AcDbDictionary
280
     1
281
     1
  3
ACAD_XREC_ROUNDTRIP
360
41D
  3
BUMPTILE
360
E
  3
DIFFUSETILE
360
F
  3
FBXASSET
360
10
  3
OPACITYTILE
360
11
  3
REFLECTIONTILE
360
12
  0
DICTIONARY
  5
45
330
44
100
AcDbDictionary
280
     1
281
     1
  3
ACAD_ROUNDTRIP_2008_TABLESTYLE_CELLSTYLEMAP
360
413
  3
ACAD_XREC_ROUNDTRIP
360
422
  0
DICTIONARY
  5
41E
330
2B
100
AcDbDictionary
280
     1
281
     1
  3
ACAD_XREC_ROUNDTRIP
360
41F
  0
DICTIONARY
  5
423
330
46
100
AcDbDictionary
280
     1
281
     1
  3
ACAD_XREC_ROUNDTRIP
360
424
  0
DICTIONARY
  5
425
330
47
100
AcDbDictionary
280
     1
281
     1
  3
ACAD_XREC_ROUNDTRIP
360
426
  0
XRECORD
  5
415
102
{ACAD_REACTORS
330
41B
102
}
330
41B
100
AcDbXrecord
280
     1
  1
AcDb_Thumbnail_Schema
102
{ATTRRECORD
341
416
  2
AcDbDs::TreatedAsObjectData
280
     1
291
     1
102
ATTRRECORD}
102
{ATTRRECORD
341
417
  2
AcDbDs::Legacy
280
     1
291
     1
102
ATTRRECORD}
  2
AcDbDs::ID
280
    10
 91
        8
102
{ATTRRECORD
341
418
  2
AcDs:Indexable
280
     1
291
     1
102
ATTRRECORD}
102
{ATTRRECORD
341
419
  2
AcDbDs::HandleAttribute
280
     7
282
     1
102
ATTRRECORD}
  2
Thumbnail_Data
280
    15
 91
        0
  0
XRECORD
  5
416
102
{ACAD_REACTORS
330
41B
102
}
330
41B
100
AcDbXrecord
280
     1
  1
AcDbDs::TreatedAsObjectDataSchema
  2
AcDbDs::TreatedAsObjectData
280
     1
 91
        0
  0
XRECORD
  5
417
102
{ACAD_REACTORS
330
41B
102
}
330
41B
100
AcDbXrecord
280
     1
  1
AcDbDs::LegacySchema
  2
AcDbDs::Legacy
280
     1
 91
        0
  0
XRECORD
  5
418
102
{ACAD_REACTORS
330
41B
102
}
330
41B
100
AcDbXrecord
280
     1
  1
AcDbDs::IndexedPropertySchema
  2
AcDs:Indexable
280
     1
 91
        0
  0
XRECORD
  5
419
102
{ACAD_REACTORS
330
41B
102
}
330
41B
100
AcDbXrecord
280
     1
  1
AcDbDs::HandleAttributeSchema
  2
AcDbDs::HandleAttribute
280
     7
 91
        1
284
     1
  0
XRECORD
  5
421
102
{ACAD_REACTORS
330
3D
102
}
330
3D
100
AcDbXrecord
280
     1
102
MATERIAL
148
0.0
149
0.0
149
0.0
 93
        0
 94
       63
282
     0
 72
     1
 77
     1
171
     1
175
     1
179
     1
273
     0
  0
XRECORD
  5
3E
102
{ACAD_REACTORS
330
3D
102
}
330
3D
100
AcDbXrecord
280
     1
 70
     1
 90
429727718
  1
D62C5603-E3A1-4AEA-B7FB-FE5D8D0755AF
310
504B03040A0000080000CC70623B3DEE336E79000000790000001B0000006175746F6465736B2D64657369676E2D7061636B6167652E786D6C3C3F786D6C2076657273696F6E3D22312E302220656E636F64696E673D227574662D3822203F3E3C666F726D6174733E3C666F726D61743E687474703A2F2F736368656D612E
310
6175746F6465736B2E636F6D2F64657369676E2D7061636B6167652F323030393C2F666F726D61743E3C2F666F726D6174733E504B0304140006080800CC70623BD486FD9CA0000000F4000000130000005B436F6E74656E745F54797065735D2E786D6C7D8EC10E82300C865F65E91D8A1E8C310C0EEA1BF002731658846E
310
D98AC1B77784ABF1D8FE5FBFBF75BBCE937A534CCEB38643598122B6FEE978D0B0485F9C41B54DDD7D022595594E1A469170414C76A4D9A4D207E29CF43ECE46F218070CC6BECC4078ACAA135ACF422C856C0E68EA1BF5669944DDD7BCDE7B1F8E415D77AECB980613C2E4AC91FC167A2B244592486606FC29C8FD7F045B9A
310
EF7053A7E60B504B0304140006080800CC70623B853B8169EB0000007C01000008000000636F72652E786D6C8D90416EC3201045AF62CDB6C206821CC7C244919D9CA01740401C94182C03558F5F9C3852BBEB6A467FFE9B197D7EFC9E1EC5975982F5AE035262288C535E5B377690E21535501C055FBC8FBF6C503839990E
310
5619041F179FE64D52DE45E362569DD7661365082642A11EB9E920A89B99642953CC8E702F67A9EE7234257977194EC9EAE275C4EABCCF5EAD5940D4AC6F0E35A568B8F43562CD7046CD199FD07E60174276A7BE677B5EADB0E0D14EEFFB6A31321A0D82627C4084204C3F096B71DD52F6819B16635EADF63F509AF53FA164
310
5DDCD1EDDD17164090FCC8732078B56691CB33A85CD7DCC40F504B0304140006080800CC70623B55019EA25F0000007C00000007000000636E782E786D6C4DCB3B0E80201045D1AD90E915ED2CF8AC45050C11660C8261F98AB1B07AC9C97D42D718D865D3E909258CFD00CCE24AC6E326A164D74DC0B4128928FF32603847
310
2BA13128B1252AC747C6BAB984FC68F0B87FE8960A5C09FE86CFB69FBA01504B0304140006080800CC70623BDBABAAF470010000D40300000C0000006662782F636F72652E786D6CC553D16E823014FD95A6AF4B694182CC941A83FA05FB810A9511A125A5257EFE2E82712ECEB8A7F100CD39F7F69E734AF9FADC366850B6
310
AF8DCE7018308C942E4C59EB2AC3DE1D498AD15A706B8CFB56869196ADCAF00863C12B6B7C374385D14E6907A836A59A41D9F7CA615434B0C8705F7CAA5606D23BA8E84F41278B93AC54100640439DE0BDB320004D43C63716C7C399D30917DCFBBA9CD9BA8469F5B156168B24CED3F7248AC8769F27244EB73B92EED8862C
310
B7F13E0C179B3C8F979C8ECD82BBBABDAA2BAC924E9558448CBD9330242CFA08E3154B5651FCC6D215639C8EE5774DBE2B5F6CF2B5768B68963BB5F5588420E442FC700B1139D4CB01F450C1E918227C2E09DF070D8140C84E1E9AAB8F1340832A9CB13130A5F1376A908D57309505ECF2A0DF179C4E9D30F5B239B87E3823
310
7A79C6F31DE1A8A5AEC08474B03C7837EAE4938639B44E5932B833D2C6B6B279CDC613877FA26EE21F4A2A4C63EC7F29A2F301D1F9F7A0E37D145F504B0304140006080800CC70623B9C113CC27E0000009D0000000B0000006662782F636E782E786D6C4DCCDF0A83201C86E15B91DFB94BFB330DD428C8FB886521330DA7
310
6397BF1A1DECE883878F57749FCDA1B7892F1BBC047A23808C7F84D9FA55424E0BE6803A256208E9EF06C84F9B91703228B1C690F78B66B34CD9A5439DF5CF0BFBF65E35BCA1B8D6A5C6F540381E886698B5741C695F9503EBA150A2F8958E3DC3EA0B504B0304140006080800CC70623B7DF2F77C2A010000120200003100
310
00006662782F41393633353835312D344632462D344230382D423046372D3739314545314133324237412F636F72652E786D6C8D51DB8EC22014FC15C2939B0D2DB4B45643319AE817EC0F6041255A68B86CFCFC856D4D76DF7CE190393373060EDB3DC707F856CE6B6B7A480A0C81328395DA5C7B18C3057510EC3873D686
310
3F34088C18550F330C39BB3A1BA7051AAC09CA84841A2BD5020AEF55806078A44B0FFD7053A328440C89E1EFC52486BBB8AA8214A99D789CF9E05200300FC927E4FB4D5B375D43103D5527440FB843077C5AA3F5861C8F645F5787F59E95B390B318B55CE45AA638FAA2957BD7248B390B7A7CC51F9C124149C82B8C378810
310
84AB2F42B7B8DD56F413775B8C5999E9FF4471926F8AA236A1AE96B8B3CC434E5839373893369E1FAF30EA395917409EB7F26AF8801C171837A4A6AC9C89E9F9C9B1A58BA30FD6A5EF5DDDCF894B9AD9B6A59C957943A9FCAE2FD5BC4DFE03504B0304140006080800CC70623BAD7543B64E01000033030000300000006662
310
782F41393633353835312D344632462D344230382D423046372D3739314545314133324237412F636E782E786D6CD593CD6EC32010845F0571AD6CE3D48AD20813A9873E410FBD12D82434182C7EAAE6EDBB2424CD25871E7B41D6EC30B3FA84F9E67BB2E40B4234DE8DB46F1925E094D7C6ED479AD3AE5951B2113C789FEE
310
6C943839C1488B4C05DF079FE72A69D8C96C13AAD6B8631503449F83828872B949AC57D26200B826A308D316B4064D6E46FCDA41C05550DC9E483A00797BFD207EFB092A45DE9514C1BBD22178396BD39D891265658C238DEA00936C654E5E433CB65A26D9F6EDB5EBC14EBF49A45CB856E66048291F6939A9A81BB5C89177
310
38143CA680F4AA299D66A042CEB3354A2684DC9D8D178FE0D9B8B41CAAD720F880EE7EF93C0C18769E099ECC04D5A102C8049A8A05632F4DDF376CF1DE0F6BB65C2F8627B65A33C6BB62177CEBBDAD973006829F89F22E814B54F4BC2BE347F8AA8F681390B50FA73F804400B5F542E796F19FF974E7F78DB802FE05E20750
310
4B0304140006080800CC70623BE75B7789680500003C100000340000006662782F41393633353835312D344632462D344230382D423046372D3739314545314133324237412F6F626A656374732E786D6CAD575B8F9B3818FD2B887D06C22499CB8AA1CA655245D5B455A356FB305264C061D8018C6C3393D95FBFC7600890
310
A4CD5EF210B0B1BFEBF98E3F7B1FF6596ABC522E1296DF9BAE3D320D9A872C4AF2F8DE2CE5CEBA358D0FBEC719939D65A691938CDE9B6ADAF4BD98B3B2D05311DD91329583D9D5FC0F438434A7A611A644887B5384CF34233629258BA878B12322891DEFF6B66BD70BFB62634E8AE781D082709A4B588AF91C528CDA28B73F
310
1C998EEF39EABBEFA97FBD6A7C7E9553F9D3D79FE442923C3C523610337627CB87ABE99D359D4CC6D6E4FACAB5E6ABF9D2726FC6A3C5F56271377BB88362213924694B38DD99FE47C48627A1E7D49F5A8BB5E1A74C0A599ED3B0F21F1E56366B89112D681E218F0915D0D6F17AD41FBA2A369DCF6335D62ABBD39779D5DDD1
310
11D4D8DE3CBB96B2E04FB8202E41051754A1AA8E8F76B4C6DFE810B580B1547F4B84911149794252234D024EF8BBE963A95AE27B3D310A9D5C215C7960FAEE415ED75694C6AFB17BCACA5D99A60A9AA65F217B0BFC53292ACB92BF283FAD0D3621576592CB5BED907C2FA8E9DF794E35E97BEA31BED21FEB401ABB94C44839
310
DCACBF0E1C5DA8DA5B2F4DFFD32AD86F543D9E565E7056502E157C00AD2671CD534549AB752FCA9CDA00677A313F04E51B22FF19E57B300579E3C97EB29F682D92935CEC18CF901B7B54FD8C51F362B56FC72FE0B3C1EAE335EDCCBF5AEC39ADB17DC238973F804BA5E6F6BFE7AF1FB32E523BE9F3BD571418E3631DCA4D48
310
5250CF639223210A9446CA30052EDF057BD35F8329C1ECD84552BF0DC8D18BE7BCE23BFE6BD960AB4A7DE79923A103BEBD80F911CBAA2C60DB19B01CF164A5583B772EE6D3FFA56666CBCDA74DC97724A48F9A58967497E489C4D979006FD7A05E227A1EBDD0F737C623387A9C844D3709995625106D157315F8B8392CD4E0
310
A0B9A720C4BE9829CEF37EA1E13111214D53925356365ADA634861B52519DD27A00AEB808EAF0628E6F435519D446F45CF2C9CF5214F0A15B2F6D06B79DA3EE3CBF7F56780D2F4E7EF73A0F5E5B02A38D07DC852C6B7C1FBB6664213E0C39E3EBA7FF4E1AD23EA2829407C85E586727488B751B2DB9502BC7B228A3FD68B6E
310
A65A22397E690AA8D158D7E404EC8CDA235CC3B7D1898680131CEC2CDF2638C65196279577750F15884AEE19F94199155B92B13297978469D4F8D358DF0AEF7631E28DC8F0D9F437D5D39A83B2231A1D52D543813A824EF8D44BCFF2FA6A31BD1E8DAD87F1CCB526B3879935BF59CDADD5C37479BB1CDD4CA7B3556B516589
310
EF352754B706114D9C885EC9131DE6EFEB43D99AFE2391C2F958179413D7CFEF6B1B6DB1E7600F00DE6E5C67454A339A4BA2E0FBA85ED26F045D454F463DBFCE484C2F90F2E5E3666003662ED8F755951A7D1BECD5B30B550B2785C8E7320B7292A4838DDA71BBC863ED7613CAF659337A3354231D4FF4A182A54904C2898C
310
98B28C4AD0CE056CCF332A80986E571EE9DBC305BB5FEB7E509220A58D25CF042D712A806AC0AD0C657FDEF80D2D9CEAA2EE4D1C76F60BFE74219A06527D6F82DF6412526107381E55E353090704D085B52408A8913C4ED159D79BDA71BB4BC506F4831350EB6F975CD22D69BF7AC49B91A2C0A9DDA3D5CA36AD20FC478E37
310
E61844E2352865EBCB61A275A65283CAAA9DD27703B4102F5AF51EF5F573B75CBB5AD38BC845F7A49F82A0966A49C2E3EA5EA0ECD326CD965F1DB402C6FA8B51A4658C5C5E2EC9E214602E55810345408596591009A82E7E7FFACA19EEA299B14A0081A705CB3296EBC14CDF658DCD336EA6D1136881AAEB87B81AB9EE53D5
310
F5EB8BC8362082DA24122F98680A4E7930C01A0079749CEA14382A0783E5EBA5A10F8C098456A03D6A4AEB6BB881E2513747552A5DB22C7EDAF83BD5528081A365F7FF06504B0304140006080000CC70623B000000000000000000000000350000006662782F41393633353835312D344632462D344230382D423046372D37
310
39314545314133324237412F76657274696365732E62696E504B0304140006080800CC70623BF270F1330600000004000000360000006662782F41393633353835312D344632462D344230382D423046372D3739314545314133324237412F747269616E676C65732E62696E636660600000504B0304140006080000CC7062
310
3B000000000000000000000000370000006662782F41393633353835312D344632462D344230382D423046372D3739314545314133324237412F617474726962757465732E62696E504B0304140006080800CC70623B08DA0BD19000000041010000360000006662782F41393633353835312D344632462D344230382D4230
310
46372D3739314545314133324237412F6469726563746F72792E786D6C858F410AC3201045AF22B36F53E9A60B35CBEEBAE80D244E44489C6234F4F835464A48035D0DF398FF9F8AF63D0E6CC63039F212F8F9020C7D47C6792B21C5FE7403D62A1188E2E60C98D7234A5830286103A55745067B9D86B8A3CF9C7F90C11DE6
310
07FB144396D7B6A82D282E9A152AD114D5EF2CB866EEE831B8EEA07A7BB5A8D7D61A2BAAEB7FD5F70921FF497D00504B0304140006080800CC70623BEDD1DC58FD000000A00100003B0000006662782F41393633353835312D344632462D344230382D423046372D3739314545314133324237412F7265736F75726365732F
310
636F72652E786D6C8D504B6E833010BD0A9A6D65B00922041947112427E8052C33A156828DFCA97AFC9A40A576D7CDCCE87D344F8F9FBFE667F689CE6B6B3A6039850C8DB2A336530731DC4903D95970676DF82583CCC8193B5861107C72362E3BA4AC096842428D1D7107A5F7182053CF7474E0D507CE32973124857FE48B
310
540F3961CEF244279DE03EB81420DB9EAC1384436FA353E879B1B182C7A8C75DA3C7F453DF353A1075D537A7BA6464B8F535A99AE14A9A2BBD90E350DD183B5CFABE3AF262350B1EF4FC9351399401471025A527C218A1E53BAB5A5AB765F5469B96525EACF23FA6B88CFF34456DC2A1DCE36E360F82A5202F42F062ED2BAD
310
579969AFDD8A6F504B010214000A0000080000CC70623B3DEE336E79000000790000001B00000000000000000000000000000000006175746F6465736B2D64657369676E2D7061636B6167652E786D6C504B01021400140006080800CC70623BD486FD9CA0000000F40000001300000000000000000000000000B20000005B
310
436F6E74656E745F54797065735D2E786D6C504B01021400140006080800CC70623B853B8169EB0000007C010000080000000000000000000000000083010000636F72652E786D6C504B01021400140006080800CC70623B55019EA25F0000007C000000070000000000000000000000000094020000636E782E786D6C504B
310
01021400140006080800CC70623BDBABAAF470010000D40300000C00000000000000000000000000180300006662782F636F72652E786D6C504B01021400140006080800CC70623B9C113CC27E0000009D0000000B00000000000000000000000000B20400006662782F636E782E786D6C504B01021400140006080800CC70
310
623B7DF2F77C2A010000120200003100000000000000000000000000590500006662782F41393633353835312D344632462D344230382D423046372D3739314545314133324237412F636F72652E786D6C504B01021400140006080800CC70623BAD7543B64E010000330300003000000000000000000000000000D2060000
310
6662782F41393633353835312D344632462D344230382D423046372D3739314545314133324237412F636E782E786D6C504B01021400140006080800CC70623BE75B7789680500003C10000034000000000000000000000000006E0800006662782F41393633353835312D344632462D344230382D423046372D3739314545
310
314133324237412F6F626A656374732E786D6C504B01021400140006080000CC70623B0000000000000000000000003500000000000000000000000000280E00006662782F41393633353835312D344632462D344230382D423046372D3739314545314133324237412F76657274696365732E62696E504B01021400140006
310
080800CC70623BF270F133060000000400000036000000000000000000000000007B0E00006662782F41393633353835312D344632462D344230382D423046372D3739314545314133324237412F747269616E676C65732E62696E504B01021400140006080000CC70623B0000000000000000000000003700000000000000
310
000000000000D50E00006662782F41393633353835312D344632462D344230382D423046372D3739314545314133324237412F617474726962757465732E62696E504B01021400140006080800CC70623B08DA0BD1900000004101000036000000000000000000000000002A0F00006662782F41393633353835312D344632
310
462D344230382D423046372D3739314545314133324237412F6469726563746F72792E786D6C504B01021400140006080800CC70623BEDD1DC58FD000000A00100003B000000000000000000000000000E1000006662782F41393633353835312D344632462D344230382D423046372D3739314545314133324237412F7265
310
736F75726365732F636F72652E786D6C504B0506000000000E000E0080040000641100000000
  0
XRECORD
  5
420
102
{ACAD_REACTORS
330
3A
102
}
330
3A
100
AcDbXrecord
280
     1
102
MATERIAL
148
0.0
149
0.0
149
0.0
 93
        0
 94
       63
282
     0
 72
     1
 77
     1
171
     1
175
     1
179
     1
273
     0
  0
XRECORD
  5
3B
102
{ACAD_REACTORS
330
3A
102
}
330
3A
100
AcDbXrecord
280
     1
 70
     1
 90
429727718
  1
30362254-06B7-45E0-A893-8CFA70E3D6BC
310
504B03040A0000080000CC70623B3DEE336E79000000790000001B0000006175746F6465736B2D64657369676E2D7061636B6167652E786D6C3C3F786D6C2076657273696F6E3D22312E302220656E636F64696E673D227574662D3822203F3E3C666F726D6174733E3C666F726D61743E687474703A2F2F736368656D612E
310
6175746F6465736B2E636F6D2F64657369676E2D7061636B6167652F323030393C2F666F726D61743E3C2F666F726D6174733E504B0304140006080800CC70623BD486FD9CA0000000F4000000130000005B436F6E74656E745F54797065735D2E786D6C7D8EC10E82300C865F65E91D8A1E8C310C0EEA1BF002731658846E
310
D98AC1B77784ABF1D8FE5FBFBF75BBCE937A534CCEB38643598122B6FEE978D0B0485F9C41B54DDD7D022595594E1A469170414C76A4D9A4D207E29CF43ECE46F218070CC6BECC4078ACAA135ACF422C856C0E68EA1BF5669944DDD7BCDE7B1F8E415D77AECB980613C2E4AC91FC167A2B244592486606FC29C8FD7F045B9A
310
EF7053A7E60B504B0304140006080800CC70623B1EC5D7A3EB0000007C01000008000000636F72652E786D6C8D90416EC3201045AF82665B6103C6756C6122AB4D4ED00B204C5C94182C03558F5F9C3852BBEB6A467FFE9B197D71FC9E6FE8CBACC17AD7032D0820E3B41FAD9B7A48F1820F808E52ACDEC75F36404ECDA687
310
4D0629A6D5A76597B477D1B89855E747B38B2A041301E95B6E7A08FAD3CCAA50296647B8168BD2573599823EBB0CA76447F43862C7BCCF5EAC59410E4DDD9C7973C2755553CCCFA4C603E3040F1565ED3B1FDE4E432BCA0D9622DAF9795FAF464533826484B498524CD807E51D79ED187F21878E10516EF63F505AC67F42C9
310
BA58B1FDDD071640D2FCC87D2045B96591CB3DA85CB7DCE40F504B0304140006080800CC70623B55019EA25F0000007C00000007000000636E782E786D6C4DCB3B0E80201045D1AD90E915ED2CF8AC45050C11660C8261F98AB1B07AC9C97D42D718D865D3E909258CFD00CCE24AC6E326A164D74DC0B4128928FF32603847
310
2BA13128B1252AC747C6BAB984FC68F0B87FE8960A5C09FE86CFB69FBA01504B0304140006080800CC70623B8C9102E971010000D40300000C0000006662782F636F72652E786D6CC5535B6E833010BC8AE5DF0A6C08340F1947A84D4ED00B38C6A128602363A31CBFCB234A53A551FA553EC09AD9F5CE8C31DB9E9B1AF5CA
310
7695D1198E428A91D2D214952E33ECDD315861B4E5CC1AE3BE9561A445A3323CC098B3D21ADFCE9034DA29ED00D5A6503328BA4E398C640D8B0C77F253352214DE4145770A5B214FA2546114020D759C75CE8200340D19DE981F0F6746269C33EFAB6266AB02A655C74A59CCF365BADC27CB5D902ED22848F6340DF238A141
310
BE88E2F57B92BFEDF23523433367AE6A2EEAA455C2A902F398D2751045018D3FA264435F3771F242571B4A1919CA6F9A7C5B3CD9E42BED16F12C776AEB308F40C848FC700B1139D4891EF410CEC810227CC6846F8386402064270EF5C5C709A05E49676C024C61FC95EA45ED154CA5211D1FF4FB8291A913A68E9B83EBBB33
310
E2A7673CDE118E5AE8124C0807CB8377834E366998436B950D7A7746DAD846D4CFD978E0F04FD455FC5D49D2D4C6FE9722321F10997F0F32DC47FE05504B0304140006080800CC70623BFFEA85907E0000009D0000000B0000006662782F636E782E786D6C4DCCD10A83201886E15B91FFDC95D95A811AB6F23E625948A6C3
310
E9D8E5AF46073BFAE0E1E365ED67B3E8ADC3CB78C7815C7240DA3DFC64DCC221C519D7805AC182F7F1EF06C88D9BE6703008B6049F9E274D7A1E938DBB5AE3D6131B2589BA0D3D965551E0B2EA732C9B9A624AAEB41E3A557677029960D9AFB4EF11165F504B0304140006080800CC70623B4FEEA4082C0100001202000031
310
0000006662782F39464131463745442D413632322D343644302D413938332D3331353338454246344243312F636F72652E786D6C8D515B6EC32010BC0AE2AB55850DD871ED0813254D72825EC00192A2C460F1A872FC42ED48ED5F7E00CDCECCCEB26C731F6FE05B39AFADE921293004CA082BB5B9F43086336A21D870E6AC
310
0D7F68109861543DCC30E4ECE26C9C164858139409093556AA051CBC570102714B8F1E7AF1A5C6A11862480C7F2DA6415C878B2A4891CA89C7990F2E050073937C42DE1DB7E4F87ED8A36D4329AA9B3D46DBAEAD504556557BD81DEBDD0761E52CE42C462D17B996298E3E6BE59E35C962CE821E1FF18553435012728A7187
310
0841987E927A8D9B35ADDF70BBC6989599FE4F1427F9A4286A132ABAC49D651EF234CD5CE04CDA78BA3DC2A8FB645D00B9DF8B57E215725C60BCA2A463E54C4CE327C7A65E1C7DB02E7DEFCBF594B864C5CA6CDBD49C957943E9FA5D5FBAF336F90F504B0304140006080800CC70623BAD7543B64E01000033030000300000
310
006662782F39464131463745442D413632322D343644302D413938332D3331353338454246344243312F636E782E786D6CD593CD6EC32010845F0571AD6CE3D48AD20813A9873E410FBD12D82434182C7EAAE6EDBB2424CD25871E7B41D6EC30B3FA84F9E67BB2E40B4234DE8DB46F1925E094D7C6ED479AD3AE5951B2113C
310
789FEE6C943839C1488B4C05DF079FE72A69D8C96C13AAD6B8631503449F83828872B949AC57D26200B826A308D316B4064D6E46FCDA41C05550DC9E483A00797BFD207EFB092A45DE9514C1BBD22178396BD39D891265658C238DEA00936C654E5E433CB65A26D9F6EDB5EBC14EBF49A45CB856E66048291F6939A9A81BB5
310
C8917738143CA680F4AA299D66A042CEB3354A2684DC9D8D178FE0D9B8B41CAAD720F880EE7EF93C0C18769E099ECC04D5A102C8049A8A05632F4DDF376CF1DE0F6BB65C2F8627B65A33C6BB62177CEBBDAD973006829F89F22E814B54F4BC2BE347F8AA8F681390B50FA73F804400B5F542E796F19FF974E7F78DB802FE05
310
E207504B0304140006080800CC70623B16AB87BA640500003C100000340000006662782F39464131463745442D413632322D343644302D413938332D3331353338454246344243312F6F626A656374732E786D6CAD575B6FA33818FD2B887DE6924B3BED8A326A92B68A663B534DD4D13E548A0C38942D60649B369D5FBFC7
310
600890A493BDE42160637FD7F31D7FF63E6FB3D478A55C242CBF3247B66B1A340F5994E4F19559CA8D75611A9F7D8F33263BCB4C232719BD32D5B4E97B316765A1A722BA21652A07B3B7B33F0D11D29C9A46981221AE4C113ED38CD8A4942CA2E2C58E882476BCD9DA23BB5ED8171B73523C0F841684D35CC252CCE79062D4
310
468DFA43D7747CCF51DF7D4FFDEB5593E3AB9CCA9FBEFE241792E4E19EB28198C968BAB8199F5D5A67D3E9C49A9E8F47D6EC76B6B0469F26EEFC7C3EBFBCBEB98462213924694B38DD98FE1D62C393D073EA4FADC5DAF04326852CCF6958F90F0F2B9BB5C48816348F90C7840A68EB78EDF68723159BCEE7891A6B95DDE9D3
310
BCEAEEE8086A6C6F9E5D4B59F0175C10A7A0820BAA5055C7473B5AE3CFDD452D602CD5DF12616444529E90D448938013FE6EFA58AA96F85E4F8C42275708571E98FE6827AF6B2B4AE3D7D83D64E5A64C53054DD3AF90BD06FEA9149565C94FCA0F6B834DC85599E4F2423B24DF0B6AFA979E534DFA9E7A4CC6FA631D486393
310
921829879BF5D781A373557BCB85E97FB90DB62B558F8795179C15944B051F40AB495CF35451D26A4727654E6D8033BD98EF82F21D91FF8AF2DD9982BCF1643BDD4EB516C9492E368C67C88DED563FC36D5EACF66DFF057C3658BDBFA69DF9578B3DA735B64F18C7F20770A9D45CFCF7FCF563D6456A277DBEF78A02637CA2
310
43B90A490AEAB94F72244481D24819A6C0E59B606BFA4B3025981DBB48EAB701D97BF19C577CC77F2D1B6C55A9EF3C732474C0B727303F625995056C3B02963D9EAC146BE78EC5FCEC7FA999EBC5EACBAAE41B12D27B4D2C0BBA49F244E2ECDC81B76B502F113D8F5EE8FB1BE3111CDD4FC2AA9B844CAB1288B68AB90A7CDC
310
1C166AB0D3DC5310625FCC14E779BFD0709F8890A629C9292B1B2DED31A4B0DA928CEE135085754027E3018A397D4D5427D15BD1330B677DC8934285AC3DF45A9EB68FF8F2B8FC0A509AFEECFD0FF2DE25CC6047F7214B195F07EFEB9A094D800F7BFAE8FED187B78EA8A3A400F115961BCAD1215E47C966530AF0EE8128FE
310
58CEBB996A8964FFA529A046635D9353B0336A8F700DDF46271A024E70B0B37C9DE01847591E54DED53D54202AB947E4076556AC49C6CA5C9E1226B7F1A7B1BE15DEED62C41B91E1B3E9AFAAA735036547343A925075041DF0A9979E893B391F8FCFA6967B3EFB644DCF6E5CEBFAE272625DCC6FAF3FB93793C5F90CE1EF57
310
407342756B10D1C489E8953CD1617E5CEECAD6F4EF8914CE5D5D504E5C3F1F9736DA62CFC11E00BCDDB8CC8A9466349744C1F75EBDA4DF09BA8A9E8C7A7E9991989E20E5DBDD6A6003664ED8F7A04A8DBE0DF6EAD9B9AA858342E47399053949D2C146EDB85DE4B176BB0965FBAC19BD19AA918E27FA50C1D22402E144464C
310
59462568E704B6E71915404CB72B8FF4EDE184DDAF753F284990D2C6926782963815403548A70C657FDEF80D2D9CEAA2AE4C1C76F60BFE74219A06527D6582DF6412526107381E55E353090704D085B52408D0933C4ED159D79BDA71BB4BC506F4831350EB6F979CD22D69BF7AC49B91A2C0A9DDA3D5CA36AD20FC478E37E6
310
1844E2352865EBCB6EA275A652E3836BE04EFB400BF1A2556F515F1FBB35B2AB35BD889C744FFA1004B5544B121E57F70215746DD2F5E2C1412B602CBF19455AC6C8E5E9922C4E01E65215385004546899059180EAFCF7A707CE7017CD8CDB0410789AB32C63B91E5CEBBBACB17AC6CD347A022D5075FD106377347AAABA7E
310
7D11590744509B44E205134DC1290F06580320F78E537D3D73540E06CB970B431F185308AD40BBD794D6D77003C5A36E8EAA54BA64597CD8F83BD552A080A365F7FF06504B0304140006080000CC70623B000000000000000000000000350000006662782F39464131463745442D413632322D343644302D413938332D3331
310
353338454246344243312F76657274696365732E62696E504B0304140006080800CC70623BF270F1330600000004000000360000006662782F39464131463745442D413632322D343644302D413938332D3331353338454246344243312F747269616E676C65732E62696E636660600000504B0304140006080000CC70623B
310
000000000000000000000000370000006662782F39464131463745442D413632322D343644302D413938332D3331353338454246344243312F617474726962757465732E62696E504B0304140006080800CC70623B08DA0BD19000000041010000360000006662782F39464131463745442D413632322D343644302D413938
310
332D3331353338454246344243312F6469726563746F72792E786D6C858F410AC3201045AF22B36F53E9A60B35CBEEBAE80D244E44489C6234F4F835464A48035D0DF398FF9F8AF63D0E6CC63039F212F8F9020C7D47C6792B21C5FE7403D62A1188E2E60C98D7234A5830286103A55745067B9D86B8A3CF9C7F90C11DE607
310
FB144396D7B6A82D282E9A152AD114D5EF2CB866EEE831B8EEA07A7BB5A8D7D61A2BAAEB7FD5F70921FF497D00504B0304140006080800CC70623B0D6EF93BFE000000A00100003B0000006662782F39464131463745442D413632322D343644302D413938332D3331353338454246344243312F7265736F75726365732F63
310
6F72652E786D6C8D50596E833010BD0A9ADFCA60B334011947A8694ED00B586642AC041B79A97AFC9A40A5F6AF3F33A3B7689E1E3F7DCD8FEC139DD7D6F4C0720A191A65476DA61E62B892236427C19DB5E1970C322367EC618541F0C9D9B8EC90B226A009093576C41D94DE63804C3DD2D18357379C652E63480A7FCF17A9
310
EE72C29CE5894E3AC17D702940B63D59270887DE46A7D0F36263058F518FBB468FE9A7BE6A7420864373B8D4873369AA8691FA421B3294352543C5CAF65C0F6FEF43CB8BD52C78D0F34F46E550061C419494B6843142CB0F5677F4B52BEB177AEC28E5C52AFF638ACBF84F53D42654E51E77B379102C05791282176B5F693D
310
CB4C7BED567C03504B010214000A0000080000CC70623B3DEE336E79000000790000001B00000000000000000000000000000000006175746F6465736B2D64657369676E2D7061636B6167652E786D6C504B01021400140006080800CC70623BD486FD9CA0000000F40000001300000000000000000000000000B20000005B
310
436F6E74656E745F54797065735D2E786D6C504B01021400140006080800CC70623B1EC5D7A3EB0000007C010000080000000000000000000000000083010000636F72652E786D6C504B01021400140006080800CC70623B55019EA25F0000007C000000070000000000000000000000000094020000636E782E786D6C504B
310
01021400140006080800CC70623B8C9102E971010000D40300000C00000000000000000000000000180300006662782F636F72652E786D6C504B01021400140006080800CC70623BFFEA85907E0000009D0000000B00000000000000000000000000B30400006662782F636E782E786D6C504B01021400140006080800CC70
310
623B4FEEA4082C0100001202000031000000000000000000000000005A0500006662782F39464131463745442D413632322D343644302D413938332D3331353338454246344243312F636F72652E786D6C504B01021400140006080800CC70623BAD7543B64E010000330300003000000000000000000000000000D5060000
310
6662782F39464131463745442D413632322D343644302D413938332D3331353338454246344243312F636E782E786D6C504B01021400140006080800CC70623B16AB87BA640500003C1000003400000000000000000000000000710800006662782F39464131463745442D413632322D343644302D413938332D3331353338
310
454246344243312F6F626A656374732E786D6C504B01021400140006080000CC70623B0000000000000000000000003500000000000000000000000000270E00006662782F39464131463745442D413632322D343644302D413938332D3331353338454246344243312F76657274696365732E62696E504B01021400140006
310
080800CC70623BF270F133060000000400000036000000000000000000000000007A0E00006662782F39464131463745442D413632322D343644302D413938332D3331353338454246344243312F747269616E676C65732E62696E504B01021400140006080000CC70623B0000000000000000000000003700000000000000
310
000000000000D40E00006662782F39464131463745442D413632322D343644302D413938332D3331353338454246344243312F617474726962757465732E62696E504B01021400140006080800CC70623B08DA0BD190000000410100003600000000000000000000000000290F00006662782F39464131463745442D413632
310
322D343644302D413938332D3331353338454246344243312F6469726563746F72792E786D6C504B01021400140006080800CC70623B0D6EF93BFE000000A00100003B000000000000000000000000000D1000006662782F39464131463745442D413632322D343644302D413938332D3331353338454246344243312F7265
310
736F75726365732F636F72652E786D6C504B0506000000000E000E0080040000641100000000
  0
XRECORD
  5
41D
102
{ACAD_REACTORS
330
D
102
}
330
D
100
AcDbXrecord
280
     1
102
MATERIAL
148
0.0
149
0.0
149
0.0
 93
        0
 94
       63
282
     0
 72
     1
 77
     1
171
     1
175
     1
179
     1
273
     0
  0
XRECORD
  5
E
102
{ACAD_REACTORS
330
D
102
}
330
D
100
AcDbXrecord
280
     1
270
     1
271
     1
  0
XRECORD
  5
F
102
{ACAD_REACTORS
330
D
102
}
330
D
100
AcDbXrecord
280
     1
270
     1
271
     1
  0
XRECORD
  5
10
102
{ACAD_REACTORS
330
D
102
}
330
D
100
AcDbXrecord
280
     1
 70
     0
 90
1673772943
  1
ECE7A1D2-D628-4531-984C-D00F80459256
310
504B03040A0000080000CC70623B3DEE336E79000000790000001B0000006175746F6465736B2D64657369676E2D7061636B6167652E786D6C3C3F786D6C2076657273696F6E3D22312E302220656E636F64696E673D227574662D3822203F3E3C666F726D6174733E3C666F726D61743E687474703A2F2F736368656D612E
310
6175746F6465736B2E636F6D2F64657369676E2D7061636B6167652F323030393C2F666F726D61743E3C2F666F726D6174733E504B0304140006080800CC70623BD486FD9CA0000000F4000000130000005B436F6E74656E745F54797065735D2E786D6C7D8EC10E82300C865F65E91D8A1E8C310C0EEA1BF002731658846E
310
D98AC1B77784ABF1D8FE5FBFBF75BBCE937A534CCEB38643598122B6FEE978D0B0485F9C41B54DDD7D022595594E1A469170414C76A4D9A4D207E29CF43ECE46F218070CC6BECC4078ACAA135ACF422C856C0E68EA1BF5669944DDD7BCDE7B1F8E415D77AECB980613C2E4AC91FC167A2B244592486606FC29C8FD7F045B9A
310
EF7053A7E60B504B0304140006080800CC70623BD9DDAED0EC0000007C01000008000000636F72652E786D6C8D90416EC3201045AF82665B61836D9CD8C2444DD39CA01740405C94182C03558F5F9C3852BBEB6A467FFE9B197D7EF89E6EE8CB2CC17A37002D0820E394D7D68D03A478C17B4007C117EFE32F1B20272733C0
310
2A83E0E3E2D3BC49CABB685CCCAAF3DA6CA20CC14440EA969B0182FA34932C648AD911AEC52CD5558EA6A0CF2EC329598D1E47ACCEFBECC59A050463A7EA5833865FEBDD0E37353BE3EE8DBDE3F6786A48D375FBF6CC78B9C282473B3DEFABC5C86834888A900E538A49F5419B9EB47DD5BC907D4F082F57FB1F28CDFA9F50
310
B22ED6D5F6EE030B20687EE43E10BC5CB3C8E51E54AE6B6EE207504B0304140006080800CC70623B55019EA25F0000007C00000007000000636E782E786D6C4DCB3B0E80201045D1AD90E915ED2CF8AC45050C11660C8261F98AB1B07AC9C97D42D718D865D3E909258CFD00CCE24AC6E326A164D74DC0B4128928FF326038
310
472BA13128B1252AC747C6BAB984FC68F0B87FE8960A5C09FE86CFB69FBA01504B0304140006080800CC70623BA24EB22D72010000D40300000C0000006662782F636F72652E786D6CC5535B6E833010BC8AE5DF0A6C5E49888CA3A6694ED00B38E05014B091B1518EDFE511A5A9D228FD2A1F60CDEC7A67C6986DCE4D8D7A
310
69BA4AAB0C073EC548AA5C17952A33ECECD15B61B4E1CC686DBF9561A44423333CC098B3D268D7CE50AE9595CA02AA74216750749DB418E5352C32DCE59FB211BE70162ABA93DF8AFC244AE9073ED050C759670D0840D390E18DF9F1706664C23973AE2A66B62A605A75ACA4C13C4976E1364A12EF355A2EBD384AF65EFA96
310
BC7B8BED2EA6719AAE16FB8491A199335B351775B991C2CA02F390D2D40B028F861F41BCA68B7518BFD0D59A524686F29B26D7164F36B94AD9289CE54E6D1DE6010819891F6E21228B3AD1831EC219194284CF98F06DD01008846CC5A1BEF83801D4CBDC6A1303536877A57A513B0953A94FC707FDBE6064EA84A9E3E6E0FA
310
EE8CF0E9198F7784A316AA0413C2C2F2E0ECA0934D1AE6D05A69BCDE9E91D2A611F573361E38FC1375157F5752AE6B6DFE4B11990F88CCBF0719EE23FF02504B0304140006080800CC70623B408A7D3B7C0000009D0000000B0000006662782F636E782E786D6C4DCCD10A83201886E15B91FFDC552A92A0064DBC8F581632
310
D3703A76F9ABD1C18E3E78F878E5F0D9027ABBFCF2292AE86E2D20171F69F6715550CB827B40839639A5F2770314A7CD293819B45C73AAFB45B35BA61ACAA1C1C7E7855C58C15BC331339661262CC762340413D68D77DA5B42298546CBE6573AF60CEB2F504B0304140006080800CC70623B449FB9BD290100001202000031
310
0000006662782F36394639363044362D344446342D343946362D394244322D3234314243333846323333332F636F72652E786D6C8D515B6EC32010BC0AE22B55850D98B871848994463E412FE002495162B07854397EA176A4F62F3F2C9A9D991D587EB84F37F0AD7D30CEF6905418026DA553C65E7A98E219ED203808EE9D
310
8B7F6810D871D23D2C3014FCE25D9A57483A1BB58D19B54EE9151C43D0110279CB971E06F9A5A7B11A53CC8C70ADE6515EC78BAE4895DB992778883E0700CB907242D17643D7E2538BD869608875438BBAE38922CAC8F1BDD90DB4691A5E2F42C153326A951B95E398B3D1FE599322163C9AE9115F7A3D46ADA0A018778810
310
84E907617BDCEE297BC5BB3DC6BC2EF47FA234AB2745C9D8D8D035EE220B50105E2F0DC1954B9FB747187D9F9D8FA0CCDB042D5FA0C015C65B42DF78BD10F3F3B363CB56C7109DCFDFBBB97E662ED92EB62D13BC2E1BCAE5777DB9966D8A1F504B0304140006080800CC70623BAD7543B64E01000033030000300000006662
310
782F36394639363044362D344446342D343946362D394244322D3234314243333846323333332F636E782E786D6CD593CD6EC32010845F0571AD6CE3D48AD20813A9873E410FBD12D82434182C7EAAE6EDBB2424CD25871E7B41D6EC30B3FA84F9E67BB2E40B4234DE8DB46F1925E094D7C6ED479AD3AE5951B2113C789FEE
310
6C943839C1488B4C05DF079FE72A69D8C96C13AAD6B8631503449F83828872B949AC57D26200B826A308D316B4064D6E46FCDA41C05550DC9E483A00797BFD207EFB092A45DE9514C1BBD22178396BD39D891265658C238DEA00936C654E5E433CB65A26D9F6EDB5EBC14EBF49A45CB856E66048291F6939A9A81BB5C89177
310
38143CA680F4AA299D66A042CEB3354A2684DC9D8D178FE0D9B8B41CAAD720F880EE7EF93C0C18769E099ECC04D5A102C8049A8A05632F4DDF376CF1DE0F6BB65C2F8627B65A33C6BB62177CEBBDAD973006829F89F22E814B54F4BC2BE347F8AA8F681390B50FA73F804400B5F542E796F19FF974E7F78DB802FE05E20750
310
4B0304140006080800CC70623B8D05915C650500003B100000340000006662782F36394639363044362D344446342D343946362D394244322D3234314243333846323333332F6F626A656374732E786D6CAD575B6FA33814FE2B887D06429276DA1565D4266D158D3A339A6846FB502932E050B66023DB74D2FDF5FB190C01
310
9276B2973C046C8ECFF53B17071F77456EBD502133CEAE6CDF9DD81665314F32965ED995DA3A17B6F5310C04E7AA47665B8C14F4CAD6DB7618A48257A5D94AE89654B91AEDDEDDFC61C998326A5B714EA4BCB265FC440BE2924AF184CA6737218AB8E976E7FA6E4338649B0A523E8D98964450A6A029F619B8588D52FE7039
310
B1BD30F0F4F730D0FF866AF6369557DB33949F31A9088B0F848DD8CCFCF9F2767A76E99CCDE733677E3EF59D9BBB9BA5E37F984D16E78BC5E5F5ED25044B25C0C96822E8D60EEFE11B91C581D77CEA34368A1F5329E68CD1B8B61F16D63A1B8E092D294B10C78C4A48EB593D192E7DED9BDEE7995E1B91FDEDD3ACEA9FE831
310
6A756F9F7D4D79F4274C90A7A04248AA51D5F8C718DAE06FB2F75AC4796EBE65D22A88A22223B995679120E2D50E41AA49C260C046A35368846B0BECD0DFF3EBEB8AD4F835768F69B9ADF25C43D30E6B646F807FAA64AD59F61715C7A54127C4AACA98BA3006A9D792DAE165E0D59B61A01FB3A9F9D838D2DAE62445C86166
310
F37564E842E7DE6A69879FEEA2DD5AE7E371E1A5E025154AC307D06A03D73EB5978C58FFA4C8E9033066E0F3BD53BEC1F39F91BE7B55103791EDE6BBB991A2046172CB4581D8B893FA674DDA17A77B3B7C413D1B511FD2743BFF8A38F03A658705E3ADF8015C3A3417FF3D7E439FF591DA0B5F18BC20C1B8981957AE6392A3
310
F43C640C01D1A0B4728E2DD4F26DB4B3C3152A252A3B4E913CEC1C72F012782FF88EFF8637AA552DBEF76408E8A8DE9E50F9E1CB3A2DA0DB1B6039A893B56063DC5B3E3FFB5F72E67AB9FEB4AEC496C4F4C1149625DD662C53E89D7BF0F6151A046260D1337DFDC94502430F83B0EE07A130A224BCAD7DAE1D9FB6CD422FF6
310
920702629C4BB9AE79C12F243C6432A6794E18E5552BA56B431AAB5D91317302B2B071E86C3A42B1A02F999E24061403B5D0EB639195DA655DD3EBEAB4FB862DDF579F014AD0E73C22F99E28DA57FB98E75C6CA2D74D53086D600F4786E0FE3144B771A8A7B900F03594DB8A633CBC49B2EDB69228BB479CF863B5E807AAAB
310
23872F6DFEB4129B949CA33823F58830E86D65621E10047D9DB34D862E8EAC3C2ABC2F7B2C40D67CDFE01F5545B92105AF983AC54D93D69E56FB8E797F88913F898A9FEC705D3F9D1B54EC8426FB500D40A03BD0119B06E1B95DDC7EB8F6975367793EBD70E66733DFB9BC982F9CE564727731999F5D4ECFCE3B8D6A4DC2A0
310
6D50FD148437D110834A64C6CDDF57FBACB5C307A2A477DFE4939736CFEF2B175371E0E10CF0DD1D5C15654E0BCA14D1E87DD02FF93782A162C0A3D95F1524A52770F972BF1EE9809D13CE7DD599467F8ECE9ADD85CE85A34CD45355448C64F9E8A031DC2D596ACC6E5DD93D9B82DE2EF5CAF81363A8E47996A0DE24564A79
310
4115AACE09C55E14540231FDA13C319787134EBF34E3A022514E5B4D9E0826E25C02D5805B15ABE1BEF51B26383D445DD9E875EE33FE4C22DA16427D65A3BCA92CA6D28DD01DF5DC53330704308475351050232CCD31583787BA75774AFB06E5070DD0C8EF484E19968C5D83BA5B90B244D31E54D55A372320FE4786B7EA58
310
44E135AA5467CB7EA333A61683CC6A8C3257034C10CF46F40EF9F5BE59BE5BD30C3C72D235E95D10345C1D45445A5F0BB47E46A5EBE5570F9380B5FA629579952296A773720405982B9DE04011506178964401AA8BDF1FBF0A8EAB6861DD6580C0E38217056766716DAEB2D6FA0917D3E4116581EADB879C4E7CFFB11EFACD
310
3D641311495D92C8676CB409A72D18610D803CE8A626049E8EC1887CB5B44CC39883690DDA8399B4B9855B481E7D71D4A9D22F96E5BB73BF5793020C02137BF837504B0304140006080000CC70623B000000000000000000000000350000006662782F36394639363044362D344446342D343946362D394244322D32343142
310
43333846323333332F76657274696365732E62696E504B0304140006080800CC70623BF270F1330600000004000000360000006662782F36394639363044362D344446342D343946362D394244322D3234314243333846323333332F747269616E676C65732E62696E636660600000504B0304140006080000CC70623B0000
310
00000000000000000000370000006662782F36394639363044362D344446342D343946362D394244322D3234314243333846323333332F617474726962757465732E62696E504B0304140006080800CC70623B08DA0BD19000000041010000360000006662782F36394639363044362D344446342D343946362D394244322D
310
3234314243333846323333332F6469726563746F72792E786D6C858F410AC3201045AF22B36F53E9A60B35CBEEBAE80D244E44489C6234F4F835464A48035D0DF398FF9F8AF63D0E6CC63039F212F8F9020C7D47C6792B21C5FE7403D62A1188E2E60C98D7234A5830286103A55745067B9D86B8A3CF9C7F90C11DE607FB14
310
4396D7B6A82D282E9A152AD114D5EF2CB866EEE831B8EEA07A7BB5A8D7D61A2BAAEB7FD5F70921FF497D00504B0304140006080800CC70623BCA768048FE000000A00100003B0000006662782F36394639363044362D344446342D343946362D394244322D3234314243333846323333332F7265736F75726365732F636F72
310
652E786D6C8D50596E833010BD0A9ADFCA60D600328E9AA639412F609909B1126CE4A5EAF16B0295DABFFECC8CDEA2797AECF8353F924FB44E193D409E5248504B332A3D0D10FC95B4901C39B3C6F85F3248B49871801506CE266BC2B243D2688FDA47549B11775038871E12F988C7004EDE7016A9083E2ADC3D5D84BC8B09
310
D33C8D74D471E6BC8D0192EDC93A815B742658898E651BCB59086ADC356A8C3FD555A1055ED7E7E254D615792D0F075295F585746FF53B694EE78A565DD736979A65AB9933AFE69F8CD2A2F038022F28ED489E135A7CE4554F9BBEA85E68DB53CAB255FEC71496F19FA6A0B42F8B3DEE6673C0F318E4497096AD7DC5F52C33
310
EEB55BFE0D504B010214000A0000080000CC70623B3DEE336E79000000790000001B00000000000000000000000000000000006175746F6465736B2D64657369676E2D7061636B6167652E786D6C504B01021400140006080800CC70623BD486FD9CA0000000F40000001300000000000000000000000000B20000005B436F
310
6E74656E745F54797065735D2E786D6C504B01021400140006080800CC70623BD9DDAED0EC0000007C010000080000000000000000000000000083010000636F72652E786D6C504B01021400140006080800CC70623B55019EA25F0000007C000000070000000000000000000000000095020000636E782E786D6C504B0102
310
1400140006080800CC70623BA24EB22D72010000D40300000C00000000000000000000000000190300006662782F636F72652E786D6C504B01021400140006080800CC70623B408A7D3B7C0000009D0000000B00000000000000000000000000B50400006662782F636E782E786D6C504B01021400140006080800CC70623B
310
449FB9BD290100001202000031000000000000000000000000005A0500006662782F36394639363044362D344446342D343946362D394244322D3234314243333846323333332F636F72652E786D6C504B01021400140006080800CC70623BAD7543B64E010000330300003000000000000000000000000000D20600006662
310
782F36394639363044362D344446342D343946362D394244322D3234314243333846323333332F636E782E786D6C504B01021400140006080800CC70623B8D05915C650500003B10000034000000000000000000000000006E0800006662782F36394639363044362D344446342D343946362D394244322D32343142433338
310
46323333332F6F626A656374732E786D6C504B01021400140006080000CC70623B0000000000000000000000003500000000000000000000000000250E00006662782F36394639363044362D344446342D343946362D394244322D3234314243333846323333332F76657274696365732E62696E504B010214001400060808
310
00CC70623BF270F13306000000040000003600000000000000000000000000780E00006662782F36394639363044362D344446342D343946362D394244322D3234314243333846323333332F747269616E676C65732E62696E504B01021400140006080000CC70623B00000000000000000000000037000000000000000000
310
00000000D20E00006662782F36394639363044362D344446342D343946362D394244322D3234314243333846323333332F617474726962757465732E62696E504B01021400140006080800CC70623B08DA0BD190000000410100003600000000000000000000000000270F00006662782F36394639363044362D344446342D
310
343946362D394244322D3234314243333846323333332F6469726563746F72792E786D6C504B01021400140006080800CC70623BCA768048FE000000A00100003B000000000000000000000000000B1000006662782F36394639363044362D344446342D343946362D394244322D3234314243333846323333332F7265736F
310
75726365732F636F72652E786D6C504B0506000000000E000E0080040000621100000000
  0
XRECORD
  5
11
102
{ACAD_REACTORS
330
D
102
}
330
D
100
AcDbXrecord
280
     1
270
     1
271
     1
  0
XRECORD
  5
12
102
{ACAD_REACTORS
330
D
102
}
330
D
100
AcDbXrecord
280
     1
270
     1
271
     1
  0
CELLSTYLEMAP
  5
413
102
{ACAD_REACTORS
330
45
102
}
330
45
100
AcDbCellStyleMap
 90
        3
300
CELLSTYLE
  1
TABLEFORMAT_BEGIN
 90
        5
170
     1
 91
        0
 92
    32768
 62
   257
 93
        1
300
CONTENTFORMAT
  1
CONTENTFORMAT_BEGIN
 90
        0
 91
        0
 92
      512
 93
        0
300

 40
0.0
140
1.0
 94
        5
 62
     0
340
22
144
6.0
309
CONTENTFORMAT_END
171
     1
301
MARGIN
  1
CELLMARGIN_BEGIN
 40
1.5
 40
1.5
 40
1.5
 40
1.5
 40
4.5
 40
4.5
309
CELLMARGIN_END
 94
        6
 95
        1
302
GRIDFORMAT
  1
GRIDFORMAT_BEGIN
 90
        0
 91
        1
 62
     0
 92
       -2
340
25
 93
        0
 40
1.125
309
GRIDFORMAT_END
 95
        2
302
GRIDFORMAT
  1
GRIDFORMAT_BEGIN
 90
        0
 91
        1
 62
     0
 92
       -2
340
25
 93
        0
 40
1.125
309
GRIDFORMAT_END
 95
        4
302
GRIDFORMAT
  1
GRIDFORMAT_BEGIN
 90
        0
 91
        1
 62
     0
 92
       -2
340
25
 93
        0
 40
1.125
309
GRIDFORMAT_END
 95
        8
302
GRIDFORMAT
  1
GRIDFORMAT_BEGIN
 90
        0
 91
        1
 62
     0
 92
       -2
340
25
 93
        0
 40
1.125
309
GRIDFORMAT_END
 95
       16
302
GRIDFORMAT
  1
GRIDFORMAT_BEGIN
 90
        0
 91
        1
 62
     0
 92
       -2
340
25
 93
        0
 40
1.125
309
GRIDFORMAT_END
 95
       32
302
GRIDFORMAT
  1
GRIDFORMAT_BEGIN
 90
        0
 91
        1
 62
     0
 92
       -2
340
25
 93
        0
 40
1.125
309
GRIDFORMAT_END
309
TABLEFORMAT_END
  1
CELLSTYLE_BEGIN
 90
        1
 91
        1
300
_TITLE
309
CELLSTYLE_END
300
CELLSTYLE
  1
TABLEFORMAT_BEGIN
 90
        5
170
     1
 91
        0
 92
        0
 62
   257
 93
        1
300
CONTENTFORMAT
  1
CONTENTFORMAT_BEGIN
 90
        0
 91
        0
 92
      512
 93
        0
300

 40
0.0
140
1.0
 94
        5
 62
     0
340
22
144
4.5
309
CONTENTFORMAT_END
171
     1
301
MARGIN
  1
CELLMARGIN_BEGIN
 40
1.5
 40
1.5
 40
1.5
 40
1.5
 40
4.5
 40
4.5
309
CELLMARGIN_END
 94
        6
 95
        1
302
GRIDFORMAT
  1
GRIDFORMAT_BEGIN
 90
        0
 91
        1
 62
     0
 92
       -2
340
25
 93
        0
 40
1.125
309
GRIDFORMAT_END
 95
        2
302
GRIDFORMAT
  1
GRIDFORMAT_BEGIN
 90
        0
 91
        1
 62
     0
 92
       -2
340
25
 93
        0
 40
1.125
309
GRIDFORMAT_END
 95
        4
302
GRIDFORMAT
  1
GRIDFORMAT_BEGIN
 90
        0
 91
        1
 62
     0
 92
       -2
340
25
 93
        0
 40
1.125
309
GRIDFORMAT_END
 95
        8
302
GRIDFORMAT
  1
GRIDFORMAT_BEGIN
 90
        0
 91
        1
 62
     0
 92
       -2
340
25
 93
        0
 40
1.125
309
GRIDFORMAT_END
 95
       16
302
GRIDFORMAT
  1
GRIDFORMAT_BEGIN
 90
        0
 91
        1
 62
     0
 92
       -2
340
25
 93
        0
 40
1.125
309
GRIDFORMAT_END
 95
       32
302
GRIDFORMAT
  1
GRIDFORMAT_BEGIN
 90
        0
 91
        1
 62
     0
 92
       -2
340
25
 93
        0
 40
1.125
309
GRIDFORMAT_END
309
TABLEFORMAT_END
  1
CELLSTYLE_BEGIN
 90
        2
 91
        1
300
_HEADER
309
CELLSTYLE_END
300
CELLSTYLE
  1
TABLEFORMAT_BEGIN
 90
        5
170
     1
 91
        0
 92
        0
 62
   257
 93
        1
300
CONTENTFORMAT
  1
CONTENTFORMAT_BEGIN
 90
        0
 91
        0
 92
      512
 93
        0
300

 40
0.0
140
1.0
 94
        2
 62
     0
340
22
144
4.5
309
CONTENTFORMAT_END
171
     1
301
MARGIN
  1
CELLMARGIN_BEGIN
 40
1.5
 40
1.5
 40
1.5
 40
1.5
 40
4.5
 40
4.5
309
CELLMARGIN_END
 94
        6
 95
        1
302
GRIDFORMAT
  1
GRIDFORMAT_BEGIN
 90
        0
 91
        1
 62
     0
 92
       -2
340
25
 93
        0
 40
1.125
309
GRIDFORMAT_END
 95
        2
302
GRIDFORMAT
  1
GRIDFORMAT_BEGIN
 90
        0
 91
        1
 62
     0
 92
       -2
340
25
 93
        0
 40
1.125
309
GRIDFORMAT_END
 95
        4
302
GRIDFORMAT
  1
GRIDFORMAT_BEGIN
 90
        0
 91
        1
 62
     0
 92
       -2
340
25
 93
        0
 40
1.125
309
GRIDFORMAT_END
 95
        8
302
GRIDFORMAT
  1
GRIDFORMAT_BEGIN
 90
        0
 91
        1
 62
     0
 92
       -2
340
25
 93
        0
 40
1.125
309
GRIDFORMAT_END
 95
       16
302
GRIDFORMAT
  1
GRIDFORMAT_BEGIN
 90
        0
 91
        1
 62
     0
 92
       -2
340
25
 93
        0
 40
1.125
309
GRIDFORMAT_END
 95
       32
302
GRIDFORMAT
  1
GRIDFORMAT_BEGIN
 90
        0
 91
        1
 62
     0
 92
       -2
340
25
 93
        0
 40
1.125
309
GRIDFORMAT_END
309
TABLEFORMAT_END
  1
CELLSTYLE_BEGIN
 90
        3
 91
        2
300
_DATA
309
CELLSTYLE_END
  0
XRECORD
  5
422
102
{ACAD_REACTORS
330
45
102
}
330
45
100
AcDbXrecord
280
     1
102
ACAD_ROUNDTRIP_PRE2007_TABLESTYLE
 90
      512
 91
        0
  1

 92
      512
 93
        0
  2

 94
      512
 95
        0
  3

  0
XRECORD
  5
41F
102
{ACAD_REACTORS
330
41E
102
}
330
41E
100
AcDbXrecord
280
     1
102
RTVSPost2010Prop28
280
     1
102
RTVSPost2010PropOp28
 70
     1
102
RTVSPost2010Prop29
280
     1
102
RTVSPost2010PropOp29
 70
     1
102
RTVSPost2010Prop30
280
     0
102
RTVSPost2010PropOp30
 70
     1
102
RTVSPost2010Prop31
280
     0
102
RTVSPost2010PropOp31
 70
     1
102
RTVSPost2010Prop32
280
     0
102
RTVSPost2010PropOp32
 70
     1
102
RTVSPost2010Prop33
280
     0
102
RTVSPost2010PropOp33
 70
     1
102
RTVSPost2010Prop34
280
     0
102
RTVSPost2010PropOp34
 70
     1
102
RTVSPost2010Prop35
280
     0
102
RTVSPost2010PropOp35
 70
     1
102
RTVSPost2010Prop36
280
     0
102
RTVSPost2010PropOp36
 70
     1
102
RTVSPost2010Prop37
 90
       50
102
RTVSPost2010PropOp37
 70
     1
102
RTVSPost2010Prop38
140
0.0
102
RTVSPost2010PropOp38
 70
     1
102
RTVSPost2010Prop39
140
1.0
102
RTVSPost2010PropOp39
 70
     1
102
RTVSPost2010Prop40
 90
        0
102
RTVSPost2010PropOp40
 70
     1
102
RTVSPost2010Prop41ColorIndex
 90
       18
102
RTVSPost2010Prop41ColorRGB
 90
        0
102
RTVSPost2010PropOp41
 70
     1
102
RTVSPost2010Prop42
 90
       50
102
RTVSPost2010PropOp42
 70
     1
102
RTVSPost2010Prop43
 90
        3
102
RTVSPost2010PropOp43
 70
     1
102
RTVSPost2010Prop44ColorIndex
 90
        5
102
RTVSPost2010Prop44ColorRGB
 90
      255
102
RTVSPost2010PropOp44
 70
     1
102
RTVSPost2010Prop45
280
     0
102
RTVSPost2010PropOp45
 70
     1
102
RTVSPost2010Prop46
 90
       50
102
RTVSPost2010PropOp46
 70
     1
102
RTVSPost2010Prop47
 90
       50
102
RTVSPost2010PropOp47
 70
     1
102
RTVSPost2010Prop48
 90
       50
102
RTVSPost2010PropOp48
 70
     1
102
RTVSPost2010Prop49
280
     0
102
RTVSPost2010PropOp49
 70
     1
102
RTVSPost2010Prop50
 90
       50
102
RTVSPost2010PropOp50
 70
     1
102
RTVSPost2010Prop51ColorIndex
 90
      256
102
RTVSPost2010Prop51ColorRGB
 90
-16777216
102
RTVSPost2010PropOp51
 70
     0
102
RTVSPost2010Prop52
140
1.0
102
RTVSPost2010PropOp52
 70
     0
102
RTVSPost2010Prop53
 90
        2
102
RTVSPost2010PropOp53
 70
     1
102
RTVSPost2010Prop54
  1
strokes_ogs.tif
102
RTVSPost2010PropOp54
 70
     1
102
RTVSPost2010Prop55
280
     0
102
RTVSPost2010PropOp55
 70
     1
102
RTVSPost2010Prop56
140
1.0
102
RTVSPost2010PropOp56
 70
     1
102
RTVSPost2010Prop57
140
1.0
102
RTVSPost2010PropOp57
 70
     1
102
RTVSPropertyOp0
 70
     1
102
RTVSPropertyOp1
 70
     1
102
RTVSPropertyOp2
 70
     1
102
RTVSPropertyOp3
 70
     1
102
RTVSPropertyOp4
 70
     1
102
RTVSPropertyOp5
 70
     1
102
RTVSPropertyOp6
 70
     1
102
RTVSPropertyOp7
 70
     1
102
RTVSPropertyOp8
 70
     1
102
RTVSPropertyOp9
 70
     1
102
RTVSPropertyOp10
 70
     1
102
RTVSPropertyOp11
 70
     1
102
RTVSPropertyOp12
 70
     1
102
RTVSPropertyOp13
 70
     1
102
RTVSPropertyOp14
 70
     1
102
RTVSPropertyOp15
 70
     1
102
RTVSPropertyOp16
 70
     1
102
RTVSPropertyOp17
 70
     1
102
RTVSPropertyOp18
 70
     1
102
RTVSPropertyOp19
 70
     1
102
RTVSPropertyOp20
 70
     1
102
RTVSPropertyOp21
 70
     1
102
RTVSPropertyOp22
 70
     1
102
RTVSPropertyOp23
 70
     1
102
RTVSPropertyOp24
 70
     1
102
RTVSPropertyOp25
 70
     1
102
RTVSPropertyOp26
 70
     1
102
RTVSPropertyOp27
 70
     1
102
RTVSPropertyOp28
 70
     1
102
RTVSPropertyOp29
 70
     1
102
RTVSPropertyOp30
 70
     1
102
RTVSPropertyOp31
 70
     1
102
RTVSPropertyOp32
 70
     1
102
RTVSPropertyOp33
 70
     1
102
RTVSPropertyOp34
 70
     1
102
RTVSPropertyOp35
 70
     1
102
RTVSPropertyOp36
 70
     1
102
RTVSPropertyOp37
 70
     1
102
RTVSPropertyOp38
 70
     1
102
RTVSPropertyOp39
 70
     1
102
RTVSPropertyOp40
 70
     1
102
RTVSPropertyOp41
 70
     1
102
RTVSPropertyOp42
 70
     1
102
RTVSPropertyOp43
 70
     1
102
RTVSPropertyOp44
 70
     1
102
RTVSPropertyOp45
 70
     1
102
RTVSPropertyOp46
 70
     1
102
RTVSPropertyOp47
 70
     1
102
RTVSPropertyOp48
 70
     1
102
RTVSPropertyOp49
 70
     1
102
RTVSPropertyOp50
 70
     1
102
RTVSPropertyOp51
 70
     0
102
RTVSPropertyOp52
 70
     0
102
RTVSPropertyOp53
 70
     1
102
RTVSPropertyOp54
 70
     1
102
RTVSPropertyOp55
 70
     1
102
RTVSPropertyOp56
 70
     1
102
RTVSPropertyOp57
 70
     1
102
RTVSPropertyOp58
 70
     1
102
RTVSPropertyOp59
 70
     1
102
RTVSPropertyOp60
 70
     1
102
RTVSPropertyOp61
 70
     1
102
RTVSPropertyOp62
 70
     1
  0
XRECORD
  5
424
102
{ACAD_REACTORS
330
423
102
}
330
423
100
AcDbXrecord
280
     1
102
RTVSPost2010Prop28
280
     0
102
RTVSPost2010PropOp28
 70
     1
102
RTVSPost2010Prop29
280
     1
102
RTVSPost2010PropOp29
 70
     1
102
RTVSPost2010Prop30
280
     1
102
RTVSPost2010PropOp30
 70
     1
102
RTVSPost2010Prop31
280
     0
102
RTVSPost2010PropOp31
 70
     1
102
RTVSPost2010Prop32
280
     0
102
RTVSPost2010PropOp32
 70
     1
102
RTVSPost2010Prop33
280
     0
102
RTVSPost2010PropOp33
 70
     1
102
RTVSPost2010Prop34
280
     0
102
RTVSPost2010PropOp34
 70
     1
102
RTVSPost2010Prop35
280
     0
102
RTVSPost2010PropOp35
 70
     1
102
RTVSPost2010Prop36
280
     0
102
RTVSPost2010PropOp36
 70
     1
102
RTVSPost2010Prop37
 90
       50
102
RTVSPost2010PropOp37
 70
     1
102
RTVSPost2010Prop38
140
0.0
102
RTVSPost2010PropOp38
 70
     1
102
RTVSPost2010Prop39
140
1.0
102
RTVSPost2010PropOp39
 70
     1
102
RTVSPost2010Prop40
 90
        0
102
RTVSPost2010PropOp40
 70
     1
102
RTVSPost2010Prop41ColorIndex
 90
       18
102
RTVSPost2010Prop41ColorRGB
 90
        0
102
RTVSPost2010PropOp41
 70
     1
102
RTVSPost2010Prop42
 90
       50
102
RTVSPost2010PropOp42
 70
     1
102
RTVSPost2010Prop43
 90
        3
102
RTVSPost2010PropOp43
 70
     1
102
RTVSPost2010Prop44ColorIndex
 90
        5
102
RTVSPost2010Prop44ColorRGB
 90
      255
102
RTVSPost2010PropOp44
 70
     1
102
RTVSPost2010Prop45
280
     0
102
RTVSPost2010PropOp45
 70
     1
102
RTVSPost2010Prop46
 90
       50
102
RTVSPost2010PropOp46
 70
     1
102
RTVSPost2010Prop47
 90
       50
102
RTVSPost2010PropOp47
 70
     1
102
RTVSPost2010Prop48
 90
       50
102
RTVSPost2010PropOp48
 70
     1
102
RTVSPost2010Prop49
280
     0
102
RTVSPost2010PropOp49
 70
     1
102
RTVSPost2010Prop50
 90
       50
102
RTVSPost2010PropOp50
 70
     1
102
RTVSPost2010Prop51ColorIndex
 90
      256
102
RTVSPost2010Prop51ColorRGB
 90
-16777216
102
RTVSPost2010PropOp51
 70
     0
102
RTVSPost2010Prop52
140
1.0
102
RTVSPost2010PropOp52
 70
     0
102
RTVSPost2010Prop53
 90
        2
102
RTVSPost2010PropOp53
 70
     1
102
RTVSPost2010Prop54
  1
strokes_ogs.tif
102
RTVSPost2010PropOp54
 70
     1
102
RTVSPost2010Prop55
280
     0
102
RTVSPost2010PropOp55
 70
     1
102
RTVSPost2010Prop56
140
1.0
102
RTVSPost2010PropOp56
 70
     1
102
RTVSPost2010Prop57
140
1.0
102
RTVSPost2010PropOp57
 70
     1
102
RTVSPropertyOp0
 70
     1
102
RTVSPropertyOp1
 70
     1
102
RTVSPropertyOp2
 70
     1
102
RTVSPropertyOp3
 70
     1
102
RTVSPropertyOp4
 70
     1
102
RTVSPropertyOp5
 70
     1
102
RTVSPropertyOp6
 70
     1
102
RTVSPropertyOp7
 70
     1
102
RTVSPropertyOp8
 70
     1
102
RTVSPropertyOp9
 70
     1
102
RTVSPropertyOp10
 70
     1
102
RTVSPropertyOp11
 70
     1
102
RTVSPropertyOp12
 70
     1
102
RTVSPropertyOp13
 70
     1
102
RTVSPropertyOp14
 70
     1
102
RTVSPropertyOp15
 70
     1
102
RTVSPropertyOp16
 70
     1
102
RTVSPropertyOp17
 70
     1
102
RTVSPropertyOp18
 70
     1
102
RTVSPropertyOp19
 70
     1
102
RTVSPropertyOp20
 70
     1
102
RTVSPropertyOp21
 70
     1
102
RTVSPropertyOp22
 70
     1
102
RTVSPropertyOp23
 70
     1
102
RTVSPropertyOp24
 70
     1
102
RTVSPropertyOp25
 70
     1
102
RTVSPropertyOp26
 70
     1
102
RTVSPropertyOp27
 70
     1
102
RTVSPropertyOp28
 70
     1
102
RTVSPropertyOp29
 70
     1
102
RTVSPropertyOp30
 70
     1
102
RTVSPropertyOp31
 70
     1
102
RTVSPropertyOp32
 70
     1
102
RTVSPropertyOp33
 70
     1
102
RTVSPropertyOp34
 70
     1
102
RTVSPropertyOp35
 70
     1
102
RTVSPropertyOp36
 70
     1
102
RTVSPropertyOp37
 70
     1
102
RTVSPropertyOp38
 70
     1
102
RTVSPropertyOp39
 70
     1
102
RTVSPropertyOp40
 70
     1
102
RTVSPropertyOp41
 70
     1
102
RTVSPropertyOp42
 70
     1
102
RTVSPropertyOp43
 70
     1
102
RTVSPropertyOp44
 70
     1
102
RTVSPropertyOp45
 70
     1
102
RTVSPropertyOp46
 70
     1
102
RTVSPropertyOp47
 70
     1
102
RTVSPropertyOp48
 70
     1
102
RTVSPropertyOp49
 70
     1
102
RTVSPropertyOp50
 70
     1
102
RTVSPropertyOp51
 70
     0
102
RTVSPropertyOp52
 70
     0
102
RTVSPropertyOp53
 70
     1
102
RTVSPropertyOp54
 70
     1
102
RTVSPropertyOp55
 70
     1
102
RTVSPropertyOp56
 70
     1
102
RTVSPropertyOp57
 70
     1
102
RTVSPropertyOp58
 70
     1
102
RTVSPropertyOp59
 70
     1
102
RTVSPropertyOp60
 70
     1
102
RTVSPropertyOp61
 70
     1
102
RTVSPropertyOp62
 70
     1
  0
XRECORD
  5
426
102
{ACAD_REACTORS
330
425
102
}
330
425
100
AcDbXrecord
280
     1
102
RTVSPost2010Prop28
280
     0
102
RTVSPost2010PropOp28
 70
     1
102
RTVSPost2010Prop29
280
     1
102
RTVSPost2010PropOp29
 70
     1
102
RTVSPost2010Prop30
280
     1
102
RTVSPost2010PropOp30
 70
     1
102
RTVSPost2010Prop31
280
     0
102
RTVSPost2010PropOp31
 70
     1
102
RTVSPost2010Prop32
280
     0
102
RTVSPost2010PropOp32
 70
     1
102
RTVSPost2010Prop33
280
     0
102
RTVSPost2010PropOp33
 70
     1
102
RTVSPost2010Prop34
280
     0
102
RTVSPost2010PropOp34
 70
     1
102
RTVSPost2010Prop35
280
     0
102
RTVSPost2010PropOp35
 70
     1
102
RTVSPost2010Prop36
280
     0
102
RTVSPost2010PropOp36
 70
     1
102
RTVSPost2010Prop37
 90
       50
102
RTVSPost2010PropOp37
 70
     1
102
RTVSPost2010Prop38
140
0.0
102
RTVSPost2010PropOp38
 70
     1
102
RTVSPost2010Prop39
140
1.0
102
RTVSPost2010PropOp39
 70
     1
102
RTVSPost2010Prop40
 90
        0
102
RTVSPost2010PropOp40
 70
     1
102
RTVSPost2010Prop41ColorIndex
 90
       18
102
RTVSPost2010Prop41ColorRGB
 90
        0
102
RTVSPost2010PropOp41
 70
     1
102
RTVSPost2010Prop42
 90
       50
102
RTVSPost2010PropOp42
 70
     1
102
RTVSPost2010Prop43
 90
        3
102
RTVSPost2010PropOp43
 70
     1
102
RTVSPost2010Prop44ColorIndex
 90
        5
102
RTVSPost2010Prop44ColorRGB
 90
      255
102
RTVSPost2010PropOp44
 70
     1
102
RTVSPost2010Prop45
280
     0
102
RTVSPost2010PropOp45
 70
     1
102
RTVSPost2010Prop46
 90
       50
102
RTVSPost2010PropOp46
 70
     1
102
RTVSPost2010Prop47
 90
       50
102
RTVSPost2010PropOp47
 70
     1
102
RTVSPost2010Prop48
 90
       50
102
RTVSPost2010PropOp48
 70
     1
102
RTVSPost2010Prop49
280
     0
102
RTVSPost2010PropOp49
 70
     1
102
RTVSPost2010Prop50
 90
       50
102
RTVSPost2010PropOp50
 70
     1
102
RTVSPost2010Prop51ColorIndex
 90
      256
102
RTVSPost2010Prop51ColorRGB
 90
-16777216
102
RTVSPost2010PropOp51
 70
     0
102
RTVSPost2010Prop52
140
1.0
102
RTVSPost2010PropOp52
 70
     0
102
RTVSPost2010Prop53
 90
        2
102
RTVSPost2010PropOp53
 70
     1
102
RTVSPost2010Prop54
  1
strokes_ogs.tif
102
RTVSPost2010PropOp54
 70
     1
102
RTVSPost2010Prop55
280
     0
102
RTVSPost2010PropOp55
 70
     1
102
RTVSPost2010Prop56
140
1.0
102
RTVSPost2010PropOp56
 70
     1
102
RTVSPost2010Prop57
140
1.0
102
RTVSPost2010PropOp57
 70
     1
102
RTVSPropertyOp0
 70
     1
102
RTVSPropertyOp1
 70
     1
102
RTVSPropertyOp2
 70
     1
102
RTVSPropertyOp3
 70
     1
102
RTVSPropertyOp4
 70
     1
102
RTVSPropertyOp5
 70
     1
102
RTVSPropertyOp6
 70
     1
102
RTVSPropertyOp7
 70
     1
102
RTVSPropertyOp8
 70
     1
102
RTVSPropertyOp9
 70
     1
102
RTVSPropertyOp10
 70
     1
102
RTVSPropertyOp11
 70
     1
102
RTVSPropertyOp12
 70
     1
102
RTVSPropertyOp13
 70
     1
102
RTVSPropertyOp14
 70
     1
102
RTVSPropertyOp15
 70
     1
102
RTVSPropertyOp16
 70
     1
102
RTVSPropertyOp17
 70
     1
102
RTVSPropertyOp18
 70
     1
102
RTVSPropertyOp19
 70
     1
102
RTVSPropertyOp20
 70
     1
102
RTVSPropertyOp21
 70
     1
102
RTVSPropertyOp22
 70
     1
102
RTVSPropertyOp23
 70
     1
102
RTVSPropertyOp24
 70
     1
102
RTVSPropertyOp25
 70
     1
102
RTVSPropertyOp26
 70
     1
102
RTVSPropertyOp27
 70
     1
102
RTVSPropertyOp28
 70
     1
102
RTVSPropertyOp29
 70
     1
102
RTVSPropertyOp30
 70
     1
102
RTVSPropertyOp31
 70
     1
102
RTVSPropertyOp32
 70
     1
102
RTVSPropertyOp33
 70
     1
102
RTVSPropertyOp34
 70
     1
102
RTVSPropertyOp35
 70
     1
102
RTVSPropertyOp36
 70
     1
102
RTVSPropertyOp37
 70
     1
102
RTVSPropertyOp38
 70
     1
102
RTVSPropertyOp39
 70
     1
102
RTVSPropertyOp40
 70
     1
102
RTVSPropertyOp41
 70
     1
102
RTVSPropertyOp42
 70
     1
102
RTVSPropertyOp43
 70
     1
102
RTVSPropertyOp44
 70
     1
102
RTVSPropertyOp45
 70
     1
102
RTVSPropertyOp46
 70
     1
102
RTVSPropertyOp47
 70
     1
102
RTVSPropertyOp48
 70
     1
102
RTVSPropertyOp49
 70
     1
102
RTVSPropertyOp50
 70
     1
102
RTVSPropertyOp51
 70
     0
102
RTVSPropertyOp52
 70
     0
102
RTVSPropertyOp53
 70
     1
102
RTVSPropertyOp54
 70
     1
102
RTVSPropertyOp55
 70
     1
102
RTVSPropertyOp56
 70
     1
102
RTVSPropertyOp57
 70
     1
102
RTVSPropertyOp58
 70
     1
102
RTVSPropertyOp59
 70
     1
102
RTVSPropertyOp60
 70
     1
102
RTVSPropertyOp61
 70
     1
102
RTVSPropertyOp62
 70
     1
  0
ENDSEC
  0
EOF
