  0
SECTION
  2
HEADER
  9
$ACADVER
  1
AC1018
  9
$ACADMAINTVER
 70
   104
  9
$DWGCODEPAGE
  3
ANSI_932
  9
$INSBASE
 10
0.0
 20
0.0
 30
0.0
  9
$EXTMIN
 10
-0.0256383601191601
 20
-0.0181263349739993
 30
-0.0000000349181948
  9
$EXTMAX
 10
50.02776905242672
 20
29.14528461714303
 30
0.0000000814935746
  9
$LIMMIN
 10
-8.855673260566391
 20
-9.876753515129394
  9
$LIMMAX
 10
58.29062048331661
 20
38.07033312838132
  9
$ORTHOMODE
 70
     0
  9
$REGENMODE
 70
     1
  9
$FILLMODE
 70
     1
  9
$QTEXTMODE
 70
     0
  9
$MIRRTEXT
 70
     0
  9
$LTSCALE
 40
1.0
  9
$ATTMODE
 70
     1
  9
$TEXTSIZE
 40
2.5
  9
$TRACEWID
 40
1.0
  9
$TEXTSTYLE
  7
Standard
  9
$CLAYER
  8
0
  9
$CELTYPE
  6
ByLayer
  9
$CECOLOR
 62
   256
  9
$CELTSCALE
 40
1.0
  9
$DISPSILH
 70
     0
  9
$DIMSCALE
 40
1.0
  9
$DIMASZ
 40
2.5
  9
$DIMEXO
 40
0.625
  9
$DIMDLI
 40
3.75
  9
$DIMRND
 40
0.0
  9
$DIMDLE
 40
0.0
  9
$DIMEXE
 40
1.25
  9
$DIMTP
 40
0.0
  9
$DIMTM
 40
0.0
  9
$DIMTXT
 40
2.5
  9
$DIMCEN
 40
2.5
  9
$DIMTSZ
 40
0.0
  9
$DIMTOL
 70
     0
  9
$DIMLIM
 70
     0
  9
$DIMTIH
 70
     0
  9
$DIMTOH
 70
     0
  9
$DIMSE1
 70
     0
  9
$DIMSE2
 70
     0
  9
$DIMTAD
 70
     1
  9
$DIMZIN
 70
     8
  9
$DIMBLK
  1

  9
$DIMASO
 70
     1
  9
$DIMSHO
 70
     1
  9
$DIMPOST
  1

  9
$DIMAPOST
  1

  9
$DIMALT
 70
     0
  9
$DIMALTD
 70
     3
  9
$DIMALTF
 40
0.03937007874016
  9
$DIMLFAC
 40
1.0
  9
$DIMTOFL
 70
     1
  9
$DIMTVP
 40
0.0
  9
$DIMTIX
 70
     0
  9
$DIMSOXD
 70
     0
  9
$DIMSAH
 70
     0
  9
$DIMBLK1
  1

  9
$DIMBLK2
  1

  9
$DIMSTYLE
  2
ISO-25
  9
$DIMCLRD
 70
     0
  9
$DIMCLRE
 70
     0
  9
$DIMCLRT
 70
     0
  9
$DIMTFAC
 40
1.0
  9
$DIMGAP
 40
0.625
  9
$DIMJUST
 70
     0
  9
$DIMSD1
 70
     0
  9
$DIMSD2
 70
     0
  9
$DIMTOLJ
 70
     0
  9
$DIMTZIN
 70
     8
  9
$DIMALTZ
 70
     0
  9
$DIMALTTZ
 70
     0
  9
$DIMUPT
 70
     0
  9
$DIMDEC
 70
     2
  9
$DIMTDEC
 70
     2
  9
$DIMALTU
 70
     2
  9
$DIMALTTD
 70
     3
  9
$DIMTXSTY
  7
Standard
  9
$DIMAUNIT
 70
     0
  9
$DIMADEC
 70
     0
  9
$DIMALTRND
 40
0.0
  9
$DIMAZIN
 70
     0
  9
$DIMDSEP
 70
    44
  9
$DIMATFIT
 70
     3
  9
$DIMFRAC
 70
     0
  9
$DIMLDRBLK
  1

  9
$DIMLUNIT
 70
     2
  9
$DIMLWD
 70
    -2
  9
$DIMLWE
 70
    -2
  9
$DIMTMOVE
 70
     0
  9
$LUNITS
 70
     2
  9
$LUPREC
 70
     4
  9
$SKETCHINC
 40
1.0
  9
$FILLETRAD
 40
0.0
  9
$AUNITS
 70
     0
  9
$AUPREC
 70
     0
  9
$MENU
  1
.
  9
$ELEVATION
 40
0.0
  9
$PELEVATION
 40
0.0
  9
$THICKNESS
 40
0.0
  9
$LIMCHECK
 70
     0
  9
$CHAMFERA
 40
0.0
  9
$CHAMFERB
 40
0.0
  9
$CHAMFERC
 40
0.0
  9
$CHAMFERD
 40
0.0
  9
$SKPOLY
 70
     0
  9
$TDCREATE
 40
2458843.714548611
  9
$TDUCREATE
 40
2458843.381215278
  9
$TDUPDATE
 40
2458843.733518519
  9
$TDUUPDATE
 40
2458843.400185185
  9
$TDINDWG
 40
0.0191898148
  9
$TDUSRTIMER
 40
0.0191898148
  9
$USRTIMER
 70
     1
  9
$ANGBASE
 50
0.0
  9
$ANGDIR
 70
     0
  9
$PDMODE
 70
     0
  9
$PDSIZE
 40
0.0
  9
$PLINEWID
 40
0.0
  9
$SPLFRAME
 70
     0
  9
$SPLINETYPE
 70
     6
  9
$SPLINESEGS
 70
     8
  9
$HANDSEED
  5
4AA
  9
$SURFTAB1
 70
     6
  9
$SURFTAB2
 70
     6
  9
$SURFTYPE
 70
     6
  9
$SURFU
 70
     6
  9
$SURFV
 70
     6
  9
$UCSBASE
  2

  9
$UCSNAME
  2

  9
$UCSORG
 10
0.0
 20
0.0
 30
0.0
  9
$UCSXDIR
 10
1.0
 20
0.0
 30
0.0
  9
$UCSYDIR
 10
0.0
 20
1.0
 30
0.0
  9
$UCSORTHOREF
  2

  9
$UCSORTHOVIEW
 70
     0
  9
$UCSORGTOP
 10
0.0
 20
0.0
 30
0.0
  9
$UCSORGBOTTOM
 10
0.0
 20
0.0
 30
0.0
  9
$UCSORGLEFT
 10
0.0
 20
0.0
 30
0.0
  9
$UCSORGRIGHT
 10
0.0
 20
0.0
 30
0.0
  9
$UCSORGFRONT
 10
0.0
 20
0.0
 30
0.0
  9
$UCSORGBACK
 10
0.0
 20
0.0
 30
0.0
  9
$PUCSBASE
  2

  9
$PUCSNAME
  2

  9
$PUCSORG
 10
0.0
 20
0.0
 30
0.0
  9
$PUCSXDIR
 10
1.0
 20
0.0
 30
0.0
  9
$PUCSYDIR
 10
0.0
 20
1.0
 30
0.0
  9
$PUCSORTHOREF
  2

  9
$PUCSORTHOVIEW
 70
     0
  9
$PUCSORGTOP
 10
0.0
 20
0.0
 30
0.0
  9
$PUCSORGBOTTOM
 10
0.0
 20
0.0
 30
0.0
  9
$PUCSORGLEFT
 10
0.0
 20
0.0
 30
0.0
  9
$PUCSORGRIGHT
 10
0.0
 20
0.0
 30
0.0
  9
$PUCSORGFRONT
 10
0.0
 20
0.0
 30
0.0
  9
$PUCSORGBACK
 10
0.0
 20
0.0
 30
0.0
  9
$USERI1
 70
     0
  9
$USERI2
 70
     0
  9
$USERI3
 70
     0
  9
$USERI4
 70
     0
  9
$USERI5
 70
     0
  9
$USERR1
 40
0.0
  9
$USERR2
 40
0.0
  9
$USERR3
 40
0.0
  9
$USERR4
 40
0.0
  9
$USERR5
 40
0.0
  9
$WORLDVIEW
 70
     1
  9
$SHADEDGE
 70
     3
  9
$SHADEDIF
 70
    70
  9
$TILEMODE
 70
     1
  9
$MAXACTVP
 70
    64
  9
$PINSBASE
 10
0.0
 20
0.0
 30
0.0
  9
$PLIMCHECK
 70
     0
  9
$PEXTMIN
 10
0.0
 20
0.0
 30
0.0
  9
$PEXTMAX
 10
0.0
 20
0.0
 30
0.0
  9
$PLIMMIN
 10
0.0
 20
0.0
  9
$PLIMMAX
 10
12.0
 20
9.0
  9
$UNITMODE
 70
     0
  9
$VISRETAIN
 70
     1
  9
$PLINEGEN
 70
     0
  9
$PSLTSCALE
 70
     1
  9
$TREEDEPTH
 70
  3020
  9
$CMLSTYLE
  2
Standard
  9
$CMLJUST
 70
     0
  9
$CMLSCALE
 40
20.0
  9
$PROXYGRAPHICS
 70
     1
  9
$MEASUREMENT
 70
     1
  9
$CELWEIGHT
370
    -1
  9
$ENDCAPS
280
     0
  9
$JOINSTYLE
280
     0
  9
$LWDISPLAY
290
     0
  9
$INSUNITS
 70
     4
  9
$HYPERLINKBASE
  1

  9
$STYLESHEET
  1

  9
$XEDIT
290
     1
  9
$CEPSNTYPE
380
     0
  9
$PSTYLEMODE
290
     1
  9
$FINGERPRINTGUID
  2
{4B9C7EA6-6DB2-6544-BF6E-837A01779D48}
  9
$VERSIONGUID
  2
{FBC9EE66-F426-FE4B-886B-3E59E7771B5C}
  9
$EXTNAMES
290
     1
  9
$PSVPSCALE
 40
0.0
  9
$OLESTARTUP
290
     0
  9
$SORTENTS
280
   127
  9
$INDEXCTL
280
     0
  9
$HIDETEXT
280
     1
  9
$XCLIPFRAME
290
     0
  9
$HALOGAP
280
     0
  9
$OBSCOLOR
 70
   257
  9
$OBSLTYPE
280
     0
  9
$INTERSECTIONDISPLAY
280
     0
  9
$INTERSECTIONCOLOR
 70
   257
  9
$DIMASSOC
280
     2
  9
$PROJECTNAME
  1

  0
ENDSEC
  0
SECTION
  2
CLASSES
  0
CLASS
  1
ACDBDICTIONARYWDFLT
  2
AcDbDictionaryWithDefault
  3
ObjectDBX Classes
 90
        0
 91
        1
280
     0
281
     0
  0
CLASS
  1
DICTIONARYVAR
  2
AcDbDictionaryVar
  3
ObjectDBX Classes
 90
        0
 91
       12
280
     0
281
     0
  0
CLASS
  1
TABLESTYLE
  2
AcDbTableStyle
  3
ObjectDBX Classes
 90
     4095
 91
        1
280
     0
281
     0
  0
CLASS
  1
MATERIAL
  2
AcDbMaterial
  3
ObjectDBX Classes
 90
     1153
 91
        3
280
     0
281
     0
  0
CLASS
  1
VISUALSTYLE
  2
AcDbVisualStyle
  3
ObjectDBX Classes
 90
     4095
 91
        3
280
     0
281
     0
  0
CLASS
  1
SCALE
  2
AcDbScale
  3
ObjectDBX Classes
 90
     1153
 91
       17
280
     0
281
     0
  0
CLASS
  1
MLEADERSTYLE
  2
AcDbMLeaderStyle
  3
ACDB_MLEADERSTYLE_CLASS
 90
     4095
 91
        0
280
     0
281
     0
  0
CLASS
  1
CELLSTYLEMAP
  2
AcDbCellStyleMap
  3
ObjectDBX Classes
 90
     1152
 91
        1
280
     0
281
     0
  0
CLASS
  1
EXACXREFPANELOBJECT
  2
ExAcXREFPanelObject
  3
EXAC_ESW
 90
     1025
 91
        0
280
     1
281
     0
  0
CLASS
  1
NPOCOLLECTION
  2
AcDbImpNonPersistentObjectsCollection
  3
ObjectDBX Classes
 90
     1153
 91
        0
280
     0
281
     0
  0
CLASS
  1
LAYER_INDEX
  2
AcDbLayerIndex
  3
ObjectDBX Classes
 90
        0
 91
        0
280
     0
281
     0
  0
CLASS
  1
SPATIAL_INDEX
  2
AcDbSpatialIndex
  3
ObjectDBX Classes
 90
        0
 91
        0
280
     0
281
     0
  0
CLASS
  1
IDBUFFER
  2
AcDbIdBuffer
  3
ObjectDBX Classes
 90
        0
 91
        0
280
     0
281
     0
  0
CLASS
  1
ACDBSECTIONVIEWSTYLE
  2
AcDbSectionViewStyle
  3
ObjectDBX Classes
 90
     1025
 91
        0
280
     0
281
     0
  0
CLASS
  1
ACDBDETAILVIEWSTYLE
  2
AcDbDetailViewStyle
  3
ObjectDBX Classes
 90
     1025
 91
        0
280
     0
281
     0
  0
CLASS
  1
SORTENTSTABLE
  2
AcDbSortentsTable
  3
ObjectDBX Classes
 90
        0
 91
        2
280
     0
281
     0
  0
CLASS
  1
DIMASSOC
  2
AcDbDimAssoc
  3
"AcDbDimAssoc|Product Desc:     AcDim ARX App For Dimension|Company:          Autodesk, Inc.|WEB Address:      www.autodesk.com"
 90
        0
 91
        0
280
     0
281
     0
  0
ENDSEC
  0
SECTION
  2
TABLES
  0
TABLE
  2
VPORT
  5
29
330
0
100
AcDbSymbolTable
 70
     1
  0
VPORT
  5
2A
330
29
100
AcDbSymbolTableRecord
100
AcDbViewportTableRecord
  2
*Active
 70
     0
 10
0.0
 20
0.0
 11
1.0
 21
1.0
 12
24.71747361137511
 22
14.09678980662596
 13
0.0
 23
0.0
 14
10.0
 24
10.0
 15
10.0
 25
10.0
 16
0.0
 26
0.0
 36
1.0
 17
0.0
 27
0.0
 37
0.0
 40
48.39659058079362
 41
2.469483568075117
 42
50.0
 43
0.0
 44
0.0
 50
0.0
 51
0.0
 71
     0
 72
  1000
 73
     1
 74
     3
 75
     0
 76
     1
 77
     0
 78
     0
281
     0
 65
     1
110
0.0
120
0.0
130
0.0
111
1.0
121
0.0
131
0.0
112
0.0
122
1.0
132
0.0
 79
     0
146
0.0
1001
ACAD_NAV_VCDISPLAY
1070
     3
  0
ENDTAB
  0
TABLE
  2
LTYPE
  5
24
330
0
100
AcDbSymbolTable
 70
     1
  0
LTYPE
  5
25
330
24
100
AcDbSymbolTableRecord
100
AcDbLinetypeTableRecord
  2
ByBlock
 70
     0
  3

 72
    65
 73
     0
 40
0.0
  0
LTYPE
  5
26
330
24
100
AcDbSymbolTableRecord
100
AcDbLinetypeTableRecord
  2
ByLayer
 70
     0
  3

 72
    65
 73
     0
 40
0.0
  0
LTYPE
  5
14
330
24
100
AcDbSymbolTableRecord
100
AcDbLinetypeTableRecord
  2
Continuous
 70
     0
  3
Solid line
 72
    65
 73
     0
 40
0.0
  0
ENDTAB
  0
TABLE
  2
LAYER
  5
1E
102
{ACAD_XDICTIONARY
360
1F
102
}
330
0
100
AcDbSymbolTable
 70
     1
  0
LAYER
  5
6
102
{ACAD_XDICTIONARY
360
7
102
}
330
1E
100
AcDbSymbolTableRecord
100
AcDbLayerTableRecord
  2
0
 70
     0
 62
     7
  6
Continuous
370
    -3
390
8
  0
ENDTAB
  0
TABLE
  2
STYLE
  5
21
330
0
100
AcDbSymbolTable
 70
     1
  0
STYLE
  5
22
330
21
100
AcDbSymbolTableRecord
100
AcDbTextStyleTableRecord
  2
Standard
 70
     0
 40
0.0
 41
1.0
 50
0.0
 71
     0
 42
2.5
  3
arial.ttf
  4

1001
ACAD
1000
Arial
1071
       34
  0
ENDTAB
  0
TABLE
  2
VIEW
  5
27
330
0
100
AcDbSymbolTable
 70
     0
  0
ENDTAB
  0
TABLE
  2
UCS
  5
28
330
0
100
AcDbSymbolTable
 70
     0
  0
ENDTAB
  0
TABLE
  2
APPID
  5
2E
330
0
100
AcDbSymbolTable
 70
     6
  0
APPID
  5
13
330
2E
100
AcDbSymbolTableRecord
100
AcDbRegAppTableRecord
  2
ACAD
 70
     0
  0
APPID
  5
19
330
2E
100
AcDbSymbolTableRecord
100
AcDbRegAppTableRecord
  2
ACAD_PSEXT
 70
     0
  0
APPID
  5
32
330
2E
100
AcDbSymbolTableRecord
100
AcDbRegAppTableRecord
  2
AcadAnnotative
 70
     0
  0
APPID
  5
33
330
2E
100
AcDbSymbolTableRecord
100
AcDbRegAppTableRecord
  2
ACAD_DSTYLE_DIMJAG
 70
     0
  0
APPID
  5
34
330
2E
100
AcDbSymbolTableRecord
100
AcDbRegAppTableRecord
  2
ACAD_DSTYLE_DIMTALN
 70
     0
  0
APPID
  5
2D
330
2E
100
AcDbSymbolTableRecord
100
AcDbRegAppTableRecord
  2
ACAD_NAV_VCDISPLAY
 70
     0
  0
ENDTAB
  0
TABLE
  2
DIMSTYLE
  5
2F
330
0
100
AcDbSymbolTable
 70
     2
100
AcDbDimStyleTable
 71
     2
340
30
340
31
  0
DIMSTYLE
105
31
330
2F
100
AcDbSymbolTableRecord
100
AcDbDimStyleTableRecord
  2
Annotative
 70
     0
 40
0.0
 41
2.5
 42
0.625
 43
3.75
 44
1.25
 73
     0
 74
     0
 77
     1
 78
     8
140
2.5
141
2.5
143
0.03937007874016
147
0.625
171
     3
172
     1
271
     2
272
     2
274
     3
278
    44
283
     0
284
     8
340
22
1001
AcadAnnotative
1000
AnnotativeData
1002
{
1070
     1
1070
     1
1002
}
1001
ACAD_DSTYLE_DIMJAG
1070
   388
1040
1.5
1001
ACAD_DSTYLE_DIMTALN
1070
   392
1070
     0
  0
DIMSTYLE
105
30
330
2F
100
AcDbSymbolTableRecord
100
AcDbDimStyleTableRecord
  2
ISO-25
 70
     0
 41
2.5
 42
0.625
 43
3.75
 44
1.25
 73
     0
 74
     0
 77
     1
 78
     8
140
2.5
141
2.5
143
0.03937007874016
147
0.625
171
     3
172
     1
271
     2
272
     2
274
     3
278
    44
283
     0
284
     8
340
22
  0
ENDTAB
  0
TABLE
  2
BLOCK_RECORD
  5
1
330
0
100
AcDbSymbolTable
 70
     0
  0
BLOCK_RECORD
  5
2
102
{ACAD_XDICTIONARY
360
3
102
}
330
1
100
AcDbSymbolTableRecord
100
AcDbBlockTableRecord
  2
*Model_Space
340
16
  0
BLOCK_RECORD
  5
1A
330
1
100
AcDbSymbolTableRecord
100
AcDbBlockTableRecord
  2
*Paper_Space
340
1D
  0
ENDTAB
  0
ENDSEC
  0
SECTION
  2
BLOCKS
  0
BLOCK
  5
5
330
2
100
AcDbEntity
  8
0
100
AcDbBlockBegin
  2
*Model_Space
 70
     0
 10
0.0
 20
0.0
 30
0.0
  3
*Model_Space
  1

  0
ENDBLK
  5
15
330
2
100
AcDbEntity
  8
0
100
AcDbBlockEnd
  0
BLOCK
  5
1B
330
1A
100
AcDbEntity
 67
     1
  8
0
100
AcDbBlockBegin
  2
*Paper_Space
 70
     0
 10
0.0
 20
0.0
 30
0.0
  3
*Paper_Space
  1

  0
ENDBLK
  5
1C
330
1A
100
AcDbEntity
 67
     1
  8
0
100
AcDbBlockEnd
  0
ENDSEC
  0
SECTION
  2
ENTITIES
  0
LINE
  5
59
330
2
100
AcDbEntity
  8
0
100
AcDbLine
 10
49.49304853325976
 20
24.93867050769981
 30
0.0
 11
49.49274889378598
 21
24.9428654603328
 31
0.0
  0
LINE
  5
5A
330
2
100
AcDbEntity
  8
0
100
AcDbLine
 10
49.49274889378598
 20
24.9428654603328
 30
0.0
 11
49.49155033589082
 21
24.94646113401822
 31
0.0
  0
LINE
  5
5B
330
2
100
AcDbEntity
  8
0
100
AcDbLine
 10
49.49155033589082
 20
24.94646113401822
 30
0.0
 11
49.48975249904812
 21
24.94945752875605
 31
0.0
  0
LINE
  5
5C
330
2
100
AcDbEntity
  8
0
100
AcDbLine
 10
49.48975249904812
 20
24.94945752875605
 30
0.0
 11
49.48735538325784
 21
24.95155500507256
 31
0.0
  0
LINE
  5
5D
330
2
100
AcDbEntity
  8
0
100
AcDbLine
 10
49.48735538325784
 20
24.95155500507256
 30
0.0
 11
42.73018560992909
 21
28.85226167480752
 31
0.0
  0
LINE
  5
5E
330
2
100
AcDbEntity
  8
0
100
AcDbLine
 10
42.25211082950488
 20
28.87626279665775
 30
0.0
 11
42.2473765258191
 21
28.8642172898116
 31
0.0
  0
LINE
  5
5F
330
2
100
AcDbEntity
  8
0
100
AcDbLine
 10
42.2473765258191
 20
28.8642172898116
 30
0.0
 11
44.85933381880418
 21
26.294808802104
 31
0.0
  0
LINE
  5
60
330
2
100
AcDbEntity
  8
0
100
AcDbLine
 10
47.33261459235043
 20
24.90112028305832
 30
0.0
 11
49.95608141209996
 21
24.45936720543313
 31
0.0
  0
LINE
  5
61
330
2
100
AcDbEntity
  8
0
100
AcDbLine
 10
49.95608141209996
 20
24.45936720543313
 30
0.0
 11
49.96782727947228
 21
24.45115708385138
 31
0.0
  0
LINE
  5
62
330
2
100
AcDbEntity
  8
0
100
AcDbLine
 10
49.96782727947228
 20
24.45115708385138
 30
0.0
 11
49.96782727947228
 21
24.65760868128935
 31
0.0
  0
LINE
  5
63
330
2
100
AcDbEntity
  8
0
100
AcDbLine
 10
42.21729272265104
 20
29.12951807990095
 30
0.0
 11
0.0280548137030503
 21
4.774522011170812
 31
0.0
  0
ARC
  5
64
330
2
100
AcDbEntity
  8
0
100
AcDbCircle
 10
0.0380853642218694
 20
4.759775801010482
 30
0.0
 40
0.0178343112511587
100
AcDbArc
 50
124.2240110752028
 51
189.6594397260664
  0
LINE
  5
65
330
2
100
AcDbEntity
  8
0
100
AcDbLine
 10
0.0205038989637015
 20
4.75678335432275
 30
0.0
 11
0.0205038989637015
 21
4.748992728004333
 31
0.0
  0
LINE
  5
66
330
2
100
AcDbEntity
  8
0
100
AcDbLine
 10
0.0205038989637015
 20
4.748992728004333
 30
0.0
 11
0.0001284147463125
 21
4.713934909571476
 31
0.0
  0
LINE
  5
67
330
2
100
AcDbEntity
  8
0
100
AcDbLine
 10
2.657840655378367
 20
1.907391742310293
 30
0.0
 11
44.88752989328736
 21
26.28605932946943
 31
0.0
  0
LINE
  5
68
330
2
100
AcDbEntity
  8
0
100
AcDbLine
 10
7.762558658676803
 20
0.0223598127279896
 30
0.0
 11
49.991948257112
 21
24.40072776041336
 31
0.0
  0
LINE
  5
69
330
2
100
AcDbEntity
  8
0
100
AcDbLine
 10
44.80315141746948
 20
26.05308963860155
 30
0.0
 11
44.80315141746948
 21
26.0521907201802
 31
0.0
  0
LINE
  5
6A
330
2
100
AcDbEntity
  8
0
100
AcDbLine
 10
44.80315141746948
 20
26.0521907201802
 30
0.0
 11
44.80315141746948
 21
26.05189108070641
 31
0.0
  0
LINE
  5
6B
330
2
100
AcDbEntity
  8
0
100
AcDbLine
 10
44.80315141746948
 20
26.05189108070641
 30
0.0
 11
44.80255213852191
 21
26.05129180175886
 31
0.0
  0
LINE
  5
6C
330
2
100
AcDbEntity
  8
0
100
AcDbLine
 10
44.80255213852191
 20
26.05129180175886
 30
0.0
 11
44.80255213852191
 21
26.05099216228503
 31
0.0
  0
LINE
  5
6D
330
2
100
AcDbEntity
  8
0
100
AcDbLine
 10
44.80255213852191
 20
26.05099216228503
 30
0.0
 11
44.80255213852191
 21
26.05039288333747
 31
0.0
  0
LINE
  5
6E
330
2
100
AcDbEntity
  8
0
100
AcDbLine
 10
44.80255213852191
 20
26.05039288333747
 30
0.0
 11
44.80195285957433
 21
26.0497936043899
 31
0.0
  0
LINE
  5
6F
330
2
100
AcDbEntity
  8
0
100
AcDbLine
 10
44.80195285957433
 20
26.0497936043899
 30
0.0
 11
44.80195285957433
 21
26.04919432544234
 31
0.0
  0
LINE
  5
70
330
2
100
AcDbEntity
  8
0
100
AcDbLine
 10
44.80195285957433
 20
26.04919432544234
 30
0.0
 11
44.80195285957433
 21
26.04829540702099
 31
0.0
  0
LINE
  5
71
330
2
100
AcDbEntity
  8
0
100
AcDbLine
 10
44.80195285957433
 20
26.04829540702099
 30
0.0
 11
44.80195285957433
 21
26.04769612807343
 31
0.0
  0
LINE
  5
72
330
2
100
AcDbEntity
  8
0
100
AcDbLine
 10
44.80195285957433
 20
26.04769612807343
 30
0.0
 11
44.80195285957433
 21
26.04739648859965
 31
0.0
  0
LINE
  5
73
330
2
100
AcDbEntity
  8
0
100
AcDbLine
 10
44.80195285957433
 20
26.04739648859965
 30
0.0
 11
44.80135358062677
 21
26.04679720965204
 31
0.0
  0
LINE
  5
74
330
2
100
AcDbEntity
  8
0
100
AcDbLine
 10
44.80135358062677
 20
26.04679720965204
 30
0.0
 11
44.80135358062677
 21
26.04649757017826
 31
0.0
  0
LINE
  5
75
330
2
100
AcDbEntity
  8
0
100
AcDbLine
 10
44.80135358062677
 20
26.04649757017826
 30
0.0
 11
44.80135358062677
 21
26.04559865175691
 31
0.0
  0
LINE
  5
76
330
2
100
AcDbEntity
  8
0
100
AcDbLine
 10
44.80135358062677
 20
26.04559865175691
 30
0.0
 11
44.80135358062677
 21
26.04499937280935
 31
0.0
  0
LINE
  5
77
330
2
100
AcDbEntity
  8
0
100
AcDbLine
 10
44.80135358062677
 20
26.04499937280935
 30
0.0
 11
44.80135358062677
 21
26.04469973333557
 31
0.0
  0
LINE
  5
78
330
2
100
AcDbEntity
  8
0
100
AcDbLine
 10
44.80135358062677
 20
26.04469973333557
 30
0.0
 11
44.80135358062677
 21
26.044100454388
 31
0.0
  0
LINE
  5
79
330
2
100
AcDbEntity
  8
0
100
AcDbLine
 10
44.80135358062677
 20
26.044100454388
 30
0.0
 11
44.80105394115298
 21
26.04320153596666
 31
0.0
  0
LINE
  5
7A
330
2
100
AcDbEntity
  8
0
100
AcDbLine
 10
44.80105394115298
 20
26.04320153596666
 30
0.0
 11
44.80105394115298
 21
26.04260225701905
 31
0.0
  0
LINE
  5
7B
330
2
100
AcDbEntity
  8
0
100
AcDbLine
 10
44.80105394115298
 20
26.04260225701905
 30
0.0
 11
44.80105394115298
 21
26.04200297807149
 31
0.0
  0
LINE
  5
7C
330
2
100
AcDbEntity
  8
0
100
AcDbLine
 10
44.80105394115298
 20
26.04200297807149
 30
0.0
 11
44.80105394115298
 21
26.0417033385977
 31
0.0
  0
LINE
  5
7D
330
2
100
AcDbEntity
  8
0
100
AcDbLine
 10
44.80105394115298
 20
26.0417033385977
 30
0.0
 11
44.80105394115298
 21
26.04050478070258
 31
0.0
  0
LINE
  5
7E
330
2
100
AcDbEntity
  8
0
100
AcDbLine
 10
44.80105394115298
 20
26.04050478070258
 30
0.0
 11
44.80105394115298
 21
26.03990550175501
 31
0.0
  0
LINE
  5
7F
330
2
100
AcDbEntity
  8
0
100
AcDbLine
 10
44.80105394115298
 20
26.03990550175501
 30
0.0
 11
44.80105394115298
 21
26.03930622280744
 31
0.0
  0
LINE
  5
80
330
2
100
AcDbEntity
  8
0
100
AcDbLine
 10
44.80105394115298
 20
26.03930622280744
 30
0.0
 11
44.80105394115298
 21
26.03840730438606
 31
0.0
  0
LINE
  5
81
330
2
100
AcDbEntity
  8
0
100
AcDbLine
 10
44.80105394115298
 20
26.03840730438606
 30
0.0
 11
44.80045466220542
 21
26.0378080254385
 31
0.0
  0
LINE
  5
82
330
2
100
AcDbEntity
  8
0
100
AcDbLine
 10
44.80045466220542
 20
26.0378080254385
 30
0.0
 11
44.80045466220542
 21
26.03720874649093
 31
0.0
  0
LINE
  5
83
330
2
100
AcDbEntity
  8
0
100
AcDbLine
 10
44.80045466220542
 20
26.03720874649093
 30
0.0
 11
44.80045466220542
 21
26.03630982806958
 31
0.0
  0
LINE
  5
84
330
2
100
AcDbEntity
  8
0
100
AcDbLine
 10
44.80045466220542
 20
26.03630982806958
 30
0.0
 11
44.80045466220542
 21
26.0360101885958
 31
0.0
  0
LINE
  5
85
330
2
100
AcDbEntity
  8
0
100
AcDbLine
 10
44.80045466220542
 20
26.0360101885958
 30
0.0
 11
44.80045466220542
 21
26.03541090964824
 31
0.0
  0
LINE
  5
86
330
2
100
AcDbEntity
  8
0
100
AcDbLine
 10
44.80045466220542
 20
26.03541090964824
 30
0.0
 11
44.80045466220542
 21
26.03451199122685
 31
0.0
  0
LINE
  5
87
330
2
100
AcDbEntity
  8
0
100
AcDbLine
 10
44.80045466220542
 20
26.03451199122685
 30
0.0
 11
44.80045466220542
 21
26.03421235175307
 31
0.0
  0
LINE
  5
88
330
2
100
AcDbEntity
  8
0
100
AcDbLine
 10
44.80045466220542
 20
26.03421235175307
 30
0.0
 11
44.80045466220542
 21
26.03361307280551
 31
0.0
  0
LINE
  5
89
330
2
100
AcDbEntity
  8
0
100
AcDbLine
 10
44.80045466220542
 20
26.03361307280551
 30
0.0
 11
44.80045466220542
 21
26.03271415438416
 31
0.0
  0
LINE
  5
8A
330
2
100
AcDbEntity
  8
0
100
AcDbLine
 10
44.80045466220542
 20
26.03271415438416
 30
0.0
 11
44.80045466220542
 21
26.0321148754366
 31
0.0
  0
LINE
  5
8B
330
2
100
AcDbEntity
  8
0
100
AcDbLine
 10
44.80045466220542
 20
26.0321148754366
 30
0.0
 11
44.80045466220542
 21
26.03151559648903
 31
0.0
  0
LINE
  5
8C
330
2
100
AcDbEntity
  8
0
100
AcDbLine
 10
44.80045466220542
 20
26.03151559648903
 30
0.0
 11
44.80045466220542
 21
26.03061667806764
 31
0.0
  0
LINE
  5
8D
330
2
100
AcDbEntity
  8
0
100
AcDbLine
 10
44.80045466220542
 20
26.03061667806764
 30
0.0
 11
44.80045466220542
 21
26.03001739912008
 31
0.0
  0
LINE
  5
8E
330
2
100
AcDbEntity
  8
0
100
AcDbLine
 10
44.80045466220542
 20
26.03001739912008
 30
0.0
 11
44.80105394115298
 21
26.0297177596463
 31
0.0
  0
LINE
  5
8F
330
2
100
AcDbEntity
  8
0
100
AcDbLine
 10
44.80105394115298
 20
26.0297177596463
 30
0.0
 11
44.80105394115298
 21
26.02881884122495
 31
0.0
  0
LINE
  5
90
330
2
100
AcDbEntity
  8
0
100
AcDbLine
 10
44.80105394115298
 20
26.02881884122495
 30
0.0
 11
44.80105394115298
 21
26.02821956227739
 31
0.0
  0
LINE
  5
91
330
2
100
AcDbEntity
  8
0
100
AcDbLine
 10
44.80105394115298
 20
26.02821956227739
 30
0.0
 11
44.80105394115298
 21
26.02732064385604
 31
0.0
  0
LINE
  5
92
330
2
100
AcDbEntity
  8
0
100
AcDbLine
 10
44.80105394115298
 20
26.02732064385604
 30
0.0
 11
44.80105394115298
 21
26.02672136490847
 31
0.0
  0
LINE
  5
93
330
2
100
AcDbEntity
  8
0
100
AcDbLine
 10
44.80105394115298
 20
26.02672136490847
 30
0.0
 11
44.80105394115298
 21
26.02642172543465
 31
0.0
  0
LINE
  5
94
330
2
100
AcDbEntity
  8
0
100
AcDbLine
 10
44.80105394115298
 20
26.02642172543465
 30
0.0
 11
44.80105394115298
 21
26.02552280701331
 31
0.0
  0
LINE
  5
95
330
2
100
AcDbEntity
  8
0
100
AcDbLine
 10
44.80105394115298
 20
26.02552280701331
 30
0.0
 11
44.80105394115298
 21
26.02492352806574
 31
0.0
  0
LINE
  5
96
330
2
100
AcDbEntity
  8
0
100
AcDbLine
 10
44.80105394115298
 20
26.02492352806574
 30
0.0
 11
44.80105394115298
 21
26.02462388859196
 31
0.0
  0
LINE
  5
97
330
2
100
AcDbEntity
  8
0
100
AcDbLine
 10
44.80105394115298
 20
26.02462388859196
 30
0.0
 11
44.80135358062677
 21
26.02342533069683
 31
0.0
  0
LINE
  5
98
330
2
100
AcDbEntity
  8
0
100
AcDbLine
 10
44.80135358062677
 20
26.02342533069683
 30
0.0
 11
44.80135358062677
 21
26.02312569122305
 31
0.0
  0
LINE
  5
99
330
2
100
AcDbEntity
  8
0
100
AcDbLine
 10
44.80135358062677
 20
26.02312569122305
 30
0.0
 11
44.80135358062677
 21
26.02192713332788
 31
0.0
  0
LINE
  5
9A
330
2
100
AcDbEntity
  8
0
100
AcDbLine
 10
44.80135358062677
 20
26.02192713332788
 30
0.0
 11
44.80135358062677
 21
26.0216274938541
 31
0.0
  0
LINE
  5
9B
330
2
100
AcDbEntity
  8
0
100
AcDbLine
 10
44.80135358062677
 20
26.0216274938541
 30
0.0
 11
44.80135358062677
 21
26.02072857543275
 31
0.0
  0
LINE
  5
9C
330
2
100
AcDbEntity
  8
0
100
AcDbLine
 10
44.80135358062677
 20
26.02072857543275
 30
0.0
 11
44.80135358062677
 21
26.02012929648518
 31
0.0
  0
LINE
  5
9D
330
2
100
AcDbEntity
  8
0
100
AcDbLine
 10
44.80135358062677
 20
26.02012929648518
 30
0.0
 11
44.80195285957433
 21
26.01953001753762
 31
0.0
  0
LINE
  5
9E
330
2
100
AcDbEntity
  8
0
100
AcDbLine
 10
44.80195285957433
 20
26.01953001753762
 30
0.0
 11
44.80195285957433
 21
26.01863109911628
 31
0.0
  0
LINE
  5
9F
330
2
100
AcDbEntity
  8
0
100
AcDbLine
 10
44.80195285957433
 20
26.01863109911628
 30
0.0
 11
44.80195285957433
 21
26.01833145964246
 31
0.0
  0
LINE
  5
A0
330
2
100
AcDbEntity
  8
0
100
AcDbLine
 10
44.80195285957433
 20
26.01833145964246
 30
0.0
 11
44.80195285957433
 21
26.01743254122111
 31
0.0
  0
LINE
  5
A1
330
2
100
AcDbEntity
  8
0
100
AcDbLine
 10
44.80195285957433
 20
26.01743254122111
 30
0.0
 11
44.80195285957433
 21
26.01683326227354
 31
0.0
  0
LINE
  5
A2
330
2
100
AcDbEntity
  8
0
100
AcDbLine
 10
44.80195285957433
 20
26.01683326227354
 30
0.0
 11
44.80255213852191
 21
26.0159343438522
 31
0.0
  0
LINE
  5
A3
330
2
100
AcDbEntity
  8
0
100
AcDbLine
 10
44.80255213852191
 20
26.0159343438522
 30
0.0
 11
44.80255213852191
 21
26.01533506490463
 31
0.0
  0
LINE
  5
A4
330
2
100
AcDbEntity
  8
0
100
AcDbLine
 10
44.80255213852191
 20
26.01533506490463
 30
0.0
 11
44.80255213852191
 21
26.01443614648325
 31
0.0
  0
LINE
  5
A5
330
2
100
AcDbEntity
  8
0
100
AcDbLine
 10
44.80255213852191
 20
26.01443614648325
 30
0.0
 11
44.80315141746948
 21
26.01413650700946
 31
0.0
  0
LINE
  5
A6
330
2
100
AcDbEntity
  8
0
100
AcDbLine
 10
44.80315141746948
 20
26.01413650700946
 30
0.0
 11
44.80315141746948
 21
26.0135372280619
 31
0.0
  0
LINE
  5
A7
330
2
100
AcDbEntity
  8
0
100
AcDbLine
 10
44.80315141746948
 20
26.0135372280619
 30
0.0
 11
44.80315141746948
 21
26.01263830964055
 31
0.0
  0
LINE
  5
A8
330
2
100
AcDbEntity
  8
0
100
AcDbLine
 10
44.80315141746948
 20
26.01263830964055
 30
0.0
 11
44.80315141746948
 21
26.01203903069299
 31
0.0
  0
LINE
  5
A9
330
2
100
AcDbEntity
  8
0
100
AcDbLine
 10
44.80315141746948
 20
26.01203903069299
 30
0.0
 11
44.80345105694326
 21
26.01114011227164
 31
0.0
  0
LINE
  5
AA
330
2
100
AcDbEntity
  8
0
100
AcDbLine
 10
44.80345105694326
 20
26.01114011227164
 30
0.0
 11
44.80345105694326
 21
26.01054083332408
 31
0.0
  0
LINE
  5
AB
330
2
100
AcDbEntity
  8
0
100
AcDbLine
 10
44.80345105694326
 20
26.01054083332408
 30
0.0
 11
44.80345105694326
 21
26.00964191490269
 31
0.0
  0
LINE
  5
AC
330
2
100
AcDbEntity
  8
0
100
AcDbLine
 10
44.80345105694326
 20
26.00964191490269
 30
0.0
 11
44.80375069641705
 21
26.00934227542891
 31
0.0
  0
LINE
  5
AD
330
2
100
AcDbEntity
  8
0
100
AcDbLine
 10
44.80375069641705
 20
26.00934227542891
 30
0.0
 11
44.80375069641705
 21
26.00814371753378
 31
0.0
  0
LINE
  5
AE
330
2
100
AcDbEntity
  8
0
100
AcDbLine
 10
44.80375069641705
 20
26.00814371753378
 30
0.0
 11
44.80375069641705
 21
26.00784407806
 31
0.0
  0
LINE
  5
AF
330
2
100
AcDbEntity
  8
0
100
AcDbLine
 10
44.80375069641705
 20
26.00784407806
 30
0.0
 11
44.80464961483841
 21
26.00694515963865
 31
0.0
  0
LINE
  5
B0
330
2
100
AcDbEntity
  8
0
100
AcDbLine
 10
44.80464961483841
 20
26.00694515963865
 30
0.0
 11
44.80464961483841
 21
26.00634588069105
 31
0.0
  0
LINE
  5
B1
330
2
100
AcDbEntity
  8
0
100
AcDbLine
 10
44.80464961483841
 20
26.00634588069105
 30
0.0
 11
44.80494925431219
 21
26.0054469622697
 31
0.0
  0
LINE
  5
B2
330
2
100
AcDbEntity
  8
0
100
AcDbLine
 10
44.80494925431219
 20
26.0054469622697
 30
0.0
 11
44.80494925431219
 21
26.00484768332214
 31
0.0
  0
LINE
  5
B3
330
2
100
AcDbEntity
  8
0
100
AcDbLine
 10
44.80494925431219
 20
26.00484768332214
 30
0.0
 11
44.80494925431219
 21
26.00394876490079
 31
0.0
  0
LINE
  5
B4
330
2
100
AcDbEntity
  8
0
100
AcDbLine
 10
44.80494925431219
 20
26.00394876490079
 30
0.0
 11
44.80524889378598
 21
26.00334948595322
 31
0.0
  0
LINE
  5
B5
330
2
100
AcDbEntity
  8
0
100
AcDbLine
 10
44.80524889378598
 20
26.00334948595322
 30
0.0
 11
44.80524889378598
 21
26.00245056753188
 31
0.0
  0
LINE
  5
B6
330
2
100
AcDbEntity
  8
0
100
AcDbLine
 10
44.80524889378598
 20
26.00245056753188
 30
0.0
 11
44.80584817273354
 21
26.00215092805806
 31
0.0
  0
LINE
  5
B7
330
2
100
AcDbEntity
  8
0
100
AcDbLine
 10
44.80584817273354
 20
26.00215092805806
 30
0.0
 11
44.80584817273354
 21
26.00125200963671
 31
0.0
  0
LINE
  5
B8
330
2
100
AcDbEntity
  8
0
100
AcDbLine
 10
44.80584817273354
 20
26.00125200963671
 30
0.0
 11
44.80644745168112
 21
26.00065273068914
 31
0.0
  0
LINE
  5
B9
330
2
100
AcDbEntity
  8
0
100
AcDbLine
 10
44.80644745168112
 20
26.00065273068914
 30
0.0
 11
44.80644745168112
 21
25.9997538122678
 31
0.0
  0
LINE
  5
BA
330
2
100
AcDbEntity
  8
0
100
AcDbLine
 10
44.80644745168112
 20
25.9997538122678
 30
0.0
 11
44.80644745168112
 21
25.99915453332024
 31
0.0
  0
LINE
  5
BB
330
2
100
AcDbEntity
  8
0
100
AcDbLine
 10
44.80644745168112
 20
25.99915453332024
 30
0.0
 11
44.80674709115491
 21
25.99825561489885
 31
0.0
  0
LINE
  5
BC
330
2
100
AcDbEntity
  8
0
100
AcDbLine
 10
44.80674709115491
 20
25.99825561489885
 30
0.0
 11
44.80674709115491
 21
25.99765633595128
 31
0.0
  0
LINE
  5
BD
330
2
100
AcDbEntity
  8
0
100
AcDbLine
 10
44.80674709115491
 20
25.99765633595128
 30
0.0
 11
44.80734637010247
 21
25.99675741752994
 31
0.0
  0
LINE
  5
BE
330
2
100
AcDbEntity
  8
0
100
AcDbLine
 10
44.80734637010247
 20
25.99675741752994
 30
0.0
 11
44.80734637010247
 21
25.99645777805615
 31
0.0
  0
LINE
  5
BF
330
2
100
AcDbEntity
  8
0
100
AcDbLine
 10
44.80734637010247
 20
25.99645777805615
 30
0.0
 11
44.80794564905004
 21
25.99525922016102
 31
0.0
  0
LINE
  5
C0
330
2
100
AcDbEntity
  8
0
100
AcDbLine
 10
44.80794564905004
 20
25.99525922016102
 30
0.0
 11
44.80794564905004
 21
25.99495958068724
 31
0.0
  0
LINE
  5
C1
330
2
100
AcDbEntity
  8
0
100
AcDbLine
 10
44.80794564905004
 20
25.99495958068724
 30
0.0
 11
44.80854492799762
 21
25.99376102279207
 31
0.0
  0
LINE
  5
C2
330
2
100
AcDbEntity
  8
0
100
AcDbLine
 10
44.80854492799762
 20
25.99376102279207
 30
0.0
 11
44.80854492799762
 21
25.99346138331829
 31
0.0
  0
LINE
  5
C3
330
2
100
AcDbEntity
  8
0
100
AcDbLine
 10
44.80854492799762
 20
25.99346138331829
 30
0.0
 11
44.8088445674714
 21
25.99286210437073
 31
0.0
  0
LINE
  5
C4
330
2
100
AcDbEntity
  8
0
100
AcDbLine
 10
44.8088445674714
 20
25.99286210437073
 30
0.0
 11
44.80914420694518
 21
25.99196318594938
 31
0.0
  0
LINE
  5
C5
330
2
100
AcDbEntity
  8
0
100
AcDbLine
 10
44.80914420694518
 20
25.99196318594938
 30
0.0
 11
44.80914420694518
 21
25.99136390700182
 31
0.0
  0
LINE
  5
C6
330
2
100
AcDbEntity
  8
0
100
AcDbLine
 10
44.80914420694518
 20
25.99136390700182
 30
0.0
 11
44.80944384641897
 21
25.99076462805425
 31
0.0
  0
LINE
  5
C7
330
2
100
AcDbEntity
  8
0
100
AcDbLine
 10
44.80944384641897
 20
25.99076462805425
 30
0.0
 11
44.80944384641897
 21
25.99016534910669
 31
0.0
  0
LINE
  5
C8
330
2
100
AcDbEntity
  8
0
100
AcDbLine
 10
44.80944384641897
 20
25.99016534910669
 30
0.0
 11
44.81004312536653
 21
25.9892664306853
 31
0.0
  0
LINE
  5
C9
330
2
100
AcDbEntity
  8
0
100
AcDbLine
 10
44.81004312536653
 20
25.9892664306853
 30
0.0
 11
44.81004312536653
 21
25.98866715173774
 31
0.0
  0
LINE
  5
CA
330
2
100
AcDbEntity
  8
0
100
AcDbLine
 10
44.81004312536653
 20
25.98866715173774
 30
0.0
 11
44.81034276484034
 21
25.98776823331639
 31
0.0
  0
LINE
  5
CB
330
2
100
AcDbEntity
  8
0
100
AcDbLine
 10
44.81034276484034
 20
25.98776823331639
 30
0.0
 11
44.8109420437879
 21
25.98716895436882
 31
0.0
  0
LINE
  5
CC
330
2
100
AcDbEntity
  8
0
100
AcDbLine
 10
44.8109420437879
 20
25.98716895436882
 30
0.0
 11
44.8109420437879
 21
25.98627003594748
 31
0.0
  0
LINE
  5
CD
330
2
100
AcDbEntity
  8
0
100
AcDbLine
 10
44.8109420437879
 20
25.98627003594748
 30
0.0
 11
44.81154132273546
 21
25.98567075699988
 31
0.0
  0
LINE
  5
CE
330
2
100
AcDbEntity
  8
0
100
AcDbLine
 10
44.81154132273546
 20
25.98567075699988
 30
0.0
 11
44.81154132273546
 21
25.98477183857853
 31
0.0
  0
LINE
  5
CF
330
2
100
AcDbEntity
  8
0
100
AcDbLine
 10
44.81154132273546
 20
25.98477183857853
 30
0.0
 11
44.81184096220924
 21
25.98447219910474
 31
0.0
  0
LINE
  5
D0
330
2
100
AcDbEntity
  8
0
100
AcDbLine
 10
44.81184096220924
 20
25.98447219910474
 30
0.0
 11
44.81244024115683
 21
25.98327364120962
 31
0.0
  0
LINE
  5
D1
330
2
100
AcDbEntity
  8
0
100
AcDbLine
 10
44.81244024115683
 20
25.98327364120962
 30
0.0
 11
44.81244024115683
 21
25.98297400173584
 31
0.0
  0
LINE
  5
D2
330
2
100
AcDbEntity
  8
0
100
AcDbLine
 10
44.81244024115683
 20
25.98297400173584
 30
0.0
 11
44.81303952010439
 21
25.98207508331449
 31
0.0
  0
LINE
  5
D3
330
2
100
AcDbEntity
  8
0
100
AcDbLine
 10
44.81303952010439
 20
25.98207508331449
 30
0.0
 11
44.81363879905195
 21
25.98147580436688
 31
0.0
  0
LINE
  5
D4
330
2
100
AcDbEntity
  8
0
100
AcDbLine
 10
44.81363879905195
 20
25.98147580436688
 30
0.0
 11
44.81363879905195
 21
25.98057688594554
 31
0.0
  0
LINE
  5
D5
330
2
100
AcDbEntity
  8
0
100
AcDbLine
 10
44.81363879905195
 20
25.98057688594554
 30
0.0
 11
44.81393843852574
 21
25.97997760699797
 31
0.0
  0
LINE
  5
D6
330
2
100
AcDbEntity
  8
0
100
AcDbLine
 10
44.81393843852574
 20
25.97997760699797
 30
0.0
 11
44.81423807799952
 21
25.97907868857662
 31
0.0
  0
LINE
  5
D7
330
2
100
AcDbEntity
  8
0
100
AcDbLine
 10
44.81423807799952
 20
25.97907868857662
 30
0.0
 11
44.81483735694711
 21
25.97847940962906
 31
0.0
  0
LINE
  5
D8
330
2
100
AcDbEntity
  8
0
100
AcDbLine
 10
44.81483735694711
 20
25.97847940962906
 30
0.0
 11
44.81483735694711
 21
25.97758049120768
 31
0.0
  0
LINE
  5
D9
330
2
100
AcDbEntity
  8
0
100
AcDbLine
 10
44.81483735694711
 20
25.97758049120768
 30
0.0
 11
44.81543663589467
 21
25.97728085173389
 31
0.0
  0
LINE
  5
DA
330
2
100
AcDbEntity
  8
0
100
AcDbLine
 10
44.81543663589467
 20
25.97728085173389
 30
0.0
 11
44.81573627536845
 21
25.97638193331255
 31
0.0
  0
LINE
  5
DB
330
2
100
AcDbEntity
  8
0
100
AcDbLine
 10
44.81573627536845
 20
25.97638193331255
 30
0.0
 11
44.81573627536845
 21
25.97578265436498
 31
0.0
  0
LINE
  5
DC
330
2
100
AcDbEntity
  8
0
100
AcDbLine
 10
44.81573627536845
 20
25.97578265436498
 30
0.0
 11
44.81633555431602
 21
25.9754830148912
 31
0.0
  0
LINE
  5
DD
330
2
100
AcDbEntity
  8
0
100
AcDbLine
 10
44.81633555431602
 20
25.9754830148912
 30
0.0
 11
44.8169348332636
 21
25.97428445699607
 31
0.0
  0
LINE
  5
DE
330
2
100
AcDbEntity
  8
0
100
AcDbLine
 10
44.8169348332636
 20
25.97428445699607
 30
0.0
 11
44.81723447273738
 21
25.97398481752229
 31
0.0
  0
LINE
  5
DF
330
2
100
AcDbEntity
  8
0
100
AcDbLine
 10
44.81723447273738
 20
25.97398481752229
 30
0.0
 11
44.81723447273738
 21
25.97278625962712
 31
0.0
  0
LINE
  5
E0
330
2
100
AcDbEntity
  8
0
100
AcDbLine
 10
44.81723447273738
 20
25.97278625962712
 30
0.0
 11
44.81783375168495
 21
25.97248662015334
 31
0.0
  0
LINE
  5
E1
330
2
100
AcDbEntity
  8
0
100
AcDbLine
 10
44.81783375168495
 20
25.97248662015334
 30
0.0
 11
44.81843303063253
 21
25.97158770173199
 31
0.0
  0
LINE
  5
E2
330
2
100
AcDbEntity
  8
0
100
AcDbLine
 10
44.81843303063253
 20
25.97158770173199
 30
0.0
 11
44.8190323095801
 21
25.97098842278443
 31
0.0
  0
LINE
  5
E3
330
2
100
AcDbEntity
  8
0
100
AcDbLine
 10
44.8190323095801
 20
25.97098842278443
 30
0.0
 11
44.8190323095801
 21
25.97008950436308
 31
0.0
  0
LINE
  5
E4
330
2
100
AcDbEntity
  8
0
100
AcDbLine
 10
44.8190323095801
 20
25.97008950436308
 30
0.0
 11
44.81933194905388
 21
25.96949022541548
 31
0.0
  0
LINE
  5
E5
330
2
100
AcDbEntity
  8
0
100
AcDbLine
 10
44.81933194905388
 20
25.96949022541548
 30
0.0
 11
44.81963158852766
 21
25.96919058594169
 31
0.0
  0
LINE
  5
E6
330
2
100
AcDbEntity
  8
0
100
AcDbLine
 10
44.81963158852766
 20
25.96919058594169
 30
0.0
 11
44.82023086747522
 21
25.96799202804656
 31
0.0
  0
LINE
  5
E7
330
2
100
AcDbEntity
  8
0
100
AcDbLine
 10
44.82023086747522
 20
25.96799202804656
 30
0.0
 11
44.82083014642281
 21
25.96769238857278
 31
0.0
  0
LINE
  5
E8
330
2
100
AcDbEntity
  8
0
100
AcDbLine
 10
44.86137136722589
 20
26.27110731972756
 30
0.0
 11
44.80324130931157
 21
26.05296978281196
 31
0.0
  0
LINE
  5
E9
330
2
100
AcDbEntity
  8
0
100
AcDbLine
 10
44.93247581435514
 20
26.51645212086284
 30
0.0
 11
47.20014735196111
 21
25.20762689936935
 31
0.0
  0
LINE
  5
EA
330
2
100
AcDbEntity
  8
0
100
AcDbLine
 10
47.32491722884524
 20
24.59705154363739
 30
0.0
 11
47.20026720775062
 21
25.20771679121149
 31
0.0
  0
LINE
  5
EB
330
2
100
AcDbEntity
  8
0
100
AcDbLine
 10
47.30735835568141
 20
24.53208970572074
 30
0.0
 11
47.30795763462898
 21
24.53208970572074
 31
0.0
  0
LINE
  5
EC
330
2
100
AcDbEntity
  8
0
100
AcDbLine
 10
47.30795763462898
 20
24.53208970572074
 30
0.0
 11
47.30855691357656
 21
24.53238934519453
 31
0.0
  0
LINE
  5
ED
330
2
100
AcDbEntity
  8
0
100
AcDbLine
 10
47.30855691357656
 20
24.53238934519453
 30
0.0
 11
47.30885655305034
 21
24.53238934519453
 31
0.0
  0
LINE
  5
EE
330
2
100
AcDbEntity
  8
0
100
AcDbLine
 10
47.30885655305034
 20
24.53238934519453
 30
0.0
 11
47.30915619252413
 21
24.53298862414209
 31
0.0
  0
LINE
  5
EF
330
2
100
AcDbEntity
  8
0
100
AcDbLine
 10
47.30915619252413
 20
24.53298862414209
 30
0.0
 11
47.3097554714717
 21
24.53328826361587
 31
0.0
  0
LINE
  5
F0
330
2
100
AcDbEntity
  8
0
100
AcDbLine
 10
47.3097554714717
 20
24.53328826361587
 30
0.0
 11
47.31035475041926
 21
24.53328826361587
 31
0.0
  0
LINE
  5
F1
330
2
100
AcDbEntity
  8
0
100
AcDbLine
 10
47.31035475041926
 20
24.53328826361587
 30
0.0
 11
47.31095402936683
 21
24.53388754256343
 31
0.0
  0
LINE
  5
F2
330
2
100
AcDbEntity
  8
0
100
AcDbLine
 10
47.31095402936683
 20
24.53388754256343
 30
0.0
 11
47.31125366884063
 21
24.53418718203726
 31
0.0
  0
LINE
  5
F3
330
2
100
AcDbEntity
  8
0
100
AcDbLine
 10
47.31125366884063
 20
24.53418718203726
 30
0.0
 11
47.31215258726197
 21
24.53418718203726
 31
0.0
  0
LINE
  5
F4
330
2
100
AcDbEntity
  8
0
100
AcDbLine
 10
47.31215258726197
 20
24.53418718203726
 30
0.0
 11
47.31245222673577
 21
24.53478646098482
 31
0.0
  0
LINE
  5
F5
330
2
100
AcDbEntity
  8
0
100
AcDbLine
 10
47.31245222673577
 20
24.53478646098482
 30
0.0
 11
47.31245222673577
 21
24.53538573993239
 31
0.0
  0
LINE
  5
F6
330
2
100
AcDbEntity
  8
0
100
AcDbLine
 10
47.31245222673577
 20
24.53538573993239
 30
0.0
 11
47.31275186620955
 21
24.53538573993239
 31
0.0
  0
LINE
  5
F7
330
2
100
AcDbEntity
  8
0
100
AcDbLine
 10
47.31275186620955
 20
24.53538573993239
 30
0.0
 11
47.31335114515712
 21
24.53568537940617
 31
0.0
  0
LINE
  5
F8
330
2
100
AcDbEntity
  8
0
100
AcDbLine
 10
47.31335114515712
 20
24.53568537940617
 30
0.0
 11
47.3136507846309
 21
24.53628465835373
 31
0.0
  0
LINE
  5
F9
330
2
100
AcDbEntity
  8
0
100
AcDbLine
 10
47.3136507846309
 20
24.53628465835373
 30
0.0
 11
47.31395042410468
 21
24.5368839373013
 31
0.0
  0
LINE
  5
FA
330
2
100
AcDbEntity
  8
0
100
AcDbLine
 10
47.31395042410468
 20
24.5368839373013
 30
0.0
 11
47.31425006357847
 21
24.53718357677508
 31
0.0
  0
LINE
  5
FB
330
2
100
AcDbEntity
  8
0
100
AcDbLine
 10
47.31425006357847
 20
24.53718357677508
 30
0.0
 11
47.31484934252605
 21
24.53778285572264
 31
0.0
  0
LINE
  5
FC
330
2
100
AcDbEntity
  8
0
100
AcDbLine
 10
47.31484934252605
 20
24.53778285572264
 30
0.0
 11
47.31544862147361
 21
24.53838213467025
 31
0.0
  0
LINE
  5
FD
330
2
100
AcDbEntity
  8
0
100
AcDbLine
 10
47.31544862147361
 20
24.53838213467025
 30
0.0
 11
47.31604790042118
 21
24.53868177414403
 31
0.0
  0
LINE
  5
FE
330
2
100
AcDbEntity
  8
0
100
AcDbLine
 10
47.31604790042118
 20
24.53868177414403
 30
0.0
 11
47.31634753989496
 21
24.53928105309159
 31
0.0
  0
LINE
  5
FF
330
2
100
AcDbEntity
  8
0
100
AcDbLine
 10
47.31634753989496
 20
24.53928105309159
 30
0.0
 11
47.31634753989496
 21
24.53958069256538
 31
0.0
  0
LINE
  5
100
330
2
100
AcDbEntity
  8
0
100
AcDbLine
 10
47.31634753989496
 20
24.53958069256538
 30
0.0
 11
47.31724645831632
 21
24.53958069256538
 31
0.0
  0
LINE
  5
101
330
2
100
AcDbEntity
  8
0
100
AcDbLine
 10
47.31724645831632
 20
24.53958069256538
 30
0.0
 11
47.31724645831632
 21
24.54017997151294
 31
0.0
  0
LINE
  5
102
330
2
100
AcDbEntity
  8
0
100
AcDbLine
 10
47.31724645831632
 20
24.54017997151294
 30
0.0
 11
47.31754609779011
 21
24.54047961098672
 31
0.0
  0
LINE
  5
103
330
2
100
AcDbEntity
  8
0
100
AcDbLine
 10
47.31754609779011
 20
24.54047961098672
 30
0.0
 11
47.31784573726389
 21
24.54107888993429
 31
0.0
  0
LINE
  5
104
330
2
100
AcDbEntity
  8
0
100
AcDbLine
 10
47.31784573726389
 20
24.54107888993429
 30
0.0
 11
47.31784573726389
 21
24.54137852940807
 31
0.0
  0
LINE
  5
105
330
2
100
AcDbEntity
  8
0
100
AcDbLine
 10
47.31784573726389
 20
24.54137852940807
 30
0.0
 11
47.31844501621146
 21
24.54137852940807
 31
0.0
  0
LINE
  5
106
330
2
100
AcDbEntity
  8
0
100
AcDbLine
 10
47.31844501621146
 20
24.54137852940807
 30
0.0
 11
47.31844501621146
 21
24.54197780835564
 31
0.0
  0
LINE
  5
107
330
2
100
AcDbEntity
  8
0
100
AcDbLine
 10
47.31844501621146
 20
24.54197780835564
 30
0.0
 11
47.31904429515904
 21
24.54257708730324
 31
0.0
  0
LINE
  5
108
330
2
100
AcDbEntity
  8
0
100
AcDbLine
 10
47.31904429515904
 20
24.54257708730324
 30
0.0
 11
47.31934393463283
 21
24.54287672677702
 31
0.0
  0
LINE
  5
109
330
2
100
AcDbEntity
  8
0
100
AcDbLine
 10
47.31934393463283
 20
24.54287672677702
 30
0.0
 11
47.31934393463283
 21
24.54347600572459
 31
0.0
  0
LINE
  5
10A
330
2
100
AcDbEntity
  8
0
100
AcDbLine
 10
47.31934393463283
 20
24.54347600572459
 30
0.0
 11
47.3196435741066
 21
24.54407528467215
 31
0.0
  0
LINE
  5
10B
330
2
100
AcDbEntity
  8
0
100
AcDbLine
 10
47.3196435741066
 20
24.54407528467215
 30
0.0
 11
47.3196435741066
 21
24.54437492414593
 31
0.0
  0
LINE
  5
10C
330
2
100
AcDbEntity
  8
0
100
AcDbLine
 10
47.3196435741066
 20
24.54437492414593
 30
0.0
 11
47.32024285305416
 21
24.54437492414593
 31
0.0
  0
LINE
  5
10D
330
2
100
AcDbEntity
  8
0
100
AcDbLine
 10
47.32024285305416
 20
24.54437492414593
 30
0.0
 11
47.32024285305416
 21
24.54467456361971
 31
0.0
  0
LINE
  5
10E
330
2
100
AcDbEntity
  8
0
100
AcDbLine
 10
47.32024285305416
 20
24.54467456361971
 30
0.0
 11
47.32084213200176
 21
24.54527384256728
 31
0.0
  0
LINE
  5
10F
330
2
100
AcDbEntity
  8
0
100
AcDbLine
 10
47.32084213200176
 20
24.54527384256728
 30
0.0
 11
47.32084213200176
 21
24.54587312151484
 31
0.0
  0
LINE
  5
110
330
2
100
AcDbEntity
  8
0
100
AcDbLine
 10
47.32084213200176
 20
24.54587312151484
 30
0.0
 11
47.32144141094932
 21
24.54617276098863
 31
0.0
  0
LINE
  5
111
330
2
100
AcDbEntity
  8
0
100
AcDbLine
 10
47.32144141094932
 20
24.54617276098863
 30
0.0
 11
47.32144141094932
 21
24.54677203993623
 31
0.0
  0
LINE
  5
112
330
2
100
AcDbEntity
  8
0
100
AcDbLine
 10
47.32144141094932
 20
24.54677203993623
 30
0.0
 11
47.3217410504231
 21
24.54707167941001
 31
0.0
  0
LINE
  5
113
330
2
100
AcDbEntity
  8
0
100
AcDbLine
 10
47.3217410504231
 20
24.54707167941001
 30
0.0
 11
47.3217410504231
 21
24.54767095835757
 31
0.0
  0
LINE
  5
114
330
2
100
AcDbEntity
  8
0
100
AcDbLine
 10
47.3217410504231
 20
24.54767095835757
 30
0.0
 11
47.32263996884447
 21
24.54827023730514
 31
0.0
  0
LINE
  5
115
330
2
100
AcDbEntity
  8
0
100
AcDbLine
 10
47.32263996884447
 20
24.54827023730514
 30
0.0
 11
47.32263996884447
 21
24.54886951625271
 31
0.0
  0
LINE
  5
116
330
2
100
AcDbEntity
  8
0
100
AcDbLine
 10
47.32263996884447
 20
24.54886951625271
 30
0.0
 11
47.32263996884447
 21
24.54916915572649
 31
0.0
  0
LINE
  5
117
330
2
100
AcDbEntity
  8
0
100
AcDbLine
 10
47.32263996884447
 20
24.54916915572649
 30
0.0
 11
47.32293960831825
 21
24.54976843467405
 31
0.0
  0
LINE
  5
118
330
2
100
AcDbEntity
  8
0
100
AcDbLine
 10
47.32293960831825
 20
24.54976843467405
 30
0.0
 11
47.32293960831825
 21
24.55006807414783
 31
0.0
  0
LINE
  5
119
330
2
100
AcDbEntity
  8
0
100
AcDbLine
 10
47.32293960831825
 20
24.55006807414783
 30
0.0
 11
47.32323924779203
 21
24.55066735309544
 31
0.0
  0
LINE
  5
11A
330
2
100
AcDbEntity
  8
0
100
AcDbLine
 10
47.32323924779203
 20
24.55066735309544
 30
0.0
 11
47.32323924779203
 21
24.55096699256922
 31
0.0
  0
LINE
  5
11B
330
2
100
AcDbEntity
  8
0
100
AcDbLine
 10
47.32323924779203
 20
24.55096699256922
 30
0.0
 11
47.32323924779203
 21
24.55156627151679
 31
0.0
  0
LINE
  5
11C
330
2
100
AcDbEntity
  8
0
100
AcDbLine
 10
47.32323924779203
 20
24.55156627151679
 30
0.0
 11
47.3238385267396
 21
24.55186591099057
 31
0.0
  0
LINE
  5
11D
330
2
100
AcDbEntity
  8
0
100
AcDbLine
 10
47.3238385267396
 20
24.55186591099057
 30
0.0
 11
47.3238385267396
 21
24.55246518993813
 31
0.0
  0
LINE
  5
11E
330
2
100
AcDbEntity
  8
0
100
AcDbLine
 10
47.3238385267396
 20
24.55246518993813
 30
0.0
 11
47.32443780568716
 21
24.55306446888569
 31
0.0
  0
LINE
  5
11F
330
2
100
AcDbEntity
  8
0
100
AcDbLine
 10
47.32443780568716
 20
24.55306446888569
 30
0.0
 11
47.32443780568716
 21
24.55336410835948
 31
0.0
  0
LINE
  5
120
330
2
100
AcDbEntity
  8
0
100
AcDbLine
 10
47.32443780568716
 20
24.55336410835948
 30
0.0
 11
47.32443780568716
 21
24.55396338730704
 31
0.0
  0
LINE
  5
121
330
2
100
AcDbEntity
  8
0
100
AcDbLine
 10
47.32443780568716
 20
24.55396338730704
 30
0.0
 11
47.32473744516096
 21
24.55456266625465
 31
0.0
  0
LINE
  5
122
330
2
100
AcDbEntity
  8
0
100
AcDbLine
 10
47.32473744516096
 20
24.55456266625465
 30
0.0
 11
47.32473744516096
 21
24.55486230572843
 31
0.0
  0
LINE
  5
123
330
2
100
AcDbEntity
  8
0
100
AcDbLine
 10
47.32473744516096
 20
24.55486230572843
 30
0.0
 11
47.32473744516096
 21
24.55546158467599
 31
0.0
  0
LINE
  5
124
330
2
100
AcDbEntity
  8
0
100
AcDbLine
 10
47.32473744516096
 20
24.55546158467599
 30
0.0
 11
47.32503708463474
 21
24.55636050309734
 31
0.0
  0
LINE
  5
125
330
2
100
AcDbEntity
  8
0
100
AcDbLine
 10
47.32503708463474
 20
24.55636050309734
 30
0.0
 11
47.32503708463474
 21
24.5569597820449
 31
0.0
  0
LINE
  5
126
330
2
100
AcDbEntity
  8
0
100
AcDbLine
 10
47.32503708463474
 20
24.5569597820449
 30
0.0
 11
47.32503708463474
 21
24.55725942151869
 31
0.0
  0
LINE
  5
127
330
2
100
AcDbEntity
  8
0
100
AcDbLine
 10
47.32503708463474
 20
24.55725942151869
 30
0.0
 11
47.32563636358231
 21
24.55755906099247
 31
0.0
  0
LINE
  5
128
330
2
100
AcDbEntity
  8
0
100
AcDbLine
 10
47.32563636358231
 20
24.55755906099247
 30
0.0
 11
47.32563636358231
 21
24.55815833994003
 31
0.0
  0
LINE
  5
129
330
2
100
AcDbEntity
  8
0
100
AcDbLine
 10
47.32563636358231
 20
24.55815833994003
 30
0.0
 11
47.32563636358231
 21
24.55875761888764
 31
0.0
  0
LINE
  5
12A
330
2
100
AcDbEntity
  8
0
100
AcDbLine
 10
47.32563636358231
 20
24.55875761888764
 30
0.0
 11
47.32563636358231
 21
24.55905725836142
 31
0.0
  0
LINE
  5
12B
330
2
100
AcDbEntity
  8
0
100
AcDbLine
 10
47.32563636358231
 20
24.55905725836142
 30
0.0
 11
47.32593600305609
 21
24.56025581625655
 31
0.0
  0
LINE
  5
12C
330
2
100
AcDbEntity
  8
0
100
AcDbLine
 10
47.32593600305609
 20
24.56025581625655
 30
0.0
 11
47.32593600305609
 21
24.56055545573033
 31
0.0
  0
LINE
  5
12D
330
2
100
AcDbEntity
  8
0
100
AcDbLine
 10
47.32593600305609
 20
24.56055545573033
 30
0.0
 11
47.32593600305609
 21
24.5611547346779
 31
0.0
  0
LINE
  5
12E
330
2
100
AcDbEntity
  8
0
100
AcDbLine
 10
47.32593600305609
 20
24.5611547346779
 30
0.0
 11
47.32593600305609
 21
24.56145437415168
 31
0.0
  0
LINE
  5
12F
330
2
100
AcDbEntity
  8
0
100
AcDbLine
 10
47.32593600305609
 20
24.56145437415168
 30
0.0
 11
47.32593600305609
 21
24.56205365309924
 31
0.0
  0
LINE
  5
130
330
2
100
AcDbEntity
  8
0
100
AcDbLine
 10
47.32593600305609
 20
24.56205365309924
 30
0.0
 11
47.32653528200365
 21
24.56265293204685
 31
0.0
  0
LINE
  5
131
330
2
100
AcDbEntity
  8
0
100
AcDbLine
 10
47.32653528200365
 20
24.56265293204685
 30
0.0
 11
47.32653528200365
 21
24.56355185046819
 31
0.0
  0
LINE
  5
132
330
2
100
AcDbEntity
  8
0
100
AcDbLine
 10
47.32653528200365
 20
24.56355185046819
 30
0.0
 11
47.32653528200365
 21
24.56385148994197
 31
0.0
  0
LINE
  5
133
330
2
100
AcDbEntity
  8
0
100
AcDbLine
 10
47.32653528200365
 20
24.56385148994197
 30
0.0
 11
47.32653528200365
 21
24.56445076888954
 31
0.0
  0
LINE
  5
134
330
2
100
AcDbEntity
  8
0
100
AcDbLine
 10
47.32653528200365
 20
24.56445076888954
 30
0.0
 11
47.32653528200365
 21
24.5650500478371
 31
0.0
  0
LINE
  5
135
330
2
100
AcDbEntity
  8
0
100
AcDbLine
 10
47.32653528200365
 20
24.5650500478371
 30
0.0
 11
47.32683492147745
 21
24.56594896625845
 31
0.0
  0
LINE
  5
136
330
2
100
AcDbEntity
  8
0
100
AcDbLine
 10
47.32683492147745
 20
24.56594896625845
 30
0.0
 11
47.32683492147745
 21
24.56654824520601
 31
0.0
  0
LINE
  5
137
330
2
100
AcDbEntity
  8
0
100
AcDbLine
 10
47.32683492147745
 20
24.56654824520601
 30
0.0
 11
47.32683492147745
 21
24.56684788467983
 31
0.0
  0
LINE
  5
138
330
2
100
AcDbEntity
  8
0
100
AcDbLine
 10
47.32683492147745
 20
24.56684788467983
 30
0.0
 11
47.32683492147745
 21
24.5674471636274
 31
0.0
  0
LINE
  5
139
330
2
100
AcDbEntity
  8
0
100
AcDbLine
 10
47.32683492147745
 20
24.5674471636274
 30
0.0
 11
47.32683492147745
 21
24.56834608204875
 31
0.0
  0
LINE
  5
13A
330
2
100
AcDbEntity
  8
0
100
AcDbLine
 10
47.32683492147745
 20
24.56834608204875
 30
0.0
 11
47.32683492147745
 21
24.56864572152253
 31
0.0
  0
LINE
  5
13B
330
2
100
AcDbEntity
  8
0
100
AcDbLine
 10
47.32683492147745
 20
24.56864572152253
 30
0.0
 11
47.32683492147745
 21
24.56924500047009
 31
0.0
  0
LINE
  5
13C
330
2
100
AcDbEntity
  8
0
100
AcDbLine
 10
47.32683492147745
 20
24.56924500047009
 30
0.0
 11
47.32683492147745
 21
24.56954463994387
 31
0.0
  0
LINE
  5
13D
330
2
100
AcDbEntity
  8
0
100
AcDbLine
 10
47.32683492147745
 20
24.56954463994387
 30
0.0
 11
47.32683492147745
 21
24.57074319783905
 31
0.0
  0
LINE
  5
13E
330
2
100
AcDbEntity
  8
0
100
AcDbLine
 10
47.32683492147745
 20
24.57074319783905
 30
0.0
 11
47.3277338398988
 21
24.57104283731283
 31
0.0
  0
LINE
  5
13F
330
2
100
AcDbEntity
  8
0
100
AcDbLine
 10
47.3277338398988
 20
24.57104283731283
 30
0.0
 11
47.3277338398988
 21
24.57164211626039
 31
0.0
  0
LINE
  5
140
330
2
100
AcDbEntity
  8
0
100
AcDbLine
 10
47.3277338398988
 20
24.57164211626039
 30
0.0
 11
47.3277338398988
 21
24.57254103468174
 31
0.0
  0
LINE
  5
141
330
2
100
AcDbEntity
  8
0
100
AcDbLine
 10
47.3277338398988
 20
24.57254103468174
 30
0.0
 11
47.3277338398988
 21
24.5731403136293
 31
0.0
  0
LINE
  5
142
330
2
100
AcDbEntity
  8
0
100
AcDbLine
 10
47.3277338398988
 20
24.5731403136293
 30
0.0
 11
47.3277338398988
 21
24.57343995310309
 31
0.0
  0
LINE
  5
143
330
2
100
AcDbEntity
  8
0
100
AcDbLine
 10
47.3277338398988
 20
24.57343995310309
 30
0.0
 11
47.3277338398988
 21
24.57403923205065
 31
0.0
  0
LINE
  5
144
330
2
100
AcDbEntity
  8
0
100
AcDbLine
 10
47.3277338398988
 20
24.57403923205065
 30
0.0
 11
47.3277338398988
 21
24.57493815047203
 31
0.0
  0
LINE
  5
145
330
2
100
AcDbEntity
  8
0
100
AcDbLine
 10
47.3277338398988
 20
24.57493815047203
 30
0.0
 11
47.3277338398988
 21
24.5755374294196
 31
0.0
  0
LINE
  5
146
330
2
100
AcDbEntity
  8
0
100
AcDbLine
 10
47.3277338398988
 20
24.5755374294196
 30
0.0
 11
47.3277338398988
 21
24.57583706889338
 31
0.0
  0
LINE
  5
147
330
2
100
AcDbEntity
  8
0
100
AcDbLine
 10
47.3277338398988
 20
24.57583706889338
 30
0.0
 11
47.3277338398988
 21
24.57673598731473
 31
0.0
  0
LINE
  5
148
330
2
100
AcDbEntity
  8
0
100
AcDbLine
 10
47.3277338398988
 20
24.57673598731473
 30
0.0
 11
47.3277338398988
 21
24.57733526626229
 31
0.0
  0
LINE
  5
149
330
2
100
AcDbEntity
  8
0
100
AcDbLine
 10
47.3277338398988
 20
24.57733526626229
 30
0.0
 11
47.3277338398988
 21
24.57823418468364
 31
0.0
  0
LINE
  5
14A
330
2
100
AcDbEntity
  8
0
100
AcDbLine
 10
47.3277338398988
 20
24.57823418468364
 30
0.0
 11
47.3277338398988
 21
24.57883346363124
 31
0.0
  0
LINE
  5
14B
330
2
100
AcDbEntity
  8
0
100
AcDbLine
 10
47.3277338398988
 20
24.57883346363124
 30
0.0
 11
47.3277338398988
 21
24.57913310310503
 31
0.0
  0
LINE
  5
14C
330
2
100
AcDbEntity
  8
0
100
AcDbLine
 10
47.3277338398988
 20
24.57913310310503
 30
0.0
 11
47.3277338398988
 21
24.58033166100016
 31
0.0
  0
LINE
  5
14D
330
2
100
AcDbEntity
  8
0
100
AcDbLine
 10
47.3277338398988
 20
24.58033166100016
 30
0.0
 11
47.32683492147745
 21
24.58093093994772
 31
0.0
  0
LINE
  5
14E
330
2
100
AcDbEntity
  8
0
100
AcDbLine
 10
47.32683492147745
 20
24.58093093994772
 30
0.0
 11
47.32683492147745
 21
24.5812305794215
 31
0.0
  0
LINE
  5
14F
330
2
100
AcDbEntity
  8
0
100
AcDbLine
 10
47.32683492147745
 20
24.5812305794215
 30
0.0
 11
47.32683492147745
 21
24.58212949784285
 31
0.0
  0
LINE
  5
150
330
2
100
AcDbEntity
  8
0
100
AcDbLine
 10
47.32683492147745
 20
24.58212949784285
 30
0.0
 11
47.32683492147745
 21
24.58242913731663
 31
0.0
  0
LINE
  5
151
330
2
100
AcDbEntity
  8
0
100
AcDbLine
 10
47.32683492147745
 20
24.58242913731663
 30
0.0
 11
47.32683492147745
 21
24.58332805573802
 31
0.0
  0
LINE
  5
152
330
2
100
AcDbEntity
  8
0
100
AcDbLine
 10
47.32683492147745
 20
24.58332805573802
 30
0.0
 11
47.32683492147745
 21
24.58392733468558
 31
0.0
  0
LINE
  5
153
330
2
100
AcDbEntity
  8
0
100
AcDbLine
 10
47.32683492147745
 20
24.58392733468558
 30
0.0
 11
47.32683492147745
 21
24.58452661363315
 31
0.0
  0
LINE
  5
154
330
2
100
AcDbEntity
  8
0
100
AcDbLine
 10
47.32683492147745
 20
24.58452661363315
 30
0.0
 11
47.32683492147745
 21
24.58542553205449
 31
0.0
  0
LINE
  5
155
330
2
100
AcDbEntity
  8
0
100
AcDbLine
 10
47.32683492147745
 20
24.58542553205449
 30
0.0
 11
47.32683492147745
 21
24.58602481100206
 31
0.0
  0
LINE
  5
156
330
2
100
AcDbEntity
  8
0
100
AcDbLine
 10
47.32683492147745
 20
24.58602481100206
 30
0.0
 11
47.32653528200365
 21
24.58692372942345
 31
0.0
  0
LINE
  5
157
330
2
100
AcDbEntity
  8
0
100
AcDbLine
 10
47.32653528200365
 20
24.58692372942345
 30
0.0
 11
47.32653528200365
 21
24.58752300837101
 31
0.0
  0
LINE
  5
158
330
2
100
AcDbEntity
  8
0
100
AcDbLine
 10
47.32653528200365
 20
24.58752300837101
 30
0.0
 11
47.32653528200365
 21
24.58782264784479
 31
0.0
  0
LINE
  5
159
330
2
100
AcDbEntity
  8
0
100
AcDbLine
 10
47.32653528200365
 20
24.58782264784479
 30
0.0
 11
47.32653528200365
 21
24.58872156626613
 31
0.0
  0
LINE
  5
15A
330
2
100
AcDbEntity
  8
0
100
AcDbLine
 10
47.32653528200365
 20
24.58872156626613
 30
0.0
 11
47.32653528200365
 21
24.5893208452137
 31
0.0
  0
LINE
  5
15B
330
2
100
AcDbEntity
  8
0
100
AcDbLine
 10
47.32653528200365
 20
24.5893208452137
 30
0.0
 11
47.32593600305609
 21
24.59021976363505
 31
0.0
  0
LINE
  5
15C
330
2
100
AcDbEntity
  8
0
100
AcDbLine
 10
47.32593600305609
 20
24.59021976363505
 30
0.0
 11
47.32593600305609
 21
24.59081904258261
 31
0.0
  0
LINE
  5
15D
330
2
100
AcDbEntity
  8
0
100
AcDbLine
 10
47.32593600305609
 20
24.59081904258261
 30
0.0
 11
47.32593600305609
 21
24.591717961004
 31
0.0
  0
LINE
  5
15E
330
2
100
AcDbEntity
  8
0
100
AcDbLine
 10
47.32593600305609
 20
24.591717961004
 30
0.0
 11
47.32593600305609
 21
24.59231723995156
 31
0.0
  0
LINE
  5
15F
330
2
100
AcDbEntity
  8
0
100
AcDbLine
 10
47.32593600305609
 20
24.59231723995156
 30
0.0
 11
47.32593600305609
 21
24.59261687942535
 31
0.0
  0
LINE
  5
160
330
2
100
AcDbEntity
  8
0
100
AcDbLine
 10
47.32593600305609
 20
24.59261687942535
 30
0.0
 11
47.32563636358231
 21
24.59351579784669
 31
0.0
  0
LINE
  5
161
330
2
100
AcDbEntity
  8
0
100
AcDbLine
 10
47.32563636358231
 20
24.59351579784669
 30
0.0
 11
47.32563636358231
 21
24.59411507679426
 31
0.0
  0
LINE
  5
162
330
2
100
AcDbEntity
  8
0
100
AcDbLine
 10
47.32563636358231
 20
24.59411507679426
 30
0.0
 11
47.32563636358231
 21
24.5950139952156
 31
0.0
  0
LINE
  5
163
330
2
100
AcDbEntity
  8
0
100
AcDbLine
 10
47.32563636358231
 20
24.5950139952156
 30
0.0
 11
47.32563636358231
 21
24.59531363468942
 31
0.0
  0
LINE
  5
164
330
2
100
AcDbEntity
  8
0
100
AcDbLine
 10
47.32563636358231
 20
24.59531363468942
 30
0.0
 11
47.32503708463474
 21
24.59651219258455
 31
0.0
  0
LINE
  5
165
330
2
100
AcDbEntity
  8
0
100
AcDbLine
 10
47.32503708463474
 20
24.59651219258455
 30
0.0
 11
47.32503708463474
 21
24.59681183205834
 31
0.0
  0
LINE
  5
166
330
2
100
AcDbEntity
  8
0
100
AcDbLine
 10
45.22684163340166
 20
25.29596061624121
 30
0.0
 11
46.93075708666294
 21
24.31227571068987
 31
0.0
  0
LINE
  5
167
330
2
100
AcDbEntity
  8
0
100
AcDbLine
 10
45.1788693536486
 20
25.34656972336355
 30
0.0
 11
45.17946863259616
 21
25.34597044441599
 31
0.0
  0
LINE
  5
168
330
2
100
AcDbEntity
  8
0
100
AcDbLine
 10
45.17946863259616
 20
25.34597044441599
 30
0.0
 11
45.17946863259616
 21
25.3456708049422
 31
0.0
  0
LINE
  5
169
330
2
100
AcDbEntity
  8
0
100
AcDbLine
 10
45.17946863259616
 20
25.3456708049422
 30
0.0
 11
45.18006791154375
 21
25.34507152599464
 31
0.0
  0
LINE
  5
16A
330
2
100
AcDbEntity
  8
0
100
AcDbLine
 10
45.18006791154375
 20
25.34507152599464
 30
0.0
 11
45.18066719049132
 21
25.34447224704703
 31
0.0
  0
LINE
  5
16B
330
2
100
AcDbEntity
  8
0
100
AcDbLine
 10
45.18066719049132
 20
25.34447224704703
 30
0.0
 11
45.18066719049132
 21
25.34417260757325
 31
0.0
  0
LINE
  5
16C
330
2
100
AcDbEntity
  8
0
100
AcDbLine
 10
45.18066719049132
 20
25.34417260757325
 30
0.0
 11
45.18096682996509
 21
25.34327368915191
 31
0.0
  0
LINE
  5
16D
330
2
100
AcDbEntity
  8
0
100
AcDbLine
 10
45.18096682996509
 20
25.34327368915191
 30
0.0
 11
45.18126646943888
 21
25.34267441020434
 31
0.0
  0
LINE
  5
16E
330
2
100
AcDbEntity
  8
0
100
AcDbLine
 10
45.18126646943888
 20
25.34267441020434
 30
0.0
 11
45.18126646943888
 21
25.34207513125677
 31
0.0
  0
LINE
  5
16F
330
2
100
AcDbEntity
  8
0
100
AcDbLine
 10
45.18126646943888
 20
25.34207513125677
 30
0.0
 11
45.18186574838645
 21
25.34177549178299
 31
0.0
  0
LINE
  5
170
330
2
100
AcDbEntity
  8
0
100
AcDbLine
 10
45.18186574838645
 20
25.34177549178299
 30
0.0
 11
45.18246502733403
 21
25.34117621283543
 31
0.0
  0
LINE
  5
171
330
2
100
AcDbEntity
  8
0
100
AcDbLine
 10
45.18246502733403
 20
25.34117621283543
 30
0.0
 11
45.18246502733403
 21
25.34057693388787
 31
0.0
  0
LINE
  5
172
330
2
100
AcDbEntity
  8
0
100
AcDbLine
 10
45.18246502733403
 20
25.34057693388787
 30
0.0
 11
45.18306430628159
 21
25.34027729441404
 31
0.0
  0
LINE
  5
173
330
2
100
AcDbEntity
  8
0
100
AcDbLine
 10
45.18306430628159
 20
25.34027729441404
 30
0.0
 11
45.18306430628159
 21
25.33997765494026
 31
0.0
  0
LINE
  5
174
330
2
100
AcDbEntity
  8
0
100
AcDbLine
 10
45.18306430628159
 20
25.33997765494026
 30
0.0
 11
45.18306430628159
 21
25.3393783759927
 31
0.0
  0
LINE
  5
175
330
2
100
AcDbEntity
  8
0
100
AcDbLine
 10
45.18306430628159
 20
25.3393783759927
 30
0.0
 11
45.18396322470296
 21
25.33907873651891
 31
0.0
  0
LINE
  5
176
330
2
100
AcDbEntity
  8
0
100
AcDbLine
 10
45.18396322470296
 20
25.33907873651891
 30
0.0
 11
45.18426286417674
 21
25.33847945757135
 31
0.0
  0
LINE
  5
177
330
2
100
AcDbEntity
  8
0
100
AcDbLine
 10
45.18426286417674
 20
25.33847945757135
 30
0.0
 11
45.18426286417674
 21
25.33788017862379
 31
0.0
  0
LINE
  5
178
330
2
100
AcDbEntity
  8
0
100
AcDbLine
 10
45.18426286417674
 20
25.33788017862379
 30
0.0
 11
45.18486214312431
 21
25.33758053915
 31
0.0
  0
LINE
  5
179
330
2
100
AcDbEntity
  8
0
100
AcDbLine
 10
45.18486214312431
 20
25.33758053915
 30
0.0
 11
45.18516178259809
 21
25.33698126020244
 31
0.0
  0
LINE
  5
17A
330
2
100
AcDbEntity
  8
0
100
AcDbLine
 10
45.18516178259809
 20
25.33698126020244
 30
0.0
 11
45.18516178259809
 21
25.33668162072866
 31
0.0
  0
LINE
  5
17B
330
2
100
AcDbEntity
  8
0
100
AcDbLine
 10
45.18516178259809
 20
25.33668162072866
 30
0.0
 11
45.18576106154565
 21
25.33608234178105
 31
0.0
  0
LINE
  5
17C
330
2
100
AcDbEntity
  8
0
100
AcDbLine
 10
45.18576106154565
 20
25.33608234178105
 30
0.0
 11
45.18606070101945
 21
25.33548306283349
 31
0.0
  0
LINE
  5
17D
330
2
100
AcDbEntity
  8
0
100
AcDbLine
 10
45.18606070101945
 20
25.33548306283349
 30
0.0
 11
45.18606070101945
 21
25.33488378388592
 31
0.0
  0
LINE
  5
17E
330
2
100
AcDbEntity
  8
0
100
AcDbLine
 10
45.18606070101945
 20
25.33488378388592
 30
0.0
 11
45.18636034049324
 21
25.33458414441214
 31
0.0
  0
LINE
  5
17F
330
2
100
AcDbEntity
  8
0
100
AcDbLine
 10
45.18636034049324
 20
25.33458414441214
 30
0.0
 11
45.1869596194408
 21
25.33398486546458
 31
0.0
  0
LINE
  5
180
330
2
100
AcDbEntity
  8
0
100
AcDbLine
 10
45.1869596194408
 20
25.33398486546458
 30
0.0
 11
45.1869596194408
 21
25.33368522599079
 31
0.0
  0
LINE
  5
181
330
2
100
AcDbEntity
  8
0
100
AcDbLine
 10
45.1869596194408
 20
25.33368522599079
 30
0.0
 11
45.18755889838836
 21
25.33308594704323
 31
0.0
  0
LINE
  5
182
330
2
100
AcDbEntity
  8
0
100
AcDbLine
 10
45.18755889838836
 20
25.33308594704323
 30
0.0
 11
45.18785853786215
 21
25.33278630756945
 31
0.0
  0
LINE
  5
183
330
2
100
AcDbEntity
  8
0
100
AcDbLine
 10
45.18785853786215
 20
25.33278630756945
 30
0.0
 11
45.18815817733595
 21
25.33218702862184
 31
0.0
  0
LINE
  5
184
330
2
100
AcDbEntity
  8
0
100
AcDbLine
 10
45.18815817733595
 20
25.33218702862184
 30
0.0
 11
45.18815817733595
 21
25.33188738914806
 31
0.0
  0
LINE
  5
185
330
2
100
AcDbEntity
  8
0
100
AcDbLine
 10
45.18815817733595
 20
25.33188738914806
 30
0.0
 11
45.18905709575729
 21
25.3312881102005
 31
0.0
  0
LINE
  5
186
330
2
100
AcDbEntity
  8
0
100
AcDbLine
 10
45.18905709575729
 20
25.3312881102005
 30
0.0
 11
45.18935673523108
 21
25.33068883125293
 31
0.0
  0
LINE
  5
187
330
2
100
AcDbEntity
  8
0
100
AcDbLine
 10
45.18935673523108
 20
25.33068883125293
 30
0.0
 11
45.18935673523108
 21
25.33008955230537
 31
0.0
  0
LINE
  5
188
330
2
100
AcDbEntity
  8
0
100
AcDbLine
 10
45.18935673523108
 20
25.33008955230537
 30
0.0
 11
45.18995601417865
 21
25.32978991283159
 31
0.0
  0
LINE
  5
189
330
2
100
AcDbEntity
  8
0
100
AcDbLine
 10
45.18995601417865
 20
25.32978991283159
 30
0.0
 11
45.19055529312622
 21
25.32919063388402
 31
0.0
  0
LINE
  5
18A
330
2
100
AcDbEntity
  8
0
100
AcDbLine
 10
45.19055529312622
 20
25.32919063388402
 30
0.0
 11
45.19115457207379
 21
25.32889099441024
 31
0.0
  0
LINE
  5
18B
330
2
100
AcDbEntity
  8
0
100
AcDbLine
 10
45.19115457207379
 20
25.32889099441024
 30
0.0
 11
45.19115457207379
 21
25.32829171546263
 31
0.0
  0
LINE
  5
18C
330
2
100
AcDbEntity
  8
0
100
AcDbLine
 10
45.19115457207379
 20
25.32829171546263
 30
0.0
 11
45.19145421154758
 21
25.32799207598885
 31
0.0
  0
LINE
  5
18D
330
2
100
AcDbEntity
  8
0
100
AcDbLine
 10
45.19145421154758
 20
25.32799207598885
 30
0.0
 11
45.19175385102136
 21
25.32739279704129
 31
0.0
  0
LINE
  5
18E
330
2
100
AcDbEntity
  8
0
100
AcDbLine
 10
45.19175385102136
 20
25.32739279704129
 30
0.0
 11
45.19235312996894
 21
25.32709315756751
 31
0.0
  0
LINE
  5
18F
330
2
100
AcDbEntity
  8
0
100
AcDbLine
 10
45.19235312996894
 20
25.32709315756751
 30
0.0
 11
45.19295240891651
 21
25.32649387861994
 31
0.0
  0
LINE
  5
190
330
2
100
AcDbEntity
  8
0
100
AcDbLine
 10
45.19295240891651
 20
25.32649387861994
 30
0.0
 11
45.19325204839029
 21
25.32619423914616
 31
0.0
  0
LINE
  5
191
330
2
100
AcDbEntity
  8
0
100
AcDbLine
 10
45.19325204839029
 20
25.32619423914616
 30
0.0
 11
45.19355168786407
 21
25.32559496019859
 31
0.0
  0
LINE
  5
192
330
2
100
AcDbEntity
  8
0
100
AcDbLine
 10
45.19355168786407
 20
25.32559496019859
 30
0.0
 11
45.19355168786407
 21
25.32499568125103
 31
0.0
  0
LINE
  5
193
330
2
100
AcDbEntity
  8
0
100
AcDbLine
 10
45.19355168786407
 20
25.32499568125103
 30
0.0
 11
45.19445060628544
 21
25.32469604177725
 31
0.0
  0
LINE
  5
194
330
2
100
AcDbEntity
  8
0
100
AcDbLine
 10
45.19445060628544
 20
25.32469604177725
 30
0.0
 11
45.19475024575922
 21
25.32409676282965
 31
0.0
  0
LINE
  5
195
330
2
100
AcDbEntity
  8
0
100
AcDbLine
 10
45.19475024575922
 20
25.32409676282965
 30
0.0
 11
45.19534952470678
 21
25.32349748388208
 31
0.0
  0
LINE
  5
196
330
2
100
AcDbEntity
  8
0
100
AcDbLine
 10
45.19534952470678
 20
25.32349748388208
 30
0.0
 11
45.19534952470678
 21
25.3231978444083
 31
0.0
  0
LINE
  5
197
330
2
100
AcDbEntity
  8
0
100
AcDbLine
 10
45.19534952470678
 20
25.3231978444083
 30
0.0
 11
45.19594880365435
 21
25.32259856546073
 31
0.0
  0
LINE
  5
198
330
2
100
AcDbEntity
  8
0
100
AcDbLine
 10
45.19594880365435
 20
25.32259856546073
 30
0.0
 11
45.19654808260193
 21
25.32229892598695
 31
0.0
  0
LINE
  5
199
330
2
100
AcDbEntity
  8
0
100
AcDbLine
 10
45.19654808260193
 20
25.32229892598695
 30
0.0
 11
45.19684772207571
 21
25.32169964703939
 31
0.0
  0
LINE
  5
19A
330
2
100
AcDbEntity
  8
0
100
AcDbLine
 10
45.19684772207571
 20
25.32169964703939
 30
0.0
 11
45.19714736154949
 21
25.32140000756561
 31
0.0
  0
LINE
  5
19B
330
2
100
AcDbEntity
  8
0
100
AcDbLine
 10
45.19714736154949
 20
25.32140000756561
 30
0.0
 11
45.19744700102328
 21
25.32080072861804
 31
0.0
  0
LINE
  5
19C
330
2
100
AcDbEntity
  8
0
100
AcDbLine
 10
45.19744700102328
 20
25.32080072861804
 30
0.0
 11
45.19804627997085
 21
25.32020144967047
 31
0.0
  0
LINE
  5
19D
330
2
100
AcDbEntity
  8
0
100
AcDbLine
 10
45.19804627997085
 20
25.32020144967047
 30
0.0
 11
45.19834591944465
 21
25.31990181019665
 31
0.0
  0
LINE
  5
19E
330
2
100
AcDbEntity
  8
0
100
AcDbLine
 10
45.19834591944465
 20
25.31990181019665
 30
0.0
 11
45.19834591944465
 21
25.31930253124909
 31
0.0
  0
LINE
  5
19F
330
2
100
AcDbEntity
  8
0
100
AcDbLine
 10
45.19834591944465
 20
25.31930253124909
 30
0.0
 11
45.19864555891842
 21
25.31870325230153
 31
0.0
  0
LINE
  5
1A0
330
2
100
AcDbEntity
  8
0
100
AcDbLine
 10
45.19864555891842
 20
25.31870325230153
 30
0.0
 11
45.19954447733978
 21
25.31840361282774
 31
0.0
  0
LINE
  5
1A1
330
2
100
AcDbEntity
  8
0
100
AcDbLine
 10
45.19954447733978
 20
25.31840361282774
 30
0.0
 11
45.19984411681355
 21
25.31780433388018
 31
0.0
  0
LINE
  5
1A2
330
2
100
AcDbEntity
  8
0
100
AcDbLine
 10
45.19984411681355
 20
25.31780433388018
 30
0.0
 11
45.20044339576114
 21
25.3175046944064
 31
0.0
  0
LINE
  5
1A3
330
2
100
AcDbEntity
  8
0
100
AcDbLine
 10
45.20044339576114
 20
25.3175046944064
 30
0.0
 11
45.20104267470871
 21
25.31690541545883
 31
0.0
  0
LINE
  5
1A4
330
2
100
AcDbEntity
  8
0
100
AcDbLine
 10
45.20104267470871
 20
25.31690541545883
 30
0.0
 11
45.20164195365627
 21
25.31630613651127
 31
0.0
  0
LINE
  5
1A5
330
2
100
AcDbEntity
  8
0
100
AcDbLine
 10
45.20164195365627
 20
25.31630613651127
 30
0.0
 11
45.20194159313006
 21
25.31600649703745
 31
0.0
  0
LINE
  5
1A6
330
2
100
AcDbEntity
  8
0
100
AcDbLine
 10
45.20194159313006
 20
25.31600649703745
 30
0.0
 11
45.20224123260385
 21
25.31540721808988
 31
0.0
  0
LINE
  5
1A7
330
2
100
AcDbEntity
  8
0
100
AcDbLine
 10
45.20224123260385
 20
25.31540721808988
 30
0.0
 11
45.20284051155142
 21
25.3151075786161
 31
0.0
  0
LINE
  5
1A8
330
2
100
AcDbEntity
  8
0
100
AcDbLine
 10
45.20284051155142
 20
25.3151075786161
 30
0.0
 11
45.20343979049898
 21
25.31450829966853
 31
0.0
  0
LINE
  5
1A9
330
2
100
AcDbEntity
  8
0
100
AcDbLine
 10
45.20343979049898
 20
25.31450829966853
 30
0.0
 11
45.20373942997276
 21
25.31420866019475
 31
0.0
  0
LINE
  5
1AA
330
2
100
AcDbEntity
  8
0
100
AcDbLine
 10
45.20373942997276
 20
25.31420866019475
 30
0.0
 11
45.20403906944655
 21
25.31360938124719
 31
0.0
  0
LINE
  5
1AB
330
2
100
AcDbEntity
  8
0
100
AcDbLine
 10
45.20403906944655
 20
25.31360938124719
 30
0.0
 11
45.20493798786791
 21
25.31301010229962
 31
0.0
  0
LINE
  5
1AC
330
2
100
AcDbEntity
  8
0
100
AcDbLine
 10
45.20493798786791
 20
25.31301010229962
 30
0.0
 11
45.2052376273417
 21
25.31271046282584
 31
0.0
  0
LINE
  5
1AD
330
2
100
AcDbEntity
  8
0
100
AcDbLine
 10
45.2052376273417
 20
25.31271046282584
 30
0.0
 11
45.20583690628926
 21
25.31211118387828
 31
0.0
  0
LINE
  5
1AE
330
2
100
AcDbEntity
  8
0
100
AcDbLine
 10
45.20583690628926
 20
25.31211118387828
 30
0.0
 11
45.20643618523684
 21
25.31181154440445
 31
0.0
  0
LINE
  5
1AF
330
2
100
AcDbEntity
  8
0
100
AcDbLine
 10
45.20643618523684
 20
25.31181154440445
 30
0.0
 11
45.20703546418441
 21
25.31181154440445
 31
0.0
  0
LINE
  5
1B0
330
2
100
AcDbEntity
  8
0
100
AcDbLine
 10
45.20703546418441
 20
25.31181154440445
 30
0.0
 11
45.20703546418441
 21
25.31121226545689
 31
0.0
  0
LINE
  5
1B1
330
2
100
AcDbEntity
  8
0
100
AcDbLine
 10
45.20703546418441
 20
25.31121226545689
 30
0.0
 11
45.20733510365819
 21
25.31061298650933
 31
0.0
  0
LINE
  5
1B2
330
2
100
AcDbEntity
  8
0
100
AcDbLine
 10
45.20733510365819
 20
25.31061298650933
 30
0.0
 11
45.20763474313198
 21
25.31031334703554
 31
0.0
  0
LINE
  5
1B3
330
2
100
AcDbEntity
  8
0
100
AcDbLine
 10
45.20763474313198
 20
25.31031334703554
 30
0.0
 11
45.20823402207954
 21
25.30971406808798
 31
0.0
  0
LINE
  5
1B4
330
2
100
AcDbEntity
  8
0
100
AcDbLine
 10
45.20823402207954
 20
25.30971406808798
 30
0.0
 11
45.20883330102712
 21
25.30971406808798
 31
0.0
  0
LINE
  5
1B5
330
2
100
AcDbEntity
  8
0
100
AcDbLine
 10
45.20883330102712
 20
25.30971406808798
 30
0.0
 11
45.20883330102712
 21
25.30911478914041
 31
0.0
  0
LINE
  5
1B6
330
2
100
AcDbEntity
  8
0
100
AcDbLine
 10
45.20883330102712
 20
25.30911478914041
 30
0.0
 11
45.20913294050091
 21
25.30881514966663
 31
0.0
  0
LINE
  5
1B7
330
2
100
AcDbEntity
  8
0
100
AcDbLine
 10
45.20913294050091
 20
25.30881514966663
 30
0.0
 11
45.20943257997468
 21
25.30821587071907
 31
0.0
  0
LINE
  5
1B8
330
2
100
AcDbEntity
  8
0
100
AcDbLine
 10
45.20943257997468
 20
25.30821587071907
 30
0.0
 11
45.21003185892225
 21
25.30821587071907
 31
0.0
  0
LINE
  5
1B9
330
2
100
AcDbEntity
  8
0
100
AcDbLine
 10
45.21003185892225
 20
25.30821587071907
 30
0.0
 11
45.21033149839603
 21
25.30791623124525
 31
0.0
  0
LINE
  5
1BA
330
2
100
AcDbEntity
  8
0
100
AcDbLine
 10
45.21033149839603
 20
25.30791623124525
 30
0.0
 11
45.21093077734362
 21
25.30731695229768
 31
0.0
  0
LINE
  5
1BB
330
2
100
AcDbEntity
  8
0
100
AcDbLine
 10
45.21093077734362
 20
25.30731695229768
 30
0.0
 11
45.21153005629119
 21
25.30731695229768
 31
0.0
  0
LINE
  5
1BC
330
2
100
AcDbEntity
  8
0
100
AcDbLine
 10
45.21153005629119
 20
25.30731695229768
 30
0.0
 11
45.21153005629119
 21
25.3070173128239
 31
0.0
  0
LINE
  5
1BD
330
2
100
AcDbEntity
  8
0
100
AcDbLine
 10
45.21153005629119
 20
25.3070173128239
 30
0.0
 11
45.21212933523875
 21
25.30641803387633
 31
0.0
  0
LINE
  5
1BE
330
2
100
AcDbEntity
  8
0
100
AcDbLine
 10
45.21212933523875
 20
25.30641803387633
 30
0.0
 11
45.21212933523875
 21
25.30581875492877
 31
0.0
  0
LINE
  5
1BF
330
2
100
AcDbEntity
  8
0
100
AcDbLine
 10
45.21212933523875
 20
25.30581875492877
 30
0.0
 11
45.21272861418633
 21
25.30581875492877
 31
0.0
  0
LINE
  5
1C0
330
2
100
AcDbEntity
  8
0
100
AcDbLine
 10
45.21272861418633
 20
25.30581875492877
 30
0.0
 11
45.21332789313389
 21
25.30551911545499
 31
0.0
  0
LINE
  5
1C1
330
2
100
AcDbEntity
  8
0
100
AcDbLine
 10
45.21332789313389
 20
25.30551911545499
 30
0.0
 11
45.21392717208146
 21
25.30491983650743
 31
0.0
  0
LINE
  5
1C2
330
2
100
AcDbEntity
  8
0
100
AcDbLine
 10
45.21392717208146
 20
25.30491983650743
 30
0.0
 11
45.21422681155524
 21
25.30462019703364
 31
0.0
  0
LINE
  5
1C3
330
2
100
AcDbEntity
  8
0
100
AcDbLine
 10
45.21422681155524
 20
25.30462019703364
 30
0.0
 11
45.21452645102904
 21
25.30402091808607
 31
0.0
  0
LINE
  5
1C4
330
2
100
AcDbEntity
  8
0
100
AcDbLine
 10
45.21452645102904
 20
25.30402091808607
 30
0.0
 11
45.21542536945039
 21
25.30402091808607
 31
0.0
  0
LINE
  5
1C5
330
2
100
AcDbEntity
  8
0
100
AcDbLine
 10
45.21542536945039
 20
25.30402091808607
 30
0.0
 11
45.21572500892417
 21
25.30342163913847
 31
0.0
  0
LINE
  5
1C6
330
2
100
AcDbEntity
  8
0
100
AcDbLine
 10
45.21572500892417
 20
25.30342163913847
 30
0.0
 11
45.21632428787174
 21
25.30282236019091
 31
0.0
  0
LINE
  5
1C7
330
2
100
AcDbEntity
  8
0
100
AcDbLine
 10
45.21632428787174
 20
25.30282236019091
 30
0.0
 11
45.21692356681932
 21
25.30282236019091
 31
0.0
  0
LINE
  5
1C8
330
2
100
AcDbEntity
  8
0
100
AcDbLine
 10
45.21692356681932
 20
25.30282236019091
 30
0.0
 11
45.21692356681932
 21
25.30252272071713
 31
0.0
  0
LINE
  5
1C9
330
2
100
AcDbEntity
  8
0
100
AcDbLine
 10
45.21692356681932
 20
25.30252272071713
 30
0.0
 11
45.21722320629311
 21
25.30222308124335
 31
0.0
  0
LINE
  5
1CA
330
2
100
AcDbEntity
  8
0
100
AcDbLine
 10
45.21722320629311
 20
25.30222308124335
 30
0.0
 11
45.21752284576688
 21
25.30222308124335
 31
0.0
  0
LINE
  5
1CB
330
2
100
AcDbEntity
  8
0
100
AcDbLine
 10
45.21752284576688
 20
25.30222308124335
 30
0.0
 11
45.21812212471445
 21
25.30162380229578
 31
0.0
  0
LINE
  5
1CC
330
2
100
AcDbEntity
  8
0
100
AcDbLine
 10
45.21812212471445
 20
25.30162380229578
 30
0.0
 11
45.21872140366204
 21
25.301324162822
 31
0.0
  0
LINE
  5
1CD
330
2
100
AcDbEntity
  8
0
100
AcDbLine
 10
45.21872140366204
 20
25.301324162822
 30
0.0
 11
45.2193206826096
 21
25.301324162822
 31
0.0
  0
LINE
  5
1CE
330
2
100
AcDbEntity
  8
0
100
AcDbLine
 10
45.2193206826096
 20
25.301324162822
 30
0.0
 11
45.21962032208338
 21
25.30072488387443
 31
0.0
  0
LINE
  5
1CF
330
2
100
AcDbEntity
  8
0
100
AcDbLine
 10
45.21962032208338
 20
25.30072488387443
 30
0.0
 11
45.21991996155716
 21
25.30012560492687
 31
0.0
  0
LINE
  5
1D0
330
2
100
AcDbEntity
  8
0
100
AcDbLine
 10
45.21991996155716
 20
25.30012560492687
 30
0.0
 11
45.22081887997853
 21
25.29982596545305
 31
0.0
  0
LINE
  5
1D1
330
2
100
AcDbEntity
  8
0
100
AcDbLine
 10
45.22081887997853
 20
25.29982596545305
 30
0.0
 11
45.22111851945232
 21
25.29982596545305
 31
0.0
  0
LINE
  5
1D2
330
2
100
AcDbEntity
  8
0
100
AcDbLine
 10
45.22111851945232
 20
25.29982596545305
 30
0.0
 11
45.22171779839988
 21
25.29922668650548
 31
0.0
  0
LINE
  5
1D3
330
2
100
AcDbEntity
  8
0
100
AcDbLine
 10
45.22171779839988
 20
25.29922668650548
 30
0.0
 11
45.22231707734745
 21
25.29922668650548
 31
0.0
  0
LINE
  5
1D4
330
2
100
AcDbEntity
  8
0
100
AcDbLine
 10
45.22231707734745
 20
25.29922668650548
 30
0.0
 11
45.22261671682124
 21
25.29862740755792
 31
0.0
  0
LINE
  5
1D5
330
2
100
AcDbEntity
  8
0
100
AcDbLine
 10
45.22261671682124
 20
25.29862740755792
 30
0.0
 11
45.22261671682124
 21
25.29832776808414
 31
0.0
  0
LINE
  5
1D6
330
2
100
AcDbEntity
  8
0
100
AcDbLine
 10
45.22261671682124
 20
25.29832776808414
 30
0.0
 11
45.22321599576881
 21
25.29772848913657
 31
0.0
  0
LINE
  5
1D7
330
2
100
AcDbEntity
  8
0
100
AcDbLine
 10
45.22321599576881
 20
25.29772848913657
 30
0.0
 11
45.22381527471637
 21
25.29772848913657
 31
0.0
  0
LINE
  5
1D8
330
2
100
AcDbEntity
  8
0
100
AcDbLine
 10
45.22381527471637
 20
25.29772848913657
 30
0.0
 11
45.22441455366394
 21
25.29712921018901
 31
0.0
  0
LINE
  5
1D9
330
2
100
AcDbEntity
  8
0
100
AcDbLine
 10
45.22441455366394
 20
25.29712921018901
 30
0.0
 11
45.22471419313774
 21
25.29712921018901
 31
0.0
  0
LINE
  5
1DA
330
2
100
AcDbEntity
  8
0
100
AcDbLine
 10
45.22471419313774
 20
25.29712921018901
 30
0.0
 11
45.22501383261152
 21
25.29682957071522
 31
0.0
  0
LINE
  5
1DB
330
2
100
AcDbEntity
  8
0
100
AcDbLine
 10
45.22501383261152
 20
25.29682957071522
 30
0.0
 11
45.22591275103287
 21
25.29682957071522
 31
0.0
  0
LINE
  5
1DC
330
2
100
AcDbEntity
  8
0
100
AcDbLine
 10
45.22591275103287
 20
25.29682957071522
 30
0.0
 11
45.22591275103287
 21
25.29652993124144
 31
0.0
  0
LINE
  5
1DD
330
2
100
AcDbEntity
  8
0
100
AcDbLine
 10
45.22591275103287
 20
25.29652993124144
 30
0.0
 11
45.22621239050665
 21
25.29652993124144
 31
0.0
  0
LINE
  5
1DE
330
2
100
AcDbEntity
  8
0
100
AcDbLine
 10
45.22621239050665
 20
25.29652993124144
 30
0.0
 11
45.22651202998043
 21
25.29593065229388
 31
0.0
  0
LINE
  5
1DF
330
2
100
AcDbEntity
  8
0
100
AcDbLine
 10
44.82071029063326
 20
25.96751260488851
 30
0.0
 11
45.17907910128029
 21
25.3463599757319
 31
0.0
  0
LINE
  5
1E0
330
2
100
AcDbEntity
  8
0
100
AcDbLine
 10
47.24122792381705
 20
24.49154848491761
 30
0.0
 11
47.30774788699735
 21
24.53170017440482
 31
0.0
  0
LINE
  5
1E1
330
2
100
AcDbEntity
  8
0
100
AcDbLine
 10
46.88190026685389
 20
24.28407811326879
 30
0.0
 11
47.24116799592228
 21
24.4914286291281
 31
0.0
  0
LINE
  5
1E2
330
2
100
AcDbEntity
  8
0
100
AcDbLine
 10
5.248104050461402
 20
0.2494266059623584
 30
0.0
 11
5.249002968882749
 21
0.2494266059623584
 31
0.0
  0
LINE
  5
1E3
330
2
100
AcDbEntity
  8
0
100
AcDbLine
 10
5.249002968882749
 20
0.2494266059623584
 30
0.0
 11
5.249002968882749
 21
0.2497262454361407
 31
0.0
  0
LINE
  5
1E4
330
2
100
AcDbEntity
  8
0
100
AcDbLine
 10
5.249002968882749
 20
0.2497262454361407
 30
0.0
 11
5.249302608356551
 21
0.250025884909923
 31
0.0
  0
LINE
  5
1E5
330
2
100
AcDbEntity
  8
0
100
AcDbLine
 10
5.249302608356551
 20
0.250025884909923
 30
0.0
 11
5.249602247830333
 21
0.2503255243837053
 31
0.0
  0
LINE
  5
1E6
330
2
100
AcDbEntity
  8
0
100
AcDbLine
 10
5.249602247830333
 20
0.2503255243837053
 30
0.0
 11
5.250201526777898
 21
0.2503255243837053
 31
0.0
  0
LINE
  5
1E7
330
2
100
AcDbEntity
  8
0
100
AcDbLine
 10
5.250201526777898
 20
0.2503255243837053
 30
0.0
 11
5.250201526777898
 21
0.2506251638575068
 31
0.0
  0
LINE
  5
1E8
330
2
100
AcDbEntity
  8
0
100
AcDbLine
 10
5.250201526777898
 20
0.2506251638575068
 30
0.0
 11
5.250800805725463
 21
0.2509248033312891
 31
0.0
  0
LINE
  5
1E9
330
2
100
AcDbEntity
  8
0
100
AcDbLine
 10
5.250800805725463
 20
0.2509248033312891
 30
0.0
 11
5.250800805725463
 21
0.2512244428050714
 31
0.0
  0
LINE
  5
1EA
330
2
100
AcDbEntity
  8
0
100
AcDbLine
 10
5.250800805725463
 20
0.2512244428050714
 30
0.0
 11
5.251100445199244
 21
0.2512244428050714
 31
0.0
  0
LINE
  5
1EB
330
2
100
AcDbEntity
  8
0
100
AcDbLine
 10
5.251100445199244
 20
0.2512244428050714
 30
0.0
 11
5.251100445199244
 21
0.2515240822788538
 31
0.0
  0
LINE
  5
1EC
330
2
100
AcDbEntity
  8
0
100
AcDbLine
 10
5.251100445199244
 20
0.2515240822788538
 30
0.0
 11
5.251699724146829
 21
0.2515240822788538
 31
0.0
  0
LINE
  5
1ED
330
2
100
AcDbEntity
  8
0
100
AcDbLine
 10
5.251699724146829
 20
0.2515240822788538
 30
0.0
 11
5.251699724146829
 21
0.251823721752636
 31
0.0
  0
LINE
  5
1EE
330
2
100
AcDbEntity
  8
0
100
AcDbLine
 10
5.251699724146829
 20
0.251823721752636
 30
0.0
 11
5.251999363620611
 21
0.2521233612264184
 31
0.0
  0
LINE
  5
1EF
330
2
100
AcDbEntity
  8
0
100
AcDbLine
 10
5.251999363620611
 20
0.2521233612264184
 30
0.0
 11
5.252898282041957
 21
0.2521233612264184
 31
0.0
  0
LINE
  5
1F0
330
2
100
AcDbEntity
  8
0
100
AcDbLine
 10
5.252898282041957
 20
0.2521233612264184
 30
0.0
 11
5.252898282041957
 21
0.2524230007002007
 31
0.0
  0
LINE
  5
1F1
330
2
100
AcDbEntity
  8
0
100
AcDbLine
 10
5.252898282041957
 20
0.2524230007002007
 30
0.0
 11
5.252898282041957
 21
0.2527226401740022
 31
0.0
  0
LINE
  5
1F2
330
2
100
AcDbEntity
  8
0
100
AcDbLine
 10
5.252898282041957
 20
0.2527226401740022
 30
0.0
 11
5.253197921515759
 21
0.2527226401740022
 31
0.0
  0
LINE
  5
1F3
330
2
100
AcDbEntity
  8
0
100
AcDbLine
 10
5.253197921515759
 20
0.2527226401740022
 30
0.0
 11
5.253197921515759
 21
0.2530222796477845
 31
0.0
  0
LINE
  5
1F4
330
2
100
AcDbEntity
  8
0
100
AcDbLine
 10
5.253197921515759
 20
0.2530222796477845
 30
0.0
 11
5.253497560989542
 21
0.2530222796477845
 31
0.0
  0
LINE
  5
1F5
330
2
100
AcDbEntity
  8
0
100
AcDbLine
 10
5.253497560989542
 20
0.2530222796477845
 30
0.0
 11
5.253497560989542
 21
0.2533219191215668
 31
0.0
  0
LINE
  5
1F6
330
2
100
AcDbEntity
  8
0
100
AcDbLine
 10
5.253497560989542
 20
0.2533219191215668
 30
0.0
 11
5.254396479410888
 21
0.2536215585953491
 31
0.0
  0
LINE
  5
1F7
330
2
100
AcDbEntity
  8
0
100
AcDbLine
 10
5.254396479410888
 20
0.2536215585953491
 30
0.0
 11
5.254396479410888
 21
0.2539211980691314
 31
0.0
  0
LINE
  5
1F8
330
2
100
AcDbEntity
  8
0
100
AcDbLine
 10
5.254396479410888
 20
0.2539211980691314
 30
0.0
 11
5.254396479410888
 21
0.2542208375429138
 31
0.0
  0
LINE
  5
1F9
330
2
100
AcDbEntity
  8
0
100
AcDbLine
 10
5.254396479410888
 20
0.2542208375429138
 30
0.0
 11
5.254696118884671
 21
0.2542208375429138
 31
0.0
  0
LINE
  5
1FA
330
2
100
AcDbEntity
  8
0
100
AcDbLine
 10
5.254696118884671
 20
0.2542208375429138
 30
0.0
 11
5.254696118884671
 21
0.2545204770167152
 31
0.0
  0
LINE
  5
1FB
330
2
100
AcDbEntity
  8
0
100
AcDbLine
 10
5.254696118884671
 20
0.2545204770167152
 30
0.0
 11
5.254696118884671
 21
0.2548201164904975
 31
0.0
  0
LINE
  5
1FC
330
2
100
AcDbEntity
  8
0
100
AcDbLine
 10
5.254696118884671
 20
0.2548201164904975
 30
0.0
 11
5.255295397832255
 21
0.2548201164904975
 31
0.0
  0
LINE
  5
1FD
330
2
100
AcDbEntity
  8
0
100
AcDbLine
 10
5.255295397832255
 20
0.2548201164904975
 30
0.0
 11
5.255295397832255
 21
0.2551197559642798
 31
0.0
  0
LINE
  5
1FE
330
2
100
AcDbEntity
  8
0
100
AcDbLine
 10
5.255295397832255
 20
0.2551197559642798
 30
0.0
 11
5.255894676779819
 21
0.2554193954380622
 31
0.0
  0
LINE
  5
1FF
330
2
100
AcDbEntity
  8
0
100
AcDbLine
 10
5.255894676779819
 20
0.2554193954380622
 30
0.0
 11
5.255894676779819
 21
0.2557190349118445
 31
0.0
  0
LINE
  5
200
330
2
100
AcDbEntity
  8
0
100
AcDbLine
 10
5.255894676779819
 20
0.2557190349118445
 30
0.0
 11
5.256194316253601
 21
0.2560186743856268
 31
0.0
  0
LINE
  5
201
330
2
100
AcDbEntity
  8
0
100
AcDbLine
 10
5.256194316253601
 20
0.2560186743856268
 30
0.0
 11
5.256793595201166
 21
0.2563183138594091
 31
0.0
  0
LINE
  5
202
330
2
100
AcDbEntity
  8
0
100
AcDbLine
 10
5.256793595201166
 20
0.2563183138594091
 30
0.0
 11
5.256793595201166
 21
0.2566179533332106
 31
0.0
  0
LINE
  5
203
330
2
100
AcDbEntity
  8
0
100
AcDbLine
 10
5.256793595201166
 20
0.2566179533332106
 30
0.0
 11
5.256793595201166
 21
0.2569175928069929
 31
0.0
  0
LINE
  5
204
330
2
100
AcDbEntity
  8
0
100
AcDbLine
 10
5.256793595201166
 20
0.2569175928069929
 30
0.0
 11
5.257093234674949
 21
0.2569175928069929
 31
0.0
  0
LINE
  5
205
330
2
100
AcDbEntity
  8
0
100
AcDbLine
 10
5.257093234674949
 20
0.2569175928069929
 30
0.0
 11
5.257093234674949
 21
0.2572172322807752
 31
0.0
  0
LINE
  5
206
330
2
100
AcDbEntity
  8
0
100
AcDbLine
 10
5.257093234674949
 20
0.2572172322807752
 30
0.0
 11
5.257692513622532
 21
0.2575168717545575
 31
0.0
  0
LINE
  5
207
330
2
100
AcDbEntity
  8
0
100
AcDbLine
 10
5.257692513622532
 20
0.2575168717545575
 30
0.0
 11
5.257692513622532
 21
0.2578165112283398
 31
0.0
  0
LINE
  5
208
330
2
100
AcDbEntity
  8
0
100
AcDbLine
 10
5.257692513622532
 20
0.2578165112283398
 30
0.0
 11
5.257692513622532
 21
0.2581161507021222
 31
0.0
  0
LINE
  5
209
330
2
100
AcDbEntity
  8
0
100
AcDbLine
 10
5.257692513622532
 20
0.2581161507021222
 30
0.0
 11
5.258291792570097
 21
0.2581161507021222
 31
0.0
  0
LINE
  5
20A
330
2
100
AcDbEntity
  8
0
100
AcDbLine
 10
5.258291792570097
 20
0.2581161507021222
 30
0.0
 11
5.258291792570097
 21
0.2584157901759045
 31
0.0
  0
LINE
  5
20B
330
2
100
AcDbEntity
  8
0
100
AcDbLine
 10
5.258291792570097
 20
0.2584157901759045
 30
0.0
 11
5.258291792570097
 21
0.258715429649706
 31
0.0
  0
LINE
  5
20C
330
2
100
AcDbEntity
  8
0
100
AcDbLine
 10
5.258291792570097
 20
0.258715429649706
 30
0.0
 11
5.258591432043879
 21
0.258715429649706
 31
0.0
  0
LINE
  5
20D
330
2
100
AcDbEntity
  8
0
100
AcDbLine
 10
5.258591432043879
 20
0.258715429649706
 30
0.0
 11
5.258591432043879
 21
0.2590150691234883
 31
0.0
  0
LINE
  5
20E
330
2
100
AcDbEntity
  8
0
100
AcDbLine
 10
5.258591432043879
 20
0.2590150691234883
 30
0.0
 11
5.258591432043879
 21
0.2593147085972705
 31
0.0
  0
LINE
  5
20F
330
2
100
AcDbEntity
  8
0
100
AcDbLine
 10
5.258591432043879
 20
0.2593147085972705
 30
0.0
 11
5.259490350465245
 21
0.2593147085972705
 31
0.0
  0
LINE
  5
210
330
2
100
AcDbEntity
  8
0
100
AcDbLine
 10
5.259490350465245
 20
0.2593147085972705
 30
0.0
 11
5.259490350465245
 21
0.2596143480710529
 31
0.0
  0
LINE
  5
211
330
2
100
AcDbEntity
  8
0
100
AcDbLine
 10
5.259490350465245
 20
0.2596143480710529
 30
0.0
 11
5.259490350465245
 21
0.2599139875448352
 31
0.0
  0
LINE
  5
212
330
2
100
AcDbEntity
  8
0
100
AcDbLine
 10
5.259490350465245
 20
0.2599139875448352
 30
0.0
 11
5.259789989939028
 21
0.2599139875448352
 31
0.0
  0
LINE
  5
213
330
2
100
AcDbEntity
  8
0
100
AcDbLine
 10
5.259789989939028
 20
0.2599139875448352
 30
0.0
 11
5.259789989939028
 21
0.2602136270186175
 31
0.0
  0
LINE
  5
214
330
2
100
AcDbEntity
  8
0
100
AcDbLine
 10
5.259789989939028
 20
0.2602136270186175
 30
0.0
 11
5.259789989939028
 21
0.2605132664923999
 31
0.0
  0
LINE
  5
215
330
2
100
AcDbEntity
  8
0
100
AcDbLine
 10
5.259789989939028
 20
0.2605132664923999
 30
0.0
 11
5.259789989939028
 21
0.2608129059662013
 31
0.0
  0
LINE
  5
216
330
2
100
AcDbEntity
  8
0
100
AcDbLine
 10
5.259789989939028
 20
0.2608129059662013
 30
0.0
 11
5.26008962941281
 21
0.2608129059662013
 31
0.0
  0
LINE
  5
217
330
2
100
AcDbEntity
  8
0
100
AcDbLine
 10
5.26008962941281
 20
0.2608129059662013
 30
0.0
 11
5.26008962941281
 21
0.2611125454399836
 31
0.0
  0
LINE
  5
218
330
2
100
AcDbEntity
  8
0
100
AcDbLine
 10
5.26008962941281
 20
0.2611125454399836
 30
0.0
 11
5.26008962941281
 21
0.261412184913766
 31
0.0
  0
LINE
  5
219
330
2
100
AcDbEntity
  8
0
100
AcDbLine
 10
5.26008962941281
 20
0.261412184913766
 30
0.0
 11
5.260688908360375
 21
0.261412184913766
 31
0.0
  0
LINE
  5
21A
330
2
100
AcDbEntity
  8
0
100
AcDbLine
 10
5.260688908360375
 20
0.261412184913766
 30
0.0
 11
5.260688908360375
 21
0.2620114638613305
 31
0.0
  0
LINE
  5
21B
330
2
100
AcDbEntity
  8
0
100
AcDbLine
 10
5.260688908360375
 20
0.2620114638613305
 30
0.0
 11
5.261288187307939
 21
0.2626107428088952
 31
0.0
  0
LINE
  5
21C
330
2
100
AcDbEntity
  8
0
100
AcDbLine
 10
5.261288187307939
 20
0.2626107428088952
 30
0.0
 11
5.261288187307939
 21
0.2629103822826967
 31
0.0
  0
LINE
  5
21D
330
2
100
AcDbEntity
  8
0
100
AcDbLine
 10
5.261288187307939
 20
0.2629103822826967
 30
0.0
 11
5.261288187307939
 21
0.263210021756479
 31
0.0
  0
LINE
  5
21E
330
2
100
AcDbEntity
  8
0
100
AcDbLine
 10
5.261288187307939
 20
0.263210021756479
 30
0.0
 11
5.261587826781741
 21
0.263210021756479
 31
0.0
  0
LINE
  5
21F
330
2
100
AcDbEntity
  8
0
100
AcDbLine
 10
5.261587826781741
 20
0.263210021756479
 30
0.0
 11
5.261587826781741
 21
0.2635096612302613
 31
0.0
  0
LINE
  5
220
330
2
100
AcDbEntity
  8
0
100
AcDbLine
 10
5.261587826781741
 20
0.2635096612302613
 30
0.0
 11
5.261587826781741
 21
0.2638093007040436
 31
0.0
  0
LINE
  5
221
330
2
100
AcDbEntity
  8
0
100
AcDbLine
 10
5.261587826781741
 20
0.2638093007040436
 30
0.0
 11
5.262187105729306
 21
0.264108940177826
 31
0.0
  0
LINE
  5
222
330
2
100
AcDbEntity
  8
0
100
AcDbLine
 10
5.262187105729306
 20
0.264108940177826
 30
0.0
 11
5.262187105729306
 21
0.2644085796516082
 31
0.0
  0
LINE
  5
223
330
2
100
AcDbEntity
  8
0
100
AcDbLine
 10
5.262187105729306
 20
0.2644085796516082
 30
0.0
 11
5.262187105729306
 21
0.2647082191254097
 31
0.0
  0
LINE
  5
224
330
2
100
AcDbEntity
  8
0
100
AcDbLine
 10
5.262187105729306
 20
0.2647082191254097
 30
0.0
 11
5.262486745203087
 21
0.265007858599192
 31
0.0
  0
LINE
  5
225
330
2
100
AcDbEntity
  8
0
100
AcDbLine
 10
5.262486745203087
 20
0.265007858599192
 30
0.0
 11
5.262486745203087
 21
0.2653074980729744
 31
0.0
  0
LINE
  5
226
330
2
100
AcDbEntity
  8
0
100
AcDbLine
 10
5.262486745203087
 20
0.2653074980729744
 30
0.0
 11
5.262486745203087
 21
0.265906777020539
 31
0.0
  0
LINE
  5
227
330
2
100
AcDbEntity
  8
0
100
AcDbLine
 10
5.262486745203087
 20
0.265906777020539
 30
0.0
 11
5.263086024150652
 21
0.265906777020539
 31
0.0
  0
LINE
  5
228
330
2
100
AcDbEntity
  8
0
100
AcDbLine
 10
5.263086024150652
 20
0.265906777020539
 30
0.0
 11
5.263086024150652
 21
0.2662064164943213
 31
0.0
  0
LINE
  5
229
330
2
100
AcDbEntity
  8
0
100
AcDbLine
 10
5.263086024150652
 20
0.2662064164943213
 30
0.0
 11
5.263086024150652
 21
0.2665060559681036
 31
0.0
  0
LINE
  5
22A
330
2
100
AcDbEntity
  8
0
100
AcDbLine
 10
5.263086024150652
 20
0.2665060559681036
 30
0.0
 11
5.263086024150652
 21
0.2668056954419051
 31
0.0
  0
LINE
  5
22B
330
2
100
AcDbEntity
  8
0
100
AcDbLine
 10
5.263086024150652
 20
0.2668056954419051
 30
0.0
 11
5.263086024150652
 21
0.2671053349156874
 31
0.0
  0
LINE
  5
22C
330
2
100
AcDbEntity
  8
0
100
AcDbLine
 10
5.263086024150652
 20
0.2671053349156874
 30
0.0
 11
5.263685303098236
 21
0.2674049743894697
 31
0.0
  0
LINE
  5
22D
330
2
100
AcDbEntity
  8
0
100
AcDbLine
 10
5.263685303098236
 20
0.2674049743894697
 30
0.0
 11
5.263685303098236
 21
0.2680042533370344
 31
0.0
  0
LINE
  5
22E
330
2
100
AcDbEntity
  8
0
100
AcDbLine
 10
5.263685303098236
 20
0.2680042533370344
 30
0.0
 11
5.263984942572018
 21
0.2683038928108167
 31
0.0
  0
LINE
  5
22F
330
2
100
AcDbEntity
  8
0
100
AcDbLine
 10
5.263984942572018
 20
0.2683038928108167
 30
0.0
 11
5.263984942572018
 21
0.268603532284599
 31
0.0
  0
LINE
  5
230
330
2
100
AcDbEntity
  8
0
100
AcDbLine
 10
5.263984942572018
 20
0.268603532284599
 30
0.0
 11
5.263984942572018
 21
0.2689031717584005
 31
0.0
  0
LINE
  5
231
330
2
100
AcDbEntity
  8
0
100
AcDbLine
 10
5.263984942572018
 20
0.2689031717584005
 30
0.0
 11
5.263984942572018
 21
0.2692028112321827
 31
0.0
  0
LINE
  5
232
330
2
100
AcDbEntity
  8
0
100
AcDbLine
 10
5.263984942572018
 20
0.2692028112321827
 30
0.0
 11
5.264883860993365
 21
0.2695024507059651
 31
0.0
  0
LINE
  5
233
330
2
100
AcDbEntity
  8
0
100
AcDbLine
 10
5.264883860993365
 20
0.2695024507059651
 30
0.0
 11
5.264883860993365
 21
0.2698020901797474
 31
0.0
  0
LINE
  5
234
330
2
100
AcDbEntity
  8
0
100
AcDbLine
 10
5.264883860993365
 20
0.2698020901797474
 30
0.0
 11
5.264883860993365
 21
0.2701017296535297
 31
0.0
  0
LINE
  5
235
330
2
100
AcDbEntity
  8
0
100
AcDbLine
 10
5.264883860993365
 20
0.2701017296535297
 30
0.0
 11
5.264883860993365
 21
0.270401369127312
 31
0.0
  0
LINE
  5
236
330
2
100
AcDbEntity
  8
0
100
AcDbLine
 10
5.264883860993365
 20
0.270401369127312
 30
0.0
 11
5.265183500467148
 21
0.2710006480748958
 31
0.0
  0
LINE
  5
237
330
2
100
AcDbEntity
  8
0
100
AcDbLine
 10
5.265183500467148
 20
0.2710006480748958
 30
0.0
 11
5.265183500467148
 21
0.2713002875486781
 31
0.0
  0
LINE
  5
238
330
2
100
AcDbEntity
  8
0
100
AcDbLine
 10
5.265183500467148
 20
0.2713002875486781
 30
0.0
 11
5.265183500467148
 21
0.2718995664962427
 31
0.0
  0
LINE
  5
239
330
2
100
AcDbEntity
  8
0
100
AcDbLine
 10
5.265183500467148
 20
0.2718995664962427
 30
0.0
 11
5.265483139940949
 21
0.2721992059700251
 31
0.0
  0
LINE
  5
23A
330
2
100
AcDbEntity
  8
0
100
AcDbLine
 10
5.265483139940949
 20
0.2721992059700251
 30
0.0
 11
5.265483139940949
 21
0.2724988454438074
 31
0.0
  0
LINE
  5
23B
330
2
100
AcDbEntity
  8
0
100
AcDbLine
 10
5.265483139940949
 20
0.2724988454438074
 30
0.0
 11
5.265483139940949
 21
0.2727984849176089
 31
0.0
  0
LINE
  5
23C
330
2
100
AcDbEntity
  8
0
100
AcDbLine
 10
5.265483139940949
 20
0.2727984849176089
 30
0.0
 11
5.265483139940949
 21
0.2730981243913912
 31
0.0
  0
LINE
  5
23D
330
2
100
AcDbEntity
  8
0
100
AcDbLine
 10
5.265483139940949
 20
0.2730981243913912
 30
0.0
 11
5.265483139940949
 21
0.2736974033389558
 31
0.0
  0
LINE
  5
23E
330
2
100
AcDbEntity
  8
0
100
AcDbLine
 10
5.265483139940949
 20
0.2736974033389558
 30
0.0
 11
5.266082418888514
 21
0.2739970428127381
 31
0.0
  0
LINE
  5
23F
330
2
100
AcDbEntity
  8
0
100
AcDbLine
 10
5.266082418888514
 20
0.2739970428127381
 30
0.0
 11
5.266082418888514
 21
0.2742966822865204
 31
0.0
  0
LINE
  5
240
330
2
100
AcDbEntity
  8
0
100
AcDbLine
 10
5.266082418888514
 20
0.2742966822865204
 30
0.0
 11
5.266082418888514
 21
0.2745963217603027
 31
0.0
  0
LINE
  5
241
330
2
100
AcDbEntity
  8
0
100
AcDbLine
 10
5.266082418888514
 20
0.2745963217603027
 30
0.0
 11
5.266082418888514
 21
0.2748959612341042
 31
0.0
  0
LINE
  5
242
330
2
100
AcDbEntity
  8
0
100
AcDbLine
 10
5.266082418888514
 20
0.2748959612341042
 30
0.0
 11
5.266082418888514
 21
0.2751956007078866
 31
0.0
  0
LINE
  5
243
330
2
100
AcDbEntity
  8
0
100
AcDbLine
 10
5.266082418888514
 20
0.2751956007078866
 30
0.0
 11
5.266681697836078
 21
0.2754952401816689
 31
0.0
  0
LINE
  5
244
330
2
100
AcDbEntity
  8
0
100
AcDbLine
 10
5.266681697836078
 20
0.2754952401816689
 30
0.0
 11
5.266681697836078
 21
0.2757948796554512
 31
0.0
  0
LINE
  5
245
330
2
100
AcDbEntity
  8
0
100
AcDbLine
 10
5.266681697836078
 20
0.2757948796554512
 30
0.0
 11
5.266681697836078
 21
0.2760945191292335
 31
0.0
  0
LINE
  5
246
330
2
100
AcDbEntity
  8
0
100
AcDbLine
 10
5.266681697836078
 20
0.2760945191292335
 30
0.0
 11
5.266681697836078
 21
0.2763941586030158
 31
0.0
  0
LINE
  5
247
330
2
100
AcDbEntity
  8
0
100
AcDbLine
 10
5.248403689935204
 20
0.2494266059623584
 30
0.0
 11
4.889135960866817
 21
0.0420760901030422
 31
0.0
  0
LINE
  5
248
330
2
100
AcDbEntity
  8
0
100
AcDbLine
 10
4.889046069024678
 20
0.0419562343135178
 30
0.0
 11
4.82111780031758
 21
0.0045312640377695
 31
0.0
  0
LINE
  5
249
330
2
100
AcDbEntity
  8
0
100
AcDbLine
 10
4.82111780031758
 20
0.0045312640377695
 30
0.0
 11
4.820818160843797
 21
0.0045312640377695
 31
0.0
  0
LINE
  5
24A
330
2
100
AcDbEntity
  8
0
100
AcDbLine
 10
4.820818160843797
 20
0.0045312640377695
 30
0.0
 11
4.819919242422451
 21
0.004231624563968
 31
0.0
  0
LINE
  5
24B
330
2
100
AcDbEntity
  8
0
100
AcDbLine
 10
4.819919242422451
 20
0.004231624563968
 30
0.0
 11
4.819919242422451
 21
0.0039319850901857
 31
0.0
  0
LINE
  5
24C
330
2
100
AcDbEntity
  8
0
100
AcDbLine
 10
4.819919242422451
 20
0.0039319850901857
 30
0.0
 11
4.819619602948669
 21
0.0039319850901857
 31
0.0
  0
LINE
  5
24D
330
2
100
AcDbEntity
  8
0
100
AcDbLine
 10
4.819619602948669
 20
0.0039319850901857
 30
0.0
 11
4.819020324001085
 21
0.0039319850901857
 31
0.0
  0
LINE
  5
24E
330
2
100
AcDbEntity
  8
0
100
AcDbLine
 10
4.819020324001085
 20
0.0039319850901857
 30
0.0
 11
4.819020324001085
 21
0.0036323456164034
 31
0.0
  0
LINE
  5
24F
330
2
100
AcDbEntity
  8
0
100
AcDbLine
 10
4.819020324001085
 20
0.0036323456164034
 30
0.0
 11
4.818720684527303
 21
0.0036323456164034
 31
0.0
  0
LINE
  5
250
330
2
100
AcDbEntity
  8
0
100
AcDbLine
 10
4.818720684527303
 20
0.0036323456164034
 30
0.0
 11
4.818720684527303
 21
0.003332706142621
 31
0.0
  0
LINE
  5
251
330
2
100
AcDbEntity
  8
0
100
AcDbLine
 10
4.818720684527303
 20
0.003332706142621
 30
0.0
 11
4.818121405579738
 21
0.003332706142621
 31
0.0
  0
LINE
  5
252
330
2
100
AcDbEntity
  8
0
100
AcDbLine
 10
4.818121405579738
 20
0.003332706142621
 30
0.0
 11
4.817522126632173
 21
0.0030330666688387
 31
0.0
  0
LINE
  5
253
330
2
100
AcDbEntity
  8
0
100
AcDbLine
 10
4.817522126632173
 20
0.0030330666688387
 30
0.0
 11
4.817222487158391
 21
0.0030330666688387
 31
0.0
  0
LINE
  5
254
330
2
100
AcDbEntity
  8
0
100
AcDbLine
 10
4.817222487158391
 20
0.0030330666688387
 30
0.0
 11
4.817222487158391
 21
0.0027334271950564
 31
0.0
  0
LINE
  5
255
330
2
100
AcDbEntity
  8
0
100
AcDbLine
 10
4.817222487158391
 20
0.0027334271950564
 30
0.0
 11
4.816323568737025
 21
0.0024337877212741
 31
0.0
  0
LINE
  5
256
330
2
100
AcDbEntity
  8
0
100
AcDbLine
 10
4.816323568737025
 20
0.0024337877212741
 30
0.0
 11
4.816023929263242
 21
0.0024337877212741
 31
0.0
  0
LINE
  5
257
330
2
100
AcDbEntity
  8
0
100
AcDbLine
 10
4.816023929263242
 20
0.0024337877212741
 30
0.0
 11
4.81572428978946
 21
0.0021341482474726
 31
0.0
  0
LINE
  5
258
330
2
100
AcDbEntity
  8
0
100
AcDbLine
 10
4.81572428978946
 20
0.0021341482474726
 30
0.0
 11
4.814825371368094
 21
0.0018345087736903
 31
0.0
  0
LINE
  5
259
330
2
100
AcDbEntity
  8
0
100
AcDbLine
 10
4.814825371368094
 20
0.0018345087736903
 30
0.0
 11
4.814525731894311
 21
0.0018345087736903
 31
0.0
  0
LINE
  5
25A
330
2
100
AcDbEntity
  8
0
100
AcDbLine
 10
4.814525731894311
 20
0.0018345087736903
 30
0.0
 11
4.813926452946747
 21
0.001534869299908
 31
0.0
  0
LINE
  5
25B
330
2
100
AcDbEntity
  8
0
100
AcDbLine
 10
4.813926452946747
 20
0.001534869299908
 30
0.0
 11
4.813626813472965
 21
0.001534869299908
 31
0.0
  0
LINE
  5
25C
330
2
100
AcDbEntity
  8
0
100
AcDbLine
 10
4.813626813472965
 20
0.001534869299908
 30
0.0
 11
4.813027534525381
 21
0.001534869299908
 31
0.0
  0
LINE
  5
25D
330
2
100
AcDbEntity
  8
0
100
AcDbLine
 10
4.813027534525381
 20
0.001534869299908
 30
0.0
 11
4.812428255577816
 21
0.0012352298261257
 31
0.0
  0
LINE
  5
25E
330
2
100
AcDbEntity
  8
0
100
AcDbLine
 10
4.812428255577816
 20
0.0012352298261257
 30
0.0
 11
4.812128616104034
 21
0.0012352298261257
 31
0.0
  0
LINE
  5
25F
330
2
100
AcDbEntity
  8
0
100
AcDbLine
 10
4.812128616104034
 20
0.0012352298261257
 30
0.0
 11
4.811828976630252
 21
0.0012352298261257
 31
0.0
  0
LINE
  5
260
330
2
100
AcDbEntity
  8
0
100
AcDbLine
 10
4.811828976630252
 20
0.0012352298261257
 30
0.0
 11
4.811828976630252
 21
0.0009355903523434
 31
0.0
  0
LINE
  5
261
330
2
100
AcDbEntity
  8
0
100
AcDbLine
 10
4.811828976630252
 20
0.0009355903523434
 30
0.0
 11
4.810930058208886
 21
0.0009355903523434
 31
0.0
  0
LINE
  5
262
330
2
100
AcDbEntity
  8
0
100
AcDbLine
 10
4.810930058208886
 20
0.0009355903523434
 30
0.0
 11
4.810630418735104
 21
0.0006359508785611
 31
0.0
  0
LINE
  5
263
330
2
100
AcDbEntity
  8
0
100
AcDbLine
 10
4.810630418735104
 20
0.0006359508785611
 30
0.0
 11
4.810330779261321
 21
0.0006359508785611
 31
0.0
  0
LINE
  5
264
330
2
100
AcDbEntity
  8
0
100
AcDbLine
 10
4.810330779261321
 20
0.0006359508785611
 30
0.0
 11
4.809431860839974
 21
0.0006359508785611
 31
0.0
  0
LINE
  5
265
330
2
100
AcDbEntity
  8
0
100
AcDbLine
 10
4.809431860839974
 20
0.0006359508785611
 30
0.0
 11
4.809132221366192
 21
0.0006359508785611
 31
0.0
  0
LINE
  5
266
330
2
100
AcDbEntity
  8
0
100
AcDbLine
 10
4.809132221366192
 20
0.0006359508785611
 30
0.0
 11
4.80883258189239
 21
0.0006359508785611
 31
0.0
  0
LINE
  5
267
330
2
100
AcDbEntity
  8
0
100
AcDbLine
 10
4.80883258189239
 20
0.0006359508785611
 30
0.0
 11
4.808233302944826
 21
0.0006359508785611
 31
0.0
  0
LINE
  5
268
330
2
100
AcDbEntity
  8
0
100
AcDbLine
 10
4.808233302944826
 20
0.0006359508785611
 30
0.0
 11
4.807634023997261
 21
0.0006359508785611
 31
0.0
  0
LINE
  5
269
330
2
100
AcDbEntity
  8
0
100
AcDbLine
 10
4.807634023997261
 20
0.0006359508785611
 30
0.0
 11
4.807634023997261
 21
0.0003363114047787
 31
0.0
  0
LINE
  5
26A
330
2
100
AcDbEntity
  8
0
100
AcDbLine
 10
4.807634023997261
 20
0.0003363114047787
 30
0.0
 11
4.807034745049696
 21
0.0003363114047787
 31
0.0
  0
LINE
  5
26B
330
2
100
AcDbEntity
  8
0
100
AcDbLine
 10
4.807034745049696
 20
0.0003363114047787
 30
0.0
 11
4.806735105575895
 21
0.0003363114047787
 31
0.0
  0
LINE
  5
26C
330
2
100
AcDbEntity
  8
0
100
AcDbLine
 10
4.806735105575895
 20
0.0003363114047787
 30
0.0
 11
4.806435466102112
 21
0.0003363114047787
 31
0.0
  0
LINE
  5
26D
330
2
100
AcDbEntity
  8
0
100
AcDbLine
 10
4.806435466102112
 20
0.0003363114047787
 30
0.0
 11
4.805836187154548
 21
0.0003363114047787
 31
0.0
  0
LINE
  5
26E
330
2
100
AcDbEntity
  8
0
100
AcDbLine
 10
4.805836187154548
 20
0.0003363114047787
 30
0.0
 11
4.805236908206984
 21
0.0003363114047787
 31
0.0
  0
LINE
  5
26F
330
2
100
AcDbEntity
  8
0
100
AcDbLine
 10
4.805236908206984
 20
0.0003363114047787
 30
0.0
 11
4.804937268733182
 21
0.0000366719309773
 31
0.0
  0
LINE
  5
270
330
2
100
AcDbEntity
  8
0
100
AcDbLine
 10
4.804937268733182
 20
0.0000366719309773
 30
0.0
 11
4.804337989785617
 21
0.0000366719309773
 31
0.0
  0
LINE
  5
271
330
2
100
AcDbEntity
  8
0
100
AcDbLine
 10
4.804337989785617
 20
0.0000366719309773
 30
0.0
 11
4.804038350311835
 21
0.0000366719309773
 31
0.0
  0
LINE
  5
272
330
2
100
AcDbEntity
  8
0
100
AcDbLine
 10
4.804038350311835
 20
0.0000366719309773
 30
0.0
 11
4.803738710838053
 21
0.0000366719309773
 31
0.0
  0
LINE
  5
273
330
2
100
AcDbEntity
  8
0
100
AcDbLine
 10
4.803738710838053
 20
0.0000366719309773
 30
0.0
 11
4.803139431890488
 21
0.0000366719309773
 31
0.0
  0
LINE
  5
274
330
2
100
AcDbEntity
  8
0
100
AcDbLine
 10
4.803139431890488
 20
0.0000366719309773
 30
0.0
 11
4.802540152942905
 21
0.0000366719309773
 31
0.0
  0
LINE
  5
275
330
2
100
AcDbEntity
  8
0
100
AcDbLine
 10
4.802540152942905
 20
0.0000366719309773
 30
0.0
 11
4.80194087399534
 21
0.0000366719309773
 31
0.0
  0
LINE
  5
276
330
2
100
AcDbEntity
  8
0
100
AcDbLine
 10
4.80194087399534
 20
0.0000366719309773
 30
0.0
 11
4.801641234521557
 21
0.0000366719309773
 31
0.0
  0
LINE
  5
277
330
2
100
AcDbEntity
  8
0
100
AcDbLine
 10
4.801641234521557
 20
0.0000366719309773
 30
0.0
 11
4.801641234521557
 21
0.0003363114047787
 31
0.0
  0
LINE
  5
278
330
2
100
AcDbEntity
  8
0
100
AcDbLine
 10
4.801641234521557
 20
0.0003363114047787
 30
0.0
 11
4.801341595047775
 21
0.0003363114047787
 31
0.0
  0
LINE
  5
279
330
2
100
AcDbEntity
  8
0
100
AcDbLine
 10
4.801341595047775
 20
0.0003363114047787
 30
0.0
 11
4.800742316100191
 21
0.0003363114047787
 31
0.0
  0
LINE
  5
27A
330
2
100
AcDbEntity
  8
0
100
AcDbLine
 10
4.800742316100191
 20
0.0003363114047787
 30
0.0
 11
4.800143037152627
 21
0.0003363114047787
 31
0.0
  0
LINE
  5
27B
330
2
100
AcDbEntity
  8
0
100
AcDbLine
 10
4.800143037152627
 20
0.0003363114047787
 30
0.0
 11
4.799843397678844
 21
0.0003363114047787
 31
0.0
  0
LINE
  5
27C
330
2
100
AcDbEntity
  8
0
100
AcDbLine
 10
4.799843397678844
 20
0.0003363114047787
 30
0.0
 11
4.798944479257497
 21
0.0003363114047787
 31
0.0
  0
LINE
  5
27D
330
2
100
AcDbEntity
  8
0
100
AcDbLine
 10
4.798944479257497
 20
0.0003363114047787
 30
0.0
 11
4.798644839783696
 21
0.0006359508785611
 31
0.0
  0
LINE
  5
27E
330
2
100
AcDbEntity
  8
0
100
AcDbLine
 10
4.798644839783696
 20
0.0006359508785611
 30
0.0
 11
4.798345200309913
 21
0.0006359508785611
 31
0.0
  0
LINE
  5
27F
330
2
100
AcDbEntity
  8
0
100
AcDbLine
 10
4.798345200309913
 20
0.0006359508785611
 30
0.0
 11
4.797745921362349
 21
0.0006359508785611
 31
0.0
  0
LINE
  5
280
330
2
100
AcDbEntity
  8
0
100
AcDbLine
 10
4.797745921362349
 20
0.0006359508785611
 30
0.0
 11
4.797146642414785
 21
0.0006359508785611
 31
0.0
  0
LINE
  5
281
330
2
100
AcDbEntity
  8
0
100
AcDbLine
 10
4.797146642414785
 20
0.0006359508785611
 30
0.0
 11
4.7965473634672
 21
0.0006359508785611
 31
0.0
  0
LINE
  5
282
330
2
100
AcDbEntity
  8
0
100
AcDbLine
 10
4.7965473634672
 20
0.0006359508785611
 30
0.0
 11
4.796247723993418
 21
0.0006359508785611
 31
0.0
  0
LINE
  5
283
330
2
100
AcDbEntity
  8
0
100
AcDbLine
 10
4.796247723993418
 20
0.0006359508785611
 30
0.0
 11
4.795948084519635
 21
0.0006359508785611
 31
0.0
  0
LINE
  5
284
330
2
100
AcDbEntity
  8
0
100
AcDbLine
 10
4.795948084519635
 20
0.0006359508785611
 30
0.0
 11
4.795348805572071
 21
0.0006359508785611
 31
0.0
  0
LINE
  5
285
330
2
100
AcDbEntity
  8
0
100
AcDbLine
 10
4.795348805572071
 20
0.0006359508785611
 30
0.0
 11
4.795348805572071
 21
0.0009355903523434
 31
0.0
  0
LINE
  5
286
330
2
100
AcDbEntity
  8
0
100
AcDbLine
 10
4.795348805572071
 20
0.0009355903523434
 30
0.0
 11
4.794749526624487
 21
0.0009355903523434
 31
0.0
  0
LINE
  5
287
330
2
100
AcDbEntity
  8
0
100
AcDbLine
 10
4.794749526624487
 20
0.0009355903523434
 30
0.0
 11
4.794449887150705
 21
0.0012352298261257
 31
0.0
  0
LINE
  5
288
330
2
100
AcDbEntity
  8
0
100
AcDbLine
 10
4.794449887150705
 20
0.0012352298261257
 30
0.0
 11
4.793850608203141
 21
0.0012352298261257
 31
0.0
  0
LINE
  5
289
330
2
100
AcDbEntity
  8
0
100
AcDbLine
 10
4.793850608203141
 20
0.0012352298261257
 30
0.0
 11
4.793251329255576
 21
0.0012352298261257
 31
0.0
  0
LINE
  5
28A
330
2
100
AcDbEntity
  8
0
100
AcDbLine
 10
4.793251329255576
 20
0.0012352298261257
 30
0.0
 11
4.792951689781793
 21
0.001534869299908
 31
0.0
  0
LINE
  5
28B
330
2
100
AcDbEntity
  8
0
100
AcDbLine
 10
4.792951689781793
 20
0.001534869299908
 30
0.0
 11
4.79235241083421
 21
0.001534869299908
 31
0.0
  0
LINE
  5
28C
330
2
100
AcDbEntity
  8
0
100
AcDbLine
 10
4.79235241083421
 20
0.001534869299908
 30
0.0
 11
4.792052771360427
 21
0.001534869299908
 31
0.0
  0
LINE
  5
28D
330
2
100
AcDbEntity
  8
0
100
AcDbLine
 10
4.792052771360427
 20
0.001534869299908
 30
0.0
 11
4.791453492412863
 21
0.0018345087736903
 31
0.0
  0
LINE
  5
28E
330
2
100
AcDbEntity
  8
0
100
AcDbLine
 10
4.791453492412863
 20
0.0018345087736903
 30
0.0
 11
4.79115385293908
 21
0.0018345087736903
 31
0.0
  0
LINE
  5
28F
330
2
100
AcDbEntity
  8
0
100
AcDbLine
 10
4.79115385293908
 20
0.0018345087736903
 30
0.0
 11
4.790854213465298
 21
0.0018345087736903
 31
0.0
  0
LINE
  5
290
330
2
100
AcDbEntity
  8
0
100
AcDbLine
 10
4.790854213465298
 20
0.0018345087736903
 30
0.0
 11
4.790254934517714
 21
0.0021341482474726
 31
0.0
  0
LINE
  5
291
330
2
100
AcDbEntity
  8
0
100
AcDbLine
 10
4.790254934517714
 20
0.0021341482474726
 30
0.0
 11
4.789655655570149
 21
0.0024337877212741
 31
0.0
  0
LINE
  5
292
330
2
100
AcDbEntity
  8
0
100
AcDbLine
 10
4.789655655570149
 20
0.0024337877212741
 30
0.0
 11
4.789356016096367
 21
0.0024337877212741
 31
0.0
  0
LINE
  5
293
330
2
100
AcDbEntity
  8
0
100
AcDbLine
 10
4.789356016096367
 20
0.0024337877212741
 30
0.0
 11
4.788756737148803
 21
0.0024337877212741
 31
0.0
  0
LINE
  5
294
330
2
100
AcDbEntity
  8
0
100
AcDbLine
 10
4.788756737148803
 20
0.0024337877212741
 30
0.0
 11
4.788157458201219
 21
0.0027334271950564
 31
0.0
  0
LINE
  5
295
330
2
100
AcDbEntity
  8
0
100
AcDbLine
 10
4.788157458201219
 20
0.0027334271950564
 30
0.0
 11
4.787857818727436
 21
0.0030330666688387
 31
0.0
  0
LINE
  5
296
330
2
100
AcDbEntity
  8
0
100
AcDbLine
 10
4.787857818727436
 20
0.0030330666688387
 30
0.0
 11
4.787258539779872
 21
0.0030330666688387
 31
0.0
  0
LINE
  5
297
330
2
100
AcDbEntity
  8
0
100
AcDbLine
 10
4.787258539779872
 20
0.0030330666688387
 30
0.0
 11
4.786659260832288
 21
0.0030330666688387
 31
0.0
  0
LINE
  5
298
330
2
100
AcDbEntity
  8
0
100
AcDbLine
 10
4.786659260832288
 20
0.0030330666688387
 30
0.0
 11
4.786059981884724
 21
0.003332706142621
 31
0.0
  0
LINE
  5
299
330
2
100
AcDbEntity
  8
0
100
AcDbLine
 10
4.786059981884724
 20
0.003332706142621
 30
0.0
 11
4.785760342410942
 21
0.003332706142621
 31
0.0
  0
LINE
  5
29A
330
2
100
AcDbEntity
  8
0
100
AcDbLine
 10
4.785760342410942
 20
0.003332706142621
 30
0.0
 11
4.785760342410942
 21
0.0036323456164034
 31
0.0
  0
LINE
  5
29B
330
2
100
AcDbEntity
  8
0
100
AcDbLine
 10
4.785760342410942
 20
0.0036323456164034
 30
0.0
 11
4.785460702937159
 21
0.0036323456164034
 31
0.0
  0
LINE
  5
29C
330
2
100
AcDbEntity
  8
0
100
AcDbLine
 10
4.785460702937159
 20
0.0036323456164034
 30
0.0
 11
4.784861423989594
 21
0.0039319850901857
 31
0.0
  0
LINE
  5
29D
330
2
100
AcDbEntity
  8
0
100
AcDbLine
 10
4.784861423989594
 20
0.0039319850901857
 30
0.0
 11
4.784262145042011
 21
0.0039319850901857
 31
0.0
  0
LINE
  5
29E
330
2
100
AcDbEntity
  8
0
100
AcDbLine
 10
4.784262145042011
 20
0.0039319850901857
 30
0.0
 11
4.783962505568228
 21
0.0039319850901857
 31
0.0
  0
LINE
  5
29F
330
2
100
AcDbEntity
  8
0
100
AcDbLine
 10
4.783962505568228
 20
0.0039319850901857
 30
0.0
 11
4.783363226620664
 21
0.0045312640377695
 31
0.0
  0
LINE
  5
2A0
330
2
100
AcDbEntity
  8
0
100
AcDbLine
 10
4.783363226620664
 20
0.0045312640377695
 30
0.0
 11
4.782763947673099
 21
0.0045312640377695
 31
0.0
  0
LINE
  5
2A1
330
2
100
AcDbEntity
  8
0
100
AcDbLine
 10
4.782763947673099
 20
0.0045312640377695
 30
0.0
 11
4.782464308199298
 21
0.0045312640377695
 31
0.0
  0
LINE
  5
2A2
330
2
100
AcDbEntity
  8
0
100
AcDbLine
 10
4.782464308199298
 20
0.0045312640377695
 30
0.0
 11
4.781865029251733
 21
0.0051305429853341
 31
0.0
  0
LINE
  5
2A3
330
2
100
AcDbEntity
  8
0
100
AcDbLine
 10
4.781865029251733
 20
0.0051305429853341
 30
0.0
 11
4.78156538977795
 21
0.0051305429853341
 31
0.0
  0
LINE
  5
2A4
330
2
100
AcDbEntity
  8
0
100
AcDbLine
 10
4.78156538977795
 20
0.0051305429853341
 30
0.0
 11
4.780666471356604
 21
0.0054301824591164
 31
0.0
  0
LINE
  5
2A5
330
2
100
AcDbEntity
  8
0
100
AcDbLine
 10
4.780666471356604
 20
0.0054301824591164
 30
0.0
 11
4.780366831882802
 21
0.0054301824591164
 31
0.0
  0
LINE
  5
2A6
330
2
100
AcDbEntity
  8
0
100
AcDbLine
 10
4.780366831882802
 20
0.0054301824591164
 30
0.0
 11
4.78006719240902
 21
0.0057298219328987
 31
0.0
  0
LINE
  5
2A7
330
2
100
AcDbEntity
  8
0
100
AcDbLine
 10
4.78006719240902
 20
0.0057298219328987
 30
0.0
 11
4.779767552935237
 21
0.006029461406681
 31
0.0
  0
LINE
  5
2A8
330
2
100
AcDbEntity
  8
0
100
AcDbLine
 10
4.779767552935237
 20
0.006029461406681
 30
0.0
 11
4.779168273987673
 21
0.0063291008804825
 31
0.0
  0
LINE
  5
2A9
330
2
100
AcDbEntity
  8
0
100
AcDbLine
 10
4.779168273987673
 20
0.0063291008804825
 30
0.0
 11
4.778868634513891
 21
0.0066287403542648
 31
0.0
  0
LINE
  5
2AA
330
2
100
AcDbEntity
  8
0
100
AcDbLine
 10
4.778868634513891
 20
0.0066287403542648
 30
0.0
 11
4.778269355566306
 21
0.0066287403542648
 31
0.0
  0
LINE
  5
2AB
330
2
100
AcDbEntity
  8
0
100
AcDbLine
 10
4.778269355566306
 20
0.0066287403542648
 30
0.0
 11
4.777670076618742
 21
0.0069283798280471
 31
0.0
  0
LINE
  5
2AC
330
2
100
AcDbEntity
  8
0
100
AcDbLine
 10
4.777670076618742
 20
0.0069283798280471
 30
0.0
 11
4.77737043714496
 21
0.0072280193018295
 31
0.0
  0
LINE
  5
2AD
330
2
100
AcDbEntity
  8
0
100
AcDbLine
 10
4.77737043714496
 20
0.0072280193018295
 30
0.0
 11
4.776771158197395
 21
0.0072280193018295
 31
0.0
  0
LINE
  5
2AE
330
2
100
AcDbEntity
  8
0
100
AcDbLine
 10
4.776771158197395
 20
0.0072280193018295
 30
0.0
 11
4.776771158197395
 21
0.0075276587756118
 31
0.0
  0
LINE
  5
2AF
330
2
100
AcDbEntity
  8
0
100
AcDbLine
 10
4.776771158197395
 20
0.0075276587756118
 30
0.0
 11
4.776471518723593
 21
0.0078272982493941
 31
0.0
  0
LINE
  5
2B0
330
2
100
AcDbEntity
  8
0
100
AcDbLine
 10
4.776471518723593
 20
0.0078272982493941
 30
0.0
 11
4.775572600302247
 21
0.0081269377231764
 31
0.0
  0
LINE
  5
2B1
330
2
100
AcDbEntity
  8
0
100
AcDbLine
 10
4.775572600302247
 20
0.0081269377231764
 30
0.0
 11
4.775272960828464
 21
0.0081269377231764
 31
0.0
  0
LINE
  5
2B2
330
2
100
AcDbEntity
  8
0
100
AcDbLine
 10
4.775272960828464
 20
0.0081269377231764
 30
0.0
 11
4.774973321354682
 21
0.0087262166707602
 31
0.0
  0
LINE
  5
2B3
330
2
100
AcDbEntity
  8
0
100
AcDbLine
 10
4.774973321354682
 20
0.0087262166707602
 30
0.0
 11
4.774374042407099
 21
0.0087262166707602
 31
0.0
  0
LINE
  5
2B4
330
2
100
AcDbEntity
  8
0
100
AcDbLine
 10
4.774374042407099
 20
0.0087262166707602
 30
0.0
 11
4.773774763459534
 21
0.0090258561445425
 31
0.0
  0
LINE
  5
2B5
330
2
100
AcDbEntity
  8
0
100
AcDbLine
 10
4.773774763459534
 20
0.0090258561445425
 30
0.0
 11
4.773475123985751
 21
0.0093254956183248
 31
0.0
  0
LINE
  5
2B6
330
2
100
AcDbEntity
  8
0
100
AcDbLine
 10
3.048366921184201
 20
1.031099289071158
 30
0.0
 11
45.17637750323518
 21
25.35104259508599
 31
0.0
  0
LINE
  5
2B7
330
2
100
AcDbEntity
  8
0
100
AcDbLine
 10
3.098760141053182
 20
0.9759924019965591
 30
0.0
 11
3.098160862105617
 21
0.9762920414703415
 31
0.0
  0
LINE
  5
2B8
330
2
100
AcDbEntity
  8
0
100
AcDbLine
 10
3.098160862105617
 20
0.9762920414703415
 30
0.0
 11
3.097561583158053
 21
0.9762920414703415
 31
0.0
  0
LINE
  5
2B9
330
2
100
AcDbEntity
  8
0
100
AcDbLine
 10
3.097561583158053
 20
0.9762920414703415
 30
0.0
 11
3.09726194368427
 21
0.976591680944143
 31
0.0
  0
LINE
  5
2BA
330
2
100
AcDbEntity
  8
0
100
AcDbLine
 10
3.09726194368427
 20
0.976591680944143
 30
0.0
 11
3.09726194368427
 21
0.9768913204179254
 31
0.0
  0
LINE
  5
2BB
330
2
100
AcDbEntity
  8
0
100
AcDbLine
 10
3.09726194368427
 20
0.9768913204179254
 30
0.0
 11
3.096662664736686
 21
0.9771909598917076
 31
0.0
  0
LINE
  5
2BC
330
2
100
AcDbEntity
  8
0
100
AcDbLine
 10
3.096662664736686
 20
0.9771909598917076
 30
0.0
 11
3.096363025262904
 21
0.9774905993654899
 31
0.0
  0
LINE
  5
2BD
330
2
100
AcDbEntity
  8
0
100
AcDbLine
 10
3.096363025262904
 20
0.9774905993654899
 30
0.0
 11
3.09576374631534
 21
0.9777902388392723
 31
0.0
  0
LINE
  5
2BE
330
2
100
AcDbEntity
  8
0
100
AcDbLine
 10
3.09576374631534
 20
0.9777902388392723
 30
0.0
 11
3.095164467367775
 21
0.9780898783130545
 31
0.0
  0
LINE
  5
2BF
330
2
100
AcDbEntity
  8
0
100
AcDbLine
 10
3.095164467367775
 20
0.9780898783130545
 30
0.0
 11
3.094864827893993
 21
0.978389517786837
 31
0.0
  0
LINE
  5
2C0
330
2
100
AcDbEntity
  8
0
100
AcDbLine
 10
3.094864827893993
 20
0.978389517786837
 30
0.0
 11
3.093965909472626
 21
0.9789887967344206
 31
0.0
  0
LINE
  5
2C1
330
2
100
AcDbEntity
  8
0
100
AcDbLine
 10
3.093965909472626
 20
0.9789887967344206
 30
0.0
 11
3.093666269998844
 21
0.979288436208203
 31
0.0
  0
LINE
  5
2C2
330
2
100
AcDbEntity
  8
0
100
AcDbLine
 10
3.093666269998844
 20
0.979288436208203
 30
0.0
 11
3.09306699105128
 21
0.9795880756819853
 31
0.0
  0
LINE
  5
2C3
330
2
100
AcDbEntity
  8
0
100
AcDbLine
 10
3.09306699105128
 20
0.9795880756819853
 30
0.0
 11
3.092767351577497
 21
0.9798877151557675
 31
0.0
  0
LINE
  5
2C4
330
2
100
AcDbEntity
  8
0
100
AcDbLine
 10
3.092767351577497
 20
0.9798877151557675
 30
0.0
 11
3.092168072629914
 21
0.98018735462955
 31
0.0
  0
LINE
  5
2C5
330
2
100
AcDbEntity
  8
0
100
AcDbLine
 10
3.092168072629914
 20
0.98018735462955
 30
0.0
 11
3.091568793682349
 21
0.9804869941033322
 31
0.0
  0
LINE
  5
2C6
330
2
100
AcDbEntity
  8
0
100
AcDbLine
 10
3.091568793682349
 20
0.9804869941033322
 30
0.0
 11
3.091269154208566
 21
0.9807866335771338
 31
0.0
  0
LINE
  5
2C7
330
2
100
AcDbEntity
  8
0
100
AcDbLine
 10
3.091269154208566
 20
0.9807866335771338
 30
0.0
 11
3.091269154208566
 21
0.981086273050916
 31
0.0
  0
LINE
  5
2C8
330
2
100
AcDbEntity
  8
0
100
AcDbLine
 10
3.091269154208566
 20
0.981086273050916
 30
0.0
 11
3.090669875260983
 21
0.9813859125246985
 31
0.0
  0
LINE
  5
2C9
330
2
100
AcDbEntity
  8
0
100
AcDbLine
 10
3.090669875260983
 20
0.9813859125246985
 30
0.0
 11
3.090070596313418
 21
0.9816855519984807
 31
0.0
  0
LINE
  5
2CA
330
2
100
AcDbEntity
  8
0
100
AcDbLine
 10
3.090070596313418
 20
0.9816855519984807
 30
0.0
 11
3.089770956839636
 21
0.9819851914722629
 31
0.0
  0
LINE
  5
2CB
330
2
100
AcDbEntity
  8
0
100
AcDbLine
 10
3.089770956839636
 20
0.9819851914722629
 30
0.0
 11
3.089471317365854
 21
0.9822848309460454
 31
0.0
  0
LINE
  5
2CC
330
2
100
AcDbEntity
  8
0
100
AcDbLine
 10
3.089471317365854
 20
0.9822848309460454
 30
0.0
 11
3.088572398944487
 21
0.9825844704198276
 31
0.0
  0
LINE
  5
2CD
330
2
100
AcDbEntity
  8
0
100
AcDbLine
 10
3.088572398944487
 20
0.9825844704198276
 30
0.0
 11
3.088272759470705
 21
0.982884109893629
 31
0.0
  0
LINE
  5
2CE
330
2
100
AcDbEntity
  8
0
100
AcDbLine
 10
3.088272759470705
 20
0.982884109893629
 30
0.0
 11
3.088272759470705
 21
0.9831837493674115
 31
0.0
  0
LINE
  5
2CF
330
2
100
AcDbEntity
  8
0
100
AcDbLine
 10
3.088272759470705
 20
0.9831837493674115
 30
0.0
 11
3.08767348052314
 21
0.9834833888411937
 31
0.0
  0
LINE
  5
2D0
330
2
100
AcDbEntity
  8
0
100
AcDbLine
 10
3.08767348052314
 20
0.9834833888411937
 30
0.0
 11
3.087373841049358
 21
0.9837830283149761
 31
0.0
  0
LINE
  5
2D1
330
2
100
AcDbEntity
  8
0
100
AcDbLine
 10
3.087373841049358
 20
0.9837830283149761
 30
0.0
 11
3.086774562101794
 21
0.9840826677887584
 31
0.0
  0
LINE
  5
2D2
330
2
100
AcDbEntity
  8
0
100
AcDbLine
 10
3.086774562101794
 20
0.9840826677887584
 30
0.0
 11
3.08617528315421
 21
0.9843823072625406
 31
0.0
  0
LINE
  5
2D3
330
2
100
AcDbEntity
  8
0
100
AcDbLine
 10
3.08617528315421
 20
0.9843823072625406
 30
0.0
 11
3.085875643680427
 21
0.984681946736323
 31
0.0
  0
LINE
  5
2D4
330
2
100
AcDbEntity
  8
0
100
AcDbLine
 10
3.085875643680427
 20
0.984681946736323
 30
0.0
 11
3.085276364732863
 21
0.9849815862101245
 31
0.0
  0
LINE
  5
2D5
330
2
100
AcDbEntity
  8
0
100
AcDbLine
 10
3.085276364732863
 20
0.9849815862101245
 30
0.0
 11
3.085276364732863
 21
0.9855808651576891
 31
0.0
  0
LINE
  5
2D6
330
2
100
AcDbEntity
  8
0
100
AcDbLine
 10
3.085276364732863
 20
0.9855808651576891
 30
0.0
 11
3.084677085785298
 21
0.9855808651576891
 31
0.0
  0
LINE
  5
2D7
330
2
100
AcDbEntity
  8
0
100
AcDbLine
 10
3.084677085785298
 20
0.9855808651576891
 30
0.0
 11
3.084377446311497
 21
0.9861801441052538
 31
0.0
  0
LINE
  5
2D8
330
2
100
AcDbEntity
  8
0
100
AcDbLine
 10
3.084377446311497
 20
0.9861801441052538
 30
0.0
 11
3.084077806837714
 21
0.986479783579036
 31
0.0
  0
LINE
  5
2D9
330
2
100
AcDbEntity
  8
0
100
AcDbLine
 10
3.084077806837714
 20
0.986479783579036
 30
0.0
 11
3.083178888416367
 21
0.9867794230528376
 31
0.0
  0
LINE
  5
2DA
330
2
100
AcDbEntity
  8
0
100
AcDbLine
 10
3.083178888416367
 20
0.9867794230528376
 30
0.0
 11
3.082879248942585
 21
0.9870790625266199
 31
0.0
  0
LINE
  5
2DB
330
2
100
AcDbEntity
  8
0
100
AcDbLine
 10
3.082879248942585
 20
0.9870790625266199
 30
0.0
 11
3.082279969995001
 21
0.9873787020004021
 31
0.0
  0
LINE
  5
2DC
330
2
100
AcDbEntity
  8
0
100
AcDbLine
 10
3.082279969995001
 20
0.9873787020004021
 30
0.0
 11
3.082279969995001
 21
0.9876783414741845
 31
0.0
  0
LINE
  5
2DD
330
2
100
AcDbEntity
  8
0
100
AcDbLine
 10
3.082279969995001
 20
0.9876783414741845
 30
0.0
 11
3.082279969995001
 21
0.9882776204217492
 31
0.0
  0
LINE
  5
2DE
330
2
100
AcDbEntity
  8
0
100
AcDbLine
 10
3.082279969995001
 20
0.9882776204217492
 30
0.0
 11
3.081680691047437
 21
0.9885772598955314
 31
0.0
  0
LINE
  5
2DF
330
2
100
AcDbEntity
  8
0
100
AcDbLine
 10
3.081680691047437
 20
0.9885772598955314
 30
0.0
 11
3.081081412099872
 21
0.9888768993693329
 31
0.0
  0
LINE
  5
2E0
330
2
100
AcDbEntity
  8
0
100
AcDbLine
 10
3.081081412099872
 20
0.9888768993693329
 30
0.0
 11
3.08078177262609
 21
0.9891765388431153
 31
0.0
  0
LINE
  5
2E1
330
2
100
AcDbEntity
  8
0
100
AcDbLine
 10
3.08078177262609
 20
0.9891765388431153
 30
0.0
 11
3.080182493678506
 21
0.9894761783168975
 31
0.0
  0
LINE
  5
2E2
330
2
100
AcDbEntity
  8
0
100
AcDbLine
 10
3.080182493678506
 20
0.9894761783168975
 30
0.0
 11
3.080182493678506
 21
0.9897758177906798
 31
0.0
  0
LINE
  5
2E3
330
2
100
AcDbEntity
  8
0
100
AcDbLine
 10
3.080182493678506
 20
0.9897758177906798
 30
0.0
 11
3.079583214730941
 21
0.9903750967382444
 31
0.0
  0
LINE
  5
2E4
330
2
100
AcDbEntity
  8
0
100
AcDbLine
 10
3.079583214730941
 20
0.9903750967382444
 30
0.0
 11
3.079283575257159
 21
0.9906747362120269
 31
0.0
  0
LINE
  5
2E5
330
2
100
AcDbEntity
  8
0
100
AcDbLine
 10
3.079283575257159
 20
0.9906747362120269
 30
0.0
 11
3.078983935783377
 21
0.9909743756858283
 31
0.0
  0
LINE
  5
2E6
330
2
100
AcDbEntity
  8
0
100
AcDbLine
 10
3.078983935783377
 20
0.9909743756858283
 30
0.0
 11
3.078085017362011
 21
0.9915736546333929
 31
0.0
  0
LINE
  5
2E7
330
2
100
AcDbEntity
  8
0
100
AcDbLine
 10
3.078085017362011
 20
0.9915736546333929
 30
0.0
 11
3.077785377888228
 21
0.9918732941071752
 31
0.0
  0
LINE
  5
2E8
330
2
100
AcDbEntity
  8
0
100
AcDbLine
 10
3.077785377888228
 20
0.9918732941071752
 30
0.0
 11
3.077785377888228
 21
0.9921729335809576
 31
0.0
  0
LINE
  5
2E9
330
2
100
AcDbEntity
  8
0
100
AcDbLine
 10
3.077785377888228
 20
0.9921729335809576
 30
0.0
 11
3.077186098940664
 21
0.9924725730547399
 31
0.0
  0
LINE
  5
2EA
330
2
100
AcDbEntity
  8
0
100
AcDbLine
 10
3.077186098940664
 20
0.9924725730547399
 30
0.0
 11
3.076886459466881
 21
0.9930718520023235
 31
0.0
  0
LINE
  5
2EB
330
2
100
AcDbEntity
  8
0
100
AcDbLine
 10
3.076886459466881
 20
0.9930718520023235
 30
0.0
 11
3.076287180519297
 21
0.9933714914761059
 31
0.0
  0
LINE
  5
2EC
330
2
100
AcDbEntity
  8
0
100
AcDbLine
 10
3.076287180519297
 20
0.9933714914761059
 30
0.0
 11
3.075687901571733
 21
0.9936711309498884
 31
0.0
  0
LINE
  5
2ED
330
2
100
AcDbEntity
  8
0
100
AcDbLine
 10
3.075687901571733
 20
0.9936711309498884
 30
0.0
 11
3.075687901571733
 21
0.9942704098974529
 31
0.0
  0
LINE
  5
2EE
330
2
100
AcDbEntity
  8
0
100
AcDbLine
 10
3.075687901571733
 20
0.9942704098974529
 30
0.0
 11
3.075388262097951
 21
0.9945700493712353
 31
0.0
  0
LINE
  5
2EF
330
2
100
AcDbEntity
  8
0
100
AcDbLine
 10
3.075388262097951
 20
0.9945700493712353
 30
0.0
 11
3.074788983150386
 21
0.9948696888450367
 31
0.0
  0
LINE
  5
2F0
330
2
100
AcDbEntity
  8
0
100
AcDbLine
 10
3.074788983150386
 20
0.9948696888450367
 30
0.0
 11
3.074189704202802
 21
0.9951693283188189
 31
0.0
  0
LINE
  5
2F1
330
2
100
AcDbEntity
  8
0
100
AcDbLine
 10
3.074189704202802
 20
0.9951693283188189
 30
0.0
 11
3.07389006472902
 21
0.9954689677926012
 31
0.0
  0
LINE
  5
2F2
330
2
100
AcDbEntity
  8
0
100
AcDbLine
 10
3.07389006472902
 20
0.9954689677926012
 30
0.0
 11
3.073590425255237
 21
0.996068246740166
 31
0.0
  0
LINE
  5
2F3
330
2
100
AcDbEntity
  8
0
100
AcDbLine
 10
3.073590425255237
 20
0.996068246740166
 30
0.0
 11
3.073590425255237
 21
0.9963678862139483
 31
0.0
  0
LINE
  5
2F4
330
2
100
AcDbEntity
  8
0
100
AcDbLine
 10
3.073590425255237
 20
0.9963678862139483
 30
0.0
 11
3.072991146307673
 21
0.9969671651615319
 31
0.0
  0
LINE
  5
2F5
330
2
100
AcDbEntity
  8
0
100
AcDbLine
 10
3.072991146307673
 20
0.9969671651615319
 30
0.0
 11
3.072391867360089
 21
0.9972668046353144
 31
0.0
  0
LINE
  5
2F6
330
2
100
AcDbEntity
  8
0
100
AcDbLine
 10
3.072391867360089
 20
0.9972668046353144
 30
0.0
 11
3.071792588412524
 21
0.997866083582879
 31
0.0
  0
LINE
  5
2F7
330
2
100
AcDbEntity
  8
0
100
AcDbLine
 10
3.071792588412524
 20
0.997866083582879
 30
0.0
 11
3.071492948938742
 21
0.9981657230566613
 31
0.0
  0
LINE
  5
2F8
330
2
100
AcDbEntity
  8
0
100
AcDbLine
 10
3.071492948938742
 20
0.9981657230566613
 30
0.0
 11
3.071492948938742
 21
0.9984653625304435
 31
0.0
  0
LINE
  5
2F9
330
2
100
AcDbEntity
  8
0
100
AcDbLine
 10
3.071492948938742
 20
0.9984653625304435
 30
0.0
 11
3.070893669991177
 21
0.9987650020042259
 31
0.0
  0
LINE
  5
2FA
330
2
100
AcDbEntity
  8
0
100
AcDbLine
 10
3.070893669991177
 20
0.9987650020042259
 30
0.0
 11
3.070594030517395
 21
0.9993642809518096
 31
0.0
  0
LINE
  5
2FB
330
2
100
AcDbEntity
  8
0
100
AcDbLine
 10
3.070594030517395
 20
0.9993642809518096
 30
0.0
 11
3.069994751569812
 21
0.999663920425592
 31
0.0
  0
LINE
  5
2FC
330
2
100
AcDbEntity
  8
0
100
AcDbLine
 10
3.069994751569812
 20
0.999663920425592
 30
0.0
 11
3.069994751569812
 21
1.000263199373156
 31
0.0
  0
LINE
  5
2FD
330
2
100
AcDbEntity
  8
0
100
AcDbLine
 10
3.069994751569812
 20
1.000263199373156
 30
0.0
 11
3.069695112096029
 21
1.000562838846938
 31
0.0
  0
LINE
  5
2FE
330
2
100
AcDbEntity
  8
0
100
AcDbLine
 10
3.069695112096029
 20
1.000562838846938
 30
0.0
 11
3.069095833148464
 21
1.001162117794522
 31
0.0
  0
LINE
  5
2FF
330
2
100
AcDbEntity
  8
0
100
AcDbLine
 10
3.069095833148464
 20
1.001162117794522
 30
0.0
 11
3.068796193674682
 21
1.001461757268305
 31
0.0
  0
LINE
  5
300
330
2
100
AcDbEntity
  8
0
100
AcDbLine
 10
3.068796193674682
 20
1.001461757268305
 30
0.0
 11
3.0684965542009
 21
1.001761396742087
 31
0.0
  0
LINE
  5
301
330
2
100
AcDbEntity
  8
0
100
AcDbLine
 10
3.0684965542009
 20
1.001761396742087
 30
0.0
 11
3.0684965542009
 21
1.002360675689652
 31
0.0
  0
LINE
  5
302
330
2
100
AcDbEntity
  8
0
100
AcDbLine
 10
3.0684965542009
 20
1.002360675689652
 30
0.0
 11
3.067897275253316
 21
1.002660315163434
 31
0.0
  0
LINE
  5
303
330
2
100
AcDbEntity
  8
0
100
AcDbLine
 10
3.067897275253316
 20
1.002660315163434
 30
0.0
 11
3.067297996305752
 21
1.003259594111018
 31
0.0
  0
LINE
  5
304
330
2
100
AcDbEntity
  8
0
100
AcDbLine
 10
3.067297996305752
 20
1.003259594111018
 30
0.0
 11
3.066698717358187
 21
1.0035592335848
 31
0.0
  0
LINE
  5
305
330
2
100
AcDbEntity
  8
0
100
AcDbLine
 10
3.066698717358187
 20
1.0035592335848
 30
0.0
 11
3.066698717358187
 21
1.004158512532365
 31
0.0
  0
LINE
  5
306
330
2
100
AcDbEntity
  8
0
100
AcDbLine
 10
3.066698717358187
 20
1.004158512532365
 30
0.0
 11
3.066399077884404
 21
1.004458152006147
 31
0.0
  0
LINE
  5
307
330
2
100
AcDbEntity
  8
0
100
AcDbLine
 10
3.066399077884404
 20
1.004458152006147
 30
0.0
 11
3.065799798936821
 21
1.004757791479929
 31
0.0
  0
LINE
  5
308
330
2
100
AcDbEntity
  8
0
100
AcDbLine
 10
3.065799798936821
 20
1.004757791479929
 30
0.0
 11
3.065500159463038
 21
1.005357070427513
 31
0.0
  0
LINE
  5
309
330
2
100
AcDbEntity
  8
0
100
AcDbLine
 10
3.065500159463038
 20
1.005357070427513
 30
0.0
 11
3.065500159463038
 21
1.005956349375078
 31
0.0
  0
LINE
  5
30A
330
2
100
AcDbEntity
  8
0
100
AcDbLine
 10
3.065500159463038
 20
1.005956349375078
 30
0.0
 11
3.064900880515474
 21
1.00625598884886
 31
0.0
  0
LINE
  5
30B
330
2
100
AcDbEntity
  8
0
100
AcDbLine
 10
3.064900880515474
 20
1.00625598884886
 30
0.0
 11
3.06430160156789
 21
1.006855267796425
 31
0.0
  0
LINE
  5
30C
330
2
100
AcDbEntity
  8
0
100
AcDbLine
 10
3.06430160156789
 20
1.006855267796425
 30
0.0
 11
3.063702322620325
 21
1.007154907270226
 31
0.0
  0
LINE
  5
30D
330
2
100
AcDbEntity
  8
0
100
AcDbLine
 10
3.063702322620325
 20
1.007154907270226
 30
0.0
 11
3.063702322620325
 21
1.007754186217791
 31
0.0
  0
LINE
  5
30E
330
2
100
AcDbEntity
  8
0
100
AcDbLine
 10
3.063702322620325
 20
1.007754186217791
 30
0.0
 11
3.063402683146543
 21
1.008053825691573
 31
0.0
  0
LINE
  5
30F
330
2
100
AcDbEntity
  8
0
100
AcDbLine
 10
3.063402683146543
 20
1.008053825691573
 30
0.0
 11
3.063103043672761
 21
1.008353465165355
 31
0.0
  0
LINE
  5
310
330
2
100
AcDbEntity
  8
0
100
AcDbLine
 10
3.063103043672761
 20
1.008353465165355
 30
0.0
 11
3.062503764725196
 21
1.00895274411292
 31
0.0
  0
LINE
  5
311
330
2
100
AcDbEntity
  8
0
100
AcDbLine
 10
3.062503764725196
 20
1.00895274411292
 30
0.0
 11
3.062503764725196
 21
1.009252383586721
 31
0.0
  0
LINE
  5
312
330
2
100
AcDbEntity
  8
0
100
AcDbLine
 10
3.062503764725196
 20
1.009252383586721
 30
0.0
 11
3.061904485777612
 21
1.009851662534286
 31
0.0
  0
LINE
  5
313
330
2
100
AcDbEntity
  8
0
100
AcDbLine
 10
3.061904485777612
 20
1.009851662534286
 30
0.0
 11
3.061305206830048
 21
1.010151302008068
 31
0.0
  0
LINE
  5
314
330
2
100
AcDbEntity
  8
0
100
AcDbLine
 10
3.061305206830048
 20
1.010151302008068
 30
0.0
 11
3.061005567356265
 21
1.010750580955633
 31
0.0
  0
LINE
  5
315
330
2
100
AcDbEntity
  8
0
100
AcDbLine
 10
3.061005567356265
 20
1.010750580955633
 30
0.0
 11
3.061005567356265
 21
1.011349859903217
 31
0.0
  0
LINE
  5
316
330
2
100
AcDbEntity
  8
0
100
AcDbLine
 10
3.061005567356265
 20
1.011349859903217
 30
0.0
 11
3.060406288408701
 21
1.011949138850781
 31
0.0
  0
LINE
  5
317
330
2
100
AcDbEntity
  8
0
100
AcDbLine
 10
3.060406288408701
 20
1.011949138850781
 30
0.0
 11
3.060106648934899
 21
1.012248778324564
 31
0.0
  0
LINE
  5
318
330
2
100
AcDbEntity
  8
0
100
AcDbLine
 10
3.060106648934899
 20
1.012248778324564
 30
0.0
 11
3.060106648934899
 21
1.012848057272128
 31
0.0
  0
LINE
  5
319
330
2
100
AcDbEntity
  8
0
100
AcDbLine
 10
3.060106648934899
 20
1.012848057272128
 30
0.0
 11
3.059507369987334
 21
1.01314769674593
 31
0.0
  0
LINE
  5
31A
330
2
100
AcDbEntity
  8
0
100
AcDbLine
 10
3.059507369987334
 20
1.01314769674593
 30
0.0
 11
3.05890809103977
 21
1.013746975693494
 31
0.0
  0
LINE
  5
31B
330
2
100
AcDbEntity
  8
0
100
AcDbLine
 10
3.05890809103977
 20
1.013746975693494
 30
0.0
 11
3.058308812092205
 21
1.014046615167277
 31
0.0
  0
LINE
  5
31C
330
2
100
AcDbEntity
  8
0
100
AcDbLine
 10
3.058308812092205
 20
1.014046615167277
 30
0.0
 11
3.058308812092205
 21
1.014645894114841
 31
0.0
  0
LINE
  5
31D
330
2
100
AcDbEntity
  8
0
100
AcDbLine
 10
3.058308812092205
 20
1.014645894114841
 30
0.0
 11
3.058009172618404
 21
1.014945533588624
 31
0.0
  0
LINE
  5
31E
330
2
100
AcDbEntity
  8
0
100
AcDbLine
 10
3.058009172618404
 20
1.014945533588624
 30
0.0
 11
3.057709533144622
 21
1.015544812536208
 31
0.0
  0
LINE
  5
31F
330
2
100
AcDbEntity
  8
0
100
AcDbLine
 10
3.057709533144622
 20
1.015544812536208
 30
0.0
 11
3.057709533144622
 21
1.01584445200999
 31
0.0
  0
LINE
  5
320
330
2
100
AcDbEntity
  8
0
100
AcDbLine
 10
3.057709533144622
 20
1.01584445200999
 30
0.0
 11
3.057409893670839
 21
1.016443730957554
 31
0.0
  0
LINE
  5
321
330
2
100
AcDbEntity
  8
0
100
AcDbLine
 10
3.057409893670839
 20
1.016443730957554
 30
0.0
 11
3.056810614723274
 21
1.017043009905119
 31
0.0
  0
LINE
  5
322
330
2
100
AcDbEntity
  8
0
100
AcDbLine
 10
3.056810614723274
 20
1.017043009905119
 30
0.0
 11
3.056810614723274
 21
1.017642288852703
 31
0.0
  0
LINE
  5
323
330
2
100
AcDbEntity
  8
0
100
AcDbLine
 10
3.056810614723274
 20
1.017642288852703
 30
0.0
 11
3.05621133577571
 21
1.017941928326485
 31
0.0
  0
LINE
  5
324
330
2
100
AcDbEntity
  8
0
100
AcDbLine
 10
3.05621133577571
 20
1.017941928326485
 30
0.0
 11
3.055911696301909
 21
1.01854120727405
 31
0.0
  0
LINE
  5
325
330
2
100
AcDbEntity
  8
0
100
AcDbLine
 10
3.055911696301909
 20
1.01854120727405
 30
0.0
 11
3.055911696301909
 21
1.019140486221614
 31
0.0
  0
LINE
  5
326
330
2
100
AcDbEntity
  8
0
100
AcDbLine
 10
3.055911696301909
 20
1.019140486221614
 30
0.0
 11
3.055312417354344
 21
1.019440125695416
 31
0.0
  0
LINE
  5
327
330
2
100
AcDbEntity
  8
0
100
AcDbLine
 10
3.055312417354344
 20
1.019440125695416
 30
0.0
 11
3.055012777880562
 21
1.020039404642981
 31
0.0
  0
LINE
  5
328
330
2
100
AcDbEntity
  8
0
100
AcDbLine
 10
3.055012777880562
 20
1.020039404642981
 30
0.0
 11
3.055012777880562
 21
1.020339044116763
 31
0.0
  0
LINE
  5
329
330
2
100
AcDbEntity
  8
0
100
AcDbLine
 10
3.055012777880562
 20
1.020339044116763
 30
0.0
 11
3.054413498932997
 21
1.020938323064328
 31
0.0
  0
LINE
  5
32A
330
2
100
AcDbEntity
  8
0
100
AcDbLine
 10
3.054413498932997
 20
1.020938323064328
 30
0.0
 11
3.053814219985413
 21
1.021537602011911
 31
0.0
  0
LINE
  5
32B
330
2
100
AcDbEntity
  8
0
100
AcDbLine
 10
3.053814219985413
 20
1.021537602011911
 30
0.0
 11
3.053814219985413
 21
1.021837241485694
 31
0.0
  0
LINE
  5
32C
330
2
100
AcDbEntity
  8
0
100
AcDbLine
 10
3.053814219985413
 20
1.021837241485694
 30
0.0
 11
3.053214941037849
 21
1.022436520433258
 31
0.0
  0
LINE
  5
32D
330
2
100
AcDbEntity
  8
0
100
AcDbLine
 10
3.053214941037849
 20
1.022436520433258
 30
0.0
 11
3.052915301564066
 21
1.023035799380823
 31
0.0
  0
LINE
  5
32E
330
2
100
AcDbEntity
  8
0
100
AcDbLine
 10
3.052915301564066
 20
1.023035799380823
 30
0.0
 11
3.052915301564066
 21
1.023335438854624
 31
0.0
  0
LINE
  5
32F
330
2
100
AcDbEntity
  8
0
100
AcDbLine
 10
3.052915301564066
 20
1.023335438854624
 30
0.0
 11
3.052615662090284
 21
1.023934717802189
 31
0.0
  0
LINE
  5
330
330
2
100
AcDbEntity
  8
0
100
AcDbLine
 10
3.052615662090284
 20
1.023934717802189
 30
0.0
 11
3.0520163831427
 21
1.024533996749754
 31
0.0
  0
LINE
  5
331
330
2
100
AcDbEntity
  8
0
100
AcDbLine
 10
3.0520163831427
 20
1.024533996749754
 30
0.0
 11
3.0520163831427
 21
1.025133275697318
 31
0.0
  0
LINE
  5
332
330
2
100
AcDbEntity
  8
0
100
AcDbLine
 10
3.0520163831427
 20
1.025133275697318
 30
0.0
 11
3.051417104195135
 21
1.02543291517112
 31
0.0
  0
LINE
  5
333
330
2
100
AcDbEntity
  8
0
100
AcDbLine
 10
3.051417104195135
 20
1.02543291517112
 30
0.0
 11
3.051417104195135
 21
1.026032194118684
 31
0.0
  0
LINE
  5
334
330
2
100
AcDbEntity
  8
0
100
AcDbLine
 10
3.051417104195135
 20
1.026032194118684
 30
0.0
 11
3.051117464721353
 21
1.026331833592467
 31
0.0
  0
LINE
  5
335
330
2
100
AcDbEntity
  8
0
100
AcDbLine
 10
3.051117464721353
 20
1.026331833592467
 30
0.0
 11
2.692748654074332
 21
1.647484462749068
 31
0.0
  0
LINE
  5
336
330
2
100
AcDbEntity
  8
0
100
AcDbLine
 10
2.675129853015775
 20
1.732851748830485
 30
0.0
 11
2.675129853015775
 21
1.73225246988292
 31
0.0
  0
LINE
  5
337
330
2
100
AcDbEntity
  8
0
100
AcDbLine
 10
2.675129853015775
 20
1.73225246988292
 30
0.0
 11
2.674530574068211
 21
1.731952830409138
 31
0.0
  0
LINE
  5
338
330
2
100
AcDbEntity
  8
0
100
AcDbLine
 10
2.674530574068211
 20
1.731952830409138
 30
0.0
 11
2.674530574068211
 21
1.731353551461554
 31
0.0
  0
LINE
  5
339
330
2
100
AcDbEntity
  8
0
100
AcDbLine
 10
2.674530574068211
 20
1.731353551461554
 30
0.0
 11
2.674530574068211
 21
1.73075427251399
 31
0.0
  0
LINE
  5
33A
330
2
100
AcDbEntity
  8
0
100
AcDbLine
 10
2.674530574068211
 20
1.73075427251399
 30
0.0
 11
2.674530574068211
 21
1.730154993566425
 31
0.0
  0
LINE
  5
33B
330
2
100
AcDbEntity
  8
0
100
AcDbLine
 10
2.674530574068211
 20
1.730154993566425
 30
0.0
 11
2.673931295120627
 21
1.729555714618841
 31
0.0
  0
LINE
  5
33C
330
2
100
AcDbEntity
  8
0
100
AcDbLine
 10
2.673931295120627
 20
1.729555714618841
 30
0.0
 11
2.673931295120627
 21
1.728956435671277
 31
0.0
  0
LINE
  5
33D
330
2
100
AcDbEntity
  8
0
100
AcDbLine
 10
2.673931295120627
 20
1.728956435671277
 30
0.0
 11
2.673931295120627
 21
1.728656796197494
 31
0.0
  0
LINE
  5
33E
330
2
100
AcDbEntity
  8
0
100
AcDbLine
 10
2.673931295120627
 20
1.728656796197494
 30
0.0
 11
2.673931295120627
 21
1.72805751724993
 31
0.0
  0
LINE
  5
33F
330
2
100
AcDbEntity
  8
0
100
AcDbLine
 10
2.673931295120627
 20
1.72805751724993
 30
0.0
 11
2.673332016173062
 21
1.727458238302346
 31
0.0
  0
LINE
  5
340
330
2
100
AcDbEntity
  8
0
100
AcDbLine
 10
2.673332016173062
 20
1.727458238302346
 30
0.0
 11
2.673332016173062
 21
1.726858959354781
 31
0.0
  0
LINE
  5
341
330
2
100
AcDbEntity
  8
0
100
AcDbLine
 10
2.673332016173062
 20
1.726858959354781
 30
0.0
 11
2.673332016173062
 21
1.726259680407217
 31
0.0
  0
LINE
  5
342
330
2
100
AcDbEntity
  8
0
100
AcDbLine
 10
2.673332016173062
 20
1.726259680407217
 30
0.0
 11
2.673332016173062
 21
1.725660401459633
 31
0.0
  0
LINE
  5
343
330
2
100
AcDbEntity
  8
0
100
AcDbLine
 10
2.673332016173062
 20
1.725660401459633
 30
0.0
 11
2.673332016173062
 21
1.725061122512068
 31
0.0
  0
LINE
  5
344
330
2
100
AcDbEntity
  8
0
100
AcDbLine
 10
2.673332016173062
 20
1.725061122512068
 30
0.0
 11
2.673332016173062
 21
1.724461843564504
 31
0.0
  0
LINE
  5
345
330
2
100
AcDbEntity
  8
0
100
AcDbLine
 10
2.673332016173062
 20
1.724461843564504
 30
0.0
 11
2.673332016173062
 21
1.723862564616939
 31
0.0
  0
LINE
  5
346
330
2
100
AcDbEntity
  8
0
100
AcDbLine
 10
2.673332016173062
 20
1.723862564616939
 30
0.0
 11
2.673332016173062
 21
1.723263285669355
 31
0.0
  0
LINE
  5
347
330
2
100
AcDbEntity
  8
0
100
AcDbLine
 10
2.673332016173062
 20
1.723263285669355
 30
0.0
 11
2.673332016173062
 21
1.722963646195573
 31
0.0
  0
LINE
  5
348
330
2
100
AcDbEntity
  8
0
100
AcDbLine
 10
2.673332016173062
 20
1.722963646195573
 30
0.0
 11
2.673332016173062
 21
1.722064727774226
 31
0.0
  0
LINE
  5
349
330
2
100
AcDbEntity
  8
0
100
AcDbLine
 10
2.673332016173062
 20
1.722064727774226
 30
0.0
 11
2.673332016173062
 21
1.721465448826642
 31
0.0
  0
LINE
  5
34A
330
2
100
AcDbEntity
  8
0
100
AcDbLine
 10
2.673332016173062
 20
1.721465448826642
 30
0.0
 11
2.673332016173062
 21
1.720866169879078
 31
0.0
  0
LINE
  5
34B
330
2
100
AcDbEntity
  8
0
100
AcDbLine
 10
2.673332016173062
 20
1.720866169879078
 30
0.0
 11
2.673332016173062
 21
1.720266890931513
 31
0.0
  0
LINE
  5
34C
330
2
100
AcDbEntity
  8
0
100
AcDbLine
 10
2.673332016173062
 20
1.720266890931513
 30
0.0
 11
2.672433097751715
 21
1.719667611983948
 31
0.0
  0
LINE
  5
34D
330
2
100
AcDbEntity
  8
0
100
AcDbLine
 10
2.672433097751715
 20
1.719667611983948
 30
0.0
 11
2.672433097751715
 21
1.719068333036364
 31
0.0
  0
LINE
  5
34E
330
2
100
AcDbEntity
  8
0
100
AcDbLine
 10
2.672433097751715
 20
1.719068333036364
 30
0.0
 11
2.672433097751715
 21
1.7184690540888
 31
0.0
  0
LINE
  5
34F
330
2
100
AcDbEntity
  8
0
100
AcDbLine
 10
2.672433097751715
 20
1.7184690540888
 30
0.0
 11
2.672433097751715
 21
1.717869775141235
 31
0.0
  0
LINE
  5
350
330
2
100
AcDbEntity
  8
0
100
AcDbLine
 10
2.672433097751715
 20
1.717869775141235
 30
0.0
 11
2.672433097751715
 21
1.717270496193652
 31
0.0
  0
LINE
  5
351
330
2
100
AcDbEntity
  8
0
100
AcDbLine
 10
2.672433097751715
 20
1.717270496193652
 30
0.0
 11
2.672433097751715
 21
1.716371577772305
 31
0.0
  0
LINE
  5
352
330
2
100
AcDbEntity
  8
0
100
AcDbLine
 10
2.672433097751715
 20
1.716371577772305
 30
0.0
 11
2.672433097751715
 21
1.71577229882474
 31
0.0
  0
LINE
  5
353
330
2
100
AcDbEntity
  8
0
100
AcDbLine
 10
2.672433097751715
 20
1.71577229882474
 30
0.0
 11
2.672433097751715
 21
1.715472659350938
 31
0.0
  0
LINE
  5
354
330
2
100
AcDbEntity
  8
0
100
AcDbLine
 10
2.672433097751715
 20
1.715472659350938
 30
0.0
 11
2.672433097751715
 21
1.714573740929592
 31
0.0
  0
LINE
  5
355
330
2
100
AcDbEntity
  8
0
100
AcDbLine
 10
2.672433097751715
 20
1.714573740929592
 30
0.0
 11
2.672433097751715
 21
1.714274101455809
 31
0.0
  0
LINE
  5
356
330
2
100
AcDbEntity
  8
0
100
AcDbLine
 10
2.672433097751715
 20
1.714274101455809
 30
0.0
 11
2.672433097751715
 21
1.713375183034443
 31
0.0
  0
LINE
  5
357
330
2
100
AcDbEntity
  8
0
100
AcDbLine
 10
2.672433097751715
 20
1.713375183034443
 30
0.0
 11
2.672433097751715
 21
1.712775904086878
 31
0.0
  0
LINE
  5
358
330
2
100
AcDbEntity
  8
0
100
AcDbLine
 10
2.672433097751715
 20
1.712775904086878
 30
0.0
 11
2.672433097751715
 21
1.712176625139314
 31
0.0
  0
LINE
  5
359
330
2
100
AcDbEntity
  8
0
100
AcDbLine
 10
2.672433097751715
 20
1.712176625139314
 30
0.0
 11
2.672433097751715
 21
1.711577346191749
 31
0.0
  0
LINE
  5
35A
330
2
100
AcDbEntity
  8
0
100
AcDbLine
 10
2.672433097751715
 20
1.711577346191749
 30
0.0
 11
2.672433097751715
 21
1.710678427770383
 31
0.0
  0
LINE
  5
35B
330
2
100
AcDbEntity
  8
0
100
AcDbLine
 10
2.672433097751715
 20
1.710678427770383
 30
0.0
 11
2.672433097751715
 21
1.710378788296601
 31
0.0
  0
LINE
  5
35C
330
2
100
AcDbEntity
  8
0
100
AcDbLine
 10
2.672433097751715
 20
1.710378788296601
 30
0.0
 11
2.672433097751715
 21
1.709779509349036
 31
0.0
  0
LINE
  5
35D
330
2
100
AcDbEntity
  8
0
100
AcDbLine
 10
2.672433097751715
 20
1.709779509349036
 30
0.0
 11
2.672433097751715
 21
1.70888059092767
 31
0.0
  0
LINE
  5
35E
330
2
100
AcDbEntity
  8
0
100
AcDbLine
 10
2.672433097751715
 20
1.70888059092767
 30
0.0
 11
2.672433097751715
 21
1.707981672506323
 31
0.0
  0
LINE
  5
35F
330
2
100
AcDbEntity
  8
0
100
AcDbLine
 10
2.672433097751715
 20
1.707981672506323
 30
0.0
 11
2.673332016173062
 21
1.707682033032541
 31
0.0
  0
LINE
  5
360
330
2
100
AcDbEntity
  8
0
100
AcDbLine
 10
2.673332016173062
 20
1.707682033032541
 30
0.0
 11
2.673332016173062
 21
1.707082754084957
 31
0.0
  0
LINE
  5
361
330
2
100
AcDbEntity
  8
0
100
AcDbLine
 10
2.673332016173062
 20
1.707082754084957
 30
0.0
 11
2.673332016173062
 21
1.70618383566361
 31
0.0
  0
LINE
  5
362
330
2
100
AcDbEntity
  8
0
100
AcDbLine
 10
2.673332016173062
 20
1.70618383566361
 30
0.0
 11
2.673332016173062
 21
1.705584556716045
 31
0.0
  0
LINE
  5
363
330
2
100
AcDbEntity
  8
0
100
AcDbLine
 10
2.673332016173062
 20
1.705584556716045
 30
0.0
 11
2.673332016173062
 21
1.704985277768462
 31
0.0
  0
LINE
  5
364
330
2
100
AcDbEntity
  8
0
100
AcDbLine
 10
2.673332016173062
 20
1.704985277768462
 30
0.0
 11
2.673332016173062
 21
1.704086359347115
 31
0.0
  0
LINE
  5
365
330
2
100
AcDbEntity
  8
0
100
AcDbLine
 10
2.673332016173062
 20
1.704086359347115
 30
0.0
 11
2.673332016173062
 21
1.70348708039955
 31
0.0
  0
LINE
  5
366
330
2
100
AcDbEntity
  8
0
100
AcDbLine
 10
2.673332016173062
 20
1.70348708039955
 30
0.0
 11
2.673332016173062
 21
1.702887801451966
 31
0.0
  0
LINE
  5
367
330
2
100
AcDbEntity
  8
0
100
AcDbLine
 10
2.673332016173062
 20
1.702887801451966
 30
0.0
 11
2.673332016173062
 21
1.702288522504401
 31
0.0
  0
LINE
  5
368
330
2
100
AcDbEntity
  8
0
100
AcDbLine
 10
2.673332016173062
 20
1.702288522504401
 30
0.0
 11
2.673332016173062
 21
1.701689243556837
 31
0.0
  0
LINE
  5
369
330
2
100
AcDbEntity
  8
0
100
AcDbLine
 10
2.673332016173062
 20
1.701689243556837
 30
0.0
 11
2.673332016173062
 21
1.701089964609253
 31
0.0
  0
LINE
  5
36A
330
2
100
AcDbEntity
  8
0
100
AcDbLine
 10
2.673332016173062
 20
1.701089964609253
 30
0.0
 11
2.673332016173062
 21
1.700191046187906
 31
0.0
  0
LINE
  5
36B
330
2
100
AcDbEntity
  8
0
100
AcDbLine
 10
2.673332016173062
 20
1.700191046187906
 30
0.0
 11
2.673332016173062
 21
1.69929212776654
 31
0.0
  0
LINE
  5
36C
330
2
100
AcDbEntity
  8
0
100
AcDbLine
 10
2.673332016173062
 20
1.69929212776654
 30
0.0
 11
2.673931295120627
 21
1.698692848818976
 31
0.0
  0
LINE
  5
36D
330
2
100
AcDbEntity
  8
0
100
AcDbLine
 10
2.673931295120627
 20
1.698692848818976
 30
0.0
 11
2.673931295120627
 21
1.698093569871411
 31
0.0
  0
LINE
  5
36E
330
2
100
AcDbEntity
  8
0
100
AcDbLine
 10
2.673931295120627
 20
1.698093569871411
 30
0.0
 11
2.673931295120627
 21
1.697494290923846
 31
0.0
  0
LINE
  5
36F
330
2
100
AcDbEntity
  8
0
100
AcDbLine
 10
2.673931295120627
 20
1.697494290923846
 30
0.0
 11
2.673931295120627
 21
1.69659537250248
 31
0.0
  0
LINE
  5
370
330
2
100
AcDbEntity
  8
0
100
AcDbLine
 10
2.673931295120627
 20
1.69659537250248
 30
0.0
 11
2.674530574068211
 21
1.695996093554916
 31
0.0
  0
LINE
  5
371
330
2
100
AcDbEntity
  8
0
100
AcDbLine
 10
2.674530574068211
 20
1.695996093554916
 30
0.0
 11
2.674530574068211
 21
1.695396814607351
 31
0.0
  0
LINE
  5
372
330
2
100
AcDbEntity
  8
0
100
AcDbLine
 10
2.674530574068211
 20
1.695396814607351
 30
0.0
 11
2.674530574068211
 21
1.694797535659767
 31
0.0
  0
LINE
  5
373
330
2
100
AcDbEntity
  8
0
100
AcDbLine
 10
2.674530574068211
 20
1.694797535659767
 30
0.0
 11
2.674530574068211
 21
1.694198256712202
 31
0.0
  0
LINE
  5
374
330
2
100
AcDbEntity
  8
0
100
AcDbLine
 10
2.674530574068211
 20
1.694198256712202
 30
0.0
 11
2.675129853015775
 21
1.693299338290856
 31
0.0
  0
LINE
  5
375
330
2
100
AcDbEntity
  8
0
100
AcDbLine
 10
2.675129853015775
 20
1.693299338290856
 30
0.0
 11
2.675129853015775
 21
1.692700059343272
 31
0.0
  0
LINE
  5
376
330
2
100
AcDbEntity
  8
0
100
AcDbLine
 10
2.675129853015775
 20
1.692700059343272
 30
0.0
 11
2.675129853015775
 21
1.691801140921925
 31
0.0
  0
LINE
  5
377
330
2
100
AcDbEntity
  8
0
100
AcDbLine
 10
2.675129853015775
 20
1.691801140921925
 30
0.0
 11
2.675429492489557
 21
1.691201861974341
 31
0.0
  0
LINE
  5
378
330
2
100
AcDbEntity
  8
0
100
AcDbLine
 10
2.675429492489557
 20
1.691201861974341
 30
0.0
 11
2.675429492489557
 21
1.690302943552994
 31
0.0
  0
LINE
  5
379
330
2
100
AcDbEntity
  8
0
100
AcDbLine
 10
2.675429492489557
 20
1.690302943552994
 30
0.0
 11
2.675429492489557
 21
1.689703664605429
 31
0.0
  0
LINE
  5
37A
330
2
100
AcDbEntity
  8
0
100
AcDbLine
 10
2.675429492489557
 20
1.689703664605429
 30
0.0
 11
2.67572913196334
 21
1.689104385657846
 31
0.0
  0
LINE
  5
37B
330
2
100
AcDbEntity
  8
0
100
AcDbLine
 10
2.67572913196334
 20
1.689104385657846
 30
0.0
 11
2.67572913196334
 21
1.688505106710281
 31
0.0
  0
LINE
  5
37C
330
2
100
AcDbEntity
  8
0
100
AcDbLine
 10
2.67572913196334
 20
1.688505106710281
 30
0.0
 11
2.67572913196334
 21
1.687606188288934
 31
0.0
  0
LINE
  5
37D
330
2
100
AcDbEntity
  8
0
100
AcDbLine
 10
2.67572913196334
 20
1.687606188288934
 30
0.0
 11
2.676328410910924
 21
1.68700690934135
 31
0.0
  0
LINE
  5
37E
330
2
100
AcDbEntity
  8
0
100
AcDbLine
 10
2.676328410910924
 20
1.68700690934135
 30
0.0
 11
2.676328410910924
 21
1.686107990920003
 31
0.0
  0
LINE
  5
37F
330
2
100
AcDbEntity
  8
0
100
AcDbLine
 10
2.676328410910924
 20
1.686107990920003
 30
0.0
 11
2.676328410910924
 21
1.685508711972439
 31
0.0
  0
LINE
  5
380
330
2
100
AcDbEntity
  8
0
100
AcDbLine
 10
2.676328410910924
 20
1.685508711972439
 30
0.0
 11
2.676927689858488
 21
1.684609793551073
 31
0.0
  0
LINE
  5
381
330
2
100
AcDbEntity
  8
0
100
AcDbLine
 10
2.676927689858488
 20
1.684609793551073
 30
0.0
 11
2.676927689858488
 21
1.684010514603508
 31
0.0
  0
LINE
  5
382
330
2
100
AcDbEntity
  8
0
100
AcDbLine
 10
2.676927689858488
 20
1.684010514603508
 30
0.0
 11
2.677526968806053
 21
1.683411235655943
 31
0.0
  0
LINE
  5
383
330
2
100
AcDbEntity
  8
0
100
AcDbLine
 10
2.677526968806053
 20
1.683411235655943
 30
0.0
 11
2.677526968806053
 21
1.682811956708359
 31
0.0
  0
LINE
  5
384
330
2
100
AcDbEntity
  8
0
100
AcDbLine
 10
2.677526968806053
 20
1.682811956708359
 30
0.0
 11
2.677526968806053
 21
1.682212677760795
 31
0.0
  0
LINE
  5
385
330
2
100
AcDbEntity
  8
0
100
AcDbLine
 10
2.677526968806053
 20
1.682212677760795
 30
0.0
 11
2.677826608279835
 21
1.681313759339448
 31
0.0
  0
LINE
  5
386
330
2
100
AcDbEntity
  8
0
100
AcDbLine
 10
2.677826608279835
 20
1.681313759339448
 30
0.0
 11
2.677826608279835
 21
1.680414840918082
 31
0.0
  0
LINE
  5
387
330
2
100
AcDbEntity
  8
0
100
AcDbLine
 10
2.677826608279835
 20
1.680414840918082
 30
0.0
 11
2.678425887227419
 21
1.679815561970517
 31
0.0
  0
LINE
  5
388
330
2
100
AcDbEntity
  8
0
100
AcDbLine
 10
2.678425887227419
 20
1.679815561970517
 30
0.0
 11
2.678425887227419
 21
1.679216283022953
 31
0.0
  0
LINE
  5
389
330
2
100
AcDbEntity
  8
0
100
AcDbLine
 10
2.678425887227419
 20
1.679216283022953
 30
0.0
 11
2.678725526701201
 21
1.678317364601586
 31
0.0
  0
LINE
  5
38A
330
2
100
AcDbEntity
  8
0
100
AcDbLine
 10
2.678725526701201
 20
1.678317364601586
 30
0.0
 11
2.678725526701201
 21
1.677718085654022
 31
0.0
  0
LINE
  5
38B
330
2
100
AcDbEntity
  8
0
100
AcDbLine
 10
2.678725526701201
 20
1.677718085654022
 30
0.0
 11
2.679324805648766
 21
1.676819167232656
 31
0.0
  0
LINE
  5
38C
330
2
100
AcDbEntity
  8
0
100
AcDbLine
 10
2.679324805648766
 20
1.676819167232656
 30
0.0
 11
2.679324805648766
 21
1.676219888285091
 31
0.0
  0
LINE
  5
38D
330
2
100
AcDbEntity
  8
0
100
AcDbLine
 10
2.679324805648766
 20
1.676219888285091
 30
0.0
 11
2.679924084596331
 21
1.675620609337526
 31
0.0
  0
LINE
  5
38E
330
2
100
AcDbEntity
  8
0
100
AcDbLine
 10
2.679924084596331
 20
1.675620609337526
 30
0.0
 11
2.679924084596331
 21
1.67472169091616
 31
0.0
  0
LINE
  5
38F
330
2
100
AcDbEntity
  8
0
100
AcDbLine
 10
2.679924084596331
 20
1.67472169091616
 30
0.0
 11
2.680523363543914
 21
1.674122411968596
 31
0.0
  0
LINE
  5
390
330
2
100
AcDbEntity
  8
0
100
AcDbLine
 10
2.680523363543914
 20
1.674122411968596
 30
0.0
 11
2.680523363543914
 21
1.673523133021031
 31
0.0
  0
LINE
  5
391
330
2
100
AcDbEntity
  8
0
100
AcDbLine
 10
2.680523363543914
 20
1.673523133021031
 30
0.0
 11
2.680823003017697
 21
1.672923854073447
 31
0.0
  0
LINE
  5
392
330
2
100
AcDbEntity
  8
0
100
AcDbLine
 10
2.680823003017697
 20
1.672923854073447
 30
0.0
 11
2.680823003017697
 21
1.6720249356521
 31
0.0
  0
LINE
  5
393
330
2
100
AcDbEntity
  8
0
100
AcDbLine
 10
2.680823003017697
 20
1.6720249356521
 30
0.0
 11
2.681122642491479
 21
1.671126017230754
 31
0.0
  0
LINE
  5
394
330
2
100
AcDbEntity
  8
0
100
AcDbLine
 10
2.681122642491479
 20
1.671126017230754
 30
0.0
 11
2.681122642491479
 21
1.67052673828317
 31
0.0
  0
LINE
  5
395
330
2
100
AcDbEntity
  8
0
100
AcDbLine
 10
2.681122642491479
 20
1.67052673828317
 30
0.0
 11
2.681422281965261
 21
1.669927459335605
 31
0.0
  0
LINE
  5
396
330
2
100
AcDbEntity
  8
0
100
AcDbLine
 10
2.681422281965261
 20
1.669927459335605
 30
0.0
 11
2.682021560912826
 21
1.669028540914258
 31
0.0
  0
LINE
  5
397
330
2
100
AcDbEntity
  8
0
100
AcDbLine
 10
2.682021560912826
 20
1.669028540914258
 30
0.0
 11
2.682021560912826
 21
1.668429261966674
 31
0.0
  0
LINE
  5
398
330
2
100
AcDbEntity
  8
0
100
AcDbLine
 10
2.682021560912826
 20
1.668429261966674
 30
0.0
 11
2.68262083986041
 21
1.66782998301911
 31
0.0
  0
LINE
  5
399
330
2
100
AcDbEntity
  8
0
100
AcDbLine
 10
2.68262083986041
 20
1.66782998301911
 30
0.0
 11
2.68262083986041
 21
1.666931064597763
 31
0.0
  0
LINE
  5
39A
330
2
100
AcDbEntity
  8
0
100
AcDbLine
 10
2.68262083986041
 20
1.666931064597763
 30
0.0
 11
2.682920479334192
 21
1.666331785650179
 31
0.0
  0
LINE
  5
39B
330
2
100
AcDbEntity
  8
0
100
AcDbLine
 10
2.682920479334192
 20
1.666331785650179
 30
0.0
 11
2.683519758281757
 21
1.665432867228832
 31
0.0
  0
LINE
  5
39C
330
2
100
AcDbEntity
  8
0
100
AcDbLine
 10
2.683519758281757
 20
1.665432867228832
 30
0.0
 11
2.683519758281757
 21
1.664833588281267
 31
0.0
  0
LINE
  5
39D
330
2
100
AcDbEntity
  8
0
100
AcDbLine
 10
2.683519758281757
 20
1.664833588281267
 30
0.0
 11
2.683819397755539
 21
1.664234309333683
 31
0.0
  0
LINE
  5
39E
330
2
100
AcDbEntity
  8
0
100
AcDbLine
 10
2.683819397755539
 20
1.664234309333683
 30
0.0
 11
2.684418676703123
 21
1.663335390912337
 31
0.0
  0
LINE
  5
39F
330
2
100
AcDbEntity
  8
0
100
AcDbLine
 10
2.684418676703123
 20
1.663335390912337
 30
0.0
 11
2.684418676703123
 21
1.662736111964753
 31
0.0
  0
LINE
  5
3A0
330
2
100
AcDbEntity
  8
0
100
AcDbLine
 10
2.684418676703123
 20
1.662736111964753
 30
0.0
 11
2.685017955650688
 21
1.662136833017188
 31
0.0
  0
LINE
  5
3A1
330
2
100
AcDbEntity
  8
0
100
AcDbLine
 10
2.685017955650688
 20
1.662136833017188
 30
0.0
 11
2.685617234598252
 21
1.661537554069624
 31
0.0
  0
LINE
  5
3A2
330
2
100
AcDbEntity
  8
0
100
AcDbLine
 10
2.685617234598252
 20
1.661537554069624
 30
0.0
 11
2.685617234598252
 21
1.660638635648257
 31
0.0
  0
LINE
  5
3A3
330
2
100
AcDbEntity
  8
0
100
AcDbLine
 10
2.685617234598252
 20
1.660638635648257
 30
0.0
 11
2.685916874072034
 21
1.659739717226911
 31
0.0
  0
LINE
  5
3A4
330
2
100
AcDbEntity
  8
0
100
AcDbLine
 10
2.685916874072034
 20
1.659739717226911
 30
0.0
 11
2.686216513545817
 21
1.659140438279346
 31
0.0
  0
LINE
  5
3A5
330
2
100
AcDbEntity
  8
0
100
AcDbLine
 10
2.686216513545817
 20
1.659140438279346
 30
0.0
 11
2.686216513545817
 21
1.65824151985798
 31
0.0
  0
LINE
  5
3A6
330
2
100
AcDbEntity
  8
0
100
AcDbLine
 10
2.686216513545817
 20
1.65824151985798
 30
0.0
 11
2.6868157924934
 21
1.657941880384197
 31
0.0
  0
LINE
  5
3A7
330
2
100
AcDbEntity
  8
0
100
AcDbLine
 10
2.6868157924934
 20
1.657941880384197
 30
0.0
 11
2.687415071440965
 21
1.657342601436633
 31
0.0
  0
LINE
  5
3A8
330
2
100
AcDbEntity
  8
0
100
AcDbLine
 10
2.687415071440965
 20
1.657342601436633
 30
0.0
 11
2.687415071440965
 21
1.656443683015267
 31
0.0
  0
LINE
  5
3A9
330
2
100
AcDbEntity
  8
0
100
AcDbLine
 10
2.687415071440965
 20
1.656443683015267
 30
0.0
 11
2.68801435038853
 21
1.655844404067702
 31
0.0
  0
LINE
  5
3AA
330
2
100
AcDbEntity
  8
0
100
AcDbLine
 10
2.68801435038853
 20
1.655844404067702
 30
0.0
 11
2.688313989862312
 21
1.654945485646355
 31
0.0
  0
LINE
  5
3AB
330
2
100
AcDbEntity
  8
0
100
AcDbLine
 10
2.688313989862312
 20
1.654945485646355
 30
0.0
 11
2.688913268809896
 21
1.654346206698772
 31
0.0
  0
LINE
  5
3AC
330
2
100
AcDbEntity
  8
0
100
AcDbLine
 10
2.688913268809896
 20
1.654346206698772
 30
0.0
 11
2.688913268809896
 21
1.653746927751207
 31
0.0
  0
LINE
  5
3AD
330
2
100
AcDbEntity
  8
0
100
AcDbLine
 10
2.688913268809896
 20
1.653746927751207
 30
0.0
 11
2.689212908283678
 21
1.653147648803642
 31
0.0
  0
LINE
  5
3AE
330
2
100
AcDbEntity
  8
0
100
AcDbLine
 10
2.689212908283678
 20
1.653147648803642
 30
0.0
 11
2.689812187231243
 21
1.652248730382276
 31
0.0
  0
LINE
  5
3AF
330
2
100
AcDbEntity
  8
0
100
AcDbLine
 10
2.689812187231243
 20
1.652248730382276
 30
0.0
 11
2.690411466178827
 21
1.651649451434711
 31
0.0
  0
LINE
  5
3B0
330
2
100
AcDbEntity
  8
0
100
AcDbLine
 10
2.690411466178827
 20
1.651649451434711
 30
0.0
 11
2.690411466178827
 21
1.651050172487147
 31
0.0
  0
LINE
  5
3B1
330
2
100
AcDbEntity
  8
0
100
AcDbLine
 10
2.690411466178827
 20
1.651050172487147
 30
0.0
 11
2.691010745126391
 21
1.650151254065781
 31
0.0
  0
LINE
  5
3B2
330
2
100
AcDbEntity
  8
0
100
AcDbLine
 10
2.691010745126391
 20
1.650151254065781
 30
0.0
 11
2.691310384600174
 21
1.649551975118216
 31
0.0
  0
LINE
  5
3B3
330
2
100
AcDbEntity
  8
0
100
AcDbLine
 10
2.691310384600174
 20
1.649551975118216
 30
0.0
 11
2.691610024073956
 21
1.648952696170652
 31
0.0
  0
LINE
  5
3B4
330
2
100
AcDbEntity
  8
0
100
AcDbLine
 10
2.691610024073956
 20
1.648952696170652
 30
0.0
 11
2.69220930302152
 21
1.648353417223068
 31
0.0
  0
LINE
  5
3B5
330
2
100
AcDbEntity
  8
0
100
AcDbLine
 10
2.69220930302152
 20
1.648353417223068
 30
0.0
 11
2.69220930302152
 21
1.647454498801721
 31
0.0
  0
LINE
  5
3B6
330
2
100
AcDbEntity
  8
0
100
AcDbLine
 10
4.77317548451195
 20
0.0093254956183248
 30
0.0
 11
3.098790105000568
 21
0.9759624380491926
 31
0.0
  0
LINE
  5
3B7
330
2
100
AcDbEntity
  8
0
100
AcDbLine
 10
2.675129853015775
 20
1.733001568567338
 30
0.0
 11
2.7332599109301
 21
1.950839466009131
 31
0.0
  0
LINE
  5
3B8
330
2
100
AcDbEntity
  8
0
100
AcDbLine
 10
23.77043797827948
 20
14.09546705009996
 30
0.0
 11
23.77073761775326
 21
14.09007353957183
 31
0.0
  0
LINE
  5
3B9
330
2
100
AcDbEntity
  8
0
100
AcDbLine
 10
23.77073761775326
 20
14.09007353957183
 30
0.0
 11
23.77643076775518
 21
14.08288219220098
 31
0.0
  0
LINE
  5
3BA
330
2
100
AcDbEntity
  8
0
100
AcDbLine
 10
23.77643076775518
 20
14.08288219220098
 30
0.0
 11
23.78751742828522
 21
14.08168363430585
 31
0.0
  0
LINE
  5
3BB
330
2
100
AcDbEntity
  8
0
100
AcDbLine
 10
23.78751742828522
 20
14.08168363430585
 30
0.0
 11
23.80190012302691
 21
14.08797606325532
 31
0.0
  0
LINE
  5
3BC
330
2
100
AcDbEntity
  8
0
100
AcDbLine
 10
23.80190012302691
 20
14.08797606325532
 30
0.0
 11
23.81808065461131
 21
14.09966200273295
 31
0.0
  0
LINE
  5
3BD
330
2
100
AcDbEntity
  8
0
100
AcDbLine
 10
23.81808065461131
 20
14.09966200273295
 30
0.0
 11
23.83366190724814
 21
14.11584253431734
 31
0.0
  0
LINE
  5
3BE
330
2
100
AcDbEntity
  8
0
100
AcDbLine
 10
23.83366190724814
 20
14.11584253431734
 30
0.0
 11
23.84594712567333
 21
14.13352126327065
 31
0.0
  0
LINE
  5
3BF
330
2
100
AcDbEntity
  8
0
100
AcDbLine
 10
23.84594712567333
 20
14.13352126327065
 30
0.0
 11
23.84954279935875
 21
14.14101225011529
 31
0.0
  0
ARC
  5
3C0
330
2
100
AcDbEntity
  8
0
100
AcDbCircle
 10
23.9162244090589
 20
14.03579755987649
 30
0.0
 40
0.124565517356326
100
AcDbArc
 50
122.3651783154009
 51
155.0231728777653
  0
ARC
  5
3C1
330
2
100
AcDbEntity
  8
0
100
AcDbCircle
 10
23.94617630430591
 20
14.00300338171665
 30
0.0
 40
0.1664423437123343
100
AcDbArc
 50
126.2808705330796
 51
149.1332250465196
  0
LINE
  5
3C2
330
2
100
AcDbEntity
  8
0
100
AcDbLine
 10
46.84968902342196
 20
24.28189074511013
 30
0.0
 11
5.266681697836078
 21
0.2763941586030158
 31
0.0
  0
LINE
  5
3C3
330
2
100
AcDbEntity
  8
0
100
AcDbLine
 10
42.243331392923
 20
28.89615885771704
 30
0.0
 11
42.243331392923
 21
29.08475194251746
 31
0.0
  0
LINE
  5
3C4
330
2
100
AcDbEntity
  8
0
100
AcDbLine
 10
42.243331392923
 20
29.08475194251746
 30
0.0
 11
42.22957794107627
 21
29.09269238857275
 31
0.0
  0
LINE
  5
3C5
330
2
100
AcDbEntity
  8
0
100
AcDbLine
 10
42.22957794107627
 20
29.09269238857275
 30
0.0
 11
42.22957794107627
 21
28.90391952008812
 31
0.0
  0
LINE
  5
3C6
330
2
100
AcDbEntity
  8
0
100
AcDbLine
 10
42.22957794107627
 20
28.90391952008812
 30
0.0
 11
42.243331392923
 21
28.89615885771704
 31
0.0
  0
ARC
  5
3C7
330
2
100
AcDbEntity
  8
0
100
AcDbCircle
 10
42.28460090659121
 20
28.90251423881117
 30
0.0
 40
0.0417560010927993
100
AcDbArc
 50
188.7546048101702
 51
230.8770667626057
  0
LINE
  5
3C8
330
2
100
AcDbEntity
  8
0
100
AcDbLine
 10
42.73638814703647
 20
28.83895768217148
 30
0.0
 11
42.27014912582679
 21
29.10803392963053
 31
0.0
  0
ARC
  5
3C9
330
2
100
AcDbEntity
  8
0
100
AcDbCircle
 10
42.25022822013468
 20
29.06041624310103
 30
0.0
 40
0.0516167274632489
100
AcDbArc
 50
67.29795608690766
 51
121.8556735930329
  0
LINE
  5
3CA
330
2
100
AcDbEntity
  8
0
100
AcDbLine
 10
42.222985872653
 20
29.10425847226087
 30
0.0
 11
42.22957794107627
 21
29.10815378542007
 31
0.0
  0
LINE
  5
3CB
330
2
100
AcDbEntity
  8
0
100
AcDbLine
 10
42.22957794107627
 20
29.10815378542007
 30
0.0
 11
42.22957794107627
 21
29.09266242462538
 31
0.0
  0
LINE
  5
3CC
330
2
100
AcDbEntity
  8
0
100
AcDbLine
 10
42.22957794107627
 20
29.09266242462538
 30
0.0
 11
42.20935227659573
 21
29.10425847226087
 31
0.0
  0
LINE
  5
3CD
330
2
100
AcDbEntity
  8
0
100
AcDbLine
 10
42.20935227659573
 20
29.10425847226087
 30
0.0
 11
42.22283605291607
 21
29.09646784594245
 31
0.0
  0
LINE
  5
3CE
330
2
100
AcDbEntity
  8
0
100
AcDbLine
 10
42.22283605291607
 20
29.09646784594245
 30
0.0
 11
42.24321153713346
 21
29.08478190646482
 31
0.0
  0
LINE
  5
3CF
330
2
100
AcDbEntity
  8
0
100
AcDbLine
 10
49.95934748236422
 20
24.66932458471431
 30
0.0
 11
49.49280882168075
 21
24.93840083217336
 31
0.0
  0
LINE
  5
3D0
330
2
100
AcDbEntity
  8
0
100
AcDbLine
 10
46.45233711723549
 20
26.30373805842277
 30
0.0
 11
46.45233711723549
 21
26.68982352039498
 31
0.0
  0
LINE
  5
3D1
330
2
100
AcDbEntity
  8
0
100
AcDbLine
 10
46.45233711723549
 20
26.68982352039498
 30
0.0
 11
45.77697970727114
 21
27.07989418736842
 31
0.0
  0
LINE
  5
3D2
330
2
100
AcDbEntity
  8
0
100
AcDbLine
 10
45.77697970727114
 20
27.07989418736842
 30
0.0
 11
45.77697970727114
 21
26.69365890565938
 31
0.0
  0
LINE
  5
3D3
330
2
100
AcDbEntity
  8
0
100
AcDbLine
 10
42.71619244650333
 20
28.85067358559648
 30
0.0
 11
42.71619244650333
 21
28.85067358559648
 31
0.0
  0
LINE
  5
3D4
330
2
100
AcDbEntity
  8
0
100
AcDbLine
 10
44.92720215961653
 20
26.49349973717092
 30
0.0
 11
44.93247581435514
 21
26.51645212086284
 31
0.0
  0
LINE
  5
3D5
330
2
100
AcDbEntity
  8
0
100
AcDbLine
 10
47.18795202537799
 20
25.2146084991086
 30
0.0
 11
47.21941417012542
 21
25.23288650700951
 31
0.0
  0
LINE
  5
3D6
330
2
100
AcDbEntity
  8
0
100
AcDbLine
 10
47.23682322355235
 20
25.25404105385867
 30
0.0
 11
47.27517707619686
 21
25.23186773279858
 31
0.0
  0
LINE
  5
3D7
330
2
100
AcDbEntity
  8
0
100
AcDbLine
 10
47.29360490383468
 20
25.12798272723726
 30
0.0
 11
47.27502725646
 21
25.23195762464072
 31
0.0
  0
LINE
  5
3D8
330
2
100
AcDbEntity
  8
0
100
AcDbLine
 10
2.6297644366847
 20
1.916171178892214
 30
0.0
 11
0.0181067831734046
 21
4.485579666599801
 31
0.0
  0
LINE
  5
3D9
330
2
100
AcDbEntity
  8
0
100
AcDbLine
 10
42.20938224054312
 20
29.10419854436609
 30
0.0
 11
42.20938224054312
 21
29.11198917068451
 31
0.0
  0
LINE
  5
3DA
330
2
100
AcDbEntity
  8
0
100
AcDbLine
 10
0.0000085589568072
 20
4.525431716613251
 30
0.0
 11
0.0000085589568072
 21
4.713904945624109
 31
0.0
  0
LINE
  5
3DB
330
2
100
AcDbEntity
  8
0
100
AcDbLine
 10
42.41217823640093
 20
29.02623235328719
 30
0.0
 11
42.23628986528904
 21
29.12781013490036
 31
0.0
  0
LINE
  5
3DC
330
2
100
AcDbEntity
  8
0
100
AcDbLine
 10
42.23748842318419
 20
29.11138989173699
 30
0.0
 11
42.23628986528904
 21
29.11198917068455
 31
0.0
  0
LINE
  5
3DD
330
2
100
AcDbEntity
  8
0
100
AcDbLine
 10
42.22283605291607
 20
29.10419854436609
 30
0.0
 11
42.22283605291607
 21
29.09640791804767
 31
0.0
  0
LINE
  5
3DE
330
2
100
AcDbEntity
  8
0
100
AcDbLine
 10
44.89445156513177
 20
26.29669653078883
 30
0.0
 11
44.89265372828906
 21
26.29160265973449
 31
0.0
  0
LINE
  5
3DF
330
2
100
AcDbEntity
  8
0
100
AcDbLine
 10
44.89265372828906
 20
26.29160265973449
 30
0.0
 11
44.88965733355121
 21
26.28770734657528
 31
0.0
  0
LINE
  5
3E0
330
2
100
AcDbEntity
  8
0
100
AcDbLine
 10
44.88965733355121
 20
26.28770734657528
 30
0.0
 11
44.88606165986579
 21
26.28531023078499
 31
0.0
  0
LINE
  5
3E1
330
2
100
AcDbEntity
  8
0
100
AcDbLine
 10
44.88606165986579
 20
26.28531023078499
 30
0.0
 11
44.88096778881143
 21
26.28411167288986
 31
0.0
  0
LINE
  5
3E2
330
2
100
AcDbEntity
  8
0
100
AcDbLine
 10
44.88096778881143
 20
26.28411167288986
 30
0.0
 11
44.8758739177571
 21
26.28471095183742
 31
0.0
  0
LINE
  5
3E3
330
2
100
AcDbEntity
  8
0
100
AcDbLine
 10
44.8758739177571
 20
26.28471095183742
 30
0.0
 11
44.87048040722895
 21
26.28650878868012
 31
0.0
  0
LINE
  5
3E4
330
2
100
AcDbEntity
  8
0
100
AcDbLine
 10
44.87048040722895
 20
26.28650878868012
 30
0.0
 11
44.86448761775325
 21
26.29010446236554
 31
0.0
  0
LINE
  5
3E5
330
2
100
AcDbEntity
  8
0
100
AcDbLine
 10
44.86448761775325
 20
26.29010446236554
 30
0.0
 11
44.85939374669892
 21
26.29489869394614
 31
0.0
  0
LINE
  5
3E6
330
2
100
AcDbEntity
  8
0
100
AcDbLine
 10
44.8943017453949
 20
26.29681638657834
 30
0.0
 11
44.93715019014618
 21
26.48498997611539
 31
0.0
  0
LINE
  5
3E7
330
2
100
AcDbEntity
  8
0
100
AcDbLine
 10
44.93715019014618
 20
26.48498997611539
 30
0.0
 11
44.92721755762197
 21
26.49356815874994
 31
0.0
  0
LINE
  5
3E8
330
2
100
AcDbEntity
  8
0
100
AcDbLine
 10
47.33486525937486
 20
24.88803143663014
 30
0.0
 11
47.29360490383468
 21
25.12798272723726
 31
0.0
  0
LINE
  5
3E9
330
2
100
AcDbEntity
  8
0
100
AcDbLine
 10
49.98173055105591
 20
24.39922956304441
 30
0.0
 11
49.98562586421511
 21
24.39922956304441
 31
0.0
  0
LINE
  5
3EA
330
2
100
AcDbEntity
  8
0
100
AcDbLine
 10
49.98562586421511
 20
24.39922956304441
 30
0.0
 11
49.98922153790054
 21
24.39982884199197
 31
0.0
  0
LINE
  5
3EB
330
2
100
AcDbEntity
  8
0
100
AcDbLine
 10
49.98922153790054
 20
24.39982884199197
 30
0.0
 11
49.99221793263838
 21
24.40102739988714
 31
0.0
  0
LINE
  5
3EC
330
2
100
AcDbEntity
  8
0
100
AcDbLine
 10
49.99221793263838
 20
24.40102739988714
 30
0.0
 11
49.99461504842866
 21
24.40312487620361
 31
0.0
  0
LINE
  5
3ED
330
2
100
AcDbEntity
  8
0
100
AcDbLine
 10
49.99461504842866
 20
24.40312487620361
 30
0.0
 11
49.99701216421896
 21
24.40612127094148
 31
0.0
  0
LINE
  5
3EE
330
2
100
AcDbEntity
  8
0
100
AcDbLine
 10
49.99701216421896
 20
24.40612127094148
 30
0.0
 11
49.99851036158787
 21
24.4097169446269
 31
0.0
  0
LINE
  5
3EF
330
2
100
AcDbEntity
  8
0
100
AcDbLine
 10
49.99851036158787
 20
24.4097169446269
 30
0.0
 11
49.99940928000924
 21
24.41361225778611
 31
0.0
  0
LINE
  5
3F0
330
2
100
AcDbEntity
  8
0
100
AcDbLine
 10
49.99940928000924
 20
24.41361225778611
 30
0.0
 11
50.00003852290421
 21
24.41834656147193
 31
0.0
  0
LINE
  5
3F1
330
2
100
AcDbEntity
  8
0
100
AcDbLine
 10
49.9818803707928
 20
24.39922956304441
 30
0.0
 11
47.3702227172815
 21
24.84509310003671
 31
0.0
  0
ARC
  5
3F2
330
2
100
AcDbEntity
  8
0
100
AcDbCircle
 10
47.38846210068317
 20
24.89613894145197
 30
0.0
 40
0.054206577393021
100
AcDbArc
 50
188.6018233642939
 51
250.3374902288539
  0
LINE
  5
3F3
330
2
100
AcDbEntity
  8
0
100
AcDbLine
 10
7.752310988673356
 20
0.0207417595695728
 30
0.0
 11
5.491830798438248
 21
0.4066774018048348
 31
0.0
  0
LINE
  5
3F4
330
2
100
AcDbEntity
  8
0
100
AcDbLine
 10
50.00000855895681
 20
24.4183765254193
 30
0.0
 11
50.00000855895681
 21
24.60684975443014
 31
0.0
  0
LINE
  5
3F5
330
2
100
AcDbEntity
  8
0
100
AcDbLine
 10
50.00000855895681
 20
24.60684975443014
 30
0.0
 11
49.96782727947228
 21
24.62503917326922
 31
0.0
  0
LINE
  5
3F6
330
2
100
AcDbEntity
  8
0
100
AcDbLine
 10
49.952605594204
 20
24.67313000603141
 30
0.0
 11
49.77701686256592
 21
24.7744081481708
 31
0.0
  0
LINE
  5
3F7
330
2
100
AcDbEntity
  8
0
100
AcDbLine
 10
44.82429525970036
 20
25.96129885833657
 30
0.0
 11
2.696284677649383
 21
1.641355552321744
 31
0.0
  0
LINE
  5
3F8
330
2
100
AcDbEntity
  8
0
100
AcDbLine
 10
42.71619244650333
 20
28.85067358559648
 30
0.0
 11
42.71619244650333
 21
28.85067358559648
 31
0.0
  0
LINE
  5
3F9
330
2
100
AcDbEntity
  8
0
100
AcDbLine
 10
-0.0001112968327172
 20
4.525551572402757
 30
0.0
 11
42.22957794107627
 21
28.90391952008812
 31
0.0
  0
ARC
  5
3FA
330
2
100
AcDbEntity
  8
0
100
AcDbCircle
 10
42.29004328685377
 20
28.9071526076111
 30
0.0
 40
0.0605517208254546
100
AcDbArc
 50
183.0606958531177
 51
225.2799304592908
  0
LINE
  5
3FB
330
2
100
AcDbEntity
  8
0
100
AcDbLine
 10
42.41217823640093
 20
29.02623235328719
 30
0.0
 11
42.41217823640093
 21
29.02623235328719
 31
0.0
  0
LINE
  5
3FC
330
2
100
AcDbEntity
  8
0
100
AcDbLine
 10
42.23631982923643
 20
29.11195920673714
 30
0.0
 11
42.22283605291609
 21
29.10416858041873
 31
0.0
  0
LINE
  5
3FD
330
2
100
AcDbEntity
  8
0
100
AcDbLine
 10
49.77704682651332
 20
24.7744980400129
 30
0.0
 11
49.77704682651332
 21
24.7744980400129
 31
0.0
  0
LINE
  5
3FE
330
2
100
AcDbEntity
  8
0
100
AcDbLine
 10
5.600330251895847
 20
0.8822052467018517
 30
0.0
 11
5.600330251895847
 21
0.8825048861756339
 31
0.0
  0
ARC
  5
3FF
330
2
100
AcDbEntity
  8
0
100
AcDbCircle
 10
5.521876074011473
 20
0.6416222157901618
 30
0.0
 40
0.2589754242142249
100
AcDbArc
 50
77.62477567961285
 51
87.13308172269533
  0
ARC
  5
400
330
2
100
AcDbEntity
  8
0
100
AcDbCircle
 10
5.525993474560332
 20
0.6912807234871677
 30
0.0
 40
0.2091794711881037
100
AcDbArc
 50
87.5791478162503
 51
99.52431890243545
  0
ARC
  5
401
330
2
100
AcDbEntity
  8
0
100
AcDbCircle
 10
5.531965845628286
 20
0.6977755507601029
 30
0.0
 40
0.2038813921246993
100
AcDbArc
 50
101.481960360766
 51
112.8977906164471
  0
ARC
  5
402
330
2
100
AcDbEntity
  8
0
100
AcDbCircle
 10
5.502159895124834
 20
0.8445436215348534
 30
0.0
 40
0.0285538969270538
100
AcDbArc
 50
217.726780306147
 51
235.7938379550456
  0
LINE
  5
403
330
2
100
AcDbEntity
  8
0
100
AcDbLine
 10
5.600420143737967
 20
0.8825048861756339
 30
0.0
 11
5.600420143737967
 21
0.8855012809134763
 31
0.0
  0
ARC
  5
404
330
2
100
AcDbEntity
  8
0
100
AcDbCircle
 10
4.81462243352225
 20
2.058047716911474
 30
0.0
 40
0.1265038999504561
100
AcDbArc
 50
212.8667808372531
 51
239.3192333900366
  0
LINE
  5
405
330
2
100
AcDbEntity
  8
0
100
AcDbLine
 10
4.750073281083115
 20
1.9492513767981
 30
0.0
 11
6.449857109698605
 21
0.9596503613631423
 31
0.0
  0
LINE
  5
406
330
2
100
AcDbEntity
  8
0
100
AcDbLine
 10
5.422194584730594
 20
0.9247840159267095
 30
0.0
 11
5.429086292627645
 21
0.9346721185616216
 31
0.0
  0
LINE
  5
407
330
2
100
AcDbEntity
  8
0
100
AcDbLine
 10
5.429086292627645
 20
0.9346721185616216
 30
0.0
 11
5.455154926846955
 21
0.9841126317361634
 31
0.0
  0
LINE
  5
408
330
2
100
AcDbEntity
  8
0
100
AcDbLine
 10
5.455154926846955
 20
0.9841126317361634
 30
0.0
 11
5.46414411106052
 21
1.035950260701002
 31
0.0
  0
LINE
  5
409
330
2
100
AcDbEntity
  8
0
100
AcDbLine
 10
5.46414411106052
 20
1.035950260701002
 30
0.0
 11
5.455154926846955
 21
1.087787889665821
 31
0.0
  0
LINE
  5
40A
330
2
100
AcDbEntity
  8
0
100
AcDbLine
 10
5.455154926846955
 20
1.087787889665821
 30
0.0
 11
5.429086292627645
 21
1.137228402840382
 31
0.0
  0
LINE
  5
40B
330
2
100
AcDbEntity
  8
0
100
AcDbLine
 10
5.429086292627645
 20
1.137228402840382
 30
0.0
 11
5.386537487350154
 21
1.183672521277062
 31
0.0
  0
LINE
  5
40C
330
2
100
AcDbEntity
  8
0
100
AcDbLine
 10
5.386537487350154
 20
1.183672521277062
 30
0.0
 11
5.329605987330977
 21
1.223524571290493
 31
0.0
  0
LINE
  5
40D
330
2
100
AcDbEntity
  8
0
100
AcDbLine
 10
5.329605987330977
 20
1.223524571290493
 30
0.0
 11
5.260089629412829
 21
1.256484913406854
 31
0.0
  0
LINE
  5
40E
330
2
100
AcDbEntity
  8
0
100
AcDbLine
 10
5.260089629412829
 20
1.256484913406854
 30
0.0
 11
5.179786250438422
 21
1.280755710783452
 31
0.0
  0
LINE
  5
40F
330
2
100
AcDbEntity
  8
0
100
AcDbLine
 10
5.179786250438422
 20
1.280755710783452
 30
0.0
 11
5.094089360935855
 21
1.296037323946503
 31
0.0
  0
LINE
  5
410
330
2
100
AcDbEntity
  8
0
100
AcDbLine
 10
5.094089360935855
 20
1.296037323946503
 30
0.0
 11
5.004197518800318
 21
1.301430834474623
 31
0.0
  0
LINE
  5
411
330
2
100
AcDbEntity
  8
0
100
AcDbLine
 10
5.004197518800318
 20
1.301430834474623
 30
0.0
 11
4.915204595086128
 21
1.296037323946503
 31
0.0
  0
LINE
  5
412
330
2
100
AcDbEntity
  8
0
100
AcDbLine
 10
4.915204595086128
 20
1.296037323946503
 30
0.0
 11
4.828908426636016
 21
1.280755710783452
 31
0.0
  0
LINE
  5
413
330
2
100
AcDbEntity
  8
0
100
AcDbLine
 10
4.828908426636016
 20
1.280755710783452
 30
0.0
 11
4.749803605556738
 21
1.256484913406854
 31
0.0
  0
LINE
  5
414
330
2
100
AcDbEntity
  8
0
100
AcDbLine
 10
4.749803605556738
 20
1.256484913406854
 30
0.0
 11
4.679987608164807
 21
1.223524571290493
 31
0.0
  0
LINE
  5
415
330
2
100
AcDbEntity
  8
0
100
AcDbLine
 10
4.679987608164807
 20
1.223524571290493
 30
0.0
 11
4.621857550250482
 21
1.183672521277062
 31
0.0
  0
LINE
  5
416
330
2
100
AcDbEntity
  8
0
100
AcDbLine
 10
4.621857550250482
 20
1.183672521277062
 30
0.0
 11
4.580207663394338
 21
1.137228402840382
 31
0.0
  0
LINE
  5
417
330
2
100
AcDbEntity
  8
0
100
AcDbLine
 10
4.580207663394338
 20
1.137228402840382
 30
0.0
 11
4.553539750227463
 21
1.087787889665821
 31
0.0
  0
LINE
  5
418
330
2
100
AcDbEntity
  8
0
100
AcDbLine
 10
4.553539750227463
 20
1.087787889665821
 30
0.0
 11
4.5448502054877
 21
1.035950260701002
 31
0.0
  0
LINE
  5
419
330
2
100
AcDbEntity
  8
0
100
AcDbLine
 10
4.5448502054877
 20
1.035950260701002
 30
0.0
 11
4.553539750227463
 21
0.9841126317361634
 31
0.0
  0
LINE
  5
41A
330
2
100
AcDbEntity
  8
0
100
AcDbLine
 10
4.553539750227463
 20
0.9841126317361634
 30
0.0
 11
4.580207663394338
 21
0.9346721185616216
 31
0.0
  0
LINE
  5
41B
330
2
100
AcDbEntity
  8
0
100
AcDbLine
 10
4.580207663394338
 20
0.9346721185616216
 30
0.0
 11
4.587998289712755
 21
0.9247840159267095
 31
0.0
  0
ARC
  5
41C
330
2
100
AcDbEntity
  8
0
100
AcDbCircle
 10
5.005152820964524
 20
1.257712935918881
 30
0.0
 40
0.5337223704427585
100
AcDbArc
 50
218.5931902908531
 51
308.7008299319378
  0
ARC
  5
41D
330
2
100
AcDbEntity
  8
0
100
AcDbCircle
 10
4.950311878819573
 20
1.311814346921662
 30
0.0
 40
0.6102997339406015
100
AcDbArc
 50
309.5431565373786
 51
320.6419669858383
  0
LINE
  5
41E
330
2
100
AcDbEntity
  8
0
100
AcDbLine
 10
5.528416778187402
 20
0.8250040711562597
 30
0.0
 11
5.527218220292254
 21
0.8253037106300421
 31
0.0
  0
LINE
  5
41F
330
2
100
AcDbEntity
  8
0
100
AcDbLine
 10
5.527218220292254
 20
0.8253037106300421
 30
0.0
 11
5.526319301870906
 21
0.8253037106300421
 31
0.0
  0
LINE
  5
420
330
2
100
AcDbEntity
  8
0
100
AcDbLine
 10
5.526319301870906
 20
0.8253037106300421
 30
0.0
 11
5.525420383449559
 21
0.8253037106300421
 31
0.0
  0
LINE
  5
421
330
2
100
AcDbEntity
  8
0
100
AcDbLine
 10
5.525420383449559
 20
0.8253037106300421
 30
0.0
 11
5.524521465028193
 21
0.8250040711562597
 31
0.0
  0
LINE
  5
422
330
2
100
AcDbEntity
  8
0
100
AcDbLine
 10
5.524521465028193
 20
0.8250040711562597
 30
0.0
 11
5.524221825554411
 21
0.8247044316824775
 31
0.0
  0
LINE
  5
423
330
2
100
AcDbEntity
  8
0
100
AcDbLine
 10
5.524221825554411
 20
0.8247044316824775
 30
0.0
 11
5.524221825554411
 21
0.8241051527349128
 31
0.0
  0
LINE
  5
424
330
2
100
AcDbEntity
  8
0
100
AcDbLine
 10
5.524221825554411
 20
0.8241051527349128
 30
0.0
 11
5.524221825554411
 21
0.8238055132611114
 31
0.0
  0
LINE
  5
425
330
2
100
AcDbEntity
  8
0
100
AcDbLine
 10
5.524221825554411
 20
0.8238055132611114
 30
0.0
 11
5.524521465028193
 21
0.8232062343135467
 31
0.0
  0
LINE
  5
426
330
2
100
AcDbEntity
  8
0
100
AcDbLine
 10
5.524521465028193
 20
0.8232062343135467
 30
0.0
 11
5.525420383449559
 21
0.8229065948397645
 31
0.0
  0
LINE
  5
427
330
2
100
AcDbEntity
  8
0
100
AcDbLine
 10
5.525420383449559
 20
0.8229065948397645
 30
0.0
 11
5.526319301870906
 21
0.8229065948397645
 31
0.0
  0
LINE
  5
428
330
2
100
AcDbEntity
  8
0
100
AcDbLine
 10
5.526319301870906
 20
0.8229065948397645
 30
0.0
 11
5.527218220292254
 21
0.8229065948397645
 31
0.0
  0
LINE
  5
429
330
2
100
AcDbEntity
  8
0
100
AcDbLine
 10
5.527218220292254
 20
0.8229065948397645
 30
0.0
 11
5.528416778187402
 21
0.8232062343135467
 31
0.0
  0
LINE
  5
42A
330
2
100
AcDbEntity
  8
0
100
AcDbLine
 10
5.528416778187402
 20
0.8232062343135467
 30
0.0
 11
5.529016057134967
 21
0.8238055132611114
 31
0.0
  0
LINE
  5
42B
330
2
100
AcDbEntity
  8
0
100
AcDbLine
 10
5.529016057134967
 20
0.8238055132611114
 30
0.0
 11
5.529315696608749
 21
0.8241051527349128
 31
0.0
  0
LINE
  5
42C
330
2
100
AcDbEntity
  8
0
100
AcDbLine
 10
5.529315696608749
 20
0.8241051527349128
 30
0.0
 11
5.529016057134967
 21
0.8247044316824775
 31
0.0
  0
LINE
  5
42D
330
2
100
AcDbEntity
  8
0
100
AcDbLine
 10
5.529016057134967
 20
0.8247044316824775
 30
0.0
 11
5.528416778187402
 21
0.8250040711562597
 31
0.0
  0
LINE
  5
42E
330
2
100
AcDbEntity
  8
0
100
AcDbLine
 10
4.645319321047852
 20
1.333132690801122
 30
0.0
 11
4.717232794756278
 21
1.367591230286414
 31
0.0
  0
LINE
  5
42F
330
2
100
AcDbEntity
  8
0
100
AcDbLine
 10
4.717232794756278
 20
1.367591230286414
 30
0.0
 11
4.799034371099636
 21
1.393959503979506
 31
0.0
  0
LINE
  5
430
330
2
100
AcDbEntity
  8
0
100
AcDbLine
 10
4.799034371099636
 20
1.393959503979506
 30
0.0
 11
4.888027294813826
 21
1.411038953985252
 31
0.0
  0
LINE
  5
431
330
2
100
AcDbEntity
  8
0
100
AcDbLine
 10
4.888027294813826
 20
1.411038953985252
 30
0.0
 11
4.981814450108572
 21
1.418829580303668
 31
0.0
  0
LINE
  5
432
330
2
100
AcDbEntity
  8
0
100
AcDbLine
 10
4.981814450108572
 20
1.418829580303668
 30
0.0
 11
5.074702686981952
 21
1.416432464513391
 31
0.0
  0
LINE
  5
433
330
2
100
AcDbEntity
  8
0
100
AcDbLine
 10
5.074702686981952
 20
1.416432464513391
 30
0.0
 11
5.165793087012638
 21
1.403847606614419
 31
0.0
  0
LINE
  5
434
330
2
100
AcDbEntity
  8
0
100
AcDbLine
 10
5.165793087012638
 20
1.403847606614419
 30
0.0
 11
5.251789615988986
 21
1.381674285554317
 31
0.0
  0
LINE
  5
435
330
2
100
AcDbEntity
  8
0
100
AcDbLine
 10
5.251789615988986
 20
1.381674285554317
 30
0.0
 11
5.329695879173116
 21
1.351410698702016
 31
0.0
  0
LINE
  5
436
330
2
100
AcDbEntity
  8
0
100
AcDbLine
 10
5.329695879173116
 20
1.351410698702016
 30
0.0
 11
5.39591620287964
 21
1.313056846057515
 31
0.0
  0
LINE
  5
437
330
2
100
AcDbEntity
  8
0
100
AcDbLine
 10
5.39591620287964
 20
1.313056846057515
 30
0.0
 11
5.448952389739607
 21
1.268110924989746
 31
0.0
  0
LINE
  5
438
330
2
100
AcDbEntity
  8
0
100
AcDbLine
 10
5.448952389739607
 20
1.268110924989746
 30
0.0
 11
5.486407323962742
 21
1.218670411815204
 31
0.0
  0
LINE
  5
439
330
2
100
AcDbEntity
  8
0
100
AcDbLine
 10
5.486407323962742
 20
1.218670411815204
 30
0.0
 11
5.508580645022844
 21
1.165933864429019
 31
0.0
  0
LINE
  5
43A
330
2
100
AcDbEntity
  8
0
100
AcDbLine
 10
5.508580645022844
 20
1.165933864429019
 30
0.0
 11
5.513075237129617
 21
1.111998759147685
 31
0.0
  0
LINE
  5
43B
330
2
100
AcDbEntity
  8
0
100
AcDbLine
 10
5.513075237129617
 20
1.111998759147685
 30
0.0
 11
5.49989110028308
 21
1.058363293340152
 31
0.0
  0
LINE
  5
43C
330
2
100
AcDbEntity
  8
0
100
AcDbLine
 10
5.49989110028308
 20
1.058363293340152
 30
0.0
 11
5.469927152904562
 21
1.007124943322879
 31
0.0
  0
LINE
  5
43D
330
2
100
AcDbEntity
  8
0
100
AcDbLine
 10
5.469927152904562
 20
1.007124943322879
 30
0.0
 11
5.45884049237452
 21
0.9939408064763421
 31
0.0
  0
LINE
  5
43E
330
2
100
AcDbEntity
  8
0
100
AcDbLine
 10
4.551382346016176
 20
0.9923826812125822
 30
0.0
 11
4.522616956532806
 21
1.031935091752211
 31
0.0
  0
LINE
  5
43F
330
2
100
AcDbEntity
  8
0
100
AcDbLine
 10
4.522616956532806
 20
1.031935091752211
 30
0.0
 11
4.501042914420269
 21
1.084671639138397
 31
0.0
  0
LINE
  5
440
330
2
100
AcDbEntity
  8
0
100
AcDbLine
 10
4.501042914420269
 20
1.084671639138397
 30
0.0
 11
4.49714760126106
 21
1.139206023367296
 31
0.0
  0
LINE
  5
441
330
2
100
AcDbEntity
  8
0
100
AcDbLine
 10
4.49714760126106
 20
1.139206023367296
 30
0.0
 11
4.510032098633834
 21
1.192541849701065
 31
0.0
  0
LINE
  5
442
330
2
100
AcDbEntity
  8
0
100
AcDbLine
 10
4.510032098633834
 20
1.192541849701065
 30
0.0
 11
4.539696406538552
 21
1.24378019971832
 31
0.0
  0
LINE
  5
443
330
2
100
AcDbEntity
  8
0
100
AcDbLine
 10
4.539696406538552
 20
1.24378019971832
 30
0.0
 11
4.585840885501468
 21
1.291123236576366
 31
0.0
  0
LINE
  5
444
330
2
100
AcDbEntity
  8
0
100
AcDbLine
 10
4.585840885501468
 20
1.291123236576366
 30
0.0
 11
4.645169501310923
 21
1.333072762906293
 31
0.0
  0
LINE
  5
445
330
2
100
AcDbEntity
  8
0
100
AcDbLine
 10
4.805956042944053
 20
0.6377294000405504
 30
0.0
 11
4.861988624541883
 21
0.6625994763647124
 31
0.0
  0
LINE
  5
446
330
2
100
AcDbEntity
  8
0
100
AcDbLine
 10
4.861988624541883
 20
0.6625994763647124
 30
0.0
 11
4.926710750879457
 21
0.6787800079491106
 31
0.0
  0
LINE
  5
447
330
2
100
AcDbEntity
  8
0
100
AcDbLine
 10
4.926710750879457
 20
0.6787800079491106
 30
0.0
 11
4.995927469323842
 21
0.6853720763723791
 31
0.0
  0
LINE
  5
448
330
2
100
AcDbEntity
  8
0
100
AcDbLine
 10
4.995927469323842
 20
0.6853720763723791
 30
0.0
 11
5.066342745663337
 21
0.6814767632131899
 31
0.0
  0
LINE
  5
449
330
2
100
AcDbEntity
  8
0
100
AcDbLine
 10
5.066342745663337
 20
0.6814767632131899
 30
0.0
 11
5.132263429896079
 21
0.6676933474190693
 31
0.0
  0
LINE
  5
44A
330
2
100
AcDbEntity
  8
0
100
AcDbLine
 10
5.132263429896079
 20
0.6676933474190693
 30
0.0
 11
5.190992766757968
 21
0.6443214684638188
 31
0.0
  0
LINE
  5
44B
330
2
100
AcDbEntity
  8
0
100
AcDbLine
 10
5.190992766757968
 20
0.6443214684638188
 30
0.0
 11
5.237137245720866
 21
0.6140578816115175
 31
0.0
  0
LINE
  5
44C
330
2
100
AcDbEntity
  8
0
100
AcDbLine
 10
5.237137245720866
 20
0.6140578816115175
 30
0.0
 11
5.269198669415881
 21
0.5778015052835127
 31
0.0
  0
LINE
  5
44D
330
2
100
AcDbEntity
  8
0
100
AcDbLine
 10
5.269198669415881
 20
0.5778015052835127
 30
0.0
 11
5.284480282578932
 21
0.5382490947438831
 31
0.0
  0
LINE
  5
44E
330
2
100
AcDbEntity
  8
0
100
AcDbLine
 10
5.284480282578932
 20
0.5382490947438831
 30
0.0
 11
5.282682445736218
 21
0.4977977657828874
 31
0.0
  0
LINE
  5
44F
330
2
100
AcDbEntity
  8
0
100
AcDbLine
 10
5.282682445736218
 20
0.4977977657828874
 30
0.0
 11
5.262606600992612
 21
0.4579457157694563
 31
0.0
  0
LINE
  5
450
330
2
100
AcDbEntity
  8
0
100
AcDbLine
 10
5.262606600992612
 20
0.4579457157694563
 30
0.0
 11
5.226949503612171
 21
0.423187536810382
 31
0.0
  0
LINE
  5
451
330
2
100
AcDbEntity
  8
0
100
AcDbLine
 10
5.226949503612171
 20
0.423187536810382
 30
0.0
 11
5.176909711490065
 21
0.3944221473270115
 31
0.0
  0
LINE
  5
452
330
2
100
AcDbEntity
  8
0
100
AcDbLine
 10
5.176909711490065
 20
0.3944221473270115
 30
0.0
 11
5.167321248328935
 21
0.3902271946940208
 31
0.0
  0
LINE
  5
453
330
2
100
AcDbEntity
  8
0
100
AcDbLine
 10
4.88380237823345
 20
0.3764138149525143
 30
0.0
 11
4.846647083484098
 21
0.3889986728514865
 31
0.0
  0
LINE
  5
454
330
2
100
AcDbEntity
  8
0
100
AcDbLine
 10
4.846647083484098
 20
0.3889986728514865
 30
0.0
 11
4.793910536097913
 21
0.415067307070797
 31
0.0
  0
LINE
  5
455
330
2
100
AcDbEntity
  8
0
100
AcDbLine
 10
4.793910536097913
 20
0.415067307070797
 30
0.0
 11
4.754358125558264
 21
0.4492262070823066
 31
0.0
  0
LINE
  5
456
330
2
100
AcDbEntity
  8
0
100
AcDbLine
 10
4.754358125558264
 20
0.4492262070823066
 30
0.0
 11
4.730087328181666
 21
0.4875800597268069
 31
0.0
  0
LINE
  5
457
330
2
100
AcDbEntity
  8
0
100
AcDbLine
 10
4.730087328181666
 20
0.4875800597268069
 30
0.0
 11
4.72379489923218
 21
0.5280313886878027
 31
0.0
  0
LINE
  5
458
330
2
100
AcDbEntity
  8
0
100
AcDbLine
 10
4.72379489923218
 20
0.5280313886878027
 30
0.0
 11
4.73488155976224
 21
0.5681830781749968
 31
0.0
  0
LINE
  5
459
330
2
100
AcDbEntity
  8
0
100
AcDbLine
 10
4.73488155976224
 20
0.5681830781749968
 30
0.0
 11
4.762748030824245
 21
0.6059376518719325
 31
0.0
  0
LINE
  5
45A
330
2
100
AcDbEntity
  8
0
100
AcDbLine
 10
4.762748030824245
 20
0.6059376518719325
 30
0.0
 11
4.80589611504932
 21
0.6376994360931646
 31
0.0
  0
LINE
  5
45B
330
2
100
AcDbEntity
  8
0
100
AcDbLine
 10
5.616510783480227
 20
0.8786994648585258
 30
0.0
 11
5.613814028216166
 21
0.880796941175021
 31
0.0
  0
LINE
  5
45C
330
2
100
AcDbEntity
  8
0
100
AcDbLine
 10
5.436547315524894
 20
0.8786994648585258
 30
0.0
 11
5.421565341835644
 21
0.8685117227498313
 31
0.0
  0
LINE
  5
45D
330
2
100
AcDbEntity
  8
0
100
AcDbLine
 10
5.421565341835644
 20
0.8685117227498313
 30
0.0
 11
5.402688054987166
 21
0.8442409253732339
 31
0.0
  0
LINE
  5
45E
330
2
100
AcDbEntity
  8
0
100
AcDbLine
 10
5.600420143737967
 20
0.8858608482820113
 30
0.0
 11
5.600420143737967
 21
0.8825648140703673
 31
0.0
  0
LINE
  5
45F
330
2
100
AcDbEntity
  8
0
100
AcDbLine
 10
5.452637955267134
 20
0.8825048861756339
 30
0.0
 11
5.452637955267134
 21
0.8858009203872777
 31
0.0
  0
LINE
  5
460
330
2
100
AcDbEntity
  8
0
100
AcDbLine
 10
5.616510783480227
 20
0.7739455048232821
 30
0.0
 11
5.643777975594666
 21
0.7964184653571664
 31
0.0
  0
LINE
  5
461
330
2
100
AcDbEntity
  8
0
100
AcDbLine
 10
5.643777975594666
 20
0.7964184653571664
 30
0.0
 11
5.654864636124727
 21
0.8230863785240416
 31
0.0
  0
LINE
  5
462
330
2
100
AcDbEntity
  8
0
100
AcDbLine
 10
5.654864636124727
 20
0.8230863785240416
 30
0.0
 11
5.648272567701458
 21
0.8497542916909166
 31
0.0
  0
LINE
  5
463
330
2
100
AcDbEntity
  8
0
100
AcDbLine
 10
5.648272567701458
 20
0.8497542916909166
 30
0.0
 11
5.625799607167574
 21
0.8737254495937317
 31
0.0
  0
LINE
  5
464
330
2
100
AcDbEntity
  8
0
100
AcDbLine
 10
5.625799607167574
 20
0.8737254495937317
 30
0.0
 11
5.616510783480227
 21
0.8788193206480885
 31
0.0
  0
LINE
  5
465
330
2
100
AcDbEntity
  8
0
100
AcDbLine
 10
5.402598163145028
 20
0.844180997478462
 30
0.0
 11
5.402598163145028
 21
0.8432820790571151
 31
0.0
  0
LINE
  5
466
330
2
100
AcDbEntity
  8
0
100
AcDbLine
 10
5.402598163145028
 20
0.8432820790571151
 30
0.0
 11
5.399002489459602
 21
0.8163145264164384
 31
0.0
  0
LINE
  5
467
330
2
100
AcDbEntity
  8
0
100
AcDbLine
 10
5.399002489459602
 20
0.8163145264164384
 30
0.0
 11
5.414583742096435
 21
0.7905455316709296
 31
0.0
  0
LINE
  5
468
330
2
100
AcDbEntity
  8
0
100
AcDbLine
 10
5.414583742096435
 20
0.7905455316709296
 30
0.0
 11
5.444847328948736
 21
0.7695707685059569
 31
0.0
  0
LINE
  5
469
330
2
100
AcDbEntity
  8
0
100
AcDbLine
 10
5.444847328948736
 20
0.7695707685059569
 30
0.0
 11
5.485598297383514
 21
0.75638663165942
 31
0.0
  0
LINE
  5
46A
330
2
100
AcDbEntity
  8
0
100
AcDbLine
 10
5.485598297383514
 20
0.75638663165942
 30
0.0
 11
5.532641694767779
 21
0.7527909579739939
 31
0.0
  0
LINE
  5
46B
330
2
100
AcDbEntity
  8
0
100
AcDbLine
 10
5.532641694767779
 20
0.7527909579739939
 30
0.0
 11
5.578186894783112
 21
0.7587837474496978
 31
0.0
  0
LINE
  5
46C
330
2
100
AcDbEntity
  8
0
100
AcDbLine
 10
5.578186894783112
 20
0.7587837474496978
 30
0.0
 11
5.616540747427612
 21
0.7740653606127298
 31
0.0
  0
ARC
  5
46D
330
2
100
AcDbEntity
  8
0
100
AcDbCircle
 10
5.53199241717266
 20
0.9021899511883406
 30
0.0
 40
0.0931191836986879
100
AcDbArc
 50
247.2990352347398
 51
259.6312893279714
  0
ELLIPSE
  5
46E
330
2
100
AcDbEntity
  8
0
100
AcDbEllipse
 10
46.11467383734626
 20
26.49831767177874
 30
0.0
 11
-0.2388659153377553
 21
0.4136216001179623
 31
0.0
210
0.0
220
0.0
230
1.0
 40
0.5769489699805908
 41
0.7847363597086688
 42
3.928358002599825
  0
ELLIPSE
  5
46F
330
2
100
AcDbEntity
  8
0
100
AcDbEllipse
 10
5.005112727190291
 20
0.5032222831456058
 30
0.0
 11
-0.2430699219978431
 21
0.0003887324761717
 31
0.0
210
0.0
220
0.0
230
1.0
 40
0.577388285090528
 41
0.7834535827861001
 42
7.066638889965686
  0
SPLINE
  5
470
330
2
100
AcDbEntity
  8
0
100
AcDbSpline
210
0.0
220
0.0
230
1.0
 70
     8
 71
     3
 72
     8
 73
     4
 74
     0
 42
0.000000001
 43
0.0000000001
 40
0.0
 40
0.0
 40
0.0
 40
0.0
 40
1.0
 40
1.0
 40
1.0
 40
1.0
 10
42.73638814703647
 20
28.83895768217148
 30
0.0
 10
42.73728706545782
 20
28.84584939006855
 30
0.0
 10
42.73279247335105
 20
28.85214181901802
 30
0.0
 10
42.72620040492778
 20
28.85334037691319
 30
0.0
  0
SPLINE
  5
471
330
2
100
AcDbEntity
  8
0
100
AcDbSpline
210
0.0
220
0.0
230
1.0
 70
     8
 71
     3
 72
     8
 73
     4
 74
     0
 42
0.000000001
 43
0.0000000001
 40
0.0
 40
0.0
 40
0.0
 40
0.0
 40
1.0
 40
1.0
 40
1.0
 40
1.0
 10
42.72620040492778
 20
28.85334037691319
 30
0.0
 10
42.72260473124236
 20
28.85393965586075
 30
0.0
 10
42.71900905755693
 20
28.85304073743937
 30
0.0
 10
42.71631230229287
 20
28.85064362164911
 30
0.0
  0
SPLINE
  5
472
330
2
100
AcDbEntity
  8
0
100
AcDbSpline
210
0.0
220
0.0
230
1.0
 70
     8
 71
     2
 72
     6
 73
     3
 74
     0
 42
0.000000001
 43
0.0000000001
 40
0.0
 40
0.0
 40
0.0
 40
1.0
 40
1.0
 40
1.0
 10
47.21956398986237
 20
25.23273668727253
 30
0.0
 10
47.23154956881378
 20
25.24052731359094
 30
0.0
 10
47.23682322355235
 20
25.25404105385867
 30
0.0
  0
SPLINE
  5
473
330
2
100
AcDbEntity
  8
0
100
AcDbSpline
210
0.0
220
0.0
230
1.0
 70
     8
 71
     3
 72
     8
 73
     4
 74
     0
 42
0.000000001
 43
0.0000000001
 40
0.0
 40
0.0
 40
0.0
 40
0.0
 40
1.0
 40
1.0
 40
1.0
 40
1.0
 10
49.96782727947228
 20
24.65775850102622
 30
0.0
 10
49.96722800052472
 20
24.66285237208056
 30
0.0
 10
49.96363232683929
 20
24.66734696418733
 30
0.0
 10
49.9594373742063
 20
24.66944444050385
 30
0.0
  0
SPLINE
  5
474
330
2
100
AcDbEntity
  8
0
100
AcDbSpline
210
0.0
220
0.0
230
1.0
 70
     8
 71
     3
 72
     8
 73
     4
 74
     0
 42
0.000000001
 43
0.0000000001
 40
0.0
 40
0.0
 40
0.0
 40
0.0
 40
1.0
 40
1.0
 40
1.0
 40
1.0
 10
0.0000085589568072
 20
4.525431716613251
 30
0.0
 10
0.0012071168519556
 20
4.510449742924001
 30
0.0
 10
0.0071999063276594
 20
4.496067048182316
 30
0.0
 10
0.0182865668577009
 20
4.485579666599821
 30
0.0
  0
SPLINE
  5
475
330
2
100
AcDbEntity
  8
0
100
AcDbSpline
210
0.0
220
0.0
230
1.0
 70
     8
 71
     3
 72
     8
 73
     4
 74
     0
 42
0.000000001
 43
0.0000000001
 40
0.0
 40
0.0
 40
0.0
 40
0.0
 40
1.0
 40
1.0
 40
1.0
 40
1.0
 10
42.23631982923643
 20
29.11195920673714
 30
0.0
 10
42.232724155551
 20
29.114955601475
 30
0.0
 10
42.22763028449667
 20
29.11435632252744
 30
0.0
 10
42.22463388975881
 20
29.11106028831579
 30
0.0
  0
SPLINE
  5
476
330
2
100
AcDbEntity
  8
0
100
AcDbSpline
210
0.0
220
0.0
230
1.0
 70
     8
 71
     3
 72
     8
 73
     4
 74
     0
 42
0.000000001
 43
0.0000000001
 40
0.0
 40
0.0
 40
0.0
 40
0.0
 40
1.0
 40
1.0
 40
1.0
 40
1.0
 10
42.22463388975881
 20
29.11106028831579
 30
0.0
 10
42.22283605291609
 20
29.10896281199928
 30
0.0
 10
42.22253641344231
 20
29.10656569620903
 30
0.0
 10
42.22283605291609
 20
29.10416858041873
 30
0.0
  0
SPLINE
  5
477
330
2
100
AcDbEntity
  8
0
100
AcDbSpline
210
0.0
220
0.0
230
1.0
 70
     8
 71
     3
 72
     8
 73
     4
 74
     0
 42
0.000000001
 43
0.0000000001
 40
0.0
 40
0.0
 40
0.0
 40
0.0
 40
1.0
 40
1.0
 40
1.0
 40
1.0
 10
42.23631982923643
 20
29.12778017095299
 30
0.0
 10
42.22942812133938
 20
29.13347332095489
 30
0.0
 10
42.2186411002831
 20
29.13257440253354
 30
0.0
 10
42.21294795028118
 20
29.12538305516269
 30
0.0
  0
SPLINE
  5
478
330
2
100
AcDbEntity
  8
0
100
AcDbSpline
210
0.0
220
0.0
230
1.0
 70
     8
 71
     3
 72
     8
 73
     4
 74
     0
 42
0.000000001
 43
0.0000000001
 40
0.0
 40
0.0
 40
0.0
 40
0.0
 40
1.0
 40
1.0
 40
1.0
 40
1.0
 10
42.21294795028118
 20
29.12538305516269
 30
0.0
 10
42.20995155554334
 20
29.12148774200348
 30
0.0
 10
42.20845335817441
 20
29.11669351042293
 30
0.0
 10
42.20935227659577
 20
29.11189927884237
 30
0.0
  0
SPLINE
  5
479
330
2
100
AcDbEntity
  8
0
100
AcDbSpline
210
0.0
220
0.0
230
1.0
 70
     8
 71
     3
 72
     8
 73
     4
 74
     0
 42
0.000000001
 43
0.0000000001
 40
0.0
 40
0.0
 40
0.0
 40
0.0
 40
1.0
 40
1.0
 40
1.0
 40
1.0
 10
2.6297644366847
 20
1.916171178892214
 30
0.0
 10
2.636056865634186
 20
1.907481634152451
 30
0.0
 10
2.647742805111811
 20
1.903586320993242
 30
0.0
 10
2.657930547220506
 20
1.907481634152451
 30
0.0
  0
SPLINE
  5
47A
330
2
100
AcDbEntity
  8
0
100
AcDbSpline
210
0.0
220
0.0
230
1.0
 70
     8
 71
     3
 72
     8
 73
     4
 74
     0
 42
0.000000001
 43
0.0000000001
 40
0.0
 40
0.0
 40
0.0
 40
0.0
 40
1.0
 40
1.0
 40
1.0
 40
1.0
 10
7.752310988673356
 20
0.0207417595695728
 30
0.0
 10
7.756206301832564
 20
0.0201424806220082
 30
0.0
 10
7.759502336044208
 20
0.0204421200957905
 30
0.0
 10
7.76249873078205
 20
0.0222399569385035
 30
0.0
  0
SPLINE
  5
47B
330
2
100
AcDbEntity
  8
0
100
AcDbSpline
210
0.0
220
0.0
230
1.0
 70
     8
 71
     3
 72
     8
 73
     4
 74
     0
 42
0.000000001
 43
0.0000000001
 40
0.0
 40
0.0
 40
0.0
 40
0.0
 40
1.0
 40
1.0
 40
1.0
 40
1.0
 10
5.453806549214916
 20
0.8825048861756339
 30
0.0
 10
5.453207270267351
 20
0.8768117361737125
 30
0.0
 10
5.453207270267351
 20
0.8714182256455925
 30
0.0
 10
5.455304746583847
 20
0.8660247151174534
 30
0.0
  0
SPLINE
  5
47C
330
2
100
AcDbEntity
  8
0
100
AcDbSpline
210
0.0
220
0.0
230
1.0
 70
     8
 71
     3
 72
     8
 73
     4
 74
     0
 42
0.000000001
 43
0.0000000001
 40
0.0
 40
0.0
 40
0.0
 40
0.0
 40
1.0
 40
1.0
 40
1.0
 40
1.0
 10
5.455304746583847
 20
0.8660247151174534
 30
0.0
 10
5.455904025531411
 20
0.8579344493252543
 30
0.0
 10
5.459799338690619
 20
0.8501438230068373
 30
0.0
 10
5.464293930797393
 20
0.8432521151097866
 30
0.0
  0
SPLINE
  5
47D
330
2
100
AcDbEntity
  8
0
100
AcDbSpline
210
0.0
220
0.0
230
1.0
 70
     8
 71
     3
 72
     8
 73
     4
 74
     0
 42
0.000000001
 43
0.0000000001
 40
0.0
 40
0.0
 40
0.0
 40
0.0
 40
1.0
 40
1.0
 40
1.0
 40
1.0
 10
5.464293930797393
 20
0.8432521151097866
 30
0.0
 10
5.468488883430383
 20
0.8372593256340829
 30
0.0
 10
5.473283115010958
 20
0.8315661756321615
 30
0.0
 10
5.479575543960444
 20
0.8270715835253884
 30
0.0
  0
SPLINE
  5
47E
330
2
100
AcDbEntity
  8
0
100
AcDbSpline
210
0.0
220
0.0
230
1.0
 70
     8
 71
     3
 72
     8
 73
     4
 74
     0
 42
0.000000001
 43
0.0000000001
 40
0.0
 40
0.0
 40
0.0
 40
0.0
 40
1.0
 40
1.0
 40
1.0
 40
1.0
 10
5.515232641340865
 20
0.8105914124672079
 30
0.0
 10
5.523322907133064
 20
0.8090932150982771
 30
0.0
 10
5.532611730820412
 20
0.8093928545720594
 30
0.0
 10
5.539503438717463
 20
0.8111906914147725
 30
0.0
  0
SPLINE
  5
47F
330
2
100
AcDbEntity
  8
0
100
AcDbSpline
210
0.0
220
0.0
230
1.0
 70
     8
 71
     3
 72
     8
 73
     4
 74
     0
 42
0.000000001
 43
0.0000000001
 40
0.0
 40
0.0
 40
0.0
 40
0.0
 40
1.0
 40
1.0
 40
1.0
 40
1.0
 10
5.539503438717463
 20
0.8111906914147725
 30
0.0
 10
5.54879226240481
 20
0.8120896098361194
 30
0.0
 10
5.556882528197009
 20
0.8153856440477632
 30
0.0
 10
5.564373515041625
 20
0.8198802361545363
 30
0.0
  0
SPLINE
  5
480
330
2
100
AcDbEntity
  8
0
100
AcDbSpline
210
0.0
220
0.0
230
1.0
 70
     8
 71
     3
 72
     8
 73
     4
 74
     0
 42
0.000000001
 43
0.0000000001
 40
0.0
 40
0.0
 40
0.0
 40
0.0
 40
1.0
 40
1.0
 40
1.0
 40
1.0
 10
5.564373515041625
 20
0.8198802361545363
 30
0.0
 10
5.571864501886259
 20
0.8237755493137445
 30
0.0
 10
5.577857291361963
 20
0.8285697808943
 30
0.0
 10
5.582351883468736
 20
0.8348622098438053
 30
0.0
  0
SPLINE
  5
481
330
2
100
AcDbEntity
  8
0
100
AcDbSpline
210
0.0
220
0.0
230
1.0
 70
     8
 71
     3
 72
     8
 73
     4
 74
     0
 42
0.000000001
 43
0.0000000001
 40
0.0
 40
0.0
 40
0.0
 40
0.0
 40
1.0
 40
1.0
 40
1.0
 40
1.0
 10
5.582351883468736
 20
0.8348622098438053
 30
0.0
 10
5.587445754523093
 20
0.8414542782670737
 30
0.0
 10
5.592539625577431
 20
0.8486456256379067
 30
0.0
 10
5.595835659789075
 20
0.8564362519563236
 30
0.0
  0
SPLINE
  5
482
330
2
100
AcDbEntity
  8
0
100
AcDbSpline
210
0.0
220
0.0
230
1.0
 70
     8
 71
     3
 72
     8
 73
     4
 74
     0
 42
0.000000001
 43
0.0000000001
 40
0.0
 40
0.0
 40
0.0
 40
0.0
 40
1.0
 40
1.0
 40
1.0
 40
1.0
 10
5.595835659789075
 20
0.8564362519563236
 30
0.0
 10
5.599730972948282
 20
0.8645265177485226
 30
0.0
 10
5.601828449264778
 20
0.8732160624882864
 30
0.0
 10
5.600330251895847
 20
0.8822052467018517
 30
0.0
  0
SPLINE
  5
483
330
2
100
AcDbEntity
  8
0
100
AcDbSpline
210
0.0
220
0.0
230
1.0
 70
     8
 71
     3
 72
     8
 73
     4
 74
     0
 42
0.000000001
 43
0.0000000001
 40
0.0
 40
0.0
 40
0.0
 40
0.0
 40
1.0
 40
1.0
 40
1.0
 40
1.0
 10
5.436547315524894
 20
0.8786994648585258
 30
0.0
 10
5.44164118657925
 20
0.8813962201225857
 30
0.0
 10
5.447334336581152
 20
0.8846922543342296
 30
0.0
 10
5.452727847109292
 20
0.8867897306507249
 30
0.0
  0
SPLINE
  5
484
330
2
100
AcDbEntity
  8
0
100
AcDbSpline
210
0.0
220
0.0
230
1.0
 70
     8
 71
     3
 72
     8
 73
     4
 74
     0
 42
0.000000001
 43
0.0000000001
 40
0.0
 40
0.0
 40
0.0
 40
0.0
 40
1.0
 40
1.0
 40
1.0
 40
1.0
 10
5.577377868203903
 20
0.8945803569691417
 30
0.0
 10
5.590262365576677
 20
0.8912843227574979
 30
0.0
 10
5.604045781370778
 20
0.8873890095982895
 30
0.0
 10
5.613334605058126
 20
0.8810965806488034
 30
0.0
  0
SPLINE
  5
485
330
2
100
AcDbEntity
  8
0
100
AcDbSpline
210
0.0
220
0.0
230
1.0
 70
     8
 71
     3
 72
     8
 73
     4
 74
     0
 42
0.000000001
 43
0.0000000001
 40
0.0
 40
0.0
 40
0.0
 40
0.0
 40
1.0
 40
1.0
 40
1.0
 40
1.0
 10
5.613334605058126
 20
0.8810965806488034
 30
0.0
 10
5.613334605058126
 20
0.880796941175021
 30
0.0
 10
5.613634244531908
 20
0.880796941175021
 30
0.0
 10
5.613933884005691
 20
0.8804973017012388
 30
0.0
  0
ARC
  5
486
330
2
100
AcDbEntity
  8
0
100
AcDbCircle
 10
46.86319699020074
 20
24.32123756696278
 30
0.0
 40
0.0416009321578333
100
AcDbArc
 50
251.0523895796076
 51
296.7172485453699
  0
ARC
  5
487
330
2
100
AcDbEntity
  8
0
100
AcDbCircle
 10
5.006038446923531
 20
0.7840365405630302
 30
0.0
 40
0.4255560396974202
100
AcDbArc
 50
253.3073003200062
 51
292.2713267054547
  0
ENDSEC
  0
SECTION
  2
OBJECTS
  0
DICTIONARY
  5
A
330
0
100
AcDbDictionary
281
     1
  3
ACAD_COLOR
350
3F
  3
ACAD_GROUP
350
36
  3
ACAD_LAYOUT
350
17
  3
ACAD_MATERIAL
350
C
  3
ACAD_MLEADERSTYLE
350
42
  3
ACAD_MLINESTYLE
350
37
  3
ACAD_PLOTSETTINGS
350
38
  3
ACAD_PLOTSTYLENAME
350
9
  3
ACAD_SCALELIST
350
40
  3
ACAD_TABLESTYLE
350
41
  3
ACAD_VISUALSTYLE
350
2C
  3
ACDB_RECOMPOSE_DATA
350
497
  3
AcDbVariableDictionary
350
489
  3
AcDsDecomposeData
350
49D
  0
DICTIONARY
  5
1F
330
1E
100
AcDbDictionary
280
     1
281
     1
  3
ACAD_LAYERSTATES
360
20
  0
DICTIONARY
  5
7
330
6
100
AcDbDictionary
280
     1
281
     1
  0
DICTIONARY
  5
3
330
2
100
AcDbDictionary
280
     1
281
     1
  3
ACAD_SORTENTS
360
488
  0
DICTIONARY
  5
3F
102
{ACAD_REACTORS
330
A
102
}
330
A
100
AcDbDictionary
281
     1
  0
DICTIONARY
  5
36
102
{ACAD_REACTORS
330
A
102
}
330
A
100
AcDbDictionary
281
     1
  0
DICTIONARY
  5
17
102
{ACAD_REACTORS
330
A
102
}
330
A
100
AcDbDictionary
281
     1
  3
Model
350
16
  3
レイアウト1
350
1D
  0
DICTIONARY
  5
C
102
{ACAD_REACTORS
330
A
102
}
330
A
100
AcDbDictionary
281
     1
  3
ByBlock
350
3C
  3
ByLayer
350
39
  3
Global
350
B
  0
DICTIONARY
  5
42
102
{ACAD_REACTORS
330
A
102
}
330
A
100
AcDbDictionary
281
     1
  0
DICTIONARY
  5
37
102
{ACAD_REACTORS
330
A
102
}
330
A
100
AcDbDictionary
281
     1
  3
Standard
350
43
  0
DICTIONARY
  5
38
102
{ACAD_REACTORS
330
A
102
}
330
A
100
AcDbDictionary
281
     1
  0
ACDBDICTIONARYWDFLT
  5
9
102
{ACAD_REACTORS
330
A
102
}
330
A
100
AcDbDictionary
281
     1
  3
Normal
350
8
100
AcDbDictionaryWithDefault
340
8
  0
DICTIONARY
  5
40
102
{ACAD_REACTORS
330
A
102
}
330
A
100
AcDbDictionary
281
     1
  3
A0
350
48
  3
A1
350
49
  3
A2
350
4A
  3
A3
350
4B
  3
A4
350
4C
  3
A5
350
4D
  3
A6
350
4E
  3
A7
350
4F
  3
A8
350
50
  3
A9
350
51
  3
B0
350
52
  3
B1
350
53
  3
B2
350
54
  3
B3
350
55
  3
B4
350
56
  3
B5
350
57
  3
B6
350
58
  0
DICTIONARY
  5
41
102
{ACAD_REACTORS
330
A
102
}
330
A
100
AcDbDictionary
281
     1
  3
Standard
350
44
  0
DICTIONARY
  5
2C
102
{ACAD_REACTORS
330
A
102
}
330
A
100
AcDbDictionary
281
     1
  3
2dWireframe
350
2B
  3
Realistic
350
46
  3
Wireframe
350
47
  0
XRECORD
  5
497
102
{ACAD_REACTORS
330
A
102
}
330
A
100
AcDbXrecord
280
     1
 90
        1
330
44
  0
DICTIONARY
  5
489
102
{ACAD_REACTORS
330
A
102
}
330
A
100
AcDbDictionary
281
     1
  3
CANNOSCALE
350
48F
  3
CMLEADERSTYLE
350
48B
  3
CTABLESTYLE
350
48A
  3
CVIEWDETAILSTYLE
350
48C
  3
CVIEWSECTIONSTYLE
350
48D
  3
LAYEREVAL
350
491
  3
LAYERNOTIFY
350
492
  3
LIGHTINGUNITS
350
490
  3
MSLTSCALE
350
48E
  3
PSOLHEIGHT
350
494
  3
PSOLWIDTH
350
493
  3
XCLIPFRAME
350
495
  0
DICTIONARY
  5
49D
102
{ACAD_REACTORS
330
A
102
}
330
A
100
AcDbDictionary
281
     1
  3
AcDsRecords
350
49F
  3
AcDsSchemas
350
49E
1001
ACAD
1070
     2
  0
DICTIONARY
  5
20
102
{ACAD_REACTORS
330
1F
102
}
330
1F
100
AcDbDictionary
281
     1
  0
SORTENTSTABLE
  5
488
102
{ACAD_REACTORS
330
3
102
}
330
3
100
AcDbSortentsTable
330
2
  0
LAYOUT
  5
16
102
{ACAD_XDICTIONARY
360
18
102
}
102
{ACAD_REACTORS
330
17
102
}
330
17
100
AcDbPlotSettings
  1

  2
none_device
  4
ISO_A4_(210.00_x_297.00_MM)
  6

 40
7.5
 41
20.0
 42
7.5
 43
20.0
 44
210.0
 45
297.0
 46
11.54999923706054
 47
-13.65000009536743
 48
0.0
 49
0.0
140
0.0
141
0.0
142
1.0
143
8.704084754739808
 70
 11952
 72
     1
 73
     0
 74
     0
  7

 75
     0
147
0.1148885871608098
 76
     0
 77
     2
 78
   300
148
0.0
149
0.0
100
AcDbLayout
  1
Model
 70
     1
 71
     0
 10
0.0
 20
0.0
 11
12.0
 21
9.0
 12
0.0
 22
0.0
 32
0.0
 14
0.0
 24
0.0
 34
0.0
 15
0.0
 25
0.0
 35
0.0
146
0.0
 13
0.0
 23
0.0
 33
0.0
 16
1.0
 26
0.0
 36
0.0
 17
0.0
 27
1.0
 37
0.0
 76
     0
330
2
331
2A
1001
ACAD_PSEXT
1000
None
1000
None
1000
Not applicable
1000
The layout will not be plotted unless a new plotter configuration name is selected.
1070
     0
  0
LAYOUT
  5
1D
102
{ACAD_REACTORS
330
17
102
}
330
17
100
AcDbPlotSettings
  1

  2
C:\Documents and Settings\basas\Application Data\Autodesk\AutoCAD 2005\R16.1\enu\plotters\Default Windows System Printer.pc3
  4

  6

 40
0.0
 41
0.0
 42
0.0
 43
0.0
 44
0.0
 45
0.0
 46
0.0
 47
0.0
 48
0.0
 49
0.0
140
0.0
141
0.0
142
1.0
143
1.0
 70
   688
 72
     0
 73
     0
 74
     5
  7

 75
    16
147
1.0
 76
     0
 77
     2
 78
   300
148
0.0
149
0.0
100
AcDbLayout
  1
レイアウト1
 70
     1
 71
     1
 10
0.0
 20
0.0
 11
12.0
 21
9.0
 12
0.0
 22
0.0
 32
0.0
 14
0.0
 24
0.0
 34
0.0
 15
0.0
 25
0.0
 35
0.0
146
0.0
 13
0.0
 23
0.0
 33
0.0
 16
1.0
 26
0.0
 36
0.0
 17
0.0
 27
1.0
 37
0.0
 76
     0
330
1A
  0
MATERIAL
  5
3C
102
{ACAD_XDICTIONARY
360
3D
102
}
102
{ACAD_REACTORS
330
C
102
}
330
C
100
AcDbMaterial
  1
ByBlock
  0
MATERIAL
  5
39
102
{ACAD_XDICTIONARY
360
3A
102
}
102
{ACAD_REACTORS
330
C
102
}
330
C
100
AcDbMaterial
  1
ByLayer
  0
MATERIAL
  5
B
102
{ACAD_XDICTIONARY
360
D
102
}
102
{ACAD_REACTORS
330
C
102
}
330
C
100
AcDbMaterial
  1
Global
 43
0.0007999999797903
 43
0.0
 43
0.0
 43
0.0
 43
0.0
 43
0.0007999999797903
 43
0.0
 43
0.0
 43
0.0
 43
0.0
 43
1.0
 43
0.0
 43
0.0
 43
0.0
 43
0.0
 43
1.0
 49
0.0007999999797903
 49
0.0
 49
0.0
 49
0.0
 49
0.0
 49
0.0007999999797903
 49
0.0
 49
0.0
 49
0.0
 49
0.0
 49
1.0
 49
0.0
 49
0.0
 49
0.0
 49
0.0
 49
1.0
142
0.0007999999797903
142
0.0
142
0.0
142
0.0
142
0.0
142
0.0007999999797903
142
0.0
142
0.0
142
0.0
142
0.0
142
1.0
142
0.0
142
0.0
142
0.0
142
0.0
142
1.0
144
0.0007999999797903
144
0.0
144
0.0
144
0.0
144
0.0
144
0.0007999999797903
144
0.0
144
0.0
144
0.0
144
0.0
144
1.0
144
0.0
144
0.0
144
0.0
144
0.0
144
1.0
1001
ACAD
1070
    -1
1070
     3
1070
     0
1000

1071
        0
1070
     0
  0
MLINESTYLE
  5
43
102
{ACAD_REACTORS
330
37
102
}
330
37
100
AcDbMlineStyle
  2
STANDARD
 70
     0
  3

 62
   256
 51
90.0
 52
90.0
 71
     2
 49
0.5
 62
   256
  6
BYLAYER
 49
-0.5
 62
   256
  6
BYLAYER
  0
ACDBPLACEHOLDER
  5
8
102
{ACAD_REACTORS
330
9
102
}
330
9
  0
SCALE
  5
48
102
{ACAD_REACTORS
330
40
102
}
330
40
100
AcDbScale
 70
     0
300
1:1
140
1.0
141
1.0
290
     1
  0
SCALE
  5
49
102
{ACAD_REACTORS
330
40
102
}
330
40
100
AcDbScale
 70
     0
300
1:2
140
1.0
141
2.0
290
     0
  0
SCALE
  5
4A
102
{ACAD_REACTORS
330
40
102
}
330
40
100
AcDbScale
 70
     0
300
1:4
140
1.0
141
4.0
290
     0
  0
SCALE
  5
4B
102
{ACAD_REACTORS
330
40
102
}
330
40
100
AcDbScale
 70
     0
300
1:5
140
1.0
141
5.0
290
     0
  0
SCALE
  5
4C
102
{ACAD_REACTORS
330
40
102
}
330
40
100
AcDbScale
 70
     0
300
1:8
140
1.0
141
8.0
290
     0
  0
SCALE
  5
4D
102
{ACAD_REACTORS
330
40
102
}
330
40
100
AcDbScale
 70
     0
300
1:10
140
1.0
141
10.0
290
     0
  0
SCALE
  5
4E
102
{ACAD_REACTORS
330
40
102
}
330
40
100
AcDbScale
 70
     0
300
1:16
140
1.0
141
16.0
290
     0
  0
SCALE
  5
4F
102
{ACAD_REACTORS
330
40
102
}
330
40
100
AcDbScale
 70
     0
300
1:20
140
1.0
141
20.0
290
     0
  0
SCALE
  5
50
102
{ACAD_REACTORS
330
40
102
}
330
40
100
AcDbScale
 70
     0
300
1:30
140
1.0
141
30.0
290
     0
  0
SCALE
  5
51
102
{ACAD_REACTORS
330
40
102
}
330
40
100
AcDbScale
 70
     0
300
1:40
140
1.0
141
40.0
290
     0
  0
SCALE
  5
52
102
{ACAD_REACTORS
330
40
102
}
330
40
100
AcDbScale
 70
     0
300
1:50
140
1.0
141
50.0
290
     0
  0
SCALE
  5
53
102
{ACAD_REACTORS
330
40
102
}
330
40
100
AcDbScale
 70
     0
300
1:100
140
1.0
141
100.0
290
     0
  0
SCALE
  5
54
102
{ACAD_REACTORS
330
40
102
}
330
40
100
AcDbScale
 70
     0
300
2:1
140
2.0
141
1.0
290
     0
  0
SCALE
  5
55
102
{ACAD_REACTORS
330
40
102
}
330
40
100
AcDbScale
 70
     0
300
4:1
140
4.0
141
1.0
290
     0
  0
SCALE
  5
56
102
{ACAD_REACTORS
330
40
102
}
330
40
100
AcDbScale
 70
     0
300
8:1
140
8.0
141
1.0
290
     0
  0
SCALE
  5
57
102
{ACAD_REACTORS
330
40
102
}
330
40
100
AcDbScale
 70
     0
300
10:1
140
10.0
141
1.0
290
     0
  0
SCALE
  5
58
102
{ACAD_REACTORS
330
40
102
}
330
40
100
AcDbScale
 70
     0
300
100:1
140
100.0
141
1.0
290
     0
  0
TABLESTYLE
  5
44
102
{ACAD_XDICTIONARY
360
45
102
}
102
{ACAD_REACTORS
330
41
102
}
330
41
100
AcDbTableStyle
  3
Standard
 70
     0
 71
     0
 40
1.5
 41
1.5
280
     0
281
     0
  7
Standard
140
4.5
170
     2
 62
     0
 63
     7
283
     0
274
    -2
284
     1
 64
     0
275
    -2
285
     1
 65
     0
276
    -2
286
     1
 66
     0
277
    -2
287
     1
 67
     0
278
    -2
288
     1
 68
     0
279
    -2
289
     1
 69
     0
  7
Standard
140
6.0
170
     5
 62
     0
 63
     7
283
     0
274
    -2
284
     1
 64
     0
275
    -2
285
     1
 65
     0
276
    -2
286
     1
 66
     0
277
    -2
287
     1
 67
     0
278
    -2
288
     1
 68
     0
279
    -2
289
     1
 69
     0
  7
Standard
140
4.5
170
     5
 62
     0
 63
     7
283
     0
274
    -2
284
     1
 64
     0
275
    -2
285
     1
 65
     0
276
    -2
286
     1
 66
     0
277
    -2
287
     1
 67
     0
278
    -2
288
     1
 68
     0
279
    -2
289
     1
 69
     0
  0
VISUALSTYLE
  5
2B
102
{ACAD_XDICTIONARY
360
4A1
102
}
102
{ACAD_REACTORS
330
2C
102
}
330
2C
100
AcDbVisualStyle
  2
2dWireframe
 70
     4
 71
     0
 72
     2
 73
     1
 90
        0
 40
-0.6
 41
-30.0
 62
     5
 63
     7
421
 16777215
 74
     1
 91
        4
 64
     7
 65
   257
 75
     1
175
     1
 42
1.0
 92
        0
 66
   257
 43
1.0
 76
     1
 77
     6
 78
     2
 67
     7
 79
     5
170
     0
171
     0
290
     0
174
     0
 93
        1
 44
0.0
173
     0
291
     0
 45
0.0
1001
ACAD
1000
AcDbSavedByObjectVersion
1070
     0
  0
VISUALSTYLE
  5
46
102
{ACAD_XDICTIONARY
360
4A6
102
}
102
{ACAD_REACTORS
330
2C
102
}
330
2C
100
AcDbVisualStyle
  2
Realistic
 70
     8
 71
     2
 72
     3
 73
     0
 90
        2
 40
-0.6
 41
30.0
 62
     5
 63
     7
421
 16777215
 74
     0
 91
        0
 64
     7
 65
   257
 75
     1
175
     1
 42
1.0
 92
        8
 66
   257
 43
1.0
 76
     1
 77
     6
 78
     2
 67
     7
 79
     3
170
     0
171
     0
290
     0
174
     0
 93
       13
 44
0.0
173
     0
291
     0
 45
0.0
1001
ACAD
1000
AcDbSavedByObjectVersion
1070
     0
  0
VISUALSTYLE
  5
47
102
{ACAD_XDICTIONARY
360
4A8
102
}
102
{ACAD_REACTORS
330
2C
102
}
330
2C
100
AcDbVisualStyle
  2
Wireframe
 70
     5
 71
     0
 72
     2
 73
     0
 90
        0
 40
-0.6
 41
-30.0
 62
     5
 63
     7
421
 16777215
 74
     1
 91
        4
 64
     7
 65
   257
 75
     1
175
     1
 42
1.0
 92
        0
 66
   257
 43
1.0
 76
     1
 77
     6
 78
     2
 67
     7
 79
     3
170
     0
171
     0
290
     0
174
     0
 93
        1
 44
0.0
173
     0
291
     0
 45
0.0
1001
ACAD
1000
AcDbSavedByObjectVersion
1070
     0
  0
DICTIONARYVAR
  5
48F
102
{ACAD_REACTORS
330
489
102
}
330
489
100
DictionaryVariables
280
     0
  1
1:1
  0
DICTIONARYVAR
  5
48B
102
{ACAD_REACTORS
330
489
102
}
330
489
100
DictionaryVariables
280
     0
  1
STANDARD
  0
DICTIONARYVAR
  5
48A
102
{ACAD_REACTORS
330
489
102
}
330
489
100
DictionaryVariables
280
     0
  1
STANDARD
  0
DICTIONARYVAR
  5
48C
102
{ACAD_REACTORS
330
489
102
}
330
489
100
DictionaryVariables
280
     0
  1

  0
DICTIONARYVAR
  5
48D
102
{ACAD_REACTORS
330
489
102
}
330
489
100
DictionaryVariables
280
     0
  1

  0
DICTIONARYVAR
  5
491
102
{ACAD_REACTORS
330
489
102
}
330
489
100
DictionaryVariables
280
     0
  1
0
  0
DICTIONARYVAR
  5
492
102
{ACAD_REACTORS
330
489
102
}
330
489
100
DictionaryVariables
280
     0
  1
0
  0
DICTIONARYVAR
  5
490
102
{ACAD_REACTORS
330
489
102
}
330
489
100
DictionaryVariables
280
     0
  1
2
  0
DICTIONARYVAR
  5
48E
102
{ACAD_REACTORS
330
489
102
}
330
489
100
DictionaryVariables
280
     0
  1
1
  0
DICTIONARYVAR
  5
494
102
{ACAD_REACTORS
330
489
102
}
330
489
100
DictionaryVariables
280
     0
  1
80.000000
  0
DICTIONARYVAR
  5
493
102
{ACAD_REACTORS
330
489
102
}
330
489
100
DictionaryVariables
280
     0
  1
5.000000
  0
DICTIONARYVAR
  5
495
102
{ACAD_REACTORS
330
489
102
}
330
489
100
DictionaryVariables
280
     0
  1
2
  0
DICTIONARY
  5
49F
102
{ACAD_REACTORS
330
49D
102
}
330
49D
100
AcDbDictionary
281
     1
  0
DICTIONARY
  5
49E
102
{ACAD_REACTORS
330
49D
102
}
330
49D
100
AcDbDictionary
281
     1
  3
1804466912768
350
498
  3
1804466912784
350
499
  3
1804466912800
350
49A
  3
1804466912816
350
49B
  3
1804466912832
350
49C
  0
DICTIONARY
  5
18
330
16
100
AcDbDictionary
280
     1
281
     1
  0
DICTIONARY
  5
3D
330
3C
100
AcDbDictionary
280
     1
281
     1
  3
ACAD_XREC_ROUNDTRIP
360
4A4
  3
FBXASSET
360
3E
  0
DICTIONARY
  5
3A
330
39
100
AcDbDictionary
280
     1
281
     1
  3
ACAD_XREC_ROUNDTRIP
360
4A3
  3
FBXASSET
360
3B
  0
DICTIONARY
  5
D
330
B
100
AcDbDictionary
280
     1
281
     1
  3
ACAD_XREC_ROUNDTRIP
360
4A0
  3
BUMPTILE
360
E
  3
DIFFUSETILE
360
F
  3
FBXASSET
360
10
  3
OPACITYTILE
360
11
  3
REFLECTIONTILE
360
12
  0
DICTIONARY
  5
45
330
44
100
AcDbDictionary
280
     1
281
     1
  3
ACAD_ROUNDTRIP_2008_TABLESTYLE_CELLSTYLEMAP
360
496
  3
ACAD_XREC_ROUNDTRIP
360
4A5
  0
DICTIONARY
  5
4A1
330
2B
100
AcDbDictionary
280
     1
281
     1
  3
ACAD_XREC_ROUNDTRIP
360
4A2
  0
DICTIONARY
  5
4A6
330
46
100
AcDbDictionary
280
     1
281
     1
  3
ACAD_XREC_ROUNDTRIP
360
4A7
  0
DICTIONARY
  5
4A8
330
47
100
AcDbDictionary
280
     1
281
     1
  3
ACAD_XREC_ROUNDTRIP
360
4A9
  0
XRECORD
  5
498
102
{ACAD_REACTORS
330
49E
102
}
330
49E
100
AcDbXrecord
280
     1
  1
AcDb_Thumbnail_Schema
102
{ATTRRECORD
341
499
  2
AcDbDs::TreatedAsObjectData
280
     1
291
     1
102
ATTRRECORD}
102
{ATTRRECORD
341
49A
  2
AcDbDs::Legacy
280
     1
291
     1
102
ATTRRECORD}
  2
AcDbDs::ID
280
    10
 91
        8
102
{ATTRRECORD
341
49B
  2
AcDs:Indexable
280
     1
291
     1
102
ATTRRECORD}
102
{ATTRRECORD
341
49C
  2
AcDbDs::HandleAttribute
280
     7
282
     1
102
ATTRRECORD}
  2
Thumbnail_Data
280
    15
 91
        0
  0
XRECORD
  5
499
102
{ACAD_REACTORS
330
49E
102
}
330
49E
100
AcDbXrecord
280
     1
  1
AcDbDs::TreatedAsObjectDataSchema
  2
AcDbDs::TreatedAsObjectData
280
     1
 91
        0
  0
XRECORD
  5
49A
102
{ACAD_REACTORS
330
49E
102
}
330
49E
100
AcDbXrecord
280
     1
  1
AcDbDs::LegacySchema
  2
AcDbDs::Legacy
280
     1
 91
        0
  0
XRECORD
  5
49B
102
{ACAD_REACTORS
330
49E
102
}
330
49E
100
AcDbXrecord
280
     1
  1
AcDbDs::IndexedPropertySchema
  2
AcDs:Indexable
280
     1
 91
        0
  0
XRECORD
  5
49C
102
{ACAD_REACTORS
330
49E
102
}
330
49E
100
AcDbXrecord
280
     1
  1
AcDbDs::HandleAttributeSchema
  2
AcDbDs::HandleAttribute
280
     7
 91
        1
284
     1
  0
XRECORD
  5
4A4
102
{ACAD_REACTORS
330
3D
102
}
330
3D
100
AcDbXrecord
280
     1
102
MATERIAL
148
0.0
149
0.0
149
0.0
 93
        0
 94
       63
282
     0
 72
     1
 77
     1
171
     1
175
     1
179
     1
273
     0
  0
XRECORD
  5
3E
102
{ACAD_REACTORS
330
3D
102
}
330
3D
100
AcDbXrecord
280
     1
 70
     1
 90
429727718
  1
D62C5603-E3A1-4AEA-B7FB-FE5D8D0755AF
310
504B03040A0000080000CC70623B3DEE336E79000000790000001B0000006175746F6465736B2D64657369676E2D7061636B6167652E786D6C3C3F786D6C2076657273696F6E3D22312E302220656E636F64696E673D227574662D3822203F3E3C666F726D6174733E3C666F726D61743E687474703A2F2F736368656D612E
310
6175746F6465736B2E636F6D2F64657369676E2D7061636B6167652F323030393C2F666F726D61743E3C2F666F726D6174733E504B0304140006080800CC70623BD486FD9CA0000000F4000000130000005B436F6E74656E745F54797065735D2E786D6C7D8EC10E82300C865F65E91D8A1E8C310C0EEA1BF002731658846E
310
D98AC1B77784ABF1D8FE5FBFBF75BBCE937A534CCEB38643598122B6FEE978D0B0485F9C41B54DDD7D022595594E1A469170414C76A4D9A4D207E29CF43ECE46F218070CC6BECC4078ACAA135ACF422C856C0E68EA1BF5669944DDD7BCDE7B1F8E415D77AECB980613C2E4AC91FC167A2B244592486606FC29C8FD7F045B9A
310
EF7053A7E60B504B0304140006080800CC70623B853B8169EB0000007C01000008000000636F72652E786D6C8D90416EC3201045AF62CDB6C206821CC7C244919D9CA01740401C94182C03558F5F9C3852BBEB6A467FFE9B197D7EFC9E1EC5975982F5AE035262288C535E5B377690E21535501C055FBC8FBF6C503839990E
310
5619041F179FE64D52DE45E362569DD7661365082642A11EB9E920A89B99642953CC8E702F67A9EE7234257977194EC9EAE275C4EABCCF5EAD5940D4AC6F0E35A568B8F43562CD7046CD199FD07E60174276A7BE677B5EADB0E0D14EEFFB6A31321A0D82627C4084204C3F096B71DD52F6819B16635EADF63F509AF53FA164
310
5DDCD1EDDD17164090FCC8732078B56691CB33A85CD7DCC40F504B0304140006080800CC70623B55019EA25F0000007C00000007000000636E782E786D6C4DCB3B0E80201045D1AD90E915ED2CF8AC45050C11660C8261F98AB1B07AC9C97D42D718D865D3E909258CFD00CCE24AC6E326A164D74DC0B4128928FF32603847
310
2BA13128B1252AC747C6BAB984FC68F0B87FE8960A5C09FE86CFB69FBA01504B0304140006080800CC70623BDBABAAF470010000D40300000C0000006662782F636F72652E786D6CC553D16E823014FD95A6AF4B694182CC941A83FA05FB810A9511A125A5257EFE2E82712ECEB8A7F100CD39F7F69E734AF9FADC366850B6
310
AF8DCE7018308C942E4C59EB2AC3DE1D498AD15A706B8CFB56869196ADCAF00863C12B6B7C374385D14E6907A836A59A41D9F7CA615434B0C8705F7CAA5606D23BA8E84F41278B93AC54100640439DE0BDB320004D43C63716C7C399D30917DCFBBA9CD9BA8469F5B156168B24CED3F7248AC8769F27244EB73B92EED8862C
310
B7F13E0C179B3C8F979C8ECD82BBBABDAA2BAC924E9558448CBD9330242CFA08E3154B5651FCC6D215639C8EE5774DBE2B5F6CF2B5768B68963BB5F5588420E442FC700B1139D4CB01F450C1E918227C2E09DF070D8140C84E1E9AAB8F1340832A9CB13130A5F1376A908D57309505ECF2A0DF179C4E9D30F5B239B87E3823
310
7A79C6F31DE1A8A5AEC08474B03C7837EAE4938639B44E5932B833D2C6B6B279CDC613877FA26EE21F4A2A4C63EC7F29A2F301D1F9F7A0E37D145F504B0304140006080800CC70623B9C113CC27E0000009D0000000B0000006662782F636E782E786D6C4DCCDF0A83201C86E15B91DFB94BFB330DD428C8FB886521330DA7
310
6397BF1A1DECE883878F57749FCDA1B7892F1BBC047A23808C7F84D9FA55424E0BE6803A256208E9EF06C84F9B91703228B1C690F78B66B34CD9A5439DF5CF0BFBF65E35BCA1B8D6A5C6F540381E886698B5741C695F9503EBA150A2F8958E3DC3EA0B504B0304140006080800CC70623B7DF2F77C2A010000120200003100
310
00006662782F41393633353835312D344632462D344230382D423046372D3739314545314133324237412F636F72652E786D6C8D51DB8EC22014FC15C2939B0D2DB4B45643319AE817EC0F6041255A68B86CFCFC856D4D76DF7CE190393373060EDB3DC707F856CE6B6B7A480A0C81328395DA5C7B18C3057510EC3873D686
310
3F34088C18550F330C39BB3A1BA7051AAC09CA84841A2BD5020AEF55806078A44B0FFD7053A328440C89E1EFC52486BBB8AA8214A99D789CF9E05200300FC927E4FB4D5B375D43103D5527440FB843077C5AA3F5861C8F645F5787F59E95B390B318B55CE45AA638FAA2957BD7248B390B7A7CC51F9C124149C82B8C378810
310
84AB2F42B7B8DD56F413775B8C5999E9FF4471926F8AA236A1AE96B8B3CC434E5839373893369E1FAF30EA395917409EB7F26AF8801C171837A4A6AC9C89E9F9C9B1A58BA30FD6A5EF5DDDCF894B9AD9B6A59C957943A9FCAE2FD5BC4DFE03504B0304140006080800CC70623BAD7543B64E01000033030000300000006662
310
782F41393633353835312D344632462D344230382D423046372D3739314545314133324237412F636E782E786D6CD593CD6EC32010845F0571AD6CE3D48AD20813A9873E410FBD12D82434182C7EAAE6EDBB2424CD25871E7B41D6EC30B3FA84F9E67BB2E40B4234DE8DB46F1925E094D7C6ED479AD3AE5951B2113C789FEE
310
6C943839C1488B4C05DF079FE72A69D8C96C13AAD6B8631503449F83828872B949AC57D26200B826A308D316B4064D6E46FCDA41C05550DC9E483A00797BFD207EFB092A45DE9514C1BBD22178396BD39D891265658C238DEA00936C654E5E433CB65A26D9F6EDB5EBC14EBF49A45CB856E66048291F6939A9A81BB5C89177
310
38143CA680F4AA299D66A042CEB3354A2684DC9D8D178FE0D9B8B41CAAD720F880EE7EF93C0C18769E099ECC04D5A102C8049A8A05632F4DDF376CF1DE0F6BB65C2F8627B65A33C6BB62177CEBBDAD973006829F89F22E814B54F4BC2BE347F8AA8F681390B50FA73F804400B5F542E796F19FF974E7F78DB802FE05E20750
310
4B0304140006080800CC70623BE75B7789680500003C100000340000006662782F41393633353835312D344632462D344230382D423046372D3739314545314133324237412F6F626A656374732E786D6CAD575B8F9B3818FD2B887D06C22499CB8AA1CA655245D5B455A356FB305264C061D8018C6C3393D95FBFC7600890
310
A4CD5EF210B0B1BFEBF98E3F7B1FF6596ABC522E1296DF9BAE3D320D9A872C4AF2F8DE2CE5CEBA358D0FBEC719939D65A691938CDE9B6ADAF4BD98B3B2D05311DD91329583D9D5FC0F438434A7A611A644887B5384CF34233629258BA878B12322891DEFF6B66BD70BFB62634E8AE781D082709A4B588AF91C528CDA28B73F
310
1C998EEF39EABBEFA97FBD6A7C7E9553F9D3D79FE442923C3C523610337627CB87ABE99D359D4CC6D6E4FACAB5E6ABF9D2726FC6A3C5F56271377BB88362213924694B38DD99FE47C48627A1E7D49F5A8BB5E1A74C0A599ED3B0F21F1E56366B89112D681E218F0915D0D6F17AD41FBA2A369DCF6335D62ABBD39779D5DDD1
310
11D4D8DE3CBB96B2E04FB8202E41051754A1AA8E8F76B4C6DFE810B580B1547F4B84911149794252234D024EF8BBE963A95AE27B3D310A9D5C215C7960FAEE415ED75694C6AFB17BCACA5D99A60A9AA65F217B0BFC53292ACB92BF283FAD0D3621576592CB5BED907C2FA8E9DF794E35E97BEA31BED21FEB401ABB94C44839
310
DCACBF0E1C5DA8DA5B2F4DFFD32AD86F543D9E565E7056502E157C00AD2671CD534549AB752FCA9CDA00677A313F04E51B22FF19E57B300579E3C97EB29F682D92935CEC18CF901B7B54FD8C51F362B56FC72FE0B3C1EAE335EDCCBF5AEC39ADB17DC238973F804BA5E6F6BFE7AF1FB32E523BE9F3BD571418E3631DCA4D48
310
5250CF639223210A9446CA30052EDF057BD35F8329C1ECD84552BF0DC8D18BE7BCE23BFE6BD960AB4A7DE79923A103BEBD80F911CBAA2C60DB19B01CF164A5583B772EE6D3FFA56666CBCDA74DC97724A48F9A58967497E489C4D979006FD7A05E227A1EBDD0F737C623387A9C844D3709995625106D157315F8B8392CD4E0
310
A0B9A720C4BE9829CEF37EA1E13111214D53925356365ADA634861B52519DD27A00AEB808EAF0628E6F435519D446F45CF2C9CF5214F0A15B2F6D06B79DA3EE3CBF7F56780D2F4E7EF73A0F5E5B02A38D07DC852C6B7C1FBB6664213E0C39E3EBA7FF4E1AD23EA2829407C85E586727488B751B2DB9502BC7B228A3FD68B6E
310
A65A22397E690AA8D158D7E404EC8CDA235CC3B7D1898680131CEC2CDF2638C65196279577750F15884AEE19F94199155B92B13297978469D4F8D358DF0AEF7631E28DC8F0D9F437D5D39A83B2231A1D52D543813A824EF8D44BCFF2FA6A31BD1E8DAD87F1CCB526B3879935BF59CDADD5C37479BB1CDD4CA7B3556B516589
310
EF352754B706114D9C885EC9131DE6EFEB43D99AFE2391C2F958179413D7CFEF6B1B6DB1E7600F00DE6E5C67454A339A4BA2E0FBA85ED26F045D454F463DBFCE484C2F90F2E5E3666003662ED8F755951A7D1BECD5B30B550B2785C8E7320B7292A4838DDA71BBC863ED7613CAF659337A3354231D4FF4A182A54904C2898C
310
98B28C4AD0CE056CCF332A80986E571EE9DBC305BB5FEB7E509220A58D25CF042D712A806AC0AD0C657FDEF80D2D9CEAA2EE4D1C76F60BFE74219A06527D6F82DF6412526107381E55E353090704D085B52408A8913C4ED159D79BDA71BB4BC506F4831350EB6F975CD22D69BF7AC49B91A2C0A9DDA3D5CA36AD20FC478E37
310
E61844E2352865EBCB61A275A65283CAAA9DD27703B4102F5AF51EF5F573B75CBB5AD38BC845F7A49F82A0966A49C2E3EA5EA0ECD326CD965F1DB402C6FA8B51A4658C5C5E2EC9E214602E55810345408596591009A82E7E7FFACA19EEA299B14A0081A705CB3296EBC14CDF658DCD336EA6D1136881AAEB87B81AB9EE53D5
310
F5EB8BC8362082DA24122F98680A4E7930C01A0079749CEA14382A0783E5EBA5A10F8C098456A03D6A4AEB6BB881E2513747552A5DB22C7EDAF83BD5528081A365F7FF06504B0304140006080000CC70623B000000000000000000000000350000006662782F41393633353835312D344632462D344230382D423046372D37
310
39314545314133324237412F76657274696365732E62696E504B0304140006080800CC70623BF270F1330600000004000000360000006662782F41393633353835312D344632462D344230382D423046372D3739314545314133324237412F747269616E676C65732E62696E636660600000504B0304140006080000CC7062
310
3B000000000000000000000000370000006662782F41393633353835312D344632462D344230382D423046372D3739314545314133324237412F617474726962757465732E62696E504B0304140006080800CC70623B08DA0BD19000000041010000360000006662782F41393633353835312D344632462D344230382D4230
310
46372D3739314545314133324237412F6469726563746F72792E786D6C858F410AC3201045AF22B36F53E9A60B35CBEEBAE80D244E44489C6234F4F835464A48035D0DF398FF9F8AF63D0E6CC63039F212F8F9020C7D47C6792B21C5FE7403D62A1188E2E60C98D7234A5830286103A55745067B9D86B8A3CF9C7F90C11DE6
310
07FB144396D7B6A82D282E9A152AD114D5EF2CB866EEE831B8EEA07A7BB5A8D7D61A2BAAEB7FD5F70921FF497D00504B0304140006080800CC70623BEDD1DC58FD000000A00100003B0000006662782F41393633353835312D344632462D344230382D423046372D3739314545314133324237412F7265736F75726365732F
310
636F72652E786D6C8D504B6E833010BD0A9A6D65B00922041947112427E8052C33A156828DFCA97AFC9A40A576D7CDCCE87D344F8F9FBFE667F689CE6B6B3A6039850C8DB2A336530731DC4903D95970676DF82583CCC8193B5861107C72362E3BA4AC096842428D1D7107A5F7182053CF7474E0D507CE32973124857FE48B
310
540F3961CEF244279DE03EB81420DB9EAC1384436FA353E879B1B182C7A8C75DA3C7F453DF353A1075D537A7BA6464B8F535A99AE14A9A2BBD90E350DD183B5CFABE3AF262350B1EF4FC9351399401471025A527C218A1E53BAB5A5AB765F5469B96525EACF23FA6B88CFF34456DC2A1DCE36E360F82A5202F42F062ED2BAD
310
579969AFDD8A6F504B010214000A0000080000CC70623B3DEE336E79000000790000001B00000000000000000000000000000000006175746F6465736B2D64657369676E2D7061636B6167652E786D6C504B01021400140006080800CC70623BD486FD9CA0000000F40000001300000000000000000000000000B20000005B
310
436F6E74656E745F54797065735D2E786D6C504B01021400140006080800CC70623B853B8169EB0000007C010000080000000000000000000000000083010000636F72652E786D6C504B01021400140006080800CC70623B55019EA25F0000007C000000070000000000000000000000000094020000636E782E786D6C504B
310
01021400140006080800CC70623BDBABAAF470010000D40300000C00000000000000000000000000180300006662782F636F72652E786D6C504B01021400140006080800CC70623B9C113CC27E0000009D0000000B00000000000000000000000000B20400006662782F636E782E786D6C504B01021400140006080800CC70
310
623B7DF2F77C2A010000120200003100000000000000000000000000590500006662782F41393633353835312D344632462D344230382D423046372D3739314545314133324237412F636F72652E786D6C504B01021400140006080800CC70623BAD7543B64E010000330300003000000000000000000000000000D2060000
310
6662782F41393633353835312D344632462D344230382D423046372D3739314545314133324237412F636E782E786D6C504B01021400140006080800CC70623BE75B7789680500003C10000034000000000000000000000000006E0800006662782F41393633353835312D344632462D344230382D423046372D3739314545
310
314133324237412F6F626A656374732E786D6C504B01021400140006080000CC70623B0000000000000000000000003500000000000000000000000000280E00006662782F41393633353835312D344632462D344230382D423046372D3739314545314133324237412F76657274696365732E62696E504B01021400140006
310
080800CC70623BF270F133060000000400000036000000000000000000000000007B0E00006662782F41393633353835312D344632462D344230382D423046372D3739314545314133324237412F747269616E676C65732E62696E504B01021400140006080000CC70623B0000000000000000000000003700000000000000
310
000000000000D50E00006662782F41393633353835312D344632462D344230382D423046372D3739314545314133324237412F617474726962757465732E62696E504B01021400140006080800CC70623B08DA0BD1900000004101000036000000000000000000000000002A0F00006662782F41393633353835312D344632
310
462D344230382D423046372D3739314545314133324237412F6469726563746F72792E786D6C504B01021400140006080800CC70623BEDD1DC58FD000000A00100003B000000000000000000000000000E1000006662782F41393633353835312D344632462D344230382D423046372D3739314545314133324237412F7265
310
736F75726365732F636F72652E786D6C504B0506000000000E000E0080040000641100000000
  0
XRECORD
  5
4A3
102
{ACAD_REACTORS
330
3A
102
}
330
3A
100
AcDbXrecord
280
     1
102
MATERIAL
148
0.0
149
0.0
149
0.0
 93
        0
 94
       63
282
     0
 72
     1
 77
     1
171
     1
175
     1
179
     1
273
     0
  0
XRECORD
  5
3B
102
{ACAD_REACTORS
330
3A
102
}
330
3A
100
AcDbXrecord
280
     1
 70
     1
 90
429727718
  1
30362254-06B7-45E0-A893-8CFA70E3D6BC
310
504B03040A0000080000CC70623B3DEE336E79000000790000001B0000006175746F6465736B2D64657369676E2D7061636B6167652E786D6C3C3F786D6C2076657273696F6E3D22312E302220656E636F64696E673D227574662D3822203F3E3C666F726D6174733E3C666F726D61743E687474703A2F2F736368656D612E
310
6175746F6465736B2E636F6D2F64657369676E2D7061636B6167652F323030393C2F666F726D61743E3C2F666F726D6174733E504B0304140006080800CC70623BD486FD9CA0000000F4000000130000005B436F6E74656E745F54797065735D2E786D6C7D8EC10E82300C865F65E91D8A1E8C310C0EEA1BF002731658846E
310
D98AC1B77784ABF1D8FE5FBFBF75BBCE937A534CCEB38643598122B6FEE978D0B0485F9C41B54DDD7D022595594E1A469170414C76A4D9A4D207E29CF43ECE46F218070CC6BECC4078ACAA135ACF422C856C0E68EA1BF5669944DDD7BCDE7B1F8E415D77AECB980613C2E4AC91FC167A2B244592486606FC29C8FD7F045B9A
310
EF7053A7E60B504B0304140006080800CC70623B1EC5D7A3EB0000007C01000008000000636F72652E786D6C8D90416EC3201045AF82665B6103C6756C6122AB4D4ED00B204C5C94182C03558F5F9C3852BBEB6A467FFE9B197D71FC9E6FE8CBACC17AD7032D0820E3B41FAD9B7A48F1820F808E52ACDEC75F36404ECDA687
310
4D0629A6D5A76597B477D1B89855E747B38B2A041301E95B6E7A08FAD3CCAA50296647B8168BD2573599823EBB0CA76447F43862C7BCCF5EAC59410E4DDD9C7973C2755553CCCFA4C603E3040F1565ED3B1FDE4E432BCA0D9622DAF9795FAF464533826484B498524CD807E51D79ED187F21878E10516EF63F505AC67F42C9
310
BA58B1FDDD071640D2FCC87D2045B96591CB3DA85CB7DCE40F504B0304140006080800CC70623B55019EA25F0000007C00000007000000636E782E786D6C4DCB3B0E80201045D1AD90E915ED2CF8AC45050C11660C8261F98AB1B07AC9C97D42D718D865D3E909258CFD00CCE24AC6E326A164D74DC0B4128928FF32603847
310
2BA13128B1252AC747C6BAB984FC68F0B87FE8960A5C09FE86CFB69FBA01504B0304140006080800CC70623B8C9102E971010000D40300000C0000006662782F636F72652E786D6CC5535B6E833010BC8AE5DF0A6C08340F1947A84D4ED00B38C6A128602363A31CBFCB234A53A551FA553EC09AD9F5CE8C31DB9E9B1AF5CA
310
7695D1198E428A91D2D214952E33ECDD315861B4E5CC1AE3BE9561A445A3323CC098B3D21ADFCE9034DA29ED00D5A6503328BA4E398C640D8B0C77F253352214DE4145770A5B214FA2546114020D759C75CE8200340D19DE981F0F6746269C33EFAB6266AB02A655C74A59CCF365BADC27CB5D902ED22848F6340DF238A141
310
BE88E2F57B92BFEDF23523433367AE6A2EEAA455C2A902F398D2751045018D3FA264435F3771F242571B4A1919CA6F9A7C5B3CD9E42BED16F12C776AEB308F40C848FC700B1139D4891EF410CEC810227CC6846F8386402064270EF5C5C709A05E49676C024C61FC95EA45ED154CA5211D1FF4FB8291A913A68E9B83EBBB33
310
E2A7673CDE118E5AE8124C0807CB8377834E366998436B950D7A7746DAD846D4CFD978E0F04FD455FC5D49D2D4C6FE9722321F10997F0F32DC47FE05504B0304140006080800CC70623BFFEA85907E0000009D0000000B0000006662782F636E782E786D6C4DCCD10A83201886E15B91FFDC95D95A811AB6F23E625948A6C3
310
E9D8E5AF46073BFAE0E1E365ED67B3E8ADC3CB78C7815C7240DA3DFC64DCC221C519D7805AC182F7F1EF06C88D9BE6703008B6049F9E274D7A1E938DBB5AE3D6131B2589BA0D3D965551E0B2EA732C9B9A624AAEB41E3A557677029960D9AFB4EF11165F504B0304140006080800CC70623B4FEEA4082C0100001202000031
310
0000006662782F39464131463745442D413632322D343644302D413938332D3331353338454246344243312F636F72652E786D6C8D515B6EC32010BC0AE2AB55850DD871ED0813254D72825EC00192A2C460F1A872FC42ED48ED5F7E00CDCECCCEB26C731F6FE05B39AFADE921293004CA082BB5B9F43086336A21D870E6AC
310
0D7F68109861543DCC30E4ECE26C9C164858139409093556AA051CBC570102714B8F1E7AF1A5C6A11862480C7F2DA6415C878B2A4891CA89C7990F2E050073937C42DE1DB7E4F87ED8A36D4329AA9B3D46DBAEAD504556557BD81DEBDD0761E52CE42C462D17B996298E3E6BE59E35C962CE821E1FF18553435012728A7187
310
0841987E927A8D9B35ADDF70BBC6989599FE4F1427F9A4286A132ABAC49D651EF234CD5CE04CDA78BA3DC2A8FB645D00B9DF8B57E215725C60BCA2A463E54C4CE327C7A65E1C7DB02E7DEFCBF594B864C5CA6CDBD49C957943E9FA5D5FBAF336F90F504B0304140006080800CC70623BAD7543B64E01000033030000300000
310
006662782F39464131463745442D413632322D343644302D413938332D3331353338454246344243312F636E782E786D6CD593CD6EC32010845F0571AD6CE3D48AD20813A9873E410FBD12D82434182C7EAAE6EDBB2424CD25871E7B41D6EC30B3FA84F9E67BB2E40B4234DE8DB46F1925E094D7C6ED479AD3AE5951B2113C
310
789FEE6C943839C1488B4C05DF079FE72A69D8C96C13AAD6B8631503449F83828872B949AC57D26200B826A308D316B4064D6E46FCDA41C05550DC9E483A00797BFD207EFB092A45DE9514C1BBD22178396BD39D891265658C238DEA00936C654E5E433CB65A26D9F6EDB5EBC14EBF49A45CB856E66048291F6939A9A81BB5
310
C8917738143CA680F4AA299D66A042CEB3354A2684DC9D8D178FE0D9B8B41CAAD720F880EE7EF93C0C18769E099ECC04D5A102C8049A8A05632F4DDF376CF1DE0F6BB65C2F8627B65A33C6BB62177CEBBDAD973006829F89F22E814B54F4BC2BE347F8AA8F681390B50FA73F804400B5F542E796F19FF974E7F78DB802FE05
310
E207504B0304140006080800CC70623B16AB87BA640500003C100000340000006662782F39464131463745442D413632322D343644302D413938332D3331353338454246344243312F6F626A656374732E786D6CAD575B6FA33818FD2B887DE6924B3BED8A326A92B68A663B534DD4D13E548A0C38942D60649B369D5FBFC7
310
600890A493BDE42160637FD7F31D7FF63E6FB3D478A55C242CBF3247B66B1A340F5994E4F19559CA8D75611A9F7D8F33263BCB4C232719BD32D5B4E97B316765A1A722BA21652A07B3B7B33F0D11D29C9A46981221AE4C113ED38CD8A4942CA2E2C58E882476BCD9DA23BB5ED8171B73523C0F841684D35CC252CCE79062D4
310
468DFA43D7747CCF51DF7D4FFDEB5593E3AB9CCA9FBEFE241792E4E19EB28198C968BAB8199F5D5A67D3E9C49A9E8F47D6EC76B6B0469F26EEFC7C3EBFBCBEB98462213924694B38DD98FE1D62C393D073EA4FADC5DAF04326852CCF6958F90F0F2B9BB5C48816348F90C7840A68EB78EDF68723159BCEE7891A6B95DDE9D3
310
BCEAEEE8086A6C6F9E5D4B59F0175C10A7A0820BAA5055C7473B5AE3CFDD452D602CD5DF12616444529E90D448938013FE6EFA58AA96F85E4F8C42275708571E98FE6827AF6B2B4AE3D7D83D64E5A64C53054DD3AF90BD06FEA9149565C94FCA0F6B834DC85599E4F2423B24DF0B6AFA979E534DFA9E7A4CC6FA631D486393
310
921829879BF5D781A373557BCB85E97FB90DB62B558F8795179C15944B051F40AB495CF35451D26A4727654E6D8033BD98EF82F21D91FF8AF2DD9982BCF1643BDD4EB516C9492E368C67C88DED563FC36D5EACF66DFF057C3658BDBFA69DF9578B3DA735B64F18C7F20770A9D45CFCF7FCF563D6456A277DBEF78A02637CA2
310
43B90A490AEAB94F72244481D24819A6C0E59B606BFA4B3025981DBB48EAB701D97BF19C577CC77F2D1B6C55A9EF3C732474C0B727303F625995056C3B02963D9EAC146BE78EC5FCEC7FA999EBC5EACBAAE41B12D27B4D2C0BBA49F244E2ECDC81B76B502F113D8F5EE8FB1BE3111CDD4FC2AA9B844CAB1288B68AB90A7CDC
310
1C166AB0D3DC5310625FCC14E779BFD0709F8890A629C9292B1B2DED31A4B0DA928CEE135085754027E3018A397D4D5427D15BD1330B677DC8934285AC3DF45A9EB68FF8F2B8FC0A509AFEECFD0FF2DE25CC6047F7214B195F07EFEB9A094D800F7BFAE8FED187B78EA8A3A400F115961BCAD1215E47C966530AF0EE8128FE
310
58CEBB996A8964FFA529A046635D9353B0336A8F700DDF46271A024E70B0B37C9DE01847591E54DED53D54202AB947E4076556AC49C6CA5C9E1226B7F1A7B1BE15DEED62C41B91E1B3E9AFAAA735036547343A925075041DF0A9979E893B391F8FCFA6967B3EFB644DCF6E5CEBFAE272625DCC6FAF3FB93793C5F90CE1EF57
310
407342756B10D1C489E8953CD1617E5CEECAD6F4EF8914CE5D5D504E5C3F1F9736DA62CFC11E00BCDDB8CC8A9466349744C1F75EBDA4DF09BA8A9E8C7A7E9991989E20E5DBDD6A6003664ED8F7A04A8DBE0DF6EAD9B9AA858342E47399053949D2C146EDB85DE4B176BB0965FBAC19BD19AA918E27FA50C1D22402E144464C
310
59462568E704B6E71915404CB72B8FF4EDE184DDAF753F284990D2C6926782963815403548A70C657FDEF80D2D9CEAA2AE4C1C76F60BFE74219A06527D6582DF6412526107381E55E353090704D085B52408D0933C4ED159D79BDA71BB4BC506F4831350EB6F979CD22D69BF7AC49B91A2C0A9DDA3D5CA36AD20FC478E37E6
310
1844E2352865EBCB6EA275A652E3836BE04EFB400BF1A2556F515F1FBB35B2AB35BD889C744FFA1004B5544B121E57F70215746DD2F5E2C1412B602CBF19455AC6C8E5E9922C4E01E65215385004546899059180EAFCF7A707CE7017CD8CDB0410789AB32C63B91E5CEBBBACB17AC6CD347A022D5075FD106377347AAABA7E
310
7D11590744509B44E205134DC1290F06580320F78E537D3D73540E06CB970B431F185308AD40BBD794D6D77003C5A36E8EAA54BA64597CD8F83BD552A080A365F7FF06504B0304140006080000CC70623B000000000000000000000000350000006662782F39464131463745442D413632322D343644302D413938332D3331
310
353338454246344243312F76657274696365732E62696E504B0304140006080800CC70623BF270F1330600000004000000360000006662782F39464131463745442D413632322D343644302D413938332D3331353338454246344243312F747269616E676C65732E62696E636660600000504B0304140006080000CC70623B
310
000000000000000000000000370000006662782F39464131463745442D413632322D343644302D413938332D3331353338454246344243312F617474726962757465732E62696E504B0304140006080800CC70623B08DA0BD19000000041010000360000006662782F39464131463745442D413632322D343644302D413938
310
332D3331353338454246344243312F6469726563746F72792E786D6C858F410AC3201045AF22B36F53E9A60B35CBEEBAE80D244E44489C6234F4F835464A48035D0DF398FF9F8AF63D0E6CC63039F212F8F9020C7D47C6792B21C5FE7403D62A1188E2E60C98D7234A5830286103A55745067B9D86B8A3CF9C7F90C11DE607
310
FB144396D7B6A82D282E9A152AD114D5EF2CB866EEE831B8EEA07A7BB5A8D7D61A2BAAEB7FD5F70921FF497D00504B0304140006080800CC70623B0D6EF93BFE000000A00100003B0000006662782F39464131463745442D413632322D343644302D413938332D3331353338454246344243312F7265736F75726365732F63
310
6F72652E786D6C8D50596E833010BD0A9ADFCA60B334011947A8694ED00B586642AC041B79A97AFC9A40A5F6AF3F33A3B7689E1E3F7DCD8FEC139DD7D6F4C0720A191A65476DA61E62B892236427C19DB5E1970C322367EC618541F0C9D9B8EC90B226A009093576C41D94DE63804C3DD2D18357379C652E63480A7FCF17A9
310
EE72C29CE5894E3AC17D702940B63D59270887DE46A7D0F36263058F518FBB468FE9A7BE6A7420864373B8D4873369AA8691FA421B3294352543C5CAF65C0F6FEF43CB8BD52C78D0F34F46E550061C419494B6843142CB0F5677F4B52BEB177AEC28E5C52AFF638ACBF84F53D42654E51E77B379102C05791282176B5F693D
310
CB4C7BED567C03504B010214000A0000080000CC70623B3DEE336E79000000790000001B00000000000000000000000000000000006175746F6465736B2D64657369676E2D7061636B6167652E786D6C504B01021400140006080800CC70623BD486FD9CA0000000F40000001300000000000000000000000000B20000005B
310
436F6E74656E745F54797065735D2E786D6C504B01021400140006080800CC70623B1EC5D7A3EB0000007C010000080000000000000000000000000083010000636F72652E786D6C504B01021400140006080800CC70623B55019EA25F0000007C000000070000000000000000000000000094020000636E782E786D6C504B
310
01021400140006080800CC70623B8C9102E971010000D40300000C00000000000000000000000000180300006662782F636F72652E786D6C504B01021400140006080800CC70623BFFEA85907E0000009D0000000B00000000000000000000000000B30400006662782F636E782E786D6C504B01021400140006080800CC70
310
623B4FEEA4082C0100001202000031000000000000000000000000005A0500006662782F39464131463745442D413632322D343644302D413938332D3331353338454246344243312F636F72652E786D6C504B01021400140006080800CC70623BAD7543B64E010000330300003000000000000000000000000000D5060000
310
6662782F39464131463745442D413632322D343644302D413938332D3331353338454246344243312F636E782E786D6C504B01021400140006080800CC70623B16AB87BA640500003C1000003400000000000000000000000000710800006662782F39464131463745442D413632322D343644302D413938332D3331353338
310
454246344243312F6F626A656374732E786D6C504B01021400140006080000CC70623B0000000000000000000000003500000000000000000000000000270E00006662782F39464131463745442D413632322D343644302D413938332D3331353338454246344243312F76657274696365732E62696E504B01021400140006
310
080800CC70623BF270F133060000000400000036000000000000000000000000007A0E00006662782F39464131463745442D413632322D343644302D413938332D3331353338454246344243312F747269616E676C65732E62696E504B01021400140006080000CC70623B0000000000000000000000003700000000000000
310
000000000000D40E00006662782F39464131463745442D413632322D343644302D413938332D3331353338454246344243312F617474726962757465732E62696E504B01021400140006080800CC70623B08DA0BD190000000410100003600000000000000000000000000290F00006662782F39464131463745442D413632
310
322D343644302D413938332D3331353338454246344243312F6469726563746F72792E786D6C504B01021400140006080800CC70623B0D6EF93BFE000000A00100003B000000000000000000000000000D1000006662782F39464131463745442D413632322D343644302D413938332D3331353338454246344243312F7265
310
736F75726365732F636F72652E786D6C504B0506000000000E000E0080040000641100000000
  0
XRECORD
  5
4A0
102
{ACAD_REACTORS
330
D
102
}
330
D
100
AcDbXrecord
280
     1
102
MATERIAL
148
0.0
149
0.0
149
0.0
 93
        0
 94
       63
282
     0
 72
     1
 77
     1
171
     1
175
     1
179
     1
273
     0
  0
XRECORD
  5
E
102
{ACAD_REACTORS
330
D
102
}
330
D
100
AcDbXrecord
280
     1
270
     1
271
     1
  0
XRECORD
  5
F
102
{ACAD_REACTORS
330
D
102
}
330
D
100
AcDbXrecord
280
     1
270
     1
271
     1
  0
XRECORD
  5
10
102
{ACAD_REACTORS
330
D
102
}
330
D
100
AcDbXrecord
280
     1
 70
     0
 90
1673772943
  1
ECE7A1D2-D628-4531-984C-D00F80459256
310
504B03040A0000080000CC70623B3DEE336E79000000790000001B0000006175746F6465736B2D64657369676E2D7061636B6167652E786D6C3C3F786D6C2076657273696F6E3D22312E302220656E636F64696E673D227574662D3822203F3E3C666F726D6174733E3C666F726D61743E687474703A2F2F736368656D612E
310
6175746F6465736B2E636F6D2F64657369676E2D7061636B6167652F323030393C2F666F726D61743E3C2F666F726D6174733E504B0304140006080800CC70623BD486FD9CA0000000F4000000130000005B436F6E74656E745F54797065735D2E786D6C7D8EC10E82300C865F65E91D8A1E8C310C0EEA1BF002731658846E
310
D98AC1B77784ABF1D8FE5FBFBF75BBCE937A534CCEB38643598122B6FEE978D0B0485F9C41B54DDD7D022595594E1A469170414C76A4D9A4D207E29CF43ECE46F218070CC6BECC4078ACAA135ACF422C856C0E68EA1BF5669944DDD7BCDE7B1F8E415D77AECB980613C2E4AC91FC167A2B244592486606FC29C8FD7F045B9A
310
EF7053A7E60B504B0304140006080800CC70623BD9DDAED0EC0000007C01000008000000636F72652E786D6C8D90416EC3201045AF82665B61836D9CD8C2444DD39CA01740405C94182C03558F5F9C3852BBEB6A467FFE9B197D7EF89E6EE8CB2CC17A37002D0820E394D7D68D03A478C17B4007C117EFE32F1B20272733C0
310
2A83E0E3E2D3BC49CABB685CCCAAF3DA6CA20CC14440EA969B0182FA34932C648AD911AEC52CD5558EA6A0CF2EC329598D1E47ACCEFBECC59A050463A7EA5833865FEBDD0E37353BE3EE8DBDE3F6786A48D375FBF6CC78B9C282473B3DEFABC5C86834888A900E538A49F5419B9EB47DD5BC907D4F082F57FB1F28CDFA9F50
310
B22ED6D5F6EE030B20687EE43E10BC5CB3C8E51E54AE6B6EE207504B0304140006080800CC70623B55019EA25F0000007C00000007000000636E782E786D6C4DCB3B0E80201045D1AD90E915ED2CF8AC45050C11660C8261F98AB1B07AC9C97D42D718D865D3E909258CFD00CCE24AC6E326A164D74DC0B4128928FF326038
310
472BA13128B1252AC747C6BAB984FC68F0B87FE8960A5C09FE86CFB69FBA01504B0304140006080800CC70623BA24EB22D72010000D40300000C0000006662782F636F72652E786D6CC5535B6E833010BC8AE5DF0A6C5E49888CA3A6694ED00B38E05014B091B1518EDFE511A5A9D228FD2A1F60CDEC7A67C6986DCE4D8D7A
310
69BA4AAB0C073EC548AA5C17952A33ECECD15B61B4E1CC686DBF9561A44423333CC098B3D268D7CE50AE9595CA02AA74216750749DB418E5352C32DCE59FB211BE70162ABA93DF8AFC244AE9073ED050C759670D0840D390E18DF9F1706664C23973AE2A66B62A605A75ACA4C13C4976E1364A12EF355A2EBD384AF65EFA96
310
BC7B8BED2EA6719AAE16FB8491A199335B351775B991C2CA02F390D2D40B028F861F41BCA68B7518BFD0D59A524686F29B26D7164F36B94AD9289CE54E6D1DE6010819891F6E21228B3AD1831EC219194284CF98F06DD01008846CC5A1BEF83801D4CBDC6A1303536877A57A513B0953A94FC707FDBE6064EA84A9E3E6E0FA
310
EE8CF0E9198F7784A316AA0413C2C2F2E0ECA0934D1AE6D05A69BCDE9E91D2A611F573361E38FC1375157F5752AE6B6DFE4B11990F88CCBF0719EE23FF02504B0304140006080800CC70623B408A7D3B7C0000009D0000000B0000006662782F636E782E786D6C4DCCD10A83201886E15B91FFDC552A92A0064DBC8F581632
310
D3703A76F9ABD1C18E3E78F878E5F0D9027ABBFCF2292AE86E2D20171F69F6715550CB827B40839639A5F2770314A7CD293819B45C73AAFB45B35BA61ACAA1C1C7E7855C58C15BC331339661262CC762340413D68D77DA5B42298546CBE6573AF60CEB2F504B0304140006080800CC70623B449FB9BD290100001202000031
310
0000006662782F36394639363044362D344446342D343946362D394244322D3234314243333846323333332F636F72652E786D6C8D515B6EC32010BC0AE22B55850D98B871848994463E412FE002495162B07854397EA176A4F62F3F2C9A9D991D587EB84F37F0AD7D30CEF6905418026DA553C65E7A98E219ED203808EE9D
310
8B7F6810D871D23D2C3014FCE25D9A57483A1BB58D19B54EE9151C43D0110279CB971E06F9A5A7B11A53CC8C70ADE6515EC78BAE4895DB992778883E0700CB907242D17643D7E2538BD869608875438BBAE38922CAC8F1BDD90DB4691A5E2F42C153326A951B95E398B3D1FE599322163C9AE9115F7A3D46ADA0A018778810
310
84E907617BDCEE297BC5BB3DC6BC2EF47FA234AB2745C9D8D8D035EE220B50105E2F0DC1954B9FB747187D9F9D8FA0CCDB042D5FA0C015C65B42DF78BD10F3F3B363CB56C7109DCFDFBBB97E662ED92EB62D13BC2E1BCAE5777DB9966D8A1F504B0304140006080800CC70623BAD7543B64E01000033030000300000006662
310
782F36394639363044362D344446342D343946362D394244322D3234314243333846323333332F636E782E786D6CD593CD6EC32010845F0571AD6CE3D48AD20813A9873E410FBD12D82434182C7EAAE6EDBB2424CD25871E7B41D6EC30B3FA84F9E67BB2E40B4234DE8DB46F1925E094D7C6ED479AD3AE5951B2113C789FEE
310
6C943839C1488B4C05DF079FE72A69D8C96C13AAD6B8631503449F83828872B949AC57D26200B826A308D316B4064D6E46FCDA41C05550DC9E483A00797BFD207EFB092A45DE9514C1BBD22178396BD39D891265658C238DEA00936C654E5E433CB65A26D9F6EDB5EBC14EBF49A45CB856E66048291F6939A9A81BB5C89177
310
38143CA680F4AA299D66A042CEB3354A2684DC9D8D178FE0D9B8B41CAAD720F880EE7EF93C0C18769E099ECC04D5A102C8049A8A05632F4DDF376CF1DE0F6BB65C2F8627B65A33C6BB62177CEBBDAD973006829F89F22E814B54F4BC2BE347F8AA8F681390B50FA73F804400B5F542E796F19FF974E7F78DB802FE05E20750
310
4B0304140006080800CC70623B8D05915C650500003B100000340000006662782F36394639363044362D344446342D343946362D394244322D3234314243333846323333332F6F626A656374732E786D6CAD575B6FA33814FE2B887D06429276DA1565D4266D158D3A339A6846FB502932E050B66023DB74D2FDF5FB190C01
310
9276B2973C046C8ECFF53B17071F77456EBD502133CEAE6CDF9DD81665314F32965ED995DA3A17B6F5310C04E7AA47665B8C14F4CAD6DB7618A48257A5D94AE89654B91AEDDEDDFC61C998326A5B714EA4BCB265FC440BE2924AF184CA6737218AB8E976E7FA6E4338649B0A523E8D98964450A6A029F619B8588D52FE7039
310
B1BD30F0F4F730D0FF866AF6369557DB33949F31A9088B0F848DD8CCFCF9F2767A76E99CCDE733677E3EF59D9BBB9BA5E37F984D16E78BC5E5F5ED25044B25C0C96822E8D60EEFE11B91C581D77CEA34368A1F5329E68CD1B8B61F16D63A1B8E092D294B10C78C4A48EB593D192E7DED9BDEE7995E1B91FDEDD3ACEA9FE831
310
6A756F9F7D4D79F4274C90A7A04248AA51D5F8C718DAE06FB2F75AC4796EBE65D22A88A22223B995679120E2D50E41AA49C260C046A35368846B0BECD0DFF3EBEB8AD4F835768F69B9ADF25C43D30E6B646F807FAA64AD59F61715C7A54127C4AACA98BA3006A9D792DAE165E0D59B61A01FB3A9F9D838D2DAE62445C86166
310
F37564E842E7DE6A69879FEEA2DD5AE7E371E1A5E025154AC307D06A03D73EB5978C58FFA4C8E9033066E0F3BD53BEC1F39F91BE7B55103791EDE6BBB991A2046172CB4581D8B893FA674DDA17A77B3B7C413D1B511FD2743BFF8A38F03A658705E3ADF8015C3A3417FF3D7E439FF591DA0B5F18BC20C1B8981957AE6392A3
310
F43C640C01D1A0B4728E2DD4F26DB4B3C3152A252A3B4E913CEC1C72F012782FF88EFF8637AA552DBEF76408E8A8DE9E50F9E1CB3A2DA0DB1B6039A893B56063DC5B3E3FFB5F72E67AB9FEB4AEC496C4F4C1149625DD662C53E89D7BF0F6151A046260D1337DFDC94502430F83B0EE07A130A224BCAD7DAE1D9FB6CD422FF6
310
920702629C4BB9AE79C12F243C6432A6794E18E5552BA56B431AAB5D91317302B2B071E86C3A42B1A02F999E24061403B5D0EB639195DA655DD3EBEAB4FB862DDF579F014AD0E73C22F99E28DA57FB98E75C6CA2D74D53086D600F4786E0FE3144B771A8A7B900F03594DB8A633CBC49B2EDB69228BB479CF863B5E807AAAB
310
23872F6DFEB4129B949CA33823F58830E86D65621E10047D9DB34D862E8EAC3C2ABC2F7B2C40D67CDFE01F5545B92105AF983AC54D93D69E56FB8E797F88913F898A9FEC705D3F9D1B54EC8426FB500D40A03BD0119B06E1B95DDC7EB8F6975367793EBD70E66733DFB9BC982F9CE564727731999F5D4ECFCE3B8D6A4DC2A0
310
6D50FD148437D110834A64C6CDDF57FBACB5C307A2A477DFE4939736CFEF2B175371E0E10CF0DD1D5C15654E0BCA14D1E87DD02FF93782A162C0A3D95F1524A52770F972BF1EE9809D13CE7DD599467F8ECE9ADD85CE85A34CD45355448C64F9E8A031DC2D596ACC6E5DD93D9B82DE2EF5CAF81363A8E47996A0DE24564A79
310
4115AACE09C55E14540231FDA13C319787134EBF34E3A022514E5B4D9E0826E25C02D5805B15ABE1BEF51B26383D445DD9E875EE33FE4C22DA16427D65A3BCA92CA6D28DD01DF5DC53330704308475351050232CCD31583787BA75774AFB06E5070DD0C8EF484E19968C5D83BA5B90B244D31E54D55A372320FE4786B7EA58
310
44E135AA5467CB7EA333A61683CC6A8C3257034C10CF46F40EF9F5BE59BE5BD30C3C72D235E95D10345C1D45445A5F0BB47E46A5EBE5570F9380B5FA629579952296A773720405982B9DE04011506178964401AA8BDF1FBF0A8EAB6861DD6580C0E38217056766716DAEB2D6FA0917D3E4116581EADB879C4E7CFFB11EFACD
310
3D641311495D92C8676CB409A72D18610D803CE8A626049E8EC1887CB5B44CC39883690DDA8399B4B9855B481E7D71D4A9D22F96E5BB73BF5793020C02137BF837504B0304140006080000CC70623B000000000000000000000000350000006662782F36394639363044362D344446342D343946362D394244322D32343142
310
43333846323333332F76657274696365732E62696E504B0304140006080800CC70623BF270F1330600000004000000360000006662782F36394639363044362D344446342D343946362D394244322D3234314243333846323333332F747269616E676C65732E62696E636660600000504B0304140006080000CC70623B0000
310
00000000000000000000370000006662782F36394639363044362D344446342D343946362D394244322D3234314243333846323333332F617474726962757465732E62696E504B0304140006080800CC70623B08DA0BD19000000041010000360000006662782F36394639363044362D344446342D343946362D394244322D
310
3234314243333846323333332F6469726563746F72792E786D6C858F410AC3201045AF22B36F53E9A60B35CBEEBAE80D244E44489C6234F4F835464A48035D0DF398FF9F8AF63D0E6CC63039F212F8F9020C7D47C6792B21C5FE7403D62A1188E2E60C98D7234A5830286103A55745067B9D86B8A3CF9C7F90C11DE607FB14
310
4396D7B6A82D282E9A152AD114D5EF2CB866EEE831B8EEA07A7BB5A8D7D61A2BAAEB7FD5F70921FF497D00504B0304140006080800CC70623BCA768048FE000000A00100003B0000006662782F36394639363044362D344446342D343946362D394244322D3234314243333846323333332F7265736F75726365732F636F72
310
652E786D6C8D50596E833010BD0A9ADFCA60D600328E9AA639412F609909B1126CE4A5EAF16B0295DABFFECC8CDEA2797AECF8353F924FB44E193D409E5248504B332A3D0D10FC95B4901C39B3C6F85F3248B49871801506CE266BC2B243D2688FDA47549B11775038871E12F988C7004EDE7016A9083E2ADC3D5D84BC8B09
310
D33C8D74D471E6BC8D0192EDC93A815B742658898E651BCB59086ADC356A8C3FD555A1055ED7E7E254D615792D0F075295F585746FF53B694EE78A565DD736979A65AB9933AFE69F8CD2A2F038022F28ED489E135A7CE4554F9BBEA85E68DB53CAB255FEC71496F19FA6A0B42F8B3DEE6673C0F318E4497096AD7DC5F52C33
310
EEB55BFE0D504B010214000A0000080000CC70623B3DEE336E79000000790000001B00000000000000000000000000000000006175746F6465736B2D64657369676E2D7061636B6167652E786D6C504B01021400140006080800CC70623BD486FD9CA0000000F40000001300000000000000000000000000B20000005B436F
310
6E74656E745F54797065735D2E786D6C504B01021400140006080800CC70623BD9DDAED0EC0000007C010000080000000000000000000000000083010000636F72652E786D6C504B01021400140006080800CC70623B55019EA25F0000007C000000070000000000000000000000000095020000636E782E786D6C504B0102
310
1400140006080800CC70623BA24EB22D72010000D40300000C00000000000000000000000000190300006662782F636F72652E786D6C504B01021400140006080800CC70623B408A7D3B7C0000009D0000000B00000000000000000000000000B50400006662782F636E782E786D6C504B01021400140006080800CC70623B
310
449FB9BD290100001202000031000000000000000000000000005A0500006662782F36394639363044362D344446342D343946362D394244322D3234314243333846323333332F636F72652E786D6C504B01021400140006080800CC70623BAD7543B64E010000330300003000000000000000000000000000D20600006662
310
782F36394639363044362D344446342D343946362D394244322D3234314243333846323333332F636E782E786D6C504B01021400140006080800CC70623B8D05915C650500003B10000034000000000000000000000000006E0800006662782F36394639363044362D344446342D343946362D394244322D32343142433338
310
46323333332F6F626A656374732E786D6C504B01021400140006080000CC70623B0000000000000000000000003500000000000000000000000000250E00006662782F36394639363044362D344446342D343946362D394244322D3234314243333846323333332F76657274696365732E62696E504B010214001400060808
310
00CC70623BF270F13306000000040000003600000000000000000000000000780E00006662782F36394639363044362D344446342D343946362D394244322D3234314243333846323333332F747269616E676C65732E62696E504B01021400140006080000CC70623B00000000000000000000000037000000000000000000
310
00000000D20E00006662782F36394639363044362D344446342D343946362D394244322D3234314243333846323333332F617474726962757465732E62696E504B01021400140006080800CC70623B08DA0BD190000000410100003600000000000000000000000000270F00006662782F36394639363044362D344446342D
310
343946362D394244322D3234314243333846323333332F6469726563746F72792E786D6C504B01021400140006080800CC70623BCA768048FE000000A00100003B000000000000000000000000000B1000006662782F36394639363044362D344446342D343946362D394244322D3234314243333846323333332F7265736F
310
75726365732F636F72652E786D6C504B0506000000000E000E0080040000621100000000
  0
XRECORD
  5
11
102
{ACAD_REACTORS
330
D
102
}
330
D
100
AcDbXrecord
280
     1
270
     1
271
     1
  0
XRECORD
  5
12
102
{ACAD_REACTORS
330
D
102
}
330
D
100
AcDbXrecord
280
     1
270
     1
271
     1
  0
CELLSTYLEMAP
  5
496
102
{ACAD_REACTORS
330
45
102
}
330
45
100
AcDbCellStyleMap
 90
        3
300
CELLSTYLE
  1
TABLEFORMAT_BEGIN
 90
        5
170
     1
 91
        0
 92
    32768
 62
   257
 93
        1
300
CONTENTFORMAT
  1
CONTENTFORMAT_BEGIN
 90
        0
 91
        0
 92
      512
 93
        0
300

 40
0.0
140
1.0
 94
        5
 62
     0
340
22
144
6.0
309
CONTENTFORMAT_END
171
     1
301
MARGIN
  1
CELLMARGIN_BEGIN
 40
1.5
 40
1.5
 40
1.5
 40
1.5
 40
4.5
 40
4.5
309
CELLMARGIN_END
 94
        6
 95
        1
302
GRIDFORMAT
  1
GRIDFORMAT_BEGIN
 90
        0
 91
        1
 62
     0
 92
       -2
340
25
 93
        0
 40
1.125
309
GRIDFORMAT_END
 95
        2
302
GRIDFORMAT
  1
GRIDFORMAT_BEGIN
 90
        0
 91
        1
 62
     0
 92
       -2
340
25
 93
        0
 40
1.125
309
GRIDFORMAT_END
 95
        4
302
GRIDFORMAT
  1
GRIDFORMAT_BEGIN
 90
        0
 91
        1
 62
     0
 92
       -2
340
25
 93
        0
 40
1.125
309
GRIDFORMAT_END
 95
        8
302
GRIDFORMAT
  1
GRIDFORMAT_BEGIN
 90
        0
 91
        1
 62
     0
 92
       -2
340
25
 93
        0
 40
1.125
309
GRIDFORMAT_END
 95
       16
302
GRIDFORMAT
  1
GRIDFORMAT_BEGIN
 90
        0
 91
        1
 62
     0
 92
       -2
340
25
 93
        0
 40
1.125
309
GRIDFORMAT_END
 95
       32
302
GRIDFORMAT
  1
GRIDFORMAT_BEGIN
 90
        0
 91
        1
 62
     0
 92
       -2
340
25
 93
        0
 40
1.125
309
GRIDFORMAT_END
309
TABLEFORMAT_END
  1
CELLSTYLE_BEGIN
 90
        1
 91
        1
300
_TITLE
309
CELLSTYLE_END
300
CELLSTYLE
  1
TABLEFORMAT_BEGIN
 90
        5
170
     1
 91
        0
 92
        0
 62
   257
 93
        1
300
CONTENTFORMAT
  1
CONTENTFORMAT_BEGIN
 90
        0
 91
        0
 92
      512
 93
        0
300

 40
0.0
140
1.0
 94
        5
 62
     0
340
22
144
4.5
309
CONTENTFORMAT_END
171
     1
301
MARGIN
  1
CELLMARGIN_BEGIN
 40
1.5
 40
1.5
 40
1.5
 40
1.5
 40
4.5
 40
4.5
309
CELLMARGIN_END
 94
        6
 95
        1
302
GRIDFORMAT
  1
GRIDFORMAT_BEGIN
 90
        0
 91
        1
 62
     0
 92
       -2
340
25
 93
        0
 40
1.125
309
GRIDFORMAT_END
 95
        2
302
GRIDFORMAT
  1
GRIDFORMAT_BEGIN
 90
        0
 91
        1
 62
     0
 92
       -2
340
25
 93
        0
 40
1.125
309
GRIDFORMAT_END
 95
        4
302
GRIDFORMAT
  1
GRIDFORMAT_BEGIN
 90
        0
 91
        1
 62
     0
 92
       -2
340
25
 93
        0
 40
1.125
309
GRIDFORMAT_END
 95
        8
302
GRIDFORMAT
  1
GRIDFORMAT_BEGIN
 90
        0
 91
        1
 62
     0
 92
       -2
340
25
 93
        0
 40
1.125
309
GRIDFORMAT_END
 95
       16
302
GRIDFORMAT
  1
GRIDFORMAT_BEGIN
 90
        0
 91
        1
 62
     0
 92
       -2
340
25
 93
        0
 40
1.125
309
GRIDFORMAT_END
 95
       32
302
GRIDFORMAT
  1
GRIDFORMAT_BEGIN
 90
        0
 91
        1
 62
     0
 92
       -2
340
25
 93
        0
 40
1.125
309
GRIDFORMAT_END
309
TABLEFORMAT_END
  1
CELLSTYLE_BEGIN
 90
        2
 91
        1
300
_HEADER
309
CELLSTYLE_END
300
CELLSTYLE
  1
TABLEFORMAT_BEGIN
 90
        5
170
     1
 91
        0
 92
        0
 62
   257
 93
        1
300
CONTENTFORMAT
  1
CONTENTFORMAT_BEGIN
 90
        0
 91
        0
 92
      512
 93
        0
300

 40
0.0
140
1.0
 94
        2
 62
     0
340
22
144
4.5
309
CONTENTFORMAT_END
171
     1
301
MARGIN
  1
CELLMARGIN_BEGIN
 40
1.5
 40
1.5
 40
1.5
 40
1.5
 40
4.5
 40
4.5
309
CELLMARGIN_END
 94
        6
 95
        1
302
GRIDFORMAT
  1
GRIDFORMAT_BEGIN
 90
        0
 91
        1
 62
     0
 92
       -2
340
25
 93
        0
 40
1.125
309
GRIDFORMAT_END
 95
        2
302
GRIDFORMAT
  1
GRIDFORMAT_BEGIN
 90
        0
 91
        1
 62
     0
 92
       -2
340
25
 93
        0
 40
1.125
309
GRIDFORMAT_END
 95
        4
302
GRIDFORMAT
  1
GRIDFORMAT_BEGIN
 90
        0
 91
        1
 62
     0
 92
       -2
340
25
 93
        0
 40
1.125
309
GRIDFORMAT_END
 95
        8
302
GRIDFORMAT
  1
GRIDFORMAT_BEGIN
 90
        0
 91
        1
 62
     0
 92
       -2
340
25
 93
        0
 40
1.125
309
GRIDFORMAT_END
 95
       16
302
GRIDFORMAT
  1
GRIDFORMAT_BEGIN
 90
        0
 91
        1
 62
     0
 92
       -2
340
25
 93
        0
 40
1.125
309
GRIDFORMAT_END
 95
       32
302
GRIDFORMAT
  1
GRIDFORMAT_BEGIN
 90
        0
 91
        1
 62
     0
 92
       -2
340
25
 93
        0
 40
1.125
309
GRIDFORMAT_END
309
TABLEFORMAT_END
  1
CELLSTYLE_BEGIN
 90
        3
 91
        2
300
_DATA
309
CELLSTYLE_END
  0
XRECORD
  5
4A5
102
{ACAD_REACTORS
330
45
102
}
330
45
100
AcDbXrecord
280
     1
102
ACAD_ROUNDTRIP_PRE2007_TABLESTYLE
 90
      512
 91
        0
  1

 92
      512
 93
        0
  2

 94
      512
 95
        0
  3

  0
XRECORD
  5
4A2
102
{ACAD_REACTORS
330
4A1
102
}
330
4A1
100
AcDbXrecord
280
     1
102
RTVSPost2010Prop28
280
     1
102
RTVSPost2010PropOp28
 70
     1
102
RTVSPost2010Prop29
280
     1
102
RTVSPost2010PropOp29
 70
     1
102
RTVSPost2010Prop30
280
     0
102
RTVSPost2010PropOp30
 70
     1
102
RTVSPost2010Prop31
280
     0
102
RTVSPost2010PropOp31
 70
     1
102
RTVSPost2010Prop32
280
     0
102
RTVSPost2010PropOp32
 70
     1
102
RTVSPost2010Prop33
280
     0
102
RTVSPost2010PropOp33
 70
     1
102
RTVSPost2010Prop34
280
     0
102
RTVSPost2010PropOp34
 70
     1
102
RTVSPost2010Prop35
280
     0
102
RTVSPost2010PropOp35
 70
     1
102
RTVSPost2010Prop36
280
     0
102
RTVSPost2010PropOp36
 70
     1
102
RTVSPost2010Prop37
 90
       50
102
RTVSPost2010PropOp37
 70
     1
102
RTVSPost2010Prop38
140
0.0
102
RTVSPost2010PropOp38
 70
     1
102
RTVSPost2010Prop39
140
1.0
102
RTVSPost2010PropOp39
 70
     1
102
RTVSPost2010Prop40
 90
        0
102
RTVSPost2010PropOp40
 70
     1
102
RTVSPost2010Prop41ColorIndex
 90
       18
102
RTVSPost2010Prop41ColorRGB
 90
        0
102
RTVSPost2010PropOp41
 70
     1
102
RTVSPost2010Prop42
 90
       50
102
RTVSPost2010PropOp42
 70
     1
102
RTVSPost2010Prop43
 90
        3
102
RTVSPost2010PropOp43
 70
     1
102
RTVSPost2010Prop44ColorIndex
 90
        5
102
RTVSPost2010Prop44ColorRGB
 90
      255
102
RTVSPost2010PropOp44
 70
     1
102
RTVSPost2010Prop45
280
     0
102
RTVSPost2010PropOp45
 70
     1
102
RTVSPost2010Prop46
 90
       50
102
RTVSPost2010PropOp46
 70
     1
102
RTVSPost2010Prop47
 90
       50
102
RTVSPost2010PropOp47
 70
     1
102
RTVSPost2010Prop48
 90
       50
102
RTVSPost2010PropOp48
 70
     1
102
RTVSPost2010Prop49
280
     0
102
RTVSPost2010PropOp49
 70
     1
102
RTVSPost2010Prop50
 90
       50
102
RTVSPost2010PropOp50
 70
     1
102
RTVSPost2010Prop51ColorIndex
 90
      256
102
RTVSPost2010Prop51ColorRGB
 90
-16777216
102
RTVSPost2010PropOp51
 70
     0
102
RTVSPost2010Prop52
140
1.0
102
RTVSPost2010PropOp52
 70
     0
102
RTVSPost2010Prop53
 90
        2
102
RTVSPost2010PropOp53
 70
     1
102
RTVSPost2010Prop54
  1
strokes_ogs.tif
102
RTVSPost2010PropOp54
 70
     1
102
RTVSPost2010Prop55
280
     0
102
RTVSPost2010PropOp55
 70
     1
102
RTVSPost2010Prop56
140
1.0
102
RTVSPost2010PropOp56
 70
     1
102
RTVSPost2010Prop57
140
1.0
102
RTVSPost2010PropOp57
 70
     1
102
RTVSPropertyOp0
 70
     1
102
RTVSPropertyOp1
 70
     1
102
RTVSPropertyOp2
 70
     1
102
RTVSPropertyOp3
 70
     1
102
RTVSPropertyOp4
 70
     1
102
RTVSPropertyOp5
 70
     1
102
RTVSPropertyOp6
 70
     1
102
RTVSPropertyOp7
 70
     1
102
RTVSPropertyOp8
 70
     1
102
RTVSPropertyOp9
 70
     1
102
RTVSPropertyOp10
 70
     1
102
RTVSPropertyOp11
 70
     1
102
RTVSPropertyOp12
 70
     1
102
RTVSPropertyOp13
 70
     1
102
RTVSPropertyOp14
 70
     1
102
RTVSPropertyOp15
 70
     1
102
RTVSPropertyOp16
 70
     1
102
RTVSPropertyOp17
 70
     1
102
RTVSPropertyOp18
 70
     1
102
RTVSPropertyOp19
 70
     1
102
RTVSPropertyOp20
 70
     1
102
RTVSPropertyOp21
 70
     1
102
RTVSPropertyOp22
 70
     1
102
RTVSPropertyOp23
 70
     1
102
RTVSPropertyOp24
 70
     1
102
RTVSPropertyOp25
 70
     1
102
RTVSPropertyOp26
 70
     1
102
RTVSPropertyOp27
 70
     1
102
RTVSPropertyOp28
 70
     1
102
RTVSPropertyOp29
 70
     1
102
RTVSPropertyOp30
 70
     1
102
RTVSPropertyOp31
 70
     1
102
RTVSPropertyOp32
 70
     1
102
RTVSPropertyOp33
 70
     1
102
RTVSPropertyOp34
 70
     1
102
RTVSPropertyOp35
 70
     1
102
RTVSPropertyOp36
 70
     1
102
RTVSPropertyOp37
 70
     1
102
RTVSPropertyOp38
 70
     1
102
RTVSPropertyOp39
 70
     1
102
RTVSPropertyOp40
 70
     1
102
RTVSPropertyOp41
 70
     1
102
RTVSPropertyOp42
 70
     1
102
RTVSPropertyOp43
 70
     1
102
RTVSPropertyOp44
 70
     1
102
RTVSPropertyOp45
 70
     1
102
RTVSPropertyOp46
 70
     1
102
RTVSPropertyOp47
 70
     1
102
RTVSPropertyOp48
 70
     1
102
RTVSPropertyOp49
 70
     1
102
RTVSPropertyOp50
 70
     1
102
RTVSPropertyOp51
 70
     0
102
RTVSPropertyOp52
 70
     0
102
RTVSPropertyOp53
 70
     1
102
RTVSPropertyOp54
 70
     1
102
RTVSPropertyOp55
 70
     1
102
RTVSPropertyOp56
 70
     1
102
RTVSPropertyOp57
 70
     1
102
RTVSPropertyOp58
 70
     1
102
RTVSPropertyOp59
 70
     1
102
RTVSPropertyOp60
 70
     1
102
RTVSPropertyOp61
 70
     1
102
RTVSPropertyOp62
 70
     1
  0
XRECORD
  5
4A7
102
{ACAD_REACTORS
330
4A6
102
}
330
4A6
100
AcDbXrecord
280
     1
102
RTVSPost2010Prop28
280
     0
102
RTVSPost2010PropOp28
 70
     1
102
RTVSPost2010Prop29
280
     1
102
RTVSPost2010PropOp29
 70
     1
102
RTVSPost2010Prop30
280
     1
102
RTVSPost2010PropOp30
 70
     1
102
RTVSPost2010Prop31
280
     0
102
RTVSPost2010PropOp31
 70
     1
102
RTVSPost2010Prop32
280
     0
102
RTVSPost2010PropOp32
 70
     1
102
RTVSPost2010Prop33
280
     0
102
RTVSPost2010PropOp33
 70
     1
102
RTVSPost2010Prop34
280
     0
102
RTVSPost2010PropOp34
 70
     1
102
RTVSPost2010Prop35
280
     0
102
RTVSPost2010PropOp35
 70
     1
102
RTVSPost2010Prop36
280
     0
102
RTVSPost2010PropOp36
 70
     1
102
RTVSPost2010Prop37
 90
       50
102
RTVSPost2010PropOp37
 70
     1
102
RTVSPost2010Prop38
140
0.0
102
RTVSPost2010PropOp38
 70
     1
102
RTVSPost2010Prop39
140
1.0
102
RTVSPost2010PropOp39
 70
     1
102
RTVSPost2010Prop40
 90
        0
102
RTVSPost2010PropOp40
 70
     1
102
RTVSPost2010Prop41ColorIndex
 90
       18
102
RTVSPost2010Prop41ColorRGB
 90
        0
102
RTVSPost2010PropOp41
 70
     1
102
RTVSPost2010Prop42
 90
       50
102
RTVSPost2010PropOp42
 70
     1
102
RTVSPost2010Prop43
 90
        3
102
RTVSPost2010PropOp43
 70
     1
102
RTVSPost2010Prop44ColorIndex
 90
        5
102
RTVSPost2010Prop44ColorRGB
 90
      255
102
RTVSPost2010PropOp44
 70
     1
102
RTVSPost2010Prop45
280
     0
102
RTVSPost2010PropOp45
 70
     1
102
RTVSPost2010Prop46
 90
       50
102
RTVSPost2010PropOp46
 70
     1
102
RTVSPost2010Prop47
 90
       50
102
RTVSPost2010PropOp47
 70
     1
102
RTVSPost2010Prop48
 90
       50
102
RTVSPost2010PropOp48
 70
     1
102
RTVSPost2010Prop49
280
     0
102
RTVSPost2010PropOp49
 70
     1
102
RTVSPost2010Prop50
 90
       50
102
RTVSPost2010PropOp50
 70
     1
102
RTVSPost2010Prop51ColorIndex
 90
      256
102
RTVSPost2010Prop51ColorRGB
 90
-16777216
102
RTVSPost2010PropOp51
 70
     0
102
RTVSPost2010Prop52
140
1.0
102
RTVSPost2010PropOp52
 70
     0
102
RTVSPost2010Prop53
 90
        2
102
RTVSPost2010PropOp53
 70
     1
102
RTVSPost2010Prop54
  1
strokes_ogs.tif
102
RTVSPost2010PropOp54
 70
     1
102
RTVSPost2010Prop55
280
     0
102
RTVSPost2010PropOp55
 70
     1
102
RTVSPost2010Prop56
140
1.0
102
RTVSPost2010PropOp56
 70
     1
102
RTVSPost2010Prop57
140
1.0
102
RTVSPost2010PropOp57
 70
     1
102
RTVSPropertyOp0
 70
     1
102
RTVSPropertyOp1
 70
     1
102
RTVSPropertyOp2
 70
     1
102
RTVSPropertyOp3
 70
     1
102
RTVSPropertyOp4
 70
     1
102
RTVSPropertyOp5
 70
     1
102
RTVSPropertyOp6
 70
     1
102
RTVSPropertyOp7
 70
     1
102
RTVSPropertyOp8
 70
     1
102
RTVSPropertyOp9
 70
     1
102
RTVSPropertyOp10
 70
     1
102
RTVSPropertyOp11
 70
     1
102
RTVSPropertyOp12
 70
     1
102
RTVSPropertyOp13
 70
     1
102
RTVSPropertyOp14
 70
     1
102
RTVSPropertyOp15
 70
     1
102
RTVSPropertyOp16
 70
     1
102
RTVSPropertyOp17
 70
     1
102
RTVSPropertyOp18
 70
     1
102
RTVSPropertyOp19
 70
     1
102
RTVSPropertyOp20
 70
     1
102
RTVSPropertyOp21
 70
     1
102
RTVSPropertyOp22
 70
     1
102
RTVSPropertyOp23
 70
     1
102
RTVSPropertyOp24
 70
     1
102
RTVSPropertyOp25
 70
     1
102
RTVSPropertyOp26
 70
     1
102
RTVSPropertyOp27
 70
     1
102
RTVSPropertyOp28
 70
     1
102
RTVSPropertyOp29
 70
     1
102
RTVSPropertyOp30
 70
     1
102
RTVSPropertyOp31
 70
     1
102
RTVSPropertyOp32
 70
     1
102
RTVSPropertyOp33
 70
     1
102
RTVSPropertyOp34
 70
     1
102
RTVSPropertyOp35
 70
     1
102
RTVSPropertyOp36
 70
     1
102
RTVSPropertyOp37
 70
     1
102
RTVSPropertyOp38
 70
     1
102
RTVSPropertyOp39
 70
     1
102
RTVSPropertyOp40
 70
     1
102
RTVSPropertyOp41
 70
     1
102
RTVSPropertyOp42
 70
     1
102
RTVSPropertyOp43
 70
     1
102
RTVSPropertyOp44
 70
     1
102
RTVSPropertyOp45
 70
     1
102
RTVSPropertyOp46
 70
     1
102
RTVSPropertyOp47
 70
     1
102
RTVSPropertyOp48
 70
     1
102
RTVSPropertyOp49
 70
     1
102
RTVSPropertyOp50
 70
     1
102
RTVSPropertyOp51
 70
     0
102
RTVSPropertyOp52
 70
     0
102
RTVSPropertyOp53
 70
     1
102
RTVSPropertyOp54
 70
     1
102
RTVSPropertyOp55
 70
     1
102
RTVSPropertyOp56
 70
     1
102
RTVSPropertyOp57
 70
     1
102
RTVSPropertyOp58
 70
     1
102
RTVSPropertyOp59
 70
     1
102
RTVSPropertyOp60
 70
     1
102
RTVSPropertyOp61
 70
     1
102
RTVSPropertyOp62
 70
     1
  0
XRECORD
  5
4A9
102
{ACAD_REACTORS
330
4A8
102
}
330
4A8
100
AcDbXrecord
280
     1
102
RTVSPost2010Prop28
280
     0
102
RTVSPost2010PropOp28
 70
     1
102
RTVSPost2010Prop29
280
     1
102
RTVSPost2010PropOp29
 70
     1
102
RTVSPost2010Prop30
280
     1
102
RTVSPost2010PropOp30
 70
     1
102
RTVSPost2010Prop31
280
     0
102
RTVSPost2010PropOp31
 70
     1
102
RTVSPost2010Prop32
280
     0
102
RTVSPost2010PropOp32
 70
     1
102
RTVSPost2010Prop33
280
     0
102
RTVSPost2010PropOp33
 70
     1
102
RTVSPost2010Prop34
280
     0
102
RTVSPost2010PropOp34
 70
     1
102
RTVSPost2010Prop35
280
     0
102
RTVSPost2010PropOp35
 70
     1
102
RTVSPost2010Prop36
280
     0
102
RTVSPost2010PropOp36
 70
     1
102
RTVSPost2010Prop37
 90
       50
102
RTVSPost2010PropOp37
 70
     1
102
RTVSPost2010Prop38
140
0.0
102
RTVSPost2010PropOp38
 70
     1
102
RTVSPost2010Prop39
140
1.0
102
RTVSPost2010PropOp39
 70
     1
102
RTVSPost2010Prop40
 90
        0
102
RTVSPost2010PropOp40
 70
     1
102
RTVSPost2010Prop41ColorIndex
 90
       18
102
RTVSPost2010Prop41ColorRGB
 90
        0
102
RTVSPost2010PropOp41
 70
     1
102
RTVSPost2010Prop42
 90
       50
102
RTVSPost2010PropOp42
 70
     1
102
RTVSPost2010Prop43
 90
        3
102
RTVSPost2010PropOp43
 70
     1
102
RTVSPost2010Prop44ColorIndex
 90
        5
102
RTVSPost2010Prop44ColorRGB
 90
      255
102
RTVSPost2010PropOp44
 70
     1
102
RTVSPost2010Prop45
280
     0
102
RTVSPost2010PropOp45
 70
     1
102
RTVSPost2010Prop46
 90
       50
102
RTVSPost2010PropOp46
 70
     1
102
RTVSPost2010Prop47
 90
       50
102
RTVSPost2010PropOp47
 70
     1
102
RTVSPost2010Prop48
 90
       50
102
RTVSPost2010PropOp48
 70
     1
102
RTVSPost2010Prop49
280
     0
102
RTVSPost2010PropOp49
 70
     1
102
RTVSPost2010Prop50
 90
       50
102
RTVSPost2010PropOp50
 70
     1
102
RTVSPost2010Prop51ColorIndex
 90
      256
102
RTVSPost2010Prop51ColorRGB
 90
-16777216
102
RTVSPost2010PropOp51
 70
     0
102
RTVSPost2010Prop52
140
1.0
102
RTVSPost2010PropOp52
 70
     0
102
RTVSPost2010Prop53
 90
        2
102
RTVSPost2010PropOp53
 70
     1
102
RTVSPost2010Prop54
  1
strokes_ogs.tif
102
RTVSPost2010PropOp54
 70
     1
102
RTVSPost2010Prop55
280
     0
102
RTVSPost2010PropOp55
 70
     1
102
RTVSPost2010Prop56
140
1.0
102
RTVSPost2010PropOp56
 70
     1
102
RTVSPost2010Prop57
140
1.0
102
RTVSPost2010PropOp57
 70
     1
102
RTVSPropertyOp0
 70
     1
102
RTVSPropertyOp1
 70
     1
102
RTVSPropertyOp2
 70
     1
102
RTVSPropertyOp3
 70
     1
102
RTVSPropertyOp4
 70
     1
102
RTVSPropertyOp5
 70
     1
102
RTVSPropertyOp6
 70
     1
102
RTVSPropertyOp7
 70
     1
102
RTVSPropertyOp8
 70
     1
102
RTVSPropertyOp9
 70
     1
102
RTVSPropertyOp10
 70
     1
102
RTVSPropertyOp11
 70
     1
102
RTVSPropertyOp12
 70
     1
102
RTVSPropertyOp13
 70
     1
102
RTVSPropertyOp14
 70
     1
102
RTVSPropertyOp15
 70
     1
102
RTVSPropertyOp16
 70
     1
102
RTVSPropertyOp17
 70
     1
102
RTVSPropertyOp18
 70
     1
102
RTVSPropertyOp19
 70
     1
102
RTVSPropertyOp20
 70
     1
102
RTVSPropertyOp21
 70
     1
102
RTVSPropertyOp22
 70
     1
102
RTVSPropertyOp23
 70
     1
102
RTVSPropertyOp24
 70
     1
102
RTVSPropertyOp25
 70
     1
102
RTVSPropertyOp26
 70
     1
102
RTVSPropertyOp27
 70
     1
102
RTVSPropertyOp28
 70
     1
102
RTVSPropertyOp29
 70
     1
102
RTVSPropertyOp30
 70
     1
102
RTVSPropertyOp31
 70
     1
102
RTVSPropertyOp32
 70
     1
102
RTVSPropertyOp33
 70
     1
102
RTVSPropertyOp34
 70
     1
102
RTVSPropertyOp35
 70
     1
102
RTVSPropertyOp36
 70
     1
102
RTVSPropertyOp37
 70
     1
102
RTVSPropertyOp38
 70
     1
102
RTVSPropertyOp39
 70
     1
102
RTVSPropertyOp40
 70
     1
102
RTVSPropertyOp41
 70
     1
102
RTVSPropertyOp42
 70
     1
102
RTVSPropertyOp43
 70
     1
102
RTVSPropertyOp44
 70
     1
102
RTVSPropertyOp45
 70
     1
102
RTVSPropertyOp46
 70
     1
102
RTVSPropertyOp47
 70
     1
102
RTVSPropertyOp48
 70
     1
102
RTVSPropertyOp49
 70
     1
102
RTVSPropertyOp50
 70
     1
102
RTVSPropertyOp51
 70
     0
102
RTVSPropertyOp52
 70
     0
102
RTVSPropertyOp53
 70
     1
102
RTVSPropertyOp54
 70
     1
102
RTVSPropertyOp55
 70
     1
102
RTVSPropertyOp56
 70
     1
102
RTVSPropertyOp57
 70
     1
102
RTVSPropertyOp58
 70
     1
102
RTVSPropertyOp59
 70
     1
102
RTVSPropertyOp60
 70
     1
102
RTVSPropertyOp61
 70
     1
102
RTVSPropertyOp62
 70
     1
  0
ENDSEC
  0
EOF
