  0
SECTION
  2
HEADER
  9
$ACADVER
  1
AC1018
  9
$ACADMAINTVER
 70
   104
  9
$DWGCODEPAGE
  3
ANSI_932
  9
$INSBASE
 10
0.0
 20
0.0
 30
0.0
  9
$EXTMIN
 10
2.92584424666802
 20
1.213960663074203
 30
-0.0015258207003583
  9
$EXTMAX
 10
53.03730878005421
 20
20.41002329564685
 30
0.0000000349246037
  9
$LIMMIN
 10
-6.819540283146579
 20
-7.226732980831229
  9
$LIMMAX
 10
59.73901101854654
 20
26.45289172075627
  9
$ORTHOMODE
 70
     0
  9
$REGENMODE
 70
     1
  9
$FILLMODE
 70
     1
  9
$QTEXTMODE
 70
     0
  9
$MIRRTEXT
 70
     1
  9
$LTSCALE
 40
1.0
  9
$ATTMODE
 70
     1
  9
$TEXTSIZE
 40
3.5
  9
$TRACEWID
 40
1.0
  9
$TEXTSTYLE
  7
Standard
  9
$CLAYER
  8
0
  9
$CELTYPE
  6
ByLayer
  9
$CECOLOR
 62
   256
  9
$CELTSCALE
 40
1.0
  9
$DISPSILH
 70
     0
  9
$DIMSCALE
 40
1.0
  9
$DIMASZ
 40
2.5
  9
$DIMEXO
 40
0.625
  9
$DIMDLI
 40
3.75
  9
$DIMRND
 40
0.0
  9
$DIMDLE
 40
0.0
  9
$DIMEXE
 40
1.25
  9
$DIMTP
 40
0.0
  9
$DIMTM
 40
0.0
  9
$DIMTXT
 40
2.5
  9
$DIMCEN
 40
2.5
  9
$DIMTSZ
 40
0.0
  9
$DIMTOL
 70
     0
  9
$DIMLIM
 70
     0
  9
$DIMTIH
 70
     0
  9
$DIMTOH
 70
     0
  9
$DIMSE1
 70
     0
  9
$DIMSE2
 70
     0
  9
$DIMTAD
 70
     1
  9
$DIMZIN
 70
     8
  9
$DIMBLK
  1

  9
$DIMASO
 70
     1
  9
$DIMSHO
 70
     1
  9
$DIMPOST
  1

  9
$DIMAPOST
  1

  9
$DIMALT
 70
     0
  9
$DIMALTD
 70
     3
  9
$DIMALTF
 40
0.0393700787
  9
$DIMLFAC
 40
1.0
  9
$DIMTOFL
 70
     1
  9
$DIMTVP
 40
0.0
  9
$DIMTIX
 70
     0
  9
$DIMSOXD
 70
     0
  9
$DIMSAH
 70
     0
  9
$DIMBLK1
  1

  9
$DIMBLK2
  1

  9
$DIMSTYLE
  2
ISO-25
  9
$DIMCLRD
 70
     0
  9
$DIMCLRE
 70
     0
  9
$DIMCLRT
 70
     0
  9
$DIMTFAC
 40
1.0
  9
$DIMGAP
 40
0.625
  9
$DIMJUST
 70
     0
  9
$DIMSD1
 70
     0
  9
$DIMSD2
 70
     0
  9
$DIMTOLJ
 70
     0
  9
$DIMTZIN
 70
     8
  9
$DIMALTZ
 70
     0
  9
$DIMALTTZ
 70
     0
  9
$DIMUPT
 70
     0
  9
$DIMDEC
 70
     2
  9
$DIMTDEC
 70
     2
  9
$DIMALTU
 70
     2
  9
$DIMALTTD
 70
     3
  9
$DIMTXSTY
  7
Standard
  9
$DIMAUNIT
 70
     0
  9
$DIMADEC
 70
     0
  9
$DIMALTRND
 40
0.0
  9
$DIMAZIN
 70
     0
  9
$DIMDSEP
 70
    44
  9
$DIMATFIT
 70
     3
  9
$DIMFRAC
 70
     0
  9
$DIMLDRBLK
  1

  9
$DIMLUNIT
 70
     2
  9
$DIMLWD
 70
    -2
  9
$DIMLWE
 70
    -2
  9
$DIMTMOVE
 70
     0
  9
$LUNITS
 70
     2
  9
$LUPREC
 70
     2
  9
$SKETCHINC
 40
1.0
  9
$FILLETRAD
 40
10.0
  9
$AUNITS
 70
     0
  9
$AUPREC
 70
     2
  9
$MENU
  1
.
  9
$ELEVATION
 40
0.0
  9
$PELEVATION
 40
0.0
  9
$THICKNESS
 40
0.0
  9
$LIMCHECK
 70
     0
  9
$CHAMFERA
 40
0.0
  9
$CHAMFERB
 40
0.0
  9
$CHAMFERC
 40
0.0
  9
$CHAMFERD
 40
0.0
  9
$SKPOLY
 70
     0
  9
$TDCREATE
 40
2458495.445173611
  9
$TDUCREATE
 40
2458495.111847466
  9
$TDUPDATE
 40
2458495.755868055
  9
$TDUUPDATE
 40
2458495.422534722
  9
$TDINDWG
 40
0.1535301042
  9
$TDUSRTIMER
 40
0.1535301042
  9
$USRTIMER
 70
     1
  9
$ANGBASE
 50
0.0
  9
$ANGDIR
 70
     0
  9
$PDMODE
 70
     0
  9
$PDSIZE
 40
-1.0
  9
$PLINEWID
 40
0.0
  9
$SPLFRAME
 70
     0
  9
$SPLINETYPE
 70
     6
  9
$SPLINESEGS
 70
     8
  9
$HANDSEED
  5
1B0
  9
$SURFTAB1
 70
     6
  9
$SURFTAB2
 70
     6
  9
$SURFTYPE
 70
     6
  9
$SURFU
 70
     6
  9
$SURFV
 70
     6
  9
$UCSBASE
  2

  9
$UCSNAME
  2

  9
$UCSORG
 10
0.0
 20
0.0
 30
0.0
  9
$UCSXDIR
 10
1.0
 20
0.0
 30
0.0
  9
$UCSYDIR
 10
0.0
 20
1.0
 30
0.0
  9
$UCSORTHOREF
  2

  9
$UCSORTHOVIEW
 70
     0
  9
$UCSORGTOP
 10
0.0
 20
0.0
 30
0.0
  9
$UCSORGBOTTOM
 10
0.0
 20
0.0
 30
0.0
  9
$UCSORGLEFT
 10
0.0
 20
0.0
 30
0.0
  9
$UCSORGRIGHT
 10
0.0
 20
0.0
 30
0.0
  9
$UCSORGFRONT
 10
0.0
 20
0.0
 30
0.0
  9
$UCSORGBACK
 10
0.0
 20
0.0
 30
0.0
  9
$PUCSBASE
  2

  9
$PUCSNAME
  2

  9
$PUCSORG
 10
0.0
 20
0.0
 30
0.0
  9
$PUCSXDIR
 10
1.0
 20
0.0
 30
0.0
  9
$PUCSYDIR
 10
0.0
 20
1.0
 30
0.0
  9
$PUCSORTHOREF
  2

  9
$PUCSORTHOVIEW
 70
     0
  9
$PUCSORGTOP
 10
0.0
 20
0.0
 30
0.0
  9
$PUCSORGBOTTOM
 10
0.0
 20
0.0
 30
0.0
  9
$PUCSORGLEFT
 10
0.0
 20
0.0
 30
0.0
  9
$PUCSORGRIGHT
 10
0.0
 20
0.0
 30
0.0
  9
$PUCSORGFRONT
 10
0.0
 20
0.0
 30
0.0
  9
$PUCSORGBACK
 10
0.0
 20
0.0
 30
0.0
  9
$USERI1
 70
     0
  9
$USERI2
 70
     0
  9
$USERI3
 70
     0
  9
$USERI4
 70
     0
  9
$USERI5
 70
     0
  9
$USERR1
 40
0.0
  9
$USERR2
 40
0.0
  9
$USERR3
 40
0.0
  9
$USERR4
 40
0.0
  9
$USERR5
 40
0.0
  9
$WORLDVIEW
 70
     1
  9
$SHADEDGE
 70
     3
  9
$SHADEDIF
 70
    70
  9
$TILEMODE
 70
     1
  9
$MAXACTVP
 70
    64
  9
$PINSBASE
 10
0.0
 20
0.0
 30
0.0
  9
$PLIMCHECK
 70
     0
  9
$PEXTMIN
 10
1.000000000000000E+20
 20
1.000000000000000E+20
 30
1.000000000000000E+20
  9
$PEXTMAX
 10
-1.000000000000000E+20
 20
-1.000000000000000E+20
 30
-1.000000000000000E+20
  9
$PLIMMIN
 10
0.0
 20
0.0
  9
$PLIMMAX
 10
420.0
 20
297.0
  9
$UNITMODE
 70
     0
  9
$VISRETAIN
 70
     1
  9
$PLINEGEN
 70
     0
  9
$PSLTSCALE
 70
     1
  9
$TREEDEPTH
 70
  3020
  9
$CMLSTYLE
  2
Standard
  9
$CMLJUST
 70
     0
  9
$CMLSCALE
 40
20.0
  9
$PROXYGRAPHICS
 70
     1
  9
$MEASUREMENT
 70
     1
  9
$CELWEIGHT
370
    -1
  9
$ENDCAPS
280
     0
  9
$JOINSTYLE
280
     0
  9
$LWDISPLAY
290
     0
  9
$INSUNITS
 70
     4
  9
$HYPERLINKBASE
  1

  9
$STYLESHEET
  1

  9
$XEDIT
290
     1
  9
$CEPSNTYPE
380
     0
  9
$PSTYLEMODE
290
     1
  9
$FINGERPRINTGUID
  2
{4F797906-CFE1-A141-B2C0-10A622B0CED9}
  9
$VERSIONGUID
  2
{56455905-4411-DF46-A381-C65F3482B333}
  9
$EXTNAMES
290
     1
  9
$PSVPSCALE
 40
0.0
  9
$OLESTARTUP
290
     0
  9
$SORTENTS
280
   127
  9
$INDEXCTL
280
     0
  9
$HIDETEXT
280
     1
  9
$XCLIPFRAME
290
     0
  9
$HALOGAP
280
     0
  9
$OBSCOLOR
 70
   257
  9
$OBSLTYPE
280
     0
  9
$INTERSECTIONDISPLAY
280
     0
  9
$INTERSECTIONCOLOR
 70
   257
  9
$DIMASSOC
280
     1
  9
$PROJECTNAME
  1

  0
ENDSEC
  0
SECTION
  2
CLASSES
  0
CLASS
  1
ACDBDICTIONARYWDFLT
  2
AcDbDictionaryWithDefault
  3
ObjectDBX Classes
 90
        0
 91
        1
280
     0
281
     0
  0
CLASS
  1
VISUALSTYLE
  2
AcDbVisualStyle
  3
ObjectDBX Classes
 90
     4095
 91
        3
280
     0
281
     0
  0
CLASS
  1
MATERIAL
  2
AcDbMaterial
  3
ObjectDBX Classes
 90
     1153
 91
        3
280
     0
281
     0
  0
CLASS
  1
SCALE
  2
AcDbScale
  3
ObjectDBX Classes
 90
     1153
 91
       33
280
     0
281
     0
  0
CLASS
  1
TABLESTYLE
  2
AcDbTableStyle
  3
ObjectDBX Classes
 90
     4095
 91
        1
280
     0
281
     0
  0
CLASS
  1
MLEADERSTYLE
  2
AcDbMLeaderStyle
  3
ACDB_MLEADERSTYLE_CLASS
 90
     4095
 91
        0
280
     0
281
     0
  0
CLASS
  1
SUN
  2
AcDbSun
  3
SCENEOE
 90
     1153
 91
        0
280
     0
281
     0
  0
CLASS
  1
ACDBSECTIONVIEWSTYLE
  2
AcDbSectionViewStyle
  3
ObjectDBX Classes
 90
     1025
 91
        0
280
     0
281
     0
  0
CLASS
  1
ACDBDETAILVIEWSTYLE
  2
AcDbDetailViewStyle
  3
ObjectDBX Classes
 90
     1025
 91
        0
280
     0
281
     0
  0
CLASS
  1
DICTIONARYVAR
  2
AcDbDictionaryVar
  3
ObjectDBX Classes
 90
        0
 91
        6
280
     0
281
     0
  0
CLASS
  1
CELLSTYLEMAP
  2
AcDbCellStyleMap
  3
ObjectDBX Classes
 90
     1152
 91
        1
280
     0
281
     0
  0
ENDSEC
  0
SECTION
  2
TABLES
  0
TABLE
  2
VPORT
  5
26
330
0
100
AcDbSymbolTable
 70
     1
  0
VPORT
  5
27
330
26
100
AcDbSymbolTableRecord
100
AcDbViewportTableRecord
  2
*Active
 70
     0
 10
0.0
 20
0.0
 11
1.0
 21
1.0
 12
26.45973536769998
 22
9.61307936996252
 13
0.0
 23
0.0
 14
10.0
 24
10.0
 15
10.0
 25
10.0
 16
0.0
 26
0.0
 36
1.0
 17
0.0
 27
0.0
 37
0.0
 40
33.99735701009304
 41
2.505511811023621
 42
50.0
 43
0.0
 44
0.0
 50
0.0
 51
0.0
 71
     0
 72
  2000
 73
     1
 74
     3
 75
     0
 76
     0
 77
     0
 78
     0
281
     0
 65
     1
110
0.0
120
0.0
130
0.0
111
1.0
121
0.0
131
0.0
112
0.0
122
1.0
132
0.0
 79
     0
146
0.0
1001
ACAD_NAV_VCDISPLAY
1070
     3
  0
ENDTAB
  0
TABLE
  2
LTYPE
  5
21
330
0
100
AcDbSymbolTable
 70
     1
  0
LTYPE
  5
22
330
21
100
AcDbSymbolTableRecord
100
AcDbLinetypeTableRecord
  2
ByBlock
 70
     0
  3

 72
    65
 73
     0
 40
0.0
  0
LTYPE
  5
23
330
21
100
AcDbSymbolTableRecord
100
AcDbLinetypeTableRecord
  2
ByLayer
 70
     0
  3

 72
    65
 73
     0
 40
0.0
  0
LTYPE
  5
13
330
21
100
AcDbSymbolTableRecord
100
AcDbLinetypeTableRecord
  2
Continuous
 70
     0
  3
Solid line
 72
    65
 73
     0
 40
0.0
  0
ENDTAB
  0
TABLE
  2
LAYER
  5
1B
102
{ACAD_XDICTIONARY
360
1C
102
}
330
0
100
AcDbSymbolTable
 70
     1
  0
LAYER
  5
4
102
{ACAD_XDICTIONARY
360
5
102
}
330
1B
100
AcDbSymbolTableRecord
100
AcDbLayerTableRecord
  2
0
 70
     0
 62
     7
  6
Continuous
370
    -3
390
7
  0
ENDTAB
  0
TABLE
  2
STYLE
  5
1E
330
0
100
AcDbSymbolTable
 70
     1
  0
STYLE
  5
1F
330
1E
100
AcDbSymbolTableRecord
100
AcDbTextStyleTableRecord
  2
Standard
 70
     0
 40
0.0
 41
1.0
 50
0.0
 71
     0
 42
3.5
  3
txt
  4
bigfont
  0
ENDTAB
  0
TABLE
  2
VIEW
  5
24
330
0
100
AcDbSymbolTable
 70
     0
  0
ENDTAB
  0
TABLE
  2
UCS
  5
25
330
0
100
AcDbSymbolTable
 70
     0
  0
ENDTAB
  0
TABLE
  2
APPID
  5
2B
330
0
100
AcDbSymbolTable
 70
     2
  0
APPID
  5
2C
330
2B
100
AcDbSymbolTableRecord
100
AcDbRegAppTableRecord
  2
ACAD
 70
     0
  0
APPID
  5
2A
330
2B
100
AcDbSymbolTableRecord
100
AcDbRegAppTableRecord
  2
ACAD_NAV_VCDISPLAY
 70
     0
  0
ENDTAB
  0
TABLE
  2
DIMSTYLE
  5
2D
330
0
100
AcDbSymbolTable
 70
     1
100
AcDbDimStyleTable
 71
     1
340
2E
  0
DIMSTYLE
105
2E
330
2D
100
AcDbSymbolTableRecord
100
AcDbDimStyleTableRecord
  2
ISO-25
 70
     0
 41
2.5
 42
0.625
 43
3.75
 44
1.25
 73
     0
 74
     0
 77
     1
 78
     8
140
2.5
141
2.5
143
0.0393700787
147
0.625
171
     3
172
     1
271
     2
272
     2
274
     3
278
    44
283
     0
284
     8
340
1F
  0
ENDTAB
  0
TABLE
  2
BLOCK_RECORD
  5
1
330
0
100
AcDbSymbolTable
 70
     0
  0
BLOCK_RECORD
  5
2
330
1
100
AcDbSymbolTableRecord
100
AcDbBlockTableRecord
  2
*Model_Space
340
15
  0
BLOCK_RECORD
  5
17
330
1
100
AcDbSymbolTableRecord
100
AcDbBlockTableRecord
  2
*Paper_Space
340
1A
  0
ENDTAB
  0
ENDSEC
  0
SECTION
  2
BLOCKS
  0
BLOCK
  5
3
330
2
100
AcDbEntity
  8
0
100
AcDbBlockBegin
  2
*Model_Space
 70
     0
 10
0.0
 20
0.0
 30
0.0
  3
*Model_Space
  1

  0
ENDBLK
  5
14
330
2
100
AcDbEntity
  8
0
100
AcDbBlockEnd
  0
BLOCK
  5
18
330
17
100
AcDbEntity
 67
     1
  8
0
100
AcDbBlockBegin
  2
*Paper_Space
 70
     0
 10
0.0
 20
0.0
 30
0.0
  3
*Paper_Space
  1

  0
ENDBLK
  5
19
330
17
100
AcDbEntity
 67
     1
  8
0
100
AcDbBlockEnd
  0
ENDSEC
  0
SECTION
  2
ENTITIES
  0
LINE
  5
6C
330
2
100
AcDbEntity
  8
0
  6
Continuous
 62
     7
370
    15
100
AcDbLine
 10
50.36659432328361
 20
20.37269299652456
 30
0.0
 11
3.064235703342323
 21
6.717678255243872
 31
0.0
  0
LINE
  5
6D
330
2
100
AcDbEntity
  8
0
  6
Continuous
 62
     7
370
    15
100
AcDbLine
 10
3.438008062010901
 20
5.519315930341716
 30
0.0
 11
50.36320020664994
 21
19.06545208859533
 31
0.0
  0
LINE
  5
6E
330
2
100
AcDbEntity
  8
0
  6
Continuous
 62
     7
370
    15
100
AcDbLine
 10
5.609754428915955
 20
1.254196527591481
 30
0.0
 11
52.9122096998063
 21
14.90923916958245
 31
0.0
  0
LINE
  5
6F
330
2
100
AcDbEntity
  8
0
  6
Continuous
 62
     7
370
    15
100
AcDbLine
 10
3.063394702946808
 20
5.125567253296916
 30
0.0
 11
5.018511330267966
 21
1.477269870631891
 31
0.0
  0
SPLINE
  5
70
330
2
100
AcDbEntity
  8
0
  6
Continuous
 62
     7
370
    15
100
AcDbSpline
210
0.0
220
0.0
230
1.0
 70
     8
 71
     3
 72
    13
 73
     9
 74
     0
 42
0.000000001
 43
0.0000000001
 40
0.0
 40
0.0
 40
0.0
 40
0.0
 40
0.1068573897567757
 40
0.3103849405477674
 40
0.5126265122634849
 40
0.7143044878541974
 40
0.9162998929233735
 40
1.0
 40
1.0
 40
1.0
 40
1.0
 10
2.980228122382193
 20
5.447708804055253
 30
0.0
 10
2.9804387441186
 20
5.436629003769896
 30
0.0
 10
2.981050529745041
 20
5.404445893545318
 30
0.0
 10
2.98780291311084
 20
5.347829739667871
 30
0.0
 10
3.002475705546024
 20
5.279375729930171
 30
0.0
 10
3.023653538555391
 20
5.212225244088871
 30
0.0
 10
3.045004440653448
 20
5.161037207586003
 30
0.0
 10
3.059227715454414
 20
5.13360427057065
 30
0.0
 10
3.063394702940054
 20
5.125567253298767
 30
0.0
  0
LINE
  5
71
330
2
100
AcDbEntity
  8
0
  6
Continuous
 62
     7
370
    15
100
AcDbLine
 10
2.9802281223799
 20
6.659378777899462
 30
0.0
 11
2.9802281223799
 21
5.447708804064236
 31
0.0
  0
LINE
  5
72
330
2
100
AcDbEntity
  8
0
  6
Continuous
 62
     7
370
    15
100
AcDbLine
 10
3.064149011791561
 20
6.717653390807743
 30
0.0
 11
3.009930816082363
 21
6.701209403345239
 31
0.0
  0
SPLINE
  5
73
330
2
100
AcDbEntity
  8
0
  6
Continuous
 62
     7
370
    15
100
AcDbSpline
210
0.0
220
0.0
230
1.0
 70
     8
 71
     3
 72
    11
 73
     7
 74
     0
 42
0.000000001
 43
0.0000000001
 40
0.0
 40
0.0
 40
0.0
 40
0.0
 40
0.2694695771346965
 40
0.5306308928470508
 40
0.7759856799625743
 40
1.0
 40
1.0
 40
1.0
 40
1.0
 10
3.009930816076864
 20
6.701209403337966
 30
0.0
 10
3.005340969317879
 20
6.699269809649278
 30
0.0
 10
2.996302789536526
 20
6.695450423647572
 30
0.0
 10
2.98675395618238
 20
6.684462206609599
 30
0.0
 10
2.981093819783612
 20
6.672114624197309
 30
0.0
 10
2.980642963367453
 20
6.663510208406813
 30
0.0
 10
2.980427784541323
 20
6.6594036058988
 30
0.0
  0
SPLINE
  5
74
330
2
100
AcDbEntity
  8
0
  6
Continuous
 62
     7
370
    15
100
AcDbSpline
210
0.0
220
0.0
230
1.0
 70
     8
 71
     3
 72
    11
 73
     7
 74
     0
 42
0.000000001
 43
0.0000000001
 40
0.0
 40
0.0
 40
0.0
 40
0.0
 40
0.2220877563296617
 40
0.4648055892219027
 40
0.7255912764262758
 40
1.0
 40
1.0
 40
1.0
 40
1.0
 10
5.018817006962792
 20
1.47675298881851
 30
0.0
 10
5.019846628948112
 20
1.475106612682757
 30
0.0
 10
5.022001516103787
 20
1.471660925975309
 30
0.0
 10
5.026422984785535
 20
1.46665719382831
 30
0.0
 10
5.031647876215409
 20
1.462003163861516
 30
0.0
 10
5.035569561817099
 20
1.459804144890829
 30
0.0
 10
5.037580316635415
 20
1.458676648084594
 30
0.0
  0
LINE
  5
75
330
2
100
AcDbEntity
  8
0
  6
Continuous
 62
     7
370
    15
100
AcDbLine
 10
5.039525147679823
 20
1.457727326242036
 30
0.0
 11
5.524913067967986
 21
1.241316916724672
 31
0.0
  0
LINE
  5
76
330
2
100
AcDbEntity
  8
0
  6
Continuous
 62
     7
370
    15
100
AcDbLine
 10
5.554930658708407
 20
1.239060838954082
 30
0.0
 11
5.609660941897666
 21
1.254169620382476
 31
0.0
  0
ARC
  5
77
330
2
100
AcDbEntity
  8
0
  6
Continuous
 62
     7
370
    15
100
AcDbCircle
 10
5.543066787503161
 20
1.282033844612273
 30
0.0
 40
0.0445806137981784
100
AcDbArc
 50
245.9702788372981
 51
285.432584853299
  0
SPLINE
  5
78
330
2
100
AcDbEntity
  8
0
  6
Continuous
 62
     7
370
    15
100
AcDbSpline
210
0.0
220
0.0
230
1.0
 70
     8
 71
     3
 72
    11
 73
     7
 74
     0
 42
0.000000001
 43
0.0000000001
 40
0.0
 40
0.0
 40
0.0
 40
0.0
 40
0.1342109283360596
 40
0.489940618841345
 40
0.8328771617785873
 40
1.0
 40
1.0
 40
1.0
 40
1.0
 10
50.4615686173487
 20
20.37715170785927
 30
0.0
 10
50.46023962800434
 20
20.37858015672921
 30
0.0
 10
50.45538811650761
 20
20.38379474791032
 30
0.0
 10
50.44374582057382
 20
20.38837746658749
 30
0.0
 10
50.43112897741149
 20
20.38986148468392
 30
0.0
 10
50.4239078163151
 20
20.38828053475493
 30
0.0
 10
50.42154177623771
 20
20.38776253067743
 30
0.0
  0
LINE
  5
79
330
2
100
AcDbEntity
  8
0
  6
Continuous
 62
     7
370
    15
100
AcDbLine
 10
50.42154177622972
 20
20.38776253067402
 30
0.0
 11
50.36677683535801
 21
20.37274578864222
 31
0.0
  0
LINE
  5
7A
330
2
100
AcDbEntity
  8
0
  6
Continuous
 62
     7
370
    15
100
AcDbLine
 10
52.98572543147212
 20
18.19206294471754
 30
0.0
 11
50.46163019389623
 21
20.37799354200958
 31
0.0
  0
ARC
  5
7B
330
2
100
AcDbEntity
  8
0
  6
Continuous
 62
     7
370
    15
100
AcDbCircle
 10
52.95362209998073
 20
14.96828228065384
 30
0.0
 40
0.0445806137981852
100
AcDbArc
 50
286.7738681721001
 51
0.0
  0
LINE
  5
7C
330
2
100
AcDbEntity
  8
0
  6
Continuous
 62
     7
370
    15
100
AcDbLine
 10
52.99820243907318
 20
14.96828220159014
 30
0.0
 11
52.99820243907318
 21
18.16475137231411
 31
0.0
  0
LINE
  5
7D
330
2
100
AcDbEntity
  8
0
  6
Continuous
 62
     7
370
    15
100
AcDbLine
 10
52.91230421246847
 20
14.90926633919294
 30
0.0
 11
52.9664880229942
 21
14.92559864354695
 31
0.0
  0
LINE
  5
7E
330
2
100
AcDbEntity
  8
0
  6
Continuous
 62
     7
370
    15
100
AcDbLine
 10
51.98684592918232
 20
18.6825775789974
 30
0.0
 11
51.95910248821256
 21
18.67427698681314
 31
0.0
  0
LINE
  5
7F
330
2
100
AcDbEntity
  8
0
  6
Continuous
 62
     7
370
    15
100
AcDbLine
 10
52.00840431011521
 20
18.50349046592706
 30
0.0
 11
52.03630328101037
 21
18.51125239454476
 31
0.0
  0
LINE
  5
80
330
2
100
AcDbEntity
  8
0
  6
Continuous
 62
     7
370
    15
100
AcDbLine
 10
52.72794347052863
 20
17.44979355844915
 30
0.0
 11
52.78601661523974
 21
17.46595043097727
 31
0.0
  0
LINE
  5
81
330
2
100
AcDbEntity
  8
0
  6
Continuous
 62
     7
370
    15
100
AcDbLine
 10
52.46246032533044
 20
18.33073512345848
 30
0.0
 11
52.43524471013483
 21
18.32259242673615
 31
0.0
  0
SPLINE
  5
82
330
2
100
AcDbEntity
  8
0
  6
Continuous
 62
     7
370
    15
100
AcDbSpline
210
0.0
220
0.0
230
1.0
 70
     8
 71
     3
 72
    11
 73
     7
 74
     0
 42
0.000000001
 43
0.0000000001
 40
0.0
 40
0.0
 40
0.0
 40
0.0
 40
0.1211550354916715
 40
0.5383532609798949
 40
0.9609258134146156
 40
1.0
 40
1.0
 40
1.0
 40
1.0
 10
52.99775381880727
 20
18.16479666383526
 30
0.0
 10
52.99788194735204
 20
18.16605786020083
 30
0.0
 10
52.99845128745109
 20
18.17166199521168
 30
0.0
 10
52.99464089181498
 20
18.18129321188773
 30
0.0
 10
52.98964830599476
 20
18.18940257435474
 30
0.0
 10
52.98561269929438
 20
18.19202167156005
 30
0.0
 10
52.98527112198889
 20
18.19224335425425
 30
0.0
  0
LINE
  5
83
330
2
100
AcDbEntity
  8
0
  6
Continuous
 62
     7
370
    15
100
AcDbLine
 10
5.310832624910688
 20
2.079516850954877
 30
0.0
 11
5.281172396605644
 21
2.087242808522941
 31
0.0
  0
LINE
  5
84
330
2
100
AcDbEntity
  8
0
  6
Continuous
 62
     7
370
    15
100
AcDbLine
 10
5.172008718302008
 20
1.842396468637826
 30
0.0
 11
5.197578930136144
 21
1.82549871978283
 31
0.0
  0
LINE
  5
85
330
2
100
AcDbEntity
  8
0
  6
Continuous
 62
     7
370
    15
100
AcDbLine
 10
5.24995936743346
 20
1.99127281180009
 30
0.0
 11
5.270772351342325
 21
1.981993422905856
 31
0.0
  0
LINE
  5
86
330
2
100
AcDbEntity
  8
0
  6
Continuous
 62
     7
370
    15
100
AcDbLine
 10
5.228892060373352
 20
1.926922434716139
 30
0.0
 11
5.208079076442199
 21
1.936201823588073
 31
0.0
  0
LINE
  5
87
330
2
100
AcDbEntity
  8
0
  6
Continuous
 62
     7
370
    15
100
AcDbLine
 10
50.18669973771602
 20
19.50582211594819
 30
0.0
 11
50.17697805630488
 21
19.47321279727649
 31
0.0
  0
LINE
  5
88
330
2
100
AcDbEntity
  8
0
  6
Continuous
 62
     7
370
    15
100
AcDbLine
 10
50.34062479769801
 20
19.42465733788022
 30
0.0
 11
50.32990676843444
 21
19.40178558395677
 31
0.0
  0
LINE
  5
89
330
2
100
AcDbEntity
  8
0
  6
Continuous
 62
     7
370
    15
100
AcDbLine
 10
50.26603383042085
 20
19.42764659977109
 30
0.0
 11
50.27675185968444
 21
19.45051842560308
 31
0.0
  0
LINE
  5
8A
330
2
100
AcDbEntity
  8
0
  6
Continuous
 62
     7
370
    15
100
AcDbLine
 10
3.332099596688588
 20
5.980064113842841
 30
0.0
 11
3.322377915277465
 21
5.947454795171131
 31
0.0
  0
LINE
  5
8B
330
2
100
AcDbEntity
  8
0
  6
Continuous
 62
     7
370
    15
100
AcDbLine
 10
3.56574368456378
 20
5.833411620055517
 30
0.0
 11
3.58458111457102
 21
5.861748838244962
 31
0.0
  0
LINE
  5
8C
330
2
100
AcDbEntity
  8
0
  6
Continuous
 62
     7
370
    15
100
AcDbLine
 10
3.486022355441595
 20
5.898898671479126
 30
0.0
 11
3.475304326178022
 21
5.876026917555677
 31
0.0
  0
LINE
  5
8D
330
2
100
AcDbEntity
  8
0
  6
Continuous
 62
     7
370
    15
100
AcDbLine
 10
3.411431388186721
 20
5.901887933370013
 30
0.0
 11
3.422149417450306
 21
5.924759759202003
 31
0.0
  0
LINE
  5
8E
330
2
100
AcDbEntity
  8
0
  6
Continuous
 62
     7
370
    15
100
AcDbLine
 10
52.15483094516113
 20
15.6080368229207
 30
0.0
 11
52.13577483883977
 21
15.61300147492401
 31
0.0
  0
LINE
  5
8F
330
2
100
AcDbEntity
  8
0
  6
Continuous
 62
     7
370
    15
100
AcDbLine
 10
52.02660885932942
 20
15.36815447074318
 30
0.0
 11
52.0521790711636
 21
15.35125672186591
 31
0.0
  0
LINE
  5
90
330
2
100
AcDbEntity
  8
0
  6
Continuous
 62
     7
370
    15
100
AcDbLine
 10
52.10455950846089
 20
15.51703081388315
 30
0.0
 11
52.12537249236976
 21
15.50775142501122
 31
0.0
  0
LINE
  5
91
330
2
100
AcDbEntity
  8
0
  6
Continuous
 62
     7
370
    15
100
AcDbLine
 10
52.08349220140079
 20
15.4526804367992
 30
0.0
 11
52.06267921749192
 21
15.46195982569344
 31
0.0
  0
LINE
  5
92
330
2
100
AcDbEntity
  8
0
  6
Continuous
 62
     7
370
    15
100
AcDbLine
 10
3.525422214226814
 20
5.355490442041359
 30
0.0
 11
3.605080105046392
 21
4.771587468120139
 31
0.0
  0
SPLINE
  5
93
330
2
100
AcDbEntity
  8
0
  6
Continuous
 62
     7
370
    15
100
AcDbSpline
210
0.0
220
0.0
230
1.0
 70
     8
 71
     3
 72
     9
 73
     5
 74
     0
 42
0.000000001
 43
0.0000000001
 40
0.0
 40
0.0
 40
0.0
 40
0.0
 40
0.6702933578780437
 40
1.0
 40
1.0
 40
1.0
 40
1.0
 10
3.612064876321801
 20
4.743717611791501
 30
0.0
 10
3.614034663534876
 20
4.737203071406019
 30
0.0
 10
3.616973357749757
 20
4.727484132214822
 30
0.0
 10
3.621374203019037
 20
4.719048951396797
 30
0.0
 10
3.622825190935301
 20
4.716267816253566
 30
0.0
  0
SPLINE
  5
94
330
2
100
AcDbEntity
  8
0
  6
Continuous
 62
     7
370
    15
100
AcDbSpline
210
0.0
220
0.0
230
1.0
 70
     8
 71
     3
 72
     9
 73
     5
 74
     0
 42
0.000000001
 43
0.0000000001
 40
0.0
 40
0.0
 40
0.0
 40
0.0
 40
0.6128578518135065
 40
1.0
 40
1.0
 40
1.0
 40
1.0
 10
3.605080105052372
 20
4.771587468122356
 30
0.0
 10
3.605931995040017
 20
4.765777650810423
 30
0.0
 10
3.607322023714882
 20
4.756297773389035
 30
0.0
 10
3.610741177702169
 20
4.747228651227348
 30
0.0
 10
3.612064876321801
 20
4.743717611791501
 30
0.0
  0
LINE
  5
95
330
2
100
AcDbEntity
  8
0
  6
Continuous
 62
     7
370
    15
100
AcDbLine
 10
3.62282519094075
 20
4.716267816243505
 30
0.0
 11
4.575343893405926
 21
2.938843848345115
 31
0.0
  0
SPLINE
  5
96
330
2
100
AcDbEntity
  8
0
  6
Continuous
 62
     7
370
    15
100
AcDbSpline
210
0.0
220
0.0
230
1.0
 70
     8
 71
     3
 72
    11
 73
     7
 74
     0
 42
0.000000001
 43
0.0000000001
 40
0.0
 40
0.0
 40
0.0
 40
0.0
 40
0.2748739938239804
 40
0.5357905532851479
 40
0.7784023623334592
 40
1.0
 40
1.0
 40
1.0
 40
1.0
 10
3.527162265204824
 20
5.367350267360949
 30
0.0
 10
3.526769721265264
 20
5.36636436478549
 30
0.0
 10
3.526004565814857
 20
5.364442621374857
 30
0.0
 10
3.525428955634342
 20
5.36131521880323
 30
0.0
 10
3.525203498912197
 20
5.358327295133891
 30
0.0
 10
3.525340228445224
 20
5.356541377945475
 30
0.0
 10
3.525405498425687
 20
5.355688842451396
 30
0.0
  0
LINE
  5
97
330
2
100
AcDbEntity
  8
0
  6
Continuous
 62
     7
370
    15
100
AcDbLine
 10
3.587749005587141
 20
5.4966459186525
 30
0.0
 11
3.527176039223645
 21
5.367385070236799
 31
0.0
  0
LINE
  5
98
330
2
100
AcDbEntity
  8
0
  6
Continuous
 62
     7
370
    15
100
AcDbLine
 10
3.695941293135266
 20
5.593774720713073
 30
0.0
 11
3.595016907111578
 21
5.506371566623741
 31
0.0
  0
SPLINE
  5
99
330
2
100
AcDbEntity
  8
0
  6
Continuous
 62
     7
370
    15
100
AcDbSpline
210
0.0
220
0.0
230
1.0
 70
     8
 71
     3
 72
    10
 73
     6
 74
     0
 42
0.000000001
 43
0.0000000001
 40
0.0
 40
0.0
 40
0.0
 40
0.0
 40
0.2874488598146568
 40
0.8023982833734795
 40
1.0
 40
1.0
 40
1.0
 40
1.0
 10
4.575343893410829
 20
2.938843848355061
 30
0.0
 10
4.578175775216284
 20
2.934029870090884
 30
0.0
 10
4.586080823442522
 20
2.920591904472029
 30
0.0
 10
4.598165674679686
 20
2.907950006280827
 30
0.0
 10
4.608688043615989
 20
2.902836705981666
 30
0.0
 10
4.611606063176289
 20
2.901418706823795
 30
0.0
  0
LINE
  5
9A
330
2
100
AcDbEntity
  8
0
  6
Continuous
 62
     7
370
    15
100
AcDbLine
 10
4.611606063181142
 20
2.901418706817143
 30
0.0
 11
4.910986377172139
 21
2.781090663070733
 31
0.0
  0
LINE
  5
9B
330
2
100
AcDbEntity
  8
0
  6
Continuous
 62
     7
370
    15
100
AcDbLine
 10
4.922714698524605
 20
2.780985206246797
 30
0.0
 11
4.981506598283075
 21
2.796730611166772
 31
0.0
  0
LINE
  5
9C
330
2
100
AcDbEntity
  8
0
  6
Continuous
 62
     7
370
    15
100
AcDbLine
 10
50.40178941442928
 20
18.89939164062861
 30
0.0
 11
3.599771985671728
 21
5.388812960079775
 31
0.0
  0
LINE
  5
9D
330
2
100
AcDbEntity
  8
0
  6
Continuous
 62
     7
370
    15
100
AcDbLine
 10
4.977352712169847
 20
2.798453068953961
 30
0.0
 11
51.77919524874983
 21
16.30898126247035
 31
0.0
  0
LINE
  5
9E
330
2
100
AcDbEntity
  8
0
  6
Continuous
 62
     7
370
    15
100
AcDbLine
 10
3.419200484029699
 20
5.534554417639386
 30
0.0
 11
3.065211066074494
 21
6.195107553549592
 31
0.0
  0
ARC
  5
9F
330
2
100
AcDbEntity
  8
0
  6
Continuous
 62
     7
370
    15
100
AcDbCircle
 10
3.133030569438833
 20
6.231038073360314
 30
0.0
 40
0.0767495100174258
100
AcDbArc
 50
181.0904331115006
 51
207.9144758591001
  0
LINE
  5
A0
330
2
100
AcDbEntity
  8
0
  6
Continuous
 62
     7
370
    15
100
AcDbLine
 10
50.35875022936259
 20
19.88462013385267
 30
0.0
 11
3.056294958472266
 21
6.229577491861721
 31
0.0
  0
LINE
  5
A1
330
2
100
AcDbEntity
  8
0
  6
Continuous
 62
     7
370
    15
100
AcDbLine
 10
50.35875022936259
 20
19.88462013385267
 30
0.0
 11
50.35875022936259
 21
19.99800944572983
 31
0.0
  0
LINE
  5
A2
330
2
100
AcDbEntity
  8
0
  6
Continuous
 62
     7
370
    15
100
AcDbLine
 10
3.056294958472266
 20
6.229577491861721
 30
0.0
 11
3.056294958472266
 21
6.34296680373888
 31
0.0
  0
LWPOLYLINE
  5
A3
330
2
100
AcDbEntity
  8
0
  6
Continuous
 62
     7
370
    15
100
AcDbPolyline
 90
        7
 70
   128
 43
0.0
 10
3.064235703342323
 20
6.717678255243872
 10
3.06422025829951
 20
6.717673696095954
 10
3.061517874040417
 20
6.716172914875897
 10
3.05930026483689
 20
6.713413009588233
 10
3.05765246147808
 20
6.709500206250824
 10
3.056637572704393
 20
6.704585058433453
 10
3.056294958472266
 20
6.69885614199873
  0
LWPOLYLINE
  5
A4
330
2
100
AcDbEntity
  8
0
  6
Continuous
 62
     7
370
    15
100
AcDbPolyline
 90
        8
 70
   128
 43
0.0
 10
3.419200484029699
 20
5.534554417639386
 10
3.421908016636389
 20
5.530004056980269
 10
3.42479042697655
 20
5.526117380490512
 10
3.42776650401715
 20
5.523003983412404
 10
3.43075237952003
 20
5.520751455662965
 10
3.433664019184191
 20
5.519423224399617
 10
3.436419547680933
 20
5.519056540514563
 10
3.438008062010901
 20
5.519315930341716
  0
LINE
  5
A5
330
2
100
AcDbEntity
  8
0
  6
Continuous
 62
     7
370
    15
100
AcDbLine
 10
5.090107856635192
 20
1.523199906530932
 30
0.0
 11
4.945500530336408
 21
2.68091305865578
 31
0.0
  0
ARC
  5
A6
330
2
100
AcDbEntity
  8
0
  6
Continuous
 62
     7
370
    15
100
AcDbCircle
 10
5.160018137557418
 20
1.526710439909535
 30
0.0
 40
0.0699983658504032
100
AcDbArc
 50
182.8746836548014
 51
232.1059057497991
  0
ARC
  5
A7
330
2
100
AcDbEntity
  8
0
  6
Continuous
 62
     7
370
    15
100
AcDbCircle
 10
52.44038450945057
 20
15.16175897478945
 30
0.0
 40
0.0409780069814769
100
AcDbArc
 50
204.4456170803003
 51
239.3270928996994
  0
LINE
  5
A8
330
2
100
AcDbEntity
  8
0
  6
Continuous
 62
     7
370
    15
100
AcDbLine
 10
52.4194801417922
 20
15.1265140536181
 30
0.0
 11
5.117024870901877
 21
1.471471411627151
 31
0.0
  0
LINE
  5
A9
330
2
100
AcDbEntity
  8
0
  6
Continuous
 62
     7
370
    15
100
AcDbLine
 10
52.90510021261754
 20
14.91000010974891
 30
0.0
 11
52.4194801417922
 21
15.1265140536181
 31
0.0
  0
LINE
  5
AA
330
2
100
AcDbEntity
  8
0
  6
Continuous
 62
     7
370
    15
100
AcDbLine
 10
5.602644941727194
 20
1.25495746778025
 30
0.0
 11
5.117024870901877
 21
1.471471411627151
 31
0.0
  0
LINE
  5
AB
330
2
100
AcDbEntity
  8
0
  6
Continuous
 62
     7
370
    15
100
AcDbLine
 10
4.941293790628851
 20
2.69428961310189
 30
0.0
 11
4.890328180564801
 21
2.789392661126932
 31
0.0
  0
ARC
  5
AC
330
2
100
AcDbEntity
  8
0
  6
Continuous
 62
     7
370
    15
100
AcDbCircle
 10
4.906349442387614
 20
2.675950345507917
 30
0.0
 40
0.0394643663191884
100
AcDbArc
 50
7.224170489198726
 51
27.69109778249923
  0
ARC
  5
AD
330
2
100
AcDbEntity
  8
0
  6
Continuous
 62
     7
370
    15
100
AcDbCircle
 10
52.90963892293566
 20
14.91881287086201
 30
0.0
 40
0.0099128527586769
100
AcDbArc
 50
242.7508216163983
 51
285.0307697863992
  0
ARC
  5
AE
330
2
100
AcDbEntity
  8
0
  6
Continuous
 62
     7
370
    15
100
AcDbCircle
 10
5.607183652067629
 20
1.263770228871055
 30
0.0
 40
0.0099128527587735
100
AcDbArc
 50
242.7508216165017
 51
285.0307697862
  0
ARC
  5
AF
330
2
100
AcDbEntity
  8
0
  6
Continuous
 62
     7
370
    15
100
AcDbCircle
 10
5.137656444724521
 20
1.506471686136954
 30
0.0
 40
0.0406285743506199
100
AcDbArc
 50
204.2907378587008
 51
239.4819721213008
  0
LINE
  5
B0
330
2
100
AcDbEntity
  8
0
  6
Continuous
 62
     7
370
    15
100
AcDbLine
 10
3.14545620069106
 20
5.138152679880787
 30
0.0
 11
5.1006247266898
 21
1.489758430563425
 31
0.0
  0
ARC
  5
B1
330
2
100
AcDbEntity
  8
0
  6
Continuous
 62
     7
370
    15
100
AcDbCircle
 10
3.823636847769259
 20
5.49745452033212
 30
0.0
 40
0.767480815818219
100
AcDbArc
 50
181.0901919638995
 51
207.914757162599
  0
LINE
  5
B2
330
2
100
AcDbEntity
  8
0
  6
Continuous
 62
     7
370
    15
100
AcDbLine
 10
3.056294958472266
 20
6.346827591597505
 30
0.0
 11
3.056294958472266
 21
5.482852206885957
 31
0.0
  0
ELLIPSE
  5
B3
330
2
100
AcDbEntity
  8
0
  6
Continuous
 62
     7
370
    15
100
AcDbEllipse
 10
3.09470952537496
 20
6.444471476576453
 30
0.0
 11
0.028852283100747
 21
0.0339862070460087
 31
0.0
210
0.0
220
0.0
230
1.0
 40
0.7461890980999998
 41
4.454965526062523
 42
5.562114243836297
  0
LINE
  5
B4
330
2
100
AcDbEntity
  8
0
  6
Continuous
 62
     7
370
    15
100
AcDbLine
 10
3.077531256105998
 20
6.387614055546349
 30
0.0
 11
3.111889207893961
 21
6.41499931406493
 31
0.0
  0
ELLIPSE
  5
B5
330
2
100
AcDbEntity
  8
0
  6
Continuous
 62
     7
370
    15
100
AcDbEllipse
 10
3.09470952537496
 20
6.358141489179042
 30
0.0
 11
0.028852283100747
 21
0.0339862070460214
 31
0.0
210
0.0
220
0.0
230
1.0
 40
0.7461890981
 41
1.313372872461984
 42
2.420521590276381
  0
LINE
  5
B6
330
2
100
AcDbEntity
  8
0
  6
Continuous
 62
     7
370
    15
100
AcDbLine
 10
3.056294958472266
 20
6.698857317322024
 30
0.0
 11
3.056294958472266
 21
6.587589355072555
 31
0.0
  0
ELLIPSE
  5
B7
330
2
100
AcDbEntity
  8
0
  6
Continuous
 62
     7
370
    15
100
AcDbEllipse
 10
3.09470952537496
 20
6.598903252832418
 30
0.0
 11
0.0288522831007343
 21
0.0339862070460088
 31
0.0
210
0.0
220
0.0
230
1.0
 40
0.7461890981000003
 41
2.420521590261323
 42
3.527670308066439
  0
LINE
  5
B8
330
2
100
AcDbEntity
  8
0
  6
Continuous
 62
     7
370
    15
100
AcDbLine
 10
3.077531256105998
 20
6.559311820740156
 30
0.0
 11
3.111889207893961
 21
6.552165098084106
 31
0.0
  0
ELLIPSE
  5
B9
330
2
100
AcDbEntity
  8
0
  6
Continuous
 62
     7
370
    15
100
AcDbEllipse
 10
3.09470952537496
 20
6.512573265435007
 30
0.0
 11
0.028852283100747
 21
0.0339862070460087
 31
0.0
210
0.0
220
0.0
230
1.0
 40
0.7461890980999998
 41
5.56211424383609
 42
6.669262961615442
  0
LINE
  5
BA
330
2
100
AcDbEntity
  8
0
  6
Continuous
 62
     7
370
    15
100
AcDbLine
 10
3.13312320434328
 20
6.455785113718047
 30
0.0
 11
3.13312320434328
 21
6.523886899433679
 31
0.0
  0
ELLIPSE
  5
BB
330
2
100
AcDbEntity
  8
0
  6
Continuous
 62
     7
370
    15
100
AcDbEllipse
 10
3.074129030414701
 20
6.683411476963245
 30
0.0
 11
-0.0098928092581364
 21
0.0342676893668615
 31
0.0
210
0.0
220
0.0
230
0.9999999999999998
 40
0.4329822642999999
 41
0.0058131408003733
 42
0.9827342449333828
  0
LINE
  5
BC
330
2
100
AcDbEntity
  8
0
  6
Continuous
 62
     7
370
    15
100
AcDbLine
 10
5.117024870901877
 20
1.471471411627151
 30
0.0
 11
5.062573404344689
 21
1.456288330342287
 31
0.0
  0
LINE
  5
BD
330
2
100
AcDbEntity
  8
0
  6
Continuous
 62
     7
370
    15
100
AcDbLine
 10
50.55185166096562
 20
18.84401833538145
 30
0.0
 11
52.50692539926205
 21
15.19580095583768
 31
0.0
  0
ARC
  5
BE
330
2
100
AcDbEntity
  8
0
  6
Continuous
 62
     7
370
    15
100
AcDbCircle
 10
51.14421817073026
 20
19.1578564581471
 30
0.0
 40
0.6703673986483954
100
AcDbArc
 50
181.0901451008003
 51
207.9148199714011
  0
LINE
  5
BF
330
2
100
AcDbEntity
  8
0
  6
Continuous
 62
     7
370
    15
100
AcDbLine
 10
50.4739721090416
 20
20.35291158031213
 30
0.0
 11
50.4739721090416
 21
19.14510240104493
 31
0.0
  0
LINE
  5
C0
330
2
100
AcDbEntity
  8
0
  6
Continuous
 62
     7
370
    15
100
AcDbLine
 10
52.50692539926205
 20
15.19580095583768
 30
0.0
 11
52.99223041273755
 21
14.97942753989319
 31
0.0
  0
LINE
  5
C1
330
2
100
AcDbEntity
  8
0
  6
Continuous
 62
     7
370
    15
100
AcDbLine
 10
52.43524591095823
 20
18.33828666109141
 30
0.0
 11
52.43524591095823
 21
18.0757526199907
 31
0.0
  0
ARC
  5
C2
330
2
100
AcDbEntity
  8
0
  6
Continuous
 62
     7
370
    15
100
AcDbCircle
 10
53.41998498750468
 20
18.09165457031557
 30
0.0
 40
0.9848674636214992
100
AcDbArc
 50
180.9251541611013
 51
200.0166985515992
  0
LINE
  5
C3
330
2
100
AcDbEntity
  8
0
  6
Continuous
 62
     7
370
    15
100
AcDbLine
 10
52.49461051035591
 20
17.75454034944316
 30
0.0
 11
52.51040065843061
 21
17.76821501880036
 31
0.0
  0
ARC
  5
C4
330
2
100
AcDbEntity
  8
0
  6
Continuous
 62
     7
370
    15
100
AcDbCircle
 10
53.34746969061903
 20
18.07070512091273
 30
0.0
 40
0.8900476540808204
100
AcDbArc
 50
180.9177832679002
 51
199.8682425112994
  0
LINE
  5
C5
330
2
100
AcDbEntity
  8
0
  6
Continuous
 62
     7
370
    15
100
AcDbLine
 10
52.45753622151294
 20
18.05644864478791
 30
0.0
 11
52.45753622151294
 21
18.31898268591091
 31
0.0
  0
LWPOLYLINE
  5
C6
330
2
100
AcDbEntity
  8
0
  6
Continuous
 62
     7
370
    15
100
AcDbPolyline
 90
        9
 70
   128
 43
0.0
 10
52.45753622151294
 20
18.31898268591091
 10
52.45775037617143
 20
18.32256326513009
 10
52.45838461937029
 20
18.32563527635262
 10
52.45941453800753
 20
18.3280807464129
 10
52.46080056451481
 20
18.32980564922386
 10
52.46248947162305
 20
18.33074371704049
 10
52.46441632374519
 20
18.33085888555053
 10
52.46650705108303
 20
18.33014676806617
 10
52.46868139756485
 20
18.32863465552404
  0
LINE
  5
C7
330
2
100
AcDbEntity
  8
0
  6
Continuous
 62
     7
370
    15
100
AcDbLine
 10
52.46868139756485
 20
18.32863465552404
 30
0.0
 11
52.86990690447349
 21
17.98116317389375
 31
0.0
  0
ARC
  5
C8
330
2
100
AcDbEntity
  8
0
  6
Continuous
 62
     7
370
    15
100
AcDbCircle
 10
52.8387951446459
 20
17.952565384424
 30
0.0
 40
0.042258433026244
100
AcDbArc
 50
359.5143675677994
 51
42.58908130289973
  0
LINE
  5
C9
330
2
100
AcDbEntity
  8
0
  6
Continuous
 62
     7
370
    15
100
AcDbLine
 10
52.88105205975083
 20
17.95220721108956
 30
0.0
 11
52.88105205975083
 21
17.68967316998884
 31
0.0
  0
ARC
  5
CA
330
2
100
AcDbEntity
  8
0
  6
Continuous
 62
     7
370
    15
100
AcDbCircle
 10
52.58064977889981
 20
17.66498087276958
 30
0.0
 40
0.3014153942258519
100
AcDbArc
 50
325.2102773205014
 51
4.699002353001513
  0
LINE
  5
CB
330
2
100
AcDbEntity
  8
0
  6
Continuous
 62
     7
370
    15
100
AcDbLine
 10
52.82818764360772
 20
17.49300341665099
 30
0.0
 11
52.84397779168242
 21
17.45197940855714
 31
0.0
  0
ARC
  5
CC
330
2
100
AcDbEntity
  8
0
  6
Continuous
 62
     7
370
    15
100
AcDbCircle
 10
52.57389373370497
 20
17.64265935277604
 30
0.0
 40
0.3306119167581945
100
AcDbArc
 50
324.7778234615014
 51
4.807817367998627
  0
LINE
  5
CD
330
2
100
AcDbEntity
  8
0
  6
Continuous
 62
     7
370
    15
100
AcDbLine
 10
52.90334237030553
 20
17.67036919478604
 30
0.0
 11
52.90334237030553
 21
17.93290323588676
 31
0.0
  0
ARC
  5
CE
330
2
100
AcDbEntity
  8
0
  6
Continuous
 62
     7
370
    15
100
AcDbCircle
 10
52.77657168283408
 20
17.93397777813581
 30
0.0
 40
0.1267752414370588
100
AcDbArc
 50
359.5143572864996
 51
42.58909158429987
  0
LINE
  5
CF
330
2
100
AcDbEntity
  8
0
  6
Continuous
 62
     7
370
    15
100
AcDbLine
 10
52.86990690447349
 20
18.01977112427703
 30
0.0
 11
52.46868139756485
 21
18.36724260590731
 31
0.0
  0
LWPOLYLINE
  5
D0
330
2
100
AcDbEntity
  8
0
  6
Continuous
 62
     7
370
    15
100
AcDbPolyline
 90
        9
 70
   128
 43
0.0
 10
52.46868139756485
 20
18.36724260590731
 10
52.46215844119533
 20
18.37177888961349
 10
52.45588617612819
 20
18.37391529600915
 10
52.45010561978406
 20
18.37356979047902
 10
52.44503893994155
 20
18.37075555107486
 10
52.44088081889294
 20
18.36558084261969
 10
52.43779106302578
 20
18.35824443241655
 10
52.43588837491145
 20
18.34902832688497
 10
52.43524591095823
 20
18.33828666109141
  0
LINE
  5
D1
330
2
100
AcDbEntity
  8
0
  6
Continuous
 62
     7
370
    15
100
AcDbLine
 10
52.52931460789621
 20
17.71907513657916
 30
0.0
 11
52.51352445982152
 21
17.70540046722197
 31
0.0
  0
LWPOLYLINE
  5
D2
330
2
100
AcDbEntity
  8
0
  6
Continuous
 62
     7
370
    15
100
AcDbPolyline
 90
        9
 70
   128
 43
0.0
 10
52.51352445982152
 20
17.70540046722197
 10
52.54772559704914
 20
17.631933673546
 10
52.58594493650562
 20
17.56643684274061
 10
52.62691922317219
 20
17.51107484070747
 10
52.66929415100803
 20
17.46767752713212
 10
52.71166905809161
 20
17.43767933069736
 10
52.75264334475817
 20
17.4220717863994
 10
52.79086268421465
 20
17.42137077945162
 10
52.82506384219452
 20
17.43559944781676
  0
LINE
  5
D3
330
2
100
AcDbEntity
  8
0
  6
Continuous
 62
     7
370
    15
100
AcDbLine
 10
52.82506384219452
 20
17.43559944781676
 30
0.0
 11
52.80927369411985
 21
17.47662345591061
 31
0.0
  0
LWPOLYLINE
  5
D4
330
2
100
AcDbEntity
  8
0
  6
Continuous
 62
     7
370
    15
100
AcDbPolyline
 90
        9
 70
   128
 43
0.0
 10
52.80927369411985
 20
17.47662345591061
 10
52.77846579542154
 20
17.46424036020339
 10
52.7441087753684
 20
17.46514777514785
 10
52.70731955554399
 20
17.47931637826877
 10
52.66929415100803
 20
17.50628547753772
 10
52.63126874649435
 20
17.5451783108824
 10
52.59447952664767
 20
17.59473050569267
 10
52.56012248584224
 20
17.65333121304085
 10
52.52931460789621
 20
17.71907513657916
  0
LINE
  5
D5
330
2
100
AcDbEntity
  8
0
  6
Continuous
 62
     7
370
    15
100
AcDbLine
 10
52.02844781604594
 20
18.65406296364568
 30
0.0
 11
52.02844781604594
 21
18.67455598268158
 31
0.0
  0
LWPOLYLINE
  5
D6
330
2
100
AcDbEntity
  8
0
  6
Continuous
 62
     7
370
    15
100
AcDbPolyline
 90
       15
 70
   128
 43
0.0
 10
52.02844781604594
 20
18.65406296364568
 10
52.0430281854651
 20
18.62484198384865
 10
52.05281527724687
 20
18.59135085200965
 10
52.0563101748668
 20
18.5587187197438
 10
52.05297761625916
 20
18.53194324596131
 10
52.04332803520848
 20
18.51512504802414
 10
52.02883917349521
 20
18.51083990213976
 10
52.01173005199033
 20
18.51974401356692
 10
51.99462101351686
 20
18.54047369795247
 10
51.9801321518036
 20
18.56985428845054
 10
51.97048257075288
 20
18.60338605108324
 10
51.96715001214528
 20
18.63593368567721
 10
51.9706449097652
 20
18.66251247768239
 10
51.98043200152467
 20
18.67905186930791
 10
51.99501237096615
 20
18.6830189084616
  0
LINE
  5
D7
330
2
100
AcDbEntity
  8
0
  6
Continuous
 62
     7
370
    15
100
AcDbLine
 10
51.99501237096615
 20
18.70351192749748
 30
0.0
 11
51.99501237096615
 21
18.6830189084616
 31
0.0
  0
LWPOLYLINE
  5
D8
330
2
100
AcDbEntity
  8
0
  6
Continuous
 62
     7
370
    15
100
AcDbPolyline
 90
       16
 70
   128
 43
0.0
 10
51.99501237096615
 20
18.70351192749748
 10
51.97656260314341
 20
18.70228789804693
 10
51.96308481046997
 20
18.68617279251633
 10
51.95648429673853
 20
18.65744499137661
 10
51.95769432448823
 20
18.62016595540997
 10
51.96654383574175
 20
18.57960607316634
 10
51.98178169897769
 20
18.54149960738826
 10
52.0012535798626
 20
18.51123402080082
 10
52.02220660714947
 20
18.49308816689082
 10
52.04167848803439
 20
18.48962746645789
 10
52.05691635127032
 20
18.50134117892155
 10
52.06576586252383
 20
18.52657325805663
 10
52.06697589027355
 20
18.56175646445649
 10
52.06037537654211
 20
18.60191669074789
 10
52.04689758386868
 20
18.64137601795433
 10
52.02844781604594
 20
18.67455598268158
  0
LINE
  5
D9
330
2
100
AcDbEntity
  8
0
  6
Continuous
 62
     7
370
    15
100
AcDbLine
 10
50.44791147155909
 20
18.79319532187176
 30
0.0
 11
52.40307999755785
 21
15.14480107255439
 31
0.0
  0
ARC
  5
DA
330
2
100
AcDbEntity
  8
0
  6
Continuous
 62
     7
370
    15
100
AcDbCircle
 10
51.12609211865958
 20
19.15249716232307
 30
0.0
 40
0.7674808158182847
100
AcDbArc
 50
181.0901919638995
 51
207.914757162599
  0
ELLIPSE
  5
DB
330
2
100
AcDbEntity
  8
0
  6
Continuous
 62
     7
370
    15
100
AcDbEllipse
 10
50.31994670632309
 20
20.14532496491879
 30
0.0
 11
0.0295245163418292
 21
0.0334039172177441
 31
0.0
210
0.0
220
0.0
230
1.0
 40
0.7537456126000003
 41
1.328335424997967
 42
2.435484142815508
  0
LINE
  5
DC
330
2
100
AcDbEntity
  8
0
  6
Continuous
 62
     7
370
    15
100
AcDbLine
 10
50.33729902972094
 20
20.20203164369165
 30
0.0
 11
50.30259298320537
 21
20.17494786204197
 31
0.0
  0
ELLIPSE
  5
DD
330
2
100
AcDbEntity
  8
0
  6
Continuous
 62
     7
370
    15
100
AcDbEllipse
 10
50.31994670632309
 20
20.2316549523162
 30
0.0
 11
0.0295245163418545
 21
0.0334039172177315
 31
0.0
210
0.0
220
0.0
230
1.0
 40
0.7537456126000001
 41
4.469928078600127
 42
5.57707679639103
  0
LINE
  5
DE
330
2
100
AcDbEntity
  8
0
  6
Continuous
 62
     7
370
    15
100
AcDbLine
 10
50.35875022936259
 20
20.35389995931298
 30
0.0
 11
50.35875022936259
 21
20.24263199706352
 31
0.0
  0
ELLIPSE
  5
DF
330
2
100
AcDbEntity
  8
0
  6
Continuous
 62
     7
370
    15
100
AcDbEllipse
 10
50.31994670632309
 20
19.99089318866281
 30
0.0
 11
0.0295245163418292
 21
0.0334039172177314
 31
0.0
210
0.0
220
0.0
230
1.0
 40
0.7537456126
 41
5.577076796375788
 42
6.684225514166384
  0
LINE
  5
E0
330
2
100
AcDbEntity
  8
0
  6
Continuous
 62
     7
370
    15
100
AcDbLine
 10
50.33729902972094
 20
20.03033387849786
 30
0.0
 11
50.30259298320537
 21
20.03778207802281
 31
0.0
  0
ELLIPSE
  5
E1
330
2
100
AcDbEntity
  8
0
  6
Continuous
 62
     7
370
    15
100
AcDbEllipse
 10
50.31994670632309
 20
20.07722317606023
 30
0.0
 11
0.0295245163418292
 21
0.0334039172177314
 31
0.0
210
0.0
220
0.0
230
1.0
 40
0.7537456126
 41
2.435484142815818
 42
3.542632860612699
  0
LINE
  5
E2
330
2
100
AcDbEntity
  8
0
  6
Continuous
 62
     7
370
    15
100
AcDbLine
 10
50.28114408477045
 20
20.06624638725021
 30
0.0
 11
50.28114408477045
 21
20.13434817296584
 31
0.0
  0
LINE
  5
E3
330
2
100
AcDbEntity
  8
0
  6
Continuous
 62
     7
370
    15
100
AcDbLine
 10
50.35875022936259
 20
20.00187023356617
 30
0.0
 11
50.35875022936259
 21
19.13789484887691
 31
0.0
  0
ELLIPSE
  5
E4
330
2
100
AcDbEntity
  8
0
  6
Continuous
 62
     7
370
    15
100
AcDbEllipse
 10
50.37658209949078
 20
20.33845348334611
 30
0.0
 11
-0.0098928092581491
 21
0.0342676893668488
 31
0.0
210
0.0
220
0.0
230
1.0
 40
0.4329822643000001
 41
6.277372166377247
 42
7.265919552112767
  0
ELLIPSE
  5
E5
330
2
100
AcDbEntity
  8
0
  6
Continuous
 62
     7
370
    15
100
AcDbEllipse
 10
52.95362209998073
 20
18.16089065585135
 30
0.0
 11
0.0340376019078479
 21
0.0292309064921818
 31
0.0
210
0.0
220
0.0
230
1.0
 40
0.6417424305
 41
5.664523729908105
 42
6.37824810885253
  0
ARC
  5
E6
330
2
100
AcDbEntity
  8
0
  6
Continuous
 62
     7
370
    15
100
AcDbCircle
 10
52.44011171561484
 20
15.16151432812792
 30
0.0
 40
0.0406285743506922
100
AcDbArc
 50
204.2907378588013
 51
239.4819721213008
  0
LINE
  5
E7
330
2
100
AcDbEntity
  8
0
  6
Continuous
 62
     7
370
    15
100
AcDbLine
 10
52.4194801417922
 20
15.1265140536181
 30
0.0
 11
52.90510086135463
 21
14.90999983560043
 31
0.0
  0
LINE
  5
E8
330
2
100
AcDbEntity
  8
0
  6
Continuous
 62
     7
370
    15
100
AcDbLine
 10
51.97210243967619
 20
18.69703746756914
 30
0.0
 11
51.99501237096615
 21
18.70351192749748
 31
0.0
  0
ELLIPSE
  5
E9
330
2
100
AcDbEntity
  8
0
  6
Continuous
 62
     7
370
    15
100
AcDbEllipse
 10
52.89984331266794
 20
14.95207226738766
 30
0.0
 11
-0.0123659577272956
 21
0.0428338122210773
 31
0.0
210
0.0
220
0.0
230
0.9999999999999998
 40
0.432991184
 41
2.791584101663695
 42
3.14666096235639
  0
LINE
  5
EA
330
2
100
AcDbEntity
  8
0
  6
Continuous
 62
     7
370
    15
100
AcDbLine
 10
52.76757615596059
 20
17.41849307330243
 30
0.0
 11
52.82506384219452
 21
17.43559944781676
 31
0.0
  0
LINE
  5
EB
330
2
100
AcDbEntity
  8
0
  6
Continuous
 62
     7
370
    15
100
AcDbLine
 10
52.7609933697771
 20
17.43559900646868
 30
0.0
 11
52.75001383353071
 21
17.4226449223268
 31
0.0
  0
LINE
  5
EC
330
2
100
AcDbEntity
  8
0
  6
Continuous
 62
     7
370
    15
100
AcDbLine
 10
52.49236951819694
 20
17.7628582845784
 30
0.0
 11
52.51040065843061
 21
17.76821501880036
 31
0.0
  0
LWPOLYLINE
  5
ED
330
2
100
AcDbEntity
  8
0
  6
Continuous
 62
     7
370
    15
100
AcDbPolyline
 90
        3
 70
   128
 43
0.0
 10
52.69440283724542
 20
17.44758236261273
 10
52.72057900846465
 20
17.44811698109041
 10
52.72794347052863
 20
17.44979355844915
  0
LINE
  5
EE
330
2
100
AcDbEntity
  8
0
  6
Continuous
 62
     7
370
    15
100
AcDbLine
 10
52.75286037252579
 20
17.45672583613774
 30
0.0
 11
52.76696632588601
 21
17.42007745830848
 31
0.0
  0
ARC
  5
EF
330
2
100
AcDbEntity
  8
0
  6
Continuous
 62
     7
370
    15
100
AcDbCircle
 10
5.409602747729274
 20
1.307767503420718
 30
0.0
 40
0.6639134979012777
100
AcDbArc
 50
108.690640012799
 51
110.473127678801
  0
SPLINE
  5
F0
330
2
100
AcDbEntity
  8
0
  6
Continuous
 62
     7
370
    15
100
AcDbSpline
210
0.0
220
0.0
230
1.0
 70
     8
 71
     3
 72
    12
 73
     8
 74
     0
 42
0.000000001
 43
0.0000000001
 40
0.0
 40
0.0
 40
0.0
 40
0.0
 40
0.2133869180766446
 40
0.4270657469055947
 40
0.6393371570690873
 40
0.8508778671864188
 40
1.0
 40
1.0
 40
1.0
 40
1.0
 10
5.218776248647705
 20
1.921204887538962
 30
0.0
 10
5.21815085713904
 20
1.923543510774885
 30
0.0
 10
5.21689921859363
 20
1.928223956455336
 30
0.0
 10
5.212672877968305
 20
1.933630276463157
 30
0.0
 10
5.207271509865513
 20
1.936965098778696
 30
0.0
 10
5.201712297365097
 20
1.937897721514113
 30
0.0
 10
5.198269623293264
 20
1.93702768731817
 30
0.0
 10
5.196846191658344
 20
1.936667957011965
 30
0.0
  0
ARC
  5
F1
330
2
100
AcDbEntity
  8
0
  6
Continuous
 62
     7
370
    15
100
AcDbCircle
 10
5.987169535272117
 20
2.058625525065297
 30
0.0
 40
0.7805848285496765
100
AcDbArc
 50
190.1396688620002
 51
191.9293763116005
  0
ARC
  5
F2
330
2
100
AcDbEntity
  8
0
  6
Continuous
 62
     7
370
    15
100
AcDbCircle
 10
5.468728794635344
 20
1.105534565245166
 30
0.0
 40
0.8288646574303696
100
AcDbArc
 50
104.990916119401
 51
107.2133113846011
  0
ARC
  5
F3
330
2
100
AcDbEntity
  8
0
  6
Continuous
 62
     7
370
    15
100
AcDbCircle
 10
6.018056413364745
 20
2.067541798774891
 30
0.0
 40
0.780584828549687
100
AcDbArc
 50
190.1396688620002
 51
191.9293763116005
  0
SPLINE
  5
F4
330
2
100
AcDbEntity
  8
0
  6
Continuous
 62
     7
370
    15
100
AcDbSpline
210
0.0
220
0.0
230
1.0
 70
     8
 71
     3
 72
    12
 73
     8
 74
     0
 42
0.000000001
 43
0.0000000001
 40
0.0
 40
0.0
 40
0.0
 40
0.0
 40
0.2133874319607534
 40
0.4270871591135424
 40
0.639309504586791
 40
0.8508796698370581
 40
1.0
 40
1.0
 40
1.0
 40
1.0
 10
5.266340516749862
 20
1.956729240661326
 30
0.0
 10
5.264094231647058
 20
1.955935694470226
 30
0.0
 10
5.25959837397501
 20
1.954347440723164
 30
0.0
 10
5.254122878087875
 20
1.949172607701025
 30
0.0
 10
5.250454332226607
 20
1.942630391749579
 30
0.0
 10
5.249014972076077
 20
1.935940242580695
 30
0.0
 10
5.249473540653942
 20
1.931823250099194
 30
0.0
 10
5.249663126735659
 20
1.930121161228207
 30
0.0
  0
ARC
  5
F5
330
2
100
AcDbEntity
  8
0
  6
Continuous
 62
     7
370
    15
100
AcDbCircle
 10
5.502119794559526
 20
0.9925695798529766
 30
0.0
 40
0.9925702591725574
100
AcDbArc
 50
102.378112504901
 51
103.7416404533996
  0
ARC
  5
F6
330
2
100
AcDbEntity
  8
0
  6
Continuous
 62
     7
370
    15
100
AcDbCircle
 10
5.976410859812228
 20
2.064976579345875
 30
0.0
 40
0.6947249282249998
100
AcDbArc
 50
185.7209930964006
 51
188.5185885914006
  0
ARC
  5
F7
330
2
100
AcDbEntity
  8
0
  6
Continuous
 62
     7
370
    15
100
AcDbCircle
 10
5.498316611808503
 20
1.024498474602333
 30
0.0
 40
0.994343717209653
100
AcDbArc
 50
102.3793285196998
 51
103.7404244386009
  0
SPLINE
  5
F8
330
2
100
AcDbEntity
  8
0
  6
Continuous
 62
     7
370
    15
100
AcDbSpline
210
0.0
220
0.0
230
1.0
 70
     8
 71
     3
 72
    12
 73
     8
 74
     0
 42
0.000000001
 43
0.0000000001
 40
0.0
 40
0.0
 40
0.0
 40
0.0
 40
0.2133733957395761
 40
0.4270831429451868
 40
0.6392844451709373
 40
0.8508857936428116
 40
1.0
 40
1.0
 40
1.0
 40
1.0
 10
5.240204200604893
 20
2.0058482492527
 30
0.0
 10
5.240582014347758
 20
2.003619754479798
 30
0.0
 10
5.241338237400673
 20
1.999159252042955
 30
0.0
 10
5.245252483619103
 20
1.993896749139014
 30
0.0
 10
5.250713015106832
 20
1.990530920340457
 30
0.0
 10
5.256662127411443
 20
1.989427167045042
 30
0.0
 10
5.260535405726252
 20
1.990105451731095
 30
0.0
 10
5.262136558807061
 20
1.990385844082634
 30
0.0
  0
ARC
  5
F9
330
2
100
AcDbEntity
  8
0
  6
Continuous
 62
     7
370
    15
100
AcDbCircle
 10
5.842203859567763
 20
2.047053618630262
 30
0.0
 40
0.6034082132859132
100
AcDbArc
 50
181.7909747585012
 51
183.9156452628006
  0
ARC
  5
FA
330
2
100
AcDbEntity
  8
0
  6
Continuous
 62
     7
370
    15
100
AcDbCircle
 10
5.453489436722883
 20
1.227539330122785
 30
0.0
 40
0.828864657459534
100
AcDbArc
 50
104.990916119499
 51
107.2133113844991
  0
ARC
  5
FB
330
2
100
AcDbEntity
  8
0
  6
Continuous
 62
     7
370
    15
100
AcDbCircle
 10
5.811316981475133
 20
2.038137344942955
 30
0.0
 40
0.6034082132839729
100
AcDbArc
 50
181.7909747585012
 51
183.9156452628006
  0
SPLINE
  5
FC
330
2
100
AcDbEntity
  8
0
  6
Continuous
 62
     7
370
    15
100
AcDbSpline
210
0.0
220
0.0
230
1.0
 70
     8
 71
     3
 72
    12
 73
     8
 74
     0
 42
0.000000001
 43
0.0000000001
 40
0.0
 40
0.0
 40
0.0
 40
0.0
 40
0.2133947836331809
 40
0.4271028274694578
 40
0.6393277516770359
 40
0.8508726226826803
 40
1.0
 40
1.0
 40
1.0
 40
1.0
 10
5.192642233715519
 20
1.970324560433247
 30
0.0
 10
5.194641142933197
 20
1.971228433365384
 30
0.0
 10
5.198641895735979
 20
1.973037506100956
 30
0.0
 10
5.203802057833574
 20
1.978352894739135
 30
0.0
 10
5.207532545124649
 20
1.984867291119784
 30
0.0
 10
5.209357306628731
 20
1.991384227106122
 30
0.0
 10
5.209329018731362
 20
1.995309139578784
 30
0.0
 10
5.209317322516914
 20
1.996931975563454
 30
0.0
  0
ARC
  5
FD
330
2
100
AcDbEntity
  8
0
  6
Continuous
 62
     7
370
    15
100
AcDbCircle
 10
5.405729297572042
 20
1.340495003672406
 30
0.0
 40
0.6648995167339518
100
AcDbArc
 50
108.691961797399
 51
110.4718058942987
  0
ARC
  5
FE
330
2
100
AcDbEntity
  8
0
  6
Continuous
 62
     7
370
    15
100
AcDbCircle
 10
5.864447652659311
 20
2.03265558545956
 30
0.0
 40
0.694724928226915
100
AcDbArc
 50
185.7209930964006
 51
188.5185885914006
  0
LWPOLYLINE
  5
FF
330
2
100
AcDbEntity
  8
0
  6
Continuous
 62
     7
370
    15
100
AcDbPolyline
 90
       19
 70
   128
 43
0.0
 10
5.358390041321261
 20
1.992160312027118
 10
5.345863633273345
 20
2.033808529806284
 10
5.320710523412808
 20
2.06635205745579
 10
5.285960318796199
 20
2.085864705818547
 10
5.245809742669656
 20
2.089994344781131
 10
5.205098987168642
 20
2.078242161967193
 10
5.168736539209612
 20
2.05202511545187
 10
5.141112371108685
 20
2.014506536657576
 10
5.125554725468219
 20
1.970210826194118
 10
5.123942482125785
 20
1.924481131316051
 10
5.136468848646851
 20
1.882833237147553
 10
5.161624259736387
 20
1.850290373816062
 10
5.196372163146284
 20
1.830777061135276
 10
5.236525040479539
 20
1.826648086468434
 10
5.277235795980553
 20
1.838400269282372
 10
5.313595942732884
 20
1.864616651479666
 10
5.341222412040511
 20
1.902135894591976
 10
5.356777756451975
 20
1.946430940759718
 10
5.358390041321261
 20
1.992160312027118
  0
ARC
  5
100
330
2
100
AcDbEntity
  8
0
  6
Continuous
 62
     7
370
    15
100
AcDbCircle
 10
5.280511783327289
 20
1.973040551878176
 30
0.0
 40
0.1107093297852132
100
AcDbArc
 50
4.057043117898677
 51
74.10484298580104
  0
LWPOLYLINE
  5
101
330
2
100
AcDbEntity
  8
0
  6
Continuous
 62
     7
370
    15
100
AcDbPolyline
 90
        8
 70
   128
 43
0.0
 10
5.197578930136144
 20
1.82549871978283
 10
5.222855011964259
 20
1.813444062140653
 10
5.264510241047997
 20
1.809159956232848
 10
5.306746700628066
 20
1.821352571905673
 10
5.344469505576941
 20
1.848551142461479
 10
5.373129289450084
 20
1.887475129652988
 10
5.389268901055535
 20
1.933429881289499
 10
5.390943687388102
 20
1.980873193128669
  0
LINE
  5
102
330
2
100
AcDbEntity
  8
0
  6
Continuous
 62
     7
370
    15
100
AcDbLine
 10
5.282477389421586
 20
1.981316872347859
 30
0.0
 11
5.286598861527794
 21
1.982506638855006
 31
0.0
  0
ARC
  5
103
330
2
100
AcDbEntity
  8
0
  6
Continuous
 62
     7
370
    15
100
AcDbCircle
 10
5.277537996950067
 20
1.997453199877806
 30
0.0
 40
0.0168753863502912
100
AcDbArc
 50
246.3644223617007
 51
287.0195528982998
  0
ARC
  5
104
330
2
100
AcDbEntity
  8
0
  6
Continuous
 62
     7
370
    15
100
AcDbCircle
 10
5.205010854683299
 20
1.984780755034159
 30
0.0
 40
0.024839274924907
100
AcDbArc
 50
288.7204946445011
 51
7.128075323600989
  0
LINE
  5
105
330
2
100
AcDbEntity
  8
0
  6
Continuous
 62
     7
370
    15
100
AcDbLine
 10
5.229658153144882
 20
1.987863003815717
 30
0.0
 11
5.226767937229637
 21
2.011001842269434
 31
0.0
  0
LINE
  5
106
330
2
100
AcDbEntity
  8
0
  6
Continuous
 62
     7
370
    15
100
AcDbLine
 10
5.226767937229637
 20
2.011001842269434
 30
0.0
 11
5.239663933723345
 21
2.01472459579768
 31
0.0
  0
LINE
  5
107
330
2
100
AcDbEntity
  8
0
  6
Continuous
 62
     7
370
    15
100
AcDbLine
 10
5.240344005235936
 20
1.902313224950204
 30
0.0
 11
5.239117079271453
 21
1.912135915800943
 31
0.0
  0
ARC
  5
108
330
2
100
AcDbEntity
  8
0
  6
Continuous
 62
     7
370
    15
100
AcDbCircle
 10
5.22106448488488
 20
1.910580983066579
 30
0.0
 40
0.0181194365280408
100
AcDbArc
 50
4.922934374500308
 51
64.40552166129937
  0
LINE
  5
109
330
2
100
AcDbEntity
  8
0
  6
Continuous
 62
     7
370
    15
100
AcDbLine
 10
5.194167029983568
 20
1.935754511271765
 30
0.0
 11
5.191747472694834
 21
1.955125401418612
 31
0.0
  0
LINE
  5
10A
330
2
100
AcDbEntity
  8
0
  6
Continuous
 62
     7
370
    15
100
AcDbLine
 10
5.191747472694834
 20
1.955125401418612
 30
0.0
 11
5.212983064327661
 21
1.961255588693721
 31
0.0
  0
LINE
  5
10B
330
2
100
AcDbEntity
  8
0
  6
Continuous
 62
     7
370
    15
100
AcDbLine
 10
5.226767937229637
 20
2.011001842269434
 30
0.0
 11
5.208203535641326
 21
2.019278837243803
 31
0.0
  0
LINE
  5
10C
330
2
100
AcDbEntity
  8
0
  6
Continuous
 62
     7
370
    15
100
AcDbLine
 10
5.191747472694834
 20
1.955125401418612
 30
0.0
 11
5.173183071106509
 21
1.963402396392982
 31
0.0
  0
ARC
  5
10D
330
2
100
AcDbEntity
  8
0
  6
Continuous
 62
     7
370
    15
100
AcDbCircle
 10
50.15604450724665
 20
19.89919868398159
 30
0.0
 40
0.5212613878916108
100
AcDbArc
 50
280.4821200750009
 51
282.7624593252009
  0
SPLINE
  5
10E
330
2
100
AcDbEntity
  8
0
  6
Continuous
 62
     7
370
    15
100
AcDbSpline
210
0.0
220
0.0
230
1.0
 70
     8
 71
     3
 72
    12
 73
     8
 74
     0
 42
0.000000001
 43
0.0000000001
 40
0.0
 40
0.0
 40
0.0
 40
0.0
 40
0.2133736674445156
 40
0.4270798361437256
 40
0.6392842513148244
 40
0.8508860117132611
 40
1.0
 40
1.0
 40
1.0
 40
1.0
 10
50.30015297563042
 20
19.37837738447596
 30
0.0
 10
50.29880510038144
 20
19.38018821932739
 30
0.0
 10
50.29610724948273
 20
19.38381271086327
 30
0.0
 10
50.289856810554
 20
19.38806928919501
 30
0.0
 10
50.28285678045701
 20
19.39077241966767
 30
0.0
 10
50.2763386653564
 20
19.39163123070873
 30
0.0
 10
50.2727001960389
 20
19.3910540272147
 30
0.0
 10
50.27119611235759
 20
19.39081542073478
 30
0.0
  0
ARC
  5
10F
330
2
100
AcDbEntity
  8
0
  6
Continuous
 62
     7
370
    15
100
AcDbCircle
 10
50.7408532485466
 20
19.65023426497621
 30
0.0
 40
0.5178058458833429
100
AcDbArc
 50
211.6693888247984
 51
214.0220301550005
  0
ARC
  5
110
330
2
100
AcDbEntity
  8
0
  6
Continuous
 62
     7
370
    15
100
AcDbCircle
 10
50.14942458431963
 20
19.98055514388814
 30
0.0
 40
0.6409187547561968
100
AcDbArc
 50
284.6650029229992
 51
287.5392245809988
  0
ARC
  5
111
330
2
100
AcDbEntity
  8
0
  6
Continuous
 62
     7
370
    15
100
AcDbCircle
 10
50.77174012659464
 20
19.65915053861895
 30
0.0
 40
0.5178058458176213
100
AcDbArc
 50
211.6693888246989
 51
214.0220301552002
  0
SPLINE
  5
112
330
2
100
AcDbEntity
  8
0
  6
Continuous
 62
     7
370
    15
100
AcDbSpline
210
0.0
220
0.0
230
1.0
 70
     8
 71
     3
 72
    12
 73
     8
 74
     0
 42
0.000000001
 43
0.0000000001
 40
0.0
 40
0.0
 40
0.0
 40
0.0
 40
0.2133947319340194
 40
0.4271031826694897
 40
0.6393334797573175
 40
0.8508774093920717
 40
1.0
 40
1.0
 40
1.0
 40
1.0
 10
50.34069043744911
 20
19.41087670438415
 30
0.0
 10
50.33858025064573
 20
19.4099249181662
 30
0.0
 10
50.33435677478208
 20
19.40801994647724
 30
0.0
 10
50.3301539369118
 20
19.40311671672603
 30
0.0
 10
50.32822956991324
 20
19.39737972821306
 30
0.0
 10
50.32867599143727
 20
19.39184071246044
 30
0.0
 10
50.33034838099037
 20
19.38862375428084
 30
0.0
 10
50.33103985371839
 20
19.3872936581652
 30
0.0
  0
ARC
  5
113
330
2
100
AcDbEntity
  8
0
  6
Continuous
 62
     7
370
    15
100
AcDbCircle
 10
50.08935980265162
 20
20.134200259497
 30
0.0
 40
0.765744117429859
100
AcDbArc
 50
289.1606218399759
 51
290.597582327693
  0
ARC
  5
114
330
2
100
AcDbEntity
  8
0
  6
Continuous
 62
     7
370
    15
100
AcDbCircle
 10
50.91152003096391
 20
19.73142391135884
 30
0.0
 40
0.6314204936215821
100
AcDbArc
 50
206.693913731899
 51
208.903043382599
  0
ARC
  5
115
330
2
100
AcDbEntity
  8
0
  6
Continuous
 62
     7
370
    15
100
AcDbCircle
 10
50.07432231146179
 20
20.16190549056399
 30
0.0
 40
0.7645604241097882
100
AcDbArc
 50
289.1592560388998
 51
290.9262194812999
  0
SPLINE
  5
116
330
2
100
AcDbEntity
  8
0
  6
Continuous
 62
     7
370
    15
100
AcDbSpline
210
0.0
220
0.0
230
1.0
 70
     8
 71
     3
 72
    12
 73
     8
 74
     0
 42
0.000000001
 43
0.0000000001
 40
0.0
 40
0.0
 40
0.0
 40
0.0
 40
0.2133841239781279
 40
0.4270712432189962
 40
0.6393373024308668
 40
0.8508793545098203
 40
1.0
 40
1.0
 40
1.0
 40
1.0
 10
50.29629265951047
 20
19.45213277360526
 30
0.0
 10
50.29751340816576
 20
19.45005052119098
 30
0.0
 10
50.29995663888113
 20
19.44588305966338
 30
0.0
 10
50.30604277090937
 20
19.44127737655515
 30
0.0
 10
50.3130750907155
 20
19.43864492601593
 30
0.0
 10
50.31979268243101
 20
19.43821075967154
 30
0.0
 10
50.32365167238591
 20
19.43926017764366
 30
0.0
 10
50.32524722157051
 20
19.43969407304352
 30
0.0
  0
ARC
  5
117
330
2
100
AcDbEntity
  8
0
  6
Continuous
 62
     7
370
    15
100
AcDbCircle
 10
50.95701827780613
 20
19.75977456899844
 30
0.0
 40
0.7288359327940955
100
AcDbArc
 50
203.0940282790988
 51
204.9672532763989
  0
ARC
  5
118
330
2
100
AcDbEntity
  8
0
  6
Continuous
 62
     7
370
    15
100
AcDbCircle
 10
50.09344311359342
 20
20.08501805135642
 30
0.0
 40
0.6409187547627939
100
AcDbArc
 50
284.6650029229992
 51
287.5392245809988
  0
ARC
  5
119
330
2
100
AcDbEntity
  8
0
  6
Continuous
 62
     7
370
    15
100
AcDbCircle
 10
50.92613139953519
 20
19.75085829522197
 30
0.0
 40
0.7288359326035723
100
AcDbArc
 50
203.0940282788011
 51
204.9672532766
  0
SPLINE
  5
11A
330
2
100
AcDbEntity
  8
0
  6
Continuous
 62
     7
370
    15
100
AcDbSpline
210
0.0
220
0.0
230
1.0
 70
     8
 71
     3
 72
    12
 73
     8
 74
     0
 42
0.000000001
 43
0.0000000001
 40
0.0
 40
0.0
 40
0.0
 40
0.0
 40
0.2133875910161548
 40
0.4270847146161342
 40
0.6393074153352973
 40
0.850874050183876
 40
1.0
 40
1.0
 40
1.0
 40
1.0
 10
50.25575289647896
 20
19.41963278939416
 30
0.0
 10
50.2577357579541
 20
19.42031296620587
 30
0.0
 10
50.261704357174
 20
19.42167430647
 30
0.0
 10
50.26574581199019
 20
19.42623150637735
 30
0.0
 10
50.26770036840072
 20
19.43203582199784
 30
0.0
 10
50.26745781727224
 20
19.43800184182746
 30
0.0
 10
50.26600601812329
 20
19.44169117121996
 30
0.0
 10
50.26540578142249
 20
19.44321649991601
 30
0.0
  0
ARC
  5
11B
330
2
100
AcDbEntity
  8
0
  6
Continuous
 62
     7
370
    15
100
AcDbCircle
 10
50.14072732731944
 20
19.92740326372212
 30
0.0
 40
0.5206358959519443
100
AcDbArc
 50
280.4807500940993
 51
282.7638293062008
  0
ARC
  5
11C
330
2
100
AcDbEntity
  8
0
  6
Continuous
 62
     7
370
    15
100
AcDbCircle
 10
50.79128551652052
 20
19.69478768968216
 30
0.0
 40
0.6220922609598866
100
AcDbArc
 50
206.6810529747994
 51
209.6926246485006
  0
LWPOLYLINE
  5
11D
330
2
100
AcDbEntity
  8
0
  6
Continuous
 62
     7
370
    15
100
AcDbPolyline
 90
       14
 70
   128
 43
0.0
 10
50.35874800195909
 20
19.52303860241644
 10
50.35635300809818
 20
19.52429961451763
 10
50.31208269612429
 20
19.53971270535568
 10
50.26686297286349
 20
19.54166009434002
 10
50.22615221736248
 20
19.52990791152608
 10
50.1948589165154
 20
19.505873114989
 10
50.17675485579405
 20
19.4724540937417
 10
50.17402923502682
 20
19.43368292909491
 10
50.1870064122387
 20
19.39423496985583
 10
50.21412224084093
 20
19.35886841576255
 10
50.252105074368
 20
19.33184876965626
 10
50.29637768757086
 20
19.31643634313622
 10
50.34159510962498
 20
19.31448836176468
 10
50.35875005589943
 20
19.31759744056394
  0
ARC
  5
11E
330
2
100
AcDbEntity
  8
0
  6
Continuous
 62
     7
370
    15
100
AcDbCircle
 10
50.29989748624989
 20
19.45694636220594
 30
0.0
 40
0.1232987006202372
100
AcDbArc
 50
61.49027367379978
 51
156.6466075506006
  0
LINE
  5
11F
330
2
100
AcDbEntity
  8
0
  6
Continuous
 62
     7
370
    15
100
AcDbLine
 10
50.35444890102747
 20
19.43416016050877
 30
0.0
 11
50.35115586551905
 21
19.43320954304875
 31
0.0
  0
ARC
  5
120
330
2
100
AcDbEntity
  8
0
  6
Continuous
 62
     7
370
    15
100
AcDbCircle
 10
50.2615223062972
 20
19.45716739204212
 30
0.0
 40
0.0166177029390587
100
AcDbArc
 50
336.4147291336006
 51
30.29144000989854
  0
LINE
  5
121
330
2
100
AcDbEntity
  8
0
  6
Continuous
 62
     7
370
    15
100
AcDbLine
 10
50.27587120951394
 20
19.46554933858604
 30
0.0
 11
50.27352871135416
 21
19.46992049228829
 31
0.0
  0
ARC
  5
122
330
2
100
AcDbEntity
  8
0
  6
Continuous
 62
     7
370
    15
100
AcDbCircle
 10
50.35521689487241
 20
19.41744883870854
 30
0.0
 40
0.0162754957074289
100
AcDbArc
 50
104.4489924815008
 51
153.7106180746997
  0
LINE
  5
123
330
2
100
AcDbEntity
  8
0
  6
Continuous
 62
     7
370
    15
100
AcDbLine
 10
50.33291888234797
 20
19.38427095705504
 30
0.0
 11
50.32123562499688
 21
19.38089829118614
 31
0.0
  0
LINE
  5
124
330
2
100
AcDbEntity
  8
0
  6
Continuous
 62
     7
370
    15
100
AcDbLine
 10
50.32123562499688
 20
19.38089829118614
 30
0.0
 11
50.31061840371312
 21
19.40071022314078
 31
0.0
  0
ARC
  5
125
330
2
100
AcDbEntity
  8
0
  6
Continuous
 62
     7
370
    15
100
AcDbCircle
 10
50.28799075140862
 20
19.38795712512365
 30
0.0
 40
0.0259740670218736
100
AcDbArc
 50
29.40590223460113
 51
104.1034988136995
  0
LINE
  5
126
330
2
100
AcDbEntity
  8
0
  6
Continuous
 62
     7
370
    15
100
AcDbLine
 10
50.2816615404474
 20
19.41314825939459
 30
0.0
 11
50.26042825002129
 21
19.40701873643751
 31
0.0
  0
LINE
  5
127
330
2
100
AcDbEntity
  8
0
  6
Continuous
 62
     7
370
    15
100
AcDbLine
 10
50.26042825002129
 20
19.40701873643751
 30
0.0
 11
50.25389200758118
 21
19.41921552378586
 31
0.0
  0
LINE
  5
128
330
2
100
AcDbEntity
  8
0
  6
Continuous
 62
     7
370
    15
100
AcDbLine
 10
50.32123562499688
 20
19.38089829118614
 30
0.0
 11
50.31168411166711
 21
19.36051587417886
 31
0.0
  0
LINE
  5
129
330
2
100
AcDbEntity
  8
0
  6
Continuous
 62
     7
370
    15
100
AcDbLine
 10
50.26042825002129
 20
19.40701873643751
 30
0.0
 11
50.25087690273203
 21
19.3866362475217
 31
0.0
  0
ARC
  5
12A
330
2
100
AcDbEntity
  8
0
  6
Continuous
 62
     7
370
    15
100
AcDbCircle
 10
3.301366785987449
 20
6.373788608601786
 30
0.0
 40
0.5216178570484744
100
AcDbArc
 50
280.4832848468997
 51
282.7623278677991
  0
SPLINE
  5
12B
330
2
100
AcDbEntity
  8
0
  6
Continuous
 62
     7
370
    15
100
AcDbSpline
210
0.0
220
0.0
230
1.0
 70
     8
 71
     3
 72
    12
 73
     8
 74
     0
 42
0.000000001
 43
0.0000000001
 40
0.0
 40
0.0
 40
0.0
 40
0.0
 40
0.2133843382741223
 40
0.4270645919969692
 40
0.6393361462386978
 40
0.850878554513973
 40
1.0
 40
1.0
 40
1.0
 40
1.0
 10
3.445550533382438
 20
5.85261871807351
 30
0.0
 10
3.444202512808003
 20
5.854429358265829
 30
0.0
 10
3.441504602261818
 20
5.85805314959579
 30
0.0
 10
3.435256337031908
 20
5.862312879341954
 30
0.0
 10
3.428255450509758
 20
5.865012386234222
 30
0.0
 10
3.421737850066966
 20
5.865873495394683
 30
0.0
 10
3.418100064108211
 20
5.865296135887734
 30
0.0
 10
3.416595971322399
 20
5.865057418635252
 30
0.0
  0
ARC
  5
12C
330
2
100
AcDbEntity
  8
0
  6
Continuous
 62
     7
370
    15
100
AcDbCircle
 10
3.886250806267883
 20
6.124475598552846
 30
0.0
 40
0.5178058458326321
100
AcDbArc
 50
211.6693888246989
 51
214.022030155099
  0
ARC
  5
12D
330
2
100
AcDbEntity
  8
0
  6
Continuous
 62
     7
370
    15
100
AcDbCircle
 10
3.294821754434784
 20
6.454797820277422
 30
0.0
 40
0.6409201519290288
100
AcDbArc
 50
284.6650060563998
 51
287.5392214475011
  0
ARC
  5
12E
330
2
100
AcDbEntity
  8
0
  6
Continuous
 62
     7
370
    15
100
AcDbCircle
 10
3.917137684405101
 20
6.13339187226244
 30
0.0
 40
0.5178058459008938
100
AcDbArc
 50
211.6693888247984
 51
214.0220301550005
  0
SPLINE
  5
12F
330
2
100
AcDbEntity
  8
0
  6
Continuous
 62
     7
370
    15
100
AcDbSpline
210
0.0
220
0.0
230
1.0
 70
     8
 71
     3
 72
    12
 73
     8
 74
     0
 42
0.000000001
 43
0.0000000001
 40
0.0
 40
0.0
 40
0.0
 40
0.0
 40
0.2133884349456982
 40
0.4270905794354322
 40
0.6393146138958276
 40
0.8508818097969127
 40
1.0
 40
1.0
 40
1.0
 40
1.0
 10
3.486090296413918
 20
5.885118702284601
 30
0.0
 10
3.483980130565877
 20
5.884166914563059
 30
0.0
 10
3.479756696643693
 20
5.882261939864711
 30
0.0
 10
3.475553544584314
 20
5.877358732657315
 30
0.0
 10
3.473630273602047
 20
5.871621393541781
 30
0.0
 10
3.474072894194371
 20
5.866082351035965
 30
0.0
 10
3.47574578717962
 20
5.862865100095715
 30
0.0
 10
3.476437411470405
 20
5.861534991762755
 30
0.0
  0
ARC
  5
130
330
2
100
AcDbEntity
  8
0
  6
Continuous
 62
     7
370
    15
100
AcDbCircle
 10
3.234921810898456
 20
6.60797871345974
 30
0.0
 40
0.7652530325834262
100
AcDbArc
 50
289.1605452214994
 51
290.9257303812983
  0
ARC
  5
131
330
2
100
AcDbEntity
  8
0
  6
Continuous
 62
     7
370
    15
100
AcDbCircle
 10
4.048646281416989
 20
6.20135001716742
 30
0.0
 40
0.6220922609570147
100
AcDbArc
 50
206.6810529747994
 51
209.6926246485984
  0
ARC
  5
132
330
2
100
AcDbEntity
  8
0
  6
Continuous
 62
     7
370
    15
100
AcDbCircle
 10
3.219884468610829
 20
6.635683560524038
 30
0.0
 40
0.7640689276833513
100
AcDbArc
 50
289.1591773277981
 51
290.9270982750009
  0
SPLINE
  5
133
330
2
100
AcDbEntity
  8
0
  6
Continuous
 62
     7
370
    15
100
AcDbSpline
210
0.0
220
0.0
230
1.0
 70
     8
 71
     3
 72
    12
 73
     8
 74
     0
 42
0.000000001
 43
0.0000000001
 40
0.0
 40
0.0
 40
0.0
 40
0.0
 40
0.2133734537350563
 40
0.4270864868803876
 40
0.6392854066055831
 40
0.8508868112666993
 40
1.0
 40
1.0
 40
1.0
 40
1.0
 10
3.441690217262507
 20
5.926374107202822
 30
0.0
 10
3.442910820035921
 20
5.92429165894659
 30
0.0
 10
3.445353968146701
 20
5.920123448261111
 30
0.0
 10
3.45144230606954
 20
5.915520985259529
 30
0.0
 10
3.458473812171628
 20
5.91288500222179
 30
0.0
 10
3.465191812706527
 20
5.912452908196844
 30
0.0
 10
3.46905153707954
 20
5.913502279113911
 30
0.0
 10
3.470647080535353
 20
5.913936070944004
 30
0.0
  0
ARC
  5
134
330
2
100
AcDbEntity
  8
0
  6
Continuous
 62
     7
370
    15
100
AcDbCircle
 10
4.102415835482845
 20
6.234015902552783
 30
0.0
 40
0.7288359327182345
100
AcDbArc
 50
203.0940282789996
 51
204.9672532764994
  0
ARC
  5
135
330
2
100
AcDbEntity
  8
0
  6
Continuous
 62
     7
370
    15
100
AcDbCircle
 10
3.23884028373085
 20
6.559260727701124
 30
0.0
 40
0.6409201519131466
100
AcDbArc
 50
284.6650060563998
 51
287.5392214476
  0
ARC
  5
136
330
2
100
AcDbEntity
  8
0
  6
Continuous
 62
     7
370
    15
100
AcDbCircle
 10
4.071528957390203
 20
6.225099628865476
 30
0.0
 40
0.7288359327049068
100
AcDbArc
 50
203.0940282789003
 51
204.9672532764994
  0
SPLINE
  5
137
330
2
100
AcDbEntity
  8
0
  6
Continuous
 62
     7
370
    15
100
AcDbSpline
210
0.0
220
0.0
230
1.0
 70
     8
 71
     3
 72
    12
 73
     8
 74
     0
 42
0.000000001
 43
0.0000000001
 40
0.0
 40
0.0
 40
0.0
 40
0.0
 40
0.2133938879415749
 40
0.4270973176010741
 40
0.639326280870522
 40
0.8508696495766068
 40
1.0
 40
1.0
 40
1.0
 40
1.0
 10
3.40115275544381
 20
5.893874787294643
 30
0.0
 10
3.403135637549414
 20
5.894554961910014
 30
0.0
 10
3.407104278060167
 20
5.895916297778294
 30
0.0
 10
3.411145423563743
 20
5.900473530615168
 30
0.0
 10
3.413101056165194
 20
5.906277453357465
 30
0.0
 10
3.412854743385742
 20
5.912243530324055
 30
0.0
 10
3.411403425849285
 20
5.915932520342679
 30
0.0
 10
3.410803339174528
 20
5.917457833513577
 30
0.0
  0
ARC
  5
138
330
2
100
AcDbEntity
  8
0
  6
Continuous
 62
     7
370
    15
100
AcDbCircle
 10
3.286049551203787
 20
6.401993483087047
 30
0.0
 40
0.520992664662583
100
AcDbArc
 50
280.4819172378003
 51
282.7636954768016
  0
ARC
  5
139
330
2
100
AcDbEntity
  8
0
  6
Continuous
 62
     7
370
    15
100
AcDbCircle
 10
3.936683074308658
 20
6.16902902330338
 30
0.0
 40
0.6220922610102983
100
AcDbArc
 50
206.6810529748984
 51
209.6926246484001
  0
LWPOLYLINE
  5
13A
330
2
100
AcDbEntity
  8
0
  6
Continuous
 62
     7
370
    15
100
AcDbPolyline
 90
       19
 70
   128
 43
0.0
 10
3.566851529200047
 20
5.93615548414353
 10
3.539735700597806
 20
5.971521966305973
 10
3.501752867070735
 20
5.998541612434561
 10
3.457480253867875
 20
6.013954038954597
 10
3.41226283181375
 20
6.015902092234651
 10
3.371552076335035
 20
6.004149909420714
 10
3.340256474258988
 20
5.98011444858792
 10
3.322154714744324
 20
5.946696091636333
 10
3.319426792792682
 20
5.907924262693821
 10
3.33240397000456
 20
5.86847630343245
 10
3.359519798606801
 20
5.833109749361467
 10
3.397504933340572
 20
5.806090767550908
 10
3.441775245336732
 20
5.790677676735143
 10
3.486994968575258
 20
5.788730359659332
 10
3.527705724076259
 20
5.80048254247327
 10
3.558999024923332
 20
5.824517267079533
 10
3.577103085644695
 20
5.857936288349111
 10
3.579828706411926
 20
5.896707452973619
 10
3.566851529200047
 20
5.93615548414353
  0
LWPOLYLINE
  5
13B
330
2
100
AcDbEntity
  8
0
  6
Continuous
 62
     7
370
    15
100
AcDbPolyline
 90
        8
 70
   128
 43
0.0
 10
3.585733323092427
 20
5.968342086269966
 10
3.557599559344838
 20
6.005032804046819
 10
3.51819240607899
 20
6.033064129144888
 10
3.472262822450284
 20
6.049054414261935
 10
3.425351005949329
 20
6.05107516949553
 10
3.38311454636926
 20
6.03888255384498
 10
3.350648328837589
 20
6.013947333941109
 10
3.332099596688588
 20
5.980064113842841
  0
ARC
  5
13C
330
2
100
AcDbEntity
  8
0
  6
Continuous
 62
     7
370
    15
100
AcDbCircle
 10
3.49824115435656
 20
5.91598497232384
 30
0.0
 40
0.1019614974835507
100
AcDbArc
 50
327.8642126447991
 51
30.89717018869875
  0
LINE
  5
13D
330
2
100
AcDbEntity
  8
0
  6
Continuous
 62
     7
370
    15
100
AcDbLine
 10
3.499848760000039
 20
5.908402158425706
 30
0.0
 11
3.496555724491618
 21
5.907451540943392
 31
0.0
  0
ARC
  5
13E
330
2
100
AcDbEntity
  8
0
  6
Continuous
 62
     7
370
    15
100
AcDbCircle
 10
3.406927116214421
 20
5.931409150538858
 30
0.0
 40
0.0166112269252582
100
AcDbArc
 50
336.4033774466991
 51
30.30279169679916
  0
LINE
  5
13F
330
2
100
AcDbEntity
  8
0
  6
Continuous
 62
     7
370
    15
100
AcDbLine
 10
3.4212687672575
 20
5.939790672184949
 30
0.0
 11
3.418926269120039
 21
5.944161825864918
 31
0.0
  0
ARC
  5
140
330
2
100
AcDbEntity
  8
0
  6
Continuous
 62
     7
370
    15
100
AcDbCircle
 10
3.500617091788312
 20
5.891687053826648
 30
0.0
 40
0.016279243181896
100
AcDbArc
 50
104.4468223240002
 51
153.7048916538992
  0
LINE
  5
141
330
2
100
AcDbEntity
  8
0
  6
Continuous
 62
     7
370
    15
100
AcDbLine
 10
3.478318741320526
 20
5.85851295497197
 30
0.0
 11
3.466633182762747
 21
5.855139624762773
 31
0.0
  0
LINE
  5
142
330
2
100
AcDbEntity
  8
0
  6
Continuous
 62
     7
370
    15
100
AcDbLine
 10
3.466633182762747
 20
5.855139624762773
 30
0.0
 11
3.456015961456706
 21
5.874951556739688
 31
0.0
  0
ARC
  5
143
330
2
100
AcDbEntity
  8
0
  6
Continuous
 62
     7
370
    15
100
AcDbCircle
 10
3.433390642323188
 20
5.862204064489552
 30
0.0
 40
0.0259692823285184
100
AcDbArc
 50
29.39765520110082
 51
104.1062237978984
  0
LINE
  5
144
330
2
100
AcDbEntity
  8
0
  6
Continuous
 62
     7
370
    15
100
AcDbLine
 10
3.42706139939768
 20
5.887390257289241
 30
0.0
 11
3.405825807764841
 21
5.881260070014144
 31
0.0
  0
LINE
  5
145
330
2
100
AcDbEntity
  8
0
  6
Continuous
 62
     7
370
    15
100
AcDbLine
 10
3.405825807764841
 20
5.881260070014144
 30
0.0
 11
3.399289565324765
 21
5.893456857384784
 31
0.0
  0
LINE
  5
146
330
2
100
AcDbEntity
  8
0
  6
Continuous
 62
     7
370
    15
100
AcDbLine
 10
3.466633182762747
 20
5.855139624762773
 30
0.0
 11
3.4570816694107
 21
5.834757207777777
 31
0.0
  0
LINE
  5
147
330
2
100
AcDbEntity
  8
0
  6
Continuous
 62
     7
370
    15
100
AcDbLine
 10
3.405825807764841
 20
5.881260070014144
 30
0.0
 11
3.396274460497873
 21
5.860877581120622
 31
0.0
  0
ARC
  5
148
330
2
100
AcDbEntity
  8
0
  6
Continuous
 62
     7
370
    15
100
AcDbCircle
 10
52.26405643602383
 20
14.8339547049619
 30
0.0
 40
0.6634600013076737
100
AcDbArc
 50
108.6905373560012
 51
110.474037020099
  0
SPLINE
  5
149
330
2
100
AcDbEntity
  8
0
  6
Continuous
 62
     7
370
    15
100
AcDbSpline
210
0.0
220
0.0
230
1.0
 70
     8
 71
     3
 72
    12
 73
     8
 74
     0
 42
0.000000001
 43
0.0000000001
 40
0.0
 40
0.0
 40
0.0
 40
0.0
 40
0.2133762468999436
 40
0.4270809909889839
 40
0.6392852615451417
 40
0.8508853245724838
 40
1.0
 40
1.0
 40
1.0
 40
1.0
 10
52.07337869089566
 20
15.4469635539414
 30
0.0
 10
52.07275349620424
 20
15.44930239496092
 30
0.0
 10
52.071502144321
 20
15.45398367769455
 30
0.0
 10
52.06727278268501
 20
15.45938642658473
 30
0.0
 10
52.06187341820371
 20
15.46272529371554
 30
0.0
 10
52.05631294809972
 20
15.46365547868463
 30
0.0
 10
52.05286971815728
 20
15.46278556843785
 30
0.0
 10
52.05144633269352
 20
15.4624259591115
 30
0.0
  0
ARC
  5
14A
330
2
100
AcDbEntity
  8
0
  6
Continuous
 62
     7
370
    15
100
AcDbCircle
 10
52.84177197757312
 20
15.58438419148866
 30
0.0
 40
0.7805848285981572
100
AcDbArc
 50
190.1396688620992
 51
191.9293763115009
  0
ARC
  5
14B
330
2
100
AcDbEntity
  8
0
  6
Continuous
 62
     7
370
    15
100
AcDbCircle
 10
52.32333071153155
 20
14.63129505151607
 30
0.0
 40
0.8288627636189838
100
AcDbArc
 50
104.9909135801983
 51
107.2133139237994
  0
ARC
  5
14C
330
2
100
AcDbEntity
  8
0
  6
Continuous
 62
     7
370
    15
100
AcDbCircle
 10
52.87265885555428
 20
15.59330046515368
 30
0.0
 40
0.7805848284982279
100
AcDbArc
 50
190.1396688620002
 51
191.9293763116005
  0
SPLINE
  5
14D
330
2
100
AcDbEntity
  8
0
  6
Continuous
 62
     7
370
    15
100
AcDbSpline
210
0.0
220
0.0
230
1.0
 70
     8
 71
     3
 72
    12
 73
     8
 74
     0
 42
0.000000001
 43
0.0000000001
 40
0.0
 40
0.0
 40
0.0
 40
0.0
 40
0.2133937288036298
 40
0.4270997620148039
 40
0.6393283699504292
 40
0.8508752694500246
 40
1.0
 40
1.0
 40
1.0
 40
1.0
 10
52.12094065778503
 20
15.48248724276088
 30
0.0
 10
52.11869435422646
 20
15.48169369970214
 30
0.0
 10
52.11419845961582
 20
15.48010545222443
 30
0.0
 10
52.1087232404394
 20
15.474930572238
 30
0.0
 10
52.10505382069468
 20
15.46838883625015
 30
0.0
 10
52.10361790619598
 20
15.46169849392723
 30
0.0
 10
52.10407611580948
 20
15.45758189361366
 30
0.0
 10
52.10426556898363
 20
15.45587982763067
 30
0.0
  0
ARC
  5
14E
330
2
100
AcDbEntity
  8
0
  6
Continuous
 62
     7
370
    15
100
AcDbCircle
 10
52.35686950031414
 20
14.51771176285721
 30
0.0
 40
0.9932039797412322
100
AcDbArc
 50
102.378786847699
 51
103.7415827345989
  0
ARC
  5
14F
330
2
100
AcDbEntity
  8
0
  6
Continuous
 62
     7
370
    15
100
AcDbCircle
 10
52.83101330204636
 20
15.59073524574697
 30
0.0
 40
0.6947249282125553
100
AcDbArc
 50
185.7209930962992
 51
188.5185885914006
  0
ARC
  5
150
330
2
100
AcDbEntity
  8
0
  6
Continuous
 62
     7
370
    15
100
AcDbCircle
 10
52.35306793815759
 20
14.54963371379703
 30
0.0
 40
0.9949845678247237
100
AcDbArc
 50
102.3800063099011
 51
103.7403632723007
  0
SPLINE
  5
151
330
2
100
AcDbEntity
  8
0
  6
Continuous
 62
     7
370
    15
100
AcDbSpline
210
0.0
220
0.0
230
1.0
 70
     8
 71
     3
 72
    12
 73
     8
 74
     0
 42
0.000000001
 43
0.0000000001
 40
0.0
 40
0.0
 40
0.0
 40
0.0
 40
0.2133840663167238
 40
0.427067898962359
 40
0.6393363409050128
 40
0.8508783365995508
 40
1.0
 40
1.0
 40
1.0
 40
1.0
 10
52.09480664285287
 20
15.53160691565516
 30
0.0
 10
52.09518465449183
 20
15.52937863817294
 30
0.0
 10
52.09594120880817
 20
15.52491895287839
 30
0.0
 10
52.0998523714229
 20
15.51965290680376
 30
0.0
 10
52.10531482358743
 20
15.51629115980059
 30
0.0
 10
52.1112628839381
 20
15.51518487705354
 30
0.0
 10
52.11513550715043
 20
15.51586332992306
 30
0.0
 10
52.11673669984222
 20
15.51614384618216
 30
0.0
  0
ARC
  5
152
330
2
100
AcDbEntity
  8
0
  6
Continuous
 62
     7
370
    15
100
AcDbCircle
 10
52.69680630182419
 20
15.57281228505364
 30
0.0
 40
0.6034082132846955
100
AcDbArc
 50
181.7909747585012
 51
183.9156452628006
  0
ARC
  5
153
330
2
100
AcDbEntity
  8
0
  6
Continuous
 62
     7
370
    15
100
AcDbCircle
 10
52.30809135361905
 20
14.75329981643826
 30
0.0
 40
0.8288627636095508
100
AcDbArc
 50
104.9909135801983
 51
107.2133139237994
  0
ARC
  5
154
330
2
100
AcDbEntity
  8
0
  6
Continuous
 62
     7
370
    15
100
AcDbCircle
 10
52.66591942373155
 20
15.56389601134405
 30
0.0
 40
0.6034082132829709
100
AcDbArc
 50
181.7909747585012
 51
183.9156452628006
  0
SPLINE
  5
155
330
2
100
AcDbEntity
  8
0
  6
Continuous
 62
     7
370
    15
100
AcDbSpline
210
0.0
220
0.0
230
1.0
 70
     8
 71
     3
 72
    12
 73
     8
 74
     0
 42
0.000000001
 43
0.0000000001
 40
0.0
 40
0.0
 40
0.0
 40
0.0
 40
0.213388486669484
 40
0.4270902242982197
 40
0.6393088860629181
 40
0.8508770232104964
 40
1.0
 40
1.0
 40
1.0
 40
1.0
 10
52.04724237475069
 20
15.49608256253278
 30
0.0
 10
52.0492412661432
 20
15.49698643831615
 30
0.0
 10
52.05324198326953
 20
15.4987955167584
 30
0.0
 10
52.05840241262172
 20
15.50411086264754
 30
0.0
 10
52.06213206455021
 20
15.51062572182907
 30
0.0
 10
52.06396019529156
 20
15.51714249871701
 30
0.0
 10
52.06393159088072
 20
15.52106778443414
 30
0.0
 10
52.06391976476488
 20
15.5226906419659
 30
0.0
  0
ARC
  5
156
330
2
100
AcDbEntity
  8
0
  6
Continuous
 62
     7
370
    15
100
AcDbCircle
 10
52.26018163206482
 20
14.86668603154539
 30
0.0
 40
0.6644419617505509
100
AcDbArc
 50
108.6918553547012
 51
110.4727190214999
  0
ARC
  5
157
330
2
100
AcDbEntity
  8
0
  6
Continuous
 62
     7
370
    15
100
AcDbCircle
 10
52.71905009489345
 20
15.55841425186064
 30
0.0
 40
0.6947249282135997
100
AcDbArc
 50
185.7209930964006
 51
188.5185885914996
  0
LWPOLYLINE
  5
158
330
2
100
AcDbEntity
  8
0
  6
Continuous
 62
     7
370
    15
100
AcDbPolyline
 90
       17
 70
   128
 43
0.0
 10
52.15645461097074
 20
15.60500946526813
 10
52.14056276105263
 20
15.61162337221964
 10
52.10040988369708
 20
15.61575234688648
 10
52.05969912819607
 20
15.60400016407254
 10
52.02333898144374
 20
15.57778378185296
 10
51.9957125121361
 20
15.54026453876293
 10
51.98015716772463
 20
15.4959694925952
 10
51.97854492438221
 20
15.45023979771712
 10
51.99107129090328
 20
15.40859190354864
 10
52.01622440076384
 20
15.37604837589913
 10
52.05097460538041
 20
15.35653572753637
 10
52.09112518152926
 20
15.35240608857379
 10
52.13183593700797
 20
15.36415827138774
 10
52.16819838498929
 20
15.39037531790305
 10
52.19582255306796
 20
15.42789389669734
 10
52.2113801987084
 20
15.4721896071608
 10
52.21404513623266
 20
15.49754290842977
  0
ARC
  5
159
330
2
100
AcDbEntity
  8
0
  6
Continuous
 62
     7
370
    15
100
AcDbCircle
 10
52.11135187107446
 20
15.46871047208681
 30
0.0
 40
0.1315173132598694
100
AcDbArc
 50
243.2611899439993
 51
350.5404081168988
  0
LINE
  5
15A
330
2
100
AcDbEntity
  8
0
  6
Continuous
 62
     7
370
    15
100
AcDbLine
 10
52.13707753047131
 20
15.50707487443092
 30
0.0
 11
52.14119900257752
 21
15.50826464096035
 31
0.0
  0
ARC
  5
15B
330
2
100
AcDbEntity
  8
0
  6
Continuous
 62
     7
370
    15
100
AcDbCircle
 10
52.13214073484286
 20
15.52325613037034
 30
0.0
 40
0.0169175942386571
100
AcDbArc
 50
246.4173695221002
 51
286.9666057380006
  0
ARC
  5
15C
330
2
100
AcDbEntity
  8
0
  6
Continuous
 62
     7
370
    15
100
AcDbCircle
 10
52.05960851669424
 20
15.51054251963187
 30
0.0
 40
0.0248436340255127
100
AcDbArc
 50
288.7231244262002
 51
7.119617352998562
  0
LINE
  5
15D
330
2
100
AcDbEntity
  8
0
  6
Continuous
 62
     7
370
    15
100
AcDbLine
 10
52.08426059537902
 20
15.51362167021681
 30
0.0
 11
52.08137037948605
 21
15.53676050867053
 31
0.0
  0
LINE
  5
15E
330
2
100
AcDbEntity
  8
0
  6
Continuous
 62
     7
370
    15
100
AcDbLine
 10
52.08137037948605
 20
15.53676050867053
 30
0.0
 11
52.09426407475078
 21
15.54048259788076
 31
0.0
  0
LINE
  5
15F
330
2
100
AcDbEntity
  8
0
  6
Continuous
 62
     7
370
    15
100
AcDbLine
 10
52.09494644747008
 20
15.42807189135127
 30
0.0
 11
52.09371952150558
 21
15.43789458220204
 31
0.0
  0
ARC
  5
160
330
2
100
AcDbEntity
  8
0
  6
Continuous
 62
     7
370
    15
100
AcDbCircle
 10
52.07567119689417
 20
15.43634065059221
 30
0.0
 40
0.0181150965967891
100
AcDbArc
 50
4.920938503399622
 51
64.42198992719948
  0
LINE
  5
161
330
2
100
AcDbEntity
  8
0
  6
Continuous
 62
     7
370
    15
100
AcDbLine
 10
52.0487694722177
 20
15.46151317767284
 30
0.0
 11
52.04634991495125
 21
15.4808840678197
 31
0.0
  0
LINE
  5
162
330
2
100
AcDbEntity
  8
0
  6
Continuous
 62
     7
370
    15
100
AcDbLine
 10
52.04634991495125
 20
15.4808840678197
 30
0.0
 11
52.06758320537739
 21
15.48701359079906
 31
0.0
  0
LINE
  5
163
330
2
100
AcDbEntity
  8
0
  6
Continuous
 62
     7
370
    15
100
AcDbLine
 10
52.08137037948605
 20
15.53676050867053
 30
0.0
 11
52.06280597789775
 21
15.5450375036449
 31
0.0
  0
LINE
  5
164
330
2
100
AcDbEntity
  8
0
  6
Continuous
 62
     7
370
    15
100
AcDbLine
 10
52.04634991495125
 20
15.4808840678197
 30
0.0
 11
52.02778551334063
 21
15.48916106279406
 31
0.0
  0
LINE
  5
165
330
2
100
AcDbEntity
  8
0
  6
Continuous
 62
     7
370
    15
100
AcDbLine
 10
4.98533564026432
 20
2.800757445896516
 30
0.0
 11
4.985054391024186
 21
2.800157332768543
 31
0.0
  0
ARC
  5
166
330
2
100
AcDbEntity
  8
0
  6
Continuous
 62
     7
370
    15
100
AcDbCircle
 10
4.980242563304213
 20
2.801674840144498
 30
0.0
 40
0.0050454449289125
100
AcDbArc
 50
247.1950282869012
 51
342.4962749120003
  0
LINE
  5
167
330
2
100
AcDbEntity
  8
0
  6
Continuous
 62
     7
370
    15
100
AcDbLine
 10
4.978286971174864
 20
2.797023800076053
 30
0.0
 11
4.680866932016321
 21
2.916563750339705
 31
0.0
  0
ARC
  5
168
330
2
100
AcDbEntity
  8
0
  6
Continuous
 62
     7
370
    15
100
AcDbCircle
 10
4.719274327904386
 20
2.985634668936505
 30
0.0
 40
0.0790311321806778
100
AcDbArc
 50
203.9330830146003
 51
240.9234282107012
  0
LINE
  5
169
330
2
100
AcDbEntity
  8
0
  6
Continuous
 62
     7
370
    15
100
AcDbLine
 10
4.647038302662864
 20
2.953574155675793
 30
0.0
 11
3.69451968322909
 21
4.730998195482724
 31
0.0
  0
ARC
  5
16A
330
2
100
AcDbEntity
  8
0
  6
Continuous
 62
     7
370
    15
100
AcDbCircle
 10
3.869323407359322
 20
4.822728631626001
 30
0.0
 40
0.1974102704715029
100
AcDbArc
 50
187.8188345146988
 51
207.688803443899
  0
LINE
  5
16B
330
2
100
AcDbEntity
  8
0
  6
Continuous
 62
     7
370
    15
100
AcDbLine
 10
3.673748425838555
 20
4.795872692064641
 30
0.0
 11
3.59405499481868
 21
5.380035846851439
 31
0.0
  0
ARC
  5
16C
330
2
100
AcDbEntity
  8
0
  6
Continuous
 62
     7
370
    15
100
AcDbCircle
 10
3.619457581427369
 20
5.384856320803137
 30
0.0
 40
0.0258559156888497
100
AcDbArc
 50
159.9521214383982
 51
190.7448668763009
  0
LINE
  5
16D
330
2
100
AcDbEntity
  8
0
  6
Continuous
 62
     7
370
    15
100
AcDbLine
 10
3.595168366492569
 20
5.393719864897078
 30
0.0
 11
3.655685531435516
 21
5.52286184126825
 31
0.0
  0
ARC
  5
16E
330
2
100
AcDbEntity
  8
0
  6
Continuous
 62
     7
370
    15
100
AcDbCircle
 10
3.669112558536828
 20
5.516947699181741
 30
0.0
 40
0.0146718142648468
100
AcDbArc
 50
132.3544973176014
 51
156.228164598001
  0
LINE
  5
16F
330
2
100
AcDbEntity
  8
0
  6
Continuous
 62
     7
370
    15
100
AcDbLine
 10
3.65922792671255
 20
5.527790032303298
 30
0.0
 11
3.755159910281593
 21
5.610869639012702
 31
0.0
  0
LWPOLYLINE
  5
170
330
2
100
AcDbEntity
  8
0
  6
Continuous
 62
     7
370
    15
100
AcDbPolyline
 90
        3
 70
   128
 43
0.0
 10
3.587749005587141
 20
5.4966459186525
 10
3.594750040535938
 20
5.506134738421099
 10
3.595016907111578
 20
5.506371566623741
  0
SPLINE
  5
171
330
2
100
AcDbEntity
  8
0
  6
Continuous
 62
     7
370
    15
100
AcDbSpline
210
0.0
220
0.0
230
1.0
 70
     8
 71
     3
 72
     9
 73
     5
 74
     0
 42
0.000000001
 43
0.0000000001
 40
0.0
 40
0.0
 40
0.0
 40
0.0
 40
0.5402757188207622
 40
1.0
 40
1.0
 40
1.0
 40
1.0
 10
4.922714698524605
 20
2.780985206246797
 30
0.0
 10
4.918572429476498
 20
2.780114148965836
 30
0.0
 10
4.914084004168413
 20
2.78020406821598
 30
0.0
 10
4.912431481595707
 20
2.780645289366661
 30
0.0
 10
4.910986377172139
 20
2.781090663070733
 30
0.0
  0
ARC
  5
172
330
2
100
AcDbEntity
  8
0
  6
Continuous
 62
     7
370
    15
100
AcDbCircle
 10
51.59547864674908
 20
16.52550226209102
 30
0.0
 40
0.0582332836588855
100
AcDbArc
 50
203.9325615886002
 51
240.9243367075008
  0
LINE
  5
173
330
2
100
AcDbEntity
  8
0
  6
Continuous
 62
     7
370
    15
100
AcDbLine
 10
50.58973326783402
 20
18.27930361174232
 30
0.0
 11
51.54225205335287
 21
16.501879284279
 31
0.0
  0
ARC
  5
174
330
2
100
AcDbEntity
  8
0
  6
Continuous
 62
     7
370
    15
100
AcDbCircle
 10
50.7185425457715
 20
18.34689756227745
 30
0.0
 40
0.1454674267107727
100
AcDbArc
 50
187.8190030779008
 51
207.6886897878994
  0
LINE
  5
175
330
2
100
AcDbEntity
  8
0
  6
Continuous
 62
     7
370
    15
100
AcDbLine
 10
50.40759357950738
 20
18.88321787367507
 30
0.0
 11
50.48587968480703
 21
18.30937098391552
 31
0.0
  0
ARC
  5
176
330
2
100
AcDbEntity
  8
0
  6
Continuous
 62
     7
370
    15
100
AcDbCircle
 10
50.68145466632777
 20
18.33622692347688
 30
0.0
 40
0.1974102704710881
100
AcDbArc
 50
187.8188345146988
 51
207.6888034440009
  0
LINE
  5
177
330
2
100
AcDbEntity
  8
0
  6
Continuous
 62
     7
370
    15
100
AcDbLine
 10
50.50665094219755
 20
18.24449648733361
 30
0.0
 11
51.45916956163133
 21
16.4670724475267
 31
0.0
  0
ARC
  5
178
330
2
100
AcDbEntity
  8
0
  6
Continuous
 62
     7
370
    15
100
AcDbCircle
 10
51.53140558687283
 20
16.49913296078738
 30
0.0
 40
0.0790311321808981
100
AcDbArc
 50
203.9330830146003
 51
240.9234282106007
  0
LINE
  5
179
330
2
100
AcDbEntity
  8
0
  6
Continuous
 62
     7
370
    15
100
AcDbLine
 10
51.49299819098477
 20
16.43006204219061
 30
0.0
 11
51.77506286832469
 21
16.31669365696623
 31
0.0
  0
LINE
  5
17A
330
2
100
AcDbEntity
  8
0
  6
Continuous
 62
     7
370
    15
100
AcDbLine
 10
51.49299819098477
 20
16.43006204219061
 30
0.0
 11
51.77506295135609
 21
16.31669358505769
 31
0.0
  0
LINE
  5
17B
330
2
100
AcDbEntity
  8
0
  6
Continuous
 62
     7
370
    15
100
AcDbLine
 10
50.48587968480703
 20
18.30937098391552
 30
0.0
 11
50.40759357950738
 21
18.88321808940066
 31
0.0
  0
LINE
  5
17C
330
2
100
AcDbEntity
  8
0
  6
Continuous
 62
     7
370
    15
100
AcDbLine
 10
3.673748425838555
 20
4.795872692064641
 30
0.0
 11
3.595188793797911
 21
5.371724010076676
 31
0.0
  0
LINE
  5
17D
330
2
100
AcDbEntity
  8
0
  6
Continuous
 62
     7
370
    15
100
AcDbLine
 10
3.69451968322909
 20
4.730998195482724
 30
0.0
 11
50.50665094219755
 21
18.24449648733361
 31
0.0
  0
LWPOLYLINE
  5
17E
330
2
100
AcDbEntity
  8
0
  6
Continuous
 62
     7
370
    15
100
AcDbPolyline
 90
        9
 70
   128
 43
0.0
 10
3.595188793797911
 20
5.371724010076676
 10
3.594856144135419
 20
5.375234797832279
 10
3.594842858064857
 20
5.378520066751371
 10
3.595148935630825
 20
5.381485539000139
 10
3.595765906962486
 20
5.384045710142729
 10
3.596675835874632
 20
5.386127157111884
 10
3.597852648481374
 20
5.387669832629406
 10
3.59926246534403
 20
5.38862943836591
 10
3.599771985671728
 20
5.388812960079775
  0
LINE
  5
17F
330
2
100
AcDbEntity
  8
0
  6
Continuous
 62
     7
370
    15
100
AcDbLine
 10
3.663422667458751
 20
5.407187209368095
 30
0.0
 11
3.64993416288856
 21
5.49864315872683
 31
0.0
  0
ARC
  5
180
330
2
100
AcDbEntity
  8
0
  6
Continuous
 62
     7
370
    15
100
AcDbCircle
 10
3.675763361050727
 20
5.503865782291956
 30
0.0
 40
0.0263519121532184
100
AcDbArc
 50
160.1438406895987
 51
191.4309977672999
  0
LINE
  5
181
330
2
100
AcDbEntity
  8
0
  6
Continuous
 62
     7
370
    15
100
AcDbLine
 10
3.650978114923467
 20
5.51281647214625
 30
0.0
 11
3.655685531435516
 21
5.52286184126825
 31
0.0
  0
LINE
  5
182
330
2
100
AcDbEntity
  8
0
  6
Continuous
 62
     7
370
    15
100
AcDbLine
 10
3.65922792671255
 20
5.52778996037247
 30
0.0
 11
3.71979275537538
 21
5.58024085632682
 31
0.0
  0
LINE
  5
183
330
2
100
AcDbEntity
  8
0
  6
Continuous
 62
     7
370
    15
100
AcDbLine
 10
4.680866932016321
 20
2.916563750339705
 30
0.0
 11
51.49299819098477
 21
16.43006204219061
 31
0.0
  0
LINE
  5
184
330
2
100
AcDbEntity
  8
0
  6
Continuous
 62
     7
370
    15
100
AcDbLine
 10
4.680866932016321
 20
2.916563750339705
 30
0.0
 11
4.974055112498179
 21
2.798724612058285
 31
0.0
  0
LWPOLYLINE
  5
185
330
2
100
AcDbEntity
  8
0
  6
Continuous
 62
     7
370
    15
100
AcDbPolyline
 90
        3
 70
   128
 43
0.0
 10
4.974055112498179
 20
2.798724612058285
 10
4.975832787098042
 20
2.798297449421545
 10
4.977352712169847
 20
2.798453068953961
  0
LINE
  5
186
330
2
100
AcDbEntity
  8
0
  6
Continuous
 62
     8
370
    15
100
AcDbLine
 10
51.82948025507562
 20
16.21515221604452
 30
0.0
 11
4.945500530336408
 21
2.68091305865578
 31
0.0
  0
LINE
  5
187
330
2
100
AcDbEntity
  8
0
  6
Continuous
 62
     8
370
    15
100
AcDbLine
 10
3.543659627578528
 20
5.40458846324451
 30
0.0
 11
3.545431157364909
 21
5.406344648160712
 31
0.0
  0
SPLINE
  5
188
330
2
100
AcDbEntity
  8
0
  6
Continuous
 62
     8
370
    15
100
AcDbSpline
210
0.0
220
0.0
230
1.0
 70
     8
 71
     3
 72
     9
 73
     5
 74
     0
 42
0.000000001
 43
0.0000000001
 40
0.0
 40
0.0
 40
0.0
 40
0.0
 40
0.5356110941900138
 40
1.0
 40
1.0
 40
1.0
 40
1.0
 10
5.037595055000233
 20
1.45871585235331
 30
0.0
 10
5.04182908817707
 20
1.457017295091411
 30
0.0
 10
5.049734139477886
 20
1.453846044009523
 30
0.0
 10
5.058501800039057
 20
1.455513829344295
 30
0.0
 10
5.062573404333591
 20
1.456288330351067
 30
0.0
  0
ELLIPSE
  5
189
330
2
100
AcDbEntity
  8
0
  6
Continuous
 62
     8
370
    15
100
AcDbEllipse
 10
50.43536378672225
 20
20.3417663284286
 30
0.0
 11
0.0187587129781368
 21
0.0410609667092818
 31
0.0
210
0.0
220
0.0
230
1.0
 40
0.8289527654999998
 41
5.331050557656141
 42
6.037286250062988
  0
ARC
  5
18A
330
2
100
AcDbEntity
  8
0
  6
Continuous
 62
     8
370
    15
100
AcDbCircle
 10
52.98338483645877
 20
14.96751512924877
 30
0.0
 40
0.0148374440858597
100
AcDbArc
 50
2.963422057399441
 51
53.4042180966995
  0
ELLIPSE
  5
18B
330
2
100
AcDbEntity
  8
0
  6
Continuous
 62
     8
370
    15
100
AcDbEllipse
 10
52.95362209998073
 20
18.16089065585135
 30
0.0
 11
0.0445545505356915
 21
0.0043920035356637
 31
0.0
210
0.0
220
0.0
230
1.0
 40
0.3470373694999999
 41
6.248989132575099
 42
6.772587908173056
  0
LINE
  5
18C
330
2
100
AcDbEntity
  8
0
  6
Continuous
 62
     8
370
    15
100
AcDbLine
 10
52.88049885240544
 20
17.66364126096714
 30
0.0
 11
52.90334237030553
 21
17.67036919478604
 31
0.0
  0
LINE
  5
18D
330
2
100
AcDbEntity
  8
0
  6
Continuous
 62
     8
370
    15
100
AcDbLine
 10
52.43570242125826
 20
18.05001810019685
 30
0.0
 11
52.45753622151294
 21
18.05644864478791
 31
0.0
  0
LINE
  5
18E
330
2
100
AcDbEntity
  8
0
  6
Continuous
 62
     8
370
    15
100
AcDbLine
 10
52.43524450374886
 20
18.31241726715315
 30
0.0
 11
52.45753622151294
 21
18.31898268591091
 31
0.0
  0
LINE
  5
18F
330
2
100
AcDbEntity
  8
0
  6
Continuous
 62
     8
370
    15
100
AcDbLine
 10
52.43790727889049
 20
18.35862742382327
 30
0.0
 11
52.46868139756485
 21
18.36724260590731
 31
0.0
  0
LINE
  5
190
330
2
100
AcDbEntity
  8
0
  6
Continuous
 62
     8
370
    15
100
AcDbLine
 10
52.83621714919314
 20
18.0103397455371
 30
0.0
 11
52.86990690447349
 21
18.01977112427703
 31
0.0
  0
LINE
  5
191
330
2
100
AcDbEntity
  8
0
  6
Continuous
 62
     8
370
    15
100
AcDbLine
 10
52.8810506421542
 20
17.92633782613431
 30
0.0
 11
52.90334237030553
 21
17.93290323588676
 31
0.0
  0
LINE
  5
192
330
2
100
AcDbEntity
  8
0
  6
Continuous
 62
     8
370
    15
100
AcDbLine
 10
50.53233384254447
 20
18.63566050744513
 30
0.0
 11
50.57442756264475
 21
18.32710756801937
 31
0.0
  0
LINE
  5
193
330
2
100
AcDbEntity
  8
0
  6
Continuous
 62
     8
370
    15
100
AcDbLine
 10
51.56717935582889
 20
16.47460761150261
 30
0.0
 11
51.72427553535506
 21
16.41146707874143
 31
0.0
  0
ENDSEC
  0
SECTION
  2
OBJECTS
  0
DICTIONARY
  5
9
330
0
100
AcDbDictionary
281
     1
  3
ACAD_COLOR
350
43
  3
ACAD_GROUP
350
30
  3
ACAD_LAYOUT
350
16
  3
ACAD_MATERIAL
350
B
  3
ACAD_MLEADERSTYLE
350
46
  3
ACAD_MLINESTYLE
350
31
  3
ACAD_PLOTSETTINGS
350
32
  3
ACAD_PLOTSTYLENAME
350
8
  3
ACAD_SCALELIST
350
44
  3
ACAD_TABLESTYLE
350
45
  3
ACAD_VISUALSTYLE
350
29
  3
ACDB_RECOMPOSE_DATA
350
19D
  3
AcDbVariableDictionary
350
194
  3
AcDsDecomposeData
350
1A3
  0
DICTIONARY
  5
1C
330
1B
100
AcDbDictionary
280
     1
281
     1
  3
ACAD_LAYERSTATES
360
1D
  0
DICTIONARY
  5
5
330
4
100
AcDbDictionary
280
     1
281
     1
  3
ADSK_XREC_LAYER_RECONCILED
360
6
  0
DICTIONARY
  5
43
102
{ACAD_REACTORS
330
9
102
}
330
9
100
AcDbDictionary
281
     1
  0
DICTIONARY
  5
30
102
{ACAD_REACTORS
330
9
102
}
330
9
100
AcDbDictionary
281
     1
  0
DICTIONARY
  5
16
102
{ACAD_REACTORS
330
9
102
}
330
9
100
AcDbDictionary
281
     1
  3
Layout1
350
1A
  3
Model
350
15
  0
DICTIONARY
  5
B
102
{ACAD_REACTORS
330
9
102
}
330
9
100
AcDbDictionary
281
     1
  3
ByBlock
350
3B
  3
ByLayer
350
33
  3
Global
350
A
  0
DICTIONARY
  5
46
102
{ACAD_REACTORS
330
9
102
}
330
9
100
AcDbDictionary
281
     1
  0
DICTIONARY
  5
31
102
{ACAD_REACTORS
330
9
102
}
330
9
100
AcDbDictionary
281
     1
  3
Standard
350
47
  0
DICTIONARY
  5
32
102
{ACAD_REACTORS
330
9
102
}
330
9
100
AcDbDictionary
281
     1
  0
ACDBDICTIONARYWDFLT
  5
8
102
{ACAD_REACTORS
330
9
102
}
330
9
100
AcDbDictionary
281
     1
  3
Normal
350
7
100
AcDbDictionaryWithDefault
340
7
  0
DICTIONARY
  5
44
102
{ACAD_REACTORS
330
9
102
}
330
9
100
AcDbDictionary
281
     1
  3
A0
350
4B
  3
A1
350
4C
  3
A2
350
4D
  3
A3
350
4E
  3
A4
350
4F
  3
A5
350
50
  3
A6
350
51
  3
A7
350
52
  3
A8
350
53
  3
A9
350
54
  3
B0
350
55
  3
B1
350
56
  3
B2
350
57
  3
B3
350
58
  3
B4
350
59
  3
B5
350
5A
  3
B6
350
5B
  3
B7
350
5C
  3
B8
350
5D
  3
B9
350
5E
  3
C0
350
5F
  3
C1
350
60
  3
C2
350
61
  3
C3
350
62
  3
C4
350
63
  3
C5
350
64
  3
C6
350
65
  3
C7
350
66
  3
C8
350
67
  3
C9
350
68
  3
D0
350
69
  3
D1
350
6A
  3
D2
350
6B
  0
DICTIONARY
  5
45
102
{ACAD_REACTORS
330
9
102
}
330
9
100
AcDbDictionary
281
     1
  3
Standard
350
48
  0
DICTIONARY
  5
29
102
{ACAD_REACTORS
330
9
102
}
330
9
100
AcDbDictionary
281
     1
  3
2dWireframe
350
28
  3
Realistic
350
49
  3
Wireframe
350
4A
  0
XRECORD
  5
19D
102
{ACAD_REACTORS
330
9
102
}
330
9
100
AcDbXrecord
280
     1
 90
        1
330
48
  0
DICTIONARY
  5
194
102
{ACAD_REACTORS
330
9
102
}
330
9
100
AcDbDictionary
281
     1
  3
CANNOSCALE
350
199
  3
CMLEADERSTYLE
350
196
  3
CTABLESTYLE
350
195
  3
CVIEWDETAILSTYLE
350
197
  3
CVIEWSECTIONSTYLE
350
198
  3
XCLIPFRAME
350
19A
  0
DICTIONARY
  5
1A3
102
{ACAD_REACTORS
330
9
102
}
330
9
100
AcDbDictionary
281
     1
  3
AcDsRecords
350
1A5
  3
AcDsSchemas
350
1A4
1001
ACAD
1070
     2
  0
DICTIONARY
  5
1D
102
{ACAD_REACTORS
330
1C
102
}
330
1C
100
AcDbDictionary
281
     1
  0
XRECORD
  5
6
102
{ACAD_REACTORS
330
5
102
}
330
5
100
AcDbXrecord
280
     1
290
     1
  0
LAYOUT
  5
1A
102
{ACAD_REACTORS
330
16
102
}
330
16
100
AcDbPlotSettings
  1

  2
none_device
  4

  6

 40
0.0
 41
0.0
 42
0.0
 43
0.0
 44
0.0
 45
0.0
 46
0.0
 47
0.0
 48
0.0
 49
0.0
140
0.0
141
0.0
142
1.0
143
1.0
 70
   688
 72
     1
 73
     0
 74
     5
  7

 75
    16
147
1.0
 76
     0
 77
     2
 78
   300
148
0.0
149
0.0
100
AcDbLayout
  1
Layout1
 70
     1
 71
     1
 10
0.0
 20
0.0
 11
420.0
 21
297.0
 12
0.0
 22
0.0
 32
0.0
 14
1.000000000000000E+20
 24
1.000000000000000E+20
 34
1.000000000000000E+20
 15
-1.000000000000000E+20
 25
-1.000000000000000E+20
 35
-1.000000000000000E+20
146
0.0
 13
0.0
 23
0.0
 33
0.0
 16
1.0
 26
0.0
 36
0.0
 17
0.0
 27
1.0
 37
0.0
 76
     0
330
17
  0
LAYOUT
  5
15
102
{ACAD_REACTORS
330
16
102
}
330
16
100
AcDbPlotSettings
  1

  2
none_device
  4
Letter_(8.50_x_11.00_Inches)
  6

 40
6.349999999999999
 41
6.349999999999999
 42
6.350005079999999
 43
6.350005079999999
 44
215.9
 45
279.4
 46
0.0
 47
0.0
 48
0.0
 49
0.0
140
0.0
141
0.0
142
1.0
143
1.0
 70
  1712
 72
     1
 73
     0
 74
     0
  7

 75
     0
147
1.0
 76
     0
 77
     2
 78
   300
148
0.0
149
0.0
100
AcDbLayout
  1
Model
 70
     1
 71
     0
 10
0.0
 20
0.0
 11
841.0
 21
594.0
 12
0.0
 22
0.0
 32
0.0
 14
0.0
 24
0.0
 34
0.0
 15
841.0
 25
594.0
 35
0.0
146
0.0
 13
0.0
 23
0.0
 33
0.0
 16
1.0
 26
0.0
 36
0.0
 17
0.0
 27
1.0
 37
0.0
 76
     0
330
2
331
27
  0
MATERIAL
  5
3B
102
{ACAD_XDICTIONARY
360
3C
102
}
102
{ACAD_REACTORS
330
B
102
}
330
B
100
AcDbMaterial
  1
ByBlock
 72
     0
 43
0.0008202099737533
 43
0.0
 43
0.0
 43
0.0
 43
0.0
 43
0.0008202099737533
 43
0.0
 43
0.0
 43
0.0
 43
0.0
 43
1.0
 43
0.0
 43
0.0
 43
0.0
 43
0.0
 43
1.0
 77
     0
 47
0.0008202099737533
 47
0.0
 47
0.0
 47
0.0
 47
0.0
 47
0.0008202099737533
 47
0.0
 47
0.0
 47
0.0
 47
0.0
 47
1.0
 47
0.0
 47
0.0
 47
0.0
 47
0.0
 47
1.0
171
     0
 49
0.0008202099737533
 49
0.0
 49
0.0
 49
0.0
 49
0.0
 49
0.0008202099737533
 49
0.0
 49
0.0
 49
0.0
 49
0.0
 49
1.0
 49
0.0
 49
0.0
 49
0.0
 49
0.0
 49
1.0
175
     0
142
0.0008202099737533
142
0.0
142
0.0
142
0.0
142
0.0
142
0.0008202099737533
142
0.0
142
0.0
142
0.0
142
0.0
142
1.0
142
0.0
142
0.0
142
0.0
142
0.0
142
1.0
179
     0
144
0.0008202099737533
144
0.0
144
0.0
144
0.0
144
0.0
144
0.0008202099737533
144
0.0
144
0.0
144
0.0
144
0.0
144
1.0
144
0.0
144
0.0
144
0.0
144
0.0
144
1.0
147
0.0008202099737533
147
0.0
147
0.0
147
0.0
147
0.0
147
0.0008202099737533
147
0.0
147
0.0
147
0.0
147
0.0
147
1.0
147
0.0
147
0.0
147
0.0
147
0.0
147
1.0
  0
MATERIAL
  5
33
102
{ACAD_XDICTIONARY
360
34
102
}
102
{ACAD_REACTORS
330
B
102
}
330
B
100
AcDbMaterial
  1
ByLayer
 72
     0
 43
0.0008202099737533
 43
0.0
 43
0.0
 43
0.0
 43
0.0
 43
0.0008202099737533
 43
0.0
 43
0.0
 43
0.0
 43
0.0
 43
1.0
 43
0.0
 43
0.0
 43
0.0
 43
0.0
 43
1.0
 77
     0
 47
0.0008202099737533
 47
0.0
 47
0.0
 47
0.0
 47
0.0
 47
0.0008202099737533
 47
0.0
 47
0.0
 47
0.0
 47
0.0
 47
1.0
 47
0.0
 47
0.0
 47
0.0
 47
0.0
 47
1.0
171
     0
 49
0.0008202099737533
 49
0.0
 49
0.0
 49
0.0
 49
0.0
 49
0.0008202099737533
 49
0.0
 49
0.0
 49
0.0
 49
0.0
 49
1.0
 49
0.0
 49
0.0
 49
0.0
 49
0.0
 49
1.0
175
     0
142
0.0008202099737533
142
0.0
142
0.0
142
0.0
142
0.0
142
0.0008202099737533
142
0.0
142
0.0
142
0.0
142
0.0
142
1.0
142
0.0
142
0.0
142
0.0
142
0.0
142
1.0
179
     0
144
0.0008202099737533
144
0.0
144
0.0
144
0.0
144
0.0
144
0.0008202099737533
144
0.0
144
0.0
144
0.0
144
0.0
144
1.0
144
0.0
144
0.0
144
0.0
144
0.0
144
1.0
147
0.0008202099737533
147
0.0
147
0.0
147
0.0
147
0.0
147
0.0008202099737533
147
0.0
147
0.0
147
0.0
147
0.0
147
1.0
147
0.0
147
0.0
147
0.0
147
0.0
147
1.0
  0
MATERIAL
  5
A
102
{ACAD_XDICTIONARY
360
C
102
}
102
{ACAD_REACTORS
330
B
102
}
330
B
100
AcDbMaterial
  1
Global
 72
     0
 43
0.0008202099737533
 43
0.0
 43
0.0
 43
0.0
 43
0.0
 43
0.0008202099737533
 43
0.0
 43
0.0
 43
0.0
 43
0.0
 43
1.0
 43
0.0
 43
0.0
 43
0.0
 43
0.0
 43
1.0
 77
     0
 47
0.0008202099737533
 47
0.0
 47
0.0
 47
0.0
 47
0.0
 47
0.0008202099737533
 47
0.0
 47
0.0
 47
0.0
 47
0.0
 47
1.0
 47
0.0
 47
0.0
 47
0.0
 47
0.0
 47
1.0
171
     0
 49
0.0008202099737533
 49
0.0
 49
0.0
 49
0.0
 49
0.0
 49
0.0008202099737533
 49
0.0
 49
0.0
 49
0.0
 49
0.0
 49
1.0
 49
0.0
 49
0.0
 49
0.0
 49
0.0
 49
1.0
175
     0
142
0.0008202099737533
142
0.0
142
0.0
142
0.0
142
0.0
142
0.0008202099737533
142
0.0
142
0.0
142
0.0
142
0.0
142
1.0
142
0.0
142
0.0
142
0.0
142
0.0
142
1.0
179
     0
144
0.0008202099737533
144
0.0
144
0.0
144
0.0
144
0.0
144
0.0008202099737533
144
0.0
144
0.0
144
0.0
144
0.0
144
1.0
144
0.0
144
0.0
144
0.0
144
0.0
144
1.0
147
0.0008202099737533
147
0.0
147
0.0
147
0.0
147
0.0
147
0.0008202099737533
147
0.0
147
0.0
147
0.0
147
0.0
147
1.0
147
0.0
147
0.0
147
0.0
147
0.0
147
1.0
  0
MLINESTYLE
  5
47
102
{ACAD_REACTORS
330
31
102
}
330
31
100
AcDbMlineStyle
  2
STANDARD
 70
     0
  3

 62
   256
 51
90.0
 52
90.0
 71
     2
 49
0.5
 62
   256
  6
BYLAYER
 49
-0.5
 62
   256
  6
BYLAYER
  0
ACDBPLACEHOLDER
  5
7
102
{ACAD_REACTORS
330
8
102
}
330
8
  0
SCALE
  5
4B
102
{ACAD_REACTORS
330
44
102
}
330
44
100
AcDbScale
 70
     0
300
1:1
140
1.0
141
1.0
290
     1
  0
SCALE
  5
4C
102
{ACAD_REACTORS
330
44
102
}
330
44
100
AcDbScale
 70
     0
300
1:2
140
1.0
141
2.0
290
     0
  0
SCALE
  5
4D
102
{ACAD_REACTORS
330
44
102
}
330
44
100
AcDbScale
 70
     0
300
1:4
140
1.0
141
4.0
290
     0
  0
SCALE
  5
4E
102
{ACAD_REACTORS
330
44
102
}
330
44
100
AcDbScale
 70
     0
300
1:5
140
1.0
141
5.0
290
     0
  0
SCALE
  5
4F
102
{ACAD_REACTORS
330
44
102
}
330
44
100
AcDbScale
 70
     0
300
1:8
140
1.0
141
8.0
290
     0
  0
SCALE
  5
50
102
{ACAD_REACTORS
330
44
102
}
330
44
100
AcDbScale
 70
     0
300
1:10
140
1.0
141
10.0
290
     0
  0
SCALE
  5
51
102
{ACAD_REACTORS
330
44
102
}
330
44
100
AcDbScale
 70
     0
300
1:16
140
1.0
141
16.0
290
     0
  0
SCALE
  5
52
102
{ACAD_REACTORS
330
44
102
}
330
44
100
AcDbScale
 70
     0
300
1:20
140
1.0
141
20.0
290
     0
  0
SCALE
  5
53
102
{ACAD_REACTORS
330
44
102
}
330
44
100
AcDbScale
 70
     0
300
1:30
140
1.0
141
30.0
290
     0
  0
SCALE
  5
54
102
{ACAD_REACTORS
330
44
102
}
330
44
100
AcDbScale
 70
     0
300
1:40
140
1.0
141
40.0
290
     0
  0
SCALE
  5
55
102
{ACAD_REACTORS
330
44
102
}
330
44
100
AcDbScale
 70
     0
300
1:50
140
1.0
141
50.0
290
     0
  0
SCALE
  5
56
102
{ACAD_REACTORS
330
44
102
}
330
44
100
AcDbScale
 70
     0
300
1:100
140
1.0
141
100.0
290
     0
  0
SCALE
  5
57
102
{ACAD_REACTORS
330
44
102
}
330
44
100
AcDbScale
 70
     0
300
2:1
140
2.0
141
1.0
290
     0
  0
SCALE
  5
58
102
{ACAD_REACTORS
330
44
102
}
330
44
100
AcDbScale
 70
     0
300
4:1
140
4.0
141
1.0
290
     0
  0
SCALE
  5
59
102
{ACAD_REACTORS
330
44
102
}
330
44
100
AcDbScale
 70
     0
300
8:1
140
8.0
141
1.0
290
     0
  0
SCALE
  5
5A
102
{ACAD_REACTORS
330
44
102
}
330
44
100
AcDbScale
 70
     0
300
10:1
140
10.0
141
1.0
290
     0
  0
SCALE
  5
5B
102
{ACAD_REACTORS
330
44
102
}
330
44
100
AcDbScale
 70
     0
300
100:1
140
100.0
141
1.0
290
     0
  0
SCALE
  5
5C
102
{ACAD_REACTORS
330
44
102
}
330
44
100
AcDbScale
 70
     0
300
1/128" = 1'-0"
140
0.0078125
141
12.0
290
     0
  0
SCALE
  5
5D
102
{ACAD_REACTORS
330
44
102
}
330
44
100
AcDbScale
 70
     0
300
1/64" = 1'-0"
140
0.015625
141
12.0
290
     0
  0
SCALE
  5
5E
102
{ACAD_REACTORS
330
44
102
}
330
44
100
AcDbScale
 70
     0
300
1/32" = 1'-0"
140
0.03125
141
12.0
290
     0
  0
SCALE
  5
5F
102
{ACAD_REACTORS
330
44
102
}
330
44
100
AcDbScale
 70
     0
300
1/16" = 1'-0"
140
0.0625
141
12.0
290
     0
  0
SCALE
  5
60
102
{ACAD_REACTORS
330
44
102
}
330
44
100
AcDbScale
 70
     0
300
3/32" = 1'-0"
140
0.09375
141
12.0
290
     0
  0
SCALE
  5
61
102
{ACAD_REACTORS
330
44
102
}
330
44
100
AcDbScale
 70
     0
300
1/8" = 1'-0"
140
0.125
141
12.0
290
     0
  0
SCALE
  5
62
102
{ACAD_REACTORS
330
44
102
}
330
44
100
AcDbScale
 70
     0
300
3/16" = 1'-0"
140
0.1875
141
12.0
290
     0
  0
SCALE
  5
63
102
{ACAD_REACTORS
330
44
102
}
330
44
100
AcDbScale
 70
     0
300
1/4" = 1'-0"
140
0.25
141
12.0
290
     0
  0
SCALE
  5
64
102
{ACAD_REACTORS
330
44
102
}
330
44
100
AcDbScale
 70
     0
300
3/8" = 1'-0"
140
0.375
141
12.0
290
     0
  0
SCALE
  5
65
102
{ACAD_REACTORS
330
44
102
}
330
44
100
AcDbScale
 70
     0
300
1/2" = 1'-0"
140
0.5
141
12.0
290
     0
  0
SCALE
  5
66
102
{ACAD_REACTORS
330
44
102
}
330
44
100
AcDbScale
 70
     0
300
3/4" = 1'-0"
140
0.75
141
12.0
290
     0
  0
SCALE
  5
67
102
{ACAD_REACTORS
330
44
102
}
330
44
100
AcDbScale
 70
     0
300
1" = 1'-0"
140
1.0
141
12.0
290
     0
  0
SCALE
  5
68
102
{ACAD_REACTORS
330
44
102
}
330
44
100
AcDbScale
 70
     0
300
1-1/2" = 1'-0"
140
1.5
141
12.0
290
     0
  0
SCALE
  5
69
102
{ACAD_REACTORS
330
44
102
}
330
44
100
AcDbScale
 70
     0
300
3" = 1'-0"
140
3.0
141
12.0
290
     0
  0
SCALE
  5
6A
102
{ACAD_REACTORS
330
44
102
}
330
44
100
AcDbScale
 70
     0
300
6" = 1'-0"
140
6.0
141
12.0
290
     0
  0
SCALE
  5
6B
102
{ACAD_REACTORS
330
44
102
}
330
44
100
AcDbScale
 70
     0
300
1'-0" = 1'-0"
140
12.0
141
12.0
290
     0
  0
TABLESTYLE
  5
48
102
{ACAD_XDICTIONARY
360
19B
102
}
102
{ACAD_REACTORS
330
45
102
}
330
45
100
AcDbTableStyle
  3
Standard
 70
     0
 71
     0
 40
1.5
 41
1.5
280
     0
281
     0
  7
Standard
140
4.5
170
     2
 62
     0
 63
     7
283
     0
274
    -2
284
     1
 64
     0
275
    -2
285
     1
 65
     0
276
    -2
286
     1
 66
     0
277
    -2
287
     1
 67
     0
278
    -2
288
     1
 68
     0
279
    -2
289
     1
 69
     0
  7
Standard
140
6.0
170
     5
 62
     0
 63
     7
283
     0
274
    -2
284
     1
 64
     0
275
    -2
285
     1
 65
     0
276
    -2
286
     1
 66
     0
277
    -2
287
     1
 67
     0
278
    -2
288
     1
 68
     0
279
    -2
289
     1
 69
     0
  7
Standard
140
4.5
170
     5
 62
     0
 63
     7
283
     0
274
    -2
284
     1
 64
     0
275
    -2
285
     1
 65
     0
276
    -2
286
     1
 66
     0
277
    -2
287
     1
 67
     0
278
    -2
288
     1
 68
     0
279
    -2
289
     1
 69
     0
  0
VISUALSTYLE
  5
28
102
{ACAD_XDICTIONARY
360
1A7
102
}
102
{ACAD_REACTORS
330
29
102
}
330
29
100
AcDbVisualStyle
  2
2dWireframe
 70
     4
 71
     0
 72
     2
 73
     0
 90
        0
 40
-0.6
 41
-30.0
 62
     5
 63
     7
421
 16777215
 74
     1
 91
        4
 64
     7
 65
   257
 75
     1
175
     1
 42
1.0
 92
        0
 66
   257
 43
1.0
 76
     1
 77
     6
 78
     2
 67
     7
 79
     5
170
     0
171
     0
290
     0
174
     0
 93
        1
 44
0.0
173
     0
291
     0
 45
0.0
1001
ACAD
1000
AcDbSavedByObjectVersion
1070
     0
  0
VISUALSTYLE
  5
49
102
{ACAD_XDICTIONARY
360
1AC
102
}
102
{ACAD_REACTORS
330
29
102
}
330
29
100
AcDbVisualStyle
  2
Realistic
 70
     8
 71
     2
 72
     3
 73
     0
 90
        2
 40
-0.6
 41
30.0
 62
     5
 63
     7
421
 16777215
 74
     0
 91
        0
 64
     7
 65
   257
 75
     1
175
     1
 42
1.0
 92
        8
 66
   257
 43
1.0
 76
     1
 77
     6
 78
     2
 67
     7
 79
     3
170
     0
171
     0
290
     0
174
     0
 93
       13
 44
0.0
173
     0
291
     0
 45
0.0
1001
ACAD
1000
AcDbSavedByObjectVersion
1070
     0
  0
VISUALSTYLE
  5
4A
102
{ACAD_XDICTIONARY
360
1AE
102
}
102
{ACAD_REACTORS
330
29
102
}
330
29
100
AcDbVisualStyle
  2
Wireframe
 70
     5
 71
     0
 72
     2
 73
     0
 90
        0
 40
-0.6
 41
-30.0
 62
     5
 63
     7
421
 16777215
 74
     1
 91
        4
 64
     7
 65
   257
 75
     1
175
     1
 42
1.0
 92
        0
 66
   257
 43
1.0
 76
     1
 77
     6
 78
     2
 67
     7
 79
     3
170
     0
171
     0
290
     0
174
     0
 93
        1
 44
0.0
173
     0
291
     0
 45
0.0
1001
ACAD
1000
AcDbSavedByObjectVersion
1070
     0
  0
DICTIONARYVAR
  5
199
102
{ACAD_REACTORS
330
194
102
}
330
194
100
DictionaryVariables
280
     0
  1
1:1
  0
DICTIONARYVAR
  5
196
102
{ACAD_REACTORS
330
194
102
}
330
194
100
DictionaryVariables
280
     0
  1
STANDARD
  0
DICTIONARYVAR
  5
195
102
{ACAD_REACTORS
330
194
102
}
330
194
100
DictionaryVariables
280
     0
  1
STANDARD
  0
DICTIONARYVAR
  5
197
102
{ACAD_REACTORS
330
194
102
}
330
194
100
DictionaryVariables
280
     0
  1

  0
DICTIONARYVAR
  5
198
102
{ACAD_REACTORS
330
194
102
}
330
194
100
DictionaryVariables
280
     0
  1

  0
DICTIONARYVAR
  5
19A
102
{ACAD_REACTORS
330
194
102
}
330
194
100
DictionaryVariables
280
     0
  1
2
  0
DICTIONARY
  5
1A5
102
{ACAD_REACTORS
330
1A3
102
}
330
1A3
100
AcDbDictionary
281
     1
  0
DICTIONARY
  5
1A4
102
{ACAD_REACTORS
330
1A3
102
}
330
1A3
100
AcDbDictionary
281
     1
  3
2770882898784
350
19E
  3
2770882898800
350
19F
  3
2770882898816
350
1A0
  3
2770882898832
350
1A1
  3
2770882898848
350
1A2
  0
DICTIONARY
  5
3C
330
3B
100
AcDbDictionary
280
     1
281
     1
  3
ACAD_XREC_ROUNDTRIP
360
1AA
  3
BUMPTILE
360
3D
  3
DIFFUSETILE
360
3E
  3
OPACITYTILE
360
3F
  3
REFLECTIONTILE
360
40
  3
REFRACTIONTILE
360
41
  3
SPECULARTILE
360
42
  0
DICTIONARY
  5
34
330
33
100
AcDbDictionary
280
     1
281
     1
  3
ACAD_XREC_ROUNDTRIP
360
1A9
  3
BUMPTILE
360
35
  3
DIFFUSETILE
360
36
  3
OPACITYTILE
360
37
  3
REFLECTIONTILE
360
38
  3
REFRACTIONTILE
360
39
  3
SPECULARTILE
360
3A
  0
DICTIONARY
  5
C
330
A
100
AcDbDictionary
280
     1
281
     1
  3
ACAD_XREC_ROUNDTRIP
360
1A6
  3
BUMPTILE
360
D
  3
DIFFUSETILE
360
E
  3
OPACITYTILE
360
F
  3
REFLECTIONTILE
360
10
  3
REFRACTIONTILE
360
11
  3
SPECULARTILE
360
12
  0
DICTIONARY
  5
19B
330
48
100
AcDbDictionary
280
     1
281
     1
  3
ACAD_ROUNDTRIP_2008_TABLESTYLE_CELLSTYLEMAP
360
19C
  3
ACAD_XREC_ROUNDTRIP
360
1AB
  0
DICTIONARY
  5
1A7
330
28
100
AcDbDictionary
280
     1
281
     1
  3
ACAD_XREC_ROUNDTRIP
360
1A8
  0
DICTIONARY
  5
1AC
330
49
100
AcDbDictionary
280
     1
281
     1
  3
ACAD_XREC_ROUNDTRIP
360
1AD
  0
DICTIONARY
  5
1AE
330
4A
100
AcDbDictionary
280
     1
281
     1
  3
ACAD_XREC_ROUNDTRIP
360
1AF
  0
XRECORD
  5
19E
102
{ACAD_REACTORS
330
1A4
102
}
330
1A4
100
AcDbXrecord
280
     1
  1
AcDb_Thumbnail_Schema
102
{ATTRRECORD
341
19F
  2
AcDbDs::TreatedAsObjectData
280
     1
291
     1
102
ATTRRECORD}
102
{ATTRRECORD
341
1A0
  2
AcDbDs::Legacy
280
     1
291
     1
102
ATTRRECORD}
  2
AcDbDs::ID
280
    10
 91
        8
102
{ATTRRECORD
341
1A1
  2
AcDs:Indexable
280
     1
291
     1
102
ATTRRECORD}
102
{ATTRRECORD
341
1A2
  2
AcDbDs::HandleAttribute
280
     7
282
     1
102
ATTRRECORD}
  2
Thumbnail_Data
280
    15
 91
        0
  0
XRECORD
  5
19F
102
{ACAD_REACTORS
330
1A4
102
}
330
1A4
100
AcDbXrecord
280
     1
  1
AcDbDs::TreatedAsObjectDataSchema
  2
AcDbDs::TreatedAsObjectData
280
     1
 91
        0
  0
XRECORD
  5
1A0
102
{ACAD_REACTORS
330
1A4
102
}
330
1A4
100
AcDbXrecord
280
     1
  1
AcDbDs::LegacySchema
  2
AcDbDs::Legacy
280
     1
 91
        0
  0
XRECORD
  5
1A1
102
{ACAD_REACTORS
330
1A4
102
}
330
1A4
100
AcDbXrecord
280
     1
  1
AcDbDs::IndexedPropertySchema
  2
AcDs:Indexable
280
     1
 91
        0
  0
XRECORD
  5
1A2
102
{ACAD_REACTORS
330
1A4
102
}
330
1A4
100
AcDbXrecord
280
     1
  1
AcDbDs::HandleAttributeSchema
  2
AcDbDs::HandleAttribute
280
     7
 91
        1
284
     1
  0
XRECORD
  5
1AA
102
{ACAD_REACTORS
330
3C
102
}
330
3C
100
AcDbXrecord
280
     1
102
MATERIAL
148
0.0
149
0.0
149
0.0
 93
        0
 94
      127
282
     0
 72
     0
 77
     0
171
     0
175
     0
179
     0
273
     0
  0
XRECORD
  5
3D
102
{ACAD_REACTORS
330
3C
102
}
330
3C
100
AcDbXrecord
280
     1
270
     1
271
     1
  0
XRECORD
  5
3E
102
{ACAD_REACTORS
330
3C
102
}
330
3C
100
AcDbXrecord
280
     1
270
     1
271
     1
  0
XRECORD
  5
3F
102
{ACAD_REACTORS
330
3C
102
}
330
3C
100
AcDbXrecord
280
     1
270
     1
271
     1
  0
XRECORD
  5
40
102
{ACAD_REACTORS
330
3C
102
}
330
3C
100
AcDbXrecord
280
     1
270
     1
271
     1
  0
XRECORD
  5
41
102
{ACAD_REACTORS
330
3C
102
}
330
3C
100
AcDbXrecord
280
     1
270
     1
271
     1
  0
XRECORD
  5
42
102
{ACAD_REACTORS
330
3C
102
}
330
3C
100
AcDbXrecord
280
     1
270
     1
271
     1
  0
XRECORD
  5
1A9
102
{ACAD_REACTORS
330
34
102
}
330
34
100
AcDbXrecord
280
     1
102
MATERIAL
148
0.0
149
0.0
149
0.0
 93
        0
 94
      127
282
     0
 72
     0
 77
     0
171
     0
175
     0
179
     0
273
     0
  0
XRECORD
  5
35
102
{ACAD_REACTORS
330
34
102
}
330
34
100
AcDbXrecord
280
     1
270
     1
271
     1
  0
XRECORD
  5
36
102
{ACAD_REACTORS
330
34
102
}
330
34
100
AcDbXrecord
280
     1
270
     1
271
     1
  0
XRECORD
  5
37
102
{ACAD_REACTORS
330
34
102
}
330
34
100
AcDbXrecord
280
     1
270
     1
271
     1
  0
XRECORD
  5
38
102
{ACAD_REACTORS
330
34
102
}
330
34
100
AcDbXrecord
280
     1
270
     1
271
     1
  0
XRECORD
  5
39
102
{ACAD_REACTORS
330
34
102
}
330
34
100
AcDbXrecord
280
     1
270
     1
271
     1
  0
XRECORD
  5
3A
102
{ACAD_REACTORS
330
34
102
}
330
34
100
AcDbXrecord
280
     1
270
     1
271
     1
  0
XRECORD
  5
1A6
102
{ACAD_REACTORS
330
C
102
}
330
C
100
AcDbXrecord
280
     1
102
MATERIAL
148
0.0
149
0.0
149
0.0
 93
        0
 94
      127
282
     0
 72
     0
 77
     0
171
     0
175
     0
179
     0
273
     0
  0
XRECORD
  5
D
102
{ACAD_REACTORS
330
C
102
}
330
C
100
AcDbXrecord
280
     1
270
     1
271
     1
  0
XRECORD
  5
E
102
{ACAD_REACTORS
330
C
102
}
330
C
100
AcDbXrecord
280
     1
270
     1
271
     1
  0
XRECORD
  5
F
102
{ACAD_REACTORS
330
C
102
}
330
C
100
AcDbXrecord
280
     1
270
     1
271
     1
  0
XRECORD
  5
10
102
{ACAD_REACTORS
330
C
102
}
330
C
100
AcDbXrecord
280
     1
270
     1
271
     1
  0
XRECORD
  5
11
102
{ACAD_REACTORS
330
C
102
}
330
C
100
AcDbXrecord
280
     1
270
     1
271
     1
  0
XRECORD
  5
12
102
{ACAD_REACTORS
330
C
102
}
330
C
100
AcDbXrecord
280
     1
270
     1
271
     1
  0
CELLSTYLEMAP
  5
19C
102
{ACAD_REACTORS
330
19B
102
}
330
19B
100
AcDbCellStyleMap
 90
        3
300
CELLSTYLE
  1
TABLEFORMAT_BEGIN
 90
        5
170
     1
 91
        0
 92
    32768
 62
   257
 93
        1
300
CONTENTFORMAT
  1
CONTENTFORMAT_BEGIN
 90
        0
 91
        0
 92
      512
 93
        0
300

 40
0.0
140
1.0
 94
        5
 62
     0
340
1F
144
6.0
309
CONTENTFORMAT_END
171
     1
301
MARGIN
  1
CELLMARGIN_BEGIN
 40
1.5
 40
1.5
 40
1.5
 40
1.5
 40
4.5
 40
4.5
309
CELLMARGIN_END
 94
        6
 95
        1
302
GRIDFORMAT
  1
GRIDFORMAT_BEGIN
 90
        0
 91
        1
 62
     0
 92
       -2
340
0
 93
        0
 40
1.125
309
GRIDFORMAT_END
 95
        2
302
GRIDFORMAT
  1
GRIDFORMAT_BEGIN
 90
        0
 91
        1
 62
     0
 92
       -2
340
0
 93
        0
 40
1.125
309
GRIDFORMAT_END
 95
        4
302
GRIDFORMAT
  1
GRIDFORMAT_BEGIN
 90
        0
 91
        1
 62
     0
 92
       -2
340
0
 93
        0
 40
1.125
309
GRIDFORMAT_END
 95
        8
302
GRIDFORMAT
  1
GRIDFORMAT_BEGIN
 90
        0
 91
        1
 62
     0
 92
       -2
340
0
 93
        0
 40
1.125
309
GRIDFORMAT_END
 95
       16
302
GRIDFORMAT
  1
GRIDFORMAT_BEGIN
 90
        0
 91
        1
 62
     0
 92
       -2
340
0
 93
        0
 40
1.125
309
GRIDFORMAT_END
 95
       32
302
GRIDFORMAT
  1
GRIDFORMAT_BEGIN
 90
        0
 91
        1
 62
     0
 92
       -2
340
0
 93
        0
 40
1.125
309
GRIDFORMAT_END
309
TABLEFORMAT_END
  1
CELLSTYLE_BEGIN
 90
        1
 91
        1
300
_TITLE
309
CELLSTYLE_END
300
CELLSTYLE
  1
TABLEFORMAT_BEGIN
 90
        5
170
     1
 91
        0
 92
        0
 62
   257
 93
        1
300
CONTENTFORMAT
  1
CONTENTFORMAT_BEGIN
 90
        0
 91
        0
 92
      512
 93
        0
300

 40
0.0
140
1.0
 94
        5
 62
     0
340
1F
144
4.5
309
CONTENTFORMAT_END
171
     1
301
MARGIN
  1
CELLMARGIN_BEGIN
 40
1.5
 40
1.5
 40
1.5
 40
1.5
 40
4.5
 40
4.5
309
CELLMARGIN_END
 94
        6
 95
        1
302
GRIDFORMAT
  1
GRIDFORMAT_BEGIN
 90
        0
 91
        1
 62
     0
 92
       -2
340
0
 93
        0
 40
1.125
309
GRIDFORMAT_END
 95
        2
302
GRIDFORMAT
  1
GRIDFORMAT_BEGIN
 90
        0
 91
        1
 62
     0
 92
       -2
340
0
 93
        0
 40
1.125
309
GRIDFORMAT_END
 95
        4
302
GRIDFORMAT
  1
GRIDFORMAT_BEGIN
 90
        0
 91
        1
 62
     0
 92
       -2
340
0
 93
        0
 40
1.125
309
GRIDFORMAT_END
 95
        8
302
GRIDFORMAT
  1
GRIDFORMAT_BEGIN
 90
        0
 91
        1
 62
     0
 92
       -2
340
0
 93
        0
 40
1.125
309
GRIDFORMAT_END
 95
       16
302
GRIDFORMAT
  1
GRIDFORMAT_BEGIN
 90
        0
 91
        1
 62
     0
 92
       -2
340
0
 93
        0
 40
1.125
309
GRIDFORMAT_END
 95
       32
302
GRIDFORMAT
  1
GRIDFORMAT_BEGIN
 90
        0
 91
        1
 62
     0
 92
       -2
340
0
 93
        0
 40
1.125
309
GRIDFORMAT_END
309
TABLEFORMAT_END
  1
CELLSTYLE_BEGIN
 90
        2
 91
        1
300
_HEADER
309
CELLSTYLE_END
300
CELLSTYLE
  1
TABLEFORMAT_BEGIN
 90
        5
170
     1
 91
        0
 92
        0
 62
   257
 93
        1
300
CONTENTFORMAT
  1
CONTENTFORMAT_BEGIN
 90
        0
 91
        0
 92
      512
 93
        0
300

 40
0.0
140
1.0
 94
        2
 62
     0
340
1F
144
4.5
309
CONTENTFORMAT_END
171
     1
301
MARGIN
  1
CELLMARGIN_BEGIN
 40
1.5
 40
1.5
 40
1.5
 40
1.5
 40
4.5
 40
4.5
309
CELLMARGIN_END
 94
        6
 95
        1
302
GRIDFORMAT
  1
GRIDFORMAT_BEGIN
 90
        0
 91
        1
 62
     0
 92
       -2
340
0
 93
        0
 40
1.125
309
GRIDFORMAT_END
 95
        2
302
GRIDFORMAT
  1
GRIDFORMAT_BEGIN
 90
        0
 91
        1
 62
     0
 92
       -2
340
0
 93
        0
 40
1.125
309
GRIDFORMAT_END
 95
        4
302
GRIDFORMAT
  1
GRIDFORMAT_BEGIN
 90
        0
 91
        1
 62
     0
 92
       -2
340
0
 93
        0
 40
1.125
309
GRIDFORMAT_END
 95
        8
302
GRIDFORMAT
  1
GRIDFORMAT_BEGIN
 90
        0
 91
        1
 62
     0
 92
       -2
340
0
 93
        0
 40
1.125
309
GRIDFORMAT_END
 95
       16
302
GRIDFORMAT
  1
GRIDFORMAT_BEGIN
 90
        0
 91
        1
 62
     0
 92
       -2
340
0
 93
        0
 40
1.125
309
GRIDFORMAT_END
 95
       32
302
GRIDFORMAT
  1
GRIDFORMAT_BEGIN
 90
        0
 91
        1
 62
     0
 92
       -2
340
0
 93
        0
 40
1.125
309
GRIDFORMAT_END
309
TABLEFORMAT_END
  1
CELLSTYLE_BEGIN
 90
        3
 91
        2
300
_DATA
309
CELLSTYLE_END
  0
XRECORD
  5
1AB
102
{ACAD_REACTORS
330
19B
102
}
330
19B
100
AcDbXrecord
280
     1
102
ACAD_ROUNDTRIP_PRE2007_TABLESTYLE
 90
      512
 91
        0
  1

 92
      512
 93
        0
  2

 94
      512
 95
        0
  3

  0
XRECORD
  5
1A8
102
{ACAD_REACTORS
330
1A7
102
}
330
1A7
100
AcDbXrecord
280
     1
102
RTVSPost2010Prop28
280
     1
102
RTVSPost2010PropOp28
 70
     1
102
RTVSPost2010Prop29
280
     1
102
RTVSPost2010PropOp29
 70
     1
102
RTVSPost2010Prop30
280
     0
102
RTVSPost2010PropOp30
 70
     1
102
RTVSPost2010Prop31
280
     0
102
RTVSPost2010PropOp31
 70
     1
102
RTVSPost2010Prop32
280
     0
102
RTVSPost2010PropOp32
 70
     1
102
RTVSPost2010Prop33
280
     0
102
RTVSPost2010PropOp33
 70
     1
102
RTVSPost2010Prop34
280
     0
102
RTVSPost2010PropOp34
 70
     1
102
RTVSPost2010Prop35
280
     0
102
RTVSPost2010PropOp35
 70
     1
102
RTVSPost2010Prop36
280
     0
102
RTVSPost2010PropOp36
 70
     1
102
RTVSPost2010Prop37
 90
       50
102
RTVSPost2010PropOp37
 70
     1
102
RTVSPost2010Prop38
140
0.0
102
RTVSPost2010PropOp38
 70
     1
102
RTVSPost2010Prop39
140
1.0
102
RTVSPost2010PropOp39
 70
     1
102
RTVSPost2010Prop40
 90
        0
102
RTVSPost2010PropOp40
 70
     1
102
RTVSPost2010Prop41ColorIndex
 90
       18
102
RTVSPost2010Prop41ColorRGB
 90
        0
102
RTVSPost2010PropOp41
 70
     1
102
RTVSPost2010Prop42
 90
       50
102
RTVSPost2010PropOp42
 70
     1
102
RTVSPost2010Prop43
 90
        3
102
RTVSPost2010PropOp43
 70
     1
102
RTVSPost2010Prop44ColorIndex
 90
        5
102
RTVSPost2010Prop44ColorRGB
 90
      255
102
RTVSPost2010PropOp44
 70
     1
102
RTVSPost2010Prop45
280
     0
102
RTVSPost2010PropOp45
 70
     1
102
RTVSPost2010Prop46
 90
       50
102
RTVSPost2010PropOp46
 70
     1
102
RTVSPost2010Prop47
 90
       50
102
RTVSPost2010PropOp47
 70
     1
102
RTVSPost2010Prop48
 90
       50
102
RTVSPost2010PropOp48
 70
     1
102
RTVSPost2010Prop49
280
     0
102
RTVSPost2010PropOp49
 70
     1
102
RTVSPost2010Prop50
 90
       50
102
RTVSPost2010PropOp50
 70
     1
102
RTVSPost2010Prop51ColorIndex
 90
      256
102
RTVSPost2010Prop51ColorRGB
 90
-16777216
102
RTVSPost2010PropOp51
 70
     0
102
RTVSPost2010Prop52
140
1.0
102
RTVSPost2010PropOp52
 70
     0
102
RTVSPost2010Prop53
 90
        2
102
RTVSPost2010PropOp53
 70
     1
102
RTVSPost2010Prop54
  1
strokes_ogs.tif
102
RTVSPost2010PropOp54
 70
     1
102
RTVSPost2010Prop55
280
     0
102
RTVSPost2010PropOp55
 70
     1
102
RTVSPost2010Prop56
140
1.0
102
RTVSPost2010PropOp56
 70
     1
102
RTVSPost2010Prop57
140
1.0
102
RTVSPost2010PropOp57
 70
     1
102
RTVSPropertyOp0
 70
     1
102
RTVSPropertyOp1
 70
     1
102
RTVSPropertyOp2
 70
     1
102
RTVSPropertyOp3
 70
     1
102
RTVSPropertyOp4
 70
     1
102
RTVSPropertyOp5
 70
     1
102
RTVSPropertyOp6
 70
     1
102
RTVSPropertyOp7
 70
     1
102
RTVSPropertyOp8
 70
     1
102
RTVSPropertyOp9
 70
     1
102
RTVSPropertyOp10
 70
     1
102
RTVSPropertyOp11
 70
     1
102
RTVSPropertyOp12
 70
     1
102
RTVSPropertyOp13
 70
     1
102
RTVSPropertyOp14
 70
     1
102
RTVSPropertyOp15
 70
     1
102
RTVSPropertyOp16
 70
     1
102
RTVSPropertyOp17
 70
     1
102
RTVSPropertyOp18
 70
     1
102
RTVSPropertyOp19
 70
     1
102
RTVSPropertyOp20
 70
     1
102
RTVSPropertyOp21
 70
     1
102
RTVSPropertyOp22
 70
     1
102
RTVSPropertyOp23
 70
     1
102
RTVSPropertyOp24
 70
     1
102
RTVSPropertyOp25
 70
     1
102
RTVSPropertyOp26
 70
     1
102
RTVSPropertyOp27
 70
     1
102
RTVSPropertyOp28
 70
     1
102
RTVSPropertyOp29
 70
     1
102
RTVSPropertyOp30
 70
     1
102
RTVSPropertyOp31
 70
     1
102
RTVSPropertyOp32
 70
     1
102
RTVSPropertyOp33
 70
     1
102
RTVSPropertyOp34
 70
     1
102
RTVSPropertyOp35
 70
     1
102
RTVSPropertyOp36
 70
     1
102
RTVSPropertyOp37
 70
     1
102
RTVSPropertyOp38
 70
     1
102
RTVSPropertyOp39
 70
     1
102
RTVSPropertyOp40
 70
     1
102
RTVSPropertyOp41
 70
     1
102
RTVSPropertyOp42
 70
     1
102
RTVSPropertyOp43
 70
     1
102
RTVSPropertyOp44
 70
     1
102
RTVSPropertyOp45
 70
     1
102
RTVSPropertyOp46
 70
     1
102
RTVSPropertyOp47
 70
     1
102
RTVSPropertyOp48
 70
     1
102
RTVSPropertyOp49
 70
     1
102
RTVSPropertyOp50
 70
     1
102
RTVSPropertyOp51
 70
     0
102
RTVSPropertyOp52
 70
     0
102
RTVSPropertyOp53
 70
     1
102
RTVSPropertyOp54
 70
     1
102
RTVSPropertyOp55
 70
     1
102
RTVSPropertyOp56
 70
     1
102
RTVSPropertyOp57
 70
     1
102
RTVSPropertyOp58
 70
     1
102
RTVSPropertyOp59
 70
     1
102
RTVSPropertyOp60
 70
     1
102
RTVSPropertyOp61
 70
     1
102
RTVSPropertyOp62
 70
     1
  0
XRECORD
  5
1AD
102
{ACAD_REACTORS
330
1AC
102
}
330
1AC
100
AcDbXrecord
280
     1
102
RTVSPost2010Prop28
280
     0
102
RTVSPost2010PropOp28
 70
     1
102
RTVSPost2010Prop29
280
     1
102
RTVSPost2010PropOp29
 70
     1
102
RTVSPost2010Prop30
280
     1
102
RTVSPost2010PropOp30
 70
     1
102
RTVSPost2010Prop31
280
     0
102
RTVSPost2010PropOp31
 70
     1
102
RTVSPost2010Prop32
280
     0
102
RTVSPost2010PropOp32
 70
     1
102
RTVSPost2010Prop33
280
     0
102
RTVSPost2010PropOp33
 70
     1
102
RTVSPost2010Prop34
280
     0
102
RTVSPost2010PropOp34
 70
     1
102
RTVSPost2010Prop35
280
     0
102
RTVSPost2010PropOp35
 70
     1
102
RTVSPost2010Prop36
280
     0
102
RTVSPost2010PropOp36
 70
     1
102
RTVSPost2010Prop37
 90
       50
102
RTVSPost2010PropOp37
 70
     1
102
RTVSPost2010Prop38
140
0.0
102
RTVSPost2010PropOp38
 70
     1
102
RTVSPost2010Prop39
140
1.0
102
RTVSPost2010PropOp39
 70
     1
102
RTVSPost2010Prop40
 90
        0
102
RTVSPost2010PropOp40
 70
     1
102
RTVSPost2010Prop41ColorIndex
 90
       18
102
RTVSPost2010Prop41ColorRGB
 90
        0
102
RTVSPost2010PropOp41
 70
     1
102
RTVSPost2010Prop42
 90
       50
102
RTVSPost2010PropOp42
 70
     1
102
RTVSPost2010Prop43
 90
        3
102
RTVSPost2010PropOp43
 70
     1
102
RTVSPost2010Prop44ColorIndex
 90
        5
102
RTVSPost2010Prop44ColorRGB
 90
      255
102
RTVSPost2010PropOp44
 70
     1
102
RTVSPost2010Prop45
280
     0
102
RTVSPost2010PropOp45
 70
     1
102
RTVSPost2010Prop46
 90
       50
102
RTVSPost2010PropOp46
 70
     1
102
RTVSPost2010Prop47
 90
       50
102
RTVSPost2010PropOp47
 70
     1
102
RTVSPost2010Prop48
 90
       50
102
RTVSPost2010PropOp48
 70
     1
102
RTVSPost2010Prop49
280
     0
102
RTVSPost2010PropOp49
 70
     1
102
RTVSPost2010Prop50
 90
       50
102
RTVSPost2010PropOp50
 70
     1
102
RTVSPost2010Prop51ColorIndex
 90
      256
102
RTVSPost2010Prop51ColorRGB
 90
-16777216
102
RTVSPost2010PropOp51
 70
     0
102
RTVSPost2010Prop52
140
1.0
102
RTVSPost2010PropOp52
 70
     0
102
RTVSPost2010Prop53
 90
        2
102
RTVSPost2010PropOp53
 70
     1
102
RTVSPost2010Prop54
  1
strokes_ogs.tif
102
RTVSPost2010PropOp54
 70
     1
102
RTVSPost2010Prop55
280
     0
102
RTVSPost2010PropOp55
 70
     1
102
RTVSPost2010Prop56
140
1.0
102
RTVSPost2010PropOp56
 70
     1
102
RTVSPost2010Prop57
140
1.0
102
RTVSPost2010PropOp57
 70
     1
102
RTVSPropertyOp0
 70
     1
102
RTVSPropertyOp1
 70
     1
102
RTVSPropertyOp2
 70
     1
102
RTVSPropertyOp3
 70
     1
102
RTVSPropertyOp4
 70
     1
102
RTVSPropertyOp5
 70
     1
102
RTVSPropertyOp6
 70
     1
102
RTVSPropertyOp7
 70
     1
102
RTVSPropertyOp8
 70
     1
102
RTVSPropertyOp9
 70
     1
102
RTVSPropertyOp10
 70
     1
102
RTVSPropertyOp11
 70
     1
102
RTVSPropertyOp12
 70
     1
102
RTVSPropertyOp13
 70
     1
102
RTVSPropertyOp14
 70
     1
102
RTVSPropertyOp15
 70
     1
102
RTVSPropertyOp16
 70
     1
102
RTVSPropertyOp17
 70
     1
102
RTVSPropertyOp18
 70
     1
102
RTVSPropertyOp19
 70
     1
102
RTVSPropertyOp20
 70
     1
102
RTVSPropertyOp21
 70
     1
102
RTVSPropertyOp22
 70
     1
102
RTVSPropertyOp23
 70
     1
102
RTVSPropertyOp24
 70
     1
102
RTVSPropertyOp25
 70
     1
102
RTVSPropertyOp26
 70
     1
102
RTVSPropertyOp27
 70
     1
102
RTVSPropertyOp28
 70
     1
102
RTVSPropertyOp29
 70
     1
102
RTVSPropertyOp30
 70
     1
102
RTVSPropertyOp31
 70
     1
102
RTVSPropertyOp32
 70
     1
102
RTVSPropertyOp33
 70
     1
102
RTVSPropertyOp34
 70
     1
102
RTVSPropertyOp35
 70
     1
102
RTVSPropertyOp36
 70
     1
102
RTVSPropertyOp37
 70
     1
102
RTVSPropertyOp38
 70
     1
102
RTVSPropertyOp39
 70
     1
102
RTVSPropertyOp40
 70
     1
102
RTVSPropertyOp41
 70
     1
102
RTVSPropertyOp42
 70
     1
102
RTVSPropertyOp43
 70
     1
102
RTVSPropertyOp44
 70
     1
102
RTVSPropertyOp45
 70
     1
102
RTVSPropertyOp46
 70
     1
102
RTVSPropertyOp47
 70
     1
102
RTVSPropertyOp48
 70
     1
102
RTVSPropertyOp49
 70
     1
102
RTVSPropertyOp50
 70
     1
102
RTVSPropertyOp51
 70
     0
102
RTVSPropertyOp52
 70
     0
102
RTVSPropertyOp53
 70
     1
102
RTVSPropertyOp54
 70
     1
102
RTVSPropertyOp55
 70
     1
102
RTVSPropertyOp56
 70
     1
102
RTVSPropertyOp57
 70
     1
102
RTVSPropertyOp58
 70
     1
102
RTVSPropertyOp59
 70
     1
102
RTVSPropertyOp60
 70
     1
102
RTVSPropertyOp61
 70
     1
102
RTVSPropertyOp62
 70
     1
  0
XRECORD
  5
1AF
102
{ACAD_REACTORS
330
1AE
102
}
330
1AE
100
AcDbXrecord
280
     1
102
RTVSPost2010Prop28
280
     0
102
RTVSPost2010PropOp28
 70
     1
102
RTVSPost2010Prop29
280
     1
102
RTVSPost2010PropOp29
 70
     1
102
RTVSPost2010Prop30
280
     1
102
RTVSPost2010PropOp30
 70
     1
102
RTVSPost2010Prop31
280
     0
102
RTVSPost2010PropOp31
 70
     1
102
RTVSPost2010Prop32
280
     0
102
RTVSPost2010PropOp32
 70
     1
102
RTVSPost2010Prop33
280
     0
102
RTVSPost2010PropOp33
 70
     1
102
RTVSPost2010Prop34
280
     0
102
RTVSPost2010PropOp34
 70
     1
102
RTVSPost2010Prop35
280
     0
102
RTVSPost2010PropOp35
 70
     1
102
RTVSPost2010Prop36
280
     0
102
RTVSPost2010PropOp36
 70
     1
102
RTVSPost2010Prop37
 90
       50
102
RTVSPost2010PropOp37
 70
     1
102
RTVSPost2010Prop38
140
0.0
102
RTVSPost2010PropOp38
 70
     1
102
RTVSPost2010Prop39
140
1.0
102
RTVSPost2010PropOp39
 70
     1
102
RTVSPost2010Prop40
 90
        0
102
RTVSPost2010PropOp40
 70
     1
102
RTVSPost2010Prop41ColorIndex
 90
       18
102
RTVSPost2010Prop41ColorRGB
 90
        0
102
RTVSPost2010PropOp41
 70
     1
102
RTVSPost2010Prop42
 90
       50
102
RTVSPost2010PropOp42
 70
     1
102
RTVSPost2010Prop43
 90
        3
102
RTVSPost2010PropOp43
 70
     1
102
RTVSPost2010Prop44ColorIndex
 90
        5
102
RTVSPost2010Prop44ColorRGB
 90
      255
102
RTVSPost2010PropOp44
 70
     1
102
RTVSPost2010Prop45
280
     0
102
RTVSPost2010PropOp45
 70
     1
102
RTVSPost2010Prop46
 90
       50
102
RTVSPost2010PropOp46
 70
     1
102
RTVSPost2010Prop47
 90
       50
102
RTVSPost2010PropOp47
 70
     1
102
RTVSPost2010Prop48
 90
       50
102
RTVSPost2010PropOp48
 70
     1
102
RTVSPost2010Prop49
280
     0
102
RTVSPost2010PropOp49
 70
     1
102
RTVSPost2010Prop50
 90
       50
102
RTVSPost2010PropOp50
 70
     1
102
RTVSPost2010Prop51ColorIndex
 90
      256
102
RTVSPost2010Prop51ColorRGB
 90
-16777216
102
RTVSPost2010PropOp51
 70
     0
102
RTVSPost2010Prop52
140
1.0
102
RTVSPost2010PropOp52
 70
     0
102
RTVSPost2010Prop53
 90
        2
102
RTVSPost2010PropOp53
 70
     1
102
RTVSPost2010Prop54
  1
strokes_ogs.tif
102
RTVSPost2010PropOp54
 70
     1
102
RTVSPost2010Prop55
280
     0
102
RTVSPost2010PropOp55
 70
     1
102
RTVSPost2010Prop56
140
1.0
102
RTVSPost2010PropOp56
 70
     1
102
RTVSPost2010Prop57
140
1.0
102
RTVSPost2010PropOp57
 70
     1
102
RTVSPropertyOp0
 70
     1
102
RTVSPropertyOp1
 70
     1
102
RTVSPropertyOp2
 70
     1
102
RTVSPropertyOp3
 70
     1
102
RTVSPropertyOp4
 70
     1
102
RTVSPropertyOp5
 70
     1
102
RTVSPropertyOp6
 70
     1
102
RTVSPropertyOp7
 70
     1
102
RTVSPropertyOp8
 70
     1
102
RTVSPropertyOp9
 70
     1
102
RTVSPropertyOp10
 70
     1
102
RTVSPropertyOp11
 70
     1
102
RTVSPropertyOp12
 70
     1
102
RTVSPropertyOp13
 70
     1
102
RTVSPropertyOp14
 70
     1
102
RTVSPropertyOp15
 70
     1
102
RTVSPropertyOp16
 70
     1
102
RTVSPropertyOp17
 70
     1
102
RTVSPropertyOp18
 70
     1
102
RTVSPropertyOp19
 70
     1
102
RTVSPropertyOp20
 70
     1
102
RTVSPropertyOp21
 70
     1
102
RTVSPropertyOp22
 70
     1
102
RTVSPropertyOp23
 70
     1
102
RTVSPropertyOp24
 70
     1
102
RTVSPropertyOp25
 70
     1
102
RTVSPropertyOp26
 70
     1
102
RTVSPropertyOp27
 70
     1
102
RTVSPropertyOp28
 70
     1
102
RTVSPropertyOp29
 70
     1
102
RTVSPropertyOp30
 70
     1
102
RTVSPropertyOp31
 70
     1
102
RTVSPropertyOp32
 70
     1
102
RTVSPropertyOp33
 70
     1
102
RTVSPropertyOp34
 70
     1
102
RTVSPropertyOp35
 70
     1
102
RTVSPropertyOp36
 70
     1
102
RTVSPropertyOp37
 70
     1
102
RTVSPropertyOp38
 70
     1
102
RTVSPropertyOp39
 70
     1
102
RTVSPropertyOp40
 70
     1
102
RTVSPropertyOp41
 70
     1
102
RTVSPropertyOp42
 70
     1
102
RTVSPropertyOp43
 70
     1
102
RTVSPropertyOp44
 70
     1
102
RTVSPropertyOp45
 70
     1
102
RTVSPropertyOp46
 70
     1
102
RTVSPropertyOp47
 70
     1
102
RTVSPropertyOp48
 70
     1
102
RTVSPropertyOp49
 70
     1
102
RTVSPropertyOp50
 70
     1
102
RTVSPropertyOp51
 70
     0
102
RTVSPropertyOp52
 70
     0
102
RTVSPropertyOp53
 70
     1
102
RTVSPropertyOp54
 70
     1
102
RTVSPropertyOp55
 70
     1
102
RTVSPropertyOp56
 70
     1
102
RTVSPropertyOp57
 70
     1
102
RTVSPropertyOp58
 70
     1
102
RTVSPropertyOp59
 70
     1
102
RTVSPropertyOp60
 70
     1
102
RTVSPropertyOp61
 70
     1
102
RTVSPropertyOp62
 70
     1
  0
ENDSEC
  0
EOF
