  0
SECTION
  2
HEADER
  9
$ACADVER
  1
AC1032
  9
$ACADMAINTVER
 90
      174
  9
$DWGCODEPAGE
  3
ANSI_932
  9
$LASTSAVEDBY
  1
c23053
  9
$REQUIREDVERSIONS
160
                 0
  9
$INSBASE
 10
0.0
 20
0.0
 30
0.0
  9
$EXTMIN
 10
351.8884291219158
 20
246.4788217792273
 30
-0.0015258207003583
  9
$EXTMAX
 10
401.9082651169835
 20
268.0278174302399
 30
0.0000000349246037
  9
$LIMMIN
 10
341.173226325609
 20
234.8038437708401
  9
$LIMMAX
 10
411.491102617485
 20
277.5110225619519
  9
$ORTHOMODE
 70
     1
  9
$REGENMODE
 70
     1
  9
$FILLMODE
 70
     1
  9
$QTEXTMODE
 70
     0
  9
$MIRRTEXT
 70
     0
  9
$LTSCALE
 40
1.0
  9
$ATTMODE
 70
     1
  9
$TEXTSIZE
 40
2.5
  9
$TRACEWID
 40
1.0
  9
$TEXTSTYLE
  7
Standard
  9
$CLAYER
  8
0
  9
$CELTYPE
  6
ByLayer
  9
$CECOLOR
 62
   256
  9
$CELTSCALE
 40
1.0
  9
$DISPSILH
 70
     0
  9
$DIMSCALE
 40
1.0
  9
$DIMASZ
 40
2.5
  9
$DIMEXO
 40
0.625
  9
$DIMDLI
 40
3.75
  9
$DIMRND
 40
0.0
  9
$DIMDLE
 40
0.0
  9
$DIMEXE
 40
1.25
  9
$DIMTP
 40
0.0
  9
$DIMTM
 40
0.0
  9
$DIMTXT
 40
2.5
  9
$DIMCEN
 40
2.5
  9
$DIMTSZ
 40
0.0
  9
$DIMTOL
 70
     0
  9
$DIMLIM
 70
     0
  9
$DIMTIH
 70
     0
  9
$DIMTOH
 70
     0
  9
$DIMSE1
 70
     0
  9
$DIMSE2
 70
     0
  9
$DIMTAD
 70
     1
  9
$DIMZIN
 70
     8
  9
$DIMBLK
  1

  9
$DIMASO
 70
     1
  9
$DIMSHO
 70
     1
  9
$DIMPOST
  1

  9
$DIMAPOST
  1

  9
$DIMALT
 70
     0
  9
$DIMALTD
 70
     3
  9
$DIMALTF
 40
0.03937007874016
  9
$DIMLFAC
 40
1.0
  9
$DIMTOFL
 70
     1
  9
$DIMTVP
 40
0.0
  9
$DIMTIX
 70
     0
  9
$DIMSOXD
 70
     0
  9
$DIMSAH
 70
     0
  9
$DIMBLK1
  1

  9
$DIMBLK2
  1

  9
$DIMSTYLE
  2
ISO-25
  9
$DIMCLRD
 70
     0
  9
$DIMCLRE
 70
     0
  9
$DIMCLRT
 70
     0
  9
$DIMTFAC
 40
1.0
  9
$DIMGAP
 40
0.625
  9
$DIMJUST
 70
     0
  9
$DIMSD1
 70
     0
  9
$DIMSD2
 70
     0
  9
$DIMTOLJ
 70
     0
  9
$DIMTZIN
 70
     8
  9
$DIMALTZ
 70
     0
  9
$DIMALTTZ
 70
     0
  9
$DIMUPT
 70
     0
  9
$DIMDEC
 70
     2
  9
$DIMTDEC
 70
     2
  9
$DIMALTU
 70
     2
  9
$DIMALTTD
 70
     3
  9
$DIMTXSTY
  7
Standard
  9
$DIMAUNIT
 70
     0
  9
$DIMADEC
 70
     0
  9
$DIMALTRND
 40
0.0
  9
$DIMAZIN
 70
     0
  9
$DIMDSEP
 70
    44
  9
$DIMATFIT
 70
     3
  9
$DIMFRAC
 70
     0
  9
$DIMLDRBLK
  1

  9
$DIMLUNIT
 70
     2
  9
$DIMLWD
 70
    -2
  9
$DIMLWE
 70
    -2
  9
$DIMTMOVE
 70
     0
  9
$DIMFXL
 40
1.0
  9
$DIMFXLON
 70
     0
  9
$DIMJOGANG
 40
0.7853981633974483
  9
$DIMTFILL
 70
     0
  9
$DIMTFILLCLR
 70
     0
  9
$DIMARCSYM
 70
     0
  9
$DIMLTYPE
  6

  9
$DIMLTEX1
  6

  9
$DIMLTEX2
  6

  9
$DIMTXTDIRECTION
 70
     0
  9
$LUNITS
 70
     2
  9
$LUPREC
 70
     4
  9
$SKETCHINC
 40
1.0
  9
$FILLETRAD
 40
0.0
  9
$AUNITS
 70
     0
  9
$AUPREC
 70
     0
  9
$MENU
  1
.
  9
$ELEVATION
 40
0.0
  9
$PELEVATION
 40
0.0
  9
$THICKNESS
 40
0.0
  9
$LIMCHECK
 70
     0
  9
$CHAMFERA
 40
0.0
  9
$CHAMFERB
 40
0.0
  9
$CHAMFERC
 40
0.0
  9
$CHAMFERD
 40
0.0
  9
$SKPOLY
 70
     0
  9
$TDCREATE
 40
2459509.607997685
  9
$TDUCREATE
 40
2459509.274664352
  9
$TDUPDATE
 40
2459509.609305555
  9
$TDUUPDATE
 40
2459509.275972223
  9
$TDINDWG
 40
0.0013078704
  9
$TDUSRTIMER
 40
0.0013078704
  9
$USRTIMER
 70
     1
  9
$ANGBASE
 50
0.0
  9
$ANGDIR
 70
     0
  9
$PDMODE
 70
     0
  9
$PDSIZE
 40
0.0
  9
$PLINEWID
 40
0.0
  9
$SPLFRAME
 70
     0
  9
$SPLINETYPE
 70
     6
  9
$SPLINESEGS
 70
     8
  9
$HANDSEED
  5
62D
  9
$SURFTAB1
 70
     6
  9
$SURFTAB2
 70
     6
  9
$SURFTYPE
 70
     6
  9
$SURFU
 70
     6
  9
$SURFV
 70
     6
  9
$UCSBASE
  2

  9
$UCSNAME
  2

  9
$UCSORG
 10
0.0
 20
0.0
 30
0.0
  9
$UCSXDIR
 10
1.0
 20
0.0
 30
0.0
  9
$UCSYDIR
 10
0.0
 20
1.0
 30
0.0
  9
$UCSORTHOREF
  2

  9
$UCSORTHOVIEW
 70
     0
  9
$UCSORGTOP
 10
0.0
 20
0.0
 30
0.0
  9
$UCSORGBOTTOM
 10
0.0
 20
0.0
 30
0.0
  9
$UCSORGLEFT
 10
0.0
 20
0.0
 30
0.0
  9
$UCSORGRIGHT
 10
0.0
 20
0.0
 30
0.0
  9
$UCSORGFRONT
 10
0.0
 20
0.0
 30
0.0
  9
$UCSORGBACK
 10
0.0
 20
0.0
 30
0.0
  9
$PUCSBASE
  2

  9
$PUCSNAME
  2

  9
$PUCSORG
 10
0.0
 20
0.0
 30
0.0
  9
$PUCSXDIR
 10
1.0
 20
0.0
 30
0.0
  9
$PUCSYDIR
 10
0.0
 20
1.0
 30
0.0
  9
$PUCSORTHOREF
  2

  9
$PUCSORTHOVIEW
 70
     0
  9
$PUCSORGTOP
 10
0.0
 20
0.0
 30
0.0
  9
$PUCSORGBOTTOM
 10
0.0
 20
0.0
 30
0.0
  9
$PUCSORGLEFT
 10
0.0
 20
0.0
 30
0.0
  9
$PUCSORGRIGHT
 10
0.0
 20
0.0
 30
0.0
  9
$PUCSORGFRONT
 10
0.0
 20
0.0
 30
0.0
  9
$PUCSORGBACK
 10
0.0
 20
0.0
 30
0.0
  9
$USERI1
 70
     0
  9
$USERI2
 70
     0
  9
$USERI3
 70
     0
  9
$USERI4
 70
     0
  9
$USERI5
 70
     0
  9
$USERR1
 40
0.0
  9
$USERR2
 40
0.0
  9
$USERR3
 40
0.0
  9
$USERR4
 40
0.0
  9
$USERR5
 40
0.0
  9
$WORLDVIEW
 70
     1
  9
$SHADEDGE
 70
     3
  9
$SHADEDIF
 70
    70
  9
$TILEMODE
 70
     1
  9
$MAXACTVP
 70
    64
  9
$PINSBASE
 10
0.0
 20
0.0
 30
0.0
  9
$PLIMCHECK
 70
     0
  9
$PEXTMIN
 10
0.0
 20
0.0
 30
0.0
  9
$PEXTMAX
 10
0.0
 20
0.0
 30
0.0
  9
$PLIMMIN
 10
0.0
 20
0.0
  9
$PLIMMAX
 10
12.0
 20
9.0
  9
$UNITMODE
 70
     0
  9
$VISRETAIN
 70
     1
  9
$PLINEGEN
 70
     0
  9
$PSLTSCALE
 70
     1
  9
$TREEDEPTH
 70
  3020
  9
$CMLSTYLE
  2
Standard
  9
$CMLJUST
 70
     0
  9
$CMLSCALE
 40
20.0
  9
$PROXYGRAPHICS
 70
     1
  9
$MEASUREMENT
 70
     1
  9
$CELWEIGHT
370
    -1
  9
$ENDCAPS
280
     0
  9
$JOINSTYLE
280
     0
  9
$LWDISPLAY
290
     0
  9
$INSUNITS
 70
     4
  9
$HYPERLINKBASE
  1

  9
$STYLESHEET
  1

  9
$XEDIT
290
     1
  9
$CEPSNTYPE
380
     0
  9
$PSTYLEMODE
290
     1
  9
$FINGERPRINTGUID
  2
{1B69ED2B-807B-A247-A7EF-E2C3FE5E7DFA}
  9
$VERSIONGUID
  2
{2B866A0D-050F-7743-81F9-FA61A4DEAF6B}
  9
$EXTNAMES
290
     1
  9
$PSVPSCALE
 40
0.0
  9
$OLESTARTUP
290
     0
  9
$SORTENTS
280
   127
  9
$INDEXCTL
280
     0
  9
$HIDETEXT
280
     1
  9
$XCLIPFRAME
280
     2
  9
$HALOGAP
280
     0
  9
$OBSCOLOR
 70
   257
  9
$OBSLTYPE
280
     0
  9
$INTERSECTIONDISPLAY
280
     0
  9
$INTERSECTIONCOLOR
 70
   257
  9
$DIMASSOC
280
     2
  9
$PROJECTNAME
  1

  9
$CAMERADISPLAY
290
     0
  9
$LENSLENGTH
 40
50.0
  9
$CAMERAHEIGHT
 40
0.0
  9
$STEPSPERSEC
 40
2.0
  9
$STEPSIZE
 40
6.0
  9
$3DDWFPREC
 40
2.0
  9
$PSOLWIDTH
 40
5.0
  9
$PSOLHEIGHT
 40
80.0
  9
$LOFTANG1
 40
1.570796326794896
  9
$LOFTANG2
 40
1.570796326794896
  9
$LOFTMAG1
 40
0.0
  9
$LOFTMAG2
 40
0.0
  9
$LOFTPARAM
 70
     7
  9
$LOFTNORMALS
280
     1
  9
$LATITUDE
 40
37.795
  9
$LONGITUDE
 40
-122.394
  9
$NORTHDIRECTION
 40
0.0
  9
$TIMEZONE
 70
 -8000
  9
$LIGHTGLYPHDISPLAY
280
     1
  9
$TILEMODELIGHTSYNCH
280
     1
  9
$CMATERIAL
347
EC
  9
$SOLIDHIST
280
     0
  9
$SHOWHIST
280
     1
  9
$DWFFRAME
280
     2
  9
$DGNFRAME
280
     0
  9
$REALWORLDSCALE
290
     1
  9
$INTERFERECOLOR
 62
     1
  9
$INTERFEREOBJVS
345
F9
  9
$INTERFEREVPVS
346
F6
  9
$CSHADOW
280
     0
  9
$SHADOWPLANELOCATION
 40
0.0
  0
ENDSEC
  0
SECTION
  2
CLASSES
  0
CLASS
  1
ACDBDICTIONARYWDFLT
  2
AcDbDictionaryWithDefault
  3
ObjectDBX Classes
 90
        0
 91
        1
280
     0
281
     0
  0
CLASS
  1
DICTIONARYVAR
  2
AcDbDictionaryVar
  3
ObjectDBX Classes
 90
        0
 91
       11
280
     0
281
     0
  0
CLASS
  1
TABLESTYLE
  2
AcDbTableStyle
  3
ObjectDBX Classes
 90
     4095
 91
        1
280
     0
281
     0
  0
CLASS
  1
MATERIAL
  2
AcDbMaterial
  3
ObjectDBX Classes
 90
     1153
 91
        3
280
     0
281
     0
  0
CLASS
  1
VISUALSTYLE
  2
AcDbVisualStyle
  3
ObjectDBX Classes
 90
     4095
 91
       24
280
     0
281
     0
  0
CLASS
  1
SCALE
  2
AcDbScale
  3
ObjectDBX Classes
 90
     1153
 91
       17
280
     0
281
     0
  0
CLASS
  1
MLEADERSTYLE
  2
AcDbMLeaderStyle
  3
ACDB_MLEADERSTYLE_CLASS
 90
     4095
 91
        2
280
     0
281
     0
  0
CLASS
  1
CELLSTYLEMAP
  2
AcDbCellStyleMap
  3
ObjectDBX Classes
 90
     1152
 91
        1
280
     0
281
     0
  0
CLASS
  1
EXACXREFPANELOBJECT
  2
ExAcXREFPanelObject
  3
EXAC_ESW
 90
     1025
 91
        0
280
     0
281
     0
  0
CLASS
  1
NPOCOLLECTION
  2
AcDbImpNonPersistentObjectsCollection
  3
ObjectDBX Classes
 90
     1153
 91
        0
280
     0
281
     0
  0
CLASS
  1
LAYER_INDEX
  2
AcDbLayerIndex
  3
ObjectDBX Classes
 90
        0
 91
        0
280
     0
281
     0
  0
CLASS
  1
SPATIAL_INDEX
  2
AcDbSpatialIndex
  3
ObjectDBX Classes
 90
        0
 91
        0
280
     0
281
     0
  0
CLASS
  1
IDBUFFER
  2
AcDbIdBuffer
  3
ObjectDBX Classes
 90
        0
 91
        0
280
     0
281
     0
  0
CLASS
  1
ACDBSECTIONVIEWSTYLE
  2
AcDbSectionViewStyle
  3
ObjectDBX Classes
 90
     1025
 91
        1
280
     0
281
     0
  0
CLASS
  1
ACDBDETAILVIEWSTYLE
  2
AcDbDetailViewStyle
  3
ObjectDBX Classes
 90
     1025
 91
        1
280
     0
281
     0
  0
CLASS
  1
DIMASSOC
  2
AcDbDimAssoc
  3
"AcDbDimAssoc|Product Desc:     AcDim ARX App For Dimension|Company:          Autodesk, Inc.|WEB Address:      www.autodesk.com"
 90
        0
 91
        2
280
     0
281
     0
  0
ENDSEC
  0
SECTION
  2
TABLES
  0
TABLE
  2
VPORT
  5
8
330
0
100
AcDbSymbolTable
 70
     1
  0
VPORT
  5
EA
330
8
100
AcDbSymbolTableRecord
100
AcDbViewportTableRecord
  2
*Active
 70
     0
 10
0.0
 20
0.0
 11
1.0
 21
1.0
 12
376.332164471547
 22
256.157433166396
 13
0.0
 23
0.0
 14
10.0
 24
10.0
 15
10.0
 25
10.0
 16
0.0
 26
0.0
 36
1.0
 17
0.0
 27
0.0
 37
0.0
 40
42.92107117236946
 41
2.137844611528822
 42
50.0
 43
0.0
 44
0.0
 50
0.0
 51
0.0
 71
     0
 72
  1000
 73
     1
 74
     3
 75
     0
 76
     1
 77
     0
 78
     0
281
     0
 65
     1
110
0.0
120
0.0
130
0.0
111
1.0
121
0.0
131
0.0
112
0.0
122
1.0
132
0.0
 79
     0
146
0.0
348
F5
 60
     3
 61
     5
292
     1
282
     1
141
0.0
142
0.0
 63
   250
421
  3355443
1001
ACAD_NAV_VCDISPLAY
1070
     3
  0
ENDTAB
  0
TABLE
  2
LTYPE
  5
5
330
0
100
AcDbSymbolTable
 70
     2
  0
LTYPE
  5
14
330
5
100
AcDbSymbolTableRecord
100
AcDbLinetypeTableRecord
  2
ByBlock
 70
     0
  3

 72
    65
 73
     0
 40
0.0
  0
LTYPE
  5
15
330
5
100
AcDbSymbolTableRecord
100
AcDbLinetypeTableRecord
  2
ByLayer
 70
     0
  3

 72
    65
 73
     0
 40
0.0
  0
LTYPE
  5
16
330
5
100
AcDbSymbolTableRecord
100
AcDbLinetypeTableRecord
  2
Continuous
 70
     0
  3
Solid line
 72
    65
 73
     0
 40
0.0
  0
ENDTAB
  0
TABLE
  2
LAYER
  5
2
102
{ACAD_XDICTIONARY
360
1FF
102
}
330
0
100
AcDbSymbolTable
 70
     2
  0
LAYER
  5
10
102
{ACAD_XDICTIONARY
360
13C
102
}
330
2
100
AcDbSymbolTableRecord
100
AcDbLayerTableRecord
  2
0
 70
     0
 62
     7
  6
Continuous
370
    -3
390
F
347
EE
348
0
  0
LAYER
  5
5E9
330
2
100
AcDbSymbolTableRecord
100
AcDbLayerTableRecord
  2
Defpoints
 70
     0
 62
     7
  6
Continuous
290
     0
370
    -3
390
F
347
EE
348
0
  0
ENDTAB
  0
TABLE
  2
STYLE
  5
3
330
0
100
AcDbSymbolTable
 70
     2
  0
STYLE
  5
11
330
3
100
AcDbSymbolTableRecord
100
AcDbTextStyleTableRecord
  2
Standard
 70
     0
 40
0.0
 41
1.0
 50
0.0
 71
     0
 42
2.5
  3
arial.ttf
  4

1001
ACAD
1000
Arial
1071
       34
  0
STYLE
  5
132
330
3
100
AcDbSymbolTableRecord
100
AcDbTextStyleTableRecord
  2
Annotative
 70
     0
 40
0.0
 41
1.0
 50
0.0
 71
     0
 42
2.5
  3
arial.ttf
  4

1001
AcadAnnotative
1000
AnnotativeData
1002
{
1070
     1
1070
     1
1002
}
1001
ACAD
1000
Arial
1071
       34
  0
ENDTAB
  0
TABLE
  2
VIEW
  5
6
330
0
100
AcDbSymbolTable
 70
     0
  0
ENDTAB
  0
TABLE
  2
UCS
  5
7
330
0
100
AcDbSymbolTable
 70
     0
  0
ENDTAB
  0
TABLE
  2
APPID
  5
9
330
0
100
AcDbSymbolTable
 70
     9
  0
APPID
  5
12
330
9
100
AcDbSymbolTableRecord
100
AcDbRegAppTableRecord
  2
ACAD
 70
     0
  0
APPID
  5
9E
330
9
100
AcDbSymbolTableRecord
100
AcDbRegAppTableRecord
  2
ACAD_PSEXT
 70
     0
  0
APPID
  5
133
330
9
100
AcDbSymbolTableRecord
100
AcDbRegAppTableRecord
  2
AcadAnnoPO
 70
     0
  0
APPID
  5
134
330
9
100
AcDbSymbolTableRecord
100
AcDbRegAppTableRecord
  2
AcadAnnotative
 70
     0
  0
APPID
  5
135
330
9
100
AcDbSymbolTableRecord
100
AcDbRegAppTableRecord
  2
ACAD_DSTYLE_DIMJAG
 70
     0
  0
APPID
  5
136
330
9
100
AcDbSymbolTableRecord
100
AcDbRegAppTableRecord
  2
ACAD_DSTYLE_DIMTALN
 70
     0
  0
APPID
  5
165
330
9
100
AcDbSymbolTableRecord
100
AcDbRegAppTableRecord
  2
ACAD_MLEADERVER
 70
     0
  0
APPID
  5
217
330
9
100
AcDbSymbolTableRecord
100
AcDbRegAppTableRecord
  2
ACAD_NAV_VCDISPLAY
 70
     0
  0
APPID
  5
5DF
330
9
100
AcDbSymbolTableRecord
100
AcDbRegAppTableRecord
  2
ACAD_EXEMPT_FROM_CAD_STANDARDS
 70
     0
  0
ENDTAB
  0
TABLE
  2
DIMSTYLE
  5
A
330
0
100
AcDbSymbolTable
 70
     4
100
AcDbDimStyleTable
 71
     2
340
27
340
137
  0
DIMSTYLE
105
1B0
330
A
100
AcDbSymbolTableRecord
100
AcDbDimStyleTableRecord
  2
Standard
 70
     0
340
11
  0
DIMSTYLE
105
137
330
A
100
AcDbSymbolTableRecord
100
AcDbDimStyleTableRecord
  2
Annotative
 70
     0
 40
0.0
 41
2.5
 42
0.625
 43
3.75
 44
1.25
 73
     0
 74
     0
 77
     1
 78
     8
140
2.5
141
2.5
143
0.03937007874016
147
0.625
171
     3
172
     1
271
     2
272
     2
274
     3
278
    44
283
     0
284
     8
340
11
1001
AcadAnnotative
1000
AnnotativeData
1002
{
1070
     1
1070
     1
1002
}
1001
ACAD_DSTYLE_DIMJAG
1070
   388
1040
1.5
1001
ACAD_DSTYLE_DIMTALN
1070
   392
1070
     0
  0
DIMSTYLE
105
27
330
A
100
AcDbSymbolTableRecord
100
AcDbDimStyleTableRecord
  2
ISO-25
 70
     0
 41
2.5
 42
0.625
 43
3.75
 44
1.25
 73
     0
 74
     0
 77
     1
 78
     8
140
2.5
141
2.5
143
0.03937007874016
147
0.625
171
     3
172
     1
271
     2
272
     2
274
     3
278
    44
283
     0
284
     8
340
11
  0
ENDTAB
  0
TABLE
  2
BLOCK_RECORD
  5
1
330
0
100
AcDbSymbolTable
 70
     5
  0
BLOCK_RECORD
  5
1F
102
{ACAD_XDICTIONARY
360
1CE
102
}
330
1
100
AcDbSymbolTableRecord
100
AcDbBlockTableRecord
  2
*Model_Space
340
22
 70
     0
280
     1
281
     0
  0
BLOCK_RECORD
  5
D2
330
1
100
AcDbSymbolTableRecord
100
AcDbBlockTableRecord
  2
*Paper_Space
340
D3
 70
     0
280
     1
281
     0
  0
BLOCK_RECORD
  5
D6
330
1
100
AcDbSymbolTableRecord
100
AcDbBlockTableRecord
  2
*Paper_Space0
340
D7
 70
     0
280
     1
281
     0
  0
BLOCK_RECORD
  5
5EA
330
1
100
AcDbSymbolTableRecord
100
AcDbBlockTableRecord
  2
*D3
340
0
 70
     0
280
     1
281
     0
  0
BLOCK_RECORD
  5
602
330
1
100
AcDbSymbolTableRecord
100
AcDbBlockTableRecord
  2
*D4
340
0
 70
     0
280
     1
281
     0
  0
ENDTAB
  0
ENDSEC
  0
SECTION
  2
BLOCKS
  0
BLOCK
  5
20
330
1F
100
AcDbEntity
  8
0
100
AcDbBlockBegin
  2
*Model_Space
 70
     0
 10
0.0
 20
0.0
 30
0.0
  3
*Model_Space
  1

  0
ENDBLK
  5
21
330
1F
100
AcDbEntity
  8
0
100
AcDbBlockEnd
  0
BLOCK
  5
D4
330
D2
100
AcDbEntity
 67
     1
  8
0
100
AcDbBlockBegin
  2
*Paper_Space
 70
     0
 10
0.0
 20
0.0
 30
0.0
  3
*Paper_Space
  1

  0
ENDBLK
  5
D5
330
D2
100
AcDbEntity
 67
     1
  8
0
100
AcDbBlockEnd
  0
BLOCK
  5
D8
330
D6
100
AcDbEntity
 67
     1
  8
0
100
AcDbBlockBegin
  2
*Paper_Space0
 70
     0
 10
0.0
 20
0.0
 30
0.0
  3
*Paper_Space0
  1

  0
ENDBLK
  5
D9
330
D6
100
AcDbEntity
 67
     1
  8
0
100
AcDbBlockEnd
  0
BLOCK
  5
5EB
330
5EA
100
AcDbEntity
  8
0
100
AcDbBlockBegin
  2
*D3
 70
     1
 10
0.0
 20
0.0
 30
0.0
  3
*D3
  1

  0
LINE
  5
5F7
330
5EA
100
AcDbEntity
  8
0
 62
     0
440
 16777216
370
    -2
100
AcDbLine
 10
351.9014681203462
 20
299.2189108266202
 30
0.0
 11
351.9014681203462
 21
279.3267980354122
 31
0.0
  0
LINE
  5
5F8
330
5EA
100
AcDbEntity
  8
0
 62
     0
440
 16777216
370
    -2
100
AcDbLine
 10
401.9014681203461
 20
299.2189108266202
 30
0.0
 11
401.9014681203461
 21
279.3267980354122
 31
0.0
  0
LINE
  5
5F9
330
5EA
100
AcDbEntity
  8
0
 62
     0
440
 16777216
370
    -2
100
AcDbLine
 10
354.4014681203462
 20
280.5767980354121
 30
0.0
 11
399.4014681203462
 21
280.5767980354121
 31
0.0
  0
SOLID
  5
5FA
330
5EA
100
AcDbEntity
  8
0
 62
     0
440
 16777216
100
AcDbTrace
 10
354.4014681203462
 20
280.9934647020788
 30
0.0
 11
354.4014681203462
 21
280.1601313687454
 31
0.0
 12
351.9014681203462
 22
280.5767980354121
 32
0.0
 13
351.9014681203462
 23
280.5767980354121
 33
0.0
  0
SOLID
  5
5FB
330
5EA
100
AcDbEntity
  8
0
 62
     0
440
 16777216
100
AcDbTrace
 10
399.4014681203462
 20
280.9934647020788
 30
0.0
 11
399.4014681203462
 21
280.1601313687454
 31
0.0
 12
401.9014681203461
 22
280.5767980354121
 32
0.0
 13
401.9014681203461
 23
280.5767980354121
 33
0.0
  0
MTEXT
  5
5FC
330
5EA
100
AcDbEntity
  8
0
 62
     0
440
 16777216
100
AcDbMText
 10
376.9014681203462
 20
282.4782305047163
 30
0.0
 40
2.5
 41
0.0
 46
0.0
 71
     5
 72
     1
  1
50
 73
     1
 44
1.0
  0
POINT
  5
5FD
330
5EA
100
AcDbEntity
  8
Defpoints
 62
     0
440
 16777216
100
AcDbPoint
 10
351.9014681203462
 20
299.8439108266202
 30
0.0
  0
POINT
  5
5FE
330
5EA
100
AcDbEntity
  8
Defpoints
 62
     0
440
 16777216
100
AcDbPoint
 10
401.9014681203461
 20
299.8439108266202
 30
0.0
  0
POINT
  5
5FF
330
5EA
100
AcDbEntity
  8
Defpoints
 62
     0
440
 16777216
100
AcDbPoint
 10
401.9014681203461
 20
280.5767980354121
 30
0.0
  0
ENDBLK
  5
5EC
330
5EA
100
AcDbEntity
  8
0
100
AcDbBlockEnd
  0
BLOCK
  5
603
330
602
100
AcDbEntity
  8
0
100
AcDbBlockBegin
  2
*D4
 70
     1
 10
0.0
 20
0.0
 30
0.0
  3
*D4
  1

  0
LINE
  5
622
330
602
100
AcDbEntity
  8
0
 62
     0
440
 16777216
370
    -2
100
AcDbLine
 10
351.9014681203462
 20
249.6334098753315
 30
0.0
 11
351.9014681203462
 21
279.8214406272304
 31
0.0
  0
LINE
  5
623
330
602
100
AcDbEntity
  8
0
 62
     0
440
 16777216
370
    -2
100
AcDbLine
 10
401.9014681203461
 20
260.7183588263449
 30
0.0
 11
401.9014681203461
 21
279.8214406272304
 31
0.0
  0
LINE
  5
624
330
602
100
AcDbEntity
  8
0
 62
     0
440
 16777216
370
    -2
100
AcDbLine
 10
354.4014681203462
 20
278.5714406272304
 30
0.0
 11
399.4014681203462
 21
278.5714406272304
 31
0.0
  0
SOLID
  5
625
330
602
100
AcDbEntity
  8
0
 62
     0
440
 16777216
100
AcDbTrace
 10
354.4014681203462
 20
278.9881072938971
 30
0.0
 11
354.4014681203462
 21
278.1547739605637
 31
0.0
 12
351.9014681203462
 22
278.5714406272304
 32
0.0
 13
351.9014681203462
 23
278.5714406272304
 33
0.0
  0
SOLID
  5
626
330
602
100
AcDbEntity
  8
0
 62
     0
440
 16777216
100
AcDbTrace
 10
399.4014681203462
 20
278.9881072938971
 30
0.0
 11
399.4014681203462
 21
278.1547739605637
 31
0.0
 12
401.9014681203461
 22
278.5714406272304
 32
0.0
 13
401.9014681203461
 23
278.5714406272304
 33
0.0
  0
MTEXT
  5
627
330
602
100
AcDbEntity
  8
0
 62
     0
440
 16777216
100
AcDbMText
 10
376.9014681203462
 20
280.4728730965346
 30
0.0
 40
2.5
 41
0.0
 46
0.0
 71
     5
 72
     1
  1
50
 73
     1
 44
1.0
  0
POINT
  5
628
330
602
100
AcDbEntity
  8
Defpoints
 62
     0
440
 16777216
100
AcDbPoint
 10
351.9014681203462
 20
249.0084098753315
 30
0.0
  0
POINT
  5
629
330
602
100
AcDbEntity
  8
Defpoints
 62
     0
440
 16777216
100
AcDbPoint
 10
401.9014681203461
 20
260.0933588263449
 30
0.0
  0
POINT
  5
62A
330
602
100
AcDbEntity
  8
Defpoints
 62
     0
440
 16777216
100
AcDbPoint
 10
401.9014681203461
 20
278.5714406272304
 30
0.0
  0
ENDBLK
  5
604
330
602
100
AcDbEntity
  8
0
100
AcDbBlockEnd
  0
ENDSEC
  0
SECTION
  2
ENTITIES
  0
LINE
  5
43D
330
1F
100
AcDbEntity
  8
0
100
AcDbLine
 10
354.3666779907223
 20
247.0874682090088
 30
0.0
 11
401.2270916228569
 21
260.6149044214167
 31
0.0
  0
LINE
  5
43E
330
1F
100
AcDbEntity
  8
0
100
AcDbLine
 10
357.3373859827015
 20
257.7720346924214
 30
0.0
 11
357.1246147109625
 21
258.6494055218302
 31
0.0
  0
LINE
  5
43F
330
1F
100
AcDbEntity
  8
0
100
AcDbLine
 10
357.0306523834861
 20
258.6266186716362
 30
0.0
 11
357.2434236551646
 21
257.7492478422275
 31
0.0
  0
LINE
  5
440
330
1F
100
AcDbEntity
  8
0
100
AcDbLine
 10
357.4705751633313
 20
257.7772129443383
 30
0.0
 11
359.2624814252762
 21
255.2764887646712
 31
0.0
  0
LINE
  5
441
330
1F
100
AcDbEntity
  8
0
100
AcDbLine
 10
359.3410733048835
 20
255.3328042128337
 30
0.0
 11
357.5428005924873
 21
257.8424133457121
 31
0.0
  0
SPLINE
  5
442
330
1F
100
AcDbEntity
  8
0
100
AcDbSpline
210
0.0
220
0.0
230
1.0
 70
     8
 71
     3
 72
    16
 73
    12
 74
     0
 42
0.000000001
 43
0.0000000001
 40
0.0
 40
0.0
 40
0.0
 40
0.0
 40
0.0762781198112513
 40
0.2227691056298879
 40
0.3751896159045344
 40
0.5069080047988655
 40
0.6161040371714148
 40
0.7159914485591998
 40
0.8158552051897682
 40
0.9149243677869014
 40
1.0
 40
1.0
 40
1.0
 40
1.0
 10
357.2434236551897
 20
257.7492478422014
 30
0.0
 10
357.2459542784242
 20
257.7399103584885
 30
0.0
 10
357.2533449256505
 20
257.712640377258
 30
0.0
 10
357.2726680634864
 20
257.6694455246268
 30
0.0
 10
357.300849872299
 20
257.6300971365734
 30
0.0
 10
357.3327000672411
 20
257.6053466368273
 30
0.0
 10
357.3673520982995
 20
257.5957435807842
 30
0.0
 10
357.4005960526615
 20
257.6019862226549
 30
0.0
 10
357.4262247840851
 20
257.6212636642288
 30
0.0
 10
357.4417357983843
 20
257.6459637342288
 30
0.0
 10
357.4466182284695
 20
257.6644994263706
 30
0.0
 10
357.4488739307101
 20
257.6730629903263
 30
0.0
  0
SPLINE
  5
443
330
1F
100
AcDbEntity
  8
0
100
AcDbSpline
210
0.0
220
0.0
230
1.0
 70
     8
 71
     3
 72
     8
 73
     4
 74
     0
 42
0.000000001
 43
0.0000000001
 40
0.0
 40
0.0
 40
0.0
 40
0.0
 40
1.0
 40
1.0
 40
1.0
 40
1.0
 10
357.3592185220808
 20
257.7167698621762
 30
0.0
 10
357.345777383228
 20
257.7425827367794
 30
0.0
 10
357.3403049348731
 20
257.7617898173861
 30
0.0
 10
357.3373859827051
 20
257.7720346924298
 30
0.0
  0
LINE
  5
444
330
1F
100
AcDbEntity
  8
0
100
AcDbLine
 10
357.4488739306913
 20
257.6730629903383
 30
0.0
 11
357.4705751027149
 21
257.7772130289325
 31
0.0
  0
LINE
  5
445
330
1F
100
AcDbEntity
  8
0
100
AcDbLine
 10
357.3807223165612
 20
257.8199727234361
 30
0.0
 11
357.3592185220808
 21
257.7167698621762
 31
0.0
  0
SPLINE
  5
446
330
1F
100
AcDbEntity
  8
0
100
AcDbSpline
210
0.0
220
0.0
230
1.0
 70
     8
 71
     3
 72
    14
 73
    10
 74
     0
 42
0.000000001
 43
0.0000000001
 40
0.0
 40
0.0
 40
0.0
 40
0.0
 40
0.1144053807469455
 40
0.3009453936369317
 40
0.4557767920649918
 40
0.5974447428091759
 40
0.7390538014815388
 40
0.8796104303838514
 40
1.0
 40
1.0
 40
1.0
 40
1.0
 10
357.5428005925053
 20
257.8424133456987
 30
0.0
 10
357.5373515731088
 20
257.8493972386788
 30
0.0
 10
357.5230178304431
 20
257.8677684936695
 30
0.0
 10
357.4967648696866
 20
257.8876698333601
 30
0.0
 10
357.4621806074234
 20
257.8973087989153
 30
0.0
 10
357.4289392550621
 20
257.8910184732822
 30
0.0
 10
357.4033329160336
 20
257.871727346564
 30
0.0
 10
357.3878489038732
 20
257.847035440779
 30
0.0
 10
357.3829722150907
 20
257.8285165558598
 30
0.0
 10
357.3807223165791
 20
257.8199727234611
 30
0.0
  0
LINE
  5
447
330
1F
100
AcDbEntity
  8
0
100
AcDbLine
 10
359.3513641504529
 20
255.1209406041782
 30
0.0
 11
359.9788818334307
 21
253.7584620902886
 31
0.0
  0
LINE
  5
448
330
1F
100
AcDbEntity
  8
0
100
AcDbLine
 10
360.0728370954753
 20
253.7855846544189
 30
0.0
 11
359.4391826908889
 21
255.1613872839495
 31
0.0
  0
SPLINE
  5
449
330
1F
100
AcDbEntity
  8
0
100
AcDbSpline
210
0.0
220
0.0
230
1.0
 70
     8
 71
     3
 72
    10
 73
     6
 74
     0
 42
0.000000001
 43
0.0000000001
 40
0.0
 40
0.0
 40
0.0
 40
0.0
 40
0.2663699363972297
 40
0.774811240930633
 40
1.0
 40
1.0
 40
1.0
 40
1.0
 10
359.4391826909051
 20
255.1613872839546
 30
0.0
 10
359.4312187318276
 20
255.1780681059013
 30
0.0
 10
359.408053335991
 20
255.2265889282093
 30
0.0
 10
359.3748524604911
 20
255.2840741302647
 30
0.0
 10
359.3490066974617
 20
255.3213594366619
 30
0.0
 10
359.3410733048806
 20
255.332804212845
 30
0.0
  0
SPLINE
  5
44A
330
1F
100
AcDbEntity
  8
0
100
AcDbSpline
210
0.0
220
0.0
230
1.0
 70
     8
 71
     3
 72
    10
 73
     6
 74
     0
 42
0.000000001
 43
0.0000000001
 40
0.0
 40
0.0
 40
0.0
 40
0.0
 40
0.2663356552276279
 40
0.7723594282229456
 40
1.0
 40
1.0
 40
1.0
 40
1.0
 10
359.2624814252794
 20
255.2764887646827
 30
0.0
 10
359.2708418512195
 20
255.2643615109017
 30
0.0
 10
359.2950866478588
 20
255.2291931111311
 30
0.0
 10
359.3250774472491
 20
255.1762746884755
 30
0.0
 10
359.3451393615624
 20
255.1340439206985
 30
0.0
 10
359.3513641504291
 20
255.1209406041863
 30
0.0
  0
LINE
  5
44B
330
1F
100
AcDbEntity
  8
0
100
AcDbLine
 10
389.7836564119267
 20
267.1384661757126
 30
0.0
 11
389.5708851402482
 21
268.0158370051214
 31
0.0
  0
LINE
  5
44C
330
1F
100
AcDbEntity
  8
0
100
AcDbLine
 10
389.4769243723732
 20
267.9930506051205
 30
0.0
 11
389.6896956440518
 21
267.1156797757117
 31
0.0
  0
LINE
  5
44D
330
1F
100
AcDbEntity
  8
0
100
AcDbLine
 10
389.9168471522185
 20
267.1436448778225
 30
0.0
 11
391.7087534141634
 21
264.6429206981555
 31
0.0
  0
LINE
  5
44E
330
1F
100
AcDbEntity
  8
0
100
AcDbLine
 10
391.7873452937706
 20
264.699236146318
 30
0.0
 11
389.9890725813745
 21
267.2088452791963
 31
0.0
  0
SPLINE
  5
44F
330
1F
100
AcDbEntity
  8
0
100
AcDbSpline
210
0.0
220
0.0
230
1.0
 70
     8
 71
     3
 72
    16
 73
    12
 74
     0
 42
0.000000001
 43
0.0000000001
 40
0.0
 40
0.0
 40
0.0
 40
0.0
 40
0.0762781708684569
 40
0.222769350481757
 40
0.3751899642526085
 40
0.5069084425860404
 40
0.6161045491046146
 40
0.7159920283177073
 40
0.8158537245591881
 40
0.9149243100190519
 40
1.0
 40
1.0
 40
1.0
 40
1.0
 10
389.6896956440699
 20
267.1156797756914
 30
0.0
 10
389.69222558628
 20
267.1063420939463
 30
0.0
 10
389.6996142477607
 20
267.0790715226454
 30
0.0
 10
389.7189409883774
 20
267.0358777526093
 30
0.0
 10
389.747121624645
 20
266.9965290032675
 30
0.0
 10
389.7789721534431
 20
266.9717785842895
 30
0.0
 10
389.8136239227471
 20
266.96217551022
 30
0.0
 10
389.8468683403406
 20
266.9684181173764
 30
0.0
 10
389.8724945867296
 20
266.9876953507339
 30
0.0
 10
389.8880081962951
 20
267.012395574299
 30
0.0
 10
389.8928903579637
 20
267.0309313734588
 30
0.0
 10
389.8951459195902
 20
267.0394949238162
 30
0.0
  0
SPLINE
  5
450
330
1F
100
AcDbEntity
  8
0
100
AcDbSpline
210
0.0
220
0.0
230
1.0
 70
     8
 71
     3
 72
     8
 73
     4
 74
     0
 42
0.000000001
 43
0.0000000001
 40
0.0
 40
0.0
 40
0.0
 40
0.0
 40
1.0
 40
1.0
 40
1.0
 40
1.0
 10
389.805490510968
 20
267.0832017956604
 30
0.0
 10
389.7920471664105
 20
267.1090140789629
 30
0.0
 10
389.7865751414072
 20
267.1282212444737
 30
0.0
 10
389.7836564119492
 20
267.1384661756917
 30
0.0
  0
LINE
  5
451
330
1F
100
AcDbEntity
  8
0
100
AcDbLine
 10
389.8951459195785
 20
267.0394949238226
 30
0.0
 11
389.9168471522009
 21
267.1436448778159
 31
0.0
  0
LINE
  5
452
330
1F
100
AcDbEntity
  8
0
100
AcDbLine
 10
389.8269943054485
 20
267.1864046569808
 30
0.0
 11
389.805490510968
 21
267.0832017956604
 31
0.0
  0
SPLINE
  5
453
330
1F
100
AcDbEntity
  8
0
100
AcDbSpline
210
0.0
220
0.0
230
1.0
 70
     8
 71
     3
 72
    14
 73
    10
 74
     0
 42
0.000000001
 43
0.0000000001
 40
0.0
 40
0.0
 40
0.0
 40
0.0
 40
0.1144052393006297
 40
0.3009450215598764
 40
0.4557762285604814
 40
0.5974473793941311
 40
0.7390532459967404
 40
0.8796116218463213
 40
1.0
 40
1.0
 40
1.0
 40
1.0
 10
389.9890725813854
 20
267.2088452791886
 30
0.0
 10
389.9836235691732
 20
267.2158291734419
 30
0.0
 10
389.9692898454062
 20
267.2342004317814
 30
0.0
 10
389.9430366874014
 20
267.2541017365189
 30
0.0
 10
389.908452850579
 20
267.2637408876391
 30
0.0
 10
389.8752092689641
 20
267.2574499992995
 30
0.0
 10
389.8496057458704
 20
267.2381591357462
 30
0.0
 10
389.8341184687236
 20
267.2134670021995
 30
0.0
 10
389.8292434201847
 20
267.1949483015794
 30
0.0
 10
389.8269943054591
 20
267.1864046569511
 30
0.0
  0
SPLINE
  5
454
330
1F
100
AcDbEntity
  8
0
100
AcDbSpline
210
0.0
220
0.0
230
1.0
 70
    27
 71
     1
 72
     4
 73
     2
 74
     0
 42
0.000000001
 43
0.0000000001
 40
0.0
 40
0.0
 40
1.0
 40
1.0
 10
389.9168471522185
 20
267.1436448778225
 30
0.0
 10
389.916847152206
 20
267.14364487784
 30
0.0
  0
LINE
  5
455
330
1F
100
AcDbEntity
  8
0
100
AcDbLine
 10
391.7976361392796
 20
264.4873725376624
 30
0.0
 11
392.4251538223179
 21
263.1248940237729
 31
0.0
  0
LINE
  5
456
330
1F
100
AcDbEntity
  8
0
100
AcDbLine
 10
392.5191090843625
 20
263.1520165879031
 30
0.0
 11
391.885454679776
 21
264.5278192174337
 31
0.0
  0
SPLINE
  5
457
330
1F
100
AcDbEntity
  8
0
100
AcDbSpline
210
0.0
220
0.0
230
1.0
 70
     8
 71
     3
 72
    10
 73
     6
 74
     0
 42
0.000000001
 43
0.0000000001
 40
0.0
 40
0.0
 40
0.0
 40
0.0
 40
0.2663699363972297
 40
0.774811240930633
 40
1.0
 40
1.0
 40
1.0
 40
1.0
 10
391.8854546797852
 20
264.5278192174446
 30
0.0
 10
391.8774907207076
 20
264.5445000393912
 30
0.0
 10
391.8543253248711
 20
264.5930208616993
 30
0.0
 10
391.8211244493712
 20
264.6505060637546
 30
0.0
 10
391.7952786863417
 20
264.6877913701518
 30
0.0
 10
391.7873452937607
 20
264.6992361463349
 30
0.0
  0
SPLINE
  5
458
330
1F
100
AcDbEntity
  8
0
100
AcDbSpline
210
0.0
220
0.0
230
1.0
 70
     8
 71
     3
 72
    10
 73
     6
 74
     0
 42
0.000000001
 43
0.0000000001
 40
0.0
 40
0.0
 40
0.0
 40
0.0
 40
0.2663356552276279
 40
0.7723594282229456
 40
1.0
 40
1.0
 40
1.0
 40
1.0
 10
391.7087534141595
 20
264.6429206981726
 30
0.0
 10
391.7171138400995
 20
264.6307934443916
 30
0.0
 10
391.741358636739
 20
264.5956250446209
 30
0.0
 10
391.7713494361292
 20
264.5427066219653
 30
0.0
 10
391.7914113504425
 20
264.5004758541884
 30
0.0
 10
391.7976361393092
 20
264.4873725376762
 30
0.0
  0
SPLINE
  5
459
330
1F
100
AcDbEntity
  8
0
100
AcDbSpline
210
0.0
220
0.0
230
1.0
 70
     8
 71
     3
 72
    11
 73
     7
 74
     0
 42
0.000000001
 43
0.0000000001
 40
0.0
 40
0.0
 40
0.0
 40
0.0
 40
0.2420881447544749
 40
0.5681144692265912
 40
0.9069513673633295
 40
1.0
 40
1.0
 40
1.0
 40
1.0
 10
352.469319077452
 20
248.6466048835125
 30
0.0
 10
352.4696178853288
 20
248.6417551391363
 30
0.0
 10
352.4703191054505
 20
248.6303741194047
 30
0.0
 10
352.4765143313775
 20
248.6120694118499
 30
0.0
 10
352.484459283845
 20
248.5992508262953
 30
0.0
 10
352.4905248328317
 20
248.5936015895706
 30
0.0
 10
352.4918316398424
 20
248.5923844759717
 30
0.0
  0
LINE
  5
45A
330
1F
100
AcDbEntity
  8
0
100
AcDbLine
 10
352.4693190774458
 20
248.6703766587579
 30
0.0
 11
352.4693190774458
 21
248.6466048835367
 31
0.0
  0
LINE
  5
45B
330
1F
100
AcDbEntity
  8
0
100
AcDbLine
 10
352.4918316398405
 20
248.5923844759487
 30
0.0
 11
354.2663183514599
 21
247.0556339050232
 31
0.0
  0
LINE
  5
45C
330
1F
100
AcDbEntity
  8
0
100
AcDbLine
 10
354.2993838152676
 20
247.0466875192586
 30
0.0
 11
354.3540565147976
 21
247.0593511563039
 31
0.0
  0
SPLINE
  5
45D
330
1F
100
AcDbEntity
  8
0
100
AcDbSpline
210
0.0
220
0.0
230
1.0
 70
     8
 71
     3
 72
    10
 73
     6
 74
     0
 42
0.000000001
 43
0.0000000001
 40
0.0
 40
0.0
 40
0.0
 40
0.0
 40
0.4026355822638442
 40
0.7700355589145317
 40
1.0
 40
1.0
 40
1.0
 40
1.0
 10
354.2663183514703
 20
247.055633905024
 30
0.0
 10
354.2701224566586
 20
247.0529157350047
 30
0.0
 10
354.2773977606653
 20
247.0477172685444
 30
0.0
 10
354.2895434848791
 20
247.044903427192
 30
0.0
 10
354.2965418691823
 20
247.0465910279892
 30
0.0
 10
354.2992360027581
 20
247.0472406953656
 30
0.0
  0
LINE
  5
45E
330
1F
100
AcDbEntity
  8
0
100
AcDbLine
 10
378.1584124557426
 20
259.0064404908123
 30
0.0
 11
378.1584124557426
 21
260.418502705165
 31
0.0
  0
LINE
  5
45F
330
1F
100
AcDbEntity
  8
0
100
AcDbLine
 10
378.1125557303667
 20
260.4484200688636
 30
0.0
 11
375.3755557790422
 21
259.6583162395448
 31
0.0
  0
LINE
  5
460
330
1F
100
AcDbEntity
  8
0
100
AcDbLine
 10
378.4540655446138
 20
260.232592613135
 30
0.0
 11
378.1786594963568
 21
260.4711012472754
 31
0.0
  0
LINE
  5
461
330
1F
100
AcDbEntity
  8
0
100
AcDbLine
 10
375.021927178167
 20
258.5039285759233
 30
0.0
 11
375.021927178167
 21
258.4777622722154
 31
0.0
  0
LINE
  5
462
330
1F
100
AcDbEntity
  8
0
100
AcDbLine
 10
399.0035865485804
 20
262.7059053899696
 30
0.0
 11
351.9041610779153
 21
249.109472402853
 31
0.0
  0
LINE
  5
463
330
1F
100
AcDbEntity
  8
0
100
AcDbLine
 10
399.3178152593898
 20
262.4337753438327
 30
0.0
 11
399.2649529606128
 21
262.4185153125987
 31
0.0
  0
LINE
  5
464
330
1F
100
AcDbEntity
  8
0
100
AcDbLine
 10
352.3177430867954
 20
248.6266206341819
 30
0.0
 11
399.4171685574604
 21
262.2230536212985
 31
0.0
  0
LINE
  5
465
330
1F
100
AcDbEntity
  8
0
100
AcDbLine
 10
399.3913444866757
 20
265.1358599945344
 30
0.0
 11
352.2919190159502
 21
251.5394270074783
 31
0.0
  0
LINE
  5
466
330
1F
100
AcDbEntity
  8
0
100
AcDbLine
 10
399.9412446461129
 20
265.4289231080629
 30
0.0
 11
392.8239991148998
 21
263.3743512963296
 31
0.0
  0
LINE
  5
467
330
1F
100
AcDbEntity
  8
0
100
AcDbLine
 10
354.7953154540365
 20
246.480980024467
 30
0.0
 11
401.8947409247017
 21
260.0774130115232
 31
0.0
  0
LINE
  5
468
330
1F
100
AcDbEntity
  8
0
100
AcDbLine
 10
392.3705490170915
 20
263.2434515283474
 30
0.0
 11
378.1584124107233
 21
259.1407610806354
 31
0.0
  0
LINE
  5
469
330
1F
100
AcDbEntity
  8
0
100
AcDbLine
 10
375.3661376963246
 20
258.3347008016418
 30
0.0
 11
360.3777271260126
 21
254.0079193628454
 31
0.0
  0
LINE
  5
46A
330
1F
100
AcDbEntity
  8
0
100
AcDbLine
 10
359.9242770282042
 20
253.8770195948631
 30
0.0
 11
352.8418191754478
 21
251.8324901209463
 31
0.0
  0
ARC
  5
46B
330
1F
100
AcDbEntity
  8
0
100
AcDbCircle
 10
357.1207305976651
 20
258.4602999897502
 30
0.0
 40
0.1891454165629919
100
AcDbArc
 50
88.82334475969893
 51
118.4399795895023
  0
LINE
  5
46C
330
1F
100
AcDbEntity
  8
0
100
AcDbLine
 10
357.3373859827015
 20
257.7720346924214
 30
0.0
 11
357.3373966313072
 21
257.7719474375219
 31
0.0
  0
ARC
  5
46D
330
1F
100
AcDbEntity
  8
0
100
AcDbCircle
 10
389.5669966838269
 20
267.8267522609003
 30
0.0
 40
0.1891247223189781
100
AcDbArc
 50
88.82189998230044
 51
118.4413414352986
  0
LINE
  5
46E
330
1F
100
AcDbEntity
  8
0
100
AcDbLine
 10
389.7836564119267
 20
267.1384661757126
 30
0.0
 11
389.783668620134
 21
267.1383793710061
 31
0.0
  0
ELLIPSE
  5
46F
330
1F
100
AcDbEntity
  8
0
100
AcDbEllipse
 10
354.3394716494495
 20
247.1117984471576
 30
0.0
 11
-0.0151146037018819
 21
0.0523095909253098
 31
0.0
210
0.0
220
0.0
230
0.9999999999999998
 40
0.4325260765
 41
3.141592653589793
 42
4.123435489189523
  0
LINE
  5
470
330
1F
100
AcDbEntity
  8
0
100
AcDbLine
 10
352.4921934753761
 20
248.592080889165
 30
0.0
 11
352.4918316398405
 21
248.5923844759487
 31
0.0
  0
LINE
  5
471
330
1F
100
AcDbEntity
  8
0
100
AcDbLine
 10
375.3661376825468
 20
258.2003802110936
 30
0.0
 11
375.3661376825468
 21
259.635992196291
 31
0.0
  0
LWPOLYLINE
  5
472
330
1F
100
AcDbEntity
  8
0
100
AcDbPolyline
 90
        7
 70
   128
 43
0.0
 10
378.108558752653
 20
260.4328941960556
 10
378.1208384582665
 20
260.4349783777328
 10
378.1337786633236
 20
260.4345543442553
 10
378.1454092430609
 20
260.4316865167933
 10
378.1539596958523
 20
260.4268116642105
 10
378.1581279617354
 20
260.4206717832743
 10
378.1584124557426
 20
260.418502705165
  0
ARC
  5
473
330
1F
100
AcDbEntity
  8
0
100
AcDbCircle
 10
378.0547028643554
 20
260.3398716632373
 30
0.0
 40
0.0744501107531288
100
AcDbArc
 50
107.2088169991995
 51
177.168917994999
  0
LINE
  5
474
330
1F
100
AcDbEntity
  8
0
100
AcDbLine
 10
378.0326764230978
 20
260.4109888543625
 30
0.0
 11
378.108558752653
 21
260.4328941960556
 31
0.0
  0
LINE
  5
475
330
1F
100
AcDbEntity
  8
0
100
AcDbLine
 10
377.9803436206788
 20
258.95503647834
 30
0.0
 11
377.9803436206788
 21
260.343548873203
 31
0.0
  0
LWPOLYLINE
  5
476
330
1F
100
AcDbEntity
  8
0
100
AcDbPolyline
 90
        9
 70
   128
 43
0.0
 10
378.1033783370299
 20
260.4313987389151
 10
378.1035440209913
 20
260.4328907255811
 10
378.1047475369653
 20
260.4387205958117
 10
378.1067020334441
 20
260.443361243606
 10
378.1093323222722
 20
260.446634480695
 10
378.1125373272618
 20
260.4484147563443
 10
378.1161938548166
 20
260.4486333003379
 10
378.1201614336574
 20
260.4472819245411
 10
378.1242876053454
 20
260.444412340722
  0
LWPOLYLINE
  5
477
330
1F
100
AcDbEntity
  8
0
100
AcDbPolyline
 90
        7
 70
   128
 43
0.0
 10
375.3755557790422
 20
259.6583162395448
 10
375.3755373759977
 20
259.6583109270255
 10
375.3723323709476
 20
259.6565306513762
 10
375.3697020821196
 20
259.6532574142872
 10
375.3677475857012
 20
259.6486167664326
 10
375.3665440696667
 20
259.6427868962623
 10
375.3661376825468
 20
259.635992196291
  0
LWPOLYLINE
  5
478
330
1F
100
AcDbEntity
  8
0
100
AcDbPolyline
 90
        9
 70
   128
 43
0.0
 10
378.1584123032812
 20
260.4176701405008
 10
378.1679163344322
 20
260.4225650407526
 10
378.1772542644228
 20
260.4314999923397
 10
378.1834935877993
 20
260.4426390598031
 10
378.1856846812533
 20
260.4542863074989
 10
378.1834935877993
 20
260.4646685268412
 10
378.1772542644228
 20
260.4722053192985
 10
378.1679163344322
 20
260.4757490144643
 10
378.1569016009736
 20
260.4747604282497
  0
LINE
  5
479
330
1F
100
AcDbEntity
  8
0
100
AcDbLine
 10
378.1333518788343
 20
260.4346099804376
 30
0.0
 11
378.1333518788343
 21
260.4365624495975
 31
0.0
  0
LINE
  5
47A
330
1F
100
AcDbEntity
  8
0
100
AcDbLine
 10
378.1242876053454
 20
260.444412340722
 30
0.0
 11
378.1333518788343
 21
260.4365624495975
 31
0.0
  0
LINE
  5
47B
330
1F
100
AcDbEntity
  8
0
100
AcDbLine
 10
378.1569016009736
 20
260.4747604282497
 30
0.0
 11
378.0810192714184
 21
260.4528550865566
 31
0.0
  0
ARC
  5
47C
330
1F
100
AcDbEntity
  8
0
100
AcDbCircle
 10
378.0874042794301
 20
260.4133263145093
 30
0.0
 40
0.0400411306772179
100
AcDbArc
 50
99.17562559710182
 51
154.2011083359015
  0
ARC
  5
47D
330
1F
100
AcDbEntity
  8
0
100
AcDbCircle
 10
375.3291473097363
 20
258.6429990636623
 30
0.0
 40
0.0148900906505641
100
AcDbArc
 50
287.209150766701
 51
357.1685842275002
  0
LINE
  5
47E
330
1F
100
AcDbEntity
  8
0
100
AcDbLine
 10
375.2178520304584
 20
258.2918944820735
 30
0.0
 11
375.0381188906747
 21
258.4475479470033
 31
0.0
  0
LINE
  5
47F
330
1F
100
AcDbEntity
  8
0
100
AcDbLine
 10
375.0823556979447
 20
258.5562612569413
 30
0.0
 11
375.3335527011032
 21
258.6287755856511
 31
0.0
  0
LWPOLYLINE
  5
480
330
1F
100
AcDbEntity
  8
0
100
AcDbPolyline
 90
        7
 70
   128
 43
0.0
 10
375.0823556979447
 20
258.5562612569413
 10
375.0630976932546
 20
258.5493611828592
 10
375.0469018743221
 20
258.5407151496795
 10
375.034390824247
 20
258.5306554009957
 10
375.0260452431782
 20
258.5195686200972
 10
375.0221859474807
 20
258.5078807909758
 10
375.021927178167
 20
258.5039285759233
  0
LINE
  5
481
330
1F
100
AcDbEntity
  8
0
100
AcDbLine
 10
379.0584554247147
 20
260.448931029053
 30
0.0
 11
379.0584554247147
 21
260.6425621640056
 31
0.0
  0
LINE
  5
482
330
1F
100
AcDbEntity
  8
0
100
AcDbLine
 10
379.4247842617561
 20
260.5546810553817
 30
0.0
 11
379.0584554247147
 21
260.448931029053
 31
0.0
  0
LINE
  5
483
330
1F
100
AcDbEntity
  8
0
100
AcDbLine
 10
379.4247842617561
 20
260.5546810553817
 30
0.0
 11
379.4247842617561
 21
259.7487576333727
 31
0.0
  0
LINE
  5
484
330
1F
100
AcDbEntity
  8
0
100
AcDbLine
 10
378.1584123633473
 20
259.3831875552045
 30
0.0
 11
379.4247842617561
 21
259.7487576333727
 31
0.0
  0
LINE
  5
485
330
1F
100
AcDbEntity
  8
0
100
AcDbLine
 10
378.2158989825357
 20
260.3208378660897
 30
0.0
 11
378.1584123633473
 21
260.3042429085074
 31
0.0
  0
LINE
  5
486
330
1F
100
AcDbEntity
  8
0
100
AcDbLine
 10
378.2158989825357
 20
260.1638398487785
 30
0.0
 11
378.2158989825357
 21
260.3208378660897
 31
0.0
  0
LINE
  5
487
330
1F
100
AcDbEntity
  8
0
100
AcDbLine
 10
378.6868932294725
 20
260.2998041763897
 30
0.0
 11
378.2158989825357
 21
260.1638398487785
 31
0.0
  0
LINE
  5
488
330
1F
100
AcDbEntity
  8
0
100
AcDbLine
 10
378.6868932294725
 20
260.5353013972991
 30
0.0
 11
378.6868932294725
 21
260.2998041763897
 31
0.0
  0
LINE
  5
489
330
1F
100
AcDbEntity
  8
0
100
AcDbLine
 10
378.6868932294725
 20
260.5353013972991
 30
0.0
 11
379.0584554247147
 21
260.6425621640056
 31
0.0
  0
LINE
  5
48A
330
1F
100
AcDbEntity
  8
0
100
AcDbLine
 10
379.4247842617561
 20
259.7487576333727
 30
0.0
 11
379.6347317028224
 21
259.5669378159691
 31
0.0
  0
LINE
  5
48B
330
1F
100
AcDbEntity
  8
0
100
AcDbLine
 10
379.4247842617561
 20
260.5546810553817
 30
0.0
 11
380.3326819583156
 21
259.7684185861915
 31
0.0
  0
LWPOLYLINE
  5
48C
330
1F
100
AcDbEntity
  8
0
100
AcDbPolyline
 90
       17
 70
   128
 43
0.0
 10
379.965620189944
 20
259.9031389837902
 10
379.9612503322816
 20
259.9449744131738
 10
379.9488060135619
 20
259.9880096533524
 10
379.9301817935597
 20
260.0256928689835
 10
379.9082130259553
 20
260.0522872927733
 10
379.8862442584113
 20
260.063743890616
 10
379.8676200384092
 20
260.0583187702529
 10
379.8551757337089
 20
260.0368377102176
 10
379.8508058478868
 20
260.0025711207493
 10
379.8551757337089
 20
259.9607357644842
 10
379.8676200384092
 20
259.9177005364518
 10
379.8862442584113
 20
259.8800173208207
 10
379.9082130259553
 20
259.8534229945022
 10
379.9301817935597
 20
259.8419662991882
 10
379.9488060135619
 20
259.8473914195512
 10
379.9612503322816
 20
259.86887246738
 10
379.965620189944
 20
259.9031389837902
  0
LWPOLYLINE
  5
48D
330
1F
100
AcDbEntity
  8
0
100
AcDbPolyline
 90
       17
 70
   128
 43
0.0
 10
379.6211771919321
 20
260.2014353701942
 10
379.6168073342698
 20
260.243270799578
 10
379.6043630296299
 20
260.2863060276103
 10
379.5857388377271
 20
260.3239892188887
 10
379.563770070183
 20
260.3505836426182
 10
379.5418013025786
 20
260.3620402404608
 10
379.5231770544167
 20
260.3566151445109
 10
379.5107327497768
 20
260.3351340844755
 10
379.5063628921145
 20
260.3008674705942
 10
379.5107327497768
 20
260.2590321386818
 10
379.5231770544167
 20
260.2159969107098
 10
379.5418013025786
 20
260.178313670726
 10
379.563770070183
 20
260.1517193444074
 10
379.5857388377271
 20
260.1402626490935
 10
379.6043630296299
 20
260.1456877937488
 10
379.6168073342698
 20
260.1671688538446
 10
379.6211771919321
 20
260.2014353701942
  0
LWPOLYLINE
  5
48E
330
1F
100
AcDbEntity
  8
0
100
AcDbPolyline
 90
       17
 70
   128
 43
0.0
 10
380.086477373984
 20
259.7984735922046
 10
380.0821075128169
 20
259.8403090246098
 10
380.0696632046116
 20
259.8833442556637
 10
380.0510389775394
 20
259.921027477398
 10
380.0290702099954
 20
259.9476219011878
 10
380.0071014353813
 20
259.9590785051339
 10
379.9884772153792
 20
259.9536533847708
 10
379.9760329106788
 20
259.9321723247354
 10
379.9716630530165
 20
259.897905710854
 10
379.9760329106788
 20
259.8560703789416
 10
379.9884772153792
 20
259.8130351509697
 10
380.0071014353813
 20
259.7753519353386
 10
380.0290702099954
 20
259.7487576029167
 10
380.0510389775394
 20
259.7373009076027
 10
380.0696632046116
 20
259.7427260218625
 10
380.0821075128169
 20
259.7642070788765
 10
380.086477373984
 20
259.7984735922046
  0
LWPOLYLINE
  5
48F
330
1F
100
AcDbEntity
  8
0
100
AcDbPolyline
 90
       17
 70
   128
 43
0.0
 10
379.7420343970618
 20
260.0967699603593
 10
379.7376645393994
 20
260.138605389743
 10
379.7252202346991
 20
260.1816406177755
 10
379.706596014697
 20
260.2193238333461
 10
379.6846272189932
 20
260.2459182814887
 10
379.6626584514493
 20
260.2573748793918
 10
379.6440342595464
 20
260.251949734676
 10
379.6315899549065
 20
260.2304686746407
 10
379.6272200409247
 20
260.1962021094647
 10
379.6315899549065
 20
260.1543667288469
 10
379.6440342595464
 20
260.1113315008145
 10
379.6626584514493
 20
260.0736483095965
 10
379.6846272189932
 20
260.047053983278
 10
379.706596014697
 20
260.0355972636113
 10
379.7252202346991
 20
260.0410223839139
 10
379.7376645393994
 20
260.0625034439492
 10
379.7420343970618
 20
260.0967699603593
  0
LWPOLYLINE
  5
490
330
1F
100
AcDbEntity
  8
0
100
AcDbPolyline
 90
        6
 70
   128
 43
0.0
 10
380.2595453158964
 20
259.7473060023107
 10
380.2526560028777
 20
259.7539909246187
 10
380.2306872352732
 20
259.7654475224613
 10
380.2120630082614
 20
259.7600224082015
 10
380.1996187000562
 20
259.738541351248
 10
380.1973980097652
 20
259.7293655715964
  0
LINE
  5
491
330
1F
100
AcDbEntity
  8
0
100
AcDbLine
 10
379.0584554247147
 20
260.6425621640056
 30
0.0
 11
379.2261447939859
 21
260.4973389102624
 31
0.0
  0
LINE
  5
492
330
1F
100
AcDbEntity
  8
0
100
AcDbLine
 10
378.2158989825357
 20
260.3208378660897
 30
0.0
 11
378.3518633101469
 21
260.2030893043405
 31
0.0
  0
ARC
  5
493
330
1F
100
AcDbEntity
  8
0
100
AcDbCircle
 10
399.0581748316024
 20
262.6048428624481
 30
0.0
 40
0.0572812405307588
100
AcDbArc
 50
179.5144602798004
 51
222.5889885910018
  0
LINE
  5
494
330
1F
100
AcDbEntity
  8
0
100
AcDbLine
 10
399.0160028265599
 20
262.5660786713272
 30
0.0
 11
351.9165773558948
 21
248.969645684271
 31
0.0
  0
ARC
  5
495
330
1F
100
AcDbEntity
  8
0
100
AcDbCircle
 10
351.9587493608769
 20
249.0084098753315
 30
0.0
 40
0.057281240530684
100
AcDbArc
 50
179.5144602796993
 51
222.5889885910018
  0
LWPOLYLINE
  5
496
330
1F
100
AcDbEntity
  8
0
100
AcDbPolyline
 90
        9
 70
   128
 43
0.0
 10
399.4087886869722
 20
262.2259161379937
 10
399.411735880079
 20
262.2238665814771
 10
399.4145699533981
 20
262.2229012643799
 10
399.4171817266032
 20
262.2230574229217
 10
399.4194710239531
 20
262.2243288185756
 10
399.4213498258243
 20
262.2266669077236
 10
399.4227458706181
 20
262.2299818163701
 10
399.4236055811357
 20
262.2341458492304
 10
399.4238957531948
 20
262.2389994360849
  0
LINE
  5
497
330
1F
100
AcDbEntity
  8
0
100
AcDbLine
 10
399.0160028265599
 20
262.5660786713272
 30
0.0
 11
399.4087886869722
 21
262.2259161379937
 31
0.0
  0
LINE
  5
498
330
1F
100
AcDbEntity
  8
0
100
AcDbLine
 10
399.0008956478194
 20
262.6995269665596
 30
0.0
 11
399.0008956478194
 21
262.6053282731263
 31
0.0
  0
LWPOLYLINE
  5
499
330
1F
100
AcDbEntity
  8
0
100
AcDbPolyline
 90
        9
 70
   128
 43
0.0
 10
399.0069384968121
 20
262.7047604222317
 10
399.00575957455
 20
262.7055802058861
 10
399.004626012709
 20
262.7059663132307
 10
399.0035812584198
 20
262.7059039277789
 10
399.0026656070389
 20
262.7053951940811
 10
399.0019140637627
 20
262.7044598999029
 10
399.0013556683971
 20
262.7031341119289
 10
399.0010118066816
 20
262.7014683233243
 10
399.0008956478194
 20
262.6995269665596
  0
LINE
  5
49A
330
1F
100
AcDbEntity
  8
0
100
AcDbLine
 10
399.0341313735981
 20
262.6812107001528
 30
0.0
 11
399.0069384968121
 21
262.7047604222317
 31
0.0
  0
ARC
  5
49B
330
1F
100
AcDbEntity
  8
0
100
AcDbCircle
 10
399.0172629160845
 20
262.6657051874901
 30
0.0
 40
0.0229121317532949
100
AcDbArc
 50
359.5137017495989
 51
42.58927010000069
  0
LINE
  5
49C
330
1F
100
AcDbEntity
  8
0
100
AcDbLine
 10
399.0401742225907
 20
262.6655107229613
 30
0.0
 11
399.0401742225907
 21
262.6236446370044
 31
0.0
  0
ARC
  5
49D
330
1F
100
AcDbEntity
  8
0
100
AcDbCircle
 10
399.0630864420521
 20
262.6234507164536
 30
0.0
 40
0.0229130400932501
100
AcDbArc
 50
179.5150812604996
 51
222.5883676102003
  0
LINE
  5
49E
330
1F
100
AcDbEntity
  8
0
100
AcDbLine
 10
399.0462170715833
 20
262.6079448547554
 30
0.0
 11
399.3090815096362
 21
262.3802975736759
 31
0.0
  0
LWPOLYLINE
  5
49F
330
1F
100
AcDbEntity
  8
0
100
AcDbPolyline
 90
        9
 70
   128
 43
0.0
 10
399.3151243586287
 20
262.3855308344658
 10
399.3150081997665
 20
262.383589477701
 10
399.314664338051
 20
262.3819238840391
 10
399.314105942625
 20
262.380597901062
 10
399.3133543994091
 20
262.3796628018869
 10
399.3124387479679
 20
262.3791540681891
 10
399.3113939936786
 20
262.3790916827373
 10
399.3102604318981
 20
262.3794777900819
 10
399.3090815096362
 20
262.3802975736759
  0
LINE
  5
4A0
330
1F
100
AcDbEntity
  8
0
100
AcDbLine
 10
399.3151243586287
 20
262.4273969204227
 30
0.0
 11
399.3151243586287
 21
262.3855308344658
 31
0.0
  0
LWPOLYLINE
  5
4A1
330
1F
100
AcDbEntity
  8
0
100
AcDbPolyline
 90
        9
 70
   128
 43
0.0
 10
399.3211672076213
 20
262.4326303760948
 10
399.3199882852989
 20
262.4334501597492
 10
399.3188547235184
 20
262.4338362670938
 10
399.3178099692291
 20
262.4337738816421
 10
399.3168942052698
 20
262.4332652454155
 10
399.3161427745721
 20
262.432329853766
 10
399.315584379146
 20
262.431004065792
 10
399.3152404049125
 20
262.4293383746588
 10
399.3151243586287
 20
262.4273969204227
  0
LINE
  5
4A2
330
1F
100
AcDbEntity
  8
0
100
AcDbLine
 10
399.3483600844074
 20
262.4090806540159
 30
0.0
 11
399.3211672076213
 21
262.4326303760948
 31
0.0
  0
ARC
  5
4A3
330
1F
100
AcDbEntity
  8
0
100
AcDbCircle
 10
399.3314907170205
 20
262.3935747911091
 30
0.0
 40
0.0229130386380478
100
AcDbArc
 50
359.5145967587996
 51
42.58837509059827
  0
LINE
  5
4A4
330
1F
100
AcDbEntity
  8
0
100
AcDbLine
 10
399.3544029334
 20
262.3515145908675
 30
0.0
 11
399.3544029334
 21
262.3933806768244
 31
0.0
  0
ARC
  5
4A5
330
1F
100
AcDbEntity
  8
0
100
AcDbCircle
 10
399.3773151528614
 20
262.3513206703168
 30
0.0
 40
0.0229130400932207
100
AcDbArc
 50
179.5150812604996
 51
222.5883676102003
  0
LINE
  5
4A6
330
1F
100
AcDbEntity
  8
0
100
AcDbLine
 10
399.3604457823926
 20
262.3358148086185
 30
0.0
 11
399.3785743293704
 21
262.3201150263696
 31
0.0
  0
LWPOLYLINE
  5
4A7
330
1F
100
AcDbEntity
  8
0
100
AcDbPolyline
 90
        9
 70
   128
 43
0.0
 10
399.384617178363
 20
262.3253482871595
 10
399.3845011320792
 20
262.323406832863
 10
399.3841572703638
 20
262.3217412392615
 10
399.3835987624196
 20
262.3204153537558
 10
399.3828473317219
 20
262.3194801571093
 10
399.3819315677626
 20
262.3189715208223
 10
399.3808868134733
 20
262.318909135431
 10
399.3797532516928
 20
262.3192952427757
 10
399.3785743293704
 20
262.3201150263696
  0
LINE
  5
4A8
330
1F
100
AcDbEntity
  8
0
100
AcDbLine
 10
399.384617178363
 20
262.3253482871595
 30
0.0
 11
399.384617178363
 21
265.1199143015721
 31
0.0
  0
LWPOLYLINE
  5
4A9
330
1F
100
AcDbEntity
  8
0
100
AcDbPolyline
 90
        9
 70
   128
 43
0.0
 10
399.3997243571639
 20
265.1329974534261
 10
399.3967771639968
 20
265.1350470099428
 10
399.3939430906777
 20
265.1360123758662
 10
399.3913313174725
 20
265.1358561929113
 10
399.3890420201831
 20
265.1345846753729
 10
399.3871632183119
 20
265.1322466106381
 10
399.3857671735181
 20
265.1289317995233
 10
399.3849074629401
 20
265.1247676935445
 10
399.384617178363
 20
265.1199143015721
  0
LINE
  5
4AA
330
1F
100
AcDbEntity
  8
0
100
AcDbLine
 10
351.9014701771543
 20
249.1030939794429
 30
0.0
 11
351.9014701771543
 21
249.0088952860701
 31
0.0
  0
LINE
  5
4AB
330
1F
100
AcDbEntity
  8
0
100
AcDbLine
 10
351.9165773558948
 20
248.969645684271
 30
0.0
 11
352.3093632162467
 21
248.6294831509375
 31
0.0
  0
LWPOLYLINE
  5
4AC
330
1F
100
AcDbEntity
  8
0
100
AcDbPolyline
 90
        7
 70
   128
 43
0.0
 10
351.9014701771543
 20
249.1030939794429
 10
351.9015863359561
 20
249.1050353362681
 10
351.9019301976716
 20
249.1067011248727
 10
351.9024885930976
 20
249.1080269128466
 10
351.9032401363134
 20
249.1089622069645
 10
351.9041557877546
 20
249.1094709407227
 10
351.9041610779153
 20
249.109472402853
  0
ARC
  5
4AD
330
1F
100
AcDbEntity
  8
0
100
AcDbCircle
 10
352.3161966667178
 20
248.6357906473747
 30
0.0
 40
0.0092994922936416
100
AcDbArc
 50
222.7080139063993
 51
279.5722281186992
  0
LINE
  5
4AE
330
1F
100
AcDbEntity
  8
0
100
AcDbLine
 10
352.2851917076979
 20
249.2194664062298
 30
0.0
 11
352.2851917076979
 21
251.523481314516
 31
0.0
  0
LWPOLYLINE
  5
4AF
330
1F
100
AcDbEntity
  8
0
100
AcDbPolyline
 90
        7
 70
   128
 43
0.0
 10
352.2851917076979
 20
251.523481314516
 10
352.285481992275
 20
251.5283347064279
 10
352.286341702853
 20
251.5324988124067
 10
352.2877377475863
 20
251.5358136235215
 10
352.2896165494576
 20
251.5381516883167
 10
352.2919058468074
 20
251.5394232058551
 10
352.2919190159502
 20
251.5394270074783
  0
LINE
  5
4B0
330
1F
100
AcDbEntity
  8
0
100
AcDbLine
 10
392.8172718629065
 20
263.2380887843719
 30
0.0
 11
392.8172718629065
 21
263.3584055303091
 31
0.0
  0
LWPOLYLINE
  5
4B1
330
1F
100
AcDbEntity
  8
0
100
AcDbPolyline
 90
        7
 70
   128
 43
0.0
 10
392.8239991148998
 20
263.3743512963296
 10
392.8239859456965
 20
263.3743474947668
 10
392.8216966483467
 20
263.3730760015812
 10
392.819817902795
 20
263.3707378637278
 10
392.8184218580012
 20
263.3674230525526
 10
392.8175621474232
 20
263.363258922221
 10
392.8172718629065
 20
263.3584055303091
  0
LINE
  5
4B2
330
1F
100
AcDbEntity
  8
0
100
AcDbLine
 10
354.394149610618
 20
246.824005171967
 30
0.0
 11
401.493575081283
 21
260.4204381590232
 31
0.0
  0
ARC
  5
4B3
330
1F
100
AcDbEntity
  8
0
100
AcDbCircle
 10
354.436320746939
 20
246.8627688632226
 30
0.0
 40
0.0572802627667055
100
AcDbArc
 50
179.5140495355999
 51
222.589208524698
  0
LINE
  5
4B4
330
1F
100
AcDbEntity
  8
0
100
AcDbLine
 10
354.3790425443955
 20
246.8632546762949
 30
0.0
 11
354.3790425443955
 21
247.0910375481988
 31
0.0
  0
LINE
  5
4B5
330
1F
100
AcDbEntity
  8
0
100
AcDbLine
 10
354.7869354709699
 20
246.4838426386336
 30
0.0
 11
354.394149610618
 21
246.824005171967
 31
0.0
  0
ARC
  5
4B6
330
1F
100
AcDbEntity
  8
0
100
AcDbCircle
 10
354.7937691600735
 20
246.4901504605995
 30
0.0
 40
0.0092998884126317
100
AcDbArc
 50
222.7084903069997
 51
279.5710288848994
  0
LINE
  5
4B7
330
1F
100
AcDbEntity
  8
0
100
AcDbLine
 10
392.513483820754
 20
263.1642303723879
 30
0.0
 11
392.5254675702648
 21
263.1538521409098
 31
0.0
  0
LINE
  5
4B8
330
1F
100
AcDbEntity
  8
0
100
AcDbLine
 10
392.3986094436151
 20
263.1825264853755
 30
0.0
 11
392.3986094436151
 21
263.1172313541457
 31
0.0
  0
LINE
  5
4B9
330
1F
100
AcDbEntity
  8
0
100
AcDbLine
 10
360.3709998740194
 20
253.9919735968248
 30
0.0
 11
360.3709998740194
 21
253.8716568508876
 31
0.0
  0
LWPOLYLINE
  5
4BA
330
1F
100
AcDbEntity
  8
0
100
AcDbPolyline
 90
        7
 70
   128
 43
0.0
 10
360.3709998740194
 20
253.9919735968248
 10
360.3712901585965
 20
253.9968269887368
 10
360.372149869114
 20
254.0009911190683
 10
360.3735459139078
 20
254.0043059301831
 10
360.3754246594596
 20
254.006644068097
 10
360.3777139568094
 20
254.0079155612826
 10
360.3777271260126
 20
254.0079193628454
  0
LINE
  5
4BB
330
1F
100
AcDbEntity
  8
0
100
AcDbLine
 10
359.952337454728
 20
253.7507994206614
 30
0.0
 11
359.952337454728
 21
253.8160945518912
 31
0.0
  0
LINE
  5
4BC
330
1F
100
AcDbEntity
  8
0
100
AcDbLine
 10
360.0791955813776
 20
253.7874202074255
 30
0.0
 11
360.0672118318668
 21
253.7977984389036
 31
0.0
  0
LINE
  5
4BD
330
1F
100
AcDbEntity
  8
0
100
AcDbLine
 10
352.8350919234545
 20
251.6962276089886
 30
0.0
 11
352.8350919234545
 21
251.8165443548654
 31
0.0
  0
LWPOLYLINE
  5
4BE
330
1F
100
AcDbEntity
  8
0
100
AcDbPolyline
 90
        7
 70
   128
 43
0.0
 10
352.8350919234545
 20
251.8165443548654
 10
352.8353822080315
 20
251.8213977468378
 10
352.8362419186095
 20
251.8255618771693
 10
352.8376379633429
 20
251.8288766882841
 10
352.8395167089552
 20
251.8312148261979
 10
352.841806006305
 20
251.8324863193231
 10
352.8418191754478
 20
251.8324901209463
  0
LINE
  5
4BF
330
1F
100
AcDbEntity
  8
0
100
AcDbLine
 10
378.3910624218023
 20
260.2144052431523
 30
0.0
 11
378.1584123413513
 21
260.4158861229921
 31
0.0
  0
LINE
  5
4C0
330
1F
100
AcDbEntity
  8
0
100
AcDbLine
 10
399.3755541342334
 20
262.3227320116617
 30
0.0
 11
399.384617178363
 21
262.3253482871595
 31
0.0
  0
LINE
  5
4C1
330
1F
100
AcDbEntity
  8
0
100
AcDbLine
 10
400.5304870361867
 20
263.2844445799149
 30
0.0
 11
400.7614893860671
 21
263.3511292143539
 31
0.0
  0
LINE
  5
4C2
330
1F
100
AcDbEntity
  8
0
100
AcDbLine
 10
400.7868422087135
 20
263.4599644841491
 30
0.0
 11
400.4425713026931
 21
263.3605820340068
 31
0.0
  0
LINE
  5
4C3
330
1F
100
AcDbEntity
  8
0
100
AcDbLine
 10
400.8199114004782
 20
263.1735499033838
 30
0.0
 11
400.888332626794
 21
263.1933014101025
 31
0.0
  0
LINE
  5
4C4
330
1F
100
AcDbEntity
  8
0
100
AcDbLine
 10
400.8420763607055
 20
263.5795949382794
 30
0.0
 11
400.3527764734071
 21
263.4383462274414
 31
0.0
  0
LINE
  5
4C5
330
1F
100
AcDbEntity
  8
0
100
AcDbLine
 10
399.4826716855325
 20
264.6651117348313
 30
0.0
 11
399.456504114627
 21
264.6575578077403
 31
0.0
  0
LINE
  5
4C6
330
1F
100
AcDbEntity
  8
0
100
AcDbLine
 10
399.746468415463
 20
263.9634251562167
 30
0.0
 11
399.8210252493747
 21
263.984947860273
 31
0.0
  0
LINE
  5
4C7
330
1F
100
AcDbEntity
  8
0
100
AcDbLine
 10
401.1353936978442
 20
263.2338124867339
 30
0.0
 11
401.1092261269385
 21
263.2262585597032
 31
0.0
  0
LINE
  5
4C8
330
1F
100
AcDbEntity
  8
0
100
AcDbLine
 10
401.0329956198842
 20
263.6434791204235
 30
0.0
 11
400.8393637054748
 21
263.5875824014247
 31
0.0
  0
LINE
  5
4C9
330
1F
100
AcDbEntity
  8
0
100
AcDbLine
 10
401.1965057574023
 20
263.4746433442713
 30
0.0
 11
401.1965057574023
 21
263.500809696634
 31
0.0
  0
LINE
  5
4CA
330
1F
100
AcDbEntity
  8
0
100
AcDbLine
 10
399.317815264296
 20
262.4337753392821
 30
0.0
 11
399.2649514060195
 21
262.4185148578844
 31
0.0
  0
LINE
  5
4CB
330
1F
100
AcDbEntity
  8
0
100
AcDbLine
 10
399.8801308340792
 20
264.4936176430751
 30
0.0
 11
400.0184331058444
 21
264.5335420699865
 31
0.0
  0
LINE
  5
4CC
330
1F
100
AcDbEntity
  8
0
100
AcDbLine
 10
401.5506517362654
 20
260.5000822320765
 30
0.0
 11
401.5177465383343
 21
260.4905833196687
 31
0.0
  0
LINE
  5
4CD
330
1F
100
AcDbEntity
  8
0
100
AcDbLine
 10
400.3843798906193
 20
265.0477934813226
 30
0.0
 11
400.286490903894
 21
265.0195353649483
 31
0.0
  0
LINE
  5
4CE
330
1F
100
AcDbEntity
  8
0
100
AcDbLine
 10
400.4901299273186
 20
264.9562112630996
 30
0.0
 11
400.4149242849033
 21
264.9345012641859
 31
0.0
  0
LINE
  5
4CF
330
1F
100
AcDbEntity
  8
0
100
AcDbLine
 10
401.8648804464673
 20
260.2279521864656
 30
0.0
 11
401.8120165881303
 21
260.2126917050682
 31
0.0
  0
LINE
  5
4D0
330
1F
100
AcDbEntity
  8
0
100
AcDbLine
 10
399.8591772100962
 20
264.4090697915702
 30
0.0
 11
400.6529333189091
 21
264.6382074431202
 31
0.0
  0
LINE
  5
4D1
330
1F
100
AcDbEntity
  8
0
100
AcDbLine
 10
400.627109149676
 20
264.8349470173073
 30
0.0
 11
400.5312071391291
 21
264.8072624914906
 31
0.0
  0
LINE
  5
4D2
330
1F
100
AcDbEntity
  8
0
100
AcDbLine
 10
400.879894344836
 20
264.461667359034
 30
0.0
 11
399.8317887962599
 21
264.1591053487275
 31
0.0
  0
LINE
  5
4D3
330
1F
100
AcDbEntity
  8
0
100
AcDbLine
 10
400.9164807851862
 20
264.3165585939457
 30
0.0
 11
400.9611191238709
 21
264.329444572353
 31
0.0
  0
SPLINE
  5
4D4
330
1F
100
AcDbEntity
  8
0
100
AcDbSpline
210
0.0
220
0.0
230
1.0
 70
     8
 71
     3
 72
    10
 73
     6
 74
     0
 42
0.000000001
 43
0.0000000001
 40
0.0
 40
0.0
 40
0.0
 40
0.0
 40
0.4026013207574504
 40
0.7699377504115608
 40
1.0
 40
1.0
 40
1.0
 40
1.0
 10
399.5366183909533
 20
264.1451606224503
 30
0.0
 10
399.5328142244266
 20
264.147878845108
 30
0.0
 10
399.5255391081601
 20
264.1530771942693
 30
0.0
 10
399.5133931853093
 20
264.1558917467937
 30
0.0
 10
399.5063935896238
 20
264.1542036675068
 30
0.0
 10
399.5036979982444
 20
264.1535535768189
 30
0.0
  0
LINE
  5
4D5
330
1F
100
AcDbEntity
  8
0
100
AcDbLine
 10
399.5035529272682
 20
264.15410705696
 30
0.0
 11
399.4358250401343
 21
264.1383745740097
 31
0.0
  0
LINE
  5
4D6
330
1F
100
AcDbEntity
  8
0
100
AcDbLine
 10
401.3111050991397
 20
262.6084100544928
 30
0.0
 11
399.5366183909514
 21
264.1451606224467
 31
0.0
  0
SPLINE
  5
4D7
330
1F
100
AcDbEntity
  8
0
100
AcDbSpline
210
0.0
220
0.0
230
1.0
 70
     8
 71
     3
 72
    12
 73
     8
 74
     0
 42
0.000000001
 43
0.0000000001
 40
0.0
 40
0.0
 40
0.0
 40
0.0
 40
0.0263648108401365
 40
0.2735933885900756
 40
0.4926871295295895
 40
0.7172531422629712
 40
1.0
 40
1.0
 40
1.0
 40
1.0
 10
401.3078040979515
 20
260.6170772120028
 30
0.0
 10
401.3082642262459
 20
260.6171516475567
 30
0.0
 10
401.3130390778457
 20
260.6179240815259
 30
0.0
 10
401.3203756928833
 20
260.623609076164
 30
0.0
 10
401.3280042992097
 20
260.6328463906649
 30
0.0
 10
401.3327543936012
 20
260.6445451463882
 30
0.0
 10
401.3333087148736
 20
260.6532965819602
 30
0.0
 10
401.3336176614964
 20
260.6581741260807
 30
0.0
  0
LINE
  5
4D8
330
1F
100
AcDbEntity
  8
0
100
AcDbLine
 10
401.2556687197806
 20
260.5986806959203
 30
0.0
 11
401.3081926889176
 21
260.6169627214569
 31
0.0
  0
LINE
  5
4D9
330
1F
100
AcDbEntity
  8
0
100
AcDbLine
 10
401.3336176614908
 20
260.6581741260762
 30
0.0
 11
401.3336176614908
 21
262.5541896957756
 31
0.0
  0
SPLINE
  5
4DA
330
1F
100
AcDbEntity
  8
0
100
AcDbSpline
210
0.0
220
0.0
230
1.0
 70
     8
 71
     3
 72
    11
 73
     7
 74
     0
 42
0.000000001
 43
0.0000000001
 40
0.0
 40
0.0
 40
0.0
 40
0.0
 40
0.2420898305392934
 40
0.5681153729955116
 40
0.9069517246644204
 40
1.0
 40
1.0
 40
1.0
 40
1.0
 10
401.3336176614964
 20
262.5541896957768
 30
0.0
 10
401.3333188577713
 20
262.5590394727693
 30
0.0
 10
401.3326176511603
 20
262.5704205078951
 30
0.0
 10
401.3264223992803
 20
262.5887252131489
 30
0.0
 10
401.3184774672615
 20
262.6015437912578
 30
0.0
 10
401.3124119064292
 20
262.6071929580655
 30
0.0
 10
401.3111050991498
 20
262.6084100544741
 30
0.0
  0
LINE
  5
4DB
330
1F
100
AcDbEntity
  8
0
100
AcDbLine
 10
400.7896971613747
 20
263.2659718643405
 30
0.0
 11
400.7896971613747
 21
263.0599620215922
 31
0.0
  0
ARC
  5
4DC
330
1F
100
AcDbEntity
  8
0
100
AcDbCircle
 10
400.8015384473739
 20
263.2672018603634
 30
0.0
 40
0.0119049966249287
100
AcDbArc
 50
140.5016298711031
 51
185.9302465837934
  0
LINE
  5
4DD
330
1F
100
AcDbEntity
  8
0
100
AcDbLine
 10
400.8380400095415
 20
263.3143411079583
 30
0.0
 11
400.7923520439097
 21
263.2747741081346
 31
0.0
  0
LINE
  5
4DE
330
1F
100
AcDbEntity
  8
0
100
AcDbLine
 10
400.8380400095415
 20
263.3816297826804
 30
0.0
 11
400.8380400095415
 21
263.3143411079583
 31
0.0
  0
ARC
  5
4DF
330
1F
100
AcDbEntity
  8
0
100
AcDbCircle
 10
400.8265845375055
 20
263.3817269944593
 30
0.0
 40
0.0114558844914248
100
AcDbArc
 50
359.5137966405939
 51
42.58962241620546
  0
LINE
  5
4E0
330
1F
100
AcDbEntity
  8
0
100
AcDbLine
 10
400.7987961586866
 20
263.4208492212904
 30
0.0
 11
400.8350185850507
 21
263.3894796798929
 31
0.0
  0
ARC
  5
4E1
330
1F
100
AcDbEntity
  8
0
100
AcDbCircle
 10
400.7975859242036
 20
263.419947791539
 30
0.0
 40
0.0015090537143021
100
AcDbArc
 50
36.68017571710135
 51
157.7452031084954
  0
LINE
  5
4E2
330
1F
100
AcDbEntity
  8
0
100
AcDbLine
 10
400.7642820102611
 20
263.3538365472757
 30
0.0
 11
400.7961892817132
 21
263.4205193095764
 31
0.0
  0
LWPOLYLINE
  5
4E3
330
1F
100
AcDbEntity
  8
0
100
AcDbPolyline
 90
        9
 70
   128
 43
0.0
 10
400.7486408609993
 20
263.3832566169565
 10
400.7474824803519
 20
263.3784719220907
 10
400.7476910767111
 20
263.3721761715942
 10
400.7492349088105
 20
263.3653278347945
 10
400.7518788733491
 20
263.3589695526695
 10
400.7552205225477
 20
263.3540692620156
 10
400.7587510706201
 20
263.3513730170758
 10
400.7619330577484
 20
263.3512912945956
 10
400.7642820102611
 20
263.3538365472757
  0
LINE
  5
4E4
330
1F
100
AcDbEntity
  8
0
100
AcDbLine
 10
400.7840496126185
 20
263.4572571268746
 30
0.0
 11
400.7486408609993
 21
263.3832566169565
 31
0.0
  0
LWPOLYLINE
  5
4E5
330
1F
100
AcDbEntity
  8
0
100
AcDbPolyline
 90
        9
 70
   128
 43
0.0
 10
400.7840496126185
 20
263.4572571268746
 10
400.7847102098343
 20
263.4583752212902
 10
400.7854917495
 20
263.4592258655835
 10
400.7863811751116
 20
263.4597945478281
 10
400.7873633477356
 20
263.4600717487079
 10
400.7884216651599
 20
263.4600527894182
 10
400.789538287112
 20
263.4597379501061
 10
400.7906943040345
 20
263.45913257985
 10
400.7918701872795
 20
263.4582469077001
  0
LINE
  5
4E6
330
1F
100
AcDbEntity
  8
0
100
AcDbLine
 10
400.8350185850507
 20
263.4208792991389
 30
0.0
 11
400.7918701872795
 21
263.4582469077001
 31
0.0
  0
LWPOLYLINE
  5
4E7
330
1F
100
AcDbEntity
  8
0
100
AcDbPolyline
 90
        9
 70
   128
 43
0.0
 10
400.8350185850507
 20
263.4208792991389
 10
400.8356080462112
 20
263.4204693646801
 10
400.8361748270702
 20
263.4202763231845
 10
400.8366972042136
 20
263.4203075372115
 10
400.8371550862227
 20
263.4205618218165
 10
400.8375308578604
 20
263.4210294262423
 10
400.837810055542
 20
263.4216923964284
 10
400.8379819863695
 20
263.422525226735
 10
400.8380400095415
 20
263.4234959355717
  0
LINE
  5
4E8
330
1F
100
AcDbEntity
  8
0
100
AcDbLine
 10
400.8380400095415
 20
263.5700274859493
 30
0.0
 11
400.8380400095415
 21
263.4234959355717
 31
0.0
  0
LWPOLYLINE
  5
4E9
330
1F
100
AcDbEntity
  8
0
100
AcDbPolyline
 90
        9
 70
   128
 43
0.0
 10
400.8561686128039
 20
263.5543276550253
 10
400.8554786382278
 20
263.5609332491417
 10
400.8535137302084
 20
263.5677282902191
 10
400.8505730653897
 20
263.5736782767689
 10
400.8471043392721
 20
263.5778773527059
 10
400.8436355568955
 20
263.5796863353776
 10
400.8406948920765
 20
263.5788297297433
 10
400.8387299841175
 20
263.5754380090501
 10
400.8380400095415
 20
263.5700274859493
  0
LINE
  5
4EA
330
1F
100
AcDbEntity
  8
0
100
AcDbLine
 10
400.8561686128039
 20
263.2769643608414
 30
0.0
 11
400.8561686128039
 21
263.5543276550253
 31
0.0
  0
ARC
  5
4EB
330
1F
100
AcDbEntity
  8
0
100
AcDbCircle
 10
400.8676245014944
 20
263.2768673154827
 30
0.0
 40
0.0114562997405326
100
AcDbArc
 50
179.5146464769052
 51
222.5888023937915
  0
LINE
  5
4EC
330
1F
100
AcDbEntity
  8
0
100
AcDbLine
 10
400.8727697046417
 20
263.2573541328485
 30
0.0
 11
400.8591900372941
 21
263.2691144697322
 31
0.0
  0
ARC
  5
4ED
330
1F
100
AcDbEntity
  8
0
100
AcDbCircle
 10
400.851146031115
 20
263.2363386187197
 30
0.0
 40
0.0301535253392671
100
AcDbArc
 50
12.19069614990332
 51
44.1828501404929
  0
LINE
  5
4EE
330
1F
100
AcDbEntity
  8
0
100
AcDbLine
 10
400.8902139049046
 20
263.2056141262008
 30
0.0
 11
400.8806196004041
 21
263.2427060204256
 31
0.0
  0
LWPOLYLINE
  5
4EF
330
1F
100
AcDbEntity
  8
0
100
AcDbPolyline
 90
        9
 70
   128
 43
0.0
 10
400.8902139049046
 20
263.2056141262008
 10
400.8908176044912
 20
263.2025669631787
 10
400.8910235275501
 20
263.1996796872631
 10
400.8908176044912
 20
263.1971490805399
 10
400.8902139049046
 20
263.1951475803491
 10
400.8892536246531
 20
263.1938115085187
 10
400.8880021030595
 20
263.1932320306458
 10
400.8865446584676
 20
263.193448600739
 10
400.8849806785691
 20
263.1944464265437
  0
LINE
  5
4F0
330
1F
100
AcDbEntity
  8
0
100
AcDbLine
 10
400.8362701065843
 20
263.2366310193244
 30
0.0
 11
400.8849806785691
 21
263.1944464265437
 31
0.0
  0
ARC
  5
4F1
330
1F
100
AcDbEntity
  8
0
100
AcDbCircle
 10
400.8350316895352
 20
263.2356441676541
 30
0.0
 40
0.0015835255075287
100
AcDbArc
 50
38.55012605220811
 51
124.5487069078849
  0
LINE
  5
4F2
330
1F
100
AcDbEntity
  8
0
100
AcDbLine
 10
400.8207963859174
 20
263.2253980830133
 30
0.0
 11
400.834133661732
 21
263.236948429571
 31
0.0
  0
ARC
  5
4F3
330
1F
100
AcDbEntity
  8
0
100
AcDbCircle
 10
400.8238587875805
 20
263.2228739657771
 30
0.0
 40
0.0039685604534056
100
AcDbArc
 50
140.5036975908968
 51
185.9298728167994
  0
LINE
  5
4F4
330
1F
100
AcDbEntity
  8
0
100
AcDbLine
 10
400.8199114625987
 20
263.0337956691692
 30
0.0
 11
400.8199114625987
 21
263.2224639692582
 31
0.0
  0
LINE
  5
4F5
330
1F
100
AcDbEntity
  8
0
100
AcDbLine
 10
400.5814845853608
 20
263.2402799363139
 30
0.0
 11
400.8380400095415
 21
263.3143411079583
 31
0.0
  0
LINE
  5
4F6
330
1F
100
AcDbEntity
  8
0
100
AcDbLine
 10
399.6690647819158
 20
264.0611743696737
 30
0.0
 11
399.6585980654741
 21
264.0581528888638
 31
0.0
  0
ARC
  5
4F7
330
1F
100
AcDbEntity
  8
0
100
AcDbCircle
 10
399.6639304607502
 20
264.0339542284654
 30
0.0
 40
0.0247792172147237
100
AcDbArc
 50
102.4270425628887
 51
137.4454643363019
  0
ARC
  5
4F8
330
1F
100
AcDbEntity
  8
0
100
AcDbCircle
 10
399.6888303153197
 20
264.0738586275892
 30
0.0
 40
0.0569891384475743
100
AcDbArc
 50
265.7142138312923
 51
285.3534531254932
  0
LINE
  5
4F9
330
1F
100
AcDbEntity
  8
0
100
AcDbLine
 10
399.7300855004543
 20
264.0264568614495
 30
0.0
 11
399.7039194892106
 21
264.0189033846118
 31
0.0
  0
ARC
  5
4FA
330
1F
100
AcDbEntity
  8
0
100
AcDbCircle
 10
399.7448566746785
 20
263.9799023008535
 30
0.0
 40
0.0488417311580144
100
AcDbArc
 50
57.13640465639962
 51
107.6035756508048
  0
LINE
  5
4FB
330
1F
100
AcDbEntity
  8
0
100
AcDbLine
 10
399.8076174002757
 20
263.9895279747429
 30
0.0
 11
399.7713601938118
 21
264.0209276366515
 31
0.0
  0
LINE
  5
4FC
330
1F
100
AcDbEntity
  8
0
100
AcDbLine
 10
399.4273504284434
 20
264.2705051402332
 30
0.0
 11
399.6690647819158
 21
264.0611743696737
 31
0.0
  0
ARC
  5
4FD
330
1F
100
AcDbEntity
  8
0
100
AcDbCircle
 10
399.6514418810713
 20
264.1180701600313
 30
0.0
 40
0.0595625519811095
100
AcDbArc
 50
287.2098431970878
 51
357.1671898673989
  0
ARC
  5
4FE
330
1F
100
AcDbEntity
  8
0
100
AcDbCircle
 10
399.4207433229477
 20
264.3180054155537
 30
0.0
 40
0.0223336094261917
100
AcDbArc
 50
287.2077275490044
 51
357.1714781924031
  0
LINE
  5
4FF
330
1F
100
AcDbEntity
  8
0
100
AcDbLine
 10
399.4273504284434
 20
264.2966714926564
 30
0.0
 11
399.4238958349421
 21
264.2956742374183
 31
0.0
  0
LINE
  5
500
330
1F
100
AcDbEntity
  8
0
100
AcDbLine
 10
399.4430497232453
 20
264.3169033196684
 30
0.0
 11
399.4430497232453
 21
264.6256662147885
 31
0.0
  0
LWPOLYLINE
  5
501
330
1F
100
AcDbEntity
  8
0
100
AcDbPolyline
 90
       17
 70
   128
 43
0.0
 10
399.676185181534
 20
264.296982603464
 10
399.6726202754554
 20
264.2690282747375
 10
399.6624683633978
 20
264.2515042790017
 10
399.6472749096972
 20
264.2470784954106
 10
399.6293530174223
 20
264.2564247596341
 10
399.6114311251471
 20
264.2781201233469
 10
399.5962376714468
 20
264.3088617407851
 10
399.5860857594495
 20
264.3439693638566
 10
399.5825208533713
 20
264.3780982910631
 10
399.5860857594495
 20
264.4060526197894
 10
399.5962376714468
 20
264.4235766155252
 10
399.6114311251471
 20
264.4280023747639
 10
399.6293530174223
 20
264.4186561348929
 10
399.6472749096972
 20
264.3969607467672
 10
399.6624683633978
 20
264.366219153742
 10
399.6726202754554
 20
264.3311115306706
 10
399.676185181534
 20
264.296982603464
  0
LINE
  5
502
330
1F
100
AcDbEntity
  8
0
100
AcDbLine
 10
399.4994315390552
 20
264.6593865308017
 30
0.0
 11
399.7502102223184
 21
264.442205820367
 31
0.0
  0
ARC
  5
503
330
1F
100
AcDbEntity
  8
0
100
AcDbCircle
 10
399.6658668178913
 20
264.3646777554042
 30
0.0
 40
0.114561820552062
100
AcDbArc
 50
359.5143781081937
 51
42.58907672529504
  0
LINE
  5
504
330
1F
100
AcDbEntity
  8
0
100
AcDbLine
 10
399.7804245235423
 20
264.3637067753039
 30
0.0
 11
399.7804245235423
 21
264.1908119258701
 31
0.0
  0
ARC
  5
505
330
1F
100
AcDbEntity
  8
0
100
AcDbCircle
 10
399.7452732367035
 20
264.185887101993
 30
0.0
 40
0.0354946031764525
100
AcDbArc
 50
313.3344161690042
 51
7.97543525279364
  0
LINE
  5
506
330
1F
100
AcDbEntity
  8
0
100
AcDbLine
 10
399.769631599297
 20
264.1600697236039
 30
0.0
 11
399.7109316476231
 21
264.1255929975784
 31
0.0
  0
LINE
  5
507
330
1F
100
AcDbEntity
  8
0
100
AcDbLine
 10
399.7109316476231
 20
264.1255929975784
 30
0.0
 11
399.7109316476231
 21
264.1151264760793
 31
0.0
  0
LWPOLYLINE
  5
508
330
1F
100
AcDbEntity
  8
0
100
AcDbPolyline
 90
        7
 70
   128
 43
0.0
 10
399.4430497232453
 20
264.6256662147885
 10
399.4436302923981
 20
264.6353730230067
 10
399.4453496009116
 20
264.6437013202131
 10
399.4481416904942
 20
264.6503309302836
 10
399.4518992942295
 20
264.6550070598047
 10
399.4564777762811
 20
264.6575502289071
 10
399.456504114627
 20
264.6575578077403
  0
LWPOLYLINE
  5
509
330
1F
100
AcDbEntity
  8
0
100
AcDbPolyline
 90
        9
 70
   128
 43
0.0
 10
399.8076174002757
 20
263.9895279747429
 10
399.8123329768568
 20
263.9862486453703
 10
399.8168673928686
 20
263.9847041184629
 10
399.8210462974995
 20
263.9849539526233
 10
399.824709184492
 20
263.9869884001749
 10
399.8277151886931
 20
263.9907293330513
 10
399.8299488828505
 20
263.9960330210594
 10
399.8313243859688
 20
264.0026955906368
 10
399.8317887962599
 20
264.0104611151523
  0
LINE
  5
50A
330
1F
100
AcDbEntity
  8
0
100
AcDbLine
 10
399.8317887962599
 20
264.3464168712338
 30
0.0
 11
399.8317887962599
 21
264.0104611151523
 31
0.0
  0
ARC
  5
50B
330
1F
100
AcDbEntity
  8
0
100
AcDbCircle
 10
399.5874819368816
 20
264.5886307540409
 30
0.0
 40
0.0488417791556691
100
AcDbArc
 50
57.1363992989013
 51
107.601670804813
  0
LINE
  5
50C
330
1F
100
AcDbEntity
  8
0
100
AcDbLine
 10
399.5387091143218
 20
264.6253699784187
 30
0.0
 11
399.5727122958514
 21
264.6351858514843
 31
0.0
  0
LINE
  5
50D
330
1F
100
AcDbEntity
  8
0
100
AcDbLine
 10
399.6139854858668
 20
264.6296561277272
 30
0.0
 11
399.6623283340333
 21
264.5877899930856
 31
0.0
  0
ARC
  5
50E
330
1F
100
AcDbEntity
  8
0
100
AcDbCircle
 10
399.6609454030325
 20
264.7107796906828
 30
0.0
 40
0.097687605037412
100
AcDbArc
 50
57.13753380401204
 51
107.6014914178908
  0
ARC
  5
50F
330
1F
100
AcDbEntity
  8
0
100
AcDbCircle
 10
399.8482171824552
 20
264.3469898147216
 30
0.0
 40
0.0164383739634303
100
AcDbArc
 50
157.7465720280034
 51
181.9973930386051
  0
LINE
  5
510
330
1F
100
AcDbEntity
  8
0
100
AcDbLine
 10
399.8768933225617
 20
264.4468755057828
 30
0.0
 11
399.8330031739691
 21
264.3532150925473
 31
0.0
  0
ARC
  5
511
330
1F
100
AcDbEntity
  8
0
100
AcDbCircle
 10
399.4461570002686
 20
264.964109590445
 30
0.0
 40
0.2053257536390232
100
AcDbArc
 50
263.7756614444965
 51
285.3684715205097
  0
LINE
  5
512
330
1F
100
AcDbEntity
  8
0
100
AcDbLine
 10
399.500573572922
 20
264.7661260009225
 30
0.0
 11
399.631405188801
 21
264.8038938352432
 31
0.0
  0
LINE
  5
513
330
1F
100
AcDbEntity
  8
0
100
AcDbLine
 10
399.7139530721132
 20
264.792834886688
 30
0.0
 11
399.8559602484426
 21
264.669853064447
 31
0.0
  0
ARC
  5
514
330
1F
100
AcDbEntity
  8
0
100
AcDbCircle
 10
399.836322358053
 20
264.4634763840059
 30
0.0
 40
0.043835970558661
100
AcDbArc
 50
337.7465420820984
 51
1.997160954996093
  0
ARC
  5
515
330
1F
100
AcDbEntity
  8
0
100
AcDbCircle
 10
399.6340496046204
 20
264.5557433529948
 30
0.0
 40
0.0373949087922365
100
AcDbArc
 50
303.9418382367109
 51
356.9808134131029
  0
LINE
  5
516
330
1F
100
AcDbEntity
  8
0
100
AcDbLine
 10
399.671392607565
 20
264.5642402954049
 30
0.0
 11
399.671392607565
 21
264.553773749553
 31
0.0
  0
LINE
  5
517
330
1F
100
AcDbEntity
  8
0
100
AcDbLine
 10
399.8801317006855
 20
264.607053813809
 30
0.0
 11
399.8801317006855
 21
264.4650040665035
 31
0.0
  0
ARC
  5
518
330
1F
100
AcDbEntity
  8
0
100
AcDbCircle
 10
399.6370255212442
 20
264.5645316786941
 30
0.0
 40
0.034368321537388
100
AcDbArc
 50
359.5142261389972
 51
42.58918297949016
  0
ARC
  5
519
330
1F
100
AcDbEntity
  8
0
100
AcDbCircle
 10
399.7884853785424
 20
264.6078305395517
 30
0.0
 40
0.091649613557603
100
AcDbArc
 50
359.5144154010954
 51
42.58904837669423
  0
LINE
  5
51A
330
1F
100
AcDbEntity
  8
0
100
AcDbLine
 10
401.3336179697975
 20
261.802985328314
 30
0.0
 11
401.3548763899482
 21
261.5757536906414
 31
0.0
  0
LINE
  5
51B
330
1F
100
AcDbEntity
  8
0
100
AcDbLine
 10
401.0705749774851
 20
263.2735965684205
 30
0.0
 11
401.0705749774851
 21
262.9376408123995
 31
0.0
  0
LWPOLYLINE
  5
51C
330
1F
100
AcDbEntity
  8
0
100
AcDbPolyline
 90
        9
 70
   128
 43
0.0
 10
401.3848612436853
 20
261.5543298498169
 10
401.3838340483152
 20
261.5457356712148
 10
401.3808922578935
 20
261.540089301904
 10
401.3764357876357
 20
261.5381585701816
 10
401.3710707570525
 20
261.5402059821438
 10
401.3655266482084
 20
261.5459530454314
 10
401.3605573681039
 20
261.5546183824479
 10
401.3568388217247
 20
261.5650234932085
 10
401.3548763899482
 20
261.5757536906414
  0
ARC
  5
51D
330
1F
100
AcDbEntity
  8
0
100
AcDbCircle
 10
401.1622208520941
 20
262.9368638779364
 30
0.0
 40
0.0916491678063778
100
AcDbArc
 50
179.5142825896044
 51
222.5891066528892
  0
LINE
  5
51E
330
1F
100
AcDbEntity
  8
0
100
AcDbLine
 10
401.0947463734088
 20
262.8748415860537
 30
0.0
 11
401.1310035799333
 21
262.8434419242057
 31
0.0
  0
LWPOLYLINE
  5
51F
330
1F
100
AcDbEntity
  8
0
100
AcDbPolyline
 90
        9
 70
   128
 43
0.0
 10
401.1199431314802
 20
262.8228048452859
 10
401.1247575352171
 20
262.8245298356584
 10
401.1288076146696
 20
262.8266916361669
 10
401.1319344576859
 20
262.8292063566359
 10
401.1340218661855
 20
262.8319783280894
 10
401.1349859692701
 20
262.8349000935639
 10
401.1347931350448
 20
262.8378603079992
 10
401.1334470669356
 20
262.8407441076391
 10
401.1310035799333
 20
262.8434419242057
  0
LINE
  5
520
330
1F
100
AcDbEntity
  8
0
100
AcDbLine
 10
401.1199431314802
 20
262.8228048452859
 30
0.0
 11
401.0937771202367
 21
262.8152513685088
 31
0.0
  0
ARC
  5
521
330
1F
100
AcDbEntity
  8
0
100
AcDbCircle
 10
401.0991101301312
 20
262.7910516407604
 30
0.0
 40
0.0247803917438593
100
AcDbArc
 50
102.4278992908952
 51
137.444607608501
  0
LINE
  5
522
330
1F
100
AcDbEntity
  8
0
100
AcDbLine
 10
401.3912796138876
 20
262.5696925743863
 30
0.0
 11
401.3808128974458
 21
262.5666710936368
 31
0.0
  0
LWPOLYLINE
  5
523
330
1F
100
AcDbEntity
  8
0
100
AcDbPolyline
 90
        9
 70
   128
 43
0.0
 10
401.369754064974
 20
262.5460344162651
 10
401.3673089619898
 20
262.5487318312837
 10
401.3659644534825
 20
262.5516160811771
 10
401.3657701159145
 20
262.5545757966535
 10
401.3667357787219
 20
262.5574980123208
 10
401.3688215712399
 20
262.5602695822868
 10
401.3719500301771
 20
262.5627847042436
 10
401.3759984937689
 20
262.5649461032644
 10
401.3808128974458
 20
262.5666710936368
  0
LINE
  5
524
330
1F
100
AcDbEntity
  8
0
100
AcDbLine
 10
401.3757969139549
 20
262.5408011554853
 30
0.0
 11
401.369754064974
 21
262.5460344162651
 31
0.0
  0
LINE
  5
525
330
1F
100
AcDbEntity
  8
0
100
AcDbLine
 10
401.3848612436853
 20
261.5543298498169
 30
0.0
 11
401.3848612436853
 21
262.517251433452
 31
0.0
  0
LINE
  5
526
330
1F
100
AcDbEntity
  8
0
100
AcDbLine
 10
401.4029322346293
 20
263.0109065723299
 30
0.0
 11
401.1521535513663
 21
263.2280872827648
 31
0.0
  0
ARC
  5
527
330
1F
100
AcDbEntity
  8
0
100
AcDbCircle
 10
401.3185892144674
 20
262.9333787380233
 30
0.0
 40
0.1145613815311294
100
AcDbArc
 50
359.5142852642051
 51
42.5891218666882
  0
LINE
  5
528
330
1F
100
AcDbEntity
  8
0
100
AcDbLine
 10
401.4331464795946
 20
262.9324075760327
 30
0.0
 11
401.4331464795946
 21
262.6236446808524
 31
0.0
  0
LINE
  5
529
330
1F
100
AcDbEntity
  8
0
100
AcDbLine
 10
401.1065646035429
 20
262.9720360705302
 30
0.0
 11
401.1652645552167
 21
262.8358880458805
 31
0.0
  0
LINE
  5
52A
330
1F
100
AcDbEntity
  8
0
100
AcDbLine
 10
401.0254704511834
 20
263.4521785341653
 30
0.0
 11
401.0693605997155
 21
263.2824981536784
 31
0.0
  0
ARC
  5
52B
330
1F
100
AcDbEntity
  8
0
100
AcDbCircle
 10
401.2253938037231
 20
263.0238751551124
 30
0.0
 40
0.1296443963722699
100
AcDbArc
 50
181.0620514499051
 51
203.5691741500055
  0
LINE
  5
52C
330
1F
100
AcDbEntity
  8
0
100
AcDbLine
 10
401.0978254102174
 20
262.8076978916713
 30
0.0
 11
401.0904080148836
 21
262.8141215444805
 31
0.0
  0
LINE
  5
52D
330
1F
100
AcDbEntity
  8
0
100
AcDbLine
 10
401.0957716792973
 20
263.194367015457
 30
0.0
 11
401.0957716792973
 21
263.0214721660231
 31
0.0
  0
ARC
  5
52E
330
1F
100
AcDbEntity
  8
0
100
AcDbCircle
 10
401.142958154919
 20
262.8265236203267
 30
0.0
 40
0.0223336094261933
100
AcDbArc
 50
287.2077275491144
 51
357.1714781922992
  0
ARC
  5
52F
330
1F
100
AcDbEntity
  8
0
100
AcDbCircle
 10
401.3736567130426
 20
262.6265883648046
 30
0.0
 40
0.0595625519812074
100
AcDbArc
 50
287.2098431971953
 51
357.167189867295
  0
ARC
  5
530
330
1F
100
AcDbEntity
  8
0
100
AcDbCircle
 10
401.1243288507326
 20
262.8487230165128
 30
0.0
 40
0.0488415113207781
100
AcDbArc
 50
237.136347779798
 51
287.6018346913042
  0
LINE
  5
531
330
1F
100
AcDbEntity
  8
0
100
AcDbLine
 10
401.1495652603547
 20
262.8051896974294
 30
0.0
 11
401.1390985439731
 21
262.8021682166195
 31
0.0
  0
LINE
  5
532
330
1F
100
AcDbEntity
  8
0
100
AcDbLine
 10
401.1652645552167
 20
262.8358880458805
 30
0.0
 11
401.1652645552167
 21
262.8254215243813
 31
0.0
  0
ARC
  5
533
330
1F
100
AcDbEntity
  8
0
100
AcDbCircle
 10
401.0344437084379
 20
263.2732010723466
 30
0.0
 40
0.0361334335158228
100
AcDbArc
 50
0.6271396482002971
 51
14.90982995499311
  0
ARC
  5
534
330
1F
100
AcDbEntity
  8
0
100
AcDbCircle
 10
401.1185836123286
 20
263.4769710997629
 30
0.0
 40
0.0963573146944428
100
AcDbArc
 50
180.6273161368992
 51
194.9098082900015
  0
LINE
  5
535
330
1F
100
AcDbEntity
  8
0
100
AcDbLine
 10
401.0222320729988
 20
263.6179658776904
 30
0.0
 11
401.0222320729988
 21
263.4759161304452
 31
0.0
  0
LWPOLYLINE
  5
536
330
1F
100
AcDbEntity
  8
0
100
AcDbPolyline
 90
        7
 70
   128
 43
0.0
 10
401.0957716792973
 20
263.194367015457
 10
401.0963522483901
 20
263.2040738236752
 10
401.0980716132231
 20
263.212402072176
 10
401.1008637028053
 20
263.2190316822466
 10
401.1046212502211
 20
263.2237078605336
 10
401.109199844912
 20
263.2262509321042
 10
401.1092261269385
 20
263.2262585597032
  0
LWPOLYLINE
  5
537
330
1F
100
AcDbEntity
  8
0
100
AcDbPolyline
 90
        9
 70
   128
 43
0.0
 10
401.0222320729988
 20
263.6179658776904
 10
401.0226965395493
 20
263.6257313169412
 10
401.0240720426674
 20
263.6323938986647
 10
401.0263056805658
 20
263.6376976110859
 10
401.0293117410259
 20
263.6414385439623
 10
401.0329745716989
 20
263.6434730402799
 10
401.0371535326494
 20
263.6437228013213
 10
401.0416878924019
 20
263.6421783475327
 10
401.0464035252421
 20
263.638898944981
  0
ARC
  5
538
330
1F
100
AcDbEntity
  8
0
100
AcDbCircle
 10
400.8459091580347
 20
263.5731431063484
 30
0.0
 40
0.0158535860701647
100
AcDbArc
 50
114.3851821557136
 51
168.8407192757044
  0
LWPOLYLINE
  5
539
330
1F
100
AcDbEntity
  8
0
100
AcDbPolyline
 90
        6
 70
   128
 43
0.0
 10
401.166291420707
 20
263.4484770140858
 10
401.1759202280603
 20
263.451926994831
 10
401.1840187711051
 20
263.45625019436
 10
401.190274129317
 20
263.46127998802
 10
401.1944473303953
 20
263.4668235294394
 10
401.1963771525467
 20
263.4726674618153
  0
LINE
  5
53A
330
1F
100
AcDbEntity
  8
0
100
AcDbLine
 10
401.0361458401461
 20
263.4109072210881
 30
0.0
 11
401.166291420707
 21
263.4484770140858
 31
0.0
  0
LINE
  5
53B
330
1F
100
AcDbEntity
  8
0
100
AcDbLine
 10
401.1884107015713
 20
263.51591712274
 30
0.0
 11
401.0464035252421
 21
263.638898944981
 31
0.0
  0
ARC
  5
53C
330
1F
100
AcDbEntity
  8
0
100
AcDbCircle
 10
401.1764272318076
 20
263.4997734738369
 30
0.0
 40
0.0201052467922832
100
AcDbArc
 50
2.954328796101749
 51
53.41341134411011
  0
ARC
  5
53D
330
1F
100
AcDbEntity
  8
0
100
AcDbCircle
 10
401.3504940790491
 20
262.5175427502093
 30
0.0
 40
0.0343683993065053
100
AcDbArc
 50
359.5143381913043
 51
42.58926968779981
  0
LINE
  5
53E
330
1F
100
AcDbEntity
  8
0
100
AcDbLine
 10
400.4553211876915
 20
263.4679483163215
 30
0.0
 11
400.4550441848363
 21
263.4681882078028
 31
0.0
  0
ARC
  5
53F
330
1F
100
AcDbEntity
  8
0
100
AcDbCircle
 10
399.0581748370105
 20
262.6048428575666
 30
0.0
 40
0.0572812404201143
100
AcDbArc
 50
179.5144602797977
 51
222.5889885909064
  0
ARC
  5
540
330
1F
100
AcDbEntity
  8
0
100
AcDbCircle
 10
401.5643275063459
 20
260.4598817997439
 30
0.0
 40
0.0229127271282084
100
AcDbArc
 50
359.5142893806031
 51
42.5886824690055
  0
LINE
  5
541
330
1F
100
AcDbEntity
  8
0
100
AcDbLine
 10
401.5872394101446
 20
260.4596875652065
 30
0.0
 11
401.5872394101446
 21
260.4178214793306
 31
0.0
  0
ARC
  5
542
330
1F
100
AcDbEntity
  8
0
100
AcDbCircle
 10
401.6101516296216
 20
260.4176275587199
 30
0.0
 40
0.0229130400490472
100
AcDbArc
 50
179.5150812606047
 51
222.5883676101049
  0
LINE
  5
543
330
1F
100
AcDbEntity
  8
0
100
AcDbLine
 10
401.8561466966698
 20
260.1744744164726
 30
0.0
 11
401.593282259186
 21
260.402121697112
 31
0.0
  0
LWPOLYLINE
  5
544
330
1F
100
AcDbEntity
  8
0
100
AcDbPolyline
 90
        9
 70
   128
 43
0.0
 10
401.8561466966698
 20
260.1744744164726
 10
401.8573256189296
 20
260.1736546328802
 10
401.8584591807686
 20
260.173268525476
 10
401.8595039350556
 20
260.1733309109278
 10
401.8604195864347
 20
260.1738396446848
 10
401.8611711297093
 20
260.1747747438583
 10
401.861729525074
 20
260.1761007267724
 10
401.8620733867889
 20
260.177766320431
 10
401.8621895456508
 20
260.1797076771921
  0
LINE
  5
545
330
1F
100
AcDbEntity
  8
0
100
AcDbLine
 10
401.8621895456508
 20
260.2215737630679
 30
0.0
 11
401.8621895456508
 21
260.1797076771921
 31
0.0
  0
LWPOLYLINE
  5
546
330
1F
100
AcDbEntity
  8
0
100
AcDbPolyline
 90
        9
 70
   128
 43
0.0
 10
401.8621895456508
 20
260.2215737630679
 10
401.8623055919343
 20
260.2235152173606
 10
401.8626494536493
 20
260.2251810059621
 10
401.8632079615922
 20
260.2265066964622
 10
401.8639593922885
 20
260.2274420880495
 10
401.864875156246
 20
260.2279507243355
 10
401.8659199105935
 20
260.2280131097266
 10
401.8670534723721
 20
260.2276270023827
 10
401.8682323946316
 20
260.2268072187905
  0
LINE
  5
547
330
1F
100
AcDbEntity
  8
0
100
AcDbLine
 10
401.8682323946316
 20
260.2268072187905
 30
0.0
 11
401.8954252713653
 21
260.203257496757
 31
0.0
  0
ARC
  5
548
330
1F
100
AcDbEntity
  8
0
100
AcDbCircle
 10
401.8785559040107
 20
260.1877516338803
 30
0.0
 40
0.0229130385935629
100
AcDbArc
 50
359.5145967588037
 51
42.58837509079179
  0
LINE
  5
549
330
1F
100
AcDbEntity
  8
0
100
AcDbLine
 10
401.9014681203461
 20
260.1875575195958
 30
0.0
 11
401.9014681203461
 21
260.0933588263449
 31
0.0
  0
LWPOLYLINE
  5
54A
330
1F
100
AcDbEntity
  8
0
100
AcDbPolyline
 90
        9
 70
   128
 43
0.0
 10
401.9014681203461
 20
260.0933588263449
 10
401.9011778357699
 20
260.0885053369105
 10
401.9003181252537
 20
260.0843413040584
 10
401.8989220804626
 20
260.0810263954786
 10
401.8970432785949
 20
260.0786883063351
 10
401.8947540938281
 20
260.0774168131521
 10
401.8921422080498
 20
260.0772607521423
 10
401.8893082473142
 20
260.0782259717662
 10
401.8863609416349
 20
260.0802756257502
  0
LINE
  5
54B
330
1F
100
AcDbEntity
  8
0
100
AcDbLine
 10
401.8863609416349
 20
260.0802756257502
 30
0.0
 11
401.4935750820427
 21
260.420438158426
 31
0.0
  0
ARC
  5
54C
330
1F
100
AcDbEntity
  8
0
100
AcDbCircle
 10
401.5357462182818
 20
260.4592018496064
 30
0.0
 40
0.0572802626560193
100
AcDbArc
 50
179.5140495355959
 51
222.5892085245978
  0
LINE
  5
54D
330
1F
100
AcDbEntity
  8
0
100
AcDbLine
 10
401.4784680158495
 20
260.4596876626779
 30
0.0
 11
401.4784680158495
 21
263.2385537676443
 31
0.0
  0
ARC
  5
54E
330
1F
100
AcDbEntity
  8
0
100
AcDbCircle
 10
401.4211888466798
 20
263.2390391358402
 30
0.0
 40
0.0572812255631881
100
AcDbArc
 50
359.5145027222971
 51
42.58899385099112
  0
LINE
  5
54F
330
1F
100
AcDbEntity
  8
0
100
AcDbLine
 10
401.4633608370774
 20
263.2778033206619
 30
0.0
 11
400.8923106227913
 21
263.772347313074
 31
0.0
  0
ARC
  5
550
330
1F
100
AcDbEntity
  8
0
100
AcDbCircle
 10
400.93448224113
 20
263.8111113133468
 30
0.0
 40
0.0572808267656037
100
AcDbArc
 50
179.5143391026927
 51
222.5891097680895
  0
LINE
  5
551
330
1F
100
AcDbEntity
  8
0
100
AcDbLine
 10
400.8772034721793
 20
263.8115968416786
 30
0.0
 11
400.8772034721793
 21
264.4552890087549
 31
0.0
  0
LWPOLYLINE
  5
552
330
1F
100
AcDbEntity
  8
0
100
AcDbPolyline
 90
        9
 70
   128
 43
0.0
 10
400.8772034721793
 20
264.4552890087549
 10
400.8773195747219
 20
264.4572304142819
 10
400.8776634364365
 20
264.4588960079406
 10
400.878221859961
 20
264.4602219665018
 10
400.878973375076
 20
264.4611571874992
 10
400.8798890827747
 20
264.4616657750194
 10
400.8809338089625
 20
264.4617282822951
 10
400.8820674269998
 20
264.4613421262457
 10
400.8832463211604
 20
264.4605222694743
  0
LINE
  5
553
330
1F
100
AcDbEntity
  8
0
100
AcDbLine
 10
400.8832463211604
 20
264.4605222694743
 30
0.0
 11
400.9225248958557
 21
264.4265060260023
 31
0.0
  0
LWPOLYLINE
  5
554
330
1F
100
AcDbEntity
  8
0
100
AcDbPolyline
 90
        9
 70
   128
 43
0.0
 10
400.9225248958557
 20
264.4265060260023
 10
400.9237038181151
 20
264.4256861448782
 10
400.9248374362132
 20
264.4252999887684
 10
400.9258821342412
 20
264.4253625204572
 10
400.92679784194
 20
264.4258711079772
 10
400.9275493851543
 20
264.426806304622
 10
400.9281077805792
 20
264.4281322875361
 10
400.928451642294
 20
264.429797978666
 10
400.9285677448365
 20
264.4317392867217
  0
LINE
  5
555
330
1F
100
AcDbEntity
  8
0
100
AcDbLine
 10
400.9285677448365
 20
264.4317392867217
 30
0.0
 11
400.9285677448365
 21
264.4840719915681
 31
0.0
  0
ARC
  5
556
330
1F
100
AcDbEntity
  8
0
100
AcDbCircle
 10
400.8712888779916
 20
264.4845575365177
 30
0.0
 40
0.0572809247919843
100
AcDbArc
 50
359.5143233041986
 51
42.58903016139365
  0
LINE
  5
557
330
1F
100
AcDbEntity
  8
0
100
AcDbLine
 10
400.9134606223844
 20
264.5233215445253
 30
0.0
 11
400.6747676793224
 21
264.7300356969621
 31
0.0
  0
LWPOLYLINE
  5
558
330
1F
100
AcDbEntity
  8
0
100
AcDbPolyline
 90
        9
 70
   128
 43
0.0
 10
400.6747676793224
 20
264.7300356969621
 10
400.6718204158221
 20
264.7320853143868
 10
400.6689864269271
 20
264.733050558424
 10
400.6663745974076
 20
264.7328944485878
 10
400.6640853142021
 20
264.7316229432586
 10
400.6622065404341
 20
264.7292848297623
 10
400.6608104957035
 20
264.7259700185936
 10
400.6599508132869
 20
264.7218058639173
 10
400.6596605287102
 20
264.7169524720149
  0
LINE
  5
559
330
1F
100
AcDbEntity
  8
0
100
AcDbLine
 10
400.6596605287102
 20
264.7169524720149
 30
0.0
 11
400.6596605287102
 21
264.6541532456692
 31
0.0
  0
LWPOLYLINE
  5
55A
330
1F
100
AcDbEntity
  8
0
100
AcDbPolyline
 90
        9
 70
   128
 43
0.0
 10
400.6596605287102
 20
264.6541532456692
 10
400.6593702582136
 20
264.64929984156
 10
400.6585105617174
 20
264.6451356990905
 10
400.657114516926
 20
264.6418208879217
 10
400.655235743218
 20
264.6394828718967
 10
400.6529464599525
 20
264.6382112690961
 10
400.6503346445734
 20
264.6380551471138
 10
400.6475006415988
 20
264.6390205007685
 10
400.6445533780984
 20
264.6410701182537
  0
LINE
  5
55B
330
1F
100
AcDbEntity
  8
0
100
AcDbLine
 10
400.2578103955861
 20
264.9759993657969
 30
0.0
 11
400.6445533780984
 21
264.6410701182537
 31
0.0
  0
ARC
  5
55C
330
1F
100
AcDbEntity
  8
0
100
AcDbCircle
 10
400.2999818404949
 20
265.0147632986919
 30
0.0
 40
0.0572806534419962
100
AcDbArc
 50
179.514318987599
 51
222.5891775857056
  0
LINE
  5
55D
330
1F
100
AcDbEntity
  8
0
100
AcDbLine
 10
400.2427032450344
 20
265.0780480719811
 30
0.0
 11
400.2427032450344
 21
265.0152488456356
 31
0.0
  0
ARC
  5
55E
330
1F
100
AcDbEntity
  8
0
100
AcDbCircle
 10
400.185424184395
 20
265.0785335361981
 30
0.0
 40
0.0572811178377476
100
AcDbArc
 50
359.5144057003939
 51
42.58899546789106
  0
LINE
  5
55F
330
1F
100
AcDbEntity
  8
0
100
AcDbLine
 10
399.9889031513001
 20
265.3240118017279
 30
0.0
 11
400.2275960944225
 21
265.1172976493517
 31
0.0
  0
LWPOLYLINE
  5
560
330
1F
100
AcDbEntity
  8
0
100
AcDbPolyline
 90
        9
 70
   128
 43
0.0
 10
399.973796028848
 20
265.310928552428
 10
399.9740863134247
 20
265.3157819443305
 10
399.9749459676814
 20
265.3199461234199
 10
399.9763420124727
 20
265.3232609345283
 10
399.9782208143403
 20
265.3255990236717
 10
399.980510083526
 20
265.3268705412076
 10
399.9831218848856
 20
265.3270266753964
 10
399.9859559019404
 20
265.3260614069462
 10
399.9889031513001
 20
265.3240118017279
  0
LINE
  5
561
330
1F
100
AcDbEntity
  8
0
100
AcDbLine
 10
399.973796028848
 20
265.2585958475815
 30
0.0
 11
399.973796028848
 21
265.310928552428
 31
0.0
  0
ARC
  5
562
330
1F
100
AcDbEntity
  8
0
100
AcDbCircle
 10
399.9967071969889
 20
265.2584015223409
 30
0.0
 40
0.0229119921964459
100
AcDbArc
 50
179.5140471357045
 51
222.5894017351039
  0
LINE
  5
563
330
1F
100
AcDbEntity
  8
0
100
AcDbLine
 10
400.0191174525241
 20
265.2088798218304
 30
0.0
 11
399.9798388778288
 21
265.242896065363
 31
0.0
  0
ARC
  5
564
330
1F
100
AcDbEntity
  8
0
100
AcDbCircle
 10
400.0022490803081
 20
265.1933743444276
 30
0.0
 40
0.0229120451256675
100
AcDbArc
 50
359.5140993738976
 51
42.58934949680577
  0
LINE
  5
565
330
1F
100
AcDbEntity
  8
0
100
AcDbLine
 10
400.0251603015656
 20
264.5494878725959
 30
0.0
 11
400.0251603015656
 21
265.1931800396722
 31
0.0
  0
LWPOLYLINE
  5
566
330
1F
100
AcDbEntity
  8
0
100
AcDbPolyline
 90
        9
 70
   128
 43
0.0
 10
400.0100531509536
 20
264.5364046963542
 10
400.0130004284734
 20
264.5343550545768
 10
400.015834417368
 20
264.533389761834
 10
400.0184462468878
 20
264.5335458838163
 10
400.0207355160735
 20
264.5348174378512
 10
400.0226142897812
 20
264.5371555270549
 10
400.0240103345723
 20
264.5404703381635
 10
400.024870016989
 20
264.5446344562802
 10
400.0251603015656
 20
264.5494878725959
  0
LINE
  5
567
330
1F
100
AcDbEntity
  8
0
100
AcDbLine
 10
399.4390029366071
 20
265.0309486887663
 30
0.0
 11
400.0100531509536
 21
264.5364046963542
 31
0.0
  0
LWPOLYLINE
  5
568
330
1F
100
AcDbEntity
  8
0
100
AcDbPolyline
 90
        9
 70
   128
 43
0.0
 10
399.4238957578955
 20
265.0178655369374
 10
399.4241860424726
 20
265.0227189410466
 10
399.4250457529883
 20
265.0268830348713
 10
399.4264417977793
 20
265.0301978459796
 10
399.428320599647
 20
265.0325359107099
 10
399.4306098969922
 20
265.0338074404524
 10
399.4332216701928
 20
265.0339636112004
 10
399.4360557435062
 20
265.0329982452789
 10
399.4390029366071
 20
265.0309486887663
  0
LINE
  5
569
330
1F
100
AcDbEntity
  8
0
100
AcDbLine
 10
399.4238957578955
 20
262.2389994319712
 30
0.0
 11
399.4238957578955
 21
265.0178655369374
 31
0.0
  0
LWPOLYLINE
  5
56A
330
1F
100
AcDbEntity
  8
0
100
AcDbPolyline
 90
        9
 70
   128
 43
0.0
 10
399.4087886917024
 20
262.2259161339053
 10
399.4117358848035
 20
262.2238665773927
 10
399.4145699581775
 20
262.2229012602368
 10
399.4171817313778
 20
262.2230574187783
 10
399.4194710286629
 20
262.2243288144903
 10
399.4213498305301
 20
262.2266669036336
 10
399.4227458753215
 20
262.2299818122135
 10
399.4236055858977
 20
262.2341458450655
 10
399.4238957578955
 20
262.2389994319712
  0
LINE
  5
56B
330
1F
100
AcDbEntity
  8
0
100
AcDbLine
 10
399.0160028321099
 20
262.566078666581
 30
0.0
 11
399.4087886917024
 21
262.2259161339053
 31
0.0
  0
LINE
  5
56C
330
1F
100
AcDbEntity
  8
0
100
AcDbLine
 10
399.0008956533385
 20
262.6995269615553
 30
0.0
 11
399.0008956533385
 21
262.6053282683043
 31
0.0
  0
LWPOLYLINE
  5
56D
330
1F
100
AcDbEntity
  8
0
100
AcDbPolyline
 90
        9
 70
   128
 43
0.0
 10
399.0069385023194
 20
262.7047604172175
 10
399.0057595800598
 20
262.7055802008098
 10
399.0046260182812
 20
262.7059663082141
 10
399.0035812639337
 20
262.7059039227625
 10
399.0026656125544
 20
262.7053951890051
 10
399.0019140692797
 20
262.7044598948892
 10
399.0013556739152
 20
262.7031341069177
 10
399.0010118122004
 20
262.7014683183164
 10
399.0008956533385
 20
262.6995269615553
  0
LINE
  5
56E
330
1F
100
AcDbEntity
  8
0
100
AcDbLine
 10
399.034131379053
 20
262.6812106951841
 30
0.0
 11
399.0069385023194
 21
262.7047604172175
 31
0.0
  0
ARC
  5
56F
330
1F
100
AcDbEntity
  8
0
100
AcDbCircle
 10
399.0172629215718
 20
262.665705182491
 30
0.0
 40
0.0229121317088256
100
AcDbArc
 50
359.5137017493995
 51
42.58927010000069
  0
LINE
  5
570
330
1F
100
AcDbEntity
  8
0
100
AcDbLine
 10
399.0401742280337
 20
262.6655107180229
 30
0.0
 11
399.0401742280337
 21
262.6236446321468
 31
0.0
  0
ARC
  5
571
330
1F
100
AcDbEntity
  8
0
100
AcDbCircle
 10
399.0630864474508
 20
262.6234507115361
 30
0.0
 40
0.022913040049085
100
AcDbArc
 50
179.5150812608001
 51
222.5883676103004
  0
LINE
  5
572
330
1F
100
AcDbEntity
  8
0
100
AcDbLine
 10
399.0462170770147
 20
262.6079448499283
 30
0.0
 11
399.3090815145592
 21
262.3802975692889
 31
0.0
  0
LWPOLYLINE
  5
573
330
1F
100
AcDbEntity
  8
0
100
AcDbPolyline
 90
        9
 70
   128
 43
0.0
 10
399.31512436354
 20
262.3855308300083
 10
399.3150082046781
 20
262.3835894732474
 10
399.3146643429634
 20
262.3819238795885
 10
399.3141059475985
 20
262.3805978966747
 10
399.3133544043238
 20
262.3796627975012
 10
399.3124387529451
 20
262.3791540637439
 10
399.3113939985972
 20
262.3790916782923
 10
399.310260436819
 20
262.3794777856966
 10
399.3090815145592
 20
262.3802975692889
  0
LINE
  5
574
330
1F
100
AcDbEntity
  8
0
100
AcDbLine
 10
399.31512436354
 20
262.4273969158843
 30
0.0
 11
399.31512436354
 21
262.3855308300083
 31
0.0
  0
LWPOLYLINE
  5
575
330
1F
100
AcDbEntity
  8
0
100
AcDbPolyline
 90
        9
 70
   128
 43
0.0
 10
399.3211672125209
 20
262.4326303716067
 10
399.3199882902615
 20
262.4334501551992
 10
399.3188547284221
 20
262.4338362625431
 10
399.3178099741351
 20
262.4337738771517
 10
399.3168942101778
 20
262.4332652408656
 10
399.3161427794814
 20
262.4323298492784
 10
399.3155843841171
 20
262.4310040612465
 10
399.3152404098239
 20
262.4293383701771
 10
399.31512436354
 20
262.4273969158843
  0
LINE
  5
576
330
1F
100
AcDbEntity
  8
0
100
AcDbLine
 10
399.3483600892547
 20
262.4090806495736
 30
0.0
 11
399.3211672125209
 21
262.4326303716067
 31
0.0
  0
ARC
  5
577
330
1F
100
AcDbEntity
  8
0
100
AcDbCircle
 10
399.3314907219001
 20
262.3935747866966
 30
0.0
 40
0.0229130385938627
100
AcDbArc
 50
359.5145967588037
 51
42.58837509040558
  0
LINE
  5
578
330
1F
100
AcDbEntity
  8
0
100
AcDbLine
 10
399.3544029382353
 20
262.3515145864758
 30
0.0
 11
399.3544029382353
 21
262.3933806724123
 31
0.0
  0
ARC
  5
579
330
1F
100
AcDbEntity
  8
0
100
AcDbCircle
 10
399.3773151576526
 20
262.3513206659255
 30
0.0
 40
0.0229130400491356
100
AcDbArc
 50
179.515081260695
 51
222.5883676101049
  0
LINE
  5
57A
330
1F
100
AcDbEntity
  8
0
100
AcDbLine
 10
399.3604457872162
 20
262.3358148043177
 30
0.0
 11
399.3785743342194
 21
262.3201150220989
 31
0.0
  0
LWPOLYLINE
  5
57B
330
1F
100
AcDbEntity
  8
0
100
AcDbPolyline
 90
        9
 70
   128
 43
0.0
 10
399.3846171832006
 20
262.3253482828184
 10
399.3845011368565
 20
262.3234068285861
 10
399.384157275202
 20
262.3217412349275
 10
399.3835987671985
 20
262.3204153494847
 10
399.3828473365023
 20
262.3194801527796
 10
399.3819315725448
 20
262.3189715165539
 10
399.3808868182574
 20
262.3189091311023
 10
399.3797532564792
 20
262.3192952385067
 10
399.3785743342194
 20
262.3201150220989
  0
LINE
  5
57C
330
1F
100
AcDbEntity
  8
0
100
AcDbLine
 10
399.3846171832006
 20
262.3253482828184
 30
0.0
 11
399.3846171832006
 21
265.1199142918878
 31
0.0
  0
LWPOLYLINE
  5
57D
330
1F
100
AcDbEntity
  8
0
100
AcDbPolyline
 90
        9
 70
   128
 43
0.0
 10
399.3997243619117
 20
265.1329974437165
 10
399.3967771688108
 20
265.1350470002292
 10
399.3939430954368
 20
265.1360123660904
 10
399.3913313222364
 20
265.1358561831961
 10
399.3890420249513
 20
265.1345846656603
 10
399.387163223084
 20
265.1322466008695
 10
399.3857671782929
 20
265.1289317897611
 10
399.3849074677166
 20
265.1247676837903
 10
399.3846171832006
 20
265.1199142918878
  0
LINE
  5
57E
330
1F
100
AcDbEntity
  8
0
100
AcDbLine
 10
399.3997243619117
 20
265.1329974437165
 30
0.0
 11
399.9707745480986
 21
264.6384534756572
 31
0.0
  0
LWPOLYLINE
  5
57F
330
1F
100
AcDbEntity
  8
0
100
AcDbPolyline
 90
        9
 70
   128
 43
0.0
 10
399.9858817268098
 20
264.6515366031331
 10
399.9855914422937
 20
264.6466832112305
 10
399.9847317598774
 20
264.642519080907
 10
399.9833357150862
 20
264.6392042697383
 10
399.9814569413784
 20
264.6368661805948
 10
399.9791676440329
 20
264.6355946631192
 10
399.9765558145737
 20
264.6354385289304
 10
399.9737218537781
 20
264.6364037973204
 10
399.9707745480986
 20
264.6384534756572
  0
LINE
  5
580
330
1F
100
AcDbEntity
  8
0
100
AcDbLine
 10
399.9858817268098
 20
264.6515366031331
 30
0.0
 11
399.9858817268098
 21
265.1434639652157
 31
0.0
  0
ARC
  5
581
330
1F
100
AcDbEntity
  8
0
100
AcDbCircle
 10
399.9286028323492
 20
265.1439494390409
 30
0.0
 40
0.0572809518181187
100
AcDbArc
 50
359.5143946575963
 51
42.589101915591
  0
LINE
  5
582
330
1F
100
AcDbEntity
  8
0
100
AcDbLine
 10
399.9707745480986
 20
265.1827135181731
 30
0.0
 11
399.9496245766051
 21
265.2010299307815
 31
0.0
  0
ARC
  5
583
330
1F
100
AcDbEntity
  8
0
100
AcDbCircle
 10
399.9917963805803
 20
265.2397940432702
 30
0.0
 40
0.057281039345294
100
AcDbArc
 50
179.5144775177953
 51
222.5890667579987
  0
LINE
  5
584
330
1F
100
AcDbEntity
  8
0
100
AcDbLine
 10
399.9345173978933
 20
265.2402794350333
 30
0.0
 11
399.9345173978933
 21
265.412977331731
 31
0.0
  0
LWPOLYLINE
  5
585
330
1F
100
AcDbEntity
  8
0
100
AcDbPolyline
 90
        9
 70
   128
 43
0.0
 10
399.9496245766051
 20
265.4260605322651
 10
399.9466773271846
 20
265.4281101375436
 10
399.94384331013
 20
265.4290754059335
 10
399.9412314806706
 20
265.4289192960975
 10
399.9389421833255
 20
265.4276478029748
 10
399.9370634377773
 20
265.4253096650655
 10
399.935667392986
 20
265.4219948539569
 10
399.9348076824098
 20
265.4178307236335
 10
399.9345173978933
 20
265.412977331731
  0
LINE
  5
586
330
1F
100
AcDbEntity
  8
0
100
AcDbLine
 10
399.9496245766051
 20
265.4260605322651
 30
0.0
 11
400.2668746831977
 21
265.1513138806777
 31
0.0
  0
ARC
  5
587
330
1F
100
AcDbEntity
  8
0
100
AcDbCircle
 10
400.2247027731702
 20
265.1125497675241
 30
0.0
 40
0.057281117837778
100
AcDbArc
 50
359.5144057003022
 51
42.58899546780713
  0
LINE
  5
588
330
1F
100
AcDbEntity
  8
0
100
AcDbLine
 10
400.2819818337494
 20
265.112064303307
 30
0.0
 11
400.2819818337494
 21
265.0335652948034
 31
0.0
  0
ARC
  5
589
330
1F
100
AcDbEntity
  8
0
100
AcDbCircle
 10
400.3048931562249
 20
265.0333710289642
 30
0.0
 40
0.0229121460220648
100
AcDbArc
 50
179.5141989523981
 51
222.5892499184052
  0
LINE
  5
58A
330
1F
100
AcDbEntity
  8
0
100
AcDbLine
 10
400.2880246827905
 20
265.0178655125849
 30
0.0
 11
400.3756461478927
 21
264.9419830979115
 31
0.0
  0
LWPOLYLINE
  5
58B
330
1F
100
AcDbEntity
  8
0
100
AcDbPolyline
 90
        9
 70
   128
 43
0.0
 10
400.3816890038832
 20
264.9472163525276
 10
400.3815728942702
 20
264.9452749531041
 10
400.3812290184757
 20
264.9436093716519
 10
400.3806706020217
 20
264.9422834069873
 10
400.3799190939162
 20
264.9413481798867
 10
400.3790033792078
 20
264.9408395984699
 10
400.3779586460103
 20
264.940777097237
 10
400.3768250490623
 20
264.9411632350972
 10
400.3756461478927
 20
264.9419830979115
  0
LINE
  5
58C
330
1F
100
AcDbEntity
  8
0
100
AcDbLine
 10
400.3816890038832
 20
265.0414152407215
 30
0.0
 11
400.3816890038832
 21
264.9472163525276
 31
0.0
  0
LWPOLYLINE
  5
58D
330
1F
100
AcDbEntity
  8
0
100
AcDbPolyline
 90
        9
 70
   128
 43
0.0
 10
400.3877318669437
 20
265.0466484892947
 10
400.3865529587638
 20
265.0474683581518
 10
400.3854193617557
 20
265.0478543985407
 10
400.384374628558
 20
265.0477919948396
 10
400.3834589209199
 20
265.0472834073196
 10
400.3827074128148
 20
265.0463481801584
 10
400.3821489892904
 20
265.0450222215971
 10
400.3818051205055
 20
265.0433565365704
 10
400.3816890038832
 20
265.0414152407215
  0
LINE
  5
58E
330
1F
100
AcDbEntity
  8
0
100
AcDbLine
 10
400.4088818736067
 20
265.0283320462301
 30
0.0
 11
400.3877318669437
 21
265.0466484892947
 31
0.0
  0
ARC
  5
58F
330
1F
100
AcDbEntity
  8
0
100
AcDbCircle
 10
400.3920130548234
 20
265.0128263866349
 30
0.0
 40
0.0229124971660438
100
AcDbArc
 50
359.5145493702947
 51
42.58892931450774
  0
LINE
  5
590
330
1F
100
AcDbEntity
  8
0
100
AcDbLine
 10
400.4149247295973
 20
264.9184333697748
 30
0.0
 11
400.4149247295973
 21
265.0126322579687
 31
0.0
  0
ARC
  5
591
330
1F
100
AcDbEntity
  8
0
100
AcDbCircle
 10
400.4378361187256
 20
264.9182391319142
 30
0.0
 40
0.0229122124634472
100
AcDbArc
 50
179.5142703269926
 51
222.5892232649102
  0
LINE
  5
592
330
1F
100
AcDbEntity
  8
0
100
AcDbLine
 10
400.4209675891531
 20
264.9027335784317
 30
0.0
 11
400.4813961845314
 21
264.8504008796885
 31
0.0
  0
LWPOLYLINE
  5
593
330
1F
100
AcDbEntity
  8
0
100
AcDbPolyline
 90
        9
 70
   128
 43
0.0
 10
400.4813961845314
 20
264.8504008796885
 10
400.4825750857012
 20
264.8495810168743
 10
400.4837086862144
 20
264.8491948759926
 10
400.4847534159072
 20
264.8492573802468
 10
400.4856691306155
 20
264.8497659616635
 10
400.4864206386604
 20
264.8507011887641
 10
400.4869790587399
 20
264.8520271504073
 10
400.4873229309696
 20
264.8536927348811
 10
400.4874390440871
 20
264.855634131283
  0
LINE
  5
594
330
1F
100
AcDbEntity
  8
0
100
AcDbLine
 10
400.4874390440871
 20
264.855634131283
 30
0.0
 11
400.4874390440871
 21
264.9498330194768
 31
0.0
  0
LWPOLYLINE
  5
595
330
1F
100
AcDbEntity
  8
0
100
AcDbPolyline
 90
        9
 70
   128
 43
0.0
 10
400.4874390440871
 20
264.9498330194768
 10
400.4875551537
 20
264.9517743213688
 10
400.4878990259895
 20
264.9534400033739
 10
400.4884574495138
 20
264.9547659619353
 10
400.4892089540541
 20
264.9557011921178
 10
400.490124668762
 20
264.9562097735347
 10
400.4911693984549
 20
264.9562721803176
 10
400.4923029989681
 20
264.9558861369073
 10
400.4934819001383
 20
264.9550662740931
  0
LINE
  5
596
330
1F
100
AcDbEntity
  8
0
100
AcDbLine
 10
400.4934819001383
 20
264.9550662740931
 30
0.0
 11
400.5146319067409
 21
264.9367498310888
 31
0.0
  0
ARC
  5
597
330
1F
100
AcDbEntity
  8
0
100
AcDbCircle
 10
400.4977630590119
 20
264.9212441499208
 30
0.0
 40
0.0229125330517985
100
AcDbArc
 50
359.5145886536946
 51
42.58891984500722
  0
LINE
  5
598
330
1F
100
AcDbEntity
  8
0
100
AcDbLine
 10
400.5206747698018
 20
264.9210500366639
 30
0.0
 11
400.5206747698018
 21
264.8268511484699
 31
0.0
  0
ARC
  5
599
330
1F
100
AcDbEntity
  8
0
100
AcDbCircle
 10
400.5435861535516
 20
264.8266569078294
 30
0.0
 40
0.0229122071328241
100
AcDbArc
 50
179.5142631322044
 51
222.5892155526967
  0
LINE
  5
59A
330
1F
100
AcDbEntity
  8
0
100
AcDbLine
 10
400.6143390909545
 20
264.7352689454749
 30
0.0
 11
400.5267176258524
 21
264.8111513602086
 31
0.0
  0
LWPOLYLINE
  5
59B
330
1F
100
AcDbEntity
  8
0
100
AcDbPolyline
 90
        9
 70
   128
 43
0.0
 10
400.6143390909545
 20
264.7352689454749
 10
400.6155179850543
 20
264.734449088764
 10
400.6166515890722
 20
264.7340629448607
 10
400.6176963152602
 20
264.7341254521365
 10
400.6186120369781
 20
264.7346340274499
 10
400.6193635380133
 20
264.7355692607144
 10
400.6199219615981
 20
264.7368952192759
 10
400.6202658373323
 20
264.7385608007279
 10
400.6203819399354
 20
264.7405022062547
  0
LINE
  5
59C
330
1F
100
AcDbEntity
  8
0
100
AcDbLine
 10
400.6203819399354
 20
264.8190012147585
 30
0.0
 11
400.6203819399354
 21
264.7405022062547
 31
0.0
  0
LWPOLYLINE
  5
59D
330
1F
100
AcDbEntity
  8
0
100
AcDbPolyline
 90
        9
 70
   128
 43
0.0
 10
400.6203819399354
 20
264.8190012147585
 10
400.6206722245117
 20
264.823854606661
 10
400.6215319069284
 20
264.8280187613373
 10
400.6229279657389
 20
264.8313335602995
 10
400.6248067254273
 20
264.8336716860023
 10
400.6270960086323
 20
264.8349431913317
 10
400.6297078381518
 20
264.8350993011677
 10
400.6325418411269
 20
264.8341340449239
 10
400.6354890905473
 20
264.8320844397058
  0
LINE
  5
59E
330
1F
100
AcDbEntity
  8
0
100
AcDbLine
 10
400.9527391970796
 20
264.557337788058
 30
0.0
 11
400.6354890905473
 21
264.8320844397058
 31
0.0
  0
ARC
  5
59F
330
1F
100
AcDbEntity
  8
0
100
AcDbCircle
 10
400.9105671745945
 20
264.5185735902439
 30
0.0
 40
0.0572812579501045
100
AcDbArc
 50
359.5144671999948
 51
42.58898167081108
  0
LINE
  5
5A0
330
1F
100
AcDbEntity
  8
0
100
AcDbLine
 10
400.9678463758511
 20
264.3453902896372
 30
0.0
 11
400.9678463758511
 21
264.5180881863348
 31
0.0
  0
LWPOLYLINE
  5
5A1
330
1F
100
AcDbEntity
  8
0
100
AcDbPolyline
 90
        9
 70
   128
 43
0.0
 10
400.9678463758511
 20
264.3453902896372
 10
400.9675560912747
 20
264.3405368977345
 10
400.9666963806985
 20
264.3363728161166
 10
400.9653003359074
 20
264.3330580050082
 10
400.9634215903591
 20
264.3307199158648
 10
400.9611322930139
 20
264.3294483739762
 10
400.9585204635544
 20
264.3292922641401
 10
400.9556864464999
 20
264.3302575812958
 10
400.9527391970796
 20
264.332307186514
  0
LINE
  5
5A2
330
1F
100
AcDbEntity
  8
0
100
AcDbLine
 10
400.9315892256466
 20
264.3506235991225
 30
0.0
 11
400.9527391970796
 21
264.332307186514
 31
0.0
  0
LWPOLYLINE
  5
5A3
330
1F
100
AcDbEntity
  8
0
100
AcDbPolyline
 90
        9
 70
   128
 43
0.0
 10
400.9315892256466
 20
264.3506235991225
 10
400.9286419199066
 20
264.3526732531065
 10
400.9258079591712
 20
264.3536385214963
 10
400.9231961296517
 20
264.3534824116601
 10
400.9209068323667
 20
264.3522108697716
 10
400.9190280586588
 20
264.3498727562755
 10
400.9176320138677
 20
264.3465579451671
 10
400.9167723314513
 20
264.3423938391962
 10
400.9164820468746
 20
264.3375404472938
  0
LINE
  5
5A4
330
1F
100
AcDbEntity
  8
0
100
AcDbLine
 10
400.9164820468746
 20
263.8456130852112
 30
0.0
 11
400.9164820468746
 21
264.3375404472938
 31
0.0
  0
ARC
  5
5A5
330
1F
100
AcDbEntity
  8
0
100
AcDbCircle
 10
400.973760757331
 20
263.8451275646143
 30
0.0
 40
0.057280768172459
100
AcDbArc
 50
179.5143463141058
 51
222.5891741104002
  0
LINE
  5
5A6
330
1F
100
AcDbEntity
  8
0
100
AcDbLine
 10
401.5026394117728
 20
263.3118195885471
 30
0.0
 11
400.9315892256466
 21
263.8063635566066
 31
0.0
  0
ARC
  5
5A7
330
1F
100
AcDbEntity
  8
0
100
AcDbCircle
 10
401.4604674213755
 20
263.2730554037256
 30
0.0
 40
0.0572812255634197
100
AcDbArc
 50
359.5145027222971
 51
42.58899385090819
  0
LINE
  5
5A8
330
1F
100
AcDbEntity
  8
0
100
AcDbLine
 10
401.5177465905444
 20
260.4780040265205
 30
0.0
 11
401.5177465905444
 21
263.2725700355293
 31
0.0
  0
ARC
  5
5A9
330
1F
100
AcDbEntity
  8
0
100
AcDbCircle
 10
401.5406579000279
 20
260.477809755726
 30
0.0
 40
0.0229121331285009
100
AcDbArc
 50
179.5141862273971
 51
222.5892626435041
  0
LINE
  5
5AA
330
1F
100
AcDbEntity
  8
0
100
AcDbLine
 10
401.5419179864684
 20
260.4466044620833
 30
0.0
 11
401.5237894395256
 21
260.4623042443019
 31
0.0
  0
LWPOLYLINE
  5
5AB
330
1F
100
AcDbEntity
  8
0
100
AcDbPolyline
 90
        9
 70
   128
 43
0.0
 10
401.5479608354493
 20
260.4518377228028
 10
401.5478446766475
 20
260.4498963660416
 10
401.5475008149325
 20
260.448230772383
 10
401.5469424195079
 20
260.4469047894689
 10
401.5461908762332
 20
260.4459696902954
 10
401.545275224854
 20
260.4454609565382
 10
401.5442304705667
 20
260.445398571147
 10
401.5430969087279
 20
260.445784678491
 10
401.5419179864684
 20
260.4466044620833
  0
LINE
  5
5AC
330
1F
100
AcDbEntity
  8
0
100
AcDbLine
 10
401.5479608354493
 20
260.4518377228028
 30
0.0
 11
401.5479608354493
 21
260.4937038087391
 31
0.0
  0
LWPOLYLINE
  5
5AD
330
1F
100
AcDbEntity
  8
0
100
AcDbPolyline
 90
        9
 70
   128
 43
0.0
 10
401.55400368443
 20
260.4989372644011
 10
401.5528247621707
 20
260.4997570479934
 10
401.5516912003919
 20
260.5001431553978
 10
401.5506464461047
 20
260.5000807699461
 10
401.5497307946652
 20
260.4995720361888
 10
401.5489792514508
 20
260.4986367420729
 10
401.5484208560261
 20
260.4973109541013
 10
401.5480769943112
 20
260.4956451654999
 10
401.5479608354493
 20
260.4937038087391
  0
LINE
  5
5AE
330
1F
100
AcDbEntity
  8
0
100
AcDbLine
 10
401.55400368443
 20
260.4989372644011
 30
0.0
 11
401.5811965611635
 21
260.4753875423679
 31
0.0
  0
ARC
  5
5AF
330
1F
100
AcDbEntity
  8
0
100
AcDbCircle
 10
399.4463721059352
 20
264.7317107606875
 30
0.0
 40
0.1197289880102874
100
AcDbArc
 50
56.98719425799978
 51
100.8206551074072
  0
LWPOLYLINE
  5
5B0
330
1F
100
AcDbEntity
  8
0
100
AcDbPolyline
 90
        8
 70
   128
 43
0.0
 10
399.4238959577331
 20
264.7771401010076
 10
399.4266380934149
 20
264.7767445445656
 10
399.456047062907
 20
264.7757806448227
 10
399.4839557100348
 20
264.780517492329
 10
399.5061144940974
 20
264.7902338672395
 10
399.5191494555736
 20
264.8034502745083
 10
399.5210768761717
 20
264.8181549748031
 10
399.5116036273641
 20
264.8321093621494
  0
LINE
  5
5B1
330
1F
100
AcDbEntity
  8
0
100
AcDbLine
 10
400.4324613765424
 20
263.5209795308596
 30
0.0
 11
400.7726242016323
 21
263.6191760802067
 31
0.0
  0
LWPOLYLINE
  5
5B2
330
1F
100
AcDbEntity
  8
0
100
AcDbPolyline
 90
        9
 70
   128
 43
0.0
 10
400.477782856478
 20
263.4817299779023
 10
400.4610386265262
 20
263.4788881200565
 10
400.443393489168
 20
263.4794666084115
 10
400.4275324537331
 20
263.4833768900013
 10
400.4158739076055
 20
263.4900247398986
 10
400.4101887106278
 20
263.49839701214
 10
400.4113464219077
 20
263.5072201827785
 10
400.4191670756091
 20
263.5151499468301
 10
400.4324613765424
 20
263.5209795308596
  0
LINE
  5
5B3
330
1F
100
AcDbEntity
  8
0
100
AcDbLine
 10
400.8179456815676
 20
263.5799265271889
 30
0.0
 11
400.7652081537354
 21
263.5647025142656
 31
0.0
  0
LINE
  5
5B4
330
1F
100
AcDbEntity
  8
0
100
AcDbLine
 10
400.8179456799065
 20
263.5799265264606
 30
0.0
 11
400.477782856478
 21
263.4817299779023
 31
0.0
  0
LWPOLYLINE
  5
5B5
330
1F
100
AcDbEntity
  8
0
100
AcDbPolyline
 90
        9
 70
   128
 43
0.0
 10
400.7726242016323
 20
263.6191760802067
 10
400.789370047505
 20
263.6220183395401
 10
400.8070151285437
 20
263.6214398998907
 10
400.8228746043764
 20
263.6175291681078
 10
400.8345347664254
 20
263.6108817196979
 10
400.840218347482
 20
263.6025090459693
 10
400.839062195804
 20
263.5936863255238
 10
400.8312415983615
 20
263.5857565127664
 10
400.8179456815676
 20
263.5799265271889
  0
ARC
  5
5B6
330
1F
100
AcDbEntity
  8
0
100
AcDbCircle
 10
401.0950699751085
 20
263.3219678756745
 30
0.0
 40
0.1055392291558627
100
AcDbArc
 50
55.22728620059313
 51
90.790068152106
  0
LWPOLYLINE
  5
5B7
330
1F
100
AcDbEntity
  8
0
100
AcDbPolyline
 90
        8
 70
   128
 43
0.0
 10
401.0502368947144
 20
263.3564308618012
 10
401.0702957759354
 20
263.3532952363434
 10
401.0997048017469
 20
263.3523312878952
 10
401.1276133926154
 20
263.3570681841067
 10
401.149772232937
 20
263.3667845103118
 10
401.1628071380942
 20
263.3800009662861
 10
401.1647345586923
 20
263.3947056665809
 10
401.155261366204
 20
263.4086600052217
  0
LINE
  5
5B8
330
1F
100
AcDbEntity
  8
0
100
AcDbLine
 10
400.294473712104
 20
264.4248788761681
 30
0.0
 11
400.1993405991992
 21
264.5072665686598
 31
0.0
  0
ARC
  5
5B9
330
1F
100
AcDbEntity
  8
0
100
AcDbCircle
 10
400.3209772132298
 20
264.46590417305
 30
0.0
 40
0.048841688711158
100
AcDbArc
 50
237.1363975728012
 51
287.6017287145951
  0
LINE
  5
5BA
330
1F
100
AcDbEntity
  8
0
100
AcDbLine
 10
400.5189120719874
 20
264.4722244149528
 30
0.0
 11
400.3357468739594
 21
264.4193491767639
 31
0.0
  0
LWPOLYLINE
  5
5BB
330
1F
100
AcDbEntity
  8
0
100
AcDbPolyline
 90
        9
 70
   128
 43
0.0
 10
400.5299709326187
 20
264.4928610679717
 10
400.5324159792833
 20
264.4901637016586
 10
400.5337605158902
 20
264.4872794274125
 10
400.5339549097778
 20
264.4843196632305
 10
400.5329892469704
 20
264.4813974475028
 10
400.5309034262924
 20
264.4786259019501
 10
400.5277749673552
 20
264.4761107799933
 10
400.5237264756641
 20
264.4739494053254
 10
400.5189120719874
 20
264.4722244149528
  0
LINE
  5
5BC
330
1F
100
AcDbEntity
  8
0
100
AcDbLine
 10
400.4348378197138
 20
264.5752487605238
 30
0.0
 11
400.5299709326187
 21
264.4928610679717
 31
0.0
  0
ELLIPSE
  5
5BD
330
1F
100
AcDbEntity
  8
0
100
AcDbEllipse
 10
399.4517607671244
 20
262.1991798474454
 30
0.0
 11
-0.0150715286805691
 21
0.0522583449254517
 31
0.0
210
0.0
220
0.0
230
1.0
 40
0.4334997358000001
 41
0.718201529036298
 42
2.553323824207713
  0
LINE
  5
5BE
330
1F
100
AcDbEntity
  8
0
100
AcDbLine
 10
399.4517276267067
 20
262.1520804120733
 30
0.0
 11
401.2400657273683
 21
260.6036673392749
 31
0.0
  0
ELLIPSE
  5
5BF
330
1F
100
AcDbEntity
  8
0
100
AcDbEllipse
 10
399.4509363278213
 20
264.0860764593615
 30
0.0
 11
-0.0151112876870134
 21
0.0522981146481185
 31
0.0
210
0.0
220
0.0
230
1.0
 40
0.4326209890112973
 41
6.259951843209798
 42
7.126885968123098
  0
LINE
  5
5C0
330
1F
100
AcDbEntity
  8
0
100
AcDbLine
 10
401.3107448232664
 20
262.608714286472
 30
0.0
 11
401.3111050991397
 21
262.6084100544928
 31
0.0
  0
ELLIPSE
  5
5C1
330
1F
100
AcDbEntity
  8
0
100
AcDbEllipse
 10
401.2400328751827
 20
260.6508242701492
 30
0.0
 11
-0.0151146036726557
 21
0.0523095908241277
 31
0.0
210
0.0
220
0.0
230
1.0
 40
0.4325260765000003
 41
2.553857137565429
 42
3.164826117559377
  0
LINE
  5
5C2
330
1F
100
AcDbEntity
  8
0
100
AcDbLine
 10
400.4994515971052
 20
263.3113218726749
 30
0.0
 11
400.7486408609993
 21
263.3832566169565
 31
0.0
  0
LINE
  5
5C3
330
1F
100
AcDbEntity
  8
0
100
AcDbLine
 10
400.7923520439097
 20
263.2747741081346
 30
0.0
 11
400.6043285801115
 21
263.2204964093905
 31
0.0
  0
LINE
  5
5C4
330
1F
100
AcDbEntity
  8
0
100
AcDbLine
 10
400.8325160629993
 20
263.2355473202595
 30
0.0
 11
400.8362701065843
 21
263.2366310193244
 31
0.0
  0
LINE
  5
5C5
330
1F
100
AcDbEntity
  8
0
100
AcDbLine
 10
400.7959545020678
 20
263.4200289056847
 30
0.0
 11
400.7987961586866
 21
263.4208492212904
 31
0.0
  0
LINE
  5
5C6
330
1F
100
AcDbEntity
  8
0
100
AcDbLine
 10
400.8350185850507
 20
263.3894796798929
 30
0.0
 11
400.7727345259927
 21
263.3714998207654
 31
0.0
  0
LINE
  5
5C7
330
1F
100
AcDbEntity
  8
0
100
AcDbLine
 10
400.8380400095415
 20
263.4234959355717
 30
0.0
 11
400.8335077076846
 21
263.4221875727288
 31
0.0
  0
LINE
  5
5C8
330
1F
100
AcDbEntity
  8
0
100
AcDbLine
 10
399.6475391767434
 20
264.0491005044762
 30
0.0
 11
399.6475391767434
 21
264.0526234295423
 31
0.0
  0
LINE
  5
5C9
330
1F
100
AcDbEntity
  8
0
100
AcDbLine
 10
399.7803894645043
 20
264.3662171521053
 30
0.0
 11
399.8482800148608
 21
264.3858154659054
 31
0.0
  0
LINE
  5
5CA
330
1F
100
AcDbEntity
  8
0
100
AcDbLine
 10
399.747838160462
 20
264.4442584784375
 30
0.0
 11
399.8801317006855
 21
264.4824483339428
 31
0.0
  0
LINE
  5
5CB
330
1F
100
AcDbEntity
  8
0
100
AcDbLine
 10
401.3757969139549
 20
262.5408011554853
 30
0.0
 11
401.3336181210502
 21
262.5286251868144
 31
0.0
  0
LINE
  5
5CC
330
1F
100
AcDbEntity
  8
0
100
AcDbLine
 10
401.0827182315061
 20
262.8061989841211
 30
0.0
 11
401.0827182315061
 21
262.8097219091269
 31
0.0
  0
LINE
  5
5CD
330
1F
100
AcDbEntity
  8
0
100
AcDbLine
 10
401.0693605997155
 20
263.2824981536784
 30
0.0
 11
400.8841569576307
 21
263.2290344673544
 31
0.0
  0
LINE
  5
5CE
330
1F
100
AcDbEntity
  8
0
100
AcDbLine
 10
401.0222320729988
 20
263.4759161304452
 30
0.0
 11
400.856169842163
 21
263.4279780936012
 31
0.0
  0
LINE
  5
5CF
330
1F
100
AcDbEntity
  8
0
100
AcDbLine
 10
400.4550441848363
 20
263.4678683727985
 30
0.0
 11
400.4550441848363
 21
263.4681882078028
 31
0.0
  0
LINE
  5
5D0
330
1F
100
AcDbEntity
  8
0
100
AcDbLine
 10
399.3755525794261
 20
262.3227315571327
 30
0.0
 11
399.3846171832006
 21
262.3253482828184
 31
0.0
  0
LINE
  5
5D1
330
1F
100
AcDbEntity
  8
0
100
AcDbLine
 10
399.4390029366071
 20
265.0309486887663
 30
0.0
 11
399.4250566725559
 21
265.0269227491465
 31
0.0
  0
LINE
  5
5D2
330
1F
100
AcDbEntity
  8
0
100
AcDbLine
 10
399.9858817268098
 20
265.1434639652157
 30
0.0
 11
399.5371994368256
 21
265.0139405447319
 31
0.0
  0
LINE
  5
5D3
330
1F
100
AcDbEntity
  8
0
100
AcDbLine
 10
399.9496245766051
 20
265.2010299307815
 30
0.0
 11
399.478280777216
 21
265.064964696023
 31
0.0
  0
LINE
  5
5D4
330
1F
100
AcDbEntity
  8
0
100
AcDbLine
 10
399.9889031513001
 20
265.3240118017279
 30
0.0
 11
399.9749568872488
 21
265.3199858620479
 31
0.0
  0
LINE
  5
5D5
330
1F
100
AcDbEntity
  8
0
100
AcDbLine
 10
400.2578103955861
 20
264.9759993657969
 30
0.0
 11
400.0251595106159
 21
264.9088388402384
 31
0.0
  0
LINE
  5
5D6
330
1F
100
AcDbEntity
  8
0
100
AcDbLine
 10
400.2427032450344
 20
265.0780480719811
 30
0.0
 11
400.0251589932263
 21
265.0152484558107
 31
0.0
  0
LINE
  5
5D7
330
1F
100
AcDbEntity
  8
0
100
AcDbLine
 10
400.8772034721793
 20
263.8115968416786
 30
0.0
 11
400.1606396822074
 21
263.6047426931736
 31
0.0
  0
LINE
  5
5D8
330
1F
100
AcDbEntity
  8
0
100
AcDbLine
 10
401.4633608370774
 20
263.2778033206619
 30
0.0
 11
401.1868997800918
 21
263.197995887799
 31
0.0
  0
LINE
  5
5D9
330
1F
100
AcDbEntity
  8
0
100
AcDbLine
 10
400.9134606223844
 20
264.5233215445253
 30
0.0
 11
399.8317876313175
 21
264.2110694482679
 31
0.0
  0
LINE
  5
5DA
330
1F
100
AcDbEntity
  8
0
100
AcDbLine
 10
399.4238950924561
 20
264.5552333648609
 30
0.0
 11
399.4238957826111
 21
264.5473987982009
 31
0.0
  0
LINE
  5
5DB
330
1F
100
AcDbEntity
  8
0
100
AcDbLine
 10
401.1353936978442
 20
263.2338124867339
 30
0.0
 11
401.1521535513663
 21
263.2280872827648
 31
0.0
  0
ELLIPSE
  5
5DC
330
1F
100
AcDbEntity
  8
0
100
AcDbEllipse
 10
401.2730107562625
 20
262.9140910842326
 30
0.0
 11
-0.0255186191255092
 21
0.0882490539843362
 31
0.0
210
0.0
220
0.0
230
1.0
 40
0.4479192206521214
 41
0.0
 42
6.283185307179584
  0
ARC
  5
5DD
330
1F
100
AcDbEntity
  8
0
100
AcDbCircle
 10
399.4826716855325
 20
264.6377178943979
 30
0.0
 40
0.0273938404334917
100
AcDbArc
 50
52.27943281732939
 51
89.99999999981675
  0
LINE
  5
5DE
330
1F
100
AcDbEntity
  8
0
100
AcDbLine
 10
375.021927178167
 20
258.4777622722154
 30
0.0
 11
375.0381188906747
 21
258.4475479470033
 31
0.0
  0
ENDSEC
  0
SECTION
  2
OBJECTS
  0
DICTIONARY
  5
C
330
0
100
AcDbDictionary
281
     1
  3
ACAD_CIP_PREVIOUS_PRODUCT_INFO
350
216
  3
ACAD_COLOR
350
6B
  3
ACAD_DETAILVIEWSTYLE
350
21B
  3
ACAD_GROUP
350
D
  3
ACAD_LAYOUT
350
1A
  3
ACAD_MATERIAL
350
6A
  3
ACAD_MLEADERSTYLE
350
12D
  3
ACAD_MLINESTYLE
350
17
  3
ACAD_PLOTSETTINGS
350
19
  3
ACAD_PLOTSTYLENAME
350
E
  3
ACAD_SCALELIST
350
10C
  3
ACAD_SECTIONVIEWSTYLE
350
219
  3
ACAD_TABLESTYLE
350
7E
  3
ACAD_VISUALSTYLE
350
EF
  3
ACDB_RECOMPOSE_DATA
350
62C
  3
AcDbVariableDictionary
350
5E
  0
DICTIONARY
  5
1FF
330
2
100
AcDbDictionary
280
     1
281
     1
  3
ACAD_LAYERSTATES
360
200
  0
DICTIONARY
  5
13C
330
10
100
AcDbDictionary
280
     1
281
     1
  0
DICTIONARY
  5
1CE
330
1F
100
AcDbDictionary
280
     1
281
     1
  0
XRECORD
  5
216
102
{ACAD_REACTORS
330
C
102
}
330
C
100
AcDbXrecord
280
     1
300
ACD
300
2021
300

  0
DICTIONARY
  5
6B
102
{ACAD_REACTORS
330
C
102
}
330
C
100
AcDbDictionary
281
     1
  0
DICTIONARY
  5
21B
102
{ACAD_REACTORS
330
C
102
}
330
C
100
AcDbDictionary
281
     1
  3
Metric50
350
21C
  0
DICTIONARY
  5
D
102
{ACAD_REACTORS
330
C
102
}
330
C
100
AcDbDictionary
281
     1
  0
DICTIONARY
  5
1A
102
{ACAD_REACTORS
330
C
102
}
330
C
100
AcDbDictionary
281
     1
  3
Model
350
22
  3
布局1
350
D3
  3
布局2
350
D7
  0
DICTIONARY
  5
6A
102
{ACAD_REACTORS
330
C
102
}
330
C
100
AcDbDictionary
281
     1
  3
ByBlock
350
ED
  3
ByLayer
350
EC
  3
Global
350
EE
  0
DICTIONARY
  5
12D
102
{ACAD_REACTORS
330
C
102
}
330
C
100
AcDbDictionary
281
     1
  3
Annotative
350
13B
  3
Standard
350
12E
  0
DICTIONARY
  5
17
102
{ACAD_REACTORS
330
C
102
}
330
C
100
AcDbDictionary
281
     1
  3
Standard
350
18
  0
DICTIONARY
  5
19
102
{ACAD_REACTORS
330
C
102
}
330
C
100
AcDbDictionary
281
     1
  0
ACDBDICTIONARYWDFLT
  5
E
102
{ACAD_REACTORS
330
C
102
}
330
C
100
AcDbDictionary
281
     1
  3
Normal
350
F
100
AcDbDictionaryWithDefault
340
F
  0
DICTIONARY
  5
10C
102
{ACAD_REACTORS
330
C
102
}
330
C
100
AcDbDictionary
281
     1
  3
A0
350
10D
  3
A1
350
1BE
  3
A2
350
1BF
  3
A3
350
1C0
  3
A4
350
1C1
  3
A5
350
1C2
  3
A6
350
1C3
  3
A7
350
1C4
  3
A8
350
1C5
  3
A9
350
1C6
  3
B0
350
1C7
  3
B1
350
1C8
  3
B2
350
1C9
  3
B3
350
1CA
  3
B4
350
1CB
  3
B5
350
1CC
  3
B6
350
1CD
  0
DICTIONARY
  5
219
102
{ACAD_REACTORS
330
C
102
}
330
C
100
AcDbDictionary
281
     1
  3
Metric50
350
21A
  0
DICTIONARY
  5
7E
102
{ACAD_REACTORS
330
C
102
}
330
C
100
AcDbDictionary
281
     1
  3
Standard
350
7F
  0
DICTIONARY
  5
EF
102
{ACAD_REACTORS
330
C
102
}
330
C
100
AcDbDictionary
281
     1
  3
2dWireframe
350
F5
  3
Basic
350
F4
  3
Brighten
350
FB
  3
ColorChange
350
FF
  3
Conceptual
350
F8
  3
Dim
350
FA
  3
EdgeColorOff
350
1E6
  3
Facepattern
350
FE
  3
Flat
350
F0
  3
FlatWithEdges
350
F1
  3
Gouraud
350
F2
  3
GouraudWithEdges
350
F3
  3
Hidden
350
F7
  3
JitterOff
350
1E4
  3
Linepattern
350
FD
  3
OverhangOff
350
1E5
  3
Realistic
350
F9
  3
Shaded
350
1F3
  3
Shaded with edges
350
1F2
  3
Shades of Gray
350
1EF
  3
Sketchy
350
1F0
  3
Thicken
350
FC
  3
Wireframe
350
F6
  3
X-Ray
350
1F1
  0
XRECORD
  5
62C
102
{ACAD_REACTORS
330
C
102
}
330
C
100
AcDbXrecord
280
     1
 90
        1
330
7F
  0
DICTIONARY
  5
5E
102
{ACAD_REACTORS
330
C
102
}
330
C
100
AcDbDictionary
281
     1
  3
CANNOSCALE
350
146
  3
CENTEREXE
350
259
  3
CENTERLTYPEFILE
350
25A
  3
CMLEADERSTYLE
350
145
  3
CTABLESTYLE
350
84
  3
CVIEWDETAILSTYLE
350
227
  3
CVIEWSECTIONSTYLE
350
228
  3
DIMASSOC
350
5F
  3
HIDETEXT
350
63
  3
LAYEREVAL
350
1AE
  3
LAYERNOTIFY
350
1AF
  0
DICTIONARY
  5
200
102
{ACAD_REACTORS
330
1FF
102
}
330
1FF
100
AcDbDictionary
281
     1
  0
ACDBDETAILVIEWSTYLE
  5
21C
102
{ACAD_REACTORS
330
21B
102
}
330
21B
100
AcDbModelDocViewStyle
 70
     0
  3
Metric50
290
     0
300
Metric50
 90
        0
100
AcDbDetailViewStyle
 70
     0
 71
     0
 90
        3
 71
     1
340
11
 62
   256
 40
5.0
340
0
 62
   256
 40
5.0
300

 40
0.0
280
     1
 71
     2
340
16
 90
       25
 62
   256
 71
     3
340
11
 62
   256
 40
5.0
 90
        0
 40
15.0
 90
        1
300
%<\AcVar ViewDetailId>% (%<\AcVar ViewScale \f "%sn">%)
 71
     4
340
16
 90
       25
 62
   256
340
16
 90
       25
 62
   256
280
     0
  0
LAYOUT
  5
22
102
{ACAD_XDICTIONARY
360
205
102
}
102
{ACAD_REACTORS
330
1A
102
}
330
1A
100
AcDbPlotSettings
  1

  2
none_device
  4
ISO_A4_(210.00_x_297.00_MM)
  6

 40
7.5
 41
20.0
 42
7.5
 43
20.0
 44
210.0
 45
297.0
 46
11.54999923706054
 47
-13.65000009536743
 48
0.0
 49
0.0
140
0.0
141
0.0
142
1.0
143
8.704084754739808
 70
 11952
 72
     1
 73
     0
 74
     0
  7

 75
     0
147
0.1148885871608098
 76
     0
 77
     2
 78
   300
148
0.0
149
0.0
100
AcDbLayout
  1
Model
 70
     1
 71
     0
 10
0.0
 20
0.0
 11
12.0
 21
9.0
 12
0.0
 22
0.0
 32
0.0
 14
0.0
 24
0.0
 34
0.0
 15
0.0
 25
0.0
 35
0.0
146
0.0
 13
0.0
 23
0.0
 33
0.0
 16
1.0
 26
0.0
 36
0.0
 17
0.0
 27
1.0
 37
0.0
 76
     0
330
1F
331
EA
1001
ACAD_PSEXT
1000
None
1000
None
1000
Not applicable
1000
The layout will not be plotted unless a new plotter configuration name is selected.
1070
     0
  0
LAYOUT
  5
D3
102
{ACAD_REACTORS
330
1A
102
}
330
1A
100
AcDbPlotSettings
  1

  2
C:\Documents and Settings\basas\Application Data\Autodesk\AutoCAD 2005\R16.1\enu\plotters\Default Windows System Printer.pc3
  4

  6

 40
0.0
 41
0.0
 42
0.0
 43
0.0
 44
0.0
 45
0.0
 46
0.0
 47
0.0
 48
0.0
 49
0.0
140
0.0
141
0.0
142
1.0
143
1.0
 70
   688
 72
     0
 73
     0
 74
     5
  7

 75
    16
147
1.0
 76
     0
 77
     2
 78
   300
148
0.0
149
0.0
100
AcDbLayout
  1
布局1
 70
     1
 71
     1
 10
0.0
 20
0.0
 11
12.0
 21
9.0
 12
0.0
 22
0.0
 32
0.0
 14
0.0
 24
0.0
 34
0.0
 15
0.0
 25
0.0
 35
0.0
146
0.0
 13
0.0
 23
0.0
 33
0.0
 16
1.0
 26
0.0
 36
0.0
 17
0.0
 27
1.0
 37
0.0
 76
     0
330
D2
  0
LAYOUT
  5
D7
102
{ACAD_REACTORS
330
1A
102
}
330
1A
100
AcDbPlotSettings
  1

  2
C:\Documents and Settings\basas\Application Data\Autodesk\AutoCAD 2005\R16.1\enu\plotters\Default Windows System Printer.pc3
  4

  6

 40
0.0
 41
0.0
 42
0.0
 43
0.0
 44
0.0
 45
0.0
 46
0.0
 47
0.0
 48
0.0
 49
0.0
140
0.0
141
0.0
142
1.0
143
1.0
 70
   688
 72
     0
 73
     0
 74
     5
  7

 75
    16
147
1.0
 76
     0
 77
     2
 78
   300
148
0.0
149
0.0
100
AcDbLayout
  1
布局2
 70
     1
 71
     2
 10
0.0
 20
0.0
 11
12.0
 21
9.0
 12
0.0
 22
0.0
 32
0.0
 14
0.0
 24
0.0
 34
0.0
 15
0.0
 25
0.0
 35
0.0
146
0.0
 13
0.0
 23
0.0
 33
0.0
 16
1.0
 26
0.0
 36
0.0
 17
0.0
 27
1.0
 37
0.0
 76
     0
330
D6
  0
MATERIAL
  5
ED
102
{ACAD_XDICTIONARY
360
1F9
102
}
102
{ACAD_REACTORS
330
6A
102
}
330
6A
100
AcDbMaterial
  1
ByBlock
 94
       63
  0
MATERIAL
  5
EC
102
{ACAD_XDICTIONARY
360
1F7
102
}
102
{ACAD_REACTORS
330
6A
102
}
330
6A
100
AcDbMaterial
  1
ByLayer
 94
       63
  0
MATERIAL
  5
EE
102
{ACAD_XDICTIONARY
360
173
102
}
102
{ACAD_REACTORS
330
6A
102
}
330
6A
100
AcDbMaterial
  1
Global
 43
0.0007999999797903
 43
0.0
 43
0.0
 43
0.0
 43
0.0
 43
0.0007999999797903
 43
0.0
 43
0.0
 43
0.0
 43
0.0
 43
1.0
 43
0.0
 43
0.0
 43
0.0
 43
0.0
 43
1.0
 49
0.0007999999797903
 49
0.0
 49
0.0
 49
0.0
 49
0.0
 49
0.0007999999797903
 49
0.0
 49
0.0
 49
0.0
 49
0.0
 49
1.0
 49
0.0
 49
0.0
 49
0.0
 49
0.0
 49
1.0
142
0.0007999999797903
142
0.0
142
0.0
142
0.0
142
0.0
142
0.0007999999797903
142
0.0
142
0.0
142
0.0
142
0.0
142
1.0
142
0.0
142
0.0
142
0.0
142
0.0
142
1.0
144
0.0007999999797903
144
0.0
144
0.0
144
0.0
144
0.0
144
0.0007999999797903
144
0.0
144
0.0
144
0.0
144
0.0
144
1.0
144
0.0
144
0.0
144
0.0
144
0.0
144
1.0
 94
       63
1001
ACAD
1070
    -1
1070
     3
1070
     0
1000

1071
        0
1070
     0
  0
MLEADERSTYLE
  5
13B
102
{ACAD_REACTORS
330
12D
102
}
330
12D
100
AcDbMLeaderStyle
179
     2
170
     2
171
     1
172
     0
 90
        2
 40
0.0
 41
0.0
173
     1
 91
-1056964608
340
14
 92
       -2
290
     1
 42
2.0
291
     1
 43
8.0
  3
Standard
 44
4.0
300

342
11
174
     1
178
     1
175
     1
176
     0
 93
-1056964608
 45
4.0
292
     0
297
     0
 46
4.0
 94
-1056964608
 47
1.0
 49
1.0
140
1.0
293
     1
141
0.0
294
     1
177
     0
142
1.0
295
     0
296
     1
143
3.75
271
     0
272
     9
273
     9
298
     0
  0
MLEADERSTYLE
  5
12E
102
{ACAD_REACTORS
330
12D
102
}
330
12D
100
AcDbMLeaderStyle
179
     2
170
     2
171
     1
172
     0
 90
        2
 40
0.0
 41
0.0
173
     1
 91
-1056964608
340
14
 92
       -2
290
     1
 42
2.0
291
     1
 43
8.0
  3
Standard
 44
4.0
300

342
11
174
     1
178
     1
175
     1
176
     0
 93
-1056964608
 45
4.0
292
     0
297
     0
 46
4.0
 94
-1056964608
 47
1.0
 49
1.0
140
1.0
293
     1
141
0.0
294
     1
177
     0
142
1.0
295
     0
296
     0
143
3.75
271
     0
272
     9
273
     9
298
     0
  0
MLINESTYLE
  5
18
102
{ACAD_REACTORS
330
17
102
}
330
17
100
AcDbMlineStyle
  2
STANDARD
 70
     0
  3

 62
   256
 51
90.0
 52
90.0
 71
     2
 49
0.5
 62
   256
  6
BYLAYER
 49
-0.5
 62
   256
  6
BYLAYER
  0
ACDBPLACEHOLDER
  5
F
102
{ACAD_REACTORS
330
E
102
}
330
E
  0
SCALE
  5
10D
102
{ACAD_REACTORS
330
10C
102
}
330
10C
100
AcDbScale
 70
     0
300
1:1
140
1.0
141
1.0
290
     1
  0
SCALE
  5
1BE
102
{ACAD_REACTORS
330
10C
102
}
330
10C
100
AcDbScale
 70
     0
300
1:2
140
1.0
141
2.0
290
     0
  0
SCALE
  5
1BF
102
{ACAD_REACTORS
330
10C
102
}
330
10C
100
AcDbScale
 70
     0
300
1:4
140
1.0
141
4.0
290
     0
  0
SCALE
  5
1C0
102
{ACAD_REACTORS
330
10C
102
}
330
10C
100
AcDbScale
 70
     0
300
1:5
140
1.0
141
5.0
290
     0
  0
SCALE
  5
1C1
102
{ACAD_REACTORS
330
10C
102
}
330
10C
100
AcDbScale
 70
     0
300
1:8
140
1.0
141
8.0
290
     0
  0
SCALE
  5
1C2
102
{ACAD_REACTORS
330
10C
102
}
330
10C
100
AcDbScale
 70
     0
300
1:10
140
1.0
141
10.0
290
     0
  0
SCALE
  5
1C3
102
{ACAD_REACTORS
330
10C
102
}
330
10C
100
AcDbScale
 70
     0
300
1:16
140
1.0
141
16.0
290
     0
  0
SCALE
  5
1C4
102
{ACAD_REACTORS
330
10C
102
}
330
10C
100
AcDbScale
 70
     0
300
1:20
140
1.0
141
20.0
290
     0
  0
SCALE
  5
1C5
102
{ACAD_REACTORS
330
10C
102
}
330
10C
100
AcDbScale
 70
     0
300
1:30
140
1.0
141
30.0
290
     0
  0
SCALE
  5
1C6
102
{ACAD_REACTORS
330
10C
102
}
330
10C
100
AcDbScale
 70
     0
300
1:40
140
1.0
141
40.0
290
     0
  0
SCALE
  5
1C7
102
{ACAD_REACTORS
330
10C
102
}
330
10C
100
AcDbScale
 70
     0
300
1:50
140
1.0
141
50.0
290
     0
  0
SCALE
  5
1C8
102
{ACAD_REACTORS
330
10C
102
}
330
10C
100
AcDbScale
 70
     0
300
1:100
140
1.0
141
100.0
290
     0
  0
SCALE
  5
1C9
102
{ACAD_REACTORS
330
10C
102
}
330
10C
100
AcDbScale
 70
     0
300
2:1
140
2.0
141
1.0
290
     0
  0
SCALE
  5
1CA
102
{ACAD_REACTORS
330
10C
102
}
330
10C
100
AcDbScale
 70
     0
300
4:1
140
4.0
141
1.0
290
     0
  0
SCALE
  5
1CB
102
{ACAD_REACTORS
330
10C
102
}
330
10C
100
AcDbScale
 70
     0
300
8:1
140
8.0
141
1.0
290
     0
  0
SCALE
  5
1CC
102
{ACAD_REACTORS
330
10C
102
}
330
10C
100
AcDbScale
 70
     0
300
10:1
140
10.0
141
1.0
290
     0
  0
SCALE
  5
1CD
102
{ACAD_REACTORS
330
10C
102
}
330
10C
100
AcDbScale
 70
     0
300
100:1
140
100.0
141
1.0
290
     0
  0
ACDBSECTIONVIEWSTYLE
  5
21A
102
{ACAD_REACTORS
330
219
102
}
330
219
100
AcDbModelDocViewStyle
 70
     0
  3
Metric50
290
     0
300
Metric50
 90
        0
100
AcDbSectionViewStyle
 70
     0
 71
     0
 90
      102
 71
     1
340
11
 62
   256
 40
5.0
340
0
340
0
 62
   256
 40
5.0
300
I, O, Q, S, X, Z
 40
10.0
 90
        0
 40
2.5
 90
        0
 71
     2
340
16
 90
       25
 62
   256
340
16
 90
       50
 62
   256
 40
5.0
 40
2.5
 40
5.0
 71
     3
340
11
 62
   256
 40
5.0
 90
        0
 40
15.0
 90
        1
300
%<\AcVar ViewSectionStartId>%-%<\AcVar ViewSectionEndId>% (%<\AcVar ViewScale \f "%sn">%)
 71
     4
 62
   256
 62
   257
300
ANSI31
 40
1.0
 90
        0
290
     0
290
     0
 90
        6
 40
0.0
 40
1.570796326794896
 40
0.2617993877991494
 40
1.308996938995747
 40
-0.2617993877991494
 40
1.832595714594046
  0
TABLESTYLE
  5
7F
102
{ACAD_XDICTIONARY
360
162
102
}
102
{ACAD_REACTORS
330
7E
102
}
330
7E
100
AcDbTableStyle
280
     0
  3
Standard
 70
     0
 71
     0
 40
1.5
 41
1.5
280
     0
281
     0
  7
Standard
140
4.5
170
     2
 62
     0
 63
     7
283
     0
 90
      512
 91
        0
  1

274
    -2
284
     1
 64
     0
275
    -2
285
     1
 65
     0
276
    -2
286
     1
 66
     0
277
    -2
287
     1
 67
     0
278
    -2
288
     1
 68
     0
279
    -2
289
     1
 69
     0
  7
Standard
140
6.0
170
     5
 62
     0
 63
     7
283
     0
 90
      512
 91
        0
  1

274
    -2
284
     1
 64
     0
275
    -2
285
     1
 65
     0
276
    -2
286
     1
 66
     0
277
    -2
287
     1
 67
     0
278
    -2
288
     1
 68
     0
279
    -2
289
     1
 69
     0
  7
Standard
140
4.5
170
     5
 62
     0
 63
     7
283
     0
 90
      512
 91
        0
  1

274
    -2
284
     1
 64
     0
275
    -2
285
     1
 65
     0
276
    -2
286
     1
 66
     0
277
    -2
287
     1
 67
     0
278
    -2
288
     1
 68
     0
279
    -2
289
     1
 69
     0
  0
VISUALSTYLE
  5
F5
102
{ACAD_REACTORS
330
EF
102
}
330
EF
100
AcDbVisualStyle
  2
2dWireframe
 70
     4
177
     3
291
     0
 70
    58
 90
        0
176
     1
 90
        2
176
     1
 90
        1
176
     1
 90
        0
176
     1
 40
0.6
176
     1
 40
30.0
176
     1
 62
     7
420
 16777215
176
     1
 90
        1
176
     1
 90
        4
176
     1
 62
     7
176
     1
 62
   257
176
     1
 90
        1
176
     1
 90
        1
176
     1
 40
1.0
176
     1
 90
        0
176
     1
 62
   257
176
     1
 40
1.0
176
     1
 90
        1
176
     1
 90
        6
176
     1
 90
        2
176
     1
 62
     7
176
     1
 90
        5
176
     1
 90
        0
176
     1
 90
        0
176
     1
290
     0
176
     1
 90
        1
176
     1
 40
0.0
176
     1
 90
        0
176
     1
290
     1
176
     1
290
     1
176
     1
290
     0
176
     1
290
     0
176
     1
290
     0
176
     1
290
     0
176
     1
290
     0
176
     1
290
     0
176
     1
290
     0
176
     1
 90
       50
176
     1
 40
0.0
176
     1
 40
1.0
176
     1
 90
        0
176
     1
 62
    18
420
        0
176
     1
 90
       50
176
     1
 90
        3
176
     1
 62
     5
420
      255
176
     1
290
     0
176
     1
 90
       50
176
     1
 90
       50
176
     1
 90
       50
176
     1
290
     0
176
     1
 90
       50
176
     1
 62
   256
176
     0
 40
1.0
176
     0
 90
        2
176
     1
  1
strokes_ogs.tif
176
     1
290
     0
176
     1
 40
1.0
176
     1
 40
1.0
176
     1
  0
VISUALSTYLE
  5
F4
102
{ACAD_REACTORS
330
EF
102
}
330
EF
100
AcDbVisualStyle
  2
Basic
 70
     7
177
     3
291
     1
 70
    58
 90
        1
176
     1
 90
        0
176
     1
 90
        1
176
     1
 90
        0
176
     1
 40
0.6
176
     1
 40
30.0
176
     1
 62
     7
420
 16777215
176
     1
 90
        0
176
     1
 90
        4
176
     1
 62
     7
176
     1
 62
   257
176
     1
 90
        1
176
     1
 90
        1
176
     1
 40
1.0
176
     1
 90
        8
176
     1
 62
     7
176
     1
 40
1.0
176
     1
 90
        1
176
     1
 90
        6
176
     1
 90
        2
176
     1
 62
     7
176
     1
 90
        5
176
     1
 90
        0
176
     1
 90
        0
176
     1
290
     0
176
     1
 90
        1
176
     1
 40
0.0
176
     1
 90
        0
176
     1
290
     0
176
     1
290
     1
176
     1
290
     1
176
     1
290
     0
176
     1
290
     0
176
     1
290
     0
176
     1
290
     0
176
     1
290
     0
176
     1
290
     0
176
     1
 90
       50
176
     1
 40
0.0
176
     1
 40
1.0
176
     1
 90
        0
176
     1
 62
    18
420
        0
176
     1
 90
       50
176
     1
 90
        3
176
     1
 62
     5
420
      255
176
     1
290
     0
176
     1
 90
       50
176
     1
 90
       50
176
     1
 90
       50
176
     1
290
     0
176
     1
 90
       50
176
     1
 62
   256
176
     0
 40
1.0
176
     0
 90
        2
176
     1
  1
strokes_ogs.tif
176
     1
290
     0
176
     1
 40
1.0
176
     1
 40
1.0
176
     1
  0
VISUALSTYLE
  5
FB
102
{ACAD_REACTORS
330
EF
102
}
330
EF
100
AcDbVisualStyle
  2
Brighten
 70
    12
177
     3
291
     1
 70
    58
 90
        2
176
     1
 90
        2
176
     1
 90
        1
176
     1
 90
        0
176
     1
 40
0.6
176
     1
 40
30.0
176
     1
 62
     7
420
 16777215
176
     1
 90
        1
176
     1
 90
        4
176
     1
 62
     7
176
     1
 62
   257
176
     1
 90
        1
176
     1
 90
        1
176
     1
 40
1.0
176
     1
 90
        8
176
     1
 62
     7
176
     1
 40
1.0
176
     1
 90
        1
176
     1
 90
        6
176
     1
 90
        2
176
     1
 62
     7
176
     1
 90
        5
176
     1
 90
        0
176
     1
 90
        0
176
     1
290
     0
176
     1
 90
        1
176
     1
 40
50.0
176
     1
 90
        0
176
     1
290
     0
176
     1
290
     1
176
     1
290
     1
176
     1
290
     0
176
     1
290
     0
176
     1
290
     0
176
     1
290
     0
176
     1
290
     0
176
     1
290
     0
176
     1
 90
       50
176
     1
 40
0.0
176
     1
 40
1.0
176
     1
 90
        0
176
     1
 62
    18
420
        0
176
     1
 90
       50
176
     1
 90
        3
176
     1
 62
     5
420
      255
176
     1
290
     0
176
     1
 90
       50
176
     1
 90
       50
176
     1
 90
       50
176
     1
290
     0
176
     1
 90
       50
176
     1
 62
   256
176
     0
 40
1.0
176
     0
 90
        2
176
     1
  1
strokes_ogs.tif
176
     1
290
     0
176
     1
 40
1.0
176
     1
 40
1.0
176
     1
  0
VISUALSTYLE
  5
FF
102
{ACAD_REACTORS
330
EF
102
}
330
EF
100
AcDbVisualStyle
  2
ColorChange
 70
    16
177
     3
291
     1
 70
    58
 90
        2
176
     1
 90
        2
176
     1
 90
        3
176
     1
 90
        0
176
     1
 40
0.6
176
     1
 40
30.0
176
     1
 62
     8
420
  8421504
176
     1
 90
        1
176
     1
 90
        4
176
     1
 62
     7
176
     1
 62
   257
176
     1
 90
        1
176
     1
 90
        1
176
     1
 40
1.0
176
     1
 90
        8
176
     1
 62
     8
420
  8421504
176
     1
 40
1.0
176
     1
 90
        1
176
     1
 90
        6
176
     1
 90
        2
176
     1
 62
     7
176
     1
 90
        5
176
     1
 90
        0
176
     1
 90
        0
176
     1
290
     0
176
     1
 90
        1
176
     1
 40
0.0
176
     1
 90
        0
176
     1
290
     0
176
     1
290
     1
176
     1
290
     1
176
     1
290
     0
176
     1
290
     0
176
     1
290
     0
176
     1
290
     0
176
     1
290
     0
176
     1
290
     0
176
     1
 90
       50
176
     1
 40
0.0
176
     1
 40
1.0
176
     1
 90
        0
176
     1
 62
    18
420
        0
176
     1
 90
       50
176
     1
 90
        3
176
     1
 62
     5
420
      255
176
     1
290
     0
176
     1
 90
       50
176
     1
 90
       50
176
     1
 90
       50
176
     1
290
     0
176
     1
 90
       50
176
     1
 62
   256
176
     0
 40
1.0
176
     0
 90
        2
176
     1
  1
strokes_ogs.tif
176
     1
290
     0
176
     1
 40
1.0
176
     1
 40
1.0
176
     1
  0
VISUALSTYLE
  5
F8
102
{ACAD_REACTORS
330
EF
102
}
330
EF
100
AcDbVisualStyle
  2
Conceptual
 70
     9
177
     3
291
     0
 70
    58
 90
        3
176
     1
 90
        2
176
     1
 90
        1
176
     1
 90
        0
176
     1
 40
0.6
176
     1
 40
30.0
176
     1
 62
     7
420
 16777215
176
     1
 90
        2
176
     1
 90
        2
176
     1
 62
     7
176
     1
 62
   257
176
     1
 90
        1
176
     1
 90
        1
176
     1
 40
40.0
176
     1
 90
        8
176
     1
 62
     7
176
     1
 40
1.0
176
     1
 90
        1
176
     1
 90
        6
176
     1
 90
        2
176
     1
 62
     7
176
     1
 90
        3
176
     1
 90
        0
176
     1
 90
        0
176
     1
290
     0
176
     1
 90
        1
176
     1
 40
0.0
176
     1
 90
        0
176
     1
290
     0
176
     1
290
     1
176
     1
290
     1
176
     1
290
     0
176
     1
290
     0
176
     1
290
     0
176
     1
290
     0
176
     1
290
     0
176
     1
290
     0
176
     1
 90
       50
176
     1
 40
0.0
176
     1
 40
1.0
176
     1
 90
        0
176
     1
 62
    18
420
        0
176
     1
 90
       50
176
     1
 90
        3
176
     1
 62
     5
420
      255
176
     1
290
     0
176
     1
 90
       50
176
     1
 90
       50
176
     1
 90
       50
176
     1
290
     0
176
     1
 90
       50
176
     1
 62
   256
176
     0
 40
1.0
176
     0
 90
        2
176
     1
  1
strokes_ogs.tif
176
     1
290
     0
176
     1
 40
1.0
176
     1
 40
1.0
176
     1
  0
VISUALSTYLE
  5
FA
102
{ACAD_REACTORS
330
EF
102
}
330
EF
100
AcDbVisualStyle
  2
Dim
 70
    11
177
     3
291
     1
 70
    58
 90
        2
176
     1
 90
        2
176
     1
 90
        1
176
     1
 90
        0
176
     1
 40
0.6
176
     1
 40
30.0
176
     1
 62
     7
420
 16777215
176
     1
 90
        1
176
     1
 90
        4
176
     1
 62
     7
176
     1
 62
   257
176
     1
 90
        1
176
     1
 90
        1
176
     1
 40
1.0
176
     1
 90
        8
176
     1
 62
     7
176
     1
 40
1.0
176
     1
 90
        1
176
     1
 90
        6
176
     1
 90
        2
176
     1
 62
     7
176
     1
 90
        5
176
     1
 90
        0
176
     1
 90
        0
176
     1
290
     0
176
     1
 90
        1
176
     1
 40
-50.0
176
     1
 90
        0
176
     1
290
     0
176
     1
290
     1
176
     1
290
     1
176
     1
290
     0
176
     1
290
     0
176
     1
290
     0
176
     1
290
     0
176
     1
290
     0
176
     1
290
     0
176
     1
 90
       50
176
     1
 40
0.0
176
     1
 40
1.0
176
     1
 90
        0
176
     1
 62
    18
420
        0
176
     1
 90
       50
176
     1
 90
        3
176
     1
 62
     5
420
      255
176
     1
290
     0
176
     1
 90
       50
176
     1
 90
       50
176
     1
 90
       50
176
     1
290
     0
176
     1
 90
       50
176
     1
 62
   256
176
     0
 40
1.0
176
     0
 90
        2
176
     1
  1
strokes_ogs.tif
176
     1
290
     0
176
     1
 40
1.0
176
     1
 40
1.0
176
     1
  0
VISUALSTYLE
  5
1E6
102
{ACAD_REACTORS
330
EF
102
}
330
EF
100
AcDbVisualStyle
  2
EdgeColorOff
 70
    22
177
     3
291
     1
 70
    58
 90
        2
176
     0
 90
        2
176
     0
 90
        0
176
     0
 90
        0
176
     0
 40
0.6
176
     0
 40
30.0
176
     0
 62
     7
420
 16777215
176
     0
 90
        1
176
     0
 90
        4
176
     0
 62
     7
176
     0
 62
   257
176
     0
 90
        1
176
     0
 90
        1
176
     0
 40
1.0
176
     0
 90
        8
176
     2
 62
     7
176
     0
 40
1.0
176
     0
 90
        1
176
     0
 90
        6
176
     0
 90
        2
176
     0
 62
     7
176
     0
 90
        5
176
     0
 90
        0
176
     0
 90
        0
176
     0
290
     0
176
     0
 90
        1
176
     0
 40
0.0
176
     0
 90
        0
176
     0
290
     0
176
     1
290
     1
176
     1
290
     1
176
     1
290
     0
176
     1
290
     0
176
     1
290
     0
176
     1
290
     0
176
     1
290
     0
176
     1
290
     0
176
     1
 90
       50
176
     1
 40
0.0
176
     1
 40
1.0
176
     1
 90
        0
176
     1
 62
    18
420
        0
176
     1
 90
       50
176
     1
 90
        3
176
     1
 62
     5
420
      255
176
     1
290
     0
176
     1
 90
       50
176
     1
 90
       50
176
     1
 90
       50
176
     1
290
     0
176
     1
 90
       50
176
     1
 62
   256
176
     0
 40
1.0
176
     0
 90
        2
176
     1
  1
strokes_ogs.tif
176
     1
290
     0
176
     1
 40
1.0
176
     1
 40
1.0
176
     1
  0
VISUALSTYLE
  5
FE
102
{ACAD_REACTORS
330
EF
102
}
330
EF
100
AcDbVisualStyle
  2
Facepattern
 70
    15
177
     3
291
     1
 70
    58
 90
        2
176
     1
 90
        2
176
     1
 90
        1
176
     1
 90
        0
176
     1
 40
0.6
176
     1
 40
30.0
176
     1
 62
     7
420
 16777215
176
     1
 90
        1
176
     1
 90
        4
176
     1
 62
     7
176
     1
 62
   257
176
     1
 90
        1
176
     1
 90
        1
176
     1
 40
1.0
176
     1
 90
        8
176
     1
 62
     7
176
     1
 40
1.0
176
     1
 90
        1
176
     1
 90
        6
176
     1
 90
        2
176
     1
 62
     7
176
     1
 90
        5
176
     1
 90
        0
176
     1
 90
        0
176
     1
290
     0
176
     1
 90
        1
176
     1
 40
0.0
176
     1
 90
        0
176
     1
290
     0
176
     1
290
     1
176
     1
290
     1
176
     1
290
     0
176
     1
290
     0
176
     1
290
     0
176
     1
290
     0
176
     1
290
     0
176
     1
290
     0
176
     1
 90
       50
176
     1
 40
0.0
176
     1
 40
1.0
176
     1
 90
        0
176
     1
 62
    18
420
        0
176
     1
 90
       50
176
     1
 90
        3
176
     1
 62
     5
420
      255
176
     1
290
     0
176
     1
 90
       50
176
     1
 90
       50
176
     1
 90
       50
176
     1
290
     0
176
     1
 90
       50
176
     1
 62
   256
176
     0
 40
1.0
176
     0
 90
        2
176
     1
  1
strokes_ogs.tif
176
     1
290
     0
176
     1
 40
1.0
176
     1
 40
1.0
176
     1
  0
VISUALSTYLE
  5
F0
102
{ACAD_REACTORS
330
EF
102
}
330
EF
100
AcDbVisualStyle
  2
Flat
 70
     0
177
     3
291
     1
 70
    58
 90
        2
176
     1
 90
        1
176
     1
 90
        1
176
     1
 90
        2
176
     1
 40
0.6
176
     1
 40
30.0
176
     1
 62
     7
420
 16777215
176
     1
 90
        0
176
     1
 90
        0
176
     1
 62
     7
176
     1
 62
   257
176
     1
 90
        1
176
     1
 90
        1
176
     1
 40
1.0
176
     1
 90
        8
176
     1
 62
     7
176
     1
 40
1.0
176
     1
 90
        1
176
     1
 90
        6
176
     1
 90
        2
176
     1
 62
     7
176
     1
 90
        5
176
     1
 90
        0
176
     1
 90
        0
176
     1
290
     0
176
     1
 90
       13
176
     1
 40
0.0
176
     1
 90
        0
176
     1
290
     0
176
     1
290
     1
176
     1
290
     1
176
     1
290
     0
176
     1
290
     0
176
     1
290
     0
176
     1
290
     0
176
     1
290
     0
176
     1
290
     0
176
     1
 90
       50
176
     1
 40
0.0
176
     1
 40
1.0
176
     1
 90
        0
176
     1
 62
    18
420
        0
176
     1
 90
       50
176
     1
 90
        3
176
     1
 62
     5
420
      255
176
     1
290
     0
176
     1
 90
       50
176
     1
 90
       50
176
     1
 90
       50
176
     1
290
     0
176
     1
 90
       50
176
     1
 62
   256
176
     0
 40
1.0
176
     0
 90
        2
176
     1
  1
strokes_ogs.tif
176
     1
290
     0
176
     1
 40
1.0
176
     1
 40
1.0
176
     1
  0
VISUALSTYLE
  5
F1
102
{ACAD_REACTORS
330
EF
102
}
330
EF
100
AcDbVisualStyle
  2
FlatWithEdges
 70
     1
177
     3
291
     1
 70
    58
 90
        2
176
     1
 90
        1
176
     1
 90
        1
176
     1
 90
        2
176
     1
 40
0.6
176
     1
 40
30.0
176
     1
 62
     7
420
 16777215
176
     1
 90
        1
176
     1
 90
        0
176
     1
 62
     7
176
     1
 62
   257
176
     1
 90
        1
176
     1
 90
        1
176
     1
 40
1.0
176
     1
 90
        0
176
     1
 62
   257
176
     1
 40
1.0
176
     1
 90
        1
176
     1
 90
        6
176
     1
 90
        2
176
     1
 62
     7
176
     1
 90
        5
176
     1
 90
        0
176
     1
 90
        0
176
     1
290
     0
176
     1
 90
       13
176
     1
 40
0.0
176
     1
 90
        0
176
     1
290
     0
176
     1
290
     1
176
     1
290
     1
176
     1
290
     0
176
     1
290
     0
176
     1
290
     0
176
     1
290
     0
176
     1
290
     0
176
     1
290
     0
176
     1
 90
       50
176
     1
 40
0.0
176
     1
 40
1.0
176
     1
 90
        0
176
     1
 62
    18
420
        0
176
     1
 90
       50
176
     1
 90
        3
176
     1
 62
     5
420
      255
176
     1
290
     0
176
     1
 90
       50
176
     1
 90
       50
176
     1
 90
       50
176
     1
290
     0
176
     1
 90
       50
176
     1
 62
   256
176
     0
 40
1.0
176
     0
 90
        2
176
     1
  1
strokes_ogs.tif
176
     1
290
     0
176
     1
 40
1.0
176
     1
 40
1.0
176
     1
  0
VISUALSTYLE
  5
F2
102
{ACAD_REACTORS
330
EF
102
}
330
EF
100
AcDbVisualStyle
  2
Gouraud
 70
     2
177
     3
291
     1
 70
    58
 90
        2
176
     1
 90
        2
176
     1
 90
        1
176
     1
 90
        2
176
     1
 40
0.6
176
     1
 40
30.0
176
     1
 62
     7
420
 16777215
176
     1
 90
        0
176
     1
 90
        0
176
     1
 62
     7
176
     1
 62
   257
176
     1
 90
        1
176
     1
 90
        1
176
     1
 40
1.0
176
     1
 90
        0
176
     1
 62
     7
176
     1
 40
1.0
176
     1
 90
        1
176
     1
 90
        6
176
     1
 90
        2
176
     1
 62
     7
176
     1
 90
        5
176
     1
 90
        0
176
     1
 90
        0
176
     1
290
     0
176
     1
 90
       13
176
     1
 40
0.0
176
     1
 90
        0
176
     1
290
     0
176
     1
290
     1
176
     1
290
     1
176
     1
290
     0
176
     1
290
     0
176
     1
290
     0
176
     1
290
     0
176
     1
290
     0
176
     1
290
     0
176
     1
 90
       50
176
     1
 40
0.0
176
     1
 40
1.0
176
     1
 90
        0
176
     1
 62
    18
420
        0
176
     1
 90
       50
176
     1
 90
        3
176
     1
 62
     5
420
      255
176
     1
290
     0
176
     1
 90
       50
176
     1
 90
       50
176
     1
 90
       50
176
     1
290
     0
176
     1
 90
       50
176
     1
 62
   256
176
     0
 40
1.0
176
     0
 90
        2
176
     1
  1
strokes_ogs.tif
176
     1
290
     0
176
     1
 40
1.0
176
     1
 40
1.0
176
     1
  0
VISUALSTYLE
  5
F3
102
{ACAD_REACTORS
330
EF
102
}
330
EF
100
AcDbVisualStyle
  2
GouraudWithEdges
 70
     3
177
     3
291
     1
 70
    58
 90
        2
176
     1
 90
        2
176
     1
 90
        1
176
     1
 90
        2
176
     1
 40
0.6
176
     1
 40
30.0
176
     1
 62
     7
420
 16777215
176
     1
 90
        1
176
     1
 90
        0
176
     1
 62
     7
176
     1
 62
   257
176
     1
 90
        1
176
     1
 90
        1
176
     1
 40
1.0
176
     1
 90
        0
176
     1
 62
   257
176
     1
 40
1.0
176
     1
 90
        1
176
     1
 90
        6
176
     1
 90
        2
176
     1
 62
     7
176
     1
 90
        5
176
     1
 90
        0
176
     1
 90
        0
176
     1
290
     0
176
     1
 90
       13
176
     1
 40
0.0
176
     1
 90
        0
176
     1
290
     0
176
     1
290
     1
176
     1
290
     1
176
     1
290
     0
176
     1
290
     0
176
     1
290
     0
176
     1
290
     0
176
     1
290
     0
176
     1
290
     0
176
     1
 90
       50
176
     1
 40
0.0
176
     1
 40
1.0
176
     1
 90
        0
176
     1
 62
    18
420
        0
176
     1
 90
       50
176
     1
 90
        3
176
     1
 62
     5
420
      255
176
     1
290
     0
176
     1
 90
       50
176
     1
 90
       50
176
     1
 90
       50
176
     1
290
     0
176
     1
 90
       50
176
     1
 62
   256
176
     0
 40
1.0
176
     0
 90
        2
176
     1
  1
strokes_ogs.tif
176
     1
290
     0
176
     1
 40
1.0
176
     1
 40
1.0
176
     1
  0
VISUALSTYLE
  5
F7
102
{ACAD_REACTORS
330
EF
102
}
330
EF
100
AcDbVisualStyle
  2
Hidden
 70
     6
177
     3
291
     0
 70
    58
 90
        1
176
     1
 90
        2
176
     1
 90
        2
176
     1
 90
        0
176
     1
 40
0.6
176
     1
 40
30.0
176
     1
 62
     7
420
 16777215
176
     1
 90
        2
176
     1
 90
        2
176
     1
 62
     7
176
     1
 62
   257
176
     1
 90
        2
176
     1
 90
        1
176
     1
 40
40.0
176
     1
 90
        0
176
     1
 62
   257
176
     1
 40
1.0
176
     1
 90
        1
176
     1
 90
        6
176
     1
 90
        2
176
     1
 62
     7
176
     1
 90
        3
176
     1
 90
        0
176
     1
 90
        0
176
     1
290
     0
176
     1
 90
        1
176
     1
 40
0.0
176
     1
 90
        0
176
     1
290
     0
176
     1
290
     1
176
     1
290
     1
176
     1
290
     0
176
     1
290
     0
176
     1
290
     0
176
     1
290
     0
176
     1
290
     0
176
     1
290
     0
176
     1
 90
       50
176
     1
 40
0.0
176
     1
 40
1.0
176
     1
 90
        0
176
     1
 62
    18
420
        0
176
     1
 90
       50
176
     1
 90
        3
176
     1
 62
     5
420
      255
176
     1
290
     0
176
     1
 90
       50
176
     1
 90
       50
176
     1
 90
       50
176
     1
290
     0
176
     1
 90
       50
176
     1
 62
   256
176
     0
 40
1.0
176
     0
 90
        2
176
     1
  1
strokes_ogs.tif
176
     1
290
     0
176
     1
 40
1.0
176
     1
 40
1.0
176
     1
  0
VISUALSTYLE
  5
1E4
102
{ACAD_REACTORS
330
EF
102
}
330
EF
100
AcDbVisualStyle
  2
JitterOff
 70
    20
177
     3
291
     1
 70
    58
 90
        2
176
     0
 90
        2
176
     0
 90
        0
176
     0
 90
        0
176
     0
 40
0.6
176
     0
 40
30.0
176
     0
 62
     7
420
 16777215
176
     0
 90
        1
176
     0
 90
        4
176
     0
 62
     7
176
     0
 62
   257
176
     0
 90
        1
176
     0
 90
        1
176
     0
 40
1.0
176
     0
 90
       10
176
     2
 62
     7
176
     0
 40
1.0
176
     0
 90
        1
176
     0
 90
        6
176
     0
 90
        2
176
     0
 62
     7
176
     0
 90
        5
176
     0
 90
        0
176
     0
 90
        0
176
     0
290
     0
176
     0
 90
        1
176
     0
 40
0.0
176
     0
 90
        0
176
     0
290
     0
176
     1
290
     1
176
     1
290
     1
176
     1
290
     0
176
     1
290
     0
176
     1
290
     0
176
     1
290
     0
176
     1
290
     0
176
     1
290
     0
176
     1
 90
       50
176
     1
 40
0.0
176
     1
 40
1.0
176
     1
 90
        0
176
     1
 62
    18
420
        0
176
     1
 90
       50
176
     1
 90
        3
176
     1
 62
     5
420
      255
176
     1
290
     0
176
     1
 90
       50
176
     1
 90
       50
176
     1
 90
       50
176
     1
290
     0
176
     1
 90
       50
176
     1
 62
   256
176
     0
 40
1.0
176
     0
 90
        2
176
     1
  1
strokes_ogs.tif
176
     1
290
     0
176
     1
 40
1.0
176
     1
 40
1.0
176
     1
  0
VISUALSTYLE
  5
FD
102
{ACAD_REACTORS
330
EF
102
}
330
EF
100
AcDbVisualStyle
  2
Linepattern
 70
    14
177
     3
291
     1
 70
    58
 90
        2
176
     1
 90
        2
176
     1
 90
        1
176
     1
 90
        0
176
     1
 40
0.6
176
     1
 40
30.0
176
     1
 62
     7
420
 16777215
176
     1
 90
        1
176
     1
 90
        4
176
     1
 62
     7
176
     1
 62
   257
176
     1
 90
        7
176
     1
 90
        7
176
     1
 40
1.0
176
     1
 90
        8
176
     1
 62
     7
176
     1
 40
1.0
176
     1
 90
        1
176
     1
 90
        6
176
     1
 90
        2
176
     1
 62
     7
176
     1
 90
        5
176
     1
 90
        0
176
     1
 90
        0
176
     1
290
     0
176
     1
 90
        1
176
     1
 40
0.0
176
     1
 90
        0
176
     1
290
     0
176
     1
290
     1
176
     1
290
     1
176
     1
290
     0
176
     1
290
     0
176
     1
290
     0
176
     1
290
     0
176
     1
290
     0
176
     1
290
     0
176
     1
 90
       50
176
     1
 40
0.0
176
     1
 40
1.0
176
     1
 90
        0
176
     1
 62
    18
420
        0
176
     1
 90
       50
176
     1
 90
        3
176
     1
 62
     5
420
      255
176
     1
290
     0
176
     1
 90
       50
176
     1
 90
       50
176
     1
 90
       50
176
     1
290
     0
176
     1
 90
       50
176
     1
 62
   256
176
     0
 40
1.0
176
     0
 90
        2
176
     1
  1
strokes_ogs.tif
176
     1
290
     0
176
     1
 40
1.0
176
     1
 40
1.0
176
     1
  0
VISUALSTYLE
  5
1E5
102
{ACAD_REACTORS
330
EF
102
}
330
EF
100
AcDbVisualStyle
  2
OverhangOff
 70
    21
177
     3
291
     1
 70
    58
 90
        2
176
     0
 90
        2
176
     0
 90
        0
176
     0
 90
        0
176
     0
 40
0.6
176
     0
 40
30.0
176
     0
 62
     7
420
 16777215
176
     0
 90
        1
176
     0
 90
        4
176
     0
 62
     7
176
     0
 62
   257
176
     0
 90
        1
176
     0
 90
        1
176
     0
 40
1.0
176
     0
 90
        9
176
     2
 62
     7
176
     0
 40
1.0
176
     0
 90
        1
176
     0
 90
        6
176
     0
 90
        2
176
     0
 62
     7
176
     0
 90
        5
176
     0
 90
        0
176
     0
 90
        0
176
     0
290
     0
176
     0
 90
        1
176
     0
 40
0.0
176
     0
 90
        0
176
     0
290
     0
176
     1
290
     1
176
     1
290
     1
176
     1
290
     0
176
     1
290
     0
176
     1
290
     0
176
     1
290
     0
176
     1
290
     0
176
     1
290
     0
176
     1
 90
       50
176
     1
 40
0.0
176
     1
 40
1.0
176
     1
 90
        0
176
     1
 62
    18
420
        0
176
     1
 90
       50
176
     1
 90
        3
176
     1
 62
     5
420
      255
176
     1
290
     0
176
     1
 90
       50
176
     1
 90
       50
176
     1
 90
       50
176
     1
290
     0
176
     1
 90
       50
176
     1
 62
   256
176
     0
 40
1.0
176
     0
 90
        2
176
     1
  1
strokes_ogs.tif
176
     1
290
     0
176
     1
 40
1.0
176
     1
 40
1.0
176
     1
  0
VISUALSTYLE
  5
F9
102
{ACAD_REACTORS
330
EF
102
}
330
EF
100
AcDbVisualStyle
  2
Realistic
 70
     8
177
     3
291
     0
 70
    58
 90
        2
176
     1
 90
        3
176
     1
 90
        0
176
     1
 90
        2
176
     1
 40
0.6
176
     1
 40
30.0
176
     1
 62
     7
420
 16777215
176
     1
 90
        0
176
     1
 90
        0
176
     1
 62
     7
176
     1
 62
   257
176
     1
 90
        1
176
     1
 90
        1
176
     1
 40
1.0
176
     1
 90
        8
176
     1
 62
   257
176
     1
 40
1.0
176
     1
 90
        1
176
     1
 90
        6
176
     1
 90
        2
176
     1
 62
     7
176
     1
 90
        3
176
     1
 90
        0
176
     1
 90
        0
176
     1
290
     0
176
     1
 90
       13
176
     1
 40
0.0
176
     1
 90
        0
176
     1
290
     0
176
     1
290
     1
176
     1
290
     1
176
     1
290
     0
176
     1
290
     0
176
     1
290
     0
176
     1
290
     0
176
     1
290
     0
176
     1
290
     0
176
     1
 90
       50
176
     1
 40
0.0
176
     1
 40
1.0
176
     1
 90
        0
176
     1
 62
    18
420
        0
176
     1
 90
       50
176
     1
 90
        3
176
     1
 62
     5
420
      255
176
     1
290
     0
176
     1
 90
       50
176
     1
 90
       50
176
     1
 90
       50
176
     1
290
     0
176
     1
 90
       50
176
     1
 62
   256
176
     0
 40
1.0
176
     0
 90
        2
176
     1
  1
strokes_ogs.tif
176
     1
290
     0
176
     1
 40
1.0
176
     1
 40
1.0
176
     1
  0
VISUALSTYLE
  5
1F3
102
{ACAD_REACTORS
330
EF
102
}
330
EF
100
AcDbVisualStyle
  2
Shaded
 70
    27
177
     3
291
     0
 70
    58
 90
        2
176
     1
 90
        2
176
     1
 90
        1
176
     1
 90
        2
176
     1
 40
0.6
176
     1
 40
30.0
176
     1
 62
     7
420
 16777215
176
     1
 90
        0
176
     1
 90
        4
176
     1
 62
     7
176
     1
 62
   257
176
     1
 90
        1
176
     1
 90
        1
176
     1
 40
1.0
176
     1
 90
        8
176
     1
 62
   257
176
     1
 40
1.0
176
     1
 90
        1
176
     1
 90
        6
176
     1
 90
        2
176
     1
 62
     8
420
  7895160
176
     1
 90
        3
176
     1
 90
        0
176
     1
 90
        0
176
     1
290
     0
176
     1
 90
        5
176
     1
 40
0.0
176
     1
 90
        0
176
     1
290
     0
176
     1
290
     1
176
     1
290
     1
176
     1
290
     0
176
     1
290
     0
176
     1
290
     0
176
     1
290
     0
176
     1
290
     0
176
     1
290
     0
176
     1
 90
       50
176
     1
 40
0.0
176
     1
 40
1.0
176
     1
 90
        0
176
     1
 62
    18
420
        0
176
     1
 90
       50
176
     1
 90
        3
176
     1
 62
     5
420
      255
176
     1
290
     0
176
     1
 90
       50
176
     1
 90
       50
176
     1
 90
       50
176
     1
290
     0
176
     1
 90
       50
176
     1
 62
   256
176
     0
 40
1.0
176
     0
 90
        2
176
     1
  1
strokes_ogs.tif
176
     1
290
     0
176
     1
 40
1.0
176
     1
 40
1.0
176
     1
  0
VISUALSTYLE
  5
1F2
102
{ACAD_REACTORS
330
EF
102
}
330
EF
100
AcDbVisualStyle
  2
Shaded with edges
 70
    26
177
     3
291
     0
 70
    58
 90
        2
176
     1
 90
        2
176
     1
 90
        1
176
     1
 90
        2
176
     1
 40
0.6
176
     1
 40
30.0
176
     1
 62
     7
420
 16777215
176
     1
 90
        1
176
     1
 90
        2
176
     1
 62
     7
176
     1
 62
   257
176
     1
 90
        2
176
     1
 90
        1
176
     1
 40
1.0
176
     1
 90
        8
176
     1
 62
   257
176
     1
 40
1.0
176
     1
 90
        1
176
     1
 90
        6
176
     1
 90
        2
176
     1
 62
     7
176
     1
 90
        3
176
     1
 90
        0
176
     1
 90
        0
176
     1
290
     0
176
     1
 90
        5
176
     1
 40
0.0
176
     1
 90
        0
176
     1
290
     0
176
     1
290
     1
176
     1
290
     1
176
     1
290
     0
176
     1
290
     0
176
     1
290
     0
176
     1
290
     0
176
     1
290
     0
176
     1
290
     0
176
     1
 90
       50
176
     1
 40
0.0
176
     1
 40
1.0
176
     1
 90
        0
176
     1
 62
    18
420
        0
176
     1
 90
       50
176
     1
 90
        3
176
     1
 62
     5
420
      255
176
     1
290
     0
176
     1
 90
       50
176
     1
 90
       50
176
     1
 90
       50
176
     1
290
     0
176
     1
 90
       50
176
     1
 62
   256
176
     0
 40
1.0
176
     0
 90
        2
176
     1
  1
strokes_ogs.tif
176
     1
290
     0
176
     1
 40
1.0
176
     1
 40
1.0
176
     1
  0
VISUALSTYLE
  5
1EF
102
{ACAD_REACTORS
330
EF
102
}
330
EF
100
AcDbVisualStyle
  2
Shades of Gray
 70
    23
177
     3
291
     0
 70
    58
 90
        2
176
     1
 90
        2
176
     1
 90
        3
176
     1
 90
        0
176
     1
 40
0.6
176
     1
 40
30.0
176
     1
 62
     7
420
 16777215
176
     1
 90
        2
176
     1
 90
        2
176
     1
 62
     7
176
     1
 62
     7
176
     1
 90
        1
176
     1
 90
        1
176
     1
 40
40.0
176
     1
 90
        8
176
     1
 62
     7
176
     1
 40
1.0
176
     1
 90
        1
176
     1
 90
        6
176
     1
 90
        2
176
     1
 62
     7
176
     1
 90
        3
176
     1
 90
        0
176
     1
 90
        0
176
     1
290
     0
176
     1
 90
        1
176
     1
 40
0.0
176
     1
 90
        0
176
     1
290
     0
176
     1
290
     1
176
     1
290
     1
176
     1
290
     0
176
     1
290
     0
176
     1
290
     0
176
     1
290
     0
176
     1
290
     0
176
     1
290
     0
176
     1
 90
       50
176
     1
 40
0.0
176
     1
 40
1.0
176
     1
 90
        0
176
     1
 62
    18
420
        0
176
     1
 90
       50
176
     1
 90
        3
176
     1
 62
     5
420
      255
176
     1
290
     0
176
     1
 90
       50
176
     1
 90
       50
176
     1
 90
       50
176
     1
290
     0
176
     1
 90
       50
176
     1
 62
   256
176
     0
 40
1.0
176
     0
 90
        2
176
     1
  1
strokes_ogs.tif
176
     1
290
     0
176
     1
 40
1.0
176
     1
 40
1.0
176
     1
  0
VISUALSTYLE
  5
1F0
102
{ACAD_REACTORS
330
EF
102
}
330
EF
100
AcDbVisualStyle
  2
Sketchy
 70
    24
177
     3
291
     0
 70
    58
 90
        1
176
     1
 90
        2
176
     1
 90
        2
176
     1
 90
        0
176
     1
 40
0.6
176
     1
 40
30.0
176
     1
 62
     7
420
 16777215
176
     1
 90
        2
176
     1
 90
        2
176
     1
 62
     7
176
     1
 62
     7
176
     1
 90
        1
176
     1
 90
        1
176
     1
 40
40.0
176
     1
 90
       11
176
     1
 62
     7
176
     1
 40
1.0
176
     1
 90
        1
176
     1
 90
        6
176
     1
 90
        2
176
     1
 62
     7
176
     1
 90
        6
176
     1
 90
        0
176
     1
 90
        0
176
     1
290
     0
176
     1
 90
        1
176
     1
 40
0.0
176
     1
 90
        0
176
     1
290
     0
176
     1
290
     1
176
     1
290
     1
176
     1
290
     0
176
     1
290
     0
176
     1
290
     0
176
     1
290
     0
176
     1
290
     0
176
     1
290
     0
176
     1
 90
       50
176
     1
 40
0.0
176
     1
 40
1.0
176
     1
 90
        0
176
     1
 62
    18
420
        0
176
     1
 90
       50
176
     1
 90
        3
176
     1
 62
     5
420
      255
176
     1
290
     0
176
     1
 90
       50
176
     1
 90
       50
176
     1
 90
       50
176
     1
290
     0
176
     1
 90
       50
176
     1
 62
   256
176
     0
 40
1.0
176
     0
 90
        2
176
     1
  1
strokes_ogs.tif
176
     1
290
     0
176
     1
 40
1.0
176
     1
 40
1.0
176
     1
  0
VISUALSTYLE
  5
FC
102
{ACAD_REACTORS
330
EF
102
}
330
EF
100
AcDbVisualStyle
  2
Thicken
 70
    13
177
     3
291
     1
 70
    58
 90
        2
176
     1
 90
        2
176
     1
 90
        1
176
     1
 90
        0
176
     1
 40
0.6
176
     1
 40
30.0
176
     1
 62
     7
420
 16777215
176
     1
 90
        1
176
     1
 90
        4
176
     1
 62
     7
176
     1
 62
   257
176
     1
 90
        1
176
     1
 90
        1
176
     1
 40
1.0
176
     1
 90
       12
176
     1
 62
     7
176
     1
 40
1.0
176
     1
 90
        1
176
     1
 90
        6
176
     1
 90
        2
176
     1
 62
     7
176
     1
 90
        5
176
     1
 90
        0
176
     1
 90
        0
176
     1
290
     0
176
     1
 90
        1
176
     1
 40
0.0
176
     1
 90
        0
176
     1
290
     0
176
     1
290
     1
176
     1
290
     1
176
     1
290
     0
176
     1
290
     0
176
     1
290
     0
176
     1
290
     0
176
     1
290
     0
176
     1
290
     0
176
     1
 90
       50
176
     1
 40
0.0
176
     1
 40
1.0
176
     1
 90
        0
176
     1
 62
    18
420
        0
176
     1
 90
       50
176
     1
 90
        3
176
     1
 62
     5
420
      255
176
     1
290
     0
176
     1
 90
       50
176
     1
 90
       50
176
     1
 90
       50
176
     1
290
     0
176
     1
 90
       50
176
     1
 62
   256
176
     0
 40
1.0
176
     0
 90
        2
176
     1
  1
strokes_ogs.tif
176
     1
290
     0
176
     1
 40
1.0
176
     1
 40
1.0
176
     1
  0
VISUALSTYLE
  5
F6
102
{ACAD_REACTORS
330
EF
102
}
330
EF
100
AcDbVisualStyle
  2
Wireframe
 70
     5
177
     3
291
     0
 70
    58
 90
        0
176
     1
 90
        2
176
     1
 90
        0
176
     1
 90
        0
176
     1
 40
0.6
176
     1
 40
30.0
176
     1
 62
     7
420
 16777215
176
     1
 90
        1
176
     1
 90
        4
176
     1
 62
     7
176
     1
 62
   257
176
     1
 90
        1
176
     1
 90
        1
176
     1
 40
1.0
176
     1
 90
        0
176
     1
 62
   257
176
     1
 40
1.0
176
     1
 90
        1
176
     1
 90
        6
176
     1
 90
        2
176
     1
 62
     7
176
     1
 90
        3
176
     1
 90
        0
176
     1
 90
        0
176
     1
290
     0
176
     1
 90
        1
176
     1
 40
0.0
176
     1
 90
        0
176
     1
290
     0
176
     1
290
     1
176
     1
290
     1
176
     1
290
     0
176
     1
290
     0
176
     1
290
     0
176
     1
290
     0
176
     1
290
     0
176
     1
290
     0
176
     1
 90
       50
176
     1
 40
0.0
176
     1
 40
1.0
176
     1
 90
        0
176
     1
 62
    18
420
        0
176
     1
 90
       50
176
     1
 90
        3
176
     1
 62
     5
420
      255
176
     1
290
     0
176
     1
 90
       50
176
     1
 90
       50
176
     1
 90
       50
176
     1
290
     0
176
     1
 90
       50
176
     1
 62
   256
176
     0
 40
1.0
176
     0
 90
        2
176
     1
  1
strokes_ogs.tif
176
     1
290
     0
176
     1
 40
1.0
176
     1
 40
1.0
176
     1
  0
VISUALSTYLE
  5
1F1
102
{ACAD_REACTORS
330
EF
102
}
330
EF
100
AcDbVisualStyle
  2
X-Ray
 70
    25
177
     3
291
     0
 70
    58
 90
        2
176
     1
 90
        2
176
     1
 90
        1
176
     1
 90
        1
176
     1
 40
0.5
176
     1
 40
30.0
176
     1
 62
     7
420
 16777215
176
     1
 90
        1
176
     1
 90
        0
176
     1
 62
     7
176
     1
 62
   257
176
     1
 90
        1
176
     1
 90
        1
176
     1
 40
1.0
176
     1
 90
        8
176
     1
 62
     7
176
     1
 40
1.0
176
     1
 90
        1
176
     1
 90
        6
176
     1
 90
        2
176
     1
 62
     7
176
     1
 90
        3
176
     1
 90
        0
176
     1
 90
        0
176
     1
290
     0
176
     1
 90
       13
176
     1
 40
0.0
176
     1
 90
        0
176
     1
290
     0
176
     1
290
     1
176
     1
290
     1
176
     1
290
     0
176
     1
290
     0
176
     1
290
     0
176
     1
290
     0
176
     1
290
     0
176
     1
290
     0
176
     1
 90
       50
176
     1
 40
0.0
176
     1
 40
1.0
176
     1
 90
        0
176
     1
 62
    18
420
        0
176
     1
 90
       50
176
     1
 90
        3
176
     1
 62
     5
420
      255
176
     1
290
     0
176
     1
 90
       50
176
     1
 90
       50
176
     1
 90
       50
176
     1
290
     0
176
     1
 90
       50
176
     1
 62
   256
176
     0
 40
1.0
176
     0
 90
        2
176
     1
  1
strokes_ogs.tif
176
     1
290
     0
176
     1
 40
1.0
176
     1
 40
1.0
176
     1
  0
DICTIONARYVAR
  5
146
102
{ACAD_REACTORS
330
5E
102
}
330
5E
100
DictionaryVariables
280
     0
  1
1:1
  0
DICTIONARYVAR
  5
259
102
{ACAD_REACTORS
330
5E
102
}
330
5E
100
DictionaryVariables
280
     0
  1
3.500000
  0
DICTIONARYVAR
  5
25A
102
{ACAD_REACTORS
330
5E
102
}
330
5E
100
DictionaryVariables
280
     0
  1
acadiso.lin
  0
DICTIONARYVAR
  5
145
102
{ACAD_REACTORS
330
5E
102
}
330
5E
100
DictionaryVariables
280
     0
  1
STANDARD
  0
DICTIONARYVAR
  5
84
102
{ACAD_REACTORS
330
5E
102
}
330
5E
100
DictionaryVariables
280
     0
  1
STANDARD
  0
DICTIONARYVAR
  5
227
102
{ACAD_REACTORS
330
5E
102
}
330
5E
100
DictionaryVariables
280
     0
  1
Metric50
  0
DICTIONARYVAR
  5
228
102
{ACAD_REACTORS
330
5E
102
}
330
5E
100
DictionaryVariables
280
     0
  1
Metric50
  0
DICTIONARYVAR
  5
5F
102
{ACAD_REACTORS
330
5E
102
}
330
5E
100
DictionaryVariables
280
     0
  1
2
  0
DICTIONARYVAR
  5
63
102
{ACAD_REACTORS
330
5E
102
}
330
5E
100
DictionaryVariables
280
     0
  1
1
  0
DICTIONARYVAR
  5
1AE
102
{ACAD_REACTORS
330
5E
102
}
330
5E
100
DictionaryVariables
280
     0
  1
0
  0
DICTIONARYVAR
  5
1AF
102
{ACAD_REACTORS
330
5E
102
}
330
5E
100
DictionaryVariables
280
     0
  1
0
  0
DICTIONARY
  5
205
330
22
100
AcDbDictionary
280
     1
281
     1
  0
DICTIONARY
  5
1F9
330
ED
100
AcDbDictionary
280
     1
281
     1
  3
FBXASSET
360
1FA
  0
DICTIONARY
  5
1F7
330
EC
100
AcDbDictionary
280
     1
281
     1
  3
FBXASSET
360
1F8
  0
DICTIONARY
  5
173
330
EE
100
AcDbDictionary
280
     1
281
     1
  3
BUMPTILE
360
175
  3
DIFFUSETILE
360
174
  3
FBXASSET
360
1FB
  3
OPACITYTILE
360
176
  3
REFLECTIONTILE
360
177
  0
DICTIONARY
  5
162
330
7F
100
AcDbDictionary
280
     1
281
     1
  3
ACAD_ROUNDTRIP_2008_TABLESTYLE_CELLSTYLEMAP
360
62B
  0
XRECORD
  5
1FA
102
{ACAD_REACTORS
330
1F9
102
}
330
1F9
100
AcDbXrecord
280
     1
 70
     1
 90
429727718
  1
D62C5603-E3A1-4AEA-B7FB-FE5D8D0755AF
310
504B03040A0000080000CC70623B3DEE336E79000000790000001B0000006175746F6465736B2D64657369676E2D7061636B6167652E786D6C3C3F786D6C2076657273696F6E3D22312E302220656E636F64696E673D227574662D3822203F3E3C666F726D6174733E3C666F726D61743E687474703A2F2F736368656D612E
310
6175746F6465736B2E636F6D2F64657369676E2D7061636B6167652F323030393C2F666F726D61743E3C2F666F726D6174733E504B0304140006080800CC70623BD486FD9CA0000000F4000000130000005B436F6E74656E745F54797065735D2E786D6C7D8EC10E82300C865F65E91D8A1E8C310C0EEA1BF002731658846E
310
D98AC1B77784ABF1D8FE5FBFBF75BBCE937A534CCEB38643598122B6FEE978D0B0485F9C41B54DDD7D022595594E1A469170414C76A4D9A4D207E29CF43ECE46F218070CC6BECC4078ACAA135ACF422C856C0E68EA1BF5669944DDD7BCDE7B1F8E415D77AECB980613C2E4AC91FC167A2B244592486606FC29C8FD7F045B9A
310
EF7053A7E60B504B0304140006080800CC70623B853B8169EB0000007C01000008000000636F72652E786D6C8D90416EC3201045AF62CDB6C206821CC7C244919D9CA01740401C94182C03558F5F9C3852BBEB6A467FFE9B197D7EFC9E1EC5975982F5AE035262288C535E5B377690E21535501C055FBC8FBF6C503839990E
310
5619041F179FE64D52DE45E362569DD7661365082642A11EB9E920A89B99642953CC8E702F67A9EE7234257977194EC9EAE275C4EABCCF5EAD5940D4AC6F0E35A568B8F43562CD7046CD199FD07E60174276A7BE677B5EADB0E0D14EEFFB6A31321A0D82627C4084204C3F096B71DD52F6819B16635EADF63F509AF53FA164
310
5DDCD1EDDD17164090FCC8732078B56691CB33A85CD7DCC40F504B0304140006080800CC70623B55019EA25F0000007C00000007000000636E782E786D6C4DCB3B0E80201045D1AD90E915ED2CF8AC45050C11660C8261F98AB1B07AC9C97D42D718D865D3E909258CFD00CCE24AC6E326A164D74DC0B4128928FF32603847
310
2BA13128B1252AC747C6BAB984FC68F0B87FE8960A5C09FE86CFB69FBA01504B0304140006080800CC70623BDBABAAF470010000D40300000C0000006662782F636F72652E786D6CC553D16E823014FD95A6AF4B694182CC941A83FA05FB810A9511A125A5257EFE2E82712ECEB8A7F100CD39F7F69E734AF9FADC366850B6
310
AF8DCE7018308C942E4C59EB2AC3DE1D498AD15A706B8CFB56869196ADCAF00863C12B6B7C374385D14E6907A836A59A41D9F7CA615434B0C8705F7CAA5606D23BA8E84F41278B93AC54100640439DE0BDB320004D43C63716C7C399D30917DCFBBA9CD9BA8469F5B156168B24CED3F7248AC8769F27244EB73B92EED8862C
310
B7F13E0C179B3C8F979C8ECD82BBBABDAA2BAC924E9558448CBD9330242CFA08E3154B5651FCC6D215639C8EE5774DBE2B5F6CF2B5768B68963BB5F5588420E442FC700B1139D4CB01F450C1E918227C2E09DF070D8140C84E1E9AAB8F1340832A9CB13130A5F1376A908D57309505ECF2A0DF179C4E9D30F5B239B87E3823
310
7A79C6F31DE1A8A5AEC08474B03C7837EAE4938639B44E5932B833D2C6B6B279CDC613877FA26EE21F4A2A4C63EC7F29A2F301D1F9F7A0E37D145F504B0304140006080800CC70623B9C113CC27E0000009D0000000B0000006662782F636E782E786D6C4DCCDF0A83201C86E15B91DFB94BFB330DD428C8FB886521330DA7
310
6397BF1A1DECE883878F57749FCDA1B7892F1BBC047A23808C7F84D9FA55424E0BE6803A256208E9EF06C84F9B91703228B1C690F78B66B34CD9A5439DF5CF0BFBF65E35BCA1B8D6A5C6F540381E886698B5741C695F9503EBA150A2F8958E3DC3EA0B504B0304140006080800CC70623B7DF2F77C2A010000120200003100
310
00006662782F41393633353835312D344632462D344230382D423046372D3739314545314133324237412F636F72652E786D6C8D51DB8EC22014FC15C2939B0D2DB4B45643319AE817EC0F6041255A68B86CFCFC856D4D76DF7CE190393373060EDB3DC707F856CE6B6B7A480A0C81328395DA5C7B18C3057510EC3873D686
310
3F34088C18550F330C39BB3A1BA7051AAC09CA84841A2BD5020AEF55806078A44B0FFD7053A328440C89E1EFC52486BBB8AA8214A99D789CF9E05200300FC927E4FB4D5B375D43103D5527440FB843077C5AA3F5861C8F645F5787F59E95B390B318B55CE45AA638FAA2957BD7248B390B7A7CC51F9C124149C82B8C378810
310
84AB2F42B7B8DD56F413775B8C5999E9FF4471926F8AA236A1AE96B8B3CC434E5839373893369E1FAF30EA395917409EB7F26AF8801C171837A4A6AC9C89E9F9C9B1A58BA30FD6A5EF5DDDCF894B9AD9B6A59C957943A9FCAE2FD5BC4DFE03504B0304140006080800CC70623BAD7543B64E01000033030000300000006662
310
782F41393633353835312D344632462D344230382D423046372D3739314545314133324237412F636E782E786D6CD593CD6EC32010845F0571AD6CE3D48AD20813A9873E410FBD12D82434182C7EAAE6EDBB2424CD25871E7B41D6EC30B3FA84F9E67BB2E40B4234DE8DB46F1925E094D7C6ED479AD3AE5951B2113C789FEE
310
6C943839C1488B4C05DF079FE72A69D8C96C13AAD6B8631503449F83828872B949AC57D26200B826A308D316B4064D6E46FCDA41C05550DC9E483A00797BFD207EFB092A45DE9514C1BBD22178396BD39D891265658C238DEA00936C654E5E433CB65A26D9F6EDB5EBC14EBF49A45CB856E66048291F6939A9A81BB5C89177
310
38143CA680F4AA299D66A042CEB3354A2684DC9D8D178FE0D9B8B41CAAD720F880EE7EF93C0C18769E099ECC04D5A102C8049A8A05632F4DDF376CF1DE0F6BB65C2F8627B65A33C6BB62177CEBBDAD973006829F89F22E814B54F4BC2BE347F8AA8F681390B50FA73F804400B5F542E796F19FF974E7F78DB802FE05E20750
310
4B0304140006080800CC70623BE75B7789680500003C100000340000006662782F41393633353835312D344632462D344230382D423046372D3739314545314133324237412F6F626A656374732E786D6CAD575B8F9B3818FD2B887D06C22499CB8AA1CA655245D5B455A356FB305264C061D8018C6C3393D95FBFC7600890
310
A4CD5EF210B0B1BFEBF98E3F7B1FF6596ABC522E1296DF9BAE3D320D9A872C4AF2F8DE2CE5CEBA358D0FBEC719939D65A691938CDE9B6ADAF4BD98B3B2D05311DD91329583D9D5FC0F438434A7A611A644887B5384CF34233629258BA878B12322891DEFF6B66BD70BFB62634E8AE781D082709A4B588AF91C528CDA28B73F
310
1C998EEF39EABBEFA97FBD6A7C7E9553F9D3D79FE442923C3C523610337627CB87ABE99D359D4CC6D6E4FACAB5E6ABF9D2726FC6A3C5F56271377BB88362213924694B38DD99FE47C48627A1E7D49F5A8BB5E1A74C0A599ED3B0F21F1E56366B89112D681E218F0915D0D6F17AD41FBA2A369DCF6335D62ABBD39779D5DDD1
310
11D4D8DE3CBB96B2E04FB8202E41051754A1AA8E8F76B4C6DFE810B580B1547F4B84911149794252234D024EF8BBE963A95AE27B3D310A9D5C215C7960FAEE415ED75694C6AFB17BCACA5D99A60A9AA65F217B0BFC53292ACB92BF283FAD0D3621576592CB5BED907C2FA8E9DF794E35E97BEA31BED21FEB401ABB94C44839
310
DCACBF0E1C5DA8DA5B2F4DFFD32AD86F543D9E565E7056502E157C00AD2671CD534549AB752FCA9CDA00677A313F04E51B22FF19E57B300579E3C97EB29F682D92935CEC18CF901B7B54FD8C51F362B56FC72FE0B3C1EAE335EDCCBF5AEC39ADB17DC238973F804BA5E6F6BFE7AF1FB32E523BE9F3BD571418E3631DCA4D48
310
5250CF639223210A9446CA30052EDF057BD35F8329C1ECD84552BF0DC8D18BE7BCE23BFE6BD960AB4A7DE79923A103BEBD80F911CBAA2C60DB19B01CF164A5583B772EE6D3FFA56666CBCDA74DC97724A48F9A58967497E489C4D979006FD7A05E227A1EBDD0F737C623387A9C844D3709995625106D157315F8B8392CD4E0
310
A0B9A720C4BE9829CEF37EA1E13111214D53925356365ADA634861B52519DD27A00AEB808EAF0628E6F435519D446F45CF2C9CF5214F0A15B2F6D06B79DA3EE3CBF7F56780D2F4E7EF73A0F5E5B02A38D07DC852C6B7C1FBB6664213E0C39E3EBA7FF4E1AD23EA2829407C85E586727488B751B2DB9502BC7B228A3FD68B6E
310
A65A22397E690AA8D158D7E404EC8CDA235CC3B7D1898680131CEC2CDF2638C65196279577750F15884AEE19F94199155B92B13297978469D4F8D358DF0AEF7631E28DC8F0D9F437D5D39A83B2231A1D52D543813A824EF8D44BCFF2FA6A31BD1E8DAD87F1CCB526B3879935BF59CDADD5C37479BB1CDD4CA7B3556B516589
310
EF352754B706114D9C885EC9131DE6EFEB43D99AFE2391C2F958179413D7CFEF6B1B6DB1E7600F00DE6E5C67454A339A4BA2E0FBA85ED26F045D454F463DBFCE484C2F90F2E5E3666003662ED8F755951A7D1BECD5B30B550B2785C8E7320B7292A4838DDA71BBC863ED7613CAF659337A3354231D4FF4A182A54904C2898C
310
98B28C4AD0CE056CCF332A80986E571EE9DBC305BB5FEB7E509220A58D25CF042D712A806AC0AD0C657FDEF80D2D9CEAA2EE4D1C76F60BFE74219A06527D6F82DF6412526107381E55E353090704D085B52408A8913C4ED159D79BDA71BB4BC506F4831350EB6F975CD22D69BF7AC49B91A2C0A9DDA3D5CA36AD20FC478E37
310
E61844E2352865EBCB61A275A65283CAAA9DD27703B4102F5AF51EF5F573B75CBB5AD38BC845F7A49F82A0966A49C2E3EA5EA0ECD326CD965F1DB402C6FA8B51A4658C5C5E2EC9E214602E55810345408596591009A82E7E7FFACA19EEA299B14A0081A705CB3296EBC14CDF658DCD336EA6D1136881AAEB87B81AB9EE53D5
310
F5EB8BC8362082DA24122F98680A4E7930C01A0079749CEA14382A0783E5EBA5A10F8C098456A03D6A4AEB6BB881E2513747552A5DB22C7EDAF83BD5528081A365F7FF06504B0304140006080000CC70623B000000000000000000000000350000006662782F41393633353835312D344632462D344230382D423046372D37
310
39314545314133324237412F76657274696365732E62696E504B0304140006080800CC70623BF270F1330600000004000000360000006662782F41393633353835312D344632462D344230382D423046372D3739314545314133324237412F747269616E676C65732E62696E636660600000504B0304140006080000CC7062
310
3B000000000000000000000000370000006662782F41393633353835312D344632462D344230382D423046372D3739314545314133324237412F617474726962757465732E62696E504B0304140006080800CC70623B08DA0BD19000000041010000360000006662782F41393633353835312D344632462D344230382D4230
310
46372D3739314545314133324237412F6469726563746F72792E786D6C858F410AC3201045AF22B36F53E9A60B35CBEEBAE80D244E44489C6234F4F835464A48035D0DF398FF9F8AF63D0E6CC63039F212F8F9020C7D47C6792B21C5FE7403D62A1188E2E60C98D7234A5830286103A55745067B9D86B8A3CF9C7F90C11DE6
310
07FB144396D7B6A82D282E9A152AD114D5EF2CB866EEE831B8EEA07A7BB5A8D7D61A2BAAEB7FD5F70921FF497D00504B0304140006080800CC70623BEDD1DC58FD000000A00100003B0000006662782F41393633353835312D344632462D344230382D423046372D3739314545314133324237412F7265736F75726365732F
310
636F72652E786D6C8D504B6E833010BD0A9A6D65B00922041947112427E8052C33A156828DFCA97AFC9A40A576D7CDCCE87D344F8F9FBFE667F689CE6B6B3A6039850C8DB2A336530731DC4903D95970676DF82583CCC8193B5861107C72362E3BA4AC096842428D1D7107A5F7182053CF7474E0D507CE32973124857FE48B
310
540F3961CEF244279DE03EB81420DB9EAC1384436FA353E879B1B182C7A8C75DA3C7F453DF353A1075D537A7BA6464B8F535A99AE14A9A2BBD90E350DD183B5CFABE3AF262350B1EF4FC9351399401471025A527C218A1E53BAB5A5AB765F5469B96525EACF23FA6B88CFF34456DC2A1DCE36E360F82A5202F42F062ED2BAD
310
579969AFDD8A6F504B010214000A0000080000CC70623B3DEE336E79000000790000001B00000000000000000000000000000000006175746F6465736B2D64657369676E2D7061636B6167652E786D6C504B01021400140006080800CC70623BD486FD9CA0000000F40000001300000000000000000000000000B20000005B
310
436F6E74656E745F54797065735D2E786D6C504B01021400140006080800CC70623B853B8169EB0000007C010000080000000000000000000000000083010000636F72652E786D6C504B01021400140006080800CC70623B55019EA25F0000007C000000070000000000000000000000000094020000636E782E786D6C504B
310
01021400140006080800CC70623BDBABAAF470010000D40300000C00000000000000000000000000180300006662782F636F72652E786D6C504B01021400140006080800CC70623B9C113CC27E0000009D0000000B00000000000000000000000000B20400006662782F636E782E786D6C504B01021400140006080800CC70
310
623B7DF2F77C2A010000120200003100000000000000000000000000590500006662782F41393633353835312D344632462D344230382D423046372D3739314545314133324237412F636F72652E786D6C504B01021400140006080800CC70623BAD7543B64E010000330300003000000000000000000000000000D2060000
310
6662782F41393633353835312D344632462D344230382D423046372D3739314545314133324237412F636E782E786D6C504B01021400140006080800CC70623BE75B7789680500003C10000034000000000000000000000000006E0800006662782F41393633353835312D344632462D344230382D423046372D3739314545
310
314133324237412F6F626A656374732E786D6C504B01021400140006080000CC70623B0000000000000000000000003500000000000000000000000000280E00006662782F41393633353835312D344632462D344230382D423046372D3739314545314133324237412F76657274696365732E62696E504B01021400140006
310
080800CC70623BF270F133060000000400000036000000000000000000000000007B0E00006662782F41393633353835312D344632462D344230382D423046372D3739314545314133324237412F747269616E676C65732E62696E504B01021400140006080000CC70623B0000000000000000000000003700000000000000
310
000000000000D50E00006662782F41393633353835312D344632462D344230382D423046372D3739314545314133324237412F617474726962757465732E62696E504B01021400140006080800CC70623B08DA0BD1900000004101000036000000000000000000000000002A0F00006662782F41393633353835312D344632
310
462D344230382D423046372D3739314545314133324237412F6469726563746F72792E786D6C504B01021400140006080800CC70623BEDD1DC58FD000000A00100003B000000000000000000000000000E1000006662782F41393633353835312D344632462D344230382D423046372D3739314545314133324237412F7265
310
736F75726365732F636F72652E786D6C504B0506000000000E000E0080040000641100000000
  0
XRECORD
  5
1F8
102
{ACAD_REACTORS
330
1F7
102
}
330
1F7
100
AcDbXrecord
280
     1
 70
     1
 90
429727718
  1
30362254-06B7-45E0-A893-8CFA70E3D6BC
310
504B03040A0000080000CC70623B3DEE336E79000000790000001B0000006175746F6465736B2D64657369676E2D7061636B6167652E786D6C3C3F786D6C2076657273696F6E3D22312E302220656E636F64696E673D227574662D3822203F3E3C666F726D6174733E3C666F726D61743E687474703A2F2F736368656D612E
310
6175746F6465736B2E636F6D2F64657369676E2D7061636B6167652F323030393C2F666F726D61743E3C2F666F726D6174733E504B0304140006080800CC70623BD486FD9CA0000000F4000000130000005B436F6E74656E745F54797065735D2E786D6C7D8EC10E82300C865F65E91D8A1E8C310C0EEA1BF002731658846E
310
D98AC1B77784ABF1D8FE5FBFBF75BBCE937A534CCEB38643598122B6FEE978D0B0485F9C41B54DDD7D022595594E1A469170414C76A4D9A4D207E29CF43ECE46F218070CC6BECC4078ACAA135ACF422C856C0E68EA1BF5669944DDD7BCDE7B1F8E415D77AECB980613C2E4AC91FC167A2B244592486606FC29C8FD7F045B9A
310
EF7053A7E60B504B0304140006080800CC70623B1EC5D7A3EB0000007C01000008000000636F72652E786D6C8D90416EC3201045AF82665B6103C6756C6122AB4D4ED00B204C5C94182C03558F5F9C3852BBEB6A467FFE9B197D71FC9E6FE8CBACC17AD7032D0820E3B41FAD9B7A48F1820F808E52ACDEC75F36404ECDA687
310
4D0629A6D5A76597B477D1B89855E747B38B2A041301E95B6E7A08FAD3CCAA50296647B8168BD2573599823EBB0CA76447F43862C7BCCF5EAC59410E4DDD9C7973C2755553CCCFA4C603E3040F1565ED3B1FDE4E432BCA0D9622DAF9795FAF464533826484B498524CD807E51D79ED187F21878E10516EF63F505AC67F42C9
310
BA58B1FDDD071640D2FCC87D2045B96591CB3DA85CB7DCE40F504B0304140006080800CC70623B55019EA25F0000007C00000007000000636E782E786D6C4DCB3B0E80201045D1AD90E915ED2CF8AC45050C11660C8261F98AB1B07AC9C97D42D718D865D3E909258CFD00CCE24AC6E326A164D74DC0B4128928FF32603847
310
2BA13128B1252AC747C6BAB984FC68F0B87FE8960A5C09FE86CFB69FBA01504B0304140006080800CC70623B8C9102E971010000D40300000C0000006662782F636F72652E786D6CC5535B6E833010BC8AE5DF0A6C08340F1947A84D4ED00B38C6A128602363A31CBFCB234A53A551FA553EC09AD9F5CE8C31DB9E9B1AF5CA
310
7695D1198E428A91D2D214952E33ECDD315861B4E5CC1AE3BE9561A445A3323CC098B3D21ADFCE9034DA29ED00D5A6503328BA4E398C640D8B0C77F253352214DE4145770A5B214FA2546114020D759C75CE8200340D19DE981F0F6746269C33EFAB6266AB02A655C74A59CCF365BADC27CB5D902ED22848F6340DF238A141
310
BE88E2F57B92BFEDF23523433367AE6A2EEAA455C2A902F398D2751045018D3FA264435F3771F242571B4A1919CA6F9A7C5B3CD9E42BED16F12C776AEB308F40C848FC700B1139D4891EF410CEC810227CC6846F8386402064270EF5C5C709A05E49676C024C61FC95EA45ED154CA5211D1FF4FB8291A913A68E9B83EBBB33
310
E2A7673CDE118E5AE8124C0807CB8377834E366998436B950D7A7746DAD846D4CFD978E0F04FD455FC5D49D2D4C6FE9722321F10997F0F32DC47FE05504B0304140006080800CC70623BFFEA85907E0000009D0000000B0000006662782F636E782E786D6C4DCCD10A83201886E15B91FFDC95D95A811AB6F23E625948A6C3
310
E9D8E5AF46073BFAE0E1E365ED67B3E8ADC3CB78C7815C7240DA3DFC64DCC221C519D7805AC182F7F1EF06C88D9BE6703008B6049F9E274D7A1E938DBB5AE3D6131B2589BA0D3D965551E0B2EA732C9B9A624AAEB41E3A557677029960D9AFB4EF11165F504B0304140006080800CC70623B4FEEA4082C0100001202000031
310
0000006662782F39464131463745442D413632322D343644302D413938332D3331353338454246344243312F636F72652E786D6C8D515B6EC32010BC0AE2AB55850DD871ED0813254D72825EC00192A2C460F1A872FC42ED48ED5F7E00CDCECCCEB26C731F6FE05B39AFADE921293004CA082BB5B9F43086336A21D870E6AC
310
0D7F68109861543DCC30E4ECE26C9C164858139409093556AA051CBC570102714B8F1E7AF1A5C6A11862480C7F2DA6415C878B2A4891CA89C7990F2E050073937C42DE1DB7E4F87ED8A36D4329AA9B3D46DBAEAD504556557BD81DEBDD0761E52CE42C462D17B996298E3E6BE59E35C962CE821E1FF18553435012728A7187
310
0841987E927A8D9B35ADDF70BBC6989599FE4F1427F9A4286A132ABAC49D651EF234CD5CE04CDA78BA3DC2A8FB645D00B9DF8B57E215725C60BCA2A463E54C4CE327C7A65E1C7DB02E7DEFCBF594B864C5CA6CDBD49C957943E9FA5D5FBAF336F90F504B0304140006080800CC70623BAD7543B64E01000033030000300000
310
006662782F39464131463745442D413632322D343644302D413938332D3331353338454246344243312F636E782E786D6CD593CD6EC32010845F0571AD6CE3D48AD20813A9873E410FBD12D82434182C7EAAE6EDBB2424CD25871E7B41D6EC30B3FA84F9E67BB2E40B4234DE8DB46F1925E094D7C6ED479AD3AE5951B2113C
310
789FEE6C943839C1488B4C05DF079FE72A69D8C96C13AAD6B8631503449F83828872B949AC57D26200B826A308D316B4064D6E46FCDA41C05550DC9E483A00797BFD207EFB092A45DE9514C1BBD22178396BD39D891265658C238DEA00936C654E5E433CB65A26D9F6EDB5EBC14EBF49A45CB856E66048291F6939A9A81BB5
310
C8917738143CA680F4AA299D66A042CEB3354A2684DC9D8D178FE0D9B8B41CAAD720F880EE7EF93C0C18769E099ECC04D5A102C8049A8A05632F4DDF376CF1DE0F6BB65C2F8627B65A33C6BB62177CEBBDAD973006829F89F22E814B54F4BC2BE347F8AA8F681390B50FA73F804400B5F542E796F19FF974E7F78DB802FE05
310
E207504B0304140006080800CC70623B16AB87BA640500003C100000340000006662782F39464131463745442D413632322D343644302D413938332D3331353338454246344243312F6F626A656374732E786D6CAD575B6FA33818FD2B887DE6924B3BED8A326A92B68A663B534DD4D13E548A0C38942D60649B369D5FBFC7
310
600890A493BDE42160637FD7F31D7FF63E6FB3D478A55C242CBF3247B66B1A340F5994E4F19559CA8D75611A9F7D8F33263BCB4C232719BD32D5B4E97B316765A1A722BA21652A07B3B7B33F0D11D29C9A46981221AE4C113ED38CD8A4942CA2E2C58E882476BCD9DA23BB5ED8171B73523C0F841684D35CC252CCE79062D4
310
468DFA43D7747CCF51DF7D4FFDEB5593E3AB9CCA9FBEFE241792E4E19EB28198C968BAB8199F5D5A67D3E9C49A9E8F47D6EC76B6B0469F26EEFC7C3EBFBCBEB98462213924694B38DD98FE1D62C393D073EA4FADC5DAF04326852CCF6958F90F0F2B9BB5C48816348F90C7840A68EB78EDF68723159BCEE7891A6B95DDE9D3
310
BCEAEEE8086A6C6F9E5D4B59F0175C10A7A0820BAA5055C7473B5AE3CFDD452D602CD5DF12616444529E90D448938013FE6EFA58AA96F85E4F8C42275708571E98FE6827AF6B2B4AE3D7D83D64E5A64C53054DD3AF90BD06FEA9149565C94FCA0F6B834DC85599E4F2423B24DF0B6AFA979E534DFA9E7A4CC6FA631D486393
310
921829879BF5D781A373557BCB85E97FB90DB62B558F8795179C15944B051F40AB495CF35451D26A4727654E6D8033BD98EF82F21D91FF8AF2DD9982BCF1643BDD4EB516C9492E368C67C88DED563FC36D5EACF66DFF057C3658BDBFA69DF9578B3DA735B64F18C7F20770A9D45CFCF7FCF563D6456A277DBEF78A02637CA2
310
43B90A490AEAB94F72244481D24819A6C0E59B606BFA4B3025981DBB48EAB701D97BF19C577CC77F2D1B6C55A9EF3C732474C0B727303F625995056C3B02963D9EAC146BE78EC5FCEC7FA999EBC5EACBAAE41B12D27B4D2C0BBA49F244E2ECDC81B76B502F113D8F5EE8FB1BE3111CDD4FC2AA9B844CAB1288B68AB90A7CDC
310
1C166AB0D3DC5310625FCC14E779BFD0709F8890A629C9292B1B2DED31A4B0DA928CEE135085754027E3018A397D4D5427D15BD1330B677DC8934285AC3DF45A9EB68FF8F2B8FC0A509AFEECFD0FF2DE25CC6047F7214B195F07EFEB9A094D800F7BFAE8FED187B78EA8A3A400F115961BCAD1215E47C966530AF0EE8128FE
310
58CEBB996A8964FFA529A046635D9353B0336A8F700DDF46271A024E70B0B37C9DE01847591E54DED53D54202AB947E4076556AC49C6CA5C9E1226B7F1A7B1BE15DEED62C41B91E1B3E9AFAAA735036547343A925075041DF0A9979E893B391F8FCFA6967B3EFB644DCF6E5CEBFAE272625DCC6FAF3FB93793C5F90CE1EF57
310
407342756B10D1C489E8953CD1617E5CEECAD6F4EF8914CE5D5D504E5C3F1F9736DA62CFC11E00BCDDB8CC8A9466349744C1F75EBDA4DF09BA8A9E8C7A7E9991989E20E5DBDD6A6003664ED8F7A04A8DBE0DF6EAD9B9AA858342E47399053949D2C146EDB85DE4B176BB0965FBAC19BD19AA918E27FA50C1D22402E144464C
310
59462568E704B6E71915404CB72B8FF4EDE184DDAF753F284990D2C6926782963815403548A70C657FDEF80D2D9CEAA2AE4C1C76F60BFE74219A06527D6582DF6412526107381E55E353090704D085B52408D0933C4ED159D79BDA71BB4BC506F4831350EB6F979CD22D69BF7AC49B91A2C0A9DDA3D5CA36AD20FC478E37E6
310
1844E2352865EBCB6EA275A652E3836BE04EFB400BF1A2556F515F1FBB35B2AB35BD889C744FFA1004B5544B121E57F70215746DD2F5E2C1412B602CBF19455AC6C8E5E9922C4E01E65215385004546899059180EAFCF7A707CE7017CD8CDB0410789AB32C63B91E5CEBBBACB17AC6CD347A022D5075FD106377347AAABA7E
310
7D11590744509B44E205134DC1290F06580320F78E537D3D73540E06CB970B431F185308AD40BBD794D6D77003C5A36E8EAA54BA64597CD8F83BD552A080A365F7FF06504B0304140006080000CC70623B000000000000000000000000350000006662782F39464131463745442D413632322D343644302D413938332D3331
310
353338454246344243312F76657274696365732E62696E504B0304140006080800CC70623BF270F1330600000004000000360000006662782F39464131463745442D413632322D343644302D413938332D3331353338454246344243312F747269616E676C65732E62696E636660600000504B0304140006080000CC70623B
310
000000000000000000000000370000006662782F39464131463745442D413632322D343644302D413938332D3331353338454246344243312F617474726962757465732E62696E504B0304140006080800CC70623B08DA0BD19000000041010000360000006662782F39464131463745442D413632322D343644302D413938
310
332D3331353338454246344243312F6469726563746F72792E786D6C858F410AC3201045AF22B36F53E9A60B35CBEEBAE80D244E44489C6234F4F835464A48035D0DF398FF9F8AF63D0E6CC63039F212F8F9020C7D47C6792B21C5FE7403D62A1188E2E60C98D7234A5830286103A55745067B9D86B8A3CF9C7F90C11DE607
310
FB144396D7B6A82D282E9A152AD114D5EF2CB866EEE831B8EEA07A7BB5A8D7D61A2BAAEB7FD5F70921FF497D00504B0304140006080800CC70623B0D6EF93BFE000000A00100003B0000006662782F39464131463745442D413632322D343644302D413938332D3331353338454246344243312F7265736F75726365732F63
310
6F72652E786D6C8D50596E833010BD0A9ADFCA60B334011947A8694ED00B586642AC041B79A97AFC9A40A5F6AF3F33A3B7689E1E3F7DCD8FEC139DD7D6F4C0720A191A65476DA61E62B892236427C19DB5E1970C322367EC618541F0C9D9B8EC90B226A009093576C41D94DE63804C3DD2D18357379C652E63480A7FCF17A9
310
EE72C29CE5894E3AC17D702940B63D59270887DE46A7D0F36263058F518FBB468FE9A7BE6A7420864373B8D4873369AA8691FA421B3294352543C5CAF65C0F6FEF43CB8BD52C78D0F34F46E550061C419494B6843142CB0F5677F4B52BEB177AEC28E5C52AFF638ACBF84F53D42654E51E77B379102C05791282176B5F693D
310
CB4C7BED567C03504B010214000A0000080000CC70623B3DEE336E79000000790000001B00000000000000000000000000000000006175746F6465736B2D64657369676E2D7061636B6167652E786D6C504B01021400140006080800CC70623BD486FD9CA0000000F40000001300000000000000000000000000B20000005B
310
436F6E74656E745F54797065735D2E786D6C504B01021400140006080800CC70623B1EC5D7A3EB0000007C010000080000000000000000000000000083010000636F72652E786D6C504B01021400140006080800CC70623B55019EA25F0000007C000000070000000000000000000000000094020000636E782E786D6C504B
310
01021400140006080800CC70623B8C9102E971010000D40300000C00000000000000000000000000180300006662782F636F72652E786D6C504B01021400140006080800CC70623BFFEA85907E0000009D0000000B00000000000000000000000000B30400006662782F636E782E786D6C504B01021400140006080800CC70
310
623B4FEEA4082C0100001202000031000000000000000000000000005A0500006662782F39464131463745442D413632322D343644302D413938332D3331353338454246344243312F636F72652E786D6C504B01021400140006080800CC70623BAD7543B64E010000330300003000000000000000000000000000D5060000
310
6662782F39464131463745442D413632322D343644302D413938332D3331353338454246344243312F636E782E786D6C504B01021400140006080800CC70623B16AB87BA640500003C1000003400000000000000000000000000710800006662782F39464131463745442D413632322D343644302D413938332D3331353338
310
454246344243312F6F626A656374732E786D6C504B01021400140006080000CC70623B0000000000000000000000003500000000000000000000000000270E00006662782F39464131463745442D413632322D343644302D413938332D3331353338454246344243312F76657274696365732E62696E504B01021400140006
310
080800CC70623BF270F133060000000400000036000000000000000000000000007A0E00006662782F39464131463745442D413632322D343644302D413938332D3331353338454246344243312F747269616E676C65732E62696E504B01021400140006080000CC70623B0000000000000000000000003700000000000000
310
000000000000D40E00006662782F39464131463745442D413632322D343644302D413938332D3331353338454246344243312F617474726962757465732E62696E504B01021400140006080800CC70623B08DA0BD190000000410100003600000000000000000000000000290F00006662782F39464131463745442D413632
310
322D343644302D413938332D3331353338454246344243312F6469726563746F72792E786D6C504B01021400140006080800CC70623B0D6EF93BFE000000A00100003B000000000000000000000000000D1000006662782F39464131463745442D413632322D343644302D413938332D3331353338454246344243312F7265
310
736F75726365732F636F72652E786D6C504B0506000000000E000E0080040000641100000000
  0
XRECORD
  5
175
102
{ACAD_REACTORS
330
173
102
}
330
173
100
AcDbXrecord
280
     1
270
     1
271
     1
  0
XRECORD
  5
174
102
{ACAD_REACTORS
330
173
102
}
330
173
100
AcDbXrecord
280
     1
270
     1
271
     1
  0
XRECORD
  5
1FB
102
{ACAD_REACTORS
330
173
102
}
330
173
100
AcDbXrecord
280
     1
 70
     0
 90
1673772943
  1
ECE7A1D2-D628-4531-984C-D00F80459256
310
504B03040A0000080000CC70623B3DEE336E79000000790000001B0000006175746F6465736B2D64657369676E2D7061636B6167652E786D6C3C3F786D6C2076657273696F6E3D22312E302220656E636F64696E673D227574662D3822203F3E3C666F726D6174733E3C666F726D61743E687474703A2F2F736368656D612E
310
6175746F6465736B2E636F6D2F64657369676E2D7061636B6167652F323030393C2F666F726D61743E3C2F666F726D6174733E504B0304140006080800CC70623BD486FD9CA0000000F4000000130000005B436F6E74656E745F54797065735D2E786D6C7D8EC10E82300C865F65E91D8A1E8C310C0EEA1BF002731658846E
310
D98AC1B77784ABF1D8FE5FBFBF75BBCE937A534CCEB38643598122B6FEE978D0B0485F9C41B54DDD7D022595594E1A469170414C76A4D9A4D207E29CF43ECE46F218070CC6BECC4078ACAA135ACF422C856C0E68EA1BF5669944DDD7BCDE7B1F8E415D77AECB980613C2E4AC91FC167A2B244592486606FC29C8FD7F045B9A
310
EF7053A7E60B504B0304140006080800CC70623BD9DDAED0EC0000007C01000008000000636F72652E786D6C8D90416EC3201045AF82665B61836D9CD8C2444DD39CA01740405C94182C03558F5F9C3852BBEB6A467FFE9B197D7EF89E6EE8CB2CC17A37002D0820E394D7D68D03A478C17B4007C117EFE32F1B20272733C0
310
2A83E0E3E2D3BC49CABB685CCCAAF3DA6CA20CC14440EA969B0182FA34932C648AD911AEC52CD5558EA6A0CF2EC329598D1E47ACCEFBECC59A050463A7EA5833865FEBDD0E37353BE3EE8DBDE3F6786A48D375FBF6CC78B9C282473B3DEFABC5C86834888A900E538A49F5419B9EB47DD5BC907D4F082F57FB1F28CDFA9F50
310
B22ED6D5F6EE030B20687EE43E10BC5CB3C8E51E54AE6B6EE207504B0304140006080800CC70623B55019EA25F0000007C00000007000000636E782E786D6C4DCB3B0E80201045D1AD90E915ED2CF8AC45050C11660C8261F98AB1B07AC9C97D42D718D865D3E909258CFD00CCE24AC6E326A164D74DC0B4128928FF326038
310
472BA13128B1252AC747C6BAB984FC68F0B87FE8960A5C09FE86CFB69FBA01504B0304140006080800CC70623BA24EB22D72010000D40300000C0000006662782F636F72652E786D6CC5535B6E833010BC8AE5DF0A6C5E49888CA3A6694ED00B38E05014B091B1518EDFE511A5A9D228FD2A1F60CDEC7A67C6986DCE4D8D7A
310
69BA4AAB0C073EC548AA5C17952A33ECECD15B61B4E1CC686DBF9561A44423333CC098B3D268D7CE50AE9595CA02AA74216750749DB418E5352C32DCE59FB211BE70162ABA93DF8AFC244AE9073ED050C759670D0840D390E18DF9F1706664C23973AE2A66B62A605A75ACA4C13C4976E1364A12EF355A2EBD384AF65EFA96
310
BC7B8BED2EA6719AAE16FB8491A199335B351775B991C2CA02F390D2D40B028F861F41BCA68B7518BFD0D59A524686F29B26D7164F36B94AD9289CE54E6D1DE6010819891F6E21228B3AD1831EC219194284CF98F06DD01008846CC5A1BEF83801D4CBDC6A1303536877A57A513B0953A94FC707FDBE6064EA84A9E3E6E0FA
310
EE8CF0E9198F7784A316AA0413C2C2F2E0ECA0934D1AE6D05A69BCDE9E91D2A611F573361E38FC1375157F5752AE6B6DFE4B11990F88CCBF0719EE23FF02504B0304140006080800CC70623B408A7D3B7C0000009D0000000B0000006662782F636E782E786D6C4DCCD10A83201886E15B91FFDC552A92A0064DBC8F581632
310
D3703A76F9ABD1C18E3E78F878E5F0D9027ABBFCF2292AE86E2D20171F69F6715550CB827B40839639A5F2770314A7CD293819B45C73AAFB45B35BA61ACAA1C1C7E7855C58C15BC331339661262CC762340413D68D77DA5B42298546CBE6573AF60CEB2F504B0304140006080800CC70623B449FB9BD290100001202000031
310
0000006662782F36394639363044362D344446342D343946362D394244322D3234314243333846323333332F636F72652E786D6C8D515B6EC32010BC0AE22B55850D98B871848994463E412FE002495162B07854397EA176A4F62F3F2C9A9D991D587EB84F37F0AD7D30CEF6905418026DA553C65E7A98E219ED203808EE9D
310
8B7F6810D871D23D2C3014FCE25D9A57483A1BB58D19B54EE9151C43D0110279CB971E06F9A5A7B11A53CC8C70ADE6515EC78BAE4895DB992778883E0700CB907242D17643D7E2538BD869608875438BBAE38922CAC8F1BDD90DB4691A5E2F42C153326A951B95E398B3D1FE599322163C9AE9115F7A3D46ADA0A018778810
310
84E907617BDCEE297BC5BB3DC6BC2EF47FA234AB2745C9D8D8D035EE220B50105E2F0DC1954B9FB747187D9F9D8FA0CCDB042D5FA0C015C65B42DF78BD10F3F3B363CB56C7109DCFDFBBB97E662ED92EB62D13BC2E1BCAE5777DB9966D8A1F504B0304140006080800CC70623BAD7543B64E01000033030000300000006662
310
782F36394639363044362D344446342D343946362D394244322D3234314243333846323333332F636E782E786D6CD593CD6EC32010845F0571AD6CE3D48AD20813A9873E410FBD12D82434182C7EAAE6EDBB2424CD25871E7B41D6EC30B3FA84F9E67BB2E40B4234DE8DB46F1925E094D7C6ED479AD3AE5951B2113C789FEE
310
6C943839C1488B4C05DF079FE72A69D8C96C13AAD6B8631503449F83828872B949AC57D26200B826A308D316B4064D6E46FCDA41C05550DC9E483A00797BFD207EFB092A45DE9514C1BBD22178396BD39D891265658C238DEA00936C654E5E433CB65A26D9F6EDB5EBC14EBF49A45CB856E66048291F6939A9A81BB5C89177
310
38143CA680F4AA299D66A042CEB3354A2684DC9D8D178FE0D9B8B41CAAD720F880EE7EF93C0C18769E099ECC04D5A102C8049A8A05632F4DDF376CF1DE0F6BB65C2F8627B65A33C6BB62177CEBBDAD973006829F89F22E814B54F4BC2BE347F8AA8F681390B50FA73F804400B5F542E796F19FF974E7F78DB802FE05E20750
310
4B0304140006080800CC70623B8D05915C650500003B100000340000006662782F36394639363044362D344446342D343946362D394244322D3234314243333846323333332F6F626A656374732E786D6CAD575B6FA33814FE2B887D06429276DA1565D4266D158D3A339A6846FB502932E050B66023DB74D2FDF5FB190C01
310
9276B2973C046C8ECFF53B17071F77456EBD502133CEAE6CDF9DD81665314F32965ED995DA3A17B6F5310C04E7AA47665B8C14F4CAD6DB7618A48257A5D94AE89654B91AEDDEDDFC61C998326A5B714EA4BCB265FC440BE2924AF184CA6737218AB8E976E7FA6E4338649B0A523E8D98964450A6A029F619B8588D52FE7039
310
B1BD30F0F4F730D0FF866AF6369557DB33949F31A9088B0F848DD8CCFCF9F2767A76E99CCDE733677E3EF59D9BBB9BA5E37F984D16E78BC5E5F5ED25044B25C0C96822E8D60EEFE11B91C581D77CEA34368A1F5329E68CD1B8B61F16D63A1B8E092D294B10C78C4A48EB593D192E7DED9BDEE7995E1B91FDEDD3ACEA9FE831
310
6A756F9F7D4D79F4274C90A7A04248AA51D5F8C718DAE06FB2F75AC4796EBE65D22A88A22223B995679120E2D50E41AA49C260C046A35368846B0BECD0DFF3EBEB8AD4F835768F69B9ADF25C43D30E6B646F807FAA64AD59F61715C7A54127C4AACA98BA3006A9D792DAE165E0D59B61A01FB3A9F9D838D2DAE62445C86166
310
F37564E842E7DE6A69879FEEA2DD5AE7E371E1A5E025154AC307D06A03D73EB5978C58FFA4C8E9033066E0F3BD53BEC1F39F91BE7B55103791EDE6BBB991A2046172CB4581D8B893FA674DDA17A77B3B7C413D1B511FD2743BFF8A38F03A658705E3ADF8015C3A3417FF3D7E439FF591DA0B5F18BC20C1B8981957AE6392A3
310
F43C640C01D1A0B4728E2DD4F26DB4B3C3152A252A3B4E913CEC1C72F012782FF88EFF8637AA552DBEF76408E8A8DE9E50F9E1CB3A2DA0DB1B6039A893B56063DC5B3E3FFB5F72E67AB9FEB4AEC496C4F4C1149625DD662C53E89D7BF0F6151A046260D1337DFDC94502430F83B0EE07A130A224BCAD7DAE1D9FB6CD422FF6
310
920702629C4BB9AE79C12F243C6432A6794E18E5552BA56B431AAB5D91317302B2B071E86C3A42B1A02F999E24061403B5D0EB639195DA655DD3EBEAB4FB862DDF579F014AD0E73C22F99E28DA57FB98E75C6CA2D74D53086D600F4786E0FE3144B771A8A7B900F03594DB8A633CBC49B2EDB69228BB479CF863B5E807AAAB
310
23872F6DFEB4129B949CA33823F58830E86D65621E10047D9DB34D862E8EAC3C2ABC2F7B2C40D67CDFE01F5545B92105AF983AC54D93D69E56FB8E797F88913F898A9FEC705D3F9D1B54EC8426FB500D40A03BD0119B06E1B95DDC7EB8F6975367793EBD70E66733DFB9BC982F9CE564727731999F5D4ECFCE3B8D6A4DC2A0
310
6D50FD148437D110834A64C6CDDF57FBACB5C307A2A477DFE4939736CFEF2B175371E0E10CF0DD1D5C15654E0BCA14D1E87DD02FF93782A162C0A3D95F1524A52770F972BF1EE9809D13CE7DD599467F8ECE9ADD85CE85A34CD45355448C64F9E8A031DC2D596ACC6E5DD93D9B82DE2EF5CAF81363A8E47996A0DE24564A79
310
4115AACE09C55E14540231FDA13C319787134EBF34E3A022514E5B4D9E0826E25C02D5805B15ABE1BEF51B26383D445DD9E875EE33FE4C22DA16427D65A3BCA92CA6D28DD01DF5DC53330704308475351050232CCD31583787BA75774AFB06E5070DD0C8EF484E19968C5D83BA5B90B244D31E54D55A372320FE4786B7EA58
310
44E135AA5467CB7EA333A61683CC6A8C3257034C10CF46F40EF9F5BE59BE5BD30C3C72D235E95D10345C1D45445A5F0BB47E46A5EBE5570F9380B5FA629579952296A773720405982B9DE04011506178964401AA8BDF1FBF0A8EAB6861DD6580C0E38217056766716DAEB2D6FA0917D3E4116581EADB879C4E7CFFB11EFACD
310
3D641311495D92C8676CB409A72D18610D803CE8A626049E8EC1887CB5B44CC39883690DDA8399B4B9855B481E7D71D4A9D22F96E5BB73BF5793020C02137BF837504B0304140006080000CC70623B000000000000000000000000350000006662782F36394639363044362D344446342D343946362D394244322D32343142
310
43333846323333332F76657274696365732E62696E504B0304140006080800CC70623BF270F1330600000004000000360000006662782F36394639363044362D344446342D343946362D394244322D3234314243333846323333332F747269616E676C65732E62696E636660600000504B0304140006080000CC70623B0000
310
00000000000000000000370000006662782F36394639363044362D344446342D343946362D394244322D3234314243333846323333332F617474726962757465732E62696E504B0304140006080800CC70623B08DA0BD19000000041010000360000006662782F36394639363044362D344446342D343946362D394244322D
310
3234314243333846323333332F6469726563746F72792E786D6C858F410AC3201045AF22B36F53E9A60B35CBEEBAE80D244E44489C6234F4F835464A48035D0DF398FF9F8AF63D0E6CC63039F212F8F9020C7D47C6792B21C5FE7403D62A1188E2E60C98D7234A5830286103A55745067B9D86B8A3CF9C7F90C11DE607FB14
310
4396D7B6A82D282E9A152AD114D5EF2CB866EEE831B8EEA07A7BB5A8D7D61A2BAAEB7FD5F70921FF497D00504B0304140006080800CC70623BCA768048FE000000A00100003B0000006662782F36394639363044362D344446342D343946362D394244322D3234314243333846323333332F7265736F75726365732F636F72
310
652E786D6C8D50596E833010BD0A9ADFCA60D600328E9AA639412F609909B1126CE4A5EAF16B0295DABFFECC8CDEA2797AECF8353F924FB44E193D409E5248504B332A3D0D10FC95B4901C39B3C6F85F3248B49871801506CE266BC2B243D2688FDA47549B11775038871E12F988C7004EDE7016A9083E2ADC3D5D84BC8B09
310
D33C8D74D471E6BC8D0192EDC93A815B742658898E651BCB59086ADC356A8C3FD555A1055ED7E7E254D615792D0F075295F585746FF53B694EE78A565DD736979A65AB9933AFE69F8CD2A2F038022F28ED489E135A7CE4554F9BBEA85E68DB53CAB255FEC71496F19FA6A0B42F8B3DEE6673C0F318E4497096AD7DC5F52C33
310
EEB55BFE0D504B010214000A0000080000CC70623B3DEE336E79000000790000001B00000000000000000000000000000000006175746F6465736B2D64657369676E2D7061636B6167652E786D6C504B01021400140006080800CC70623BD486FD9CA0000000F40000001300000000000000000000000000B20000005B436F
310
6E74656E745F54797065735D2E786D6C504B01021400140006080800CC70623BD9DDAED0EC0000007C010000080000000000000000000000000083010000636F72652E786D6C504B01021400140006080800CC70623B55019EA25F0000007C000000070000000000000000000000000095020000636E782E786D6C504B0102
310
1400140006080800CC70623BA24EB22D72010000D40300000C00000000000000000000000000190300006662782F636F72652E786D6C504B01021400140006080800CC70623B408A7D3B7C0000009D0000000B00000000000000000000000000B50400006662782F636E782E786D6C504B01021400140006080800CC70623B
310
449FB9BD290100001202000031000000000000000000000000005A0500006662782F36394639363044362D344446342D343946362D394244322D3234314243333846323333332F636F72652E786D6C504B01021400140006080800CC70623BAD7543B64E010000330300003000000000000000000000000000D20600006662
310
782F36394639363044362D344446342D343946362D394244322D3234314243333846323333332F636E782E786D6C504B01021400140006080800CC70623B8D05915C650500003B10000034000000000000000000000000006E0800006662782F36394639363044362D344446342D343946362D394244322D32343142433338
310
46323333332F6F626A656374732E786D6C504B01021400140006080000CC70623B0000000000000000000000003500000000000000000000000000250E00006662782F36394639363044362D344446342D343946362D394244322D3234314243333846323333332F76657274696365732E62696E504B010214001400060808
310
00CC70623BF270F13306000000040000003600000000000000000000000000780E00006662782F36394639363044362D344446342D343946362D394244322D3234314243333846323333332F747269616E676C65732E62696E504B01021400140006080000CC70623B00000000000000000000000037000000000000000000
310
00000000D20E00006662782F36394639363044362D344446342D343946362D394244322D3234314243333846323333332F617474726962757465732E62696E504B01021400140006080800CC70623B08DA0BD190000000410100003600000000000000000000000000270F00006662782F36394639363044362D344446342D
310
343946362D394244322D3234314243333846323333332F6469726563746F72792E786D6C504B01021400140006080800CC70623BCA768048FE000000A00100003B000000000000000000000000000B1000006662782F36394639363044362D344446342D343946362D394244322D3234314243333846323333332F7265736F
310
75726365732F636F72652E786D6C504B0506000000000E000E0080040000621100000000
  0
XRECORD
  5
176
102
{ACAD_REACTORS
330
173
102
}
330
173
100
AcDbXrecord
280
     1
270
     1
271
     1
  0
XRECORD
  5
177
102
{ACAD_REACTORS
330
173
102
}
330
173
100
AcDbXrecord
280
     1
270
     1
271
     1
  0
CELLSTYLEMAP
  5
62B
102
{ACAD_REACTORS
330
162
102
}
330
162
100
AcDbCellStyleMap
 90
        3
300
CELLSTYLE
  1
TABLEFORMAT_BEGIN
 90
        5
170
     1
 91
        0
 92
    32768
 62
   257
 93
        1
300
CONTENTFORMAT
  1
CONTENTFORMAT_BEGIN
 90
        0
 91
        0
 92
      512
 93
        0
300

 40
0.0
140
1.0
 94
        5
 62
     0
340
11
144
6.0
309
CONTENTFORMAT_END
171
     1
301
MARGIN
  1
CELLMARGIN_BEGIN
 40
1.5
 40
1.5
 40
1.5
 40
1.5
 40
4.5
 40
4.5
309
CELLMARGIN_END
 94
        6
 95
        1
302
GRIDFORMAT
  1
GRIDFORMAT_BEGIN
 90
        0
 91
        1
 62
     0
 92
       -2
340
14
 93
        0
 40
1.125
309
GRIDFORMAT_END
 95
        2
302
GRIDFORMAT
  1
GRIDFORMAT_BEGIN
 90
        0
 91
        1
 62
     0
 92
       -2
340
14
 93
        0
 40
1.125
309
GRIDFORMAT_END
 95
        4
302
GRIDFORMAT
  1
GRIDFORMAT_BEGIN
 90
        0
 91
        1
 62
     0
 92
       -2
340
14
 93
        0
 40
1.125
309
GRIDFORMAT_END
 95
        8
302
GRIDFORMAT
  1
GRIDFORMAT_BEGIN
 90
        0
 91
        1
 62
     0
 92
       -2
340
14
 93
        0
 40
1.125
309
GRIDFORMAT_END
 95
       16
302
GRIDFORMAT
  1
GRIDFORMAT_BEGIN
 90
        0
 91
        1
 62
     0
 92
       -2
340
14
 93
        0
 40
1.125
309
GRIDFORMAT_END
 95
       32
302
GRIDFORMAT
  1
GRIDFORMAT_BEGIN
 90
        0
 91
        1
 62
     0
 92
       -2
340
14
 93
        0
 40
1.125
309
GRIDFORMAT_END
309
TABLEFORMAT_END
  1
CELLSTYLE_BEGIN
 90
        1
 91
        1
300
_TITLE
309
CELLSTYLE_END
300
CELLSTYLE
  1
TABLEFORMAT_BEGIN
 90
        5
170
     1
 91
        0
 92
        0
 62
   257
 93
        1
300
CONTENTFORMAT
  1
CONTENTFORMAT_BEGIN
 90
        0
 91
        0
 92
      512
 93
        0
300

 40
0.0
140
1.0
 94
        5
 62
     0
340
11
144
4.5
309
CONTENTFORMAT_END
171
     1
301
MARGIN
  1
CELLMARGIN_BEGIN
 40
1.5
 40
1.5
 40
1.5
 40
1.5
 40
4.5
 40
4.5
309
CELLMARGIN_END
 94
        6
 95
        1
302
GRIDFORMAT
  1
GRIDFORMAT_BEGIN
 90
        0
 91
        1
 62
     0
 92
       -2
340
14
 93
        0
 40
1.125
309
GRIDFORMAT_END
 95
        2
302
GRIDFORMAT
  1
GRIDFORMAT_BEGIN
 90
        0
 91
        1
 62
     0
 92
       -2
340
14
 93
        0
 40
1.125
309
GRIDFORMAT_END
 95
        4
302
GRIDFORMAT
  1
GRIDFORMAT_BEGIN
 90
        0
 91
        1
 62
     0
 92
       -2
340
14
 93
        0
 40
1.125
309
GRIDFORMAT_END
 95
        8
302
GRIDFORMAT
  1
GRIDFORMAT_BEGIN
 90
        0
 91
        1
 62
     0
 92
       -2
340
14
 93
        0
 40
1.125
309
GRIDFORMAT_END
 95
       16
302
GRIDFORMAT
  1
GRIDFORMAT_BEGIN
 90
        0
 91
        1
 62
     0
 92
       -2
340
14
 93
        0
 40
1.125
309
GRIDFORMAT_END
 95
       32
302
GRIDFORMAT
  1
GRIDFORMAT_BEGIN
 90
        0
 91
        1
 62
     0
 92
       -2
340
14
 93
        0
 40
1.125
309
GRIDFORMAT_END
309
TABLEFORMAT_END
  1
CELLSTYLE_BEGIN
 90
        2
 91
        1
300
_HEADER
309
CELLSTYLE_END
300
CELLSTYLE
  1
TABLEFORMAT_BEGIN
 90
        5
170
     1
 91
        0
 92
        0
 62
   257
 93
        1
300
CONTENTFORMAT
  1
CONTENTFORMAT_BEGIN
 90
        0
 91
        0
 92
      512
 93
        0
300

 40
0.0
140
1.0
 94
        2
 62
     0
340
11
144
4.5
309
CONTENTFORMAT_END
171
     1
301
MARGIN
  1
CELLMARGIN_BEGIN
 40
1.5
 40
1.5
 40
1.5
 40
1.5
 40
4.5
 40
4.5
309
CELLMARGIN_END
 94
        6
 95
        1
302
GRIDFORMAT
  1
GRIDFORMAT_BEGIN
 90
        0
 91
        1
 62
     0
 92
       -2
340
14
 93
        0
 40
1.125
309
GRIDFORMAT_END
 95
        2
302
GRIDFORMAT
  1
GRIDFORMAT_BEGIN
 90
        0
 91
        1
 62
     0
 92
       -2
340
14
 93
        0
 40
1.125
309
GRIDFORMAT_END
 95
        4
302
GRIDFORMAT
  1
GRIDFORMAT_BEGIN
 90
        0
 91
        1
 62
     0
 92
       -2
340
14
 93
        0
 40
1.125
309
GRIDFORMAT_END
 95
        8
302
GRIDFORMAT
  1
GRIDFORMAT_BEGIN
 90
        0
 91
        1
 62
     0
 92
       -2
340
14
 93
        0
 40
1.125
309
GRIDFORMAT_END
 95
       16
302
GRIDFORMAT
  1
GRIDFORMAT_BEGIN
 90
        0
 91
        1
 62
     0
 92
       -2
340
14
 93
        0
 40
1.125
309
GRIDFORMAT_END
 95
       32
302
GRIDFORMAT
  1
GRIDFORMAT_BEGIN
 90
        0
 91
        1
 62
     0
 92
       -2
340
14
 93
        0
 40
1.125
309
GRIDFORMAT_END
309
TABLEFORMAT_END
  1
CELLSTYLE_BEGIN
 90
        3
 91
        2
300
_DATA
309
CELLSTYLE_END
  0
ENDSEC
  0
SECTION
  2
ACDSDATA
 70
     2
 71
     8
  0
ACDSSCHEMA
 90
        0
  1
AcDb_Thumbnail_Schema
  2
AcDbDs::ID
280
    10
 91
        8
  2
Thumbnail_Data
280
    15
 91
        0
101
ACDSRECORD
 95
        0
 90
        1
  2
AcDbDs::TreatedAsObjectData
280
     1
291
     1
101
ACDSRECORD
 95
        0
 90
        2
  2
AcDbDs::Legacy
280
     1
291
     1
101
ACDSRECORD
  1
AcDbDs::ID
 90
        3
  2
AcDs:Indexable
280
     1
291
     1
101
ACDSRECORD
  1
AcDbDs::ID
 90
        4
  2
AcDbDs::HandleAttribute
280
     7
282
     1
  0
ACDSSCHEMA
 90
        1
  1
AcDbDs::TreatedAsObjectDataSchema
  2
AcDbDs::TreatedAsObjectData
280
     1
 91
        0
  0
ACDSSCHEMA
 90
        2
  1
AcDbDs::LegacySchema
  2
AcDbDs::Legacy
280
     1
 91
        0
  0
ACDSSCHEMA
 90
        3
  1
AcDbDs::IndexedPropertySchema
  2
AcDs:Indexable
280
     1
 91
        0
  0
ACDSSCHEMA
 90
        4
  1
AcDbDs::HandleAttributeSchema
  2
AcDbDs::HandleAttribute
280
     7
 91
        1
284
     1
  0
ACDSRECORD
 90
        0
  2
AcDbDs::ID
280
    10
320
22
  2
Thumbnail_Data
280
    15
 94
      896
310
89504E470D0A1A0A0000000D49484452000001000000009108030000001BE1960600000300504C5445212830FFFFFF2128300000000000000000000000000000000000000000000000000000330000660000990000CC0000FF0033000033330033660033990033CC0033FF0066000066330066660066990066CC0066FF0099
310
000099330099660099990099CC0099FF00CC0000CC3300CC6600CC9900CCCC00CCFF00FF0000FF3300FF6600FF9900FFCC00FFFF3300003300333300663300993300CC3300FF3333003333333333663333993333CC3333FF3366003366333366663366993366CC3366FF3399003399333399663399993399CC3399FF33CC00
310
33CC3333CC6633CC9933CCCC33CCFF33FF0033FF3333FF6633FF9933FFCC33FFFF6600006600336600666600996600CC6600FF6633006633336633666633996633CC6633FF6666006666336666666666996666CC6666FF6699006699336699666699996699CC6699FF66CC0066CC3366CC6666CC9966CCCC66CCFF66FF0066
310
FF3366FF6666FF9966FFCC66FFFF9900009900339900669900999900CC9900FF9933009933339933669933999933CC9933FF9966009966339966669966999966CC9966FF9999009999339999669999999999CC9999FF99CC0099CC3399CC6699CC9999CCCC99CCFF99FF0099FF3399FF6699FF9999FFCC99FFFFCC0000CC00
310
33CC0066CC0099CC00CCCC00FFCC3300CC3333CC3366CC3399CC33CCCC33FFCC6600CC6633CC6666CC6699CC66CCCC66FFCC9900CC9933CC9966CC9999CC99CCCC99FFCCCC00CCCC33CCCC66CCCC99CCCCCCCCCCFFCCFF00CCFF33CCFF66CCFF99CCFFCCCCFFFFFF0000FF0033FF0066FF0099FF00CCFF00FFFF3300FF3333
310
FF3366FF3399FF33CCFF33FFFF6600FF6633FF6666FF6699FF66CCFF66FFFF9900FF9933FF9966FF9999FF99CCFF99FFFFCC00FFCC33FFCC66FFCC99FFCCCCFFCCFFFFFF00FFFF33FFFF66FFFF99FFFFCCFFFFFF0000000D0D0D1A1A1A2828283535354343435050505D5D5D6B6B6B787878868686939393A1A1A1AEAEAEBB
310
BBBBC9C9C9D6D6D6E4E4E4F1F1F1FFFFFF0000000000000000000000000000000000000000000000000000000000002E4550F10000003B4944415478DAEDC13101000000C2A0F54F6D0B2FA0000000000000000000000000000000000000000000000000000000000000000000000000CE06919100016C9A5B1B0000000049
310
454E44AE426082
  0
ENDSEC
  0
EOF
